  0
SECTION
  2
HEADER
  9
$ACADVER
  1
AC1024
  9
$ACADMAINTVER
 70
     6
  9
$DWGCODEPAGE
  3
ANSI_932
  9
$INSBASE
 10
0.0
 20
0.0
 30
0.0
  9
$EXTMIN
 10
-8910.0
 20
-6300.0
 30
0.0
  9
$EXTMAX
 10
8910.0
 20
6300.0
 30
0.0
  9
$LIMMIN
 10
-8910.0
 20
-6300.0
  9
$LIMMAX
 10
8910.0
 20
6300.0
  9
$ORTHOMODE
 70
     0
  9
$REGENMODE
 70
     1
  9
$FILLMODE
 70
     1
  9
$QTEXTMODE
 70
     0
  9
$MIRRTEXT
 70
     1
  9
$LTSCALE
 40
30.0
  9
$ATTMODE
 70
     1
  9
$TEXTSIZE
 40
2.5
  9
$TRACEWID
 40
1.0
  9
$TEXTSTYLE
  7
Standard
  9
$CLAYER
  8
0
  9
$CELTYPE
  6
ByLayer
  9
$CECOLOR
 62
   256
  9
$CELTSCALE
 40
1.0
  9
$DISPSILH
 70
     0
  9
$DIMSCALE
 40
1.0
  9
$DIMASZ
 40
2.5
  9
$DIMEXO
 40
0.625
  9
$DIMDLI
 40
3.75
  9
$DIMRND
 40
0.0
  9
$DIMDLE
 40
0.0
  9
$DIMEXE
 40
1.25
  9
$DIMTP
 40
0.0
  9
$DIMTM
 40
0.0
  9
$DIMTXT
 40
2.5
  9
$DIMCEN
 40
2.5
  9
$DIMTSZ
 40
0.0
  9
$DIMTOL
 70
     0
  9
$DIMLIM
 70
     0
  9
$DIMTIH
 70
     0
  9
$DIMTOH
 70
     0
  9
$DIMSE1
 70
     0
  9
$DIMSE2
 70
     0
  9
$DIMTAD
 70
     1
  9
$DIMZIN
 70
     8
  9
$DIMBLK
  1

  9
$DIMASO
 70
     1
  9
$DIMSHO
 70
     1
  9
$DIMPOST
  1

  9
$DIMAPOST
  1

  9
$DIMALT
 70
     0
  9
$DIMALTD
 70
     3
  9
$DIMALTF
 40
0.03937007874016
  9
$DIMLFAC
 40
1.0
  9
$DIMTOFL
 70
     1
  9
$DIMTVP
 40
0.0
  9
$DIMTIX
 70
     0
  9
$DIMSOXD
 70
     0
  9
$DIMSAH
 70
     0
  9
$DIMBLK1
  1

  9
$DIMBLK2
  1

  9
$DIMSTYLE
  2
ISO-25
  9
$DIMCLRD
 70
     0
  9
$DIMCLRE
 70
     0
  9
$DIMCLRT
 70
     0
  9
$DIMTFAC
 40
1.0
  9
$DIMGAP
 40
0.625
  9
$DIMJUST
 70
     0
  9
$DIMSD1
 70
     0
  9
$DIMSD2
 70
     0
  9
$DIMTOLJ
 70
     0
  9
$DIMTZIN
 70
     8
  9
$DIMALTZ
 70
     0
  9
$DIMALTTZ
 70
     0
  9
$DIMUPT
 70
     0
  9
$DIMDEC
 70
     2
  9
$DIMTDEC
 70
     2
  9
$DIMALTU
 70
     2
  9
$DIMALTTD
 70
     3
  9
$DIMTXSTY
  7
Standard
  9
$DIMAUNIT
 70
     0
  9
$DIMADEC
 70
     0
  9
$DIMALTRND
 40
0.0
  9
$DIMAZIN
 70
     0
  9
$DIMDSEP
 70
    44
  9
$DIMATFIT
 70
     3
  9
$DIMFRAC
 70
     0
  9
$DIMLDRBLK
  1

  9
$DIMLUNIT
 70
     2
  9
$DIMLWD
 70
    -2
  9
$DIMLWE
 70
    -2
  9
$DIMTMOVE
 70
     0
  9
$DIMFXL
 40
1.0
  9
$DIMFXLON
 70
     0
  9
$DIMJOGANG
 40
0.7853981633974483
  9
$DIMTFILL
 70
     0
  9
$DIMTFILLCLR
 70
     0
  9
$DIMARCSYM
 70
     0
  9
$DIMLTYPE
  6

  9
$DIMLTEX1
  6

  9
$DIMLTEX2
  6

  9
$DIMTXTDIRECTION
 70
     0
  9
$LUNITS
 70
     2
  9
$LUPREC
 70
     4
  9
$SKETCHINC
 40
1.0
  9
$FILLETRAD
 40
10.0
  9
$AUNITS
 70
     0
  9
$AUPREC
 70
     0
  9
$MENU
  1
.
  9
$ELEVATION
 40
0.0
  9
$PELEVATION
 40
0.0
  9
$THICKNESS
 40
0.0
  9
$LIMCHECK
 70
     0
  9
$CHAMFERA
 40
10.0
  9
$CHAMFERB
 40
10.0
  9
$CHAMFERC
 40
20.0
  9
$CHAMFERD
 40
0.0
  9
$SKPOLY
 70
     0
  9
$TDCREATE
 40
2460299.634241319
  9
$TDUCREATE
 40
2460299.259241319
  9
$TDUPDATE
 40
2460299.634241331
  9
$TDUUPDATE
 40
2460299.259241331
  9
$TDINDWG
 40
0.0000000116
  9
$TDUSRTIMER
 40
0.0000000116
  9
$USRTIMER
 70
     1
  9
$ANGBASE
 50
0.0
  9
$ANGDIR
 70
     0
  9
$PDMODE
 70
     0
  9
$PDSIZE
 40
0.0
  9
$PLINEWID
 40
0.0
  9
$SPLFRAME
 70
     0
  9
$SPLINETYPE
 70
     6
  9
$SPLINESEGS
 70
     8
  9
$HANDSEED
  5
32E
  9
$SURFTAB1
 70
     6
  9
$SURFTAB2
 70
     6
  9
$SURFTYPE
 70
     6
  9
$SURFU
 70
     6
  9
$SURFV
 70
     6
  9
$UCSBASE
  2

  9
$UCSNAME
  2

  9
$UCSORG
 10
0.0
 20
0.0
 30
0.0
  9
$UCSXDIR
 10
1.0
 20
0.0
 30
0.0
  9
$UCSYDIR
 10
0.0
 20
1.0
 30
0.0
  9
$UCSORTHOREF
  2

  9
$UCSORTHOVIEW
 70
     0
  9
$UCSORGTOP
 10
0.0
 20
0.0
 30
0.0
  9
$UCSORGBOTTOM
 10
0.0
 20
0.0
 30
0.0
  9
$UCSORGLEFT
 10
0.0
 20
0.0
 30
0.0
  9
$UCSORGRIGHT
 10
0.0
 20
0.0
 30
0.0
  9
$UCSORGFRONT
 10
0.0
 20
0.0
 30
0.0
  9
$UCSORGBACK
 10
0.0
 20
0.0
 30
0.0
  9
$PUCSBASE
  2

  9
$PUCSNAME
  2

  9
$PUCSORG
 10
0.0
 20
0.0
 30
0.0
  9
$PUCSXDIR
 10
1.0
 20
0.0
 30
0.0
  9
$PUCSYDIR
 10
0.0
 20
1.0
 30
0.0
  9
$PUCSORTHOREF
  2

  9
$PUCSORTHOVIEW
 70
     0
  9
$PUCSORGTOP
 10
0.0
 20
0.0
 30
0.0
  9
$PUCSORGBOTTOM
 10
0.0
 20
0.0
 30
0.0
  9
$PUCSORGLEFT
 10
0.0
 20
0.0
 30
0.0
  9
$PUCSORGRIGHT
 10
0.0
 20
0.0
 30
0.0
  9
$PUCSORGFRONT
 10
0.0
 20
0.0
 30
0.0
  9
$PUCSORGBACK
 10
0.0
 20
0.0
 30
0.0
  9
$USERI1
 70
     0
  9
$USERI2
 70
     0
  9
$USERI3
 70
     0
  9
$USERI4
 70
     0
  9
$USERI5
 70
     0
  9
$USERR1
 40
0.0
  9
$USERR2
 40
0.0
  9
$USERR3
 40
0.0
  9
$USERR4
 40
0.0
  9
$USERR5
 40
0.0
  9
$WORLDVIEW
 70
     1
  9
$SHADEDGE
 70
     3
  9
$SHADEDIF
 70
    70
  9
$TILEMODE
 70
     1
  9
$MAXACTVP
 70
    64
  9
$PINSBASE
 10
0.0
 20
0.0
 30
0.0
  9
$PLIMCHECK
 70
     0
  9
$PEXTMIN
 10
1.000000000000000E+20
 20
1.000000000000000E+20
 30
1.000000000000000E+20
  9
$PEXTMAX
 10
-1.000000000000000E+20
 20
-1.000000000000000E+20
 30
-1.000000000000000E+20
  9
$PLIMMIN
 10
0.0
 20
0.0
  9
$PLIMMAX
 10
420.0
 20
297.0
  9
$UNITMODE
 70
     0
  9
$VISRETAIN
 70
     1
  9
$PLINEGEN
 70
     0
  9
$PSLTSCALE
 70
     1
  9
$TREEDEPTH
 70
  3020
  9
$CMLSTYLE
  2
Standard
  9
$CMLJUST
 70
     0
  9
$CMLSCALE
 40
20.0
  9
$PROXYGRAPHICS
 70
     1
  9
$MEASUREMENT
 70
     1
  9
$CELWEIGHT
370
    -1
  9
$ENDCAPS
280
     0
  9
$JOINSTYLE
280
     0
  9
$LWDISPLAY
290
     0
  9
$INSUNITS
 70
     4
  9
$HYPERLINKBASE
  1

  9
$STYLESHEET
  1

  9
$XEDIT
290
     1
  9
$CEPSNTYPE
380
     0
  9
$PSTYLEMODE
290
     1
  9
$FINGERPRINTGUID
  2
{DC93DDF9-C08D-45FC-8972-75FEA4D70BEF}
  9
$VERSIONGUID
  2
{FAEB1C32-E019-11D5-929B-00C0DF256EC4}
  9
$EXTNAMES
290
     1
  9
$PSVPSCALE
 40
0.0
  9
$OLESTARTUP
290
     0
  9
$SORTENTS
280
   127
  9
$INDEXCTL
280
     0
  9
$HIDETEXT
280
     1
  9
$XCLIPFRAME
280
     2
  9
$HALOGAP
280
     0
  9
$OBSCOLOR
 70
   257
  9
$OBSLTYPE
280
     0
  9
$INTERSECTIONDISPLAY
280
     0
  9
$INTERSECTIONCOLOR
 70
   257
  9
$DIMASSOC
280
     2
  9
$PROJECTNAME
  1

  9
$CAMERADISPLAY
290
     0
  9
$LENSLENGTH
 40
50.0
  9
$CAMERAHEIGHT
 40
0.0
  9
$STEPSPERSEC
 40
2.0
  9
$STEPSIZE
 40
6.0
  9
$3DDWFPREC
 40
2.0
  9
$PSOLWIDTH
 40
5.0
  9
$PSOLHEIGHT
 40
80.0
  9
$LOFTANG1
 40
1.570796326794897
  9
$LOFTANG2
 40
1.570796326794897
  9
$LOFTMAG1
 40
0.0
  9
$LOFTMAG2
 40
0.0
  9
$LOFTPARAM
 70
     7
  9
$LOFTNORMALS
280
     1
  9
$LATITUDE
 40
37.795
  9
$LONGITUDE
 40
-122.394
  9
$NORTHDIRECTION
 40
0.0
  9
$TIMEZONE
 70
 -8000
  9
$LIGHTGLYPHDISPLAY
280
     1
  9
$TILEMODELIGHTSYNCH
280
     1
  9
$SOLIDHIST
280
     1
  9
$SHOWHIST
280
     1
  9
$DWFFRAME
280
     2
  9
$DGNFRAME
280
     2
  9
$REALWORLDSCALE
290
     1
  9
$INTERFERECOLOR
 62
   256
  9
$CSHADOW
280
     0
  9
$SHADOWPLANELOCATION
 40
0.0
  0
ENDSEC
  0
SECTION
  2
CLASSES
  0
CLASS
  1
ACDBDICTIONARYWDFLT
  2
AcDbDictionaryWithDefault
  3
ObjectDBX Classes
 90
        0
 91
        4
280
     0
281
     0
  0
CLASS
  1
VISUALSTYLE
  2
AcDbVisualStyle
  3
ObjectDBX Classes
 90
     4095
 91
        4
280
     0
281
     0
  0
CLASS
  1
MATERIAL
  2
AcDbMaterial
  3
ObjectDBX Classes
 90
     1153
 91
        4
280
     0
281
     0
  0
ENDSEC
  0
SECTION
  2
TABLES
  0
TABLE
  2
VPORT
  5
8
330
0
100
AcDbSymbolTable
 70
     1
  0
VPORT
  5
29
330
8
100
AcDbSymbolTableRecord
100
AcDbViewportTableRecord
  2
*Active
 70
     0
 10
0.0
 20
0.0
 11
1.0
 21
1.0
 12
0.0
 22
0.0
 13
0.0
 23
0.0
 14
10.0
 24
10.0
 15
10.0
 25
10.0
 16
0.0
 26
0.0
 36
1.0
 17
0.0
 27
0.0
 37
0.0
 40
13860.0
 41
1.414285714285714
 42
50.0
 43
0.0
 44
0.0
 50
0.0
 51
0.0
 71
     0
 72
 10000
 73
     1
 74
     3
 75
     0
 76
     0
 77
     0
 78
     0
281
     0
 65
     1
110
0.0
120
0.0
130
0.0
111
1.0
121
0.0
131
0.0
112
0.0
122
1.0
132
0.0
 79
     0
146
0.0
 60
     3
 61
     5
292
     1
282
     1
141
0.0
142
0.0
 63
   250
  0
ENDTAB
  0
TABLE
  2
LTYPE
  5
5
330
0
100
AcDbSymbolTable
 70
     5
  0
LTYPE
  5
14
330
5
100
AcDbSymbolTableRecord
100
AcDbLinetypeTableRecord
  2
ByBlock
 70
     0
  3

 72
    65
 73
     0
 40
0.0
  0
LTYPE
  5
15
330
5
100
AcDbSymbolTableRecord
100
AcDbLinetypeTableRecord
  2
ByLayer
 70
     0
  3

 72
    65
 73
     0
 40
0.0
  0
LTYPE
  5
16
330
5
100
AcDbSymbolTableRecord
100
AcDbLinetypeTableRecord
  2
Continuous
 70
     0
  3
Solid line
 72
    65
 73
     0
 40
0.0
  0
LTYPE
  5
3F
330
5
100
AcDbSymbolTableRecord
100
AcDbLinetypeTableRecord
  2
JWW_HOJO
 70
     0
  3
  -   -   -   -   -   -   -   - 
 72
    65
 73
     2
 40
1.693333333333333
 49
-1.27
 74
     0
 49
0.4233333333333333
 74
     0
  0
LTYPE
  5
40
330
5
100
AcDbSymbolTableRecord
100
AcDbLinetypeTableRecord
  2
JWW_CENTER1
 70
     0
  3
-----  --  ----------  --  -----
 72
    65
 73
     4
 40
6.773333333333333
 49
4.233333333333333
 74
     0
 49
-0.8466666666666667
 74
     0
 49
0.8466666666666667
 74
     0
 49
-0.8466666666666667
 74
     0
  0
LTYPE
  5
41
330
5
100
AcDbSymbolTableRecord
100
AcDbLinetypeTableRecord
  2
JWW_DASHED1
 70
     0
  3
-  --  --  --  --  --  --  --  -
 72
    65
 73
     2
 40
1.693333333333333
 49
0.8466666666666667
 74
     0
 49
-0.8466666666666667
 74
     0
  0
LTYPE
  5
42
330
5
100
AcDbSymbolTableRecord
100
AcDbLinetypeTableRecord
  2
JWW_DASHED2
 70
     0
  3
--    ----    ----    ----    --
 72
    65
 73
     2
 40
3.386666666666667
 49
1.693333333333333
 74
     0
 49
-1.693333333333333
 74
     0
  0
ENDTAB
  0
TABLE
  2
LAYER
  5
2
330
0
100
AcDbSymbolTable
 70
    14
  0
LAYER
  5
10
330
2
100
AcDbSymbolTableRecord
100
AcDbLayerTableRecord
  2
0
 70
     0
 62
     7
  6
Continuous
370
    -3
390
F
347
3E
  0
LAYER
  5
43
330
2
100
AcDbSymbolTableRecord
100
AcDbLayerTableRecord
  2
F-0_補助線
 70
     0
 62
     7
  6
Continuous
370
    -3
390
F
347
3E
  0
LAYER
  5
44
330
2
100
AcDbSymbolTableRecord
100
AcDbLayerTableRecord
  2
F-1_枠
 70
     0
 62
     7
  6
Continuous
370
    -3
390
F
347
3E
  0
LAYER
  5
45
330
2
100
AcDbSymbolTableRecord
100
AcDbLayerTableRecord
  2
F-A_文字
 70
     0
 62
     7
  6
Continuous
370
    -3
390
F
347
3E
  0
LAYER
  5
46
330
2
100
AcDbSymbolTableRecord
100
AcDbLayerTableRecord
  2
0-A_文字
 70
     0
 62
     7
  6
Continuous
370
    -3
390
F
347
3E
  0
LAYER
  5
47
330
2
100
AcDbSymbolTableRecord
100
AcDbLayerTableRecord
  2
0-0_補助線
 70
     0
 62
     7
  6
Continuous
370
    -3
390
F
347
3E
  0
LAYER
  5
48
330
2
100
AcDbSymbolTableRecord
100
AcDbLayerTableRecord
  2
0-1_通り芯
 70
     0
 62
     7
  6
Continuous
370
    -3
390
F
347
3E
  0
LAYER
  5
49
330
2
100
AcDbSymbolTableRecord
100
AcDbLayerTableRecord
  2
ハッチ
 70
     0
 62
     7
  6
Continuous
370
    -3
390
F
347
3E
  0
LAYER
  5
4A
330
2
100
AcDbSymbolTableRecord
100
AcDbLayerTableRecord
  2
仕上げ
 70
     0
 62
     7
  6
Continuous
370
    -3
390
F
347
3E
  0
LAYER
  5
4B
330
2
100
AcDbSymbolTableRecord
100
AcDbLayerTableRecord
  2
0-4_枠
 70
     0
 62
     7
  6
Continuous
370
    -3
390
F
347
3E
  0
LAYER
  5
4C
330
2
100
AcDbSymbolTableRecord
100
AcDbLayerTableRecord
  2
0-B_寸法
 70
     0
 62
     7
  6
Continuous
370
    -3
390
F
347
3E
  0
LAYER
  5
4D
330
2
100
AcDbSymbolTableRecord
100
AcDbLayerTableRecord
  2
0-6_扉
 70
     0
 62
     7
  6
Continuous
370
    -3
390
F
347
3E
  0
LAYER
  5
4E
330
2
100
AcDbSymbolTableRecord
100
AcDbLayerTableRecord
  2
0-7_金物
 70
     0
 62
     7
  6
Continuous
370
    -3
390
F
347
3E
  0
LAYER
  5
4F
330
2
100
AcDbSymbolTableRecord
100
AcDbLayerTableRecord
  2
戸当り
 70
     0
 62
     7
  6
Continuous
370
    -3
390
F
347
3E
  0
ENDTAB
  0
TABLE
  2
STYLE
  5
3
330
0
100
AcDbSymbolTable
 70
     1
  0
STYLE
  5
11
330
3
100
AcDbSymbolTableRecord
100
AcDbTextStyleTableRecord
  2
Standard
 70
     0
 40
0.0
 41
1.0
 50
0.0
 71
     0
 42
2.5
  3
txt
  4

  0
ENDTAB
  0
TABLE
  2
VIEW
  5
6
330
0
100
AcDbSymbolTable
 70
     0
  0
ENDTAB
  0
TABLE
  2
UCS
  5
7
330
0
100
AcDbSymbolTable
 70
     0
  0
ENDTAB
  0
TABLE
  2
APPID
  5
9
330
0
100
AcDbSymbolTable
 70
     1
  0
APPID
  5
12
330
9
100
AcDbSymbolTableRecord
100
AcDbRegAppTableRecord
  2
ACAD
 70
     0
  0
ENDTAB
  0
TABLE
  2
DIMSTYLE
  5
A
330
0
100
AcDbSymbolTable
 70
     1
100
AcDbDimStyleTable
  0
DIMSTYLE
105
27
330
A
100
AcDbSymbolTableRecord
100
AcDbDimStyleTableRecord
  2
ISO-25
 70
     0
 41
2.5
 42
0.625
 43
3.75
 44
1.25
 73
     0
 74
     0
 77
     1
 78
     8
140
2.5
141
2.5
143
0.03937007874016
147
0.625
171
     3
172
     1
178
     0
271
     2
272
     2
274
     3
278
    44
283
     0
284
     8
340
11
  0
ENDTAB
  0
TABLE
  2
BLOCK_RECORD
  5
1
330
0
100
AcDbSymbolTable
 70
     3
  0
BLOCK_RECORD
  5
1F
330
1
100
AcDbSymbolTableRecord
100
AcDbBlockTableRecord
  2
*Model_Space
340
22
 70
     0
280
     1
281
     0
  0
BLOCK_RECORD
  5
1B
330
1
100
AcDbSymbolTableRecord
100
AcDbBlockTableRecord
  2
*Paper_Space
340
1E
 70
     0
280
     1
281
     0
  0
BLOCK_RECORD
  5
23
330
1
100
AcDbSymbolTableRecord
100
AcDbBlockTableRecord
  2
*Paper_Space0
340
26
 70
     0
280
     1
281
     0
  0
BLOCK_RECORD
  5
50
330
1
100
AcDbSymbolTableRecord
100
AcDbBlockTableRecord
  2
2@@SfigorgFlag@@4
340
0
102
{BLKREFS
331
16D
331
210
102
}
 70
     0
280
     1
281
     0
  0
BLOCK_RECORD
  5
53
330
1
100
AcDbSymbolTableRecord
100
AcDbBlockTableRecord
  2
01@@SfigorgFlag@@4
340
0
102
{BLKREFS
331
16E
102
}
 70
     0
280
     1
281
     0
  0
ENDTAB
  0
ENDSEC
  0
SECTION
  2
BLOCKS
  0
BLOCK
  5
20
330
1F
100
AcDbEntity
  8
0
100
AcDbBlockBegin
  2
*Model_Space
 70
     0
 10
0.0
 20
0.0
 30
0.0
  3
*Model_Space
  1

  0
ENDBLK
  5
21
330
1F
100
AcDbEntity
  8
0
100
AcDbBlockEnd
  0
BLOCK
  5
1C
330
1B
100
AcDbEntity
 67
     1
  8
0
100
AcDbBlockBegin
  2
*Paper_Space
 70
     0
 10
0.0
 20
0.0
 30
0.0
  3
*Paper_Space
  1

  0
ENDBLK
  5
1D
330
1B
100
AcDbEntity
 67
     1
  8
0
100
AcDbBlockEnd
  0
BLOCK
  5
24
330
23
100
AcDbEntity
  8
0
100
AcDbBlockBegin
  2
*Paper_Space0
 70
     0
 10
0.0
 20
0.0
 30
0.0
  3
*Paper_Space0
  1

  0
ENDBLK
  5
25
330
23
100
AcDbEntity
  8
0
100
AcDbBlockEnd
  0
BLOCK
  5
51
330
50
100
AcDbEntity
  8
0
100
AcDbBlockBegin
  2
2@@SfigorgFlag@@4
 70
     0
 10
0.0
 20
0.0
 30
0.0
  3
2@@SfigorgFlag@@4
  1

  0
ARC
  5
2A6
330
50
100
AcDbEntity
  8
0-0_補助線
  6
Continuous
 62
     7
370
     9
100
AcDbCircle
 10
-1.629130730832998
 20
-1.784377180280984
 30
0.0
 40
0.06
100
AcDbArc
 50
180.0
 51
270.0
  0
LINE
  5
2A7
330
50
100
AcDbEntity
  8
0-0_補助線
  6
Continuous
 62
     7
370
     9
100
AcDbLine
 10
-0.3091307308329974
 20
-1.844377180280972
 30
0.0
 11
-1.629130730832998
 21
-1.844377180280972
 31
0.0
  0
ARC
  5
2A8
330
50
100
AcDbEntity
  8
0-0_補助線
  6
Continuous
 62
     7
370
     9
100
AcDbCircle
 10
-0.3091307308329974
 20
-1.784377180280984
 30
0.0
 40
0.06
100
AcDbArc
 50
270.0
 51
0.0
  0
ARC
  5
2A9
330
50
100
AcDbEntity
  8
0-0_補助線
  6
Continuous
 62
     7
370
     9
100
AcDbCircle
 10
-1.769130730832991
 20
3.015622819719027
 30
0.0
 40
0.2
100
AcDbArc
 50
90.0
 51
180.0
  0
ARC
  5
2AA
330
50
100
AcDbEntity
  8
0-0_補助線
  6
Continuous
 62
     7
370
     9
100
AcDbCircle
 10
-0.3091307308329974
 20
2.875622819719027
 30
0.0
 40
0.06
100
AcDbArc
 50
0.0
 51
90.0
  0
LINE
  5
2AB
330
50
100
AcDbEntity
  8
0-0_補助線
  6
Continuous
 62
     7
370
     9
100
AcDbLine
 10
-1.629130730832998
 20
2.935622819719029
 30
0.0
 11
-0.3091307308329974
 21
2.935622819719029
 31
0.0
  0
ARC
  5
2AC
330
50
100
AcDbEntity
  8
0-0_補助線
  6
Continuous
 62
     7
370
     9
100
AcDbCircle
 10
-1.629130730832998
 20
2.875622819719027
 30
0.0
 40
0.06
100
AcDbArc
 50
90.0
 51
180.0
  0
ARC
  5
2AD
330
50
100
AcDbEntity
  8
0-0_補助線
  6
Continuous
 62
     7
370
     9
100
AcDbCircle
 10
-1.769130730832991
 20
3.015622819719027
 30
0.0
 40
0.16
100
AcDbArc
 50
90.0
 51
180.0
  0
LINE
  5
2AE
330
50
100
AcDbEntity
  8
0-0_補助線
  6
Continuous
 62
     7
370
     9
100
AcDbLine
 10
-1.969130730832994
 20
-1.924377180280985
 30
0.0
 11
-1.969130730832994
 21
3.015622819719027
 31
0.0
  0
ARC
  5
2AF
330
50
100
AcDbEntity
  8
0-0_補助線
  6
Continuous
 62
     7
370
     9
100
AcDbCircle
 10
-1.769130730832991
 20
-1.924377180280985
 30
0.0
 40
0.2
100
AcDbArc
 50
180.0
 51
270.0
  0
ARC
  5
2B0
330
50
100
AcDbEntity
  8
0-0_補助線
  6
Continuous
 62
     7
370
     9
100
AcDbCircle
 10
-0.5692916963789258
 20
-2.144031477529182
 30
0.0
 40
1.2
100
AcDbArc
 50
179.0615344703278
 51
259.2981547751684
  0
LWPOLYLINE
  5
2B1
330
50
100
AcDbEntity
  8
0-0_補助線
  6
Continuous
 62
     7
370
     9
100
AcDbPolyline
 90
        4
 70
     1
 43
0.1
 10
-0.7291307308329962
 20
-3.324377180280976
 42
0.4142135623731
 10
-0.7791307308329962
 20
-3.274377180280976
 42
0.4142135623731
 10
-0.8291307308329963
 20
-3.324377180280976
 42
0.4142135623731
 10
-0.7791307308329962
 20
-3.374377180280976
 42
0.4142135623731
  0
ARC
  5
2B2
330
50
100
AcDbEntity
  8
0-0_補助線
  6
Continuous
 62
     7
370
     9
100
AcDbCircle
 10
-0.7791307308329962
 20
-3.254377180280983
 30
0.0
 40
0.07
100
AcDbArc
 50
259.2981547751684
 51
79.29815477516837
  0
ARC
  5
2B3
330
50
100
AcDbEntity
  8
0-0_補助線
  6
Continuous
 62
     7
370
     9
100
AcDbCircle
 10
-0.5692916963789258
 20
-2.144031477529182
 30
0.0
 40
1.06
100
AcDbArc
 50
178.9375728139377
 51
259.2981547751684
  0
LINE
  5
2B4
330
50
100
AcDbEntity
  8
0-0_補助線
  6
Continuous
 62
     7
370
     9
100
AcDbLine
 10
-1.929130730832995
 20
3.015622819719027
 30
0.0
 11
-1.929130730832995
 21
-1.924377180280985
 31
0.0
  0
LINE
  5
2B5
330
50
100
AcDbEntity
  8
0-0_補助線
  6
Continuous
 62
     7
370
     9
100
AcDbLine
 10
-1.929130730832995
 20
-1.924377180280985
 30
0.0
 11
-1.969130730832994
 21
-1.924377180280985
 31
0.0
  0
LINE
  5
2B6
330
50
100
AcDbEntity
  8
0-0_補助線
  6
Continuous
 62
     7
370
     9
100
AcDbLine
 10
-1.689130730832993
 20
2.875622819719027
 30
0.0
 11
-1.689130730832993
 21
-1.784377180280984
 31
0.0
  0
LINE
  5
2B7
330
50
100
AcDbEntity
  8
0-0_補助線
  6
Continuous
 62
     7
370
     9
100
AcDbLine
 10
0.0708692691670052
 20
-2.584377180280981
 30
0.0
 11
-0.0881142420878476
 21
-2.584377180280981
 31
0.0
  0
ARC
  5
2B8
330
50
100
AcDbEntity
  8
0-0_補助線
  6
Continuous
 62
     7
370
     9
100
AcDbCircle
 10
-0.0881142420878476
 20
-2.524377180280979
 30
0.0
 40
0.06
100
AcDbArc
 50
193.9281985493309
 51
270.0
  0
ARC
  5
2B9
330
50
100
AcDbEntity
  8
0-0_補助線
  6
Continuous
 62
     7
370
     9
100
AcDbCircle
 10
0.0708692691670052
 20
-2.524377180280979
 30
0.0
 40
0.06
100
AcDbArc
 50
270.0
 51
14.29438185742976
  0
LINE
  5
2BA
330
50
100
AcDbEntity
  8
0-0_補助線
  6
Continuous
 62
     7
370
     9
100
AcDbLine
 10
0.0308692691670061
 20
-2.124377180280973
 30
0.0
 11
0.1290116659424712
 21
-2.509562940604084
 31
0.0
  0
LINE
  5
2BB
330
50
100
AcDbEntity
  8
0-0_補助線
  6
Continuous
 62
     7
370
     9
100
AcDbLine
 10
-0.2378325535497154
 20
-2.169934834753576
 30
0.0
 11
-0.1463501301266419
 21
-2.538819525808378
 31
0.0
  0
LINE
  5
2BC
330
50
100
AcDbEntity
  8
0-0_補助線
  6
Continuous
 62
     7
370
     9
100
AcDbLine
 10
-0.2960684415885098
 20
-2.124377180280973
 30
0.0
 11
-1.769130730832991
 21
-2.124377180280973
 31
0.0
  0
ARC
  5
2BD
330
50
100
AcDbEntity
  8
0-0_補助線
  6
Continuous
 62
     7
370
     9
100
AcDbCircle
 10
-0.2960684415885098
 20
-2.184377180280975
 30
0.0
 40
0.06
100
AcDbArc
 50
13.92819854933141
 51
90.00000000000001
  0
LINE
  5
2BE
330
50
100
AcDbEntity
  8
0-0_補助線
  6
Continuous
 62
     7
370
     9
100
AcDbLine
 10
-0.2491307308329951
 20
2.875622819719027
 30
0.0
 11
-0.2491307308329951
 21
-1.784377180280984
 31
0.0
  0
LINE
  5
2BF
330
50
100
AcDbEntity
  8
0-0_補助線
  6
Continuous
 62
     7
370
     9
100
AcDbLine
 10
0.4308692691670046
 20
-1.559377180280975
 30
0.0
 11
0.4308692691670046
 21
-1.699377180280976
 31
0.0
  0
LINE
  5
2C0
330
50
100
AcDbEntity
  8
0-0_補助線
  6
Continuous
 62
     7
370
     9
100
AcDbLine
 10
0.8308692691670032
 20
-2.119377180280978
 30
0.0
 11
0.8308692691670032
 21
-1.979377180280977
 31
0.0
  0
LINE
  5
2C1
330
50
100
AcDbEntity
  8
0-0_補助線
  6
Continuous
 62
     7
370
     9
100
AcDbLine
 10
0.6308692691670075
 20
-1.699377180280976
 30
0.0
 11
0.5024027720209432
 21
-1.534767462733626
 31
0.0
  0
LINE
  5
2C2
330
50
100
AcDbEntity
  8
0-0_補助線
  6
Continuous
 62
     7
370
     9
100
AcDbLine
 10
1.030869269167006
 20
-1.979377180280977
 30
0.0
 11
0.9024027720209418
 21
-2.143986897828341
 31
0.0
  0
LINE
  5
2C3
330
50
100
AcDbEntity
  8
0-0_補助線
  6
Continuous
 62
     7
370
     9
100
AcDbLine
 10
1.230869269167009
 20
-1.559377180280975
 30
0.0
 11
1.230869269167009
 21
-1.699377180280976
 31
0.0
  0
ARC
  5
2C4
330
50
100
AcDbEntity
  8
0-0_補助線
  6
Continuous
 62
     7
370
     9
100
AcDbCircle
 10
0.8708692691670095
 20
-2.119377180280978
 30
0.0
 40
0.04
100
AcDbArc
 50
180.0
 51
322.0304252330487
  0
ARC
  5
2C5
330
50
100
AcDbEntity
  8
0-0_補助線
  6
Continuous
 62
     7
370
     9
100
AcDbCircle
 10
0.4708692691670038
 20
-1.559377180280975
 30
0.0
 40
0.04
100
AcDbArc
 50
37.96957476694966
 51
180.0
  0
LINE
  5
2C6
330
50
100
AcDbEntity
  8
0-0_補助線
  6
Continuous
 62
     7
370
     9
100
AcDbLine
 10
1.511545229617482
 20
-1.820289200070164
 30
0.0
 11
1.303139653347195
 21
-1.535741988196648
 31
0.0
  0
ARC
  5
2C7
330
50
100
AcDbEntity
  8
0-0_補助線
  6
Continuous
 62
     7
370
     9
100
AcDbCircle
 10
1.270869269167008
 20
-1.559377180280975
 30
0.0
 40
0.04
100
AcDbArc
 50
36.21946651197781
 51
180.0
  0
ARC
  5
2C8
330
50
100
AcDbEntity
  8
0-0_補助線
  6
Continuous
 62
     7
370
     9
100
AcDbCircle
 10
1.430869269167005
 20
-1.879377180280983
 30
0.0
 40
0.1
100
AcDbArc
 50
270.0
 51
36.21946651947428
  0
LINE
  5
2C9
330
50
100
AcDbEntity
  8
0-0_補助線
  6
Continuous
 62
     7
370
     9
100
AcDbLine
 10
0.4308692691670046
 20
2.190622819719025
 30
0.0
 11
0.4308692691670046
 21
2.330622819719025
 31
0.0
  0
LINE
  5
2CA
330
50
100
AcDbEntity
  8
0-0_補助線
  6
Continuous
 62
     7
370
     9
100
AcDbLine
 10
0.8308692691670032
 20
2.750622819719027
 30
0.0
 11
0.8308692691670032
 21
2.610622819719026
 31
0.0
  0
LINE
  5
2CB
330
50
100
AcDbEntity
  8
0-0_補助線
  6
Continuous
 62
     7
370
     9
100
AcDbLine
 10
0.6308692691670075
 20
2.330622819719025
 30
0.0
 11
0.5024027720209432
 21
2.166013102171661
 31
0.0
  0
LINE
  5
2CC
330
50
100
AcDbEntity
  8
0-0_補助線
  6
Continuous
 62
     7
370
     9
100
AcDbLine
 10
1.030869269167006
 20
2.610622819719026
 30
0.0
 11
0.9024027720209418
 21
2.775232537266376
 31
0.0
  0
LINE
  5
2CD
330
50
100
AcDbEntity
  8
0-0_補助線
  6
Continuous
 62
     7
370
     9
100
AcDbLine
 10
1.230869269167009
 20
2.190622819719025
 30
0.0
 11
1.230869269167009
 21
2.330622819719025
 31
0.0
  0
ARC
  5
2CE
330
50
100
AcDbEntity
  8
0-0_補助線
  6
Continuous
 62
     7
370
     9
100
AcDbCircle
 10
0.8708692691670095
 20
2.750622819719027
 30
0.0
 40
0.04
100
AcDbArc
 50
37.96957476695127
 51
180.0
  0
ARC
  5
2CF
330
50
100
AcDbEntity
  8
0-0_補助線
  6
Continuous
 62
     7
370
     9
100
AcDbCircle
 10
0.4708692691670038
 20
2.190622819719025
 30
0.0
 40
0.04
100
AcDbArc
 50
180.0
 51
322.0304252330503
  0
LINE
  5
2D0
330
50
100
AcDbEntity
  8
0-0_補助線
  6
Continuous
 62
     7
370
     9
100
AcDbLine
 10
1.511545229617482
 20
2.451534839508213
 30
0.0
 11
1.303139653347195
 21
2.166987627634697
 31
0.0
  0
ARC
  5
2D1
330
50
100
AcDbEntity
  8
0-0_補助線
  6
Continuous
 62
     7
370
     9
100
AcDbCircle
 10
1.270869269167008
 20
2.190622819719025
 30
0.0
 40
0.04
100
AcDbArc
 50
180.0
 51
323.7805334880222
  0
ARC
  5
2D2
330
50
100
AcDbEntity
  8
0-0_補助線
  6
Continuous
 62
     7
370
     9
100
AcDbCircle
 10
1.430869269167005
 20
2.510622819719018
 30
0.0
 40
0.1
100
AcDbArc
 50
323.7805334805258
 51
90.0
  0
LINE
  5
2D3
330
50
100
AcDbEntity
  8
0-0_補助線
  6
Continuous
 62
     7
370
     9
100
AcDbLine
 10
-1.769130730832991
 20
3.175622819719024
 30
0.0
 11
0.1274378116619275
 21
3.175622819719024
 31
0.0
  0
LINE
  5
2D4
330
50
100
AcDbEntity
  8
0-0_補助線
  6
Continuous
 62
     7
370
     9
100
AcDbLine
 10
-1.769130730832991
 20
3.21562281971903
 30
0.0
 11
0.0708692691670052
 21
3.21562281971903
 31
0.0
  0
LINE
  5
2D5
330
50
100
AcDbEntity
  8
0-0_補助線
  6
Continuous
 62
     7
370
     9
100
AcDbLine
 10
1.430869269167005
 20
-1.979377180280977
 30
0.0
 11
1.030869269167006
 21
-1.979377180280977
 31
0.0
  0
LINE
  5
2D6
330
50
100
AcDbEntity
  8
0-0_補助線
  6
Continuous
 62
     7
370
     9
100
AcDbLine
 10
0.8308692691670032
 20
-1.979377180280977
 30
0.0
 11
0.0308692691670061
 21
-1.979377180280977
 31
0.0
  0
LINE
  5
2D7
330
50
100
AcDbEntity
  8
0-0_補助線
  6
Continuous
 62
     7
370
     9
100
AcDbLine
 10
0.0308692691670061
 20
-1.699377180280976
 30
0.0
 11
0.4308692691670046
 21
-1.699377180280976
 31
0.0
  0
LINE
  5
2D8
330
50
100
AcDbEntity
  8
0-0_補助線
  6
Continuous
 62
     7
370
     9
100
AcDbLine
 10
0.6308692691670075
 20
-1.699377180280976
 30
0.0
 11
1.230869269167009
 21
-1.699377180280976
 31
0.0
  0
LINE
  5
2D9
330
50
100
AcDbEntity
  8
0-0_補助線
  6
Continuous
 62
     7
370
     9
100
AcDbLine
 10
0.0308692691670061
 20
2.330622819719025
 30
0.0
 11
0.4308692691670046
 21
2.330622819719025
 31
0.0
  0
LINE
  5
2DA
330
50
100
AcDbEntity
  8
0-0_補助線
  6
Continuous
 62
     7
370
     9
100
AcDbLine
 10
0.6308692691670075
 20
2.330622819719025
 30
0.0
 11
1.230869269167009
 21
2.330622819719025
 31
0.0
  0
LINE
  5
2DB
330
50
100
AcDbEntity
  8
0-0_補助線
  6
Continuous
 62
     7
370
     9
100
AcDbLine
 10
1.430869269167005
 20
2.610622819719026
 30
0.0
 11
1.030869269167006
 21
2.610622819719026
 31
0.0
  0
LINE
  5
2DC
330
50
100
AcDbEntity
  8
0-0_補助線
  6
Continuous
 62
     7
370
     9
100
AcDbLine
 10
0.8308692691670032
 20
2.610622819719026
 30
0.0
 11
0.0308692691670061
 21
2.610622819719026
 31
0.0
  0
LINE
  5
2DD
330
50
100
AcDbEntity
  8
0-0_補助線
  6
Continuous
 62
     7
370
     9
100
AcDbLine
 10
0.0308692691670061
 20
2.610622819719026
 30
0.0
 11
0.1298643253643306
 21
3.144687402750549
 31
0.0
  0
ARC
  5
2DE
330
50
100
AcDbEntity
  8
0-0_補助線
  6
Continuous
 62
     7
370
     9
100
AcDbCircle
 10
0.0708692691670052
 20
3.155622819719028
 30
0.0
 40
0.06
100
AcDbArc
 50
349.4987515888594
 51
90.0
  0
LINE
  5
2DF
330
50
100
AcDbEntity
  8
0-0_補助線
  6
Continuous
 62
     7
370
     9
100
AcDbLine
 10
0.0308692691670061
 20
2.330622819719025
 30
0.0
 11
0.0308692691670061
 21
-1.699377180280976
 31
0.0
  0
LINE
  5
2E0
330
50
100
AcDbEntity
  8
0-0_補助線
  6
Continuous
 62
     7
370
     9
100
AcDbLine
 10
0.0308692691670061
 20
-1.979377180280977
 30
0.0
 11
0.0308692691670061
 21
-2.124377180280973
 31
0.0
  0
ENDBLK
  5
52
330
50
100
AcDbEntity
  8
0
100
AcDbBlockEnd
  0
BLOCK
  5
54
330
53
100
AcDbEntity
  8
0
100
AcDbBlockBegin
  2
01@@SfigorgFlag@@4
 70
     0
 10
0.0
 20
0.0
 30
0.0
  3
01@@SfigorgFlag@@4
  1

  0
LINE
  5
2E1
330
53
100
AcDbEntity
  8
0-0_補助線
  6
Continuous
 62
     7
370
     9
100
AcDbLine
 10
2.295000000000044
 20
0.0292483078921251
 30
0.0
 11
2.400000000000063
 21
0.0292483078921251
 31
0.0
  0
LINE
  5
2E2
330
53
100
AcDbEntity
  8
0-0_補助線
  6
Continuous
 62
     7
370
     9
100
AcDbLine
 10
1.875000000000057
 20
0.4292483078921272
 30
0.0
 11
2.015000000000072
 21
0.4292483078921272
 31
0.0
  0
LINE
  5
2E3
330
53
100
AcDbEntity
  8
0-0_補助線
  6
Continuous
 62
     7
370
     9
100
AcDbLine
 10
2.435000000000059
 20
0.8292483078921258
 30
0.0
 11
2.295000000000044
 21
0.8292483078921258
 31
0.0
  0
LINE
  5
2E4
330
53
100
AcDbEntity
  8
0-0_補助線
  6
Continuous
 62
     7
370
     9
100
AcDbLine
 10
2.015000000000072
 20
0.6292483078921265
 30
0.0
 11
1.850390282452707
 21
0.5007818107460622
 31
0.0
  0
LINE
  5
2E5
330
53
100
AcDbEntity
  8
0-0_補助線
  6
Continuous
 62
     7
370
     9
100
AcDbLine
 10
2.295000000000044
 20
1.029248307892125
 30
0.0
 11
2.459609717547409
 21
0.9007818107460608
 31
0.0
  0
LINE
  5
2E6
330
53
100
AcDbEntity
  8
0-0_補助線
  6
Continuous
 62
     7
370
     9
100
AcDbLine
 10
1.875000000000057
 20
1.229248307892128
 30
0.0
 11
2.015000000000072
 21
1.229248307892128
 31
0.0
  0
ARC
  5
2E7
330
53
100
AcDbEntity
  8
0-0_補助線
  6
Continuous
 62
     7
370
     9
100
AcDbCircle
 10
2.435000000000059
 20
0.8692483078921249
 30
0.0
 40
0.04
100
AcDbArc
 50
270.0
 51
52.03042523304873
  0
ARC
  5
2E8
330
53
100
AcDbEntity
  8
0-0_補助線
  6
Continuous
 62
     7
370
     9
100
AcDbCircle
 10
1.875000000000057
 20
0.4692483078921228
 30
0.0
 40
0.04
100
AcDbArc
 50
127.9695747669497
 51
270.0
  0
LINE
  5
2E9
330
53
100
AcDbEntity
  8
0-0_補助線
  6
Continuous
 62
     7
370
     9
100
AcDbLine
 10
2.135912019789231
 20
1.509924268342598
 30
0.0
 11
1.851364807915729
 21
1.301518692072314
 31
0.0
  0
ARC
  5
2EA
330
53
100
AcDbEntity
  8
0-0_補助線
  6
Continuous
 62
     7
370
     9
100
AcDbCircle
 10
1.875000000000057
 20
1.269248307892124
 30
0.0
 40
0.04
100
AcDbArc
 50
126.2194665119778
 51
270.0
  0
ARC
  5
2EB
330
53
100
AcDbEntity
  8
0-0_補助線
  6
Continuous
 62
     7
370
     9
100
AcDbCircle
 10
2.19500000000005
 20
1.429248307892124
 30
0.0
 40
0.1
100
AcDbArc
 50
0.0
 51
126.2194665194743
  0
LINE
  5
2EC
330
53
100
AcDbEntity
  8
0-0_補助線
  6
Continuous
 62
     7
370
     9
100
AcDbLine
 10
-1.874999999999943
 20
0.4292483078921272
 30
0.0
 11
-2.01499999999993
 21
0.4292483078921272
 31
0.0
  0
LINE
  5
2ED
330
53
100
AcDbEntity
  8
0-0_補助線
  6
Continuous
 62
     7
370
     9
100
AcDbLine
 10
-2.434999999999945
 20
0.8292483078921258
 30
0.0
 11
-2.294999999999931
 21
0.8292483078921258
 31
0.0
  0
LINE
  5
2EE
330
53
100
AcDbEntity
  8
0-0_補助線
  6
Continuous
 62
     7
370
     9
100
AcDbLine
 10
-2.01499999999993
 20
0.6292483078921265
 30
0.0
 11
-1.850390282452594
 21
0.5007818107460622
 31
0.0
  0
LINE
  5
2EF
330
53
100
AcDbEntity
  8
0-0_補助線
  6
Continuous
 62
     7
370
     9
100
AcDbLine
 10
-2.294999999999931
 20
1.029248307892125
 30
0.0
 11
-2.459609717547295
 21
0.9007818107460643
 31
0.0
  0
LINE
  5
2F0
330
53
100
AcDbEntity
  8
0-0_補助線
  6
Continuous
 62
     7
370
     9
100
AcDbLine
 10
-1.874999999999943
 20
1.229248307892128
 30
0.0
 11
-2.01499999999993
 21
1.229248307892128
 31
0.0
  0
ARC
  5
2F1
330
53
100
AcDbEntity
  8
0-0_補助線
  6
Continuous
 62
     7
370
     9
100
AcDbCircle
 10
-2.434999999999945
 20
0.8692483078921249
 30
0.0
 40
0.04
100
AcDbArc
 50
127.9695747669513
 51
270.0
  0
ARC
  5
2F2
330
53
100
AcDbEntity
  8
0-0_補助線
  6
Continuous
 62
     7
370
     9
100
AcDbCircle
 10
-1.874999999999943
 20
0.4692483078921263
 30
0.0
 40
0.04
100
AcDbArc
 50
270.0
 51
52.03042523305033
  0
LINE
  5
2F3
330
53
100
AcDbEntity
  8
0-0_補助線
  6
Continuous
 62
     7
370
     9
100
AcDbLine
 10
-2.135912019789117
 20
1.509924268342598
 30
0.0
 11
-1.851364807915616
 21
1.301518692072317
 31
0.0
  0
ARC
  5
2F4
330
53
100
AcDbEntity
  8
0-0_補助線
  6
Continuous
 62
     7
370
     9
100
AcDbCircle
 10
-1.874999999999943
 20
1.269248307892124
 30
0.0
 40
0.04
100
AcDbArc
 50
270.0
 51
53.78053348802219
  0
ARC
  5
2F5
330
53
100
AcDbEntity
  8
0-0_補助線
  6
Continuous
 62
     7
370
     9
100
AcDbCircle
 10
-2.194999999999936
 20
1.429248307892124
 30
0.0
 40
0.1
100
AcDbArc
 50
53.78053348052574
 51
180.0
  0
LINE
  5
2F6
330
53
100
AcDbEntity
  8
0-0_補助線
  6
Continuous
 62
     7
370
     9
100
AcDbLine
 10
2.295000000000044
 20
1.429248307892124
 30
0.0
 11
2.295000000000044
 21
1.029248307892125
 31
0.0
  0
LINE
  5
2F7
330
53
100
AcDbEntity
  8
0-0_補助線
  6
Continuous
 62
     7
370
     9
100
AcDbLine
 10
2.295000000000044
 20
0.8292483078921258
 30
0.0
 11
2.295000000000044
 21
0.0292483078921251
 31
0.0
  0
LINE
  5
2F8
330
53
100
AcDbEntity
  8
0-0_補助線
  6
Continuous
 62
     7
370
     9
100
AcDbLine
 10
2.015000000000072
 20
0.0292483078921251
 30
0.0
 11
2.015000000000072
 21
0.4292483078921272
 31
0.0
  0
LINE
  5
2F9
330
53
100
AcDbEntity
  8
0-0_補助線
  6
Continuous
 62
     7
370
     9
100
AcDbLine
 10
2.015000000000072
 20
0.6292483078921265
 30
0.0
 11
2.015000000000072
 21
1.229248307892128
 31
0.0
  0
LINE
  5
2FA
330
53
100
AcDbEntity
  8
0-0_補助線
  6
Continuous
 62
     7
370
     9
100
AcDbLine
 10
-2.01499999999993
 20
0.0292483078921286
 30
0.0
 11
-2.01499999999993
 21
0.4292483078921272
 31
0.0
  0
LINE
  5
2FB
330
53
100
AcDbEntity
  8
0-0_補助線
  6
Continuous
 62
     7
370
     9
100
AcDbLine
 10
-2.01499999999993
 20
0.6292483078921265
 30
0.0
 11
-2.01499999999993
 21
1.229248307892128
 31
0.0
  0
LINE
  5
2FC
330
53
100
AcDbEntity
  8
0-0_補助線
  6
Continuous
 62
     7
370
     9
100
AcDbLine
 10
-2.294999999999931
 20
1.429248307892124
 30
0.0
 11
-2.294999999999931
 21
1.029248307892125
 31
0.0
  0
LINE
  5
2FD
330
53
100
AcDbEntity
  8
0-0_補助線
  6
Continuous
 62
     7
370
     9
100
AcDbLine
 10
-2.294999999999931
 20
0.8292483078921258
 30
0.0
 11
-2.294999999999931
 21
0.0292483078921286
 31
0.0
  0
LINE
  5
2FE
330
53
100
AcDbEntity
  8
0-0_補助線
  6
Continuous
 62
     7
370
     9
100
AcDbLine
 10
-2.01499999999993
 20
0.0292483078921286
 30
0.0
 11
2.015000000000072
 21
0.0292483078921251
 31
0.0
  0
ARC
  5
2FF
330
53
100
AcDbEntity
  8
0-0_補助線
  6
Continuous
 62
     7
370
     9
100
AcDbCircle
 10
2.060000000000059
 20
-1.630751692107875
 30
0.0
 40
0.06
100
AcDbArc
 50
270.0
 51
0.0
  0
LINE
  5
300
330
53
100
AcDbEntity
  8
0-0_補助線
  6
Continuous
 62
     7
370
     9
100
AcDbLine
 10
2.120000000000061
 20
-0.3107516921078783
 30
0.0
 11
2.120000000000061
 21
-1.630751692107875
 31
0.0
  0
ARC
  5
301
330
53
100
AcDbEntity
  8
0-0_補助線
  6
Continuous
 62
     7
370
     9
100
AcDbCircle
 10
2.060000000000059
 20
-0.3107516921078783
 30
0.0
 40
0.06
100
AcDbArc
 50
0.0
 51
90.0
  0
ARC
  5
302
330
53
100
AcDbEntity
  8
0-0_補助線
  6
Continuous
 62
     7
370
     9
100
AcDbCircle
 10
2.200000000000045
 20
-1.770751692107872
 30
0.0
 40
0.2
100
AcDbArc
 50
270.0
 51
0.0
  0
LINE
  5
303
330
53
100
AcDbEntity
  8
0-0_補助線
  6
Continuous
 62
     7
370
     9
100
AcDbLine
 10
2.400000000000063
 20
-0.2976894028633943
 30
0.0
 11
2.400000000000063
 21
-1.770751692107872
 31
0.0
  0
ARC
  5
304
330
53
100
AcDbEntity
  8
0-0_補助線
  6
Continuous
 62
     7
370
     9
100
AcDbCircle
 10
2.460000000000065
 20
-0.2976894028633943
 30
0.0
 40
0.06
100
AcDbArc
 50
103.9281985493314
 51
180.0
  0
LINE
  5
305
330
53
100
AcDbEntity
  8
0-0_補助線
  6
Continuous
 62
     7
370
     9
100
AcDbLine
 10
2.900000000000063
 20
0.0692483078921242
 30
0.0
 11
2.900000000000063
 21
-0.0897352033627286
 31
0.0
  0
LINE
  5
306
330
53
100
AcDbEntity
  8
0-0_補助線
  6
Continuous
 62
     7
370
     9
100
AcDbLine
 10
2.853095847616288
 20
-0.1482885873401969
 30
0.0
 11
2.446904152383837
 21
-0.2391360188859224
 31
0.0
  0
LINE
  5
307
330
53
100
AcDbEntity
  8
0-0_補助線
  6
Continuous
 62
     7
370
     9
100
AcDbLine
 10
2.400000000000063
 20
0.0292483078921251
 30
0.0
 11
2.826503425747205
 21
0.1277106246734299
 31
0.0
  0
ARC
  5
308
330
53
100
AcDbEntity
  8
0-0_補助線
  6
Continuous
 62
     7
370
     9
100
AcDbCircle
 10
2.84000000000006
 20
-0.0897352033627286
 30
0.0
 40
0.06
100
AcDbArc
 50
282.6070972495236
 51
0.0
  0
ARC
  5
309
330
53
100
AcDbEntity
  8
0-0_補助線
  6
Continuous
 62
     7
370
     9
100
AcDbCircle
 10
2.84000000000006
 20
0.0692483078921242
 30
0.0
 40
0.06
100
AcDbArc
 50
0.0
 51
102.9995207492461
  0
ARC
  5
30A
330
53
100
AcDbEntity
  8
0-0_補助線
  6
Continuous
 62
     7
370
     9
100
AcDbCircle
 10
2.200000000000045
 20
-1.770751692107872
 30
0.0
 40
0.16
100
AcDbArc
 50
270.0
 51
0.0
  0
LINE
  5
30B
330
53
100
AcDbEntity
  8
0-0_補助線
  6
Continuous
 62
     7
370
     9
100
AcDbLine
 10
2.36000000000007
 20
-0.2976894028633943
 30
0.0
 11
2.36000000000007
 21
-1.770751692107872
 31
0.0
  0
ARC
  5
30C
330
53
100
AcDbEntity
  8
0-0_補助線
  6
Continuous
 62
     7
370
     9
100
AcDbCircle
 10
2.460000000000065
 20
-0.2976894028633943
 30
0.0
 40
0.1
100
AcDbArc
 50
103.9281985493314
 51
180.0
  0
LINE
  5
30D
330
53
100
AcDbEntity
  8
0-0_補助線
  6
Continuous
 62
     7
370
     9
100
AcDbLine
 10
2.84436528254048
 20
-0.1092529980215105
 30
0.0
 11
2.438173587308029
 21
-0.2001004295672359
 31
0.0
  0
ARC
  5
30E
330
53
100
AcDbEntity
  8
0-0_補助線
  6
Continuous
 62
     7
370
     9
100
AcDbCircle
 10
2.84000000000006
 20
-0.0897352033627286
 30
0.0
 40
0.02
100
AcDbArc
 50
282.6070972495236
 51
0.0
  0
LINE
  5
30F
330
53
100
AcDbEntity
  8
0-0_補助線
  6
Continuous
 62
     7
370
     9
100
AcDbLine
 10
2.86000000000007
 20
0.0692483078921242
 30
0.0
 11
2.86000000000007
 21
-0.0897352033627286
 31
0.0
  0
ARC
  5
310
330
53
100
AcDbEntity
  8
0-0_補助線
  6
Continuous
 62
     7
370
     9
100
AcDbCircle
 10
2.84000000000006
 20
0.0692483078921242
 30
0.0
 40
0.02
100
AcDbArc
 50
0.0
 51
102.9995207492461
  0
LINE
  5
311
330
53
100
AcDbEntity
  8
0-0_補助線
  6
Continuous
 62
     7
370
     9
100
AcDbLine
 10
2.408997716168614
 20
-0.0097265699620763
 30
0.0
 11
2.835501141915785
 21
0.0887357468192285
 31
0.0
  0
LINE
  5
312
330
53
100
AcDbEntity
  8
0-0_補助線
  6
Continuous
 62
     7
370
     9
100
AcDbLine
 10
2.408997716168614
 20
-0.0097265699620763
 30
0.0
 11
2.398644954364528
 21
0.0289104630894848
 31
0.0
  0
LINE
  5
313
330
53
100
AcDbEntity
  8
0-0_補助線
  6
Continuous
 62
     7
370
     9
100
AcDbLine
 10
-2.294999999999931
 20
0.0292483078921286
 30
0.0
 11
-2.399999999999949
 21
0.0292483078921286
 31
0.0
  0
ARC
  5
314
330
53
100
AcDbEntity
  8
0-0_補助線
  6
Continuous
 62
     7
370
     9
100
AcDbCircle
 10
-2.059999999999945
 20
-1.630751692107875
 30
0.0
 40
0.06
100
AcDbArc
 50
180.0
 51
270.0
  0
LINE
  5
315
330
53
100
AcDbEntity
  8
0-0_補助線
  6
Continuous
 62
     7
370
     9
100
AcDbLine
 10
-2.119999999999948
 20
-0.3107516921078748
 30
0.0
 11
-2.119999999999948
 21
-1.630751692107875
 31
0.0
  0
ARC
  5
316
330
53
100
AcDbEntity
  8
0-0_補助線
  6
Continuous
 62
     7
370
     9
100
AcDbCircle
 10
-2.059999999999945
 20
-0.3107516921078748
 30
0.0
 40
0.06
100
AcDbArc
 50
90.0
 51
180.0
  0
ARC
  5
317
330
53
100
AcDbEntity
  8
0-0_補助線
  6
Continuous
 62
     7
370
     9
100
AcDbCircle
 10
-2.199999999999932
 20
-1.770751692107872
 30
0.0
 40
0.2
100
AcDbArc
 50
180.0
 51
270.0
  0
LINE
  5
318
330
53
100
AcDbEntity
  8
0-0_補助線
  6
Continuous
 62
     7
370
     9
100
AcDbLine
 10
-2.399999999999949
 20
-0.2976894028633943
 30
0.0
 11
-2.399999999999949
 21
-1.770751692107872
 31
0.0
  0
ARC
  5
319
330
53
100
AcDbEntity
  8
0-0_補助線
  6
Continuous
 62
     7
370
     9
100
AcDbCircle
 10
-2.459999999999951
 20
-0.2976894028633943
 30
0.0
 40
0.06
100
AcDbArc
 50
0.0
 51
76.0718014506686
  0
LINE
  5
31A
330
53
100
AcDbEntity
  8
0-0_補助線
  6
Continuous
 62
     7
370
     9
100
AcDbLine
 10
-2.899999999999949
 20
0.0692483078921242
 30
0.0
 11
-2.899999999999949
 21
-0.0897352033627286
 31
0.0
  0
LINE
  5
31B
330
53
100
AcDbEntity
  8
0-0_補助線
  6
Continuous
 62
     7
370
     9
100
AcDbLine
 10
-2.853095847616174
 20
-0.1482885873401933
 30
0.0
 11
-2.446904152383723
 21
-0.2391360188859224
 31
0.0
  0
LINE
  5
31C
330
53
100
AcDbEntity
  8
0-0_補助線
  6
Continuous
 62
     7
370
     9
100
AcDbLine
 10
-2.399999999999949
 20
0.0292483078921286
 30
0.0
 11
-2.826503425747092
 21
0.1277106246734299
 31
0.0
  0
ARC
  5
31D
330
53
100
AcDbEntity
  8
0-0_補助線
  6
Continuous
 62
     7
370
     9
100
AcDbCircle
 10
-2.839999999999947
 20
-0.0897352033627286
 30
0.0
 40
0.06
100
AcDbArc
 50
180.0
 51
257.3929027504764
  0
ARC
  5
31E
330
53
100
AcDbEntity
  8
0-0_補助線
  6
Continuous
 62
     7
370
     9
100
AcDbCircle
 10
-2.839999999999947
 20
0.0692483078921242
 30
0.0
 40
0.06
100
AcDbArc
 50
77.00047925075384
 51
180.0
  0
ARC
  5
31F
330
53
100
AcDbEntity
  8
0-0_補助線
  6
Continuous
 62
     7
370
     9
100
AcDbCircle
 10
-2.199999999999932
 20
-1.770751692107872
 30
0.0
 40
0.16
100
AcDbArc
 50
180.0
 51
270.0
  0
LINE
  5
320
330
53
100
AcDbEntity
  8
0-0_補助線
  6
Continuous
 62
     7
370
     9
100
AcDbLine
 10
-2.359999999999928
 20
-0.2976894028633943
 30
0.0
 11
-2.359999999999928
 21
-1.770751692107872
 31
0.0
  0
ARC
  5
321
330
53
100
AcDbEntity
  8
0-0_補助線
  6
Continuous
 62
     7
370
     9
100
AcDbCircle
 10
-2.459999999999951
 20
-0.2976894028633943
 30
0.0
 40
0.1
100
AcDbArc
 50
0.0
 51
76.0718014506686
  0
LINE
  5
322
330
53
100
AcDbEntity
  8
0-0_補助線
  6
Continuous
 62
     7
370
     9
100
AcDbLine
 10
-2.844365282540366
 20
-0.1092529980215069
 30
0.0
 11
-2.438173587307915
 21
-0.2001004295672359
 31
0.0
  0
ARC
  5
323
330
53
100
AcDbEntity
  8
0-0_補助線
  6
Continuous
 62
     7
370
     9
100
AcDbCircle
 10
-2.839999999999947
 20
-0.0897352033627286
 30
0.0
 40
0.02
100
AcDbArc
 50
180.0
 51
257.3929027504764
  0
LINE
  5
324
330
53
100
AcDbEntity
  8
0-0_補助線
  6
Continuous
 62
     7
370
     9
100
AcDbLine
 10
-2.859999999999957
 20
0.0692483078921242
 30
0.0
 11
-2.859999999999957
 21
-0.0897352033627286
 31
0.0
  0
ARC
  5
325
330
53
100
AcDbEntity
  8
0-0_補助線
  6
Continuous
 62
     7
370
     9
100
AcDbCircle
 10
-2.839999999999947
 20
0.0692483078921242
 30
0.0
 40
0.02
100
AcDbArc
 50
77.00047925075384
 51
180.0
  0
LINE
  5
326
330
53
100
AcDbEntity
  8
0-0_補助線
  6
Continuous
 62
     7
370
     9
100
AcDbLine
 10
-2.4089977161685
 20
-0.0097265699620763
 30
0.0
 11
-2.835501141915671
 21
0.0887357468192285
 31
0.0
  0
LINE
  5
327
330
53
100
AcDbEntity
  8
0-0_補助線
  6
Continuous
 62
     7
370
     9
100
AcDbLine
 10
-2.4089977161685
 20
-0.0097265699620763
 30
0.0
 11
-2.398644954364414
 21
0.0289104630894848
 31
0.0
  0
LINE
  5
328
330
53
100
AcDbEntity
  8
0-0_補助線
  6
Continuous
 62
     7
370
     9
100
AcDbLine
 10
-2.059999999999945
 20
-0.2507516921078725
 30
0.0
 11
2.060000000000059
 21
-0.2507516921078761
 31
0.0
  0
LINE
  5
329
330
53
100
AcDbEntity
  8
0-0_補助線
  6
Continuous
 62
     7
370
     9
100
AcDbLine
 10
-2.059999999999945
 20
-1.690751692107877
 30
0.0
 11
2.060000000000059
 21
-1.690751692107877
 31
0.0
  0
LINE
  5
32A
330
53
100
AcDbEntity
  8
0-0_補助線
  6
Continuous
 62
     7
370
     9
100
AcDbLine
 10
-2.199999999999932
 20
-1.930751692107876
 30
0.0
 11
2.200000000000045
 21
-1.930751692107876
 31
0.0
  0
LINE
  5
32B
330
53
100
AcDbEntity
  8
0-0_補助線
  6
Continuous
 62
     7
370
     9
100
AcDbLine
 10
2.200000000000045
 20
-1.970751692107875
 30
0.0
 11
-2.199999999999932
 21
-1.970751692107875
 31
0.0
  0
ENDBLK
  5
55
330
53
100
AcDbEntity
  8
0
100
AcDbBlockEnd
  0
ENDSEC
  0
SECTION
  2
ENTITIES
  0
LINE
  5
56
330
1F
100
AcDbEntity
  8
F-0_補助線
  6
JWW_HOJO
 62
   120
370
     5
100
AcDbLine
 10
-6140.081333436773
 20
-4455.0
 30
0.0
 11
-6140.081333436773
 21
4424.999604096284
 31
0.0
  0
LINE
  5
57
330
1F
100
AcDbEntity
  8
F-0_補助線
  6
JWW_HOJO
 62
   120
370
     5
100
AcDbLine
 10
-6140.081333436773
 20
4424.999604096284
 30
0.0
 11
6159.917676803936
 21
4424.999604096284
 31
0.0
  0
LINE
  5
58
330
1F
100
AcDbEntity
  8
F-0_補助線
  6
JWW_HOJO
 62
   120
370
     5
100
AcDbLine
 10
6159.917676803936
 20
4424.999604096284
 30
0.0
 11
6159.917676803936
 21
-4455.0
 31
0.0
  0
LINE
  5
59
330
1F
100
AcDbEntity
  8
F-0_補助線
  6
JWW_HOJO
 62
   120
370
     5
100
AcDbLine
 10
6159.917676803936
 20
-4455.0
 30
0.0
 11
-6140.081333436773
 21
-4455.0
 31
0.0
  0
LINE
  5
5A
330
1F
100
AcDbEntity
  8
F-0_補助線
  6
JWW_HOJO
 62
     7
370
     9
100
AcDbLine
 10
509.9185840832865
 20
-3795.000003092998
 30
0.0
 11
509.9185840832865
 21
-4195.000008247994
 31
0.0
  0
LINE
  5
5B
330
1F
100
AcDbEntity
  8
F-1_枠
  6
Continuous
 62
   200
370
    20
100
AcDbLine
 10
5859.917429364114
 20
4174.999769056166
 30
0.0
 11
5859.917429364114
 21
-4205.000164959882
 31
0.0
  0
LINE
  5
5C
330
1F
100
AcDbEntity
  8
F-1_枠
  6
Continuous
 62
   200
370
    20
100
AcDbLine
 10
-5840.081317971782
 20
4174.999769056166
 30
0.0
 11
-5840.081317971782
 21
-4205.000164959882
 31
0.0
  0
LINE
  5
5D
330
1F
100
AcDbEntity
  8
F-1_枠
  6
Continuous
 62
   200
370
    20
100
AcDbLine
 10
5859.917429364114
 20
-4205.000002577498
 30
0.0
 11
-5840.081085996952
 21
-4205.000002577498
 31
0.0
  0
LINE
  5
5E
330
1F
100
AcDbEntity
  8
F-1_枠
  6
Continuous
 62
   200
370
    20
100
AcDbLine
 10
-5830.081323642279
 20
4174.999769056166
 30
0.0
 11
-5830.081323642279
 21
-4205.000164959882
 31
0.0
  0
LINE
  5
5F
330
1F
100
AcDbEntity
  8
F-1_枠
  6
Continuous
 62
   200
370
    20
100
AcDbLine
 10
-5835.081309208291
 20
4174.999769056166
 30
0.0
 11
-5835.081309208291
 21
-4205.000164959882
 31
0.0
  0
LINE
  5
60
330
1F
100
AcDbEntity
  8
F-1_枠
  6
Continuous
 62
   200
370
    20
100
AcDbLine
 10
5854.917165428304
 20
4174.999769056166
 30
0.0
 11
5854.917165428304
 21
-4205.000164959882
 31
0.0
  0
LINE
  5
61
330
1F
100
AcDbEntity
  8
F-1_枠
  6
Continuous
 62
   200
370
    20
100
AcDbLine
 10
5849.917643811961
 20
4174.999769056166
 30
0.0
 11
5849.917643811961
 21
-4205.000164959882
 31
0.0
  0
LINE
  5
62
330
1F
100
AcDbEntity
  8
F-1_枠
  6
Continuous
 62
   200
370
    20
100
AcDbLine
 10
5859.917429364114
 20
-4199.999993814004
 30
0.0
 11
-5840.081085996952
 21
-4199.999993814004
 31
0.0
  0
LINE
  5
63
330
1F
100
AcDbEntity
  8
F-1_枠
  6
Continuous
 62
   200
370
    20
100
AcDbLine
 10
5859.917429364114
 20
-4195.000008247994
 30
0.0
 11
-5840.081085996952
 21
-4195.000008247994
 31
0.0
  0
LINE
  5
64
330
1F
100
AcDbEntity
  8
F-1_枠
  6
Continuous
 62
   200
370
    20
100
AcDbLine
 10
4349.917891251784
 20
-3795.000003092998
 30
0.0
 11
4349.917891251784
 21
-4195.000008247994
 31
0.0
  0
LINE
  5
65
330
1F
100
AcDbEntity
  8
F-1_枠
  6
Continuous
 62
   200
370
    20
100
AcDbLine
 10
2849.917396372139
 20
-3795.000003092998
 30
0.0
 11
2849.917396372139
 21
-4195.000008247994
 31
0.0
  0
LINE
  5
66
330
1F
100
AcDbEntity
  8
F-1_枠
  6
Continuous
 62
   200
370
    20
100
AcDbLine
 10
9.918542843316231
 20
-3795.000003092998
 30
0.0
 11
9.918542843316231
 21
-4195.000008247994
 31
0.0
  0
LINE
  5
67
330
1F
100
AcDbEntity
  8
F-1_枠
  6
Continuous
 62
   200
370
    20
100
AcDbLine
 10
9.918542843316231
 20
-3994.999936078046
 30
0.0
 11
5849.917643811961
 21
-3995.005364289155
 31
0.0
  0
LINE
  5
68
330
1F
100
AcDbEntity
  8
F-1_枠
  6
Continuous
 62
   200
370
    20
100
AcDbLine
 10
-5840.081085996952
 20
4174.999769056166
 30
0.0
 11
5859.917429364114
 21
4174.999769056166
 31
0.0
  0
LINE
  5
69
330
1F
100
AcDbEntity
  8
F-1_枠
  6
Continuous
 62
   200
370
    20
100
AcDbLine
 10
-5840.081085996952
 20
4164.999983504013
 30
0.0
 11
5859.917429364114
 21
4164.999983504013
 31
0.0
  0
LINE
  5
6A
330
1F
100
AcDbEntity
  8
F-1_枠
  6
Continuous
 62
   200
370
    20
100
AcDbLine
 10
-5840.081085996952
 20
4169.999505120355
 30
0.0
 11
5859.917429364114
 21
4169.999505120355
 31
0.0
  0
LINE
  5
6B
330
1F
100
AcDbEntity
  8
F-0_補助線
  6
JWW_HOJO
 62
     7
370
     9
100
AcDbLine
 10
-5830.081323642279
 20
-3994.99993607839
 30
0.0
 11
9.918542843316231
 21
-3994.99993607839
 31
0.0
  0
LINE
  5
6C
330
1F
100
AcDbEntity
  8
F-0_補助線
  6
JWW_HOJO
 62
     7
370
     9
100
AcDbLine
 10
-5830.081323642279
 20
-3904.99993607839
 30
0.0
 11
9.918542843316231
 21
-3904.99993607839
 31
0.0
  0
LINE
  5
6D
330
1F
100
AcDbEntity
  8
F-0_補助線
  6
JWW_HOJO
 62
     7
370
     9
100
AcDbLine
 10
-5830.081323642279
 20
-4084.99993607839
 30
0.0
 11
9.918542843316231
 21
-4084.99993607839
 31
0.0
  0
LINE
  5
6E
330
1F
100
AcDbEntity
  8
F-0_補助線
  6
JWW_HOJO
 62
     7
370
     9
100
AcDbLine
 10
9.918408067688347
 20
-4139.999739777983
 30
0.0
 11
5849.917509036332
 21
-4140.005167989091
 31
0.0
  0
LINE
  5
6F
330
1F
100
AcDbEntity
  8
F-0_補助線
  6
JWW_HOJO
 62
     7
370
     9
100
AcDbLine
 10
9.918491721639953
 20
-4049.999739778022
 30
0.0
 11
5849.917592690284
 21
-4050.005167989131
 31
0.0
  0
LINE
  5
70
330
1F
100
AcDbEntity
  8
F-0_補助線
  6
JWW_HOJO
 62
     7
370
     9
100
AcDbLine
 10
9.918593965360003
 20
-3939.99973721807
 30
0.0
 11
5849.917694934004
 21
-3940.005165429179
 31
0.0
  0
LINE
  5
71
330
1F
100
AcDbEntity
  8
F-0_補助線
  6
JWW_HOJO
 62
     7
370
     9
100
AcDbLine
 10
9.918677619311609
 20
-3849.999737218109
 30
0.0
 11
5849.917778587956
 21
-3850.005165429218
 31
0.0
  0
LINE
  5
72
330
1F
100
AcDbEntity
  8
F-0_補助線
  6
JWW_HOJO
 62
     7
370
     9
100
AcDbLine
 10
2939.917396372139
 20
-3795.000003092998
 30
0.0
 11
2939.917396372139
 21
-4195.000008247994
 31
0.0
  0
LINE
  5
73
330
1F
100
AcDbEntity
  8
F-0_補助線
  6
JWW_HOJO
 62
     7
370
     9
100
AcDbLine
 10
99.91854284331623
 20
-3795.000003092998
 30
0.0
 11
99.91854284331623
 21
-4195.000008247994
 31
0.0
  0
LINE
  5
74
330
1F
100
AcDbEntity
  8
F-0_補助線
  6
JWW_HOJO
 62
     7
370
     9
100
AcDbLine
 10
4439.917891251784
 20
-3795.000003092998
 30
0.0
 11
4439.917891251784
 21
-4195.000008247994
 31
0.0
  0
LINE
  5
75
330
1F
100
AcDbEntity
  8
F-1_枠
  6
Continuous
 62
   200
370
    20
100
AcDbLine
 10
5859.917429364114
 20
-3795.000003092998
 30
0.0
 11
-5840.081085996952
 21
-3795.000003092998
 31
0.0
  0
LINE
  5
76
330
1F
100
AcDbEntity
  8
F-1_枠
  6
Continuous
 62
   200
370
    20
100
AcDbLine
 10
5859.917429364114
 20
-3790.000017526987
 30
0.0
 11
-5840.081085996952
 21
-3790.000017526987
 31
0.0
  0
LINE
  5
77
330
1F
100
AcDbEntity
  8
F-0_補助線
  6
JWW_HOJO
 62
     7
370
     9
100
AcDbLine
 10
-5087.628710189611
 20
-3795.000003092999
 30
0.0
 11
-5087.628710189611
 21
-4205.000164959882
 31
0.0
  0
LINE
  5
78
330
1F
100
AcDbEntity
  8
F-0_補助線
  6
JWW_HOJO
 62
     7
370
     9
100
AcDbLine
 10
-50.08145715668377
 20
-3795.000003092998
 30
0.0
 11
-50.08145715668377
 21
-4195.000008247994
 31
0.0
  0
MTEXT
  5
79
330
1F
100
AcDbEntity
  8
F-A_文字
  6
Continuous
 62
     7
370
     0
100
AcDbMText
 10
99.91854284331623
 20
-3887.139820871936
 30
0.0
 40
45.72
 41
180.0
 46
0.0
 71
     7
 72
     1
  1
{\fＭＳ ゴシック|b0|i0|c128|p49;図面名}
 73
     1
 44
1.0
  0
MTEXT
  5
7A
330
1F
100
AcDbEntity
  8
F-A_文字
  6
Continuous
 62
     7
370
     0
100
AcDbMText
 10
2939.917396372139
 20
-3887.142460617774
 30
0.0
 40
45.72
 41
300.0
 46
0.0
 71
     7
 72
     1
  1
{\fＭＳ ゴシック|b0|i0|c128|p49;ＳＣＡＬＥ}
 73
     1
 44
1.0
  0
MTEXT
  5
7B
330
1F
100
AcDbEntity
  8
F-A_文字
  6
Continuous
 62
     7
370
     0
100
AcDbMText
 10
4439.917891251784
 20
-3887.143854850754
 30
0.0
 40
45.72
 41
240.0
 46
0.0
 71
     7
 72
     1
  1
{\fＭＳ ゴシック|b0|i0|c128|p49;ＤＡＴＥ}
 73
     1
 44
1.0
  0
MTEXT
  5
7C
330
1F
100
AcDbEntity
  8
F-A_文字
  6
Continuous
 62
     7
370
     0
100
AcDbMText
 10
3569.917643811961
 20
-3946.903115907308
 30
0.0
 40
76.19999999999999
 41
150.0
 46
0.0
 71
     7
 72
     1
  1
{\fＭＳ ゴシック|b0|i0|c128|p49;1/5}
 73
     1
 44
1.0
  0
MTEXT
  5
7D
330
1F
100
AcDbEntity
  8
F-A_文字
  6
Continuous
 62
     7
370
     0
100
AcDbMText
 10
2939.917396372139
 20
-4087.14246317786
 30
0.0
 40
45.72
 41
240.0
 46
0.0
 71
     7
 72
     1
  1
{\fＭＳ ゴシック|b0|i0|c128|p49;ＦＩＬＥ}
 73
     1
 44
1.0
  0
MTEXT
  5
7E
330
1F
100
AcDbEntity
  8
F-A_文字
  6
Continuous
 62
     7
370
     0
100
AcDbMText
 10
4439.917891251784
 20
-4087.143857410839
 30
0.0
 40
45.72
 41
180.0
 46
0.0
 71
     7
 72
     1
  1
{\fＭＳ ゴシック|b0|i0|c128|p49;ＮＯ．}
 73
     1
 44
1.0
  0
MTEXT
  5
7F
330
1F
100
AcDbEntity
  8
F-A_文字
  6
Continuous
 62
     7
370
     0
100
AcDbMText
 10
1394.917396372138
 20
-4096.140669266149
 30
0.0
 40
45.72
 41
120.0
 46
0.0
 71
     7
 72
     1
  1
{\fＭＳ ゴシック|b0|i0|c128|p49;株式}
 73
     1
 44
1.0
  0
MTEXT
  5
80
330
1F
100
AcDbEntity
  8
F-A_文字
  6
Continuous
 62
     7
370
     0
100
AcDbMText
 10
1604.917396372138
 20
-4164.281754523929
 30
0.0
 40
101.44125
 41
1065.0
 46
0.0
 71
     7
 72
     1
  1
{\fＭＳ ゴシック|b0|i0|c128|p49;ウッドワン・・・}
 73
     1
 44
1.0
  0
MTEXT
  5
81
330
1F
100
AcDbEntity
  8
F-A_文字
  6
Continuous
 62
     7
370
     0
100
AcDbMText
 10
1394.917396372138
 20
-4168.140669266187
 30
0.0
 40
45.72
 41
120.0
 46
0.0
 71
     7
 72
     1
  1
{\fＭＳ ゴシック|b0|i0|c128|p49;会社}
 73
     1
 44
1.0
  0
MTEXT
  5
82
330
1F
100
AcDbEntity
  8
F-A_文字
  6
Continuous
 62
     7
370
     0
100
AcDbMText
 10
5768.321977672939
 20
-4314.841419020919
 30
0.0
 40
68.58
 41
90.0
 46
0.0
 71
     7
 72
     1
  1
{\fＭＳ ゴシック|b0|i0|c128|p49;）}
 73
     1
 44
1.0
  0
MTEXT
  5
83
330
1F
100
AcDbEntity
  8
F-A_文字
  6
Continuous
 62
     7
370
     0
100
AcDbMText
 10
5350.114617405298
 20
-4316.235443869856
 30
0.0
 40
68.58
 41
45.0
 46
0.0
 71
     7
 72
     1
  1
{\fＭＳ ゴシック|b0|i0|c128|p49;,}
 73
     1
 44
1.0
  0
MTEXT
  5
84
330
1F
100
AcDbEntity
  8
F-A_文字
  6
Continuous
 62
     7
370
     0
100
AcDbMText
 10
5083.855928478601
 20
-4314.771967288282
 30
0.0
 40
74.295
 41
97.5
 46
0.0
 71
     7
 72
     1
  1
{\fＭＳ ゴシック|b0|i0|c128|p49;$y}
 73
     1
 44
1.0
  0
MTEXT
  5
85
330
1F
100
AcDbEntity
  8
F-A_文字
  6
Continuous
 62
     7
370
     0
100
AcDbMText
 10
5238.592649517422
 20
-4314.771967288282
 30
0.0
 40
74.295
 41
97.5
 46
0.0
 71
     7
 72
     1
  1
{\fＭＳ ゴシック|b0|i0|c128|p49;$m}
 73
     1
 44
1.0
  0
MTEXT
  5
86
330
1F
100
AcDbEntity
  8
F-A_文字
  6
Continuous
 62
     7
370
     0
100
AcDbMText
 10
5393.32938200033
 20
-4314.771967288282
 30
0.0
 40
74.295
 41
97.5
 46
0.0
 71
     7
 72
     1
  1
{\fＭＳ ゴシック|b0|i0|c128|p49;$d}
 73
     1
 44
1.0
  0
MTEXT
  5
87
330
1F
100
AcDbEntity
  8
F-A_文字
  6
Continuous
 62
     7
370
     0
100
AcDbMText
 10
5548.066114483239
 20
-4314.771967288282
 30
0.0
 40
74.295
 41
195.0
 46
0.0
 71
     7
 72
     1
  1
{\fＭＳ ゴシック|b0|i0|c128|p49;印刷}
 73
     1
 44
1.0
  0
MTEXT
  5
88
330
1F
100
AcDbEntity
  8
F-A_文字
  6
Continuous
 62
     7
370
     0
100
AcDbMText
 10
4943.952040816226
 20
-4319.023493567732
 30
0.0
 40
68.58
 41
90.0
 46
0.0
 71
     7
 72
     1
  1
{\fＭＳ ゴシック|b0|i0|c128|p49;（}
 73
     1
 44
1.0
  0
MTEXT
  5
89
330
1F
100
AcDbEntity
  8
F-A_文字
  6
Continuous
 62
     7
370
     0
100
AcDbMText
 10
5191.195810375571
 20
-4319.023493567732
 30
0.0
 40
68.58
 41
45.0
 46
0.0
 71
     7
 72
     1
  1
{\fＭＳ ゴシック|b0|i0|c128|p49;,}
 73
     1
 44
1.0
  0
MTEXT
  5
8A
330
1F
100
AcDbEntity
  8
F-A_文字
  6
Continuous
 62
     7
370
     9
100
AcDbMText
 10
5096.167700144057
 20
-4147.857012699985
 30
0.0
 40
74.295
 41
97.5
 46
0.0
 71
     7
 72
     1
  1
{\fＭＳ ゴシック|b0|i0|c128|p49;01}
 73
     1
 44
1.0
  0
LINE
  5
8B
330
1F
100
AcDbEntity
  8
0-A_文字
  6
Continuous
 62
    92
370
    13
100
AcDbLine
 10
-5659.999495325861
 20
3730.000181455871
 30
0.0
 11
-5659.999495325861
 21
4000.000181455871
 31
0.0
  0
LINE
  5
8C
330
1F
100
AcDbEntity
  8
0-0_補助線
  6
JWW_HOJO
 62
   120
370
     5
100
AcDbLine
 10
-3095.081457156685
 20
1793.999683277027
 30
0.0
 11
-3095.081457156685
 21
3083.999683277025
 31
0.0
  0
LINE
  5
8D
330
1F
100
AcDbEntity
  8
0-0_補助線
  6
JWW_HOJO
 62
   120
370
     5
100
AcDbLine
 10
3114.918542843318
 20
3083.999683277025
 30
0.0
 11
-3095.081457156685
 21
3083.999683277025
 31
0.0
  0
LINE
  5
8E
330
1F
100
AcDbEntity
  8
0-0_補助線
  6
JWW_HOJO
 62
   120
370
     5
100
AcDbLine
 10
3114.918542843318
 20
1793.999683277027
 30
0.0
 11
-3095.081457156685
 21
1793.999683277027
 31
0.0
  0
LINE
  5
8F
330
1F
100
AcDbEntity
  8
0-1_通り芯
  6
JWW_CENTER1
 62
   120
370
     5
100
AcDbLine
 10
3114.918542843318
 20
2438.999683277028
 30
0.0
 11
-3095.081457156685
 21
2438.999683277028
 31
0.0
  0
LINE
  5
90
330
1F
100
AcDbEntity
  8
ハッチ
  6
JWW_DASHED1
 62
   120
370
     5
100
AcDbLine
 10
-3095.081457156685
 20
2815.00948964995
 30
0.0
 11
-3081.091263529607
 21
2828.999683277025
 31
0.0
  0
LINE
  5
91
330
1F
100
AcDbEntity
  8
ハッチ
  6
JWW_DASHED1
 62
   120
370
     5
100
AcDbLine
 10
-3095.081457156679
 20
2093.760572839661
 30
0.0
 11
-3064.84234671932
 21
2123.999683277021
 31
0.0
  0
LINE
  5
92
330
1F
100
AcDbEntity
  8
ハッチ
  6
JWW_DASHED1
 62
   120
370
     5
100
AcDbLine
 10
-2996.238449787255
 20
2828.99968327703
 30
0.0
 11
-3071.238449787266
 21
2753.999683277019
 31
0.0
  0
LINE
  5
93
330
1F
100
AcDbEntity
  8
ハッチ
  6
JWW_DASHED1
 62
   120
370
     5
100
AcDbLine
 10
-3038.664856658407
 20
2828.999683277021
 30
0.0
 11
-3095.081457156679
 21
2772.583082778749
 31
0.0
  0
LINE
  5
94
330
1F
100
AcDbEntity
  8
ハッチ
  6
JWW_DASHED1
 62
   120
370
     5
100
AcDbLine
 10
-2979.98953297697
 20
2123.999683277028
 30
0.0
 11
-3054.989532976978
 21
2048.999683277014
 31
0.0
  0
LINE
  5
95
330
1F
100
AcDbEntity
  8
ハッチ
  6
JWW_DASHED1
 62
   120
370
     5
100
AcDbLine
 10
-3022.415939848164
 20
2123.99968327703
 30
0.0
 11
-3095.081457156672
 21
2051.33416596852
 31
0.0
  0
LINE
  5
96
330
1F
100
AcDbEntity
  8
仕上げ
  6
Continuous
 62
    40
370
    15
100
AcDbLine
 10
-1895.081457156684
 20
2753.999683277028
 30
0.0
 11
-3095.081457156685
 21
2753.999683277028
 31
0.0
  0
LINE
  5
97
330
1F
100
AcDbEntity
  8
仕上げ
  6
Continuous
 62
    40
370
    15
100
AcDbLine
 10
-1895.081457156684
 20
2123.999683277028
 30
0.0
 11
-3095.081457156685
 21
2123.999683277028
 31
0.0
  0
LINE
  5
98
330
1F
100
AcDbEntity
  8
仕上げ
  6
Continuous
 62
    40
370
    15
100
AcDbLine
 10
-1895.081457156684
 20
2048.999683277028
 30
0.0
 11
-3095.081457156685
 21
2048.999683277028
 31
0.0
  0
LINE
  5
99
330
1F
100
AcDbEntity
  8
仕上げ
  6
Continuous
 62
    40
370
    15
100
AcDbLine
 10
-1895.081457156684
 20
2828.999683277028
 30
0.0
 11
-3095.081457156685
 21
2828.999683277028
 31
0.0
  0
LINE
  5
9A
330
1F
100
AcDbEntity
  8
0-0_補助線
  6
JWW_HOJO
 62
   120
370
     5
100
AcDbLine
 10
78.91854284331599
 20
3083.999683277025
 30
0.0
 11
78.91854284331599
 21
1793.999683277027
 31
0.0
  0
LINE
  5
9B
330
1F
100
AcDbEntity
  8
0-0_補助線
  6
JWW_HOJO
 62
   120
370
     5
100
AcDbLine
 10
-41.08145715668401
 20
3083.999683277025
 30
0.0
 11
-41.08145715668401
 21
1793.999683277027
 31
0.0
  0
LINE
  5
9C
330
1F
100
AcDbEntity
  8
ハッチ
  6
JWW_DASHED1
 62
   120
370
     5
100
AcDbLine
 10
3061.501942345069
 20
2048.999683277016
 30
0.0
 11
3114.918542843318
 21
2102.416283775265
 31
0.0
  0
LINE
  5
9D
330
1F
100
AcDbEntity
  8
ハッチ
  6
JWW_DASHED1
 62
   120
370
     5
100
AcDbLine
 10
3103.928349216269
 20
2048.999683277016
 30
0.0
 11
3114.918542843318
 21
2059.989876904067
 31
0.0
  0
LINE
  5
9E
330
1F
100
AcDbEntity
  8
ハッチ
  6
JWW_DASHED1
 62
   120
370
     5
100
AcDbLine
 10
3087.679432405985
 20
2753.999683277021
 30
0.0
 11
3114.918542843318
 21
2781.238793714354
 31
0.0
  0
LINE
  5
9F
330
1F
100
AcDbEntity
  8
ハッチ
  6
JWW_DASHED1
 62
   120
370
     5
100
AcDbLine
 10
3045.253025534785
 20
2753.999683277021
 30
0.0
 11
3114.918542843318
 21
2823.665200585554
 31
0.0
  0
LINE
  5
A0
330
1F
100
AcDbEntity
  8
ハッチ
  6
JWW_DASHED1
 62
   120
370
     5
100
AcDbLine
 10
3002.826618663585
 20
2753.999683277021
 30
0.0
 11
3077.826618663596
 21
2828.999683277033
 31
0.0
  0
LINE
  5
A1
330
1F
100
AcDbEntity
  8
ハッチ
  6
JWW_DASHED1
 62
   120
370
     5
100
AcDbLine
 10
3019.075535473869
 20
2048.999683277016
 30
0.0
 11
3094.075535473882
 21
2123.999683277028
 31
0.0
  0
LINE
  5
A2
330
1F
100
AcDbEntity
  8
仕上げ
  6
Continuous
 62
    40
370
    15
100
AcDbLine
 10
3114.918542843318
 20
2123.999683277028
 30
0.0
 11
1914.918542843317
 21
2123.999683277028
 31
0.0
  0
LINE
  5
A3
330
1F
100
AcDbEntity
  8
仕上げ
  6
Continuous
 62
    40
370
    15
100
AcDbLine
 10
3114.918542843318
 20
2753.999683277028
 30
0.0
 11
1914.918542843317
 21
2753.999683277028
 31
0.0
  0
LINE
  5
A4
330
1F
100
AcDbEntity
  8
仕上げ
  6
Continuous
 62
    40
370
    15
100
AcDbLine
 10
3114.918542843318
 20
2828.999683277028
 30
0.0
 11
1914.918542843317
 21
2828.999683277028
 31
0.0
  0
LINE
  5
A5
330
1F
100
AcDbEntity
  8
仕上げ
  6
Continuous
 62
    40
370
    15
100
AcDbLine
 10
3114.918542843318
 20
2048.999683277028
 30
0.0
 11
1914.918542843317
 21
2048.999683277028
 31
0.0
  0
LINE
  5
A6
330
1F
100
AcDbEntity
  8
ハッチ
  6
JWW_DASHED1
 62
   120
370
     5
100
AcDbLine
 10
2960.400211792381
 20
2753.999683277016
 30
0.0
 11
3035.400211792396
 21
2828.999683277033
 31
0.0
  0
LINE
  5
A7
330
1F
100
AcDbEntity
  8
ハッチ
  6
JWW_DASHED1
 62
   120
370
     5
100
AcDbLine
 10
2917.973804921185
 20
2753.999683277021
 30
0.0
 11
2992.973804921196
 21
2828.999683277033
 31
0.0
  0
LINE
  5
A8
330
1F
100
AcDbEntity
  8
ハッチ
  6
JWW_DASHED1
 62
   120
370
     5
100
AcDbLine
 10
2875.547398050046
 20
2753.999683277028
 30
0.0
 11
2950.547398050039
 21
2828.999683277021
 31
0.0
  0
LINE
  5
A9
330
1F
100
AcDbEntity
  8
ハッチ
  6
JWW_DASHED1
 62
   120
370
     5
100
AcDbLine
 10
2833.12099117885
 20
2753.999683277033
 30
0.0
 11
2908.120991178843
 21
2828.999683277025
 31
0.0
  0
LINE
  5
AA
330
1F
100
AcDbEntity
  8
ハッチ
  6
JWW_DASHED1
 62
   120
370
     5
100
AcDbLine
 10
2790.694584307655
 20
2753.999683277037
 30
0.0
 11
2865.694584307646
 21
2828.999683277028
 31
0.0
  0
LINE
  5
AB
330
1F
100
AcDbEntity
  8
ハッチ
  6
JWW_DASHED1
 62
   120
370
     5
100
AcDbLine
 10
2748.26817743645
 20
2753.999683277033
 30
0.0
 11
2823.26817743645
 21
2828.99968327703
 31
0.0
  0
LINE
  5
AC
330
1F
100
AcDbEntity
  8
ハッチ
  6
JWW_DASHED1
 62
   120
370
     5
100
AcDbLine
 10
2705.841770565253
 20
2753.999683277035
 30
0.0
 11
2780.841770565253
 21
2828.999683277034
 31
0.0
  0
LINE
  5
AD
330
1F
100
AcDbEntity
  8
ハッチ
  6
JWW_DASHED1
 62
   120
370
     5
100
AcDbLine
 10
2663.415363694035
 20
2753.999683277016
 30
0.0
 11
2738.415363694048
 21
2828.99968327703
 31
0.0
  0
LINE
  5
AE
330
1F
100
AcDbEntity
  8
ハッチ
  6
JWW_DASHED1
 62
   120
370
     5
100
AcDbLine
 10
2620.988956822838
 20
2753.999683277021
 30
0.0
 11
2695.988956822852
 21
2828.999683277034
 31
0.0
  0
LINE
  5
AF
330
1F
100
AcDbEntity
  8
ハッチ
  6
JWW_DASHED1
 62
   120
370
     5
100
AcDbLine
 10
2578.562549951641
 20
2753.999683277023
 30
0.0
 11
2653.562549951657
 21
2828.999683277038
 31
0.0
  0
LINE
  5
B0
330
1F
100
AcDbEntity
  8
ハッチ
  6
JWW_DASHED1
 62
   120
370
     5
100
AcDbLine
 10
2536.136143080505
 20
2753.999683277033
 30
0.0
 11
2611.136143080491
 21
2828.999683277019
 31
0.0
  0
LINE
  5
B1
330
1F
100
AcDbEntity
  8
ハッチ
  6
JWW_DASHED1
 62
   120
370
     5
100
AcDbLine
 10
2493.709736209307
 20
2753.999683277035
 30
0.0
 11
2568.709736209294
 21
2828.999683277021
 31
0.0
  0
LINE
  5
B2
330
1F
100
AcDbEntity
  8
ハッチ
  6
JWW_DASHED1
 62
   120
370
     5
100
AcDbLine
 10
2976.649128602671
 20
2048.999683277016
 30
0.0
 11
3051.649128602694
 21
2123.999683277038
 31
0.0
  0
LINE
  5
B3
330
1F
100
AcDbEntity
  8
ハッチ
  6
JWW_DASHED1
 62
   120
370
     5
100
AcDbLine
 10
2934.222721731473
 20
2048.999683277016
 30
0.0
 11
3009.222721731483
 21
2123.999683277028
 31
0.0
  0
LINE
  5
B4
330
1F
100
AcDbEntity
  8
ハッチ
  6
JWW_DASHED1
 62
   120
370
     5
100
AcDbLine
 10
2891.796314860276
 20
2048.999683277021
 30
0.0
 11
2966.796314860287
 21
2123.999683277033
 31
0.0
  0
LINE
  5
B5
330
1F
100
AcDbEntity
  8
ハッチ
  6
JWW_DASHED1
 62
   120
370
     5
100
AcDbLine
 10
2849.369907989137
 20
2048.999683277028
 30
0.0
 11
2924.36990798913
 21
2123.999683277021
 31
0.0
  0
LINE
  5
B6
330
1F
100
AcDbEntity
  8
ハッチ
  6
JWW_DASHED1
 62
   120
370
     5
100
AcDbLine
 10
2806.943501117941
 20
2048.999683277032
 30
0.0
 11
2881.943501117934
 21
2123.999683277023
 31
0.0
  0
LINE
  5
B7
330
1F
100
AcDbEntity
  8
ハッチ
  6
JWW_DASHED1
 62
   120
370
     5
100
AcDbLine
 10
2764.517094246746
 20
2048.999683277035
 30
0.0
 11
2839.517094246736
 21
2123.999683277028
 31
0.0
  0
LINE
  5
B8
330
1F
100
AcDbEntity
  8
ハッチ
  6
JWW_DASHED1
 62
   120
370
     5
100
AcDbLine
 10
2722.090687375541
 20
2048.999683277032
 30
0.0
 11
2797.090687375539
 21
2123.99968327703
 31
0.0
  0
LINE
  5
B9
330
1F
100
AcDbEntity
  8
ハッチ
  6
JWW_DASHED1
 62
   120
370
     5
100
AcDbLine
 10
2679.664280504344
 20
2048.999683277035
 30
0.0
 11
2754.664280504343
 21
2123.999683277034
 31
0.0
  0
LINE
  5
BA
330
1F
100
AcDbEntity
  8
ハッチ
  6
JWW_DASHED1
 62
   120
370
     5
100
AcDbLine
 10
2637.23787363313
 20
2048.999683277021
 30
0.0
 11
2712.237873633146
 21
2123.999683277035
 31
0.0
  0
LINE
  5
BB
330
1F
100
AcDbEntity
  8
ハッチ
  6
JWW_DASHED1
 62
   120
370
     5
100
AcDbLine
 10
2594.811466761929
 20
2048.999683277021
 30
0.0
 11
2669.811466761943
 21
2123.999683277034
 31
0.0
  0
LINE
  5
BC
330
1F
100
AcDbEntity
  8
ハッチ
  6
JWW_DASHED1
 62
   120
370
     5
100
AcDbLine
 10
2552.385059890732
 20
2048.999683277023
 30
0.0
 11
2627.385059890746
 21
2123.999683277037
 31
0.0
  0
LINE
  5
BD
330
1F
100
AcDbEntity
  8
ハッチ
  6
JWW_DASHED1
 62
   120
370
     5
100
AcDbLine
 10
2509.958653019596
 20
2048.999683277032
 30
0.0
 11
2584.958653019582
 21
2123.999683277019
 31
0.0
  0
LINE
  5
BE
330
1F
100
AcDbEntity
  8
仕上げ
  6
Continuous
 62
    92
370
    13
100
AcDbLine
 10
2937.22427476142
 20
2123.999683277028
 30
0.0
 11
2937.22427476142
 21
2753.999683277028
 31
0.0
  0
LINE
  5
BF
330
1F
100
AcDbEntity
  8
仕上げ
  6
Continuous
 62
     7
370
     9
100
AcDbLine
 10
2307.22427476142
 20
2123.999683277028
 30
0.0
 11
2937.22427476142
 21
2753.999683277028
 31
0.0
  0
LINE
  5
C0
330
1F
100
AcDbEntity
  8
仕上げ
  6
Continuous
 62
     7
370
     9
100
AcDbLine
 10
2307.22427476142
 20
2753.999683277028
 30
0.0
 11
2937.22427476142
 21
2123.999683277028
 31
0.0
  0
LINE
  5
C1
330
1F
100
AcDbEntity
  8
ハッチ
  6
JWW_DASHED1
 62
   120
370
     5
100
AcDbLine
 10
1914.918542843317
 20
2090.355676168698
 30
0.0
 11
1948.562549951636
 21
2123.999683277016
 31
0.0
  0
LINE
  5
C2
330
1F
100
AcDbEntity
  8
ハッチ
  6
JWW_DASHED1
 62
   120
370
     5
100
AcDbLine
 10
1915.453749833083
 20
2048.464476287261
 30
0.0
 11
1990.988956822833
 21
2123.999683277014
 31
0.0
  0
LINE
  5
C3
330
1F
100
AcDbEntity
  8
ハッチ
  6
JWW_DASHED1
 62
   120
370
     5
100
AcDbLine
 10
1914.918542843317
 20
2811.604592978934
 30
0.0
 11
1932.313633141408
 21
2828.999683277023
 31
0.0
  0
LINE
  5
C4
330
1F
100
AcDbEntity
  8
ハッチ
  6
JWW_DASHED1
 62
   120
370
     5
100
AcDbLine
 10
1914.918542843317
 20
2769.178186107734
 30
0.0
 11
1974.740040012604
 21
2828.999683277021
 31
0.0
  0
LINE
  5
C5
330
1F
100
AcDbEntity
  8
仕上げ
  6
Continuous
 62
    92
370
    13
100
AcDbLine
 10
2307.22427476142
 20
2123.999683277028
 30
0.0
 11
2307.22427476142
 21
2753.999683277028
 31
0.0
  0
LINE
  5
C6
330
1F
100
AcDbEntity
  8
仕上げ
  6
Continuous
 62
    92
370
    13
100
AcDbLine
 10
2235.918542843317
 20
2123.999683277028
 30
0.0
 11
2235.918542843317
 21
2753.999683277028
 31
0.0
  0
LINE
  5
C7
330
1F
100
AcDbEntity
  8
仕上げ
  6
Continuous
 62
    92
370
    13
100
AcDbLine
 10
1965.918542843317
 20
2753.999683277028
 30
0.0
 11
1965.918542843317
 21
2123.999683277028
 31
0.0
  0
LINE
  5
C8
330
1F
100
AcDbEntity
  8
ハッチ
  6
JWW_DASHED1
 62
   120
370
     5
100
AcDbLine
 10
2451.283329338098
 20
2753.999683277025
 30
0.0
 11
2526.283329338098
 21
2828.999683277025
 31
0.0
  0
LINE
  5
C9
330
1F
100
AcDbEntity
  8
ハッチ
  6
JWW_DASHED1
 62
   120
370
     5
100
AcDbLine
 10
2408.856922466889
 20
2753.999683277016
 30
0.0
 11
2473.90620542332
 21
2819.048966233445
 31
0.0
  0
LINE
  5
CA
330
1F
100
AcDbEntity
  8
ハッチ
  6
JWW_DASHED1
 62
   120
370
     5
100
AcDbLine
 10
2366.430515595694
 20
2753.999683277021
 30
0.0
 11
2441.430515595706
 21
2828.99968327703
 31
0.0
  0
LINE
  5
CB
330
1F
100
AcDbEntity
  8
ハッチ
  6
JWW_DASHED1
 62
   120
370
     5
100
AcDbLine
 10
2324.004108724493
 20
2753.999683277021
 30
0.0
 11
2399.004108724491
 21
2828.999683277016
 31
0.0
  0
LINE
  5
CC
330
1F
100
AcDbEntity
  8
ハッチ
  6
JWW_DASHED1
 62
   120
370
     5
100
AcDbLine
 10
2281.577701853295
 20
2753.999683277023
 30
0.0
 11
2356.577701853293
 21
2828.999683277021
 31
0.0
  0
LINE
  5
CD
330
1F
100
AcDbEntity
  8
ハッチ
  6
JWW_DASHED1
 62
   120
370
     5
100
AcDbLine
 10
2239.151294982156
 20
2753.99968327703
 30
0.0
 11
2314.151294982154
 21
2828.999683277028
 31
0.0
  0
LINE
  5
CE
330
1F
100
AcDbEntity
  8
ハッチ
  6
JWW_DASHED1
 62
   120
370
     5
100
AcDbLine
 10
2196.724888110962
 20
2753.999683277034
 30
0.0
 11
2271.724888110956
 21
2828.99968327703
 31
0.0
  0
LINE
  5
CF
330
1F
100
AcDbEntity
  8
ハッチ
  6
JWW_DASHED1
 62
   120
370
     5
100
AcDbLine
 10
2154.298481239763
 20
2753.999683277035
 30
0.0
 11
2229.298481239761
 21
2828.999683277033
 31
0.0
  0
LINE
  5
D0
330
1F
100
AcDbEntity
  8
ハッチ
  6
JWW_DASHED1
 62
   120
370
     5
100
AcDbLine
 10
2111.872074368549
 20
2753.999683277021
 30
0.0
 11
2186.872074368563
 21
2828.999683277035
 31
0.0
  0
LINE
  5
D1
330
1F
100
AcDbEntity
  8
ハッチ
  6
JWW_DASHED1
 62
   120
370
     5
100
AcDbLine
 10
2069.445667497349
 20
2753.999683277021
 30
0.0
 11
2144.44566749736
 21
2828.99968327703
 31
0.0
  0
LINE
  5
D2
330
1F
100
AcDbEntity
  8
ハッチ
  6
JWW_DASHED1
 62
   120
370
     5
100
AcDbLine
 10
2027.01926062614
 20
2753.999683277011
 30
0.0
 11
2102.019260626136
 21
2828.999683277009
 31
0.0
  0
LINE
  5
D3
330
1F
100
AcDbEntity
  8
ハッチ
  6
JWW_DASHED1
 62
   120
370
     5
100
AcDbLine
 10
1984.592853754943
 20
2753.999683277015
 30
0.0
 11
2059.59285375494
 21
2828.999683277011
 31
0.0
  0
LINE
  5
D4
330
1F
100
AcDbEntity
  8
ハッチ
  6
JWW_DASHED1
 62
   120
370
     5
100
AcDbLine
 10
1942.166446883747
 20
2753.999683277016
 30
0.0
 11
2017.166446883743
 21
2828.999683277014
 31
0.0
  0
LINE
  5
D5
330
1F
100
AcDbEntity
  8
ハッチ
  6
JWW_DASHED1
 62
   120
370
     5
100
AcDbLine
 10
2467.532246148398
 20
2048.999683277035
 30
0.0
 11
2542.532246148385
 21
2123.999683277021
 31
0.0
  0
LINE
  5
D6
330
1F
100
AcDbEntity
  8
ハッチ
  6
JWW_DASHED1
 62
   120
370
     5
100
AcDbLine
 10
2425.105839277189
 20
2048.999683277025
 30
0.0
 11
2500.105839277187
 21
2123.999683277023
 31
0.0
  0
LINE
  5
D7
330
1F
100
AcDbEntity
  8
ハッチ
  6
JWW_DASHED1
 62
   120
370
     5
100
AcDbLine
 10
2382.679432405994
 20
2048.99968327703
 30
0.0
 11
2457.679432406007
 21
2123.999683277042
 31
0.0
  0
LINE
  5
D8
330
1F
100
AcDbEntity
  8
ハッチ
  6
JWW_DASHED1
 62
   120
370
     5
100
AcDbLine
 10
2340.253025534784
 20
2048.999683277021
 30
0.0
 11
2415.253025534778
 21
2123.999683277015
 31
0.0
  0
LINE
  5
D9
330
1F
100
AcDbEntity
  8
ハッチ
  6
JWW_DASHED1
 62
   120
370
     5
100
AcDbLine
 10
2297.826618663583
 20
2048.999683277018
 30
0.0
 11
2372.82661866358
 21
2123.999683277016
 31
0.0
  0
LINE
  5
DA
330
1F
100
AcDbEntity
  8
ハッチ
  6
JWW_DASHED1
 62
   120
370
     5
100
AcDbLine
 10
2255.400211792386
 20
2048.999683277021
 30
0.0
 11
2330.400211792384
 21
2123.999683277021
 31
0.0
  0
LINE
  5
DB
330
1F
100
AcDbEntity
  8
ハッチ
  6
JWW_DASHED1
 62
   120
370
     5
100
AcDbLine
 10
2212.97380492119
 20
2048.999683277023
 30
0.0
 11
2287.973804921186
 21
2123.999683277021
 31
0.0
  0
LINE
  5
DC
330
1F
100
AcDbEntity
  8
ハッチ
  6
JWW_DASHED1
 62
   120
370
     5
100
AcDbLine
 10
2170.547398050051
 20
2048.99968327703
 30
0.0
 11
2245.547398050047
 21
2123.999683277028
 31
0.0
  0
LINE
  5
DD
330
1F
100
AcDbEntity
  8
ハッチ
  6
JWW_DASHED1
 62
   120
370
     5
100
AcDbLine
 10
2128.120991178854
 20
2048.999683277034
 30
0.0
 11
2203.120991178851
 21
2123.99968327703
 31
0.0
  0
LINE
  5
DE
330
1F
100
AcDbEntity
  8
ハッチ
  6
JWW_DASHED1
 62
   120
370
     5
100
AcDbLine
 10
2085.694584307641
 20
2048.999683277021
 30
0.0
 11
2160.694584307653
 21
2123.999683277034
 31
0.0
  0
LINE
  5
DF
330
1F
100
AcDbEntity
  8
ハッチ
  6
JWW_DASHED1
 62
   120
370
     5
100
AcDbLine
 10
2043.268177436439
 20
2048.999683277021
 30
0.0
 11
2118.26817743645
 21
2123.99968327703
 31
0.0
  0
LINE
  5
E0
330
1F
100
AcDbEntity
  8
ハッチ
  6
JWW_DASHED1
 62
   120
370
     5
100
AcDbLine
 10
2000.841770565243
 20
2048.999683277023
 30
0.0
 11
2075.841770565238
 21
2123.999683277019
 31
0.0
  0
LINE
  5
E1
330
1F
100
AcDbEntity
  8
ハッチ
  6
JWW_DASHED1
 62
   120
370
     5
100
AcDbLine
 10
1958.415363694033
 20
2048.999683277014
 30
0.0
 11
2033.41536369403
 21
2123.999683277009
 31
0.0
  0
LINE
  5
E2
330
1F
100
AcDbEntity
  8
0-0_補助線
  6
JWW_HOJO
 62
   120
370
     5
100
AcDbLine
 10
3114.918542843318
 20
1793.999683277027
 30
0.0
 11
3114.918542843318
 21
3083.999683277025
 31
0.0
  0
LINE
  5
E3
330
1F
100
AcDbEntity
  8
ハッチ
  6
JWW_DASHED1
 62
   120
370
     5
100
AcDbLine
 10
-2646.97438107531
 20
2753.999683277028
 30
0.0
 11
-2571.974381075316
 21
2828.999683277028
 31
0.0
  0
LINE
  5
E4
330
1F
100
AcDbEntity
  8
ハッチ
  6
JWW_DASHED1
 62
   120
370
     5
100
AcDbLine
 10
-2689.400787946523
 20
2753.999683277014
 30
0.0
 11
-2614.40078794651
 21
2828.999683277028
 31
0.0
  0
LINE
  5
E5
330
1F
100
AcDbEntity
  8
ハッチ
  6
JWW_DASHED1
 62
   120
370
     5
100
AcDbLine
 10
-2731.82719481772
 20
2753.999683277016
 30
0.0
 11
-2656.827194817706
 21
2828.999683277033
 31
0.0
  0
LINE
  5
E6
330
1F
100
AcDbEntity
  8
ハッチ
  6
JWW_DASHED1
 62
   120
370
     5
100
AcDbLine
 10
-2774.253601688861
 20
2753.999683277025
 30
0.0
 11
-2699.253601688875
 21
2828.999683277014
 31
0.0
  0
LINE
  5
E7
330
1F
100
AcDbEntity
  8
ハッチ
  6
JWW_DASHED1
 62
   120
370
     5
100
AcDbLine
 10
-2816.680008560055
 20
2753.999683277028
 30
0.0
 11
-2741.680008560065
 21
2828.999683277016
 31
0.0
  0
LINE
  5
E8
330
1F
100
AcDbEntity
  8
ハッチ
  6
JWW_DASHED1
 62
   120
370
     5
100
AcDbLine
 10
-2859.106415431252
 20
2753.999683277033
 30
0.0
 11
-2784.106415431262
 21
2828.999683277021
 31
0.0
  0
LINE
  5
E9
330
1F
100
AcDbEntity
  8
ハッチ
  6
JWW_DASHED1
 62
   120
370
     5
100
AcDbLine
 10
-2901.532822302455
 20
2753.99968327703
 30
0.0
 11
-2826.532822302461
 21
2828.999683277025
 31
0.0
  0
LINE
  5
EA
330
1F
100
AcDbEntity
  8
ハッチ
  6
JWW_DASHED1
 62
   120
370
     5
100
AcDbLine
 10
-2943.959229173648
 20
2753.999683277035
 30
0.0
 11
-2868.959229173655
 21
2828.99968327703
 31
0.0
  0
LINE
  5
EB
330
1F
100
AcDbEntity
  8
ハッチ
  6
JWW_DASHED1
 62
   120
370
     5
100
AcDbLine
 10
-2986.385636044875
 20
2753.999683277011
 30
0.0
 11
-2911.385636044862
 21
2828.999683277023
 31
0.0
  0
LINE
  5
EC
330
1F
100
AcDbEntity
  8
ハッチ
  6
JWW_DASHED1
 62
   120
370
     5
100
AcDbLine
 10
-3028.812042916069
 20
2753.999683277015
 30
0.0
 11
-2953.812042916055
 21
2828.999683277028
 31
0.0
  0
LINE
  5
ED
330
1F
100
AcDbEntity
  8
ハッチ
  6
JWW_DASHED1
 62
   120
370
     5
100
AcDbLine
 10
-2673.151871136219
 20
2048.999683277028
 30
0.0
 11
-2598.151871136225
 21
2123.999683277028
 31
0.0
  0
LINE
  5
EE
330
1F
100
AcDbEntity
  8
ハッチ
  6
JWW_DASHED1
 62
   120
370
     5
100
AcDbLine
 10
-2715.578278007438
 20
2048.999683277014
 30
0.0
 11
-2640.578278007419
 21
2123.999683277028
 31
0.0
  0
LINE
  5
EF
330
1F
100
AcDbEntity
  8
ハッチ
  6
JWW_DASHED1
 62
   120
370
     5
100
AcDbLine
 10
-2758.004684878632
 20
2048.999683277016
 30
0.0
 11
-2683.004684878615
 21
2123.999683277033
 31
0.0
  0
LINE
  5
F0
330
1F
100
AcDbEntity
  8
ハッチ
  6
JWW_DASHED1
 62
   120
370
     5
100
AcDbLine
 10
-2800.431091749771
 20
2048.999683277025
 30
0.0
 11
-2725.431091749784
 21
2123.999683277014
 31
0.0
  0
LINE
  5
F1
330
1F
100
AcDbEntity
  8
ハッチ
  6
JWW_DASHED1
 62
   120
370
     5
100
AcDbLine
 10
-2842.857498620964
 20
2048.999683277028
 30
0.0
 11
-2767.857498620978
 21
2123.999683277016
 31
0.0
  0
LINE
  5
F2
330
1F
100
AcDbEntity
  8
ハッチ
  6
JWW_DASHED1
 62
   120
370
     5
100
AcDbLine
 10
-2885.283905492164
 20
2048.999683277032
 30
0.0
 11
-2810.283905492171
 21
2123.999683277021
 31
0.0
  0
LINE
  5
F3
330
1F
100
AcDbEntity
  8
ハッチ
  6
JWW_DASHED1
 62
   120
370
     5
100
AcDbLine
 10
-2927.710312363364
 20
2048.99968327703
 30
0.0
 11
-2852.71031236337
 21
2123.999683277025
 31
0.0
  0
LINE
  5
F4
330
1F
100
AcDbEntity
  8
ハッチ
  6
JWW_DASHED1
 62
   120
370
     5
100
AcDbLine
 10
-2970.136719234557
 20
2048.999683277034
 30
0.0
 11
-2895.136719234564
 21
2123.99968327703
 31
0.0
  0
LINE
  5
F5
330
1F
100
AcDbEntity
  8
ハッチ
  6
JWW_DASHED1
 62
   120
370
     5
100
AcDbLine
 10
-3012.563126105771
 20
2048.999683277023
 30
0.0
 11
-2937.563126105757
 21
2123.999683277034
 31
0.0
  0
LINE
  5
F6
330
1F
100
AcDbEntity
  8
仕上げ
  6
Continuous
 62
    92
370
    13
100
AcDbLine
 10
-2576.081457156683
 20
2753.999683277038
 30
0.0
 11
-2576.081457156683
 21
2123.999683277034
 31
0.0
  0
LINE
  5
F7
330
1F
100
AcDbEntity
  8
仕上げ
  6
Continuous
 62
     7
370
     9
100
AcDbLine
 10
-1946.081457156684
 20
2123.999683277034
 30
0.0
 11
-2576.081457156683
 21
2753.999683277038
 31
0.0
  0
LINE
  5
F8
330
1F
100
AcDbEntity
  8
仕上げ
  6
Continuous
 62
     7
370
     9
100
AcDbLine
 10
-2576.081457156683
 20
2123.999683277034
 30
0.0
 11
-1946.081457156684
 21
2753.999683277038
 31
0.0
  0
LINE
  5
F9
330
1F
100
AcDbEntity
  8
ハッチ
  6
JWW_DASHED1
 62
   120
370
     5
100
AcDbLine
 10
-2477.268753590561
 20
2753.999683277041
 30
0.0
 11
-2402.268753590564
 21
2828.999683277041
 31
0.0
  0
LINE
  5
FA
330
1F
100
AcDbEntity
  8
ハッチ
  6
JWW_DASHED1
 62
   120
370
     5
100
AcDbLine
 10
-2519.695160461778
 20
2753.999683277023
 30
0.0
 11
-2444.695160461764
 21
2828.999683277038
 31
0.0
  0
LINE
  5
FB
330
1F
100
AcDbEntity
  8
ハッチ
  6
JWW_DASHED1
 62
   120
370
     5
100
AcDbLine
 10
-2562.121567332978
 20
2753.999683277025
 30
0.0
 11
-2487.121567332964
 21
2828.999683277041
 31
0.0
  0
LINE
  5
FC
330
1F
100
AcDbEntity
  8
ハッチ
  6
JWW_DASHED1
 62
   120
370
     5
100
AcDbLine
 10
-2604.547974204116
 20
2753.99968327703
 30
0.0
 11
-2529.547974204129
 21
2828.999683277023
 31
0.0
  0
LINE
  5
FD
330
1F
100
AcDbEntity
  8
ハッチ
  6
JWW_DASHED1
 62
   120
370
     5
100
AcDbLine
 10
-2461.019836780273
 20
2048.999683277038
 30
0.0
 11
-2386.019836780273
 21
2123.999683277038
 31
0.0
  0
LINE
  5
FE
330
1F
100
AcDbEntity
  8
ハッチ
  6
JWW_DASHED1
 62
   120
370
     5
100
AcDbLine
 10
-2503.446243651483
 20
2048.999683277028
 30
0.0
 11
-2428.44624365147
 21
2123.999683277042
 31
0.0
  0
LINE
  5
FF
330
1F
100
AcDbEntity
  8
ハッチ
  6
JWW_DASHED1
 62
   120
370
     5
100
AcDbLine
 10
-2545.87265052268
 20
2048.99968327703
 30
0.0
 11
-2470.872650522666
 21
2123.999683277043
 31
0.0
  0
LINE
  5
100
330
1F
100
AcDbEntity
  8
ハッチ
  6
JWW_DASHED1
 62
   120
370
     5
100
AcDbLine
 10
-2588.299057393829
 20
2048.999683277028
 30
0.0
 11
-2513.299057393838
 21
2123.999683277021
 31
0.0
  0
LINE
  5
101
330
1F
100
AcDbEntity
  8
ハッチ
  6
JWW_DASHED1
 62
   120
370
     5
100
AcDbLine
 10
-2630.725464265029
 20
2048.999683277028
 30
0.0
 11
-2555.725464265038
 21
2123.999683277023
 31
0.0
  0
LINE
  5
102
330
1F
100
AcDbEntity
  8
ハッチ
  6
JWW_DASHED1
 62
   120
370
     5
100
AcDbLine
 10
-2343.59342990906
 20
2123.999683277034
 30
0.0
 11
-2418.59342990907
 21
2048.999683277023
 31
0.0
  0
LINE
  5
103
330
1F
100
AcDbEntity
  8
ハッチ
  6
JWW_DASHED1
 62
   120
370
     5
100
AcDbLine
 10
-2301.16702303786
 20
2123.999683277034
 30
0.0
 11
-2376.167023037856
 21
2048.999683277037
 31
0.0
  0
LINE
  5
104
330
1F
100
AcDbEntity
  8
ハッチ
  6
JWW_DASHED1
 62
   120
370
     5
100
AcDbLine
 10
-2258.740616166665
 20
2123.99968327703
 30
0.0
 11
-2333.740616166659
 21
2048.999683277034
 31
0.0
  0
LINE
  5
105
330
1F
100
AcDbEntity
  8
ハッチ
  6
JWW_DASHED1
 62
   120
370
     5
100
AcDbLine
 10
-2216.314209295524
 20
2123.999683277023
 30
0.0
 11
-2291.31420929552
 21
2048.999683277028
 31
0.0
  0
LINE
  5
106
330
1F
100
AcDbEntity
  8
ハッチ
  6
JWW_DASHED1
 62
   120
370
     5
100
AcDbLine
 10
-2173.887802424328
 20
2123.999683277021
 30
0.0
 11
-2248.887802424324
 21
2048.999683277023
 31
0.0
  0
LINE
  5
107
330
1F
100
AcDbEntity
  8
ハッチ
  6
JWW_DASHED1
 62
   120
370
     5
100
AcDbLine
 10
-2131.461395553128
 20
2123.999683277019
 30
0.0
 11
-2206.461395553124
 21
2048.999683277021
 31
0.0
  0
LINE
  5
108
330
1F
100
AcDbEntity
  8
ハッチ
  6
JWW_DASHED1
 62
   120
370
     5
100
AcDbLine
 10
-2089.034988681914
 20
2123.999683277033
 30
0.0
 11
-2164.034988681928
 21
2048.999683277018
 31
0.0
  0
LINE
  5
109
330
1F
100
AcDbEntity
  8
ハッチ
  6
JWW_DASHED1
 62
   120
370
     5
100
AcDbLine
 10
-2046.608581810714
 20
2123.999683277034
 30
0.0
 11
-2121.608581810724
 21
2048.999683277023
 31
0.0
  0
LINE
  5
10A
330
1F
100
AcDbEntity
  8
ハッチ
  6
JWW_DASHED1
 62
   120
370
     5
100
AcDbLine
 10
-2004.182174939506
 20
2123.999683277042
 30
0.0
 11
-2079.182174939506
 21
2048.999683277043
 31
0.0
  0
LINE
  5
10B
330
1F
100
AcDbEntity
  8
ハッチ
  6
JWW_DASHED1
 62
   120
370
     5
100
AcDbLine
 10
-1961.755768068307
 20
2123.999683277038
 30
0.0
 11
-2036.755768068306
 21
2048.999683277042
 31
0.0
  0
LINE
  5
10C
330
1F
100
AcDbEntity
  8
ハッチ
  6
JWW_DASHED1
 62
   120
370
     5
100
AcDbLine
 10
-1919.329361197111
 20
2123.999683277037
 30
0.0
 11
-1994.329361197107
 21
2048.999683277041
 31
0.0
  0
LINE
  5
10D
330
1F
100
AcDbEntity
  8
ハッチ
  6
JWW_DASHED1
 62
   120
370
     5
100
AcDbLine
 10
-1895.081457156689
 20
2105.821180446313
 30
0.0
 11
-1951.902954325969
 21
2048.999683277034
 31
0.0
  0
LINE
  5
10E
330
1F
100
AcDbEntity
  8
ハッチ
  6
JWW_DASHED1
 62
   120
370
     5
100
AcDbLine
 10
-1895.081457156686
 20
2063.394773575114
 30
0.0
 11
-1909.476547454774
 21
2048.99968327703
 31
0.0
  0
LINE
  5
10F
330
1F
100
AcDbEntity
  8
ハッチ
  6
JWW_DASHED1
 62
   120
370
     5
100
AcDbLine
 10
-2359.84234671937
 20
2828.999683277037
 30
0.0
 11
-2434.842346719371
 21
2753.999683277011
 31
0.0
  0
LINE
  5
110
330
1F
100
AcDbEntity
  8
ハッチ
  6
JWW_DASHED1
 62
   120
370
     5
100
AcDbLine
 10
-2317.415939848151
 20
2828.999683277034
 30
0.0
 11
-2392.415939848143
 21
2753.999683277038
 31
0.0
  0
LINE
  5
111
330
1F
100
AcDbEntity
  8
ハッチ
  6
JWW_DASHED1
 62
   120
370
     5
100
AcDbLine
 10
-2274.989532976947
 20
2828.999683277035
 30
0.0
 11
-2349.989532976947
 21
2753.999683277037
 31
0.0
  0
LINE
  5
112
330
1F
100
AcDbEntity
  8
ハッチ
  6
JWW_DASHED1
 62
   120
370
     5
100
AcDbLine
 10
-2232.563126105751
 20
2828.999683277033
 30
0.0
 11
-2307.563126105751
 21
2753.999683277034
 31
0.0
  0
LINE
  5
113
330
1F
100
AcDbEntity
  8
ハッチ
  6
JWW_DASHED1
 62
   120
370
     5
100
AcDbLine
 10
-2190.136719234556
 20
2828.99968327703
 30
0.0
 11
-2265.136719234551
 21
2753.999683277034
 31
0.0
  0
LINE
  5
114
330
1F
100
AcDbEntity
  8
ハッチ
  6
JWW_DASHED1
 62
   120
370
     5
100
AcDbLine
 10
-2147.710312363415
 20
2828.999683277023
 30
0.0
 11
-2222.710312363412
 21
2753.999683277028
 31
0.0
  0
LINE
  5
115
330
1F
100
AcDbEntity
  8
ハッチ
  6
JWW_DASHED1
 62
   120
370
     5
100
AcDbLine
 10
-2105.283905492219
 20
2828.999683277021
 30
0.0
 11
-2180.283905492215
 21
2753.999683277023
 31
0.0
  0
LINE
  5
116
330
1F
100
AcDbEntity
  8
ハッチ
  6
JWW_DASHED1
 62
   120
370
     5
100
AcDbLine
 10
-2062.857498621005
 20
2828.999683277034
 30
0.0
 11
-2137.857498621019
 21
2753.999683277021
 31
0.0
  0
LINE
  5
117
330
1F
100
AcDbEntity
  8
ハッチ
  6
JWW_DASHED1
 62
   120
370
     5
100
AcDbLine
 10
-2020.431091749805
 20
2828.999683277034
 30
0.0
 11
-2095.431091749815
 21
2753.999683277023
 31
0.0
  0
LINE
  5
118
330
1F
100
AcDbEntity
  8
ハッチ
  6
JWW_DASHED1
 62
   120
370
     5
100
AcDbLine
 10
-1978.004684878611
 20
2828.99968327703
 30
0.0
 11
-2053.004684878601
 21
2753.999683277035
 31
0.0
  0
LINE
  5
119
330
1F
100
AcDbEntity
  8
ハッチ
  6
JWW_DASHED1
 62
   120
370
     5
100
AcDbLine
 10
-1935.578278007398
 20
2828.999683277041
 30
0.0
 11
-2010.578278007397
 21
2753.999683277043
 31
0.0
  0
LINE
  5
11A
330
1F
100
AcDbEntity
  8
ハッチ
  6
JWW_DASHED1
 62
   120
370
     5
100
AcDbLine
 10
-1895.081457156698
 20
2827.070097256542
 30
0.0
 11
-1968.151871136198
 21
2753.999683277041
 31
0.0
  0
LINE
  5
11B
330
1F
100
AcDbEntity
  8
ハッチ
  6
JWW_DASHED1
 62
   120
370
     5
100
AcDbLine
 10
-1895.081457156698
 20
2784.643690385342
 30
0.0
 11
-1925.725464265002
 21
2753.999683277037
 31
0.0
  0
LINE
  5
11C
330
1F
100
AcDbEntity
  8
仕上げ
  6
Continuous
 62
    92
370
    13
100
AcDbLine
 10
-1946.081457156684
 20
2753.999683277038
 30
0.0
 11
-1946.081457156684
 21
2123.999683277034
 31
0.0
  0
LINE
  5
11D
330
1F
100
AcDbEntity
  8
ハッチ
  6
Continuous
 62
   120
370
     5
100
AcDbLine
 10
-1777.13943014212
 20
2264.999683277024
 30
0.0
 11
-1754.081022281193
 21
2241.941441407374
 31
0.0
  0
LINE
  5
11E
330
1F
100
AcDbEntity
  8
ハッチ
  6
Continuous
 62
   120
370
     5
100
AcDbLine
 10
-1895.081457156698
 20
2382.940861258674
 30
0.0
 11
-1799.339589955099
 21
2287.199683277025
 31
0.0
  0
LINE
  5
11F
330
1F
100
AcDbEntity
  8
ハッチ
  6
Continuous
 62
   120
370
     5
100
AcDbLine
 10
-1775.175812461565
 20
2398.799683277025
 30
0.0
 11
-1754.081022281193
 21
2377.704919381356
 31
0.0
  0
LINE
  5
120
330
1F
100
AcDbEntity
  8
ハッチ
  6
Continuous
 62
   120
370
     5
100
AcDbLine
 10
-1895.081457156684
 20
2518.705178566338
 30
0.0
 11
-1797.375840123424
 21
2420.999683277026
 31
0.0
  0
LINE
  5
121
330
1F
100
AcDbEntity
  8
ハッチ
  6
Continuous
 62
   120
370
     5
100
AcDbLine
 10
-1895.081457156684
 20
2450.822877886256
 30
0.0
 11
-1754.081022281193
 21
2309.822821360726
 31
0.0
  0
LINE
  5
122
330
1F
100
AcDbEntity
  8
0-4_枠
  6
Continuous
 62
    92
370
    13
100
AcDbLine
 10
-1751.081457156682
 20
2287.199683277025
 30
0.0
 11
-1751.081457156682
 21
2398.799683277025
 31
0.0
  0
LINE
  5
123
330
1F
100
AcDbEntity
  8
0-4_枠
  6
Continuous
 62
    92
370
    13
100
AcDbLine
 10
-1754.081022281193
 20
2287.199683277025
 30
0.0
 11
-1754.081022281193
 21
2398.799683277025
 31
0.0
  0
LINE
  5
124
330
1F
100
AcDbEntity
  8
0-4_枠
  6
Continuous
 62
    92
370
    13
100
AcDbLine
 10
-1802.081457156682
 20
2264.999683277024
 30
0.0
 11
-1802.081457156682
 21
2287.199683277025
 31
0.0
  0
LINE
  5
125
330
1F
100
AcDbEntity
  8
0-4_枠
  6
Continuous
 62
    92
370
    13
100
AcDbLine
 10
-1802.081457156682
 20
2398.799683277025
 30
0.0
 11
-1802.081457156682
 21
2420.999683277026
 31
0.0
  0
LINE
  5
126
330
1F
100
AcDbEntity
  8
0-4_枠
  6
Continuous
 62
    92
370
    13
100
AcDbLine
 10
-1802.081457156682
 20
2420.999683277026
 30
0.0
 11
-1751.081457156682
 21
2420.999683277026
 31
0.0
  0
LINE
  5
127
330
1F
100
AcDbEntity
  8
0-4_枠
  6
Continuous
 62
    92
370
    13
100
AcDbLine
 10
-1751.081457156682
 20
2398.799683277025
 30
0.0
 11
-1802.081457156682
 21
2398.799683277025
 31
0.0
  0
LINE
  5
128
330
1F
100
AcDbEntity
  8
0-4_枠
  6
Continuous
 62
    92
370
    13
100
AcDbLine
 10
-1751.081457156682
 20
2287.199683277025
 30
0.0
 11
-1802.081457156682
 21
2287.199683277025
 31
0.0
  0
LINE
  5
129
330
1F
100
AcDbEntity
  8
0-4_枠
  6
Continuous
 62
    92
370
    13
100
AcDbLine
 10
-1751.081457156682
 20
2264.999683277024
 30
0.0
 11
-1802.081457156682
 21
2264.999683277024
 31
0.0
  0
LINE
  5
12A
330
1F
100
AcDbEntity
  8
ハッチ
  6
Continuous
 62
   120
370
     5
100
AcDbLine
 10
-1895.081457156684
 20
2315.055617156941
 30
0.0
 11
-1754.081022281193
 21
2174.058257953535
 31
0.0
  0
LINE
  5
12B
330
1F
100
AcDbEntity
  8
ハッチ
  6
Continuous
 62
   120
370
     5
100
AcDbLine
 10
-1895.081457156684
 20
2586.587667245061
 30
0.0
 11
-1754.081022281193
 21
2445.586845294843
 31
0.0
  0
LINE
  5
12C
330
1F
100
AcDbEntity
  8
ハッチ
  6
Continuous
 62
   120
370
     5
100
AcDbLine
 10
-1895.081457156684
 20
2722.353012254405
 30
0.0
 11
-1754.081022281193
 21
2581.351138965498
 31
0.0
  0
LINE
  5
12D
330
1F
100
AcDbEntity
  8
ハッチ
  6
Continuous
 62
   120
370
     5
100
AcDbLine
 10
-1895.081457156684
 20
2654.470173954665
 30
0.0
 11
-1754.081022281193
 21
2513.46928395451
 31
0.0
  0
LINE
  5
12E
330
1F
100
AcDbEntity
  8
ハッチ
  6
Continuous
 62
   120
370
     5
100
AcDbLine
 10
-1895.081457156684
 20
2247.175796140841
 30
0.0
 11
-1754.081022281193
 21
2106.175807849776
 31
0.0
  0
LINE
  5
12F
330
1F
100
AcDbEntity
  8
ハッチ
  6
Continuous
 62
   120
370
     5
100
AcDbLine
 10
1796.976515828751
 20
2264.999683277024
 30
0.0
 11
1773.918107967825
 21
2241.941441407374
 31
0.0
  0
LINE
  5
130
330
1F
100
AcDbEntity
  8
ハッチ
  6
Continuous
 62
   120
370
     5
100
AcDbLine
 10
1914.918542843329
 20
2382.940861258675
 30
0.0
 11
1819.176675641731
 21
2287.199683277025
 31
0.0
  0
LINE
  5
131
330
1F
100
AcDbEntity
  8
ハッチ
  6
Continuous
 62
   120
370
     5
100
AcDbLine
 10
1795.012898148197
 20
2398.799683277025
 30
0.0
 11
1773.918107967825
 21
2377.704919381355
 31
0.0
  0
LINE
  5
132
330
1F
100
AcDbEntity
  8
ハッチ
  6
Continuous
 62
   120
370
     5
100
AcDbLine
 10
1914.918542843316
 20
2518.705178566338
 30
0.0
 11
1817.212925810055
 21
2420.999683277026
 31
0.0
  0
LINE
  5
133
330
1F
100
AcDbEntity
  8
ハッチ
  6
Continuous
 62
   120
370
     5
100
AcDbLine
 10
1914.918542843316
 20
2450.822877886258
 30
0.0
 11
1773.918107967825
 21
2309.822821360726
 31
0.0
  0
LINE
  5
134
330
1F
100
AcDbEntity
  8
0-4_枠
  6
Continuous
 62
    92
370
    13
100
AcDbLine
 10
1770.918542843314
 20
2287.199683277025
 30
0.0
 11
1770.918542843314
 21
2398.799683277025
 31
0.0
  0
LINE
  5
135
330
1F
100
AcDbEntity
  8
0-4_枠
  6
Continuous
 62
    92
370
    13
100
AcDbLine
 10
1773.918107967825
 20
2287.199683277025
 30
0.0
 11
1773.918107967825
 21
2398.799683277025
 31
0.0
  0
LINE
  5
136
330
1F
100
AcDbEntity
  8
0-4_枠
  6
Continuous
 62
    92
370
    13
100
AcDbLine
 10
1821.918542843313
 20
2264.999683277024
 30
0.0
 11
1821.918542843313
 21
2287.199683277025
 31
0.0
  0
LINE
  5
137
330
1F
100
AcDbEntity
  8
0-4_枠
  6
Continuous
 62
    92
370
    13
100
AcDbLine
 10
1821.918542843313
 20
2398.799683277025
 30
0.0
 11
1821.918542843313
 21
2420.999683277026
 31
0.0
  0
LINE
  5
138
330
1F
100
AcDbEntity
  8
0-4_枠
  6
Continuous
 62
    92
370
    13
100
AcDbLine
 10
1821.918542843313
 20
2420.999683277026
 30
0.0
 11
1770.918542843314
 21
2420.999683277026
 31
0.0
  0
LINE
  5
139
330
1F
100
AcDbEntity
  8
0-4_枠
  6
Continuous
 62
    92
370
    13
100
AcDbLine
 10
1770.918542843314
 20
2398.799683277025
 30
0.0
 11
1821.918542843313
 21
2398.799683277025
 31
0.0
  0
LINE
  5
13A
330
1F
100
AcDbEntity
  8
0-4_枠
  6
Continuous
 62
    92
370
    13
100
AcDbLine
 10
1770.918542843314
 20
2287.199683277025
 30
0.0
 11
1821.918542843313
 21
2287.199683277025
 31
0.0
  0
LINE
  5
13B
330
1F
100
AcDbEntity
  8
0-4_枠
  6
Continuous
 62
    92
370
    13
100
AcDbLine
 10
1770.918542843314
 20
2264.999683277024
 30
0.0
 11
1821.918542843313
 21
2264.999683277024
 31
0.0
  0
LINE
  5
13C
330
1F
100
AcDbEntity
  8
ハッチ
  6
Continuous
 62
   120
370
     5
100
AcDbLine
 10
1914.918542843316
 20
2315.055617156941
 30
0.0
 11
1773.918107967825
 21
2174.058257953535
 31
0.0
  0
LINE
  5
13D
330
1F
100
AcDbEntity
  8
ハッチ
  6
Continuous
 62
   120
370
     5
100
AcDbLine
 10
1914.918542843316
 20
2586.587667245061
 30
0.0
 11
1773.918107967825
 21
2445.586845294843
 31
0.0
  0
LINE
  5
13E
330
1F
100
AcDbEntity
  8
ハッチ
  6
Continuous
 62
   120
370
     5
100
AcDbLine
 10
1914.918542843316
 20
2722.353012254405
 30
0.0
 11
1773.918107967825
 21
2581.351138965498
 31
0.0
  0
LINE
  5
13F
330
1F
100
AcDbEntity
  8
ハッチ
  6
Continuous
 62
   120
370
     5
100
AcDbLine
 10
1914.918542843316
 20
2654.470173954665
 30
0.0
 11
1773.918107967825
 21
2513.46928395451
 31
0.0
  0
LINE
  5
140
330
1F
100
AcDbEntity
  8
ハッチ
  6
Continuous
 62
   120
370
     5
100
AcDbLine
 10
1914.918542843316
 20
2247.175796140841
 30
0.0
 11
1773.918107967825
 21
2106.175807849776
 31
0.0
  0
LINE
  5
141
330
1F
100
AcDbEntity
  8
仕上げ
  6
Continuous
 62
     7
370
     9
100
AcDbLine
 10
2235.918542843317
 20
2753.999683277028
 30
0.0
 11
1965.918542843317
 21
2123.999683277028
 31
0.0
  0
LWPOLYLINE
  5
142
330
1F
100
AcDbEntity
  8
0-B_寸法
  6
Continuous
 62
     7
370
     9
100
AcDbPolyline
 90
        4
 70
     1
 43
3.0
 10
-1893.581457156684
 20
803.9996832770273
 42
0.4142135623731
 10
-1895.081457156684
 20
805.4996832770274
 42
0.4142135623731
 10
-1896.581457156684
 20
803.9996832770273
 42
0.4142135623731
 10
-1895.081457156684
 20
802.4996832770273
 42
0.4142135623731
  0
LINE
  5
143
330
1F
100
AcDbEntity
  8
0-B_寸法
  6
Continuous
 62
   120
370
     5
100
AcDbLine
 10
1914.918542843317
 20
803.9996832770273
 30
0.0
 11
1914.918542843317
 21
1793.999683277027
 31
0.0
  0
LWPOLYLINE
  5
144
330
1F
100
AcDbEntity
  8
0-B_寸法
  6
Continuous
 62
     7
370
     9
100
AcDbPolyline
 90
        4
 70
     1
 43
3.0
 10
1916.418542843317
 20
803.9996832770273
 42
0.4142135623731
 10
1914.918542843317
 20
805.4996832770274
 42
0.4142135623731
 10
1913.418542843317
 20
803.9996832770273
 42
0.4142135623731
 10
1914.918542843317
 20
802.4996832770273
 42
0.4142135623731
  0
LINE
  5
145
330
1F
100
AcDbEntity
  8
0-B_寸法
  6
Continuous
 62
   120
370
     5
100
AcDbLine
 10
-1895.081457156684
 20
803.9996832770273
 30
0.0
 11
-1895.081457156684
 21
1793.999683277027
 31
0.0
  0
LINE
  5
146
330
1F
100
AcDbEntity
  8
0-B_寸法
  6
Continuous
 62
   120
370
     5
100
AcDbLine
 10
1770.918542843318
 20
1223.999683277027
 30
0.0
 11
-1751.081457156684
 21
1223.999683277027
 31
0.0
  0
LINE
  5
147
330
1F
100
AcDbEntity
  8
0-B_寸法
  6
Continuous
 62
   120
370
     5
100
AcDbLine
 10
1770.918542843318
 20
1013.999683277027
 30
0.0
 11
1770.918542843318
 21
1793.999683277027
 31
0.0
  0
LWPOLYLINE
  5
148
330
1F
100
AcDbEntity
  8
0-B_寸法
  6
Continuous
 62
     7
370
     9
100
AcDbPolyline
 90
        4
 70
     1
 43
3.0
 10
1772.418542843318
 20
1013.999683277027
 42
0.4142135623731
 10
1770.918542843318
 20
1015.499683277027
 42
0.4142135623731
 10
1769.418542843318
 20
1013.999683277027
 42
0.4142135623731
 10
1770.918542843318
 20
1012.499683277027
 42
0.4142135623731
  0
LWPOLYLINE
  5
149
330
1F
100
AcDbEntity
  8
0-B_寸法
  6
Continuous
 62
     7
370
     9
100
AcDbPolyline
 90
        4
 70
     1
 43
3.0
 10
1916.418542843317
 20
1013.999683277027
 42
0.4142135623731
 10
1914.918542843317
 20
1015.499683277027
 42
0.4142135623731
 10
1913.418542843317
 20
1013.999683277027
 42
0.4142135623731
 10
1914.918542843317
 20
1012.499683277027
 42
0.4142135623731
  0
LINE
  5
14A
330
1F
100
AcDbEntity
  8
0-B_寸法
  6
Continuous
 62
   120
370
     5
100
AcDbLine
 10
1914.918542843317
 20
1013.999683277027
 30
0.0
 11
-1895.081457156684
 21
1013.999683277027
 31
0.0
  0
LINE
  5
14B
330
1F
100
AcDbEntity
  8
0-B_寸法
  6
Continuous
 62
   120
370
     5
100
AcDbLine
 10
-1751.081457156684
 20
1013.999683277027
 30
0.0
 11
-1751.081457156684
 21
1793.999683277027
 31
0.0
  0
LWPOLYLINE
  5
14C
330
1F
100
AcDbEntity
  8
0-B_寸法
  6
Continuous
 62
     7
370
     9
100
AcDbPolyline
 90
        4
 70
     1
 43
3.0
 10
-1893.581457156684
 20
1013.999683277027
 42
0.4142135623731
 10
-1895.081457156684
 20
1015.499683277027
 42
0.4142135623731
 10
-1896.581457156684
 20
1013.999683277027
 42
0.4142135623731
 10
-1895.081457156684
 20
1012.499683277027
 42
0.4142135623731
  0
LWPOLYLINE
  5
14D
330
1F
100
AcDbEntity
  8
0-B_寸法
  6
Continuous
 62
     7
370
     9
100
AcDbPolyline
 90
        4
 70
     1
 43
3.0
 10
-1749.581457156684
 20
1013.999683277027
 42
0.4142135623731
 10
-1751.081457156684
 20
1015.499683277027
 42
0.4142135623731
 10
-1752.581457156684
 20
1013.999683277027
 42
0.4142135623731
 10
-1751.081457156684
 20
1012.499683277027
 42
0.4142135623731
  0
LINE
  5
14E
330
1F
100
AcDbEntity
  8
0-B_寸法
  6
Continuous
 62
   120
370
     5
100
AcDbLine
 10
1758.918542843318
 20
1223.999683277027
 30
0.0
 11
1758.918542843318
 21
1793.999683277027
 31
0.0
  0
LWPOLYLINE
  5
14F
330
1F
100
AcDbEntity
  8
0-B_寸法
  6
Continuous
 62
     7
370
     9
100
AcDbPolyline
 90
        4
 70
     1
 43
3.0
 10
1760.418542843318
 20
1223.999683277027
 42
0.4142135623731
 10
1758.918542843318
 20
1225.499683277027
 42
0.4142135623731
 10
1757.418542843318
 20
1223.999683277027
 42
0.4142135623731
 10
1758.918542843318
 20
1222.499683277028
 42
0.4142135623731
  0
LWPOLYLINE
  5
150
330
1F
100
AcDbEntity
  8
0-B_寸法
  6
Continuous
 62
     7
370
     9
100
AcDbPolyline
 90
        4
 70
     1
 43
3.0
 10
1772.418542843318
 20
1223.999683277027
 42
0.4142135623731
 10
1770.918542843318
 20
1225.499683277027
 42
0.4142135623731
 10
1769.418542843318
 20
1223.999683277027
 42
0.4142135623731
 10
1770.918542843318
 20
1222.499683277028
 42
0.4142135623731
  0
LINE
  5
151
330
1F
100
AcDbEntity
  8
0-B_寸法
  6
Continuous
 62
   120
370
     5
100
AcDbLine
 10
-1721.081457156684
 20
1223.999683277027
 30
0.0
 11
-1721.081457156684
 21
1793.999683277027
 31
0.0
  0
LWPOLYLINE
  5
152
330
1F
100
AcDbEntity
  8
0-B_寸法
  6
Continuous
 62
     7
370
     9
100
AcDbPolyline
 90
        4
 70
     1
 43
3.0
 10
-1749.581457156684
 20
1223.999683277027
 42
0.4142135623731
 10
-1751.081457156684
 20
1225.499683277027
 42
0.4142135623731
 10
-1752.581457156684
 20
1223.999683277027
 42
0.4142135623731
 10
-1751.081457156684
 20
1222.499683277028
 42
0.4142135623731
  0
LWPOLYLINE
  5
153
330
1F
100
AcDbEntity
  8
0-B_寸法
  6
Continuous
 62
     7
370
     9
100
AcDbPolyline
 90
        4
 70
     1
 43
3.0
 10
-1719.581457156684
 20
1223.999683277027
 42
0.4142135623731
 10
-1721.081457156684
 20
1225.499683277027
 42
0.4142135623731
 10
-1722.581457156684
 20
1223.999683277027
 42
0.4142135623731
 10
-1721.081457156684
 20
1222.499683277028
 42
0.4142135623731
  0
LINE
  5
154
330
1F
100
AcDbEntity
  8
0-B_寸法
  6
Continuous
 62
   120
370
     5
100
AcDbLine
 10
1914.918542843317
 20
803.9996832770273
 30
0.0
 11
-1895.081457156684
 21
803.9996832770273
 31
0.0
  0
LINE
  5
155
330
1F
100
AcDbEntity
  8
0-B_寸法
  6
Continuous
 62
   120
370
     5
100
AcDbLine
 10
-1691.081560153509
 20
1433.999683277027
 30
0.0
 11
1410.949618813217
 21
1433.999683277027
 31
0.0
  0
LWPOLYLINE
  5
156
330
1F
100
AcDbEntity
  8
0-B_寸法
  6
Continuous
 62
     7
370
     9
100
AcDbPolyline
 90
        4
 70
     1
 43
3.0
 10
-1689.581560153509
 20
1433.999683277027
 42
0.4142135623731
 10
-1691.081560153509
 20
1435.499683277027
 42
0.4142135623731
 10
-1692.581560153508
 20
1433.999683277027
 42
0.4142135623731
 10
-1691.081560153509
 20
1432.499683277028
 42
0.4142135623731
  0
LWPOLYLINE
  5
157
330
1F
100
AcDbEntity
  8
0-B_寸法
  6
Continuous
 62
     7
370
     9
100
AcDbPolyline
 90
        4
 70
     1
 43
3.0
 10
1412.449618813217
 20
1433.999683277027
 42
0.4142135623731
 10
1410.949618813217
 20
1435.499683277027
 42
0.4142135623731
 10
1409.449618813217
 20
1433.999683277027
 42
0.4142135623731
 10
1410.949618813217
 20
1432.499683277028
 42
0.4142135623731
  0
LINE
  5
158
330
1F
100
AcDbEntity
  8
0-B_寸法
  6
Continuous
 62
   120
370
     5
100
AcDbLine
 10
-1691.081560153509
 20
1433.999683277027
 30
0.0
 11
-1691.081560153509
 21
1793.999683277027
 31
0.0
  0
LINE
  5
159
330
1F
100
AcDbEntity
  8
0-B_寸法
  6
Continuous
 62
   120
370
     5
100
AcDbLine
 10
1410.949618813217
 20
1433.999683277027
 30
0.0
 11
1410.949618813217
 21
1793.999683277027
 31
0.0
  0
MTEXT
  5
15A
330
1F
100
AcDbEntity
  8
0-A_文字
  6
Continuous
 62
     7
370
     9
100
AcDbMText
 10
-3095.081457156685
 20
3201.729783538345
 30
0.0
 40
100.584
 41
660.0
 46
0.0
 71
     7
 72
     1
  1
{\fＭＳ ゴシック|b0|i0|c128|p49;■横断面図}
 73
     1
 44
1.0
  0
MTEXT
  5
15B
330
1F
100
AcDbEntity
  8
0-A_文字
  6
Continuous
 62
     7
370
     9
100
AcDbMText
 10
-2255.081457156682
 20
1809.719683277027
 30
0.0
 40
91.44
 41
720.0
 46
0.0
 71
     7
 72
     1
  1
{\fＭＳ ゴシック|b0|i0|c128|p49;（ラッチ側）}
 73
     1
 44
1.0
  0
MTEXT
  5
15C
330
1F
100
AcDbEntity
  8
0-A_文字
  6
Continuous
 62
     7
370
     9
100
AcDbMText
 10
1751.009138890102
 20
1802.923515849175
 30
0.0
 40
100.584
 41
660.0
 46
0.0
 71
     7
 72
     1
  1
{\fＭＳ ゴシック|b0|i0|c128|p49;（丁番側）}
 73
     1
 44
1.0
  0
MTEXT
  5
15D
330
1F
100
AcDbEntity
  8
0-A_文字
  6
Continuous
 62
     7
370
     9
100
AcDbMText
 10
1553.746902933049
 20
620.7224190781496
 30
0.0
 40
68.58000000000001
 41
720.0
 46
0.0
 71
     7
 72
     1
  1
{\fＭＳ ゴシック|b0|i0|c128|p49;※図示：右吊り元}
 73
     1
 44
1.0
  0
MTEXT
  5
15E
330
1F
100
AcDbEntity
  8
0-B_寸法
  6
Continuous
 62
     7
370
   211
100
AcDbMText
 10
-1712.166976120606
 20
1224.719683277027
 30
0.0
 40
91.44
 41
60.0
 46
0.0
 71
     7
 72
     1
  1
{\fＭＳ ゴシック|b0|i0|c128|p49;5}
 73
     1
 44
1.0
  0
MTEXT
  5
15F
330
1F
100
AcDbEntity
  8
0-B_寸法
  6
Continuous
 62
     7
370
   211
100
AcDbMText
 10
1687.543914483337
 20
1224.719683277027
 30
0.0
 40
91.44
 41
60.0
 46
0.0
 71
     7
 72
     1
  1
{\fＭＳ ゴシック|b0|i0|c128|p49;2}
 73
     1
 44
1.0
  0
MTEXT
  5
160
330
1F
100
AcDbEntity
  8
0-B_寸法
  6
Continuous
 62
     7
370
   211
100
AcDbMText
 10
-1883.081457156683
 20
1014.719683277027
 30
0.0
 40
91.44
 41
120.0
 46
0.0
 71
     7
 72
     1
  1
{\fＭＳ ゴシック|b0|i0|c128|p49;24}
 73
     1
 44
1.0
  0
MTEXT
  5
161
330
1F
100
AcDbEntity
  8
0-B_寸法
  6
Continuous
 62
     7
370
   211
100
AcDbMText
 10
1782.918542843317
 20
1014.719683277027
 30
0.0
 40
91.44
 41
120.0
 46
0.0
 71
     7
 72
     1
  1
{\fＭＳ ゴシック|b0|i0|c128|p49;24}
 73
     1
 44
1.0
  0
LINE
  5
162
330
1F
100
AcDbEntity
  8
0-6_扉
  6
Continuous
 62
   200
370
    20
100
AcDbLine
 10
78.91854284331599
 20
2249.999683277027
 30
0.0
 11
1758.918542843318
 21
2249.999683277027
 31
0.0
  0
LINE
  5
163
330
1F
100
AcDbEntity
  8
0-6_扉
  6
Continuous
 62
   200
370
    20
100
AcDbLine
 10
-1721.081457156684
 20
2249.999683277027
 30
0.0
 11
-41.08145715668401
 21
2249.999683277027
 31
0.0
  0
LINE
  5
164
330
1F
100
AcDbEntity
  8
0-6_扉
  6
Continuous
 62
   200
370
    20
100
AcDbLine
 10
78.91854284331599
 20
2033.999683277027
 30
0.0
 11
1758.918542843318
 21
2033.999683277027
 31
0.0
  0
LINE
  5
165
330
1F
100
AcDbEntity
  8
0-6_扉
  6
Continuous
 62
   200
370
    20
100
AcDbLine
 10
-1721.081457156684
 20
2033.999683277027
 30
0.0
 11
-41.08145715668401
 21
2033.999683277027
 31
0.0
  0
LINE
  5
166
330
1F
100
AcDbEntity
  8
0-6_扉
  6
Continuous
 62
   200
370
    20
100
AcDbLine
 10
1758.918542843318
 20
2249.999683277027
 30
0.0
 11
1758.918542843318
 21
2033.999683277027
 31
0.0
  0
LINE
  5
167
330
1F
100
AcDbEntity
  8
0-6_扉
  6
Continuous
 62
   200
370
    20
100
AcDbLine
 10
-1721.081457156684
 20
2033.999683277027
 30
0.0
 11
-1721.081457156684
 21
2249.999683277027
 31
0.0
  0
LINE
  5
168
330
1F
100
AcDbEntity
  8
0-6_扉
  6
JWW_DASHED2
 62
   200
370
    20
100
AcDbLine
 10
1626.949618813217
 20
1877.448156947583
 30
0.0
 11
1626.949618813217
 21
1788.00019795702
 31
0.0
  0
LINE
  5
169
330
1F
100
AcDbEntity
  8
0-6_扉
  6
JWW_DASHED2
 62
   200
370
    20
100
AcDbLine
 10
1410.949618813217
 20
1877.448156947583
 30
0.0
 11
1410.949618813217
 21
1788.00019795702
 31
0.0
  0
LINE
  5
16A
330
1F
100
AcDbEntity
  8
0-6_扉
  6
JWW_DASHED2
 62
   200
370
    20
100
AcDbLine
 10
1410.949618813217
 20
1877.448156947583
 30
0.0
 11
1626.949618813217
 21
1877.448156947583
 31
0.0
  0
CIRCLE
  5
16B
330
1F
100
AcDbEntity
  8
0-7_金物
  6
Continuous
 62
     7
370
     9
100
AcDbCircle
 10
1753.209843992984
 20
1871.739458097253
 30
0.0
 40
30.0
  0
CIRCLE
  5
16C
330
1F
100
AcDbEntity
  8
0-7_金物
  6
Continuous
 62
     7
370
     9
100
AcDbCircle
 10
1753.209843992984
 20
1871.739458097253
 30
0.0
 40
21.00000000000001
  0
INSERT
  5
16D
330
1F
100
AcDbEntity
  8
0-0_補助線
  6
Continuous
 62
     7
370
     9
100
AcDbBlockReference
  2
2@@SfigorgFlag@@4
 10
-1750.155379081672
 20
2333.530998685455
 30
0.0
 41
-30.0
 42
30.0
  0
INSERT
  5
16E
330
1F
100
AcDbEntity
  8
0-0_補助線
  6
Continuous
 62
     7
370
     9
100
AcDbBlockReference
  2
01@@SfigorgFlag@@4
 10
1770.041093606548
 20
2342.999683277025
 30
0.0
 41
-30.0
 42
30.0
 50
270.0
  0
LINE
  5
16F
330
1F
100
AcDbEntity
  8
0-A_文字
  6
Continuous
 62
    92
370
    13
100
AcDbLine
 10
4083.835838693025
 20
3730.000181455871
 30
0.0
 11
4083.835838693025
 21
2764.000181455871
 31
0.0
  0
LINE
  5
170
330
1F
100
AcDbEntity
  8
0-A_文字
  6
Continuous
 62
    92
370
    13
100
AcDbLine
 10
4083.835838693025
 20
3604.000181455871
 30
0.0
 11
5679.835838693025
 21
3604.000181455871
 31
0.0
  0
LINE
  5
171
330
1F
100
AcDbEntity
  8
0-A_文字
  6
Continuous
 62
    92
370
    13
100
AcDbLine
 10
5679.835838693025
 20
3730.000181455871
 30
0.0
 11
4083.835838693025
 21
3730.000181455871
 31
0.0
  0
LINE
  5
172
330
1F
100
AcDbEntity
  8
0-A_文字
  6
Continuous
 62
    92
370
    13
100
AcDbLine
 10
5679.835838693025
 20
3730.000181455871
 30
0.0
 11
5679.835838693025
 21
2764.000181455871
 31
0.0
  0
LINE
  5
173
330
1F
100
AcDbEntity
  8
0-A_文字
  6
Continuous
 62
    92
370
    13
100
AcDbLine
 10
5679.835838693025
 20
2764.000181455871
 30
0.0
 11
4083.835838693025
 21
2764.000181455871
 31
0.0
  0
LINE
  5
174
330
1F
100
AcDbEntity
  8
0-A_文字
  6
Continuous
 62
    92
370
    13
100
AcDbLine
 10
4881.835838693025
 20
3730.000181455871
 30
0.0
 11
4881.835838693025
 21
2764.000181455871
 31
0.0
  0
LINE
  5
175
330
1F
100
AcDbEntity
  8
0-0_補助線
  6
JWW_HOJO
 62
   120
370
     5
100
AcDbLine
 10
5658.835838693025
 20
3730.000181455871
 30
0.0
 11
5658.835838693025
 21
2764.000181455871
 31
0.0
  0
LINE
  5
176
330
1F
100
AcDbEntity
  8
0-0_補助線
  6
JWW_HOJO
 62
   120
370
     5
100
AcDbLine
 10
4902.835838693025
 20
3730.000181455871
 30
0.0
 11
4902.835838693025
 21
2764.000181455871
 31
0.0
  0
LINE
  5
177
330
1F
100
AcDbEntity
  8
戸当り
  6
Continuous
 62
    40
370
    15
100
AcDbLine
 10
5436.235838693025
 20
3481.846273380328
 30
0.0
 11
5658.835838693025
 21
3481.846273380328
 31
0.0
  0
LINE
  5
178
330
1F
100
AcDbEntity
  8
戸当り
  6
Continuous
 62
    40
370
    15
100
AcDbLine
 10
5436.235838693025
 20
3481.846273380328
 30
0.0
 11
5436.235838693025
 21
3444.046273380328
 31
0.0
  0
LINE
  5
179
330
1F
100
AcDbEntity
  8
戸当り
  6
Continuous
 62
    40
370
    15
100
AcDbLine
 10
5125.435838693026
 20
3481.846273380329
 30
0.0
 11
4902.835838693025
 21
3481.846273380329
 31
0.0
  0
LINE
  5
17A
330
1F
100
AcDbEntity
  8
戸当り
  6
Continuous
 62
    40
370
    15
100
AcDbLine
 10
4638.235838693025
 20
3481.846273380328
 30
0.0
 11
4860.835838693025
 21
3481.846273380328
 31
0.0
  0
LINE
  5
17B
330
1F
100
AcDbEntity
  8
戸当り
  6
Continuous
 62
    40
370
    15
100
AcDbLine
 10
4327.435838693025
 20
3481.846273380329
 30
0.0
 11
4327.435838693025
 21
3444.046273380328
 31
0.0
  0
LINE
  5
17C
330
1F
100
AcDbEntity
  8
戸当り
  6
Continuous
 62
    40
370
    15
100
AcDbLine
 10
4327.435838693025
 20
3481.846273380329
 30
0.0
 11
4104.835838693025
 21
3481.846273380329
 31
0.0
  0
LINE
  5
17D
330
1F
100
AcDbEntity
  8
0-0_補助線
  6
JWW_HOJO
 62
   120
370
     5
100
AcDbLine
 10
4860.835838693025
 20
3730.000181455871
 30
0.0
 11
4860.835838693025
 21
2764.000181455871
 31
0.0
  0
LINE
  5
17E
330
1F
100
AcDbEntity
  8
0-0_補助線
  6
JWW_HOJO
 62
   120
370
     5
100
AcDbLine
 10
4104.835838693025
 20
3730.000181455871
 30
0.0
 11
4104.835838693025
 21
2764.000181455871
 31
0.0
  0
LINE
  5
17F
330
1F
100
AcDbEntity
  8
戸当り
  6
Continuous
 62
    40
370
    15
100
AcDbLine
 10
4104.835838693025
 20
3444.046273380328
 30
0.0
 11
4860.835838693025
 21
3444.046273380328
 31
0.0
  0
LINE
  5
180
330
1F
100
AcDbEntity
  8
戸当り
  6
Continuous
 62
    40
370
    15
100
AcDbLine
 10
4638.235838693025
 20
3481.846273380328
 30
0.0
 11
4638.235838693025
 21
3133.246273380327
 31
0.0
  0
ARC
  5
181
330
1F
100
AcDbEntity
  8
戸当り
  6
Continuous
 62
    40
370
    15
100
AcDbCircle
 10
4638.235838693025
 20
3444.046273380328
 30
0.0
 40
310.8
100
AcDbArc
 50
180.0
 51
270.0
  0
LINE
  5
182
330
1F
100
AcDbEntity
  8
戸当り
  6
Continuous
 62
    40
370
    15
100
AcDbLine
 10
5658.835838693025
 20
3444.046273380328
 30
0.0
 11
4902.835838693025
 21
3444.046273380328
 31
0.0
  0
LINE
  5
183
330
1F
100
AcDbEntity
  8
戸当り
  6
Continuous
 62
    40
370
    15
100
AcDbLine
 10
5125.435838693026
 20
3481.846273380329
 30
0.0
 11
5125.435838693024
 21
3133.246273380327
 31
0.0
  0
ARC
  5
184
330
1F
100
AcDbEntity
  8
戸当り
  6
Continuous
 62
    40
370
    15
100
AcDbCircle
 10
5125.435838693024
 20
3444.046273380328
 30
0.0
 40
310.8
100
AcDbArc
 50
270.0
 51
0.0
  0
ELLIPSE
  5
185
330
1F
100
AcDbEntity
  8
戸当り
  6
Continuous
 62
    92
370
    13
100
AcDbEllipse
 10
5207.192036141518
 20
2972.884428393054
 30
0.0
 11
-17.7763823922528
 21
100.8148742797557
 31
0.0
210
0.0
220
0.0
230
1.0
 40
0.4000000000000001
 41
1.850633272656679
 42
2.442876790075129
  0
ELLIPSE
  5
186
330
1F
100
AcDbEntity
  8
戸当り
  6
Continuous
 62
    92
370
    13
100
AcDbEllipse
 10
5207.192036141518
 20
2972.884428393054
 30
0.0
 11
-17.7763823922528
 21
100.8148742797557
 31
0.0
210
0.0
220
0.0
230
1.0
 40
0.4000000000000001
 41
3.840308517104466
 42
4.432552034522944
  0
ELLIPSE
  5
187
330
1F
100
AcDbEntity
  8
戸当り
  6
Continuous
 62
    92
370
    13
100
AcDbEllipse
 10
5206.772290091618
 20
2975.264926534712
 30
0.0
 11
-14.67024424252691
 21
83.19908946199426
 31
0.0
210
0.0
220
0.0
230
1.0
 40
0.5
 41
4.340591432030095
 42
8.225779182329084
  0
LINE
  5
188
330
1F
100
AcDbEntity
  8
戸当り
  6
Continuous
 62
    92
370
    13
100
AcDbLine
 10
5246.74191991428
 20
2900.267379069785
 30
0.0
 11
5194.863795824744
 21
2891.119866084259
 31
0.0
  0
LINE
  5
189
330
1F
100
AcDbEntity
  8
戸当り
  6
Continuous
 62
    92
370
    13
100
AcDbLine
 10
5248.929886952883
 20
2887.858801381831
 30
0.0
 11
5197.051762863347
 21
2878.711288396305
 31
0.0
  0
ELLIPSE
  5
18A
330
1F
100
AcDbEntity
  8
戸当り
  6
Continuous
 62
    92
370
    13
100
AcDbEllipse
 10
5222.990824908115
 20
2883.285044889069
 30
0.0
 11
-7.622927487939132
 21
43.23177007461331
 31
0.0
210
0.0
220
0.0
230
1.0
 40
0.6000000000000001
 41
1.570796326794897
 42
4.71238898038469
  0
ELLIPSE
  5
18B
330
1F
100
AcDbEntity
  8
戸当り
  6
Continuous
 62
    92
370
    13
100
AcDbEllipse
 10
5361.652805079396
 20
3008.935263882863
 30
0.0
 11
26.49533313827761
 21
98.88192943551533
 31
0.0
210
0.0
220
0.0
230
0.9999999999999999
 40
0.4
 41
1.850633272656679
 42
2.442876790075129
  0
ELLIPSE
  5
18C
330
1F
100
AcDbEntity
  8
戸当り
  6
Continuous
 62
    92
370
    13
100
AcDbEllipse
 10
5361.652805079396
 20
3008.935263882863
 30
0.0
 11
26.49533313827761
 21
98.88192943551533
 31
0.0
210
0.0
220
0.0
230
0.9999999999999999
 40
0.4
 41
3.840308517104466
 42
4.432552034522944
  0
ELLIPSE
  5
18D
330
1F
100
AcDbEntity
  8
戸当り
  6
Continuous
 62
    92
370
    13
100
AcDbEllipse
 10
5362.278427952497
 20
3011.270120231655
 30
0.0
 11
21.86569797210526
 21
81.6038957748525
 31
0.0
210
0.0
220
0.0
230
1.0
 40
0.5
 41
4.340591432030095
 42
8.225779182329084
  0
LINE
  5
18E
330
1F
100
AcDbEntity
  8
戸当り
  6
Continuous
 62
    92
370
    13
100
AcDbLine
 10
5366.807881561305
 20
2926.407363477467
 30
0.0
 11
5315.924427684911
 21
2940.041543851753
 31
0.0
  0
LINE
  5
18F
330
1F
100
AcDbEntity
  8
戸当り
  6
Continuous
 62
    92
370
    13
100
AcDbLine
 10
5363.546761593014
 20
2914.236698066225
 30
0.0
 11
5312.66330771662
 21
2927.870878440511
 31
0.0
  0
ELLIPSE
  5
190
330
1F
100
AcDbEntity
  8
戸当り
  6
Continuous
 62
    92
370
    13
100
AcDbEllipse
 10
5338.105034654818
 20
2921.053788253369
 30
0.0
 11
11.36181697857171
 21
42.40287823032828
 31
0.0
210
0.0
220
0.0
230
0.9999999999999999
 40
0.6
 41
1.570796326794897
 42
4.71238898038469
  0
LINE
  5
191
330
1F
100
AcDbEntity
  8
0-0_補助線
  6
JWW_HOJO
 62
   120
370
     5
100
AcDbLine
 10
5280.835838693025
 20
3730.000181455871
 30
0.0
 11
5280.835838693025
 21
2764.000181455871
 31
0.0
  0
LINE
  5
192
330
1F
100
AcDbEntity
  8
0-0_補助線
  6
JWW_HOJO
 62
   120
370
     5
100
AcDbLine
 10
4482.835838693024
 20
3730.000181455871
 30
0.0
 11
4482.835838693024
 21
2764.000181455871
 31
0.0
  0
ELLIPSE
  5
193
330
1F
100
AcDbEntity
  8
戸当り
  6
Continuous
 62
    92
370
    13
100
AcDbEllipse
 10
4409.192036141519
 20
2972.884428393054
 30
0.0
 11
-17.7763823922528
 21
100.8148742797557
 31
0.0
210
0.0
220
0.0
230
1.0
 40
0.4000000000000001
 41
1.850633272656679
 42
2.442876790075129
  0
ELLIPSE
  5
194
330
1F
100
AcDbEntity
  8
戸当り
  6
Continuous
 62
    92
370
    13
100
AcDbEllipse
 10
4409.192036141519
 20
2972.884428393054
 30
0.0
 11
-17.7763823922528
 21
100.8148742797557
 31
0.0
210
0.0
220
0.0
230
1.0
 40
0.4000000000000001
 41
3.840308517104466
 42
4.432552034522944
  0
ELLIPSE
  5
195
330
1F
100
AcDbEntity
  8
戸当り
  6
Continuous
 62
    92
370
    13
100
AcDbEllipse
 10
4408.772290091617
 20
2975.264926534712
 30
0.0
 11
-14.67024424252691
 21
83.19908946199426
 31
0.0
210
0.0
220
0.0
230
1.0
 40
0.5
 41
4.340591432030095
 42
8.225779182329084
  0
LINE
  5
196
330
1F
100
AcDbEntity
  8
戸当り
  6
Continuous
 62
    92
370
    13
100
AcDbLine
 10
4448.741919914279
 20
2900.267379069785
 30
0.0
 11
4396.863795824744
 21
2891.119866084259
 31
0.0
  0
LINE
  5
197
330
1F
100
AcDbEntity
  8
戸当り
  6
Continuous
 62
    92
370
    13
100
AcDbLine
 10
4450.929886952883
 20
2887.858801381831
 30
0.0
 11
4399.051762863347
 21
2878.711288396305
 31
0.0
  0
ELLIPSE
  5
198
330
1F
100
AcDbEntity
  8
戸当り
  6
Continuous
 62
    92
370
    13
100
AcDbEllipse
 10
4424.990824908115
 20
2883.285044889069
 30
0.0
 11
-7.622927487939132
 21
43.23177007461331
 31
0.0
210
0.0
220
0.0
230
1.0
 40
0.6000000000000001
 41
1.570796326794897
 42
4.71238898038469
  0
ELLIPSE
  5
199
330
1F
100
AcDbEntity
  8
戸当り
  6
Continuous
 62
    92
370
    13
100
AcDbEllipse
 10
4563.652805079395
 20
3008.935263882863
 30
0.0
 11
26.49533313827761
 21
98.88192943551533
 31
0.0
210
0.0
220
0.0
230
0.9999999999999999
 40
0.4
 41
1.850633272656679
 42
2.442876790075129
  0
ELLIPSE
  5
19A
330
1F
100
AcDbEntity
  8
戸当り
  6
Continuous
 62
    92
370
    13
100
AcDbEllipse
 10
4563.652805079395
 20
3008.935263882863
 30
0.0
 11
26.49533313827761
 21
98.88192943551533
 31
0.0
210
0.0
220
0.0
230
0.9999999999999999
 40
0.4
 41
3.840308517104466
 42
4.432552034522944
  0
ELLIPSE
  5
19B
330
1F
100
AcDbEntity
  8
戸当り
  6
Continuous
 62
    92
370
    13
100
AcDbEllipse
 10
4564.278427952496
 20
3011.270120231655
 30
0.0
 11
21.86569797210526
 21
81.6038957748525
 31
0.0
210
0.0
220
0.0
230
1.0
 40
0.5
 41
4.340591432030095
 42
8.225779182329084
  0
LINE
  5
19C
330
1F
100
AcDbEntity
  8
戸当り
  6
Continuous
 62
    92
370
    13
100
AcDbLine
 10
4568.807881561304
 20
2926.407363477467
 30
0.0
 11
4517.92442768491
 21
2940.041543851753
 31
0.0
  0
LINE
  5
19D
330
1F
100
AcDbEntity
  8
戸当り
  6
Continuous
 62
    92
370
    13
100
AcDbLine
 10
4565.546761593013
 20
2914.236698066225
 30
0.0
 11
4514.66330771662
 21
2927.870878440511
 31
0.0
  0
ELLIPSE
  5
19E
330
1F
100
AcDbEntity
  8
戸当り
  6
Continuous
 62
    92
370
    13
100
AcDbEllipse
 10
4540.105034654816
 20
2921.053788253369
 30
0.0
 11
11.36181697857171
 21
42.40287823032828
 31
0.0
210
0.0
220
0.0
230
0.9999999999999999
 40
0.6
 41
1.570796326794897
 42
4.71238898038469
  0
MTEXT
  5
19F
330
1F
100
AcDbEntity
  8
0-A_文字
  6
Continuous
 62
     7
370
     9
100
AcDbMText
 10
4083.835838693027
 20
3750.48268145587
 30
0.0
 40
100.965
 41
795.0
 46
0.0
 71
     7
 72
     1
  1
{\fＭＳ ゴシック|b0|i0|c128|p49;■吊り手方向}
 73
     1
 44
1.0
  0
MTEXT
  5
1A0
330
1F
100
AcDbEntity
  8
0-A_文字
  6
Continuous
 62
     7
370
     9
100
AcDbMText
 10
4332.835838693027
 20
3615.100181455871
 30
0.0
 40
76.19999999999999
 41
300.0
 46
0.0
 71
     7
 72
     1
  1
{\fＭＳ ゴシック|b0|i0|c128|p49;右吊元}
 73
     1
 44
1.0
  0
MTEXT
  5
1A1
330
1F
100
AcDbEntity
  8
0-A_文字
  6
Continuous
 62
     7
370
     9
100
AcDbMText
 10
5130.835838693025
 20
3615.100181455871
 30
0.0
 40
76.19999999999999
 41
300.0
 46
0.0
 71
     7
 72
     1
  1
{\fＭＳ ゴシック|b0|i0|c128|p49;左吊元}
 73
     1
 44
1.0
  0
LINE
  5
1A2
330
1F
100
AcDbEntity
  8
0-0_補助線
  6
JWW_HOJO
 62
   120
370
     5
100
AcDbLine
 10
-1454.123823907588
 20
-1729.500506942337
 30
0.0
 11
-2767.341536465535
 21
-1729.500506942337
 31
0.0
  0
LINE
  5
1A3
330
1F
100
AcDbEntity
  8
0-0_補助線
  6
JWW_HOJO
 62
   120
370
     5
100
AcDbLine
 10
-1454.123823907588
 20
-1849.500506942337
 30
0.0
 11
-2767.341536465535
 21
-1849.500506942337
 31
0.0
  0
LINE
  5
1A4
330
1F
100
AcDbEntity
  8
仕上げ
  6
Continuous
 62
     7
370
     9
100
AcDbLine
 10
-1513.732680186567
 20
-3096.000609939163
 30
0.0
 11
-2863.732680186566
 21
-3096.000609939163
 31
0.0
  0
LINE
  5
1A5
330
1F
100
AcDbEntity
  8
仕上げ
  6
Continuous
 62
     7
370
     9
100
AcDbLine
 10
-1513.732680186567
 20
-3105.000609939162
 30
0.0
 11
-2863.732680186566
 21
-3105.000609939162
 31
0.0
  0
LINE
  5
1A6
330
1F
100
AcDbEntity
  8
仕上げ
  6
Continuous
 62
     7
370
     9
100
AcDbLine
 10
-1513.732680186567
 20
-3114.000609939162
 30
0.0
 11
-2863.732680186566
 21
-3114.000609939162
 31
0.0
  0
LINE
  5
1A7
330
1F
100
AcDbEntity
  8
仕上げ
  6
Continuous
 62
     7
370
     9
100
AcDbLine
 10
-1513.732680186567
 20
-3123.000609939163
 30
0.0
 11
-2863.732680186566
 21
-3123.000609939163
 31
0.0
  0
LINE
  5
1A8
330
1F
100
AcDbEntity
  8
仕上げ
  6
Continuous
 62
     7
370
     9
100
AcDbLine
 10
-1513.732680186567
 20
-3132.000609939162
 30
0.0
 11
-2863.732680186566
 21
-3132.000609939162
 31
0.0
  0
LINE
  5
1A9
330
1F
100
AcDbEntity
  8
仕上げ
  6
Continuous
 62
     7
370
     9
100
AcDbLine
 10
-1513.732680186567
 20
-3141.000609939163
 30
0.0
 11
-2863.732680186566
 21
-3141.000609939163
 31
0.0
  0
LINE
  5
1AA
330
1F
100
AcDbEntity
  8
仕上げ
  6
Continuous
 62
     7
370
     9
100
AcDbLine
 10
-1513.732680186567
 20
-3150.000609939162
 30
0.0
 11
-2863.732680186566
 21
-3150.000609939162
 31
0.0
  0
LINE
  5
1AB
330
1F
100
AcDbEntity
  8
仕上げ
  6
Continuous
 62
    40
370
    15
100
AcDbLine
 10
-1513.732680186567
 20
-3087.000609939164
 30
0.0
 11
-2863.732680186566
 21
-3087.000609939164
 31
0.0
  0
LINE
  5
1AC
330
1F
100
AcDbEntity
  8
仕上げ
  6
Continuous
 62
    40
370
    15
100
AcDbLine
 10
-1513.732680186567
 20
-3159.000609939162
 30
0.0
 11
-2863.732680186566
 21
-3159.000609939162
 31
0.0
  0
LINE
  5
1AD
330
1F
100
AcDbEntity
  8
0-1_通り芯
  6
JWW_CENTER1
 62
   120
370
     5
100
AcDbLine
 10
-2863.732680186566
 20
-3159.00040394551
 30
0.0
 11
-1513.732680186567
 21
-3159.00040394551
 31
0.0
  0
LINE
  5
1AE
330
1F
100
AcDbEntity
  8
0-0_補助線
  6
JWW_HOJO
 62
   120
370
     5
100
AcDbLine
 10
-3095.081457156685
 20
-3159.00040394551
 30
0.0
 11
-884.5895473612637
 21
-3159.00040394551
 31
0.0
  0
LWPOLYLINE
  5
1AF
330
1F
100
AcDbEntity
  8
0-B_寸法
  6
Continuous
 62
     7
370
     9
100
AcDbPolyline
 90
        4
 70
     1
 43
3.0
 10
-1302.232680186567
 20
-3087.000609939164
 42
0.4142135623731
 10
-1303.732680186567
 20
-3085.500609939164
 42
0.4142135623731
 10
-1305.232680186567
 20
-3087.000609939164
 42
0.4142135623731
 10
-1303.732680186567
 20
-3088.500609939164
 42
0.4142135623731
  0
LWPOLYLINE
  5
1B0
330
1F
100
AcDbEntity
  8
0-B_寸法
  6
Continuous
 62
     7
370
     9
100
AcDbPolyline
 90
        4
 70
     1
 43
3.0
 10
-1092.232680186566
 20
-3087.000609939164
 42
0.4142135623731
 10
-1093.732680186566
 20
-3085.500609939164
 42
0.4142135623731
 10
-1095.232680186566
 20
-3087.000609939164
 42
0.4142135623731
 10
-1093.732680186566
 20
-3088.500609939164
 42
0.4142135623731
  0
LINE
  5
1B1
330
1F
100
AcDbEntity
  8
ハッチ
  6
JWW_DASHED1
 62
   120
370
     5
100
AcDbLine
 10
-1836.701363613468
 20
-405.0001979518578
 30
0.0
 11
-1798.732680186562
 21
-367.0315145249566
 31
0.0
  0
LINE
  5
1B2
330
1F
100
AcDbEntity
  8
ハッチ
  6
JWW_DASHED1
 62
   120
370
     5
100
AcDbLine
 10
-1873.732680186563
 20
-399.6051076537578
 30
0.0
 11
-1798.732680186565
 21
-324.6051076537702
 31
0.0
  0
LINE
  5
1B3
330
1F
100
AcDbEntity
  8
ハッチ
  6
JWW_DASHED1
 62
   120
370
     5
100
AcDbLine
 10
-1873.732680186563
 20
-357.178700782569
 30
0.0
 11
-1798.732680186568
 21
-282.1787007825715
 31
0.0
  0
LINE
  5
1B4
330
1F
100
AcDbEntity
  8
ハッチ
  6
JWW_DASHED1
 62
   120
370
     5
100
AcDbLine
 10
-2557.519476750966
 20
-404.5693942791256
 30
0.0
 11
-2503.732680186562
 21
-350.7825977147235
 31
0.0
  0
LINE
  5
1B5
330
1F
100
AcDbEntity
  8
ハッチ
  6
JWW_DASHED1
 62
   120
370
     5
100
AcDbLine
 10
-2515.523873552505
 20
-405.0001979518578
 30
0.0
 11
-2503.732680186562
 21
-393.2090045859145
 31
0.0
  0
LINE
  5
1B6
330
1F
100
AcDbEntity
  8
ハッチ
  6
JWW_DASHED1
 62
   120
370
     5
100
AcDbLine
 10
-2578.732680186563
 20
-383.3561908435281
 30
0.0
 11
-2503.732680186572
 21
-308.3561908435405
 31
0.0
  0
LINE
  5
1B7
330
1F
100
AcDbEntity
  8
ハッチ
  6
JWW_DASHED1
 62
   120
370
     5
100
AcDbLine
 10
-2578.732680186563
 20
-340.9297839723281
 30
0.0
 11
-2503.732680186576
 21
-265.9297839723439
 31
0.0
  0
LINE
  5
1B8
330
1F
100
AcDbEntity
  8
ハッチ
  6
JWW_DASHED1
 62
   120
370
     5
100
AcDbLine
 10
-1873.732680186567
 20
24.65896105812078
 30
0.0
 11
-1798.732680186568
 21
99.65896105811737
 31
0.0
  0
LINE
  5
1B9
330
1F
100
AcDbEntity
  8
ハッチ
  6
JWW_DASHED1
 62
   120
370
     5
100
AcDbLine
 10
-1873.73268018656
 20
-17.76744581301784
 30
0.0
 11
-1798.732680186562
 21
57.23255418697875
 31
0.0
  0
LINE
  5
1BA
330
1F
100
AcDbEntity
  8
ハッチ
  6
JWW_DASHED1
 62
   120
370
     5
100
AcDbLine
 10
-1873.732680186556
 20
-60.19385268421445
 30
0.0
 11
-1798.732680186558
 21
14.80614731578214
 31
0.0
  0
LINE
  5
1BB
330
1F
100
AcDbEntity
  8
ハッチ
  6
JWW_DASHED1
 62
   120
370
     5
100
AcDbLine
 10
-1873.732680186555
 20
-102.6202595554119
 30
0.0
 11
-1798.732680186558
 21
-27.62025955541446
 31
0.0
  0
LINE
  5
1BC
330
1F
100
AcDbEntity
  8
ハッチ
  6
JWW_DASHED1
 62
   120
370
     5
100
AcDbLine
 10
-1873.732680186568
 20
-145.0466664266247
 30
0.0
 11
-1798.732680186555
 21
-70.04666642661192
 31
0.0
  0
LINE
  5
1BD
330
1F
100
AcDbEntity
  8
ハッチ
  6
JWW_DASHED1
 62
   120
370
     5
100
AcDbLine
 10
-1873.73268018657
 20
-187.473073297826
 30
0.0
 11
-1798.732680186558
 21
-112.4730732978162
 31
0.0
  0
LINE
  5
1BE
330
1F
100
AcDbEntity
  8
ハッチ
  6
JWW_DASHED1
 62
   120
370
     5
100
AcDbLine
 10
-1873.732680186579
 20
-229.899480169035
 30
0.0
 11
-1798.732680186579
 21
-154.8994801690384
 31
0.0
  0
LINE
  5
1BF
330
1F
100
AcDbEntity
  8
ハッチ
  6
JWW_DASHED1
 62
   120
370
     5
100
AcDbLine
 10
-1873.732680186575
 20
-272.3258870402328
 30
0.0
 11
-1798.732680186579
 21
-197.3258870402371
 31
0.0
  0
LINE
  5
1C0
330
1F
100
AcDbEntity
  8
ハッチ
  6
JWW_DASHED1
 62
   120
370
     5
100
AcDbLine
 10
-1873.732680186573
 20
-314.7522939114303
 30
0.0
 11
-1798.732680186575
 21
-239.7522939114329
 31
0.0
  0
LINE
  5
1C1
330
1F
100
AcDbEntity
  8
ハッチ
  6
JWW_DASHED1
 62
   120
370
     5
100
AcDbLine
 10
-2578.732680186571
 20
40.90787786840679
 30
0.0
 11
-2503.732680186572
 21
115.9078778684051
 31
0.0
  0
LINE
  5
1C2
330
1F
100
AcDbEntity
  8
ハッチ
  6
JWW_DASHED1
 62
   120
370
     5
100
AcDbLine
 10
-2578.732680186568
 20
-1.518529002788966
 30
0.0
 11
-2503.732680186569
 21
73.48147099720848
 31
0.0
  0
LINE
  5
1C3
330
1F
100
AcDbEntity
  8
ハッチ
  6
JWW_DASHED1
 62
   120
370
     5
100
AcDbLine
 10
-2578.732680186566
 20
-43.94493587398642
 30
0.0
 11
-2503.732680186569
 21
31.05506412601102
 31
0.0
  0
LINE
  5
1C4
330
1F
100
AcDbEntity
  8
ハッチ
  6
JWW_DASHED1
 62
   120
370
     5
100
AcDbLine
 10
-2578.732680186559
 20
-86.37134274512505
 30
0.0
 11
-2503.732680186562
 21
-11.37134274512761
 31
0.0
  0
LINE
  5
1C5
330
1F
100
AcDbEntity
  8
ハッチ
  6
JWW_DASHED1
 62
   120
370
     5
100
AcDbLine
 10
-2578.732680186556
 20
-128.7977496163208
 30
0.0
 11
-2503.732680186559
 21
-53.79774961632506
 31
0.0
  0
LINE
  5
1C6
330
1F
100
AcDbEntity
  8
ハッチ
  6
JWW_DASHED1
 62
   120
370
     5
100
AcDbLine
 10
-2578.73268018657
 20
-171.2241564875349
 30
0.0
 11
-2503.732680186556
 21
-96.22415648752337
 31
0.0
  0
LINE
  5
1C7
330
1F
100
AcDbEntity
  8
ハッチ
  6
JWW_DASHED1
 62
   120
370
     5
100
AcDbLine
 10
-2578.73268018657
 20
-213.650563358737
 30
0.0
 11
-2503.732680186559
 21
-138.6505633587268
 31
0.0
  0
LINE
  5
1C8
330
1F
100
AcDbEntity
  8
ハッチ
  6
JWW_DASHED1
 62
   120
370
     5
100
AcDbLine
 10
-2578.732680186566
 20
-256.0769702299336
 30
0.0
 11
-2503.732680186571
 21
-181.0769702299392
 31
0.0
  0
LINE
  5
1C9
330
1F
100
AcDbEntity
  8
ハッチ
  6
JWW_DASHED1
 62
   120
370
     5
100
AcDbLine
 10
-2578.732680186577
 20
-298.5033771011439
 30
0.0
 11
-2503.732680186579
 21
-223.5033771011473
 31
0.0
  0
LWPOLYLINE
  5
1CA
330
1F
100
AcDbEntity
  8
0-B_寸法
  6
Continuous
 62
     7
370
     9
100
AcDbPolyline
 90
        4
 70
     1
 43
3.0
 10
-1302.232680186567
 20
-405.0001979518578
 42
0.4142135623731
 10
-1303.732680186567
 20
-403.5001979518578
 42
0.4142135623731
 10
-1305.232680186567
 20
-405.0001979518578
 42
0.4142135623731
 10
-1303.732680186567
 20
-406.5001979518578
 42
0.4142135623731
  0
LWPOLYLINE
  5
1CB
330
1F
100
AcDbEntity
  8
0-B_寸法
  6
Continuous
 62
     7
370
     9
100
AcDbPolyline
 90
        4
 70
     1
 43
3.0
 10
-1302.232680186567
 20
-567.0001979518571
 42
0.4142135623731
 10
-1303.732680186567
 20
-565.5001979518571
 42
0.4142135623731
 10
-1305.232680186567
 20
-567.0001979518571
 42
0.4142135623731
 10
-1303.732680186567
 20
-568.5001979518571
 42
0.4142135623731
  0
LWPOLYLINE
  5
1CC
330
1F
100
AcDbEntity
  8
0-B_寸法
  6
Continuous
 62
     7
370
     9
100
AcDbPolyline
 90
        4
 70
     1
 43
3.0
 10
-1302.232680186567
 20
-549.0001979518586
 42
0.4142135623731
 10
-1303.732680186567
 20
-547.5001979518586
 42
0.4142135623731
 10
-1305.232680186567
 20
-549.0001979518586
 42
0.4142135623731
 10
-1303.732680186567
 20
-550.5001979518586
 42
0.4142135623731
  0
LINE
  5
1CD
330
1F
100
AcDbEntity
  8
0-B_寸法
  6
Continuous
 62
   120
370
     5
100
AcDbLine
 10
-1303.732680186567
 20
-567.0001979518571
 30
0.0
 11
-1513.732680186567
 21
-567.0001979518571
 31
0.0
  0
LINE
  5
1CE
330
1F
100
AcDbEntity
  8
0-B_寸法
  6
Continuous
 62
   120
370
     5
100
AcDbLine
 10
-1093.732680186566
 20
-549.0001979518586
 30
0.0
 11
-1513.732680186567
 21
-549.0001979518586
 31
0.0
  0
LINE
  5
1CF
330
1F
100
AcDbEntity
  8
0-B_寸法
  6
Continuous
 62
   120
370
     5
100
AcDbLine
 10
-1093.732680186566
 20
-549.0001979518586
 30
0.0
 11
-1093.732680186566
 21
-3087.000609939164
 31
0.0
  0
LWPOLYLINE
  5
1D0
330
1F
100
AcDbEntity
  8
0-B_寸法
  6
Continuous
 62
     7
370
     9
100
AcDbPolyline
 90
        4
 70
     1
 43
3.0
 10
-1092.232680186566
 20
-549.0001979518586
 42
0.4142135623731
 10
-1093.732680186566
 20
-547.5001979518586
 42
0.4142135623731
 10
-1095.232680186566
 20
-549.0001979518586
 42
0.4142135623731
 10
-1093.732680186566
 20
-550.5001979518586
 42
0.4142135623731
  0
LINE
  5
1D1
330
1F
100
AcDbEntity
  8
仕上げ
  6
Continuous
 62
    40
370
    15
100
AcDbLine
 10
-1798.732680186562
 20
-405.0001979518578
 30
0.0
 11
-1798.732680186562
 21
194.9998020481422
 31
0.0
  0
LINE
  5
1D2
330
1F
100
AcDbEntity
  8
仕上げ
  6
Continuous
 62
    40
370
    15
100
AcDbLine
 10
-1873.732680186563
 20
-405.0001979518578
 30
0.0
 11
-1873.732680186563
 21
194.9998020481422
 31
0.0
  0
LINE
  5
1D3
330
1F
100
AcDbEntity
  8
仕上げ
  6
Continuous
 62
    40
370
    15
100
AcDbLine
 10
-2503.732680186562
 20
-405.0001979518578
 30
0.0
 11
-2503.732680186562
 21
194.9998020481422
 31
0.0
  0
LINE
  5
1D4
330
1F
100
AcDbEntity
  8
仕上げ
  6
Continuous
 62
    40
370
    15
100
AcDbLine
 10
-2578.732680186563
 20
-405.0001979518578
 30
0.0
 11
-2578.732680186563
 21
194.9998020481422
 31
0.0
  0
LINE
  5
1D5
330
1F
100
AcDbEntity
  8
ハッチ
  6
JWW_DASHED1
 62
   120
370
     5
100
AcDbLine
 10
-2578.732680186559
 20
125.7606916108188
 30
0.0
 11
-2509.493569749236
 21
194.9998020481422
 31
0.0
  0
LINE
  5
1D6
330
1F
100
AcDbEntity
  8
ハッチ
  6
JWW_DASHED1
 62
   120
370
     5
100
AcDbLine
 10
-1873.73268018657
 20
109.5117748005191
 30
0.0
 11
-1798.732680186558
 21
184.5117748005293
 31
0.0
  0
LINE
  5
1D7
330
1F
100
AcDbEntity
  8
ハッチ
  6
JWW_DASHED1
 62
   120
370
     5
100
AcDbLine
 10
-1873.73268018657
 20
67.08536792931739
 30
0.0
 11
-1798.732680186572
 21
142.0853679293157
 31
0.0
  0
LINE
  5
1D8
330
1F
100
AcDbEntity
  8
ハッチ
  6
JWW_DASHED1
 62
   120
370
     5
100
AcDbLine
 10
-2578.73268018657
 20
83.3342847396085
 30
0.0
 11
-2503.732680186575
 21
158.3342847396034
 31
0.0
  0
LINE
  5
1D9
330
1F
100
AcDbEntity
  8
ハッチ
  6
JWW_DASHED1
 62
   120
370
     5
100
AcDbLine
 10
-1873.732680186573
 20
151.938181671714
 30
0.0
 11
-1830.671059810145
 21
194.9998020481422
 31
0.0
  0
LINE
  5
1DA
330
1F
100
AcDbEntity
  8
ハッチ
  6
JWW_DASHED1
 62
   120
370
     5
100
AcDbLine
 10
-1873.732680186562
 20
194.364588542926
 30
0.0
 11
-1873.097466681345
 21
194.9998020481422
 31
0.0
  0
LINE
  5
1DB
330
1F
100
AcDbEntity
  8
ハッチ
  6
JWW_DASHED1
 62
   120
370
     5
100
AcDbLine
 10
-2578.732680186563
 20
168.1870984820154
 30
0.0
 11
-2551.919976620436
 21
194.9998020481422
 31
0.0
  0
LINE
  5
1DC
330
1F
100
AcDbEntity
  8
0-0_補助線
  6
JWW_HOJO
 62
   120
370
     5
100
AcDbLine
 10
-2863.732680186566
 20
-3159.00040394551
 30
0.0
 11
-2863.732680186566
 21
194.9998020481422
 31
0.0
  0
LINE
  5
1DD
330
1F
100
AcDbEntity
  8
0-0_補助線
  6
JWW_HOJO
 62
   120
370
     5
100
AcDbLine
 10
-3095.081457156685
 20
-3159.00040394551
 30
0.0
 11
-3095.081457156685
 21
194.9998020481422
 31
0.0
  0
LINE
  5
1DE
330
1F
100
AcDbEntity
  8
0-0_補助線
  6
JWW_HOJO
 62
   120
370
     5
100
AcDbLine
 10
-1513.732680186567
 20
-3159.00040394551
 30
0.0
 11
-1513.732680186567
 21
194.9998020481422
 31
0.0
  0
LINE
  5
1DF
330
1F
100
AcDbEntity
  8
0-0_補助線
  6
JWW_HOJO
 62
   120
370
     5
100
AcDbLine
 10
-1093.732680186566
 20
-3159.00040394551
 30
0.0
 11
-1093.732680186566
 21
194.9998020481422
 31
0.0
  0
LINE
  5
1E0
330
1F
100
AcDbEntity
  8
0-0_補助線
  6
JWW_HOJO
 62
   120
370
     5
100
AcDbLine
 10
-3095.081457156685
 20
194.9998020481422
 30
0.0
 11
-884.5895473612637
 21
194.9998020481422
 31
0.0
  0
LINE
  5
1E1
330
1F
100
AcDbEntity
  8
仕上げ
  6
Continuous
 62
    92
370
    13
100
AcDbLine
 10
-2503.732680186562
 20
-339.0001979518577
 30
0.0
 11
-1873.732680186563
 21
-339.0001979518577
 31
0.0
  0
LINE
  5
1E2
330
1F
100
AcDbEntity
  8
仕上げ
  6
Continuous
 62
    92
370
    13
100
AcDbLine
 10
-2503.732680186562
 20
-69.00019795185727
 30
0.0
 11
-1873.732680186563
 21
-69.00019795185727
 31
0.0
  0
LINE
  5
1E3
330
1F
100
AcDbEntity
  8
仕上げ
  6
Continuous
 62
     7
370
     9
100
AcDbLine
 10
-2503.732680186562
 20
-339.0001979518577
 30
0.0
 11
-1873.732680186563
 21
-69.00019795185727
 31
0.0
  0
LINE
  5
1E4
330
1F
100
AcDbEntity
  8
0-0_補助線
  6
JWW_HOJO
 62
   120
370
     5
100
AcDbLine
 10
-1303.732680186567
 20
-3159.00040394551
 30
0.0
 11
-1303.732680186567
 21
194.9998020481422
 31
0.0
  0
LINE
  5
1E5
330
1F
100
AcDbEntity
  8
0-B_寸法
  6
Continuous
 62
   120
370
     5
100
AcDbLine
 10
-884.5895473612637
 20
-3159.00040394551
 30
0.0
 11
-1513.732680186567
 21
-3159.00040394551
 31
0.0
  0
LWPOLYLINE
  5
1E6
330
1F
100
AcDbEntity
  8
0-B_寸法
  6
Continuous
 62
     7
370
     9
100
AcDbPolyline
 90
        4
 70
     1
 43
3.0
 10
-883.0895473612637
 20
-3159.00040394551
 42
0.4142135623731
 10
-884.5895473612637
 20
-3157.50040394551
 42
0.4142135623731
 10
-886.0895473612637
 20
-3159.00040394551
 42
0.4142135623731
 10
-884.5895473612637
 20
-3160.50040394551
 42
0.4142135623731
  0
LWPOLYLINE
  5
1E7
330
1F
100
AcDbEntity
  8
0-B_寸法
  6
Continuous
 62
     7
370
     9
100
AcDbPolyline
 90
        4
 70
     1
 43
3.0
 10
-883.0895473612637
 20
-3087.000609939164
 42
0.4142135623731
 10
-884.5895473612637
 20
-3085.500609939164
 42
0.4142135623731
 10
-886.0895473612637
 20
-3087.000609939164
 42
0.4142135623731
 10
-884.5895473612637
 20
-3088.500609939164
 42
0.4142135623731
  0
LINE
  5
1E8
330
1F
100
AcDbEntity
  8
0-B_寸法
  6
Continuous
 62
   120
370
     5
100
AcDbLine
 10
-884.5895473612637
 20
-3087.000609939164
 30
0.0
 11
-1513.732680186567
 21
-3087.000609939164
 31
0.0
  0
LINE
  5
1E9
330
1F
100
AcDbEntity
  8
0-B_寸法
  6
Continuous
 62
   120
370
     5
100
AcDbLine
 10
-884.5895473612637
 20
-405.0001979518578
 30
0.0
 11
-1513.732680186567
 21
-405.0001979518578
 31
0.0
  0
LWPOLYLINE
  5
1EA
330
1F
100
AcDbEntity
  8
0-B_寸法
  6
Continuous
 62
     7
370
     9
100
AcDbPolyline
 90
        4
 70
     1
 43
3.0
 10
-883.0895473612637
 20
-405.0001979518578
 42
0.4142135623731
 10
-884.5895473612637
 20
-403.5001979518578
 42
0.4142135623731
 10
-886.0895473612637
 20
-405.0001979518578
 42
0.4142135623731
 10
-884.5895473612637
 20
-406.5001979518578
 42
0.4142135623731
  0
LINE
  5
1EB
330
1F
100
AcDbEntity
  8
0-0_補助線
  6
JWW_HOJO
 62
   120
370
     5
100
AcDbLine
 10
-884.5895473612637
 20
-3159.00040394551
 30
0.0
 11
-884.5895473612637
 21
194.9998020481422
 31
0.0
  0
LINE
  5
1EC
330
1F
100
AcDbEntity
  8
0-B_寸法
  6
Continuous
 62
   120
370
     5
100
AcDbLine
 10
-884.5895473612637
 20
-405.0001979518578
 30
0.0
 11
-884.5895473612637
 21
-3159.00040394551
 31
0.0
  0
LINE
  5
1ED
330
1F
100
AcDbEntity
  8
0-B_寸法
  6
Continuous
 62
   120
370
     5
100
AcDbLine
 10
-1303.732680186567
 20
-405.0001979518578
 30
0.0
 11
-1303.732680186567
 21
-3087.000609939164
 31
0.0
  0
LINE
  5
1EE
330
1F
100
AcDbEntity
  8
0-4_枠
  6
Continuous
 62
    92
370
    13
100
AcDbLine
 10
-2148.532680186563
 20
-549.0001979518586
 30
0.0
 11
-2036.932680186563
 21
-549.0001979518586
 31
0.0
  0
LINE
  5
1EF
330
1F
100
AcDbEntity
  8
0-4_枠
  6
Continuous
 62
    92
370
    13
100
AcDbLine
 10
-2148.532680186563
 20
-546.0006328273475
 30
0.0
 11
-2036.932680186563
 21
-546.0006328273475
 31
0.0
  0
LINE
  5
1F0
330
1F
100
AcDbEntity
  8
0-4_枠
  6
Continuous
 62
    92
370
    13
100
AcDbLine
 10
-2170.732680186563
 20
-498.0001979518585
 30
0.0
 11
-2148.532680186563
 21
-498.0001979518585
 31
0.0
  0
LINE
  5
1F1
330
1F
100
AcDbEntity
  8
0-4_枠
  6
Continuous
 62
    92
370
    13
100
AcDbLine
 10
-2036.932680186563
 20
-498.0001979518585
 30
0.0
 11
-2014.732680186563
 21
-498.0001979518585
 31
0.0
  0
LINE
  5
1F2
330
1F
100
AcDbEntity
  8
0-4_枠
  6
Continuous
 62
    92
370
    13
100
AcDbLine
 10
-2014.732680186563
 20
-498.0001979518585
 30
0.0
 11
-2014.732680186563
 21
-549.0001979518586
 31
0.0
  0
LINE
  5
1F3
330
1F
100
AcDbEntity
  8
0-4_枠
  6
Continuous
 62
    92
370
    13
100
AcDbLine
 10
-2036.932680186563
 20
-549.0001979518586
 30
0.0
 11
-2036.932680186563
 21
-498.0001979518585
 31
0.0
  0
LINE
  5
1F4
330
1F
100
AcDbEntity
  8
0-4_枠
  6
Continuous
 62
    92
370
    13
100
AcDbLine
 10
-2148.532680186563
 20
-549.0001979518586
 30
0.0
 11
-2148.532680186563
 21
-498.0001979518585
 31
0.0
  0
LINE
  5
1F5
330
1F
100
AcDbEntity
  8
0-4_枠
  6
Continuous
 62
    92
370
    13
100
AcDbLine
 10
-2170.732680186563
 20
-549.0001979518586
 30
0.0
 11
-2170.732680186563
 21
-498.0001979518585
 31
0.0
  0
LINE
  5
1F6
330
1F
100
AcDbEntity
  8
ハッチ
  6
Continuous
 62
   120
370
     5
100
AcDbLine
 10
-2061.955775655387
 20
-546.0006328273364
 30
0.0
 11
-2036.932680186572
 21
-520.9775373585198
 31
0.0
  0
LINE
  5
1F7
330
1F
100
AcDbEntity
  8
ハッチ
  6
Continuous
 62
   120
370
     5
100
AcDbLine
 10
-2014.732680186558
 20
-498.7775373585072
 30
0.0
 11
-1920.955340779908
 21
-405.0001979518578
 31
0.0
  0
LINE
  5
1F8
330
1F
100
AcDbEntity
  8
ハッチ
  6
Continuous
 62
   120
370
     5
100
AcDbLine
 10
-2129.838233647762
 20
-546.0006328273466
 30
0.0
 11
-1988.837798772279
 21
-405.0001979518638
 31
0.0
  0
LINE
  5
1F9
330
1F
100
AcDbEntity
  8
ハッチ
  6
Continuous
 62
   120
370
     5
100
AcDbLine
 10
-2197.720691640067
 20
-546.0006328273428
 30
0.0
 11
-2170.732680186564
 21
-519.0126213738395
 31
0.0
  0
LINE
  5
1FA
330
1F
100
AcDbEntity
  8
ハッチ
  6
Continuous
 62
   120
370
     5
100
AcDbLine
 10
-2149.720256764596
 20
-498.0001979518709
 30
0.0
 11
-2056.720256764592
 21
-405.000197951868
 31
0.0
  0
LINE
  5
1FB
330
1F
100
AcDbEntity
  8
ハッチ
  6
Continuous
 62
   120
370
     5
100
AcDbLine
 10
-2265.603149632421
 20
-546.000632827333
 30
0.0
 11
-2124.602714756939
 21
-405.000197951851
 31
0.0
  0
LINE
  5
1FC
330
1F
100
AcDbEntity
  8
ハッチ
  6
Continuous
 62
   120
370
     5
100
AcDbLine
 10
-2333.485607624782
 20
-546.0006328273305
 30
0.0
 11
-2192.485172749313
 21
-405.0001979518599
 31
0.0
  0
LINE
  5
1FD
330
1F
100
AcDbEntity
  8
ハッチ
  6
Continuous
 62
   120
370
     5
100
AcDbLine
 10
-2401.368065617156
 20
-546.0006328273398
 30
0.0
 11
-2260.367630741677
 21
-405.0001979518612
 31
0.0
  0
LINE
  5
1FE
330
1F
100
AcDbEntity
  8
ハッチ
  6
Continuous
 62
   120
370
     5
100
AcDbLine
 10
-2469.250523609471
 20
-546.0006328273454
 30
0.0
 11
-2328.25008873399
 21
-405.0001979518646
 31
0.0
  0
LINE
  5
1FF
330
1F
100
AcDbEntity
  8
ハッチ
  6
Continuous
 62
   120
370
     5
100
AcDbLine
 10
-2537.132981601816
 20
-546.0006328273271
 30
0.0
 11
-2396.132546726347
 21
-405.0001979518578
 31
0.0
  0
MTEXT
  5
200
330
1F
100
AcDbEntity
  8
0-B_寸法
  6
Continuous
 62
     7
370
     0
100
AcDbMText
 10
-1318.732680186567
 20
-551.2801979518588
 30
0.0
 40
91.44
 41
120.0
 46
0.0
 71
     7
 72
     1
  1
{\fＭＳ ゴシック|b0|i0|c128|p49;24}
 11
6.123031769111886E-17
 21
1.0
 31
0.0
 73
     1
 44
1.0
  0
MTEXT
  5
201
330
1F
100
AcDbEntity
  8
0-B_寸法
  6
Continuous
 62
     7
370
     0
100
AcDbMText
 10
-1316.710674746061
 20
-646.5901491622667
 30
0.0
 40
91.44
 41
60.0
 46
0.0
 71
     7
 72
     1
  1
{\fＭＳ ゴシック|b0|i0|c128|p49;3}
 11
6.123031769111886E-17
 21
1.0
 31
0.0
 73
     1
 44
1.0
  0
LINE
  5
202
330
1F
100
AcDbEntity
  8
0-1_通り芯
  6
JWW_CENTER1
 62
   120
370
     5
100
AcDbLine
 10
-2863.732680186566
 20
-405.0001979518578
 30
0.0
 11
-1513.732680186567
 21
-405.0001979518578
 31
0.0
  0
LINE
  5
203
330
1F
100
AcDbEntity
  8
0-6_扉
  6
Continuous
 62
   200
370
    20
100
AcDbLine
 10
-1999.732680186566
 20
-567.0001979518571
 30
0.0
 11
-1783.732680186567
 21
-567.0001979518571
 31
0.0
  0
LINE
  5
204
330
1F
100
AcDbEntity
  8
0-6_扉
  6
Continuous
 62
   200
370
    20
100
AcDbLine
 10
-1999.732680186566
 20
-567.0001979518571
 30
0.0
 11
-1999.732680186566
 21
-1729.500506942337
 31
0.0
  0
LINE
  5
205
330
1F
100
AcDbEntity
  8
0-6_扉
  6
Continuous
 62
   200
370
    20
100
AcDbLine
 10
-1783.732680186567
 20
-567.0001979518571
 30
0.0
 11
-1783.732680186567
 21
-1729.500506942337
 31
0.0
  0
LINE
  5
206
330
1F
100
AcDbEntity
  8
0-B_寸法
  6
Continuous
 62
   120
370
     5
100
AcDbLine
 10
-1999.732680186566
 20
-1145.289292665547
 30
0.0
 11
-1783.732680186567
 21
-1145.289292665547
 31
0.0
  0
LWPOLYLINE
  5
207
330
1F
100
AcDbEntity
  8
0-B_寸法
  6
Continuous
 62
     7
370
     9
100
AcDbPolyline
 90
        4
 70
     1
 43
3.0
 10
-1998.232680186566
 20
-1145.289292665547
 42
0.4142135623731
 10
-1999.732680186566
 20
-1143.789292665547
 42
0.4142135623731
 10
-2001.232680186566
 20
-1145.289292665547
 42
0.4142135623731
 10
-1999.732680186566
 20
-1146.789292665547
 42
0.4142135623731
  0
LWPOLYLINE
  5
208
330
1F
100
AcDbEntity
  8
0-B_寸法
  6
Continuous
 62
     7
370
     9
100
AcDbPolyline
 90
        4
 70
     1
 43
3.0
 10
-1782.232680186567
 20
-1145.289292665547
 42
0.4142135623731
 10
-1783.732680186567
 20
-1143.789292665547
 42
0.4142135623731
 10
-1785.232680186567
 20
-1145.289292665547
 42
0.4142135623731
 10
-1783.732680186567
 20
-1146.789292665547
 42
0.4142135623731
  0
MTEXT
  5
209
330
1F
100
AcDbEntity
  8
0-B_寸法
  6
Continuous
 62
     7
370
   211
100
AcDbMText
 10
-1951.732680186567
 20
-1144.569292665547
 30
0.0
 40
91.44
 41
120.0
 46
0.0
 71
     7
 72
     1
  1
{\fＭＳ ゴシック|b0|i0|c128|p49;36}
 73
     1
 44
1.0
  0
LINE
  5
20A
330
1F
100
AcDbEntity
  8
0-B_寸法
  6
Continuous
 62
   120
370
     5
100
AcDbLine
 10
-1303.732680186567
 20
-3009.000100677078
 30
0.0
 11
-1513.732680186567
 21
-3009.000100677078
 31
0.0
  0
LWPOLYLINE
  5
20B
330
1F
100
AcDbEntity
  8
0-B_寸法
  6
Continuous
 62
     7
370
     9
100
AcDbPolyline
 90
        4
 70
     1
 43
3.0
 10
-1302.232680186567
 20
-3009.000100677078
 42
0.4142135623731
 10
-1303.732680186567
 20
-3007.500100677078
 42
0.4142135623731
 10
-1305.232680186567
 20
-3009.000100677078
 42
0.4142135623731
 10
-1303.732680186567
 20
-3010.500100677078
 42
0.4142135623731
  0
LINE
  5
20C
330
1F
100
AcDbEntity
  8
0-6_扉
  6
Continuous
 62
   200
370
    20
100
AcDbLine
 10
-1999.732680186566
 20
-1849.500506942337
 30
0.0
 11
-1999.732680186566
 21
-3009.000100677078
 31
0.0
  0
LINE
  5
20D
330
1F
100
AcDbEntity
  8
0-6_扉
  6
Continuous
 62
   200
370
    20
100
AcDbLine
 10
-1783.732680186567
 20
-3009.000100677078
 30
0.0
 11
-1999.732680186566
 21
-3009.000100677078
 31
0.0
  0
LINE
  5
20E
330
1F
100
AcDbEntity
  8
0-6_扉
  6
Continuous
 62
   200
370
    20
100
AcDbLine
 10
-1783.732680186567
 20
-1849.500506942337
 30
0.0
 11
-1783.732680186567
 21
-3009.000100677078
 31
0.0
  0
MTEXT
  5
20F
330
1F
100
AcDbEntity
  8
0-B_寸法
  6
Continuous
 62
     7
370
     0
100
AcDbMText
 10
-1319.984748194259
 20
-3009.568487816867
 30
0.0
 40
91.44
 41
120.0
 46
0.0
 71
     7
 72
     1
  1
{\fＭＳ ゴシック|b0|i0|c128|p49;13}
 11
6.123031769111886E-17
 21
1.0
 31
0.0
 73
     1
 44
1.0
  0
INSERT
  5
210
330
1F
100
AcDbEntity
  8
0-0_補助線
  6
Continuous
 62
     7
370
     9
100
AcDbBlockReference
  2
2@@SfigorgFlag@@4
 10
-2083.263995594992
 20
-549.9262760268681
 30
0.0
 41
30.0
 42
30.0
 50
90.0
  0
MTEXT
  5
211
330
1F
100
AcDbEntity
  8
0-A_文字
  6
Continuous
 62
     7
370
     9
100
AcDbMText
 10
-3081.282862881365
 20
273.8280120168749
 30
0.0
 40
100.584
 41
660.0
 46
0.0
 71
     7
 72
     1
  1
{\fＭＳ ゴシック|b0|i0|c128|p49;■縦断面図}
 73
     1
 44
1.0
  0
LINE
  5
212
330
1F
100
AcDbEntity
  8
F-0_補助線
  6
JWW_HOJO
 62
   120
370
     5
100
AcDbLine
 10
-5659.999495325861
 20
4424.999604096284
 30
0.0
 11
-5659.999495325861
 21
-4455.0
 31
0.0
  0
LINE
  5
213
330
1F
100
AcDbEntity
  8
F-0_補助線
  6
JWW_HOJO
 62
   120
370
     5
100
AcDbLine
 10
-6140.081333436773
 20
194.9998020481422
 30
0.0
 11
6159.917676803936
 21
194.9998020481422
 31
0.0
  0
LINE
  5
214
330
1F
100
AcDbEntity
  8
F-0_補助線
  6
JWW_HOJO
 62
   120
370
     5
100
AcDbLine
 10
9.918171683581818
 20
-4455.0
 30
0.0
 11
9.918171683581818
 21
4424.999604096284
 31
0.0
  0
LINE
  5
215
330
1F
100
AcDbEntity
  8
F-0_補助線
  6
JWW_HOJO
 62
   120
370
     5
100
AcDbLine
 10
-200.0818283164182
 20
-3159.000197951857
 30
0.0
 11
-200.0818283164182
 21
194.9998020481422
 31
0.0
  0
LINE
  5
216
330
1F
100
AcDbEntity
  8
F-0_補助線
  6
JWW_HOJO
 62
   120
370
     5
100
AcDbLine
 10
219.9181716835818
 20
-3159.000197951857
 30
0.0
 11
219.9181716835818
 21
194.9998020481422
 31
0.0
  0
LINE
  5
217
330
1F
100
AcDbEntity
  8
F-0_補助線
  6
JWW_HOJO
 62
   120
370
     5
100
AcDbLine
 10
5679.835838693025
 20
4000.000181455871
 30
0.0
 11
5679.835838693025
 21
-4455.0
 31
0.0
  0
LINE
  5
218
330
1F
100
AcDbEntity
  8
F-0_補助線
  6
JWW_HOJO
 62
   120
370
     5
100
AcDbLine
 10
-6140.081333436773
 20
-3159.000197951857
 30
0.0
 11
6159.917676803936
 21
-3159.000197951857
 31
0.0
  0
LINE
  5
219
330
1F
100
AcDbEntity
  8
F-0_補助線
  6
JWW_HOJO
 62
   120
370
     5
100
AcDbLine
 10
-6140.081333436773
 20
2438.999683277028
 30
0.0
 11
6159.917676803936
 21
2438.999683277028
 31
0.0
  0
LINE
  5
21A
330
1F
100
AcDbEntity
  8
F-0_補助線
  6
JWW_HOJO
 62
   120
370
     5
100
AcDbLine
 10
-6140.081333436773
 20
3730.000181455871
 30
0.0
 11
6159.917676803936
 21
3730.000181455871
 31
0.0
  0
LINE
  5
21B
330
1F
100
AcDbEntity
  8
F-0_補助線
  6
JWW_HOJO
 62
   120
370
     5
100
AcDbLine
 10
-6140.081333436773
 20
4000.000181455871
 30
0.0
 11
6159.917676803936
 21
4000.000181455871
 31
0.0
  0
LINE
  5
21C
330
1F
100
AcDbEntity
  8
0-A_文字
  6
Continuous
 62
    92
370
    13
100
AcDbLine
 10
1719.918171683583
 20
-405.0001979518578
 30
0.0
 11
1719.918171683583
 21
-2124.041754831445
 31
0.0
  0
LINE
  5
21D
330
1F
100
AcDbEntity
  8
0-A_文字
  6
Continuous
 62
    92
370
    13
100
AcDbLine
 10
1719.918171683583
 20
-585.0001979518578
 30
0.0
 11
219.9181716835801
 21
-585.0001979518578
 31
0.0
  0
LINE
  5
21E
330
1F
100
AcDbEntity
  8
0-A_文字
  6
Continuous
 62
    92
370
    13
100
AcDbLine
 10
1719.918171683582
 20
-405.0001979518578
 30
0.0
 11
219.9181716835801
 21
-405.0001979518578
 31
0.0
  0
LINE
  5
21F
330
1F
100
AcDbEntity
  8
0-A_文字
  6
Continuous
 62
    92
370
    13
100
AcDbLine
 10
1719.918171683583
 20
-2124.041754831445
 30
0.0
 11
219.9181716835818
 21
-2124.041754831445
 31
0.0
  0
LINE
  5
220
330
1F
100
AcDbEntity
  8
0-A_文字
  6
Continuous
 62
    92
370
    13
100
AcDbLine
 10
219.9181716835818
 20
-405.0001979518578
 30
0.0
 11
219.9181716835818
 21
-2124.041754831445
 31
0.0
  0
MTEXT
  5
221
330
1F
100
AcDbEntity
  8
0-A_文字
  6
Continuous
 62
     7
370
     9
100
AcDbMText
 10
549.9181716835818
 20
-569.2801979518578
 30
0.0
 40
91.44
 41
840.0
 46
0.0
 71
     7
 72
     1
  1
{\fＭＳ ゴシック|b0|i0|c128|p49;竪枠下端形状図}
 73
     1
 44
1.0
  0
MTEXT
  5
222
330
1F
100
AcDbEntity
  8
0-B_寸法
  6
Continuous
 62
     7
370
   211
100
AcDbMText
 10
-680.0818283164182
 20
1209.719683277027
 30
0.0
 40
91.43999999999998
 41
1680.0
 46
0.0
 71
     7
 72
     1
  1
{\fＭＳ ゴシック|b0|i0|c128|p49;ＤＷ＝793（723）<703>［680］}
 73
     1
 44
1.0
  0
MTEXT
  5
223
330
1F
100
AcDbEntity
  8
0-B_寸法
  6
Continuous
 62
     7
370
   211
100
AcDbMText
 10
-1160.081828316418
 20
1419.719683277027
 30
0.0
 40
91.44000000000001
 41
2160.0
 46
0.0
 71
     7
 72
     1
  1
{\fＭＳ ゴシック|b0|i0|c128|p49;有効開口寸法＝730（660）<640>［617］}
 73
     1
 44
1.0
  0
MTEXT
  5
224
330
1F
100
AcDbEntity
  8
0-B_寸法
  6
Continuous
 62
     7
370
   211
100
AcDbMText
 10
-680.0818283164182
 20
999.7196832770273
 30
0.0
 40
91.43999999999998
 41
1680.0
 46
0.0
 71
     7
 72
     1
  1
{\fＭＳ ゴシック|b0|i0|c128|p49;枠内＝800（730）<710>［687］}
 73
     1
 44
1.0
  0
MTEXT
  5
225
330
1F
100
AcDbEntity
  8
0-B_寸法
  6
Continuous
 62
     7
370
   211
100
AcDbMText
 10
-680.0818283164182
 20
789.7196832770273
 30
0.0
 40
91.43999999999998
 41
1680.0
 46
0.0
 71
     7
 72
     1
  1
{\fＭＳ ゴシック|b0|i0|c128|p49;枠外＝848（778）<758>［735］}
 73
     1
 44
1.0
  0
LINE
  5
226
330
1F
100
AcDbEntity
  8
F-0_補助線
  6
JWW_HOJO
 62
   120
370
     5
100
AcDbLine
 10
-5509.999495325861
 20
4000.000181455871
 30
0.0
 11
-5509.999495325861
 21
3730.000181455871
 31
0.0
  0
LINE
  5
227
330
1F
100
AcDbEntity
  8
0-A_文字
  6
Continuous
 62
    92
370
    13
100
AcDbLine
 10
-5659.999495325861
 20
4000.000181455871
 30
0.0
 11
-2154.421768707483
 21
4000.000181455871
 31
0.0
  0
LINE
  5
228
330
1F
100
AcDbEntity
  8
0-A_文字
  6
Continuous
 62
    92
370
    13
100
AcDbLine
 10
-2154.421768707483
 20
3730.000181455871
 30
0.0
 11
-2154.421768707483
 21
4000.000181455871
 31
0.0
  0
LINE
  5
229
330
1F
100
AcDbEntity
  8
0-A_文字
  6
Continuous
 62
    92
370
    13
100
AcDbLine
 10
-5659.999495325861
 20
3730.000181455871
 30
0.0
 11
-2154.421768707483
 21
3730.000181455871
 31
0.0
  0
LINE
  5
22A
330
1F
100
AcDbEntity
  8
F-0_補助線
  6
JWW_HOJO
 62
   120
370
     5
100
AcDbLine
 10
-2304.421768707483
 20
3730.000181455871
 30
0.0
 11
-2304.421768707483
 21
4000.000181455871
 31
0.0
  0
LINE
  5
22B
330
1F
100
AcDbEntity
  8
F-0_補助線
  6
JWW_HOJO
 62
   120
370
     5
100
AcDbLine
 10
1719.918171683583
 20
-885.0001979518578
 30
0.0
 11
219.9181716835801
 21
-885.0001979518578
 31
0.0
  0
LINE
  5
22C
330
1F
100
AcDbEntity
  8
F-0_補助線
  6
JWW_HOJO
 62
   120
370
     5
100
AcDbLine
 10
1719.918171683583
 20
-1824.041754831445
 30
0.0
 11
219.9181716835818
 21
-1824.041754831445
 31
0.0
  0
MTEXT
  5
22D
330
1F
100
AcDbEntity
  8
0-B_寸法
  6
Continuous
 62
     7
370
     0
100
AcDbMText
 10
-896.0891381032314
 20
-3316.536088102993
 30
0.0
 40
91.44
 41
120.0
 46
0.0
 71
     7
 72
     1
  1
{\fＭＳ ゴシック|b0|i0|c128|p49;12}
 11
6.123031769111886E-17
 21
1.0
 31
0.0
 73
     1
 44
1.0
  0
LINE
  5
22E
330
1F
100
AcDbEntity
  8
F-0_補助線
  6
JWW_HOJO
 62
     7
370
     9
100
AcDbLine
 10
1109.918584083287
 20
-3795.000003092998
 30
0.0
 11
1109.918584083287
 21
-4195.000008247994
 31
0.0
  0
LINE
  5
22F
330
1F
100
AcDbEntity
  8
F-0_補助線
  6
JWW_HOJO
 62
     7
370
     9
100
AcDbLine
 10
4889.917891251784
 20
-3795.000003092998
 30
0.0
 11
4889.917891251784
 21
-4195.000008247994
 31
0.0
  0
MTEXT
  5
230
330
1F
100
AcDbEntity
  8
F-0_補助線
  6
Continuous
 62
     7
370
     0
100
AcDbMText
 10
509.9185840832865
 20
-3945.709576962234
 30
0.0
 40
78.58125
 41
412.5
 46
0.0
 71
     7
 72
     1
  1
{\fＭＳ ゴシック|b0|i0|c128|p49;DOORETUS}
 73
     1
 44
1.0
  0
MTEXT
  5
231
330
1F
100
AcDbEntity
  8
F-0_補助線
  6
Continuous
 62
     7
370
     0
100
AcDbMText
 10
1109.918584083287
 20
-3945.948259655243
 30
0.0
 40
78.105
 41
615.0
 46
0.0
 71
     7
 72
     1
  1
{\fＭＳ ゴシック|b0|i0|c128|p49;建具納まり図}
 73
     1
 44
1.0
  0
LINE
  5
232
330
1F
100
AcDbEntity
  8
0-1_通り芯
  6
JWW_CENTER1
 62
   120
370
     5
100
AcDbLine
 10
1770.918542843314
 20
2141.999683277027
 30
0.0
 11
-1751.081457156682
 21
2141.999683277027
 31
0.0
  0
LWPOLYLINE
  5
233
330
1F
100
AcDbEntity
  8
0-B_寸法
  6
Continuous
 62
     7
370
     9
100
AcDbPolyline
 90
        4
 70
     1
 43
3.0
 10
-1141.051467470608
 20
2033.999683277027
 42
0.4142135623731
 10
-1142.551467470608
 20
2035.499683277027
 42
0.4142135623731
 10
-1144.051467470608
 20
2033.999683277027
 42
0.4142135623731
 10
-1142.551467470608
 20
2032.499683277028
 42
0.4142135623731
  0
LWPOLYLINE
  5
234
330
1F
100
AcDbEntity
  8
0-B_寸法
  6
Continuous
 62
     7
370
     9
100
AcDbPolyline
 90
        4
 70
     1
 43
3.0
 10
-1141.051467470608
 20
2249.999683277027
 42
0.4142135623731
 10
-1142.551467470608
 20
2251.499683277027
 42
0.4142135623731
 10
-1144.051467470608
 20
2249.999683277027
 42
0.4142135623731
 10
-1142.551467470608
 20
2248.499683277027
 42
0.4142135623731
  0
LINE
  5
235
330
1F
100
AcDbEntity
  8
0-B_寸法
  6
Continuous
 62
   120
370
     5
100
AcDbLine
 10
-1142.551467470608
 20
2249.999683277027
 30
0.0
 11
-1142.551467470608
 21
2033.999683277027
 31
0.0
  0
MTEXT
  5
236
330
1F
100
AcDbEntity
  8
0-B_寸法
  6
Continuous
 62
     7
370
   211
100
AcDbMText
 10
-1157.551467470608
 20
2067.719683277027
 30
0.0
 40
91.44
 41
120.0
 46
0.0
 71
     7
 72
     1
  1
{\fＭＳ ゴシック|b0|i0|c128|p49;36}
 11
6.123031769111886E-17
 21
1.0
 31
0.0
 73
     1
 44
1.0
  0
LINE
  5
237
330
1F
100
AcDbEntity
  8
0-B_寸法
  6
Continuous
 62
   120
370
     5
100
AcDbLine
 10
-842.5514674706078
 20
2141.999683277027
 30
0.0
 11
-842.5514674706078
 21
2438.999683277028
 31
0.0
  0
LWPOLYLINE
  5
238
330
1F
100
AcDbEntity
  8
0-B_寸法
  6
Continuous
 62
     7
370
     9
100
AcDbPolyline
 90
        4
 70
     1
 43
3.0
 10
-841.0514674706078
 20
2141.999683277027
 42
0.4142135623731
 10
-842.5514674706078
 20
2143.499683277027
 42
0.4142135623731
 10
-844.0514674706078
 20
2141.999683277027
 42
0.4142135623731
 10
-842.5514674706078
 20
2140.499683277027
 42
0.4142135623731
  0
LWPOLYLINE
  5
239
330
1F
100
AcDbEntity
  8
0-B_寸法
  6
Continuous
 62
     7
370
     9
100
AcDbPolyline
 90
        4
 70
     1
 43
3.0
 10
-841.0514674706078
 20
2438.999683277028
 42
0.4142135623731
 10
-842.5514674706078
 20
2440.499683277027
 42
0.4142135623731
 10
-844.0514674706078
 20
2438.999683277028
 42
0.4142135623731
 10
-842.5514674706078
 20
2437.499683277028
 42
0.4142135623731
  0
MTEXT
  5
23A
330
1F
100
AcDbEntity
  8
0-B_寸法
  6
Continuous
 62
     7
370
   211
100
AcDbMText
 10
-857.5514674706078
 20
2149.255933277027
 30
0.0
 40
100.0125
 41
262.5
 46
0.0
 71
     7
 72
     1
  1
{\fＭＳ ゴシック|b0|i0|c128|p49;49.5}
 11
6.123031769111886E-17
 21
1.0
 31
0.0
 73
     1
 44
1.0
  0
LINE
  5
23B
330
1F
100
AcDbEntity
  8
0-1_通り芯
  6
JWW_CENTER1
 62
   120
370
     5
100
AcDbLine
 10
-2188.732680186562
 20
-3281.479591836734
 30
0.0
 11
-2188.732680186562
 21
194.9998020481422
 31
0.0
  0
LINE
  5
23C
330
1F
100
AcDbEntity
  8
0-1_通り芯
  6
JWW_CENTER1
 62
   120
370
     5
100
AcDbLine
 10
-1891.732680186564
 20
-3087.000609939164
 30
0.0
 11
-1891.732680186564
 21
-549.0001979518586
 31
0.0
  0
LINE
  5
23D
330
1F
100
AcDbEntity
  8
0-B_寸法
  6
Continuous
 62
   120
370
     5
100
AcDbLine
 10
-2188.732680186562
 20
-1445.289292665547
 30
0.0
 11
-1891.732680186564
 21
-1445.289292665547
 31
0.0
  0
LWPOLYLINE
  5
23E
330
1F
100
AcDbEntity
  8
0-B_寸法
  6
Continuous
 62
     7
370
     9
100
AcDbPolyline
 90
        4
 70
     1
 43
3.0
 10
-2187.232680186562
 20
-1445.289292665547
 42
0.4142135623731
 10
-2188.732680186562
 20
-1443.789292665547
 42
0.4142135623731
 10
-2190.232680186562
 20
-1445.289292665547
 42
0.4142135623731
 10
-2188.732680186562
 20
-1446.789292665547
 42
0.4142135623731
  0
LWPOLYLINE
  5
23F
330
1F
100
AcDbEntity
  8
0-B_寸法
  6
Continuous
 62
     7
370
     9
100
AcDbPolyline
 90
        4
 70
     1
 43
3.0
 10
-1890.232680186564
 20
-1445.289292665547
 42
0.4142135623731
 10
-1891.732680186564
 20
-1443.789292665547
 42
0.4142135623731
 10
-1893.232680186564
 20
-1445.289292665547
 42
0.4142135623731
 10
-1891.732680186564
 20
-1446.789292665547
 42
0.4142135623731
  0
MTEXT
  5
240
330
1F
100
AcDbEntity
  8
0-B_寸法
  6
Continuous
 62
     7
370
   211
100
AcDbMText
 10
-2171.482680186563
 20
-1440.283042665547
 30
0.0
 40
100.0125
 41
262.5
 46
0.0
 71
     7
 72
     1
  1
{\fＭＳ ゴシック|b0|i0|c128|p49;49.5}
 73
     1
 44
1.0
  0
LINE
  5
241
330
1F
100
AcDbEntity
  8
0-4_枠
  6
Continuous
 62
    92
370
    13
100
AcDbLine
 10
-1751.081457156682
 20
2836.029120528542
 30
0.0
 11
-1751.081457156682
 21
2420.999683277026
 31
0.0
  0
LINE
  5
242
330
1F
100
AcDbEntity
  8
0-4_枠
  6
Continuous
 62
    92
370
    13
100
AcDbLine
 10
-1754.081022281193
 20
2420.999683277026
 30
0.0
 11
-1754.081022281193
 21
2834.786044965933
 31
0.0
  0
LINE
  5
243
330
1F
100
AcDbEntity
  8
0-4_枠
  6
Continuous
 62
    92
370
    13
100
AcDbLine
 10
-1769.29509546748
 20
2850.000118152219
 30
0.0
 11
-1754.081022281193
 21
2834.786044965933
 31
0.0
  0
LINE
  5
244
330
1F
100
AcDbEntity
  8
0-4_枠
  6
Continuous
 62
    92
370
    13
100
AcDbLine
 10
-1768.05201990516
 20
2852.999683277019
 30
0.0
 11
-1751.081457156682
 21
2836.029120528542
 31
0.0
  0
LINE
  5
245
330
1F
100
AcDbEntity
  8
0-4_枠
  6
Continuous
 62
    92
370
    13
100
AcDbLine
 10
-1768.05201990516
 20
2852.999683277019
 30
0.0
 11
-1895.081457156684
 21
2852.999683277019
 31
0.0
  0
LINE
  5
246
330
1F
100
AcDbEntity
  8
0-4_枠
  6
Continuous
 62
    92
370
    13
100
AcDbLine
 10
-1892.081457156683
 20
2762.999683277019
 30
0.0
 11
-1895.081457156684
 21
2762.999683277019
 31
0.0
  0
LINE
  5
247
330
1F
100
AcDbEntity
  8
0-4_枠
  6
Continuous
 62
    92
370
    13
100
AcDbLine
 10
-1892.081457156683
 20
2762.999683277019
 30
0.0
 11
-1892.081457156683
 21
2850.000118152509
 31
0.0
  0
LINE
  5
248
330
1F
100
AcDbEntity
  8
0-4_枠
  6
Continuous
 62
    92
370
    13
100
AcDbLine
 10
-1892.081457156683
 20
2850.000118152219
 30
0.0
 11
-1769.29509546748
 21
2850.000118152219
 31
0.0
  0
LINE
  5
249
330
1F
100
AcDbEntity
  8
0-4_枠
  6
Continuous
 62
    92
370
    13
100
AcDbLine
 10
1770.918542843314
 20
2836.029120528542
 30
0.0
 11
1770.918542843314
 21
2420.999683277026
 31
0.0
  0
LINE
  5
24A
330
1F
100
AcDbEntity
  8
0-4_枠
  6
Continuous
 62
    92
370
    13
100
AcDbLine
 10
1773.918107967825
 20
2420.999683277026
 30
0.0
 11
1773.918107967825
 21
2834.786044965933
 31
0.0
  0
LINE
  5
24B
330
1F
100
AcDbEntity
  8
0-4_枠
  6
Continuous
 62
    92
370
    13
100
AcDbLine
 10
1789.132181154111
 20
2850.000118152219
 30
0.0
 11
1773.918107967825
 21
2834.786044965933
 31
0.0
  0
LINE
  5
24C
330
1F
100
AcDbEntity
  8
0-4_枠
  6
Continuous
 62
    92
370
    13
100
AcDbLine
 10
1787.889105591792
 20
2852.999683277019
 30
0.0
 11
1770.918542843314
 21
2836.029120528542
 31
0.0
  0
LINE
  5
24D
330
1F
100
AcDbEntity
  8
0-4_枠
  6
Continuous
 62
    92
370
    13
100
AcDbLine
 10
1787.889105591792
 20
2852.999683277019
 30
0.0
 11
1914.918542843316
 21
2852.999683277019
 31
0.0
  0
LINE
  5
24E
330
1F
100
AcDbEntity
  8
0-4_枠
  6
Continuous
 62
    92
370
    13
100
AcDbLine
 10
1911.918542843316
 20
2762.999683277019
 30
0.0
 11
1911.918542843316
 21
2850.000118152509
 31
0.0
  0
LINE
  5
24F
330
1F
100
AcDbEntity
  8
0-4_枠
  6
Continuous
 62
    92
370
    13
100
AcDbLine
 10
1911.918542843316
 20
2762.999683277019
 30
0.0
 11
1914.918542843317
 21
2762.999683277019
 31
0.0
  0
LINE
  5
250
330
1F
100
AcDbEntity
  8
0-4_枠
  6
Continuous
 62
    92
370
    13
100
AcDbLine
 10
1911.918542843316
 20
2850.000118152219
 30
0.0
 11
1789.132181154111
 21
2850.000118152219
 31
0.0
  0
LINE
  5
251
330
1F
100
AcDbEntity
  8
0-4_枠
  6
Continuous
 62
    92
370
    13
100
AcDbLine
 10
-1751.081457156682
 20
2041.970246025498
 30
0.0
 11
-1751.081457156682
 21
2264.999683277024
 31
0.0
  0
LINE
  5
252
330
1F
100
AcDbEntity
  8
0-4_枠
  6
Continuous
 62
    92
370
    13
100
AcDbLine
 10
-1754.081022281193
 20
2043.213321588107
 30
0.0
 11
-1754.081022281193
 21
2264.999683277024
 31
0.0
  0
LINE
  5
253
330
1F
100
AcDbEntity
  8
0-4_枠
  6
Continuous
 62
    92
370
    13
100
AcDbLine
 10
-1769.294500374992
 20
2027.999843494308
 30
0.0
 11
-1754.081022281193
 21
2043.213321588107
 31
0.0
  0
LINE
  5
254
330
1F
100
AcDbEntity
  8
0-4_枠
  6
Continuous
 62
    92
370
    13
100
AcDbLine
 10
-1768.05201990516
 20
2024.999683277021
 30
0.0
 11
-1751.081457156682
 21
2041.970246025498
 31
0.0
  0
LINE
  5
255
330
1F
100
AcDbEntity
  8
0-4_枠
  6
Continuous
 62
    92
370
    13
100
AcDbLine
 10
-1768.05201990516
 20
2024.999683277021
 30
0.0
 11
-1895.081457156684
 21
2024.999683277021
 31
0.0
  0
LINE
  5
256
330
1F
100
AcDbEntity
  8
0-4_枠
  6
Continuous
 62
    92
370
    13
100
AcDbLine
 10
-1892.081457156683
 20
2114.999683277025
 30
0.0
 11
-1895.081457156684
 21
2114.999683277025
 31
0.0
  0
LINE
  5
257
330
1F
100
AcDbEntity
  8
0-4_枠
  6
Continuous
 62
    92
370
    13
100
AcDbLine
 10
-1892.081457156683
 20
2114.999683277025
 30
0.0
 11
-1892.081457156683
 21
2027.999843494311
 31
0.0
  0
LINE
  5
258
330
1F
100
AcDbEntity
  8
0-4_枠
  6
Continuous
 62
    92
370
    13
100
AcDbLine
 10
-1769.294500374992
 20
2027.999843494308
 30
0.0
 11
-1892.081457156683
 21
2027.999843494308
 31
0.0
  0
LINE
  5
259
330
1F
100
AcDbEntity
  8
0-4_枠
  6
Continuous
 62
    92
370
    13
100
AcDbLine
 10
1770.918542843314
 20
2041.970246025498
 30
0.0
 11
1770.918542843314
 21
2264.999683277024
 31
0.0
  0
LINE
  5
25A
330
1F
100
AcDbEntity
  8
0-4_枠
  6
Continuous
 62
    92
370
    13
100
AcDbLine
 10
1773.918107967825
 20
2043.213321588107
 30
0.0
 11
1773.918107967825
 21
2264.999683277024
 31
0.0
  0
LINE
  5
25B
330
1F
100
AcDbEntity
  8
0-4_枠
  6
Continuous
 62
    92
370
    13
100
AcDbLine
 10
1789.131586061624
 20
2027.999843494308
 30
0.0
 11
1773.918107967825
 21
2043.213321588107
 31
0.0
  0
LINE
  5
25C
330
1F
100
AcDbEntity
  8
0-4_枠
  6
Continuous
 62
    92
370
    13
100
AcDbLine
 10
1787.889105591792
 20
2024.999683277021
 30
0.0
 11
1770.918542843314
 21
2041.970246025498
 31
0.0
  0
LINE
  5
25D
330
1F
100
AcDbEntity
  8
0-4_枠
  6
Continuous
 62
    92
370
    13
100
AcDbLine
 10
1787.889105591792
 20
2024.999683277021
 30
0.0
 11
1914.918542843316
 21
2024.999683277021
 31
0.0
  0
LINE
  5
25E
330
1F
100
AcDbEntity
  8
0-4_枠
  6
Continuous
 62
    92
370
    13
100
AcDbLine
 10
1911.918542843316
 20
2114.999683277025
 30
0.0
 11
1911.918542843316
 21
2027.999843494311
 31
0.0
  0
LINE
  5
25F
330
1F
100
AcDbEntity
  8
0-4_枠
  6
Continuous
 62
    92
370
    13
100
AcDbLine
 10
1911.918542843316
 20
2114.999683277025
 30
0.0
 11
1914.918542843317
 21
2114.999683277025
 31
0.0
  0
LINE
  5
260
330
1F
100
AcDbEntity
  8
0-4_枠
  6
Continuous
 62
    92
370
    13
100
AcDbLine
 10
1789.131586061624
 20
2027.999843494308
 30
0.0
 11
1911.918542843316
 21
2027.999843494308
 31
0.0
  0
LINE
  5
261
330
1F
100
AcDbEntity
  8
0-4_枠
  6
Continuous
 62
    92
370
    13
100
AcDbLine
 10
-1895.081457156684
 20
2852.999683277019
 30
0.0
 11
-1895.081457156684
 21
2024.999683277021
 31
0.0
  0
LINE
  5
262
330
1F
100
AcDbEntity
  8
0-4_枠
  6
Continuous
 62
    92
370
    13
100
AcDbLine
 10
1914.918542843316
 20
2852.999683277019
 30
0.0
 11
1914.918542843316
 21
2024.999683277021
 31
0.0
  0
LINE
  5
263
330
1F
100
AcDbEntity
  8
0-4_枠
  6
Continuous
 62
   120
370
     5
100
AcDbLine
 10
-2602.732680186566
 20
-3087.000609939164
 30
0.0
 11
-2602.732680186566
 21
-1849.500506942337
 31
0.0
  0
LINE
  5
264
330
1F
100
AcDbEntity
  8
0-4_枠
  6
Continuous
 62
   120
370
     5
100
AcDbLine
 10
-2578.732680186567
 20
-405.0001979518578
 30
0.0
 11
-2602.732680186566
 21
-405.0001979518578
 31
0.0
  0
LINE
  5
265
330
1F
100
AcDbEntity
  8
0-4_枠
  6
Continuous
 62
   120
370
     5
100
AcDbLine
 10
-2602.732680186566
 20
-1729.500506942337
 30
0.0
 11
-2602.732680186566
 21
-405.0001979518578
 31
0.0
  0
LINE
  5
266
330
1F
100
AcDbEntity
  8
0-4_枠
  6
Continuous
 62
    92
370
    13
100
AcDbLine
 10
-2574.490039499443
 20
-549.0001979518586
 30
0.0
 11
-2170.732680186563
 21
-549.0001979518586
 31
0.0
  0
LINE
  5
267
330
1F
100
AcDbEntity
  8
0-4_枠
  6
Continuous
 62
    92
370
    13
100
AcDbLine
 10
-2573.246963936836
 20
-546.0006328273454
 30
0.0
 11
-2170.732680186563
 21
-546.0006328273454
 31
0.0
  0
LINE
  5
268
330
1F
100
AcDbEntity
  8
0-4_枠
  6
Continuous
 62
    92
370
    13
100
AcDbLine
 10
-2575.73311506205
 20
-543.5144791308251
 30
0.0
 11
-2575.73311506205
 21
-408.0001979518572
 31
0.0
  0
LINE
  5
269
330
1F
100
AcDbEntity
  8
0-4_枠
  6
Continuous
 62
    92
370
    13
100
AcDbLine
 10
-2573.246961396412
 20
-546.0006306652673
 30
0.0
 11
-2575.73311506205
 21
-543.5144791308251
 31
0.0
  0
LINE
  5
26A
330
1F
100
AcDbEntity
  8
0-4_枠
  6
Continuous
 62
    92
370
    13
100
AcDbLine
 10
-2574.490037680993
 20
-549.000194314953
 30
0.0
 11
-2578.732680186563
 21
-544.7575554462862
 31
0.0
  0
LINE
  5
26B
330
1F
100
AcDbEntity
  8
0-4_枠
  6
Continuous
 62
    92
370
    13
100
AcDbLine
 10
-2578.732680186563
 20
-544.7575554462862
 30
0.0
 11
-2578.732680186563
 21
-405.0001979518578
 31
0.0
  0
LINE
  5
26C
330
1F
100
AcDbEntity
  8
0-4_枠
  6
Continuous
 62
    92
370
    13
100
AcDbLine
 10
-2518.732680186563
 20
-408.0001979518572
 30
0.0
 11
-2575.73311506205
 21
-408.0001979518572
 31
0.0
  0
LINE
  5
26D
330
1F
100
AcDbEntity
  8
0-4_枠
  6
Continuous
 62
    92
370
    13
100
AcDbLine
 10
-2518.732680186563
 20
-405.0001979518578
 30
0.0
 11
-2518.732680186563
 21
-408.0001979518572
 31
0.0
  0
LINE
  5
26E
330
1F
100
AcDbEntity
  8
0-4_枠
  6
Continuous
 62
   120
370
     5
100
AcDbLine
 10
-1774.732680186567
 20
-3087.000609939164
 30
0.0
 11
-1774.732680186567
 21
-1849.500506942337
 31
0.0
  0
LINE
  5
26F
330
1F
100
AcDbEntity
  8
0-4_枠
  6
Continuous
 62
   120
370
     5
100
AcDbLine
 10
-1798.732680186567
 20
-405.0001979518578
 30
0.0
 11
-1774.732680186567
 21
-405.0001979518578
 31
0.0
  0
LINE
  5
270
330
1F
100
AcDbEntity
  8
0-4_枠
  6
Continuous
 62
   120
370
     5
100
AcDbLine
 10
-1774.732680186567
 20
-1729.500506942337
 30
0.0
 11
-1774.732680186567
 21
-405.0001979518578
 31
0.0
  0
LINE
  5
271
330
1F
100
AcDbEntity
  8
0-4_枠
  6
Continuous
 62
    92
370
    13
100
AcDbLine
 10
-1802.975320873682
 20
-549.0001979518586
 30
0.0
 11
-2014.732680186563
 21
-549.0001979518586
 31
0.0
  0
LINE
  5
272
330
1F
100
AcDbEntity
  8
0-4_枠
  6
Continuous
 62
    92
370
    13
100
AcDbLine
 10
-1804.218396436288
 20
-546.0006328273454
 30
0.0
 11
-2014.732680186563
 21
-546.0006328273454
 31
0.0
  0
LINE
  5
273
330
1F
100
AcDbEntity
  8
0-4_枠
  6
Continuous
 62
    92
370
    13
100
AcDbLine
 10
-1801.732840403848
 20
-543.5150767949044
 30
0.0
 11
-1801.732840403848
 21
-408.0001979518572
 31
0.0
  0
LINE
  5
274
330
1F
100
AcDbEntity
  8
0-4_枠
  6
Continuous
 62
    92
370
    13
100
AcDbLine
 10
-1804.21839643629
 20
-546.0006328273462
 30
0.0
 11
-1801.732840403848
 21
-543.5150767949044
 31
0.0
  0
LINE
  5
275
330
1F
100
AcDbEntity
  8
0-4_枠
  6
Continuous
 62
    92
370
    13
100
AcDbLine
 10
-1802.975320873682
 20
-549.0001979518577
 30
0.0
 11
-1798.732680186562
 21
-544.757557264739
 31
0.0
  0
LINE
  5
276
330
1F
100
AcDbEntity
  8
0-4_枠
  6
Continuous
 62
    92
370
    13
100
AcDbLine
 10
-1798.732680186562
 20
-544.757557264739
 30
0.0
 11
-1798.732680186562
 21
-405.0001979518578
 31
0.0
  0
LINE
  5
277
330
1F
100
AcDbEntity
  8
0-4_枠
  6
Continuous
 62
    92
370
    13
100
AcDbLine
 10
-1858.732680186562
 20
-408.0001979518572
 30
0.0
 11
-1858.732680186562
 21
-405.0001979518578
 31
0.0
  0
LINE
  5
278
330
1F
100
AcDbEntity
  8
0-4_枠
  6
Continuous
 62
    92
370
    13
100
AcDbLine
 10
-1858.732680186562
 20
-408.0001979518572
 30
0.0
 11
-1801.732840403848
 21
-408.0001979518572
 31
0.0
  0
LINE
  5
279
330
1F
100
AcDbEntity
  8
0-4_枠
  6
Continuous
 62
    92
370
    13
100
AcDbLine
 10
-2578.732680186563
 20
-405.0001979518578
 30
0.0
 11
-1798.732680186562
 21
-405.0001979518578
 31
0.0
  0
LINE
  5
27A
330
1F
100
AcDbEntity
  8
0-4_枠
  6
Continuous
 62
    92
370
    13
100
AcDbLine
 10
555.9181716835801
 20
-1117.36102578678
 30
0.0
 11
555.9181716835801
 21
-1824.041754831445
 31
0.0
  0
LINE
  5
27B
330
1F
100
AcDbEntity
  8
0-4_枠
  6
Continuous
 62
    92
370
    13
100
AcDbLine
 10
1383.918171683584
 20
-1117.36102578678
 30
0.0
 11
1383.918171683584
 21
-1824.041754831445
 31
0.0
  0
LINE
  5
27C
330
1F
100
AcDbEntity
  8
0-4_枠
  6
Continuous
 62
    92
370
    13
100
AcDbLine
 10
555.9181716835801
 20
-1824.041754831445
 30
0.0
 11
1383.918171683584
 21
-1824.041754831445
 31
0.0
  0
LWPOLYLINE
  5
27D
330
1F
100
AcDbEntity
  8
0-B_寸法
  6
Continuous
 62
     7
370
     9
100
AcDbPolyline
 90
        4
 70
     1
 43
3.0
 10
-1441.051467470608
 20
2852.999683277027
 42
0.4142135623731
 10
-1442.551467470608
 20
2854.499683277027
 42
0.4142135623731
 10
-1444.051467470608
 20
2852.999683277027
 42
0.4142135623731
 10
-1442.551467470608
 20
2851.499683277028
 42
0.4142135623731
  0
LINE
  5
27E
330
1F
100
AcDbEntity
  8
0-B_寸法
  6
Continuous
 62
   120
370
     5
100
AcDbLine
 10
-1442.551467470608
 20
2852.999683277027
 30
0.0
 11
-1649.683606294206
 21
2852.999683277027
 31
0.0
  0
LWPOLYLINE
  5
27F
330
1F
100
AcDbEntity
  8
0-B_寸法
  6
Continuous
 62
     7
370
     9
100
AcDbPolyline
 90
        4
 70
     1
 43
3.0
 10
-1441.051467470608
 20
2024.999683277028
 42
0.4142135623731
 10
-1442.551467470608
 20
2026.499683277027
 42
0.4142135623731
 10
-1444.051467470608
 20
2024.999683277028
 42
0.4142135623731
 10
-1442.551467470608
 20
2023.499683277028
 42
0.4142135623731
  0
LINE
  5
280
330
1F
100
AcDbEntity
  8
0-B_寸法
  6
Continuous
 62
   120
370
     5
100
AcDbLine
 10
-1442.551467470608
 20
2024.999683277028
 30
0.0
 11
-1649.683606294206
 21
2024.999683277028
 31
0.0
  0
LINE
  5
281
330
1F
100
AcDbEntity
  8
0-B_寸法
  6
Continuous
 62
   120
370
     5
100
AcDbLine
 10
-1442.551467470608
 20
2852.999683277027
 30
0.0
 11
-1442.551467470608
 21
2024.999683277028
 31
0.0
  0
MTEXT
  5
282
330
1F
100
AcDbEntity
  8
0-B_寸法
  6
Continuous
 62
     7
370
     0
100
AcDbMText
 10
-1457.551467470608
 20
2334.719683277027
 30
0.0
 40
91.44
 41
180.0
 46
0.0
 71
     7
 72
     1
  1
{\fＭＳ ゴシック|b0|i0|c128|p49;138}
 11
6.123031769111886E-17
 21
1.0
 31
0.0
 73
     1
 44
1.0
  0
LWPOLYLINE
  5
283
330
1F
100
AcDbEntity
  8
0-B_寸法
  6
Continuous
 62
     7
370
     9
100
AcDbPolyline
 90
        4
 70
     1
 43
3.0
 10
-2577.232680186567
 20
-857.5301876379325
 42
0.4142135623731
 10
-2578.732680186567
 20
-856.0301876379325
 42
0.4142135623731
 10
-2580.232680186567
 20
-857.5301876379325
 42
0.4142135623731
 10
-2578.732680186567
 20
-859.0301876379325
 42
0.4142135623731
  0
LINE
  5
284
330
1F
100
AcDbEntity
  8
0-B_寸法
  6
Continuous
 62
   120
370
     5
100
AcDbLine
 10
-2578.732680186567
 20
-857.5301876379325
 30
0.0
 11
-2578.732680186567
 21
-650.3980488143321
 31
0.0
  0
LWPOLYLINE
  5
285
330
1F
100
AcDbEntity
  8
0-B_寸法
  6
Continuous
 62
     7
370
     9
100
AcDbPolyline
 90
        4
 70
     1
 43
3.0
 10
-1797.232680186567
 20
-857.5301876379325
 42
0.4142135623731
 10
-1798.732680186567
 20
-856.0301876379325
 42
0.4142135623731
 10
-1800.232680186567
 20
-857.5301876379325
 42
0.4142135623731
 10
-1798.732680186567
 20
-859.0301876379325
 42
0.4142135623731
  0
LINE
  5
286
330
1F
100
AcDbEntity
  8
0-B_寸法
  6
Continuous
 62
   120
370
     5
100
AcDbLine
 10
-1798.732680186567
 20
-857.5301876379325
 30
0.0
 11
-1798.732680186567
 21
-650.3980488143321
 31
0.0
  0
LINE
  5
287
330
1F
100
AcDbEntity
  8
0-B_寸法
  6
Continuous
 62
   120
370
     5
100
AcDbLine
 10
-2578.732680186567
 20
-857.5301876379325
 30
0.0
 11
-1798.732680186567
 21
-857.5301876379325
 31
0.0
  0
MTEXT
  5
288
330
1F
100
AcDbEntity
  8
0-B_寸法
  6
Continuous
 62
     7
370
     0
100
AcDbMText
 10
-2323.732680186568
 20
-856.8101876379325
 30
0.0
 40
91.44
 41
180.0
 46
0.0
 71
     7
 72
     1
  1
{\fＭＳ ゴシック|b0|i0|c128|p49;130}
 73
     1
 44
1.0
  0
LWPOLYLINE
  5
289
330
1F
100
AcDbEntity
  8
0-0_補助線
  6
Continuous
 62
     7
370
     9
100
AcDbPolyline
 90
        4
 70
     1
 43
3.0
 10
557.4181716835801
 20
-885.0001979518578
 42
0.4142135623731
 10
555.9181716835801
 20
-883.5001979518578
 42
0.4142135623731
 10
554.4181716835801
 20
-885.0001979518578
 42
0.4142135623731
 10
555.9181716835801
 20
-886.5001979518578
 42
0.4142135623731
  0
LINE
  5
28A
330
1F
100
AcDbEntity
  8
0-0_補助線
  6
Continuous
 62
   120
370
     5
100
AcDbLine
 10
555.9181716835801
 20
-885.0001979518578
 30
0.0
 11
555.9181716835801
 21
-1028.939338593884
 31
0.0
  0
LWPOLYLINE
  5
28B
330
1F
100
AcDbEntity
  8
0-0_補助線
  6
Continuous
 62
     7
370
     9
100
AcDbPolyline
 90
        4
 70
     1
 43
3.0
 10
1385.418171683583
 20
-885.0001979518578
 42
0.4142135623731
 10
1383.918171683584
 20
-883.5001979518578
 42
0.4142135623731
 10
1382.418171683584
 20
-885.0001979518578
 42
0.4142135623731
 10
1383.918171683584
 20
-886.5001979518578
 42
0.4142135623731
  0
LINE
  5
28C
330
1F
100
AcDbEntity
  8
0-0_補助線
  6
Continuous
 62
   120
370
     5
100
AcDbLine
 10
1383.918171683584
 20
-885.0001979518578
 30
0.0
 11
1383.918171683584
 21
-1028.939338593884
 31
0.0
  0
LINE
  5
28D
330
1F
100
AcDbEntity
  8
0-0_補助線
  6
Continuous
 62
   120
370
     5
100
AcDbLine
 10
555.9181716835801
 20
-885.0001979518578
 30
0.0
 11
1383.918171683584
 21
-885.0001979518578
 31
0.0
  0
MTEXT
  5
28E
330
1F
100
AcDbEntity
  8
0-0_補助線
  6
Continuous
 62
     7
370
   211
100
AcDbMText
 10
872.4181716835818
 20
-880.4701979518578
 30
0.0
 40
99.06
 41
195.0
 46
0.0
 71
     7
 72
     1
  1
{\fＭＳ ゴシック|b0|i0|c128|p49;138}
 73
     1
 44
1.0
  0
LINE
  5
28F
330
1F
100
AcDbEntity
  8
ハッチ
  6
Continuous
 62
   120
370
     5
100
AcDbLine
 10
-1819.082384053128
 20
2850.000118152219
 30
0.0
 11
-1754.081022281193
 21
2784.997871295822
 31
0.0
  0
LINE
  5
290
330
1F
100
AcDbEntity
  8
ハッチ
  6
Continuous
 62
   120
370
     5
100
AcDbLine
 10
-1892.081457156683
 20
2040.529542281545
 30
0.0
 11
-1879.55174378103
 21
2027.999843494308
 31
0.0
  0
LINE
  5
291
330
1F
100
AcDbEntity
  8
ハッチ
  6
Continuous
 62
   120
370
     5
100
AcDbLine
 10
-1886.964352190346
 20
2850.000118152219
 30
0.0
 11
-1754.081022281193
 21
2717.115432636152
 31
0.0
  0
LINE
  5
292
330
1F
100
AcDbEntity
  8
ハッチ
  6
Continuous
 62
   120
370
     5
100
AcDbLine
 10
-1892.081457156683
 20
2787.235891569604
 30
0.0
 11
-1754.081022281193
 21
2649.233577625167
 31
0.0
  0
LINE
  5
293
330
1F
100
AcDbEntity
  8
ハッチ
  6
Continuous
 62
   120
370
     5
100
AcDbLine
 10
-1892.081457156683
 20
2108.411698109216
 30
0.0
 11
-1811.669508917681
 21
2027.999843494308
 31
0.0
  0
LINE
  5
294
330
1F
100
AcDbEntity
  8
ハッチ
  6
Continuous
 62
   120
370
     5
100
AcDbLine
 10
-1895.081457156684
 20
2179.293582788155
 30
0.0
 11
-1756.541000410464
 21
2040.753343458837
 31
0.0
  0
LINE
  5
295
330
1F
100
AcDbEntity
  8
ハッチ
  6
Continuous
 62
   120
370
     5
100
AcDbLine
 10
-2575.73311506205
 20
-516.7183082951966
 30
0.0
 11
-2464.015004718718
 21
-405.0001979518634
 31
0.0
  0
LINE
  5
296
330
1F
100
AcDbEntity
  8
ハッチ
  6
Continuous
 62
   120
370
     5
100
AcDbLine
 10
-2575.73311506205
 20
-448.8358503028872
 30
0.0
 11
-2534.89746271102
 21
-408.0001979518572
 31
0.0
  0
LINE
  5
297
330
1F
100
AcDbEntity
  8
ハッチ
  6
Continuous
 62
   120
370
     5
100
AcDbLine
 10
-1858.308401678367
 20
-546.000632827353
 30
0.0
 11
-1801.732840403848
 21
-489.4250715528332
 31
0.0
  0
LINE
  5
298
330
1F
100
AcDbEntity
  8
ハッチ
  6
Continuous
 62
   120
370
     5
100
AcDbLine
 10
-1926.190859670719
 20
-546.0006328273407
 30
0.0
 11
-1801.732840403848
 21
-421.5426135604699
 31
0.0
  0
LINE
  5
299
330
1F
100
AcDbEntity
  8
ハッチ
  6
Continuous
 62
   120
370
     5
100
AcDbLine
 10
-1994.073317663022
 20
-546.0006328273344
 30
0.0
 11
-1856.072882787544
 21
-408.0001979518572
 31
0.0
  0
LINE
  5
29A
330
1F
100
AcDbEntity
  8
ハッチ
  6
Continuous
 62
   120
370
     5
100
AcDbLine
 10
1838.91946973976
 20
2850.000118152219
 30
0.0
 11
1773.918107967825
 21
2784.997871295822
 31
0.0
  0
LINE
  5
29B
330
1F
100
AcDbEntity
  8
ハッチ
  6
Continuous
 62
   120
370
     5
100
AcDbLine
 10
1906.801437876977
 20
2850.000118152219
 30
0.0
 11
1773.918107967825
 21
2717.115432636152
 31
0.0
  0
LINE
  5
29C
330
1F
100
AcDbEntity
  8
ハッチ
  6
Continuous
 62
   120
370
     5
100
AcDbLine
 10
1911.918542843316
 20
2787.235891569605
 30
0.0
 11
1773.918107967825
 21
2649.233577625167
 31
0.0
  0
LINE
  5
29D
330
1F
100
AcDbEntity
  8
ハッチ
  6
Continuous
 62
   120
370
     5
100
AcDbLine
 10
1911.918542843316
 20
2040.529542281547
 30
0.0
 11
1899.38882946766
 21
2027.999843494308
 31
0.0
  0
LINE
  5
29E
330
1F
100
AcDbEntity
  8
ハッチ
  6
Continuous
 62
   120
370
     5
100
AcDbLine
 10
1911.918542843316
 20
2108.411698109217
 30
0.0
 11
1831.506594604312
 21
2027.999843494308
 31
0.0
  0
LINE
  5
29F
330
1F
100
AcDbEntity
  8
ハッチ
  6
Continuous
 62
   120
370
     5
100
AcDbLine
 10
1914.918542843316
 20
2179.293582788155
 30
0.0
 11
1776.378086097095
 21
2040.753343458837
 31
0.0
  0
MTEXT
  5
2A0
330
1F
100
AcDbEntity
  8
0-A_文字
  6
Continuous
 62
    92
370
    13
100
AcDbMText
 10
-5502.93853255588
 20
3758.948817819508
 30
0.0
 40
147.8972727272727
 41
3202.5
 46
0.0
 71
     7
 72
     1
  1
{\fＭＳ ゴシック|b0|i0|c128|p49;シングルドア　固定枠138巾　３方枠}
 73
     1
 44
1.0
  0
MTEXT
  5
2A1
330
1F
100
AcDbEntity
  8
F-A_文字
  6
Continuous
 62
     7
370
     0
100
AcDbMText
 10
-5087.628710189611
 20
-4045.228201384513
 30
0.0
 40
79.54346938775511
 41
2557.5
 46
0.0
 71
     7
 72
     1
  1
{\fＭＳ ゴシック|b0|i0|c128|p49;ドレタス　シングルドア　固定枠138巾　通気　３方枠}
 73
     1
 44
1.0
  0
MTEXT
  5
2A2
330
1F
100
AcDbEntity
  8
F-A_文字
  6
Continuous
 62
     7
370
     0
100
AcDbMText
 10
4889.917891251784
 20
-3945.570773120548
 30
0.0
 40
78.86699999999999
 41
517.5
 46
0.0
 71
     7
 72
     1
  1
{\fＭＳ ゴシック|b0|i0|c128|p49;2023.12.20}
 73
     1
 44
1.0
  0
MTEXT
  5
2A3
330
1F
100
AcDbEntity
  8
0-B_寸法
  6
Continuous
 62
     7
370
     0
100
AcDbMText
 10
-892.6473306132692
 20
-2132.280252311294
 30
0.0
 40
91.43999999999997
 41
660.0
 46
0.0
 71
     7
 72
     1
  1
{\fＭＳ ゴシック|b0|i0|c128|p49;枠外＝2,035}
 11
6.123031769111886E-17
 21
1.0
 31
0.0
 73
     1
 44
1.0
  0
MTEXT
  5
2A4
330
1F
100
AcDbEntity
  8
0-B_寸法
  6
Continuous
 62
     7
370
   211
100
AcDbMText
 10
-1108.732680186566
 20
-2132.280252311294
 30
0.0
 40
91.43999999999997
 41
660.0
 46
0.0
 71
     7
 72
     1
  1
{\fＭＳ ゴシック|b0|i0|c128|p49;枠内＝2,011}
 11
6.123031769111886E-17
 21
1.0
 31
0.0
 73
     1
 44
1.0
  0
MTEXT
  5
2A5
330
1F
100
AcDbEntity
  8
0-B_寸法
  6
Continuous
 62
     7
370
     0
100
AcDbMText
 10
-1316.813500831244
 20
-2132.280252311294
 30
0.0
 40
91.43999999999997
 41
660.0
 46
0.0
 71
     7
 72
     1
  1
{\fＭＳ ゴシック|b0|i0|c128|p49;ＤＨ＝1,995}
 11
6.123031769111886E-17
 21
1.0
 31
0.0
 73
     1
 44
1.0
  0
ENDSEC
  0
SECTION
  2
OBJECTS
  0
DICTIONARY
  5
C
330
0
100
AcDbDictionary
281
     1
  3
ACAD_GROUP
350
D
  3
ACAD_LAYOUT
350
1A
  3
ACAD_MATERIAL
350
3B
  3
ACAD_MLEADERSTYLE
350
32D
  3
ACAD_MLINESTYLE
350
17
  3
ACAD_PLOTSETTINGS
350
19
  3
ACAD_PLOTSTYLENAME
350
E
  3
ACAD_TABLESTYLE
350
32C
  3
ACAD_VISUALSTYLE
350
2A
  0
DICTIONARY
  5
D
102
{ACAD_REACTORS
330
C
102
}
330
C
100
AcDbDictionary
281
     1
  0
DICTIONARY
  5
1A
102
{ACAD_REACTORS
330
C
102
}
330
C
100
AcDbDictionary
281
     1
  3
Layout1
350
1E
  3
Layout2
350
26
  3
Model
350
22
  0
DICTIONARY
  5
3B
102
{ACAD_REACTORS
330
C
102
}
330
C
100
AcDbDictionary
281
     1
  3
ByBlock
350
3D
  3
ByLayer
350
3C
  3
Global
350
3E
  0
DICTIONARY
  5
32D
102
{ACAD_REACTORS
330
C
102
}
330
C
100
AcDbDictionary
281
     1
  0
DICTIONARY
  5
17
102
{ACAD_REACTORS
330
C
102
}
330
C
100
AcDbDictionary
281
     1
  3
Standard
350
18
  0
DICTIONARY
  5
19
102
{ACAD_REACTORS
330
C
102
}
330
C
100
AcDbDictionary
281
     1
  0
ACDBDICTIONARYWDFLT
  5
E
102
{ACAD_REACTORS
330
C
102
}
330
C
100
AcDbDictionary
281
     1
  3
Normal
350
F
100
AcDbDictionaryWithDefault
340
F
  0
DICTIONARY
  5
32C
102
{ACAD_REACTORS
330
C
102
}
330
C
100
AcDbDictionary
281
     1
  0
DICTIONARY
  5
2A
102
{ACAD_REACTORS
330
C
102
}
330
C
100
AcDbDictionary
281
     1
  3
2dWireframe
350
2F
  3
3D Hidden
350
31
  3
3dWireframe
350
30
  3
Basic
350
32
  3
Brighten
350
36
  3
ColorChange
350
3A
  3
Conceptual
350
34
  3
Dim
350
35
  3
Facepattern
350
39
  3
Flat
350
2B
  3
FlatWithEdges
350
2C
  3
Gouraud
350
2D
  3
GouraudWithEdges
350
2E
  3
Linepattern
350
38
  3
Realistic
350
33
  3
Thicken
350
37
  0
LAYOUT
  5
1E
102
{ACAD_REACTORS
330
1A
102
}
330
1A
100
AcDbPlotSettings
  1

  2
none_device
  4

  6

 40
0.0
 41
0.0
 42
0.0
 43
0.0
 44
0.0
 45
0.0
 46
0.0
 47
0.0
 48
0.0
 49
0.0
140
0.0
141
0.0
142
1.0
143
1.0
 70
   688
 72
     0
 73
     0
 74
     5
  7

 75
    16
 76
     0
 77
     5
 78
   300
147
1.0
148
0.0
149
0.0
100
AcDbLayout
  1
Layout1
 70
     1
 71
     1
 10
0.0
 20
0.0
 11
420.0
 21
297.0
 12
0.0
 22
0.0
 32
0.0
 14
1.000000000000000E+20
 24
1.000000000000000E+20
 34
1.000000000000000E+20
 15
-1.000000000000000E+20
 25
-1.000000000000000E+20
 35
-1.000000000000000E+20
146
0.0
 13
0.0
 23
0.0
 33
0.0
 16
1.0
 26
0.0
 36
0.0
 17
0.0
 27
1.0
 37
0.0
 76
     0
330
1B
  0
LAYOUT
  5
26
102
{ACAD_REACTORS
330
1A
102
}
330
1A
100
AcDbPlotSettings
  1

  2
none_device
  4

  6

 40
0.0
 41
0.0
 42
0.0
 43
0.0
 44
0.0
 45
0.0
 46
0.0
 47
0.0
 48
0.0
 49
0.0
140
0.0
141
0.0
142
1.0
143
1.0
 70
   688
 72
     0
 73
     0
 74
     5
  7

 75
    16
 76
     0
 77
     5
 78
   300
147
1.0
148
0.0
149
0.0
100
AcDbLayout
  1
Layout2
 70
     1
 71
     2
 10
0.0
 20
0.0
 11
0.0
 21
0.0
 12
0.0
 22
0.0
 32
0.0
 14
0.0
 24
0.0
 34
0.0
 15
0.0
 25
0.0
 35
0.0
146
0.0
 13
0.0
 23
0.0
 33
0.0
 16
1.0
 26
0.0
 36
0.0
 17
0.0
 27
1.0
 37
0.0
 76
     0
330
23
  0
LAYOUT
  5
22
102
{ACAD_REACTORS
330
1A
102
}
330
1A
100
AcDbPlotSettings
  1

  2
none_device
  4

  6

 40
0.0
 41
0.0
 42
0.0
 43
0.0
 44
0.0
 45
0.0
 46
0.0
 47
0.0
 48
0.0
 49
0.0
140
0.0
141
0.0
142
1.0
143
1.0
 70
  1712
 72
     0
 73
     0
 74
     0
  7

 75
     0
 76
     0
 77
     5
 78
   300
147
1.0
148
0.0
149
0.0
100
AcDbLayout
  1
Model
 70
     1
 71
     0
 10
-8910.0
 20
-6300.0
 11
8910.0
 21
6300.0
 12
0.0
 22
0.0
 32
0.0
 14
-8910.0
 24
-6300.0
 34
0.0
 15
8910.0
 25
6300.0
 35
0.0
146
0.0
 13
0.0
 23
0.0
 33
0.0
 16
1.0
 26
0.0
 36
0.0
 17
0.0
 27
1.0
 37
0.0
 76
     0
330
1F
331
29
  0
MATERIAL
  5
3D
102
{ACAD_REACTORS
330
3B
102
}
330
3B
100
AcDbMaterial
  1
ByBlock
 72
     1
 94
      127
  0
MATERIAL
  5
3C
102
{ACAD_REACTORS
330
3B
102
}
330
3B
100
AcDbMaterial
  1
ByLayer
 72
     1
 94
      127
  0
MATERIAL
  5
3E
102
{ACAD_REACTORS
330
3B
102
}
330
3B
100
AcDbMaterial
  1
Global
 72
     1
 94
      127
  0
MLINESTYLE
  5
18
102
{ACAD_REACTORS
330
17
102
}
330
17
100
AcDbMlineStyle
  2
Standard
 70
     0
  3

 62
   256
 51
90.0
 52
90.0
 71
     2
 49
0.5
 62
   256
  6
BYLAYER
 49
-0.5
 62
   256
  6
BYLAYER
  0
ACDBPLACEHOLDER
  5
F
102
{ACAD_REACTORS
330
E
102
}
330
E
  0
VISUALSTYLE
  5
2F
102
{ACAD_REACTORS
330
2A
102
}
330
2A
100
AcDbVisualStyle
  2
2dWireframe
 70
     4
177
     2
291
     0
 71
     0
176
     1
 72
     2
176
     1
 73
     0
176
     1
 90
        0
176
     1
 40
-0.6
176
     1
 41
-30.0
176
     1
 62
     5
 63
     7
421
 16777215
176
     1
 74
     1
176
     1
 91
        4
176
     1
 64
     7
176
     1
 65
   257
176
     1
 75
     1
176
     1
175
     1
176
     1
 42
1.0
176
     1
 92
        0
176
     1
 66
   257
176
     1
 43
1.0
176
     1
 76
     1
176
     1
 77
     6
176
     1
 78
     2
176
     1
 67
     7
176
     1
 79
     5
176
     1
170
     0
176
     1
171
     0
176
     1
290
     0
176
     1
 93
        1
176
     1
 44
0.0
176
     1
173
     0
176
     1
  0
VISUALSTYLE
  5
31
102
{ACAD_REACTORS
330
2A
102
}
330
2A
100
AcDbVisualStyle
  2
3D Hidden
 70
     6
177
     2
291
     0
 71
     1
176
     1
 72
     2
176
     1
 73
     2
176
     1
 90
        0
176
     1
 40
-0.6
176
     1
 41
-30.0
176
     1
 62
     5
 63
     7
421
 16777215
176
     1
 74
     2
176
     1
 91
        2
176
     1
 64
     7
176
     1
 65
   257
176
     1
 75
     2
176
     1
175
     1
176
     1
 42
40.0
176
     1
 92
        0
176
     1
 66
   257
176
     1
 43
1.0
176
     1
 76
     1
176
     1
 77
     6
176
     1
 78
     2
176
     1
 67
     7
176
     1
 79
     3
176
     1
170
     0
176
     1
171
     0
176
     1
290
     0
176
     1
 93
        1
176
     1
 44
0.0
176
     1
173
     0
176
     1
  0
VISUALSTYLE
  5
30
102
{ACAD_REACTORS
330
2A
102
}
330
2A
100
AcDbVisualStyle
  2
3dWireframe
 70
     5
177
     2
291
     0
 71
     0
176
     1
 72
     2
176
     1
 73
     0
176
     1
 90
        0
176
     1
 40
-0.6
176
     1
 41
-30.0
176
     1
 62
     5
 63
     7
421
 16777215
176
     1
 74
     1
176
     1
 91
        4
176
     1
 64
     7
176
     1
 65
   257
176
     1
 75
     1
176
     1
175
     1
176
     1
 42
1.0
176
     1
 92
        0
176
     1
 66
   257
176
     1
 43
1.0
176
     1
 76
     1
176
     1
 77
     6
176
     1
 78
     2
176
     1
 67
     7
176
     1
 79
     5
176
     1
170
     0
176
     1
171
     0
176
     1
290
     0
176
     1
 93
        1
176
     1
 44
0.0
176
     1
173
     0
176
     1
  0
VISUALSTYLE
  5
32
102
{ACAD_REACTORS
330
2A
102
}
330
2A
100
AcDbVisualStyle
  2
Basic
 70
     7
177
     2
291
     1
 71
     1
176
     1
 72
     0
176
     1
 73
     1
176
     1
 90
        0
176
     1
 40
-0.6
176
     1
 41
-30.0
176
     1
 62
     5
 63
     7
421
 16777215
176
     1
 74
     0
176
     1
 91
        4
176
     1
 64
     7
176
     1
 65
   257
176
     1
 75
     1
176
     1
175
     1
176
     1
 42
1.0
176
     1
 92
        8
176
     1
 66
     7
176
     1
 43
1.0
176
     1
 76
     1
176
     1
 77
     6
176
     1
 78
     2
176
     1
 67
     7
176
     1
 79
     5
176
     1
170
     0
176
     1
171
     0
176
     1
290
     0
176
     1
 93
        1
176
     1
 44
0.0
176
     1
173
     0
176
     1
  0
VISUALSTYLE
  5
36
102
{ACAD_REACTORS
330
2A
102
}
330
2A
100
AcDbVisualStyle
  2
Brighten
 70
    12
177
     2
291
     1
 71
     2
176
     1
 72
     2
176
     1
 73
     0
176
     1
 90
        0
176
     1
 40
-0.6
176
     1
 41
-30.0
176
     1
 62
     5
 63
     7
421
 16777215
176
     1
 74
     1
176
     1
 91
        4
176
     1
 64
     7
176
     1
 65
   257
176
     1
 75
     1
176
     1
175
     1
176
     1
 42
1.0
176
     1
 92
        8
176
     1
 66
     7
176
     1
 43
1.0
176
     1
 76
     1
176
     1
 77
     6
176
     1
 78
     2
176
     1
 67
     7
176
     1
 79
     5
176
     1
170
     0
176
     1
171
     0
176
     1
290
     0
176
     1
 93
        1
176
     1
 44
50.0
176
     1
173
     0
176
     1
  0
VISUALSTYLE
  5
3A
102
{ACAD_REACTORS
330
2A
102
}
330
2A
100
AcDbVisualStyle
  2
ColorChange
 70
    16
177
     2
291
     1
 71
     2
176
     1
 72
     2
176
     1
 73
     3
176
     1
 90
        0
176
     1
 40
-0.6
176
     1
 41
-30.0
176
     1
 62
     5
 63
     8
421
  8421504
176
     1
 74
     1
176
     1
 91
        4
176
     1
 64
     7
176
     1
 65
   257
176
     1
 75
     1
176
     1
175
     1
176
     1
 42
1.0
176
     1
 92
        8
176
     1
 66
     8
424
  8421504
176
     1
 43
1.0
176
     1
 76
     1
176
     1
 77
     6
176
     1
 78
     2
176
     1
 67
     7
176
     1
 79
     5
176
     1
170
     0
176
     1
171
     0
176
     1
290
     0
176
     1
 93
        1
176
     1
 44
0.0
176
     1
173
     0
176
     1
  0
VISUALSTYLE
  5
34
102
{ACAD_REACTORS
330
2A
102
}
330
2A
100
AcDbVisualStyle
  2
Conceptual
 70
     9
177
     2
291
     0
 71
     3
176
     1
 72
     2
176
     1
 73
     0
176
     1
 90
        0
176
     1
 40
-0.6
176
     1
 41
-30.0
176
     1
 62
     5
 63
     7
421
 16777215
176
     1
 74
     2
176
     1
 91
        2
176
     1
 64
     7
176
     1
 65
   257
176
     1
 75
     1
176
     1
175
     1
176
     1
 42
40.0
176
     1
 92
        8
176
     1
 66
     7
176
     1
 43
1.0
176
     1
 76
     1
176
     1
 77
     6
176
     1
 78
     2
176
     1
 67
     7
176
     1
 79
     3
176
     1
170
     0
176
     1
171
     0
176
     1
290
     0
176
     1
 93
        1
176
     1
 44
0.0
176
     1
173
     0
176
     1
  0
VISUALSTYLE
  5
35
102
{ACAD_REACTORS
330
2A
102
}
330
2A
100
AcDbVisualStyle
  2
Dim
 70
    11
177
     2
291
     1
 71
     2
176
     1
 72
     2
176
     1
 73
     0
176
     1
 90
        0
176
     1
 40
-0.6
176
     1
 41
-30.0
176
     1
 62
     5
 63
     7
421
 16777215
176
     1
 74
     1
176
     1
 91
        4
176
     1
 64
     7
176
     1
 65
   257
176
     1
 75
     1
176
     1
175
     1
176
     1
 42
1.0
176
     1
 92
        8
176
     1
 66
     7
176
     1
 43
1.0
176
     1
 76
     1
176
     1
 77
     6
176
     1
 78
     2
176
     1
 67
     7
176
     1
 79
     5
176
     1
170
     0
176
     1
171
     0
176
     1
290
     0
176
     1
 93
        1
176
     1
 44
-50.0
176
     1
173
     0
176
     1
  0
VISUALSTYLE
  5
39
102
{ACAD_REACTORS
330
2A
102
}
330
2A
100
AcDbVisualStyle
  2
Facepattern
 70
    15
177
     2
291
     1
 71
     2
176
     1
 72
     2
176
     1
 73
     0
176
     1
 90
        0
176
     1
 40
-0.6
176
     1
 41
-30.0
176
     1
 62
     5
 63
     7
421
 16777215
176
     1
 74
     1
176
     1
 91
        4
176
     1
 64
     7
176
     1
 65
   257
176
     1
 75
     1
176
     1
175
     1
176
     1
 42
1.0
176
     1
 92
        8
176
     1
 66
     7
176
     1
 43
1.0
176
     1
 76
     1
176
     1
 77
     6
176
     1
 78
     2
176
     1
 67
     7
176
     1
 79
     5
176
     1
170
     0
176
     1
171
     0
176
     1
290
     0
176
     1
 93
        1
176
     1
 44
0.0
176
     1
173
     0
176
     1
  0
VISUALSTYLE
  5
2B
102
{ACAD_REACTORS
330
2A
102
}
330
2A
100
AcDbVisualStyle
  2
Flat
 70
     0
177
     2
291
     1
 71
     2
176
     1
 72
     1
176
     1
 73
     1
176
     1
 90
        2
176
     1
 40
-0.6
176
     1
 41
30.0
176
     1
 62
     5
 63
     7
421
 16777215
176
     1
 74
     0
176
     1
 91
        4
176
     1
 64
     7
176
     1
 65
   257
176
     1
 75
     1
176
     1
175
     1
176
     1
 42
1.0
176
     1
 92
        8
176
     1
 66
     7
176
     1
 43
1.0
176
     1
 76
     1
176
     1
 77
     6
176
     1
 78
     2
176
     1
 67
     7
176
     1
 79
     5
176
     1
170
     0
176
     1
171
     0
176
     1
290
     0
176
     1
 93
       13
176
     1
 44
0.0
176
     1
173
     0
176
     1
  0
VISUALSTYLE
  5
2C
102
{ACAD_REACTORS
330
2A
102
}
330
2A
100
AcDbVisualStyle
  2
FlatWithEdges
 70
     1
177
     2
291
     1
 71
     2
176
     1
 72
     1
176
     1
 73
     1
176
     1
 90
        2
176
     1
 40
-0.6
176
     1
 41
30.0
176
     1
 62
     5
 63
     7
421
 16777215
176
     1
 74
     1
176
     1
 91
        4
176
     1
 64
     7
176
     1
 65
   257
176
     1
 75
     1
176
     1
175
     1
176
     1
 42
1.0
176
     1
 92
        0
176
     1
 66
   257
176
     1
 43
1.0
176
     1
 76
     1
176
     1
 77
     6
176
     1
 78
     2
176
     1
 67
     7
176
     1
 79
     5
176
     1
170
     0
176
     1
171
     0
176
     1
290
     0
176
     1
 93
       13
176
     1
 44
0.0
176
     1
173
     0
176
     1
  0
VISUALSTYLE
  5
2D
102
{ACAD_REACTORS
330
2A
102
}
330
2A
100
AcDbVisualStyle
  2
Gouraud
 70
     2
177
     2
291
     1
 71
     2
176
     1
 72
     2
176
     1
 73
     1
176
     1
 90
        2
176
     1
 40
-0.6
176
     1
 41
30.0
176
     1
 62
     5
 63
     7
421
 16777215
176
     1
 74
     0
176
     1
 91
        4
176
     1
 64
     7
176
     1
 65
   257
176
     1
 75
     1
176
     1
175
     1
176
     1
 42
1.0
176
     1
 92
        0
176
     1
 66
     7
176
     1
 43
1.0
176
     1
 76
     1
176
     1
 77
     6
176
     1
 78
     2
176
     1
 67
     7
176
     1
 79
     5
176
     1
170
     0
176
     1
171
     0
176
     1
290
     0
176
     1
 93
       13
176
     1
 44
0.0
176
     1
173
     0
176
     1
  0
VISUALSTYLE
  5
2E
102
{ACAD_REACTORS
330
2A
102
}
330
2A
100
AcDbVisualStyle
  2
GouraudWithEdges
 70
     3
177
     2
291
     1
 71
     2
176
     1
 72
     2
176
     1
 73
     1
176
     1
 90
        2
176
     1
 40
-0.6
176
     1
 41
30.0
176
     1
 62
     5
 63
     7
421
 16777215
176
     1
 74
     1
176
     1
 91
        4
176
     1
 64
     7
176
     1
 65
   257
176
     1
 75
     1
176
     1
175
     1
176
     1
 42
1.0
176
     1
 92
        0
176
     1
 66
   257
176
     1
 43
1.0
176
     1
 76
     1
176
     1
 77
     6
176
     1
 78
     2
176
     1
 67
     7
176
     1
 79
     5
176
     1
170
     0
176
     1
171
     0
176
     1
290
     0
176
     1
 93
       13
176
     1
 44
0.0
176
     1
173
     0
176
     1
  0
VISUALSTYLE
  5
38
102
{ACAD_REACTORS
330
2A
102
}
330
2A
100
AcDbVisualStyle
  2
Linepattern
 70
    14
177
     2
291
     1
 71
     2
176
     1
 72
     2
176
     1
 73
     0
176
     1
 90
        0
176
     1
 40
-0.6
176
     1
 41
-30.0
176
     1
 62
     5
 63
     7
421
 16777215
176
     1
 74
     1
176
     1
 91
        4
176
     1
 64
     7
176
     1
 65
   257
176
     1
 75
     7
176
     1
175
     7
176
     1
 42
1.0
176
     1
 92
        8
176
     1
 66
     7
176
     1
 43
1.0
176
     1
 76
     1
176
     1
 77
     6
176
     1
 78
     2
176
     1
 67
     7
176
     1
 79
     5
176
     1
170
     0
176
     1
171
     0
176
     1
290
     0
176
     1
 93
        1
176
     1
 44
0.0
176
     1
173
     0
176
     1
  0
VISUALSTYLE
  5
33
102
{ACAD_REACTORS
330
2A
102
}
330
2A
100
AcDbVisualStyle
  2
Realistic
 70
     8
177
     2
291
     0
 71
     2
176
     1
 72
     2
176
     1
 73
     0
176
     1
 90
        0
176
     1
 40
-0.6
176
     1
 41
-30.0
176
     1
 62
     5
 63
     7
421
 16777215
176
     1
 74
     1
176
     1
 91
        0
176
     1
 64
     7
176
     1
 65
   257
176
     1
 75
     1
176
     1
175
     1
176
     1
 42
1.0
176
     1
 92
        8
176
     1
 66
     8
424
  7895160
176
     1
 43
1.0
176
     1
 76
     1
176
     1
 77
     6
176
     1
 78
     2
176
     1
 67
     7
176
     1
 79
     5
176
     1
170
     0
176
     1
171
     0
176
     1
290
     0
176
     1
 93
       13
176
     1
 44
0.0
176
     1
173
     0
176
     1
  0
VISUALSTYLE
  5
37
102
{ACAD_REACTORS
330
2A
102
}
330
2A
100
AcDbVisualStyle
  2
Thicken
 70
    13
177
     2
291
     1
 71
     2
176
     1
 72
     2
176
     1
 73
     0
176
     1
 90
        0
176
     1
 40
-0.6
176
     1
 41
-30.0
176
     1
 62
     5
 63
     7
421
 16777215
176
     1
 74
     1
176
     1
 91
        4
176
     1
 64
     7
176
     1
 65
   257
176
     1
 75
     1
176
     1
175
     1
176
     1
 42
1.0
176
     1
 92
       12
176
     1
 66
     7
176
     1
 43
1.0
176
     1
 76
     1
176
     1
 77
     6
176
     1
 78
     2
176
     1
 67
     7
176
     1
 79
     5
176
     1
170
     0
176
     1
171
     0
176
     1
290
     0
176
     1
 93
        1
176
     1
 44
0.0
176
     1
173
     0
176
     1
  0
ENDSEC
  0
EOF
