  0
SECTION
  2
HEADER
  9
$ACADVER
  1
AC1024
  9
$ACADMAINTVER
 70
     6
  9
$DWGCODEPAGE
  3
ANSI_932
  9
$INSBASE
 10
0.0
 20
0.0
 30
0.0
  9
$EXTMIN
 10
-6300.0
 20
-4455.0
 30
0.0
  9
$EXTMAX
 10
6300.0
 20
4455.0
 30
0.0
  9
$LIMMIN
 10
-6300.0
 20
-4455.0
  9
$LIMMAX
 10
6300.0
 20
4455.0
  9
$ORTHOMODE
 70
     0
  9
$REGENMODE
 70
     1
  9
$FILLMODE
 70
     1
  9
$QTEXTMODE
 70
     0
  9
$MIRRTEXT
 70
     1
  9
$LTSCALE
 40
30.0
  9
$ATTMODE
 70
     1
  9
$TEXTSIZE
 40
2.5
  9
$TRACEWID
 40
1.0
  9
$TEXTSTYLE
  7
Standard
  9
$CLAYER
  8
0
  9
$CELTYPE
  6
ByLayer
  9
$CECOLOR
 62
   256
  9
$CELTSCALE
 40
1.0
  9
$DISPSILH
 70
     0
  9
$DIMSCALE
 40
1.0
  9
$DIMASZ
 40
2.5
  9
$DIMEXO
 40
0.625
  9
$DIMDLI
 40
3.75
  9
$DIMRND
 40
0.0
  9
$DIMDLE
 40
0.0
  9
$DIMEXE
 40
1.25
  9
$DIMTP
 40
0.0
  9
$DIMTM
 40
0.0
  9
$DIMTXT
 40
2.5
  9
$DIMCEN
 40
2.5
  9
$DIMTSZ
 40
0.0
  9
$DIMTOL
 70
     0
  9
$DIMLIM
 70
     0
  9
$DIMTIH
 70
     0
  9
$DIMTOH
 70
     0
  9
$DIMSE1
 70
     0
  9
$DIMSE2
 70
     0
  9
$DIMTAD
 70
     1
  9
$DIMZIN
 70
     8
  9
$DIMBLK
  1

  9
$DIMASO
 70
     1
  9
$DIMSHO
 70
     1
  9
$DIMPOST
  1

  9
$DIMAPOST
  1

  9
$DIMALT
 70
     0
  9
$DIMALTD
 70
     3
  9
$DIMALTF
 40
0.03937007874016
  9
$DIMLFAC
 40
1.0
  9
$DIMTOFL
 70
     1
  9
$DIMTVP
 40
0.0
  9
$DIMTIX
 70
     0
  9
$DIMSOXD
 70
     0
  9
$DIMSAH
 70
     0
  9
$DIMBLK1
  1

  9
$DIMBLK2
  1

  9
$DIMSTYLE
  2
ISO-25
  9
$DIMCLRD
 70
     0
  9
$DIMCLRE
 70
     0
  9
$DIMCLRT
 70
     0
  9
$DIMTFAC
 40
1.0
  9
$DIMGAP
 40
0.625
  9
$DIMJUST
 70
     0
  9
$DIMSD1
 70
     0
  9
$DIMSD2
 70
     0
  9
$DIMTOLJ
 70
     0
  9
$DIMTZIN
 70
     8
  9
$DIMALTZ
 70
     0
  9
$DIMALTTZ
 70
     0
  9
$DIMUPT
 70
     0
  9
$DIMDEC
 70
     2
  9
$DIMTDEC
 70
     2
  9
$DIMALTU
 70
     2
  9
$DIMALTTD
 70
     3
  9
$DIMTXSTY
  7
Standard
  9
$DIMAUNIT
 70
     0
  9
$DIMADEC
 70
     0
  9
$DIMALTRND
 40
0.0
  9
$DIMAZIN
 70
     0
  9
$DIMDSEP
 70
    44
  9
$DIMATFIT
 70
     3
  9
$DIMFRAC
 70
     0
  9
$DIMLDRBLK
  1

  9
$DIMLUNIT
 70
     2
  9
$DIMLWD
 70
    -2
  9
$DIMLWE
 70
    -2
  9
$DIMTMOVE
 70
     0
  9
$DIMFXL
 40
1.0
  9
$DIMFXLON
 70
     0
  9
$DIMJOGANG
 40
0.7853981633974483
  9
$DIMTFILL
 70
     0
  9
$DIMTFILLCLR
 70
     0
  9
$DIMARCSYM
 70
     0
  9
$DIMLTYPE
  6

  9
$DIMLTEX1
  6

  9
$DIMLTEX2
  6

  9
$DIMTXTDIRECTION
 70
     0
  9
$LUNITS
 70
     2
  9
$LUPREC
 70
     4
  9
$SKETCHINC
 40
1.0
  9
$FILLETRAD
 40
10.0
  9
$AUNITS
 70
     0
  9
$AUPREC
 70
     0
  9
$MENU
  1
.
  9
$ELEVATION
 40
0.0
  9
$PELEVATION
 40
0.0
  9
$THICKNESS
 40
0.0
  9
$LIMCHECK
 70
     0
  9
$CHAMFERA
 40
10.0
  9
$CHAMFERB
 40
10.0
  9
$CHAMFERC
 40
20.0
  9
$CHAMFERD
 40
0.0
  9
$SKPOLY
 70
     0
  9
$TDCREATE
 40
2460327.690722512
  9
$TDUCREATE
 40
2460327.315722512
  9
$TDUPDATE
 40
2460327.690722523
  9
$TDUUPDATE
 40
2460327.315722523
  9
$TDINDWG
 40
0.0000000116
  9
$TDUSRTIMER
 40
0.0000000116
  9
$USRTIMER
 70
     1
  9
$ANGBASE
 50
0.0
  9
$ANGDIR
 70
     0
  9
$PDMODE
 70
     0
  9
$PDSIZE
 40
0.0
  9
$PLINEWID
 40
0.0
  9
$SPLFRAME
 70
     0
  9
$SPLINETYPE
 70
     6
  9
$SPLINESEGS
 70
     8
  9
$HANDSEED
  5
4DA
  9
$SURFTAB1
 70
     6
  9
$SURFTAB2
 70
     6
  9
$SURFTYPE
 70
     6
  9
$SURFU
 70
     6
  9
$SURFV
 70
     6
  9
$UCSBASE
  2

  9
$UCSNAME
  2

  9
$UCSORG
 10
0.0
 20
0.0
 30
0.0
  9
$UCSXDIR
 10
1.0
 20
0.0
 30
0.0
  9
$UCSYDIR
 10
0.0
 20
1.0
 30
0.0
  9
$UCSORTHOREF
  2

  9
$UCSORTHOVIEW
 70
     0
  9
$UCSORGTOP
 10
0.0
 20
0.0
 30
0.0
  9
$UCSORGBOTTOM
 10
0.0
 20
0.0
 30
0.0
  9
$UCSORGLEFT
 10
0.0
 20
0.0
 30
0.0
  9
$UCSORGRIGHT
 10
0.0
 20
0.0
 30
0.0
  9
$UCSORGFRONT
 10
0.0
 20
0.0
 30
0.0
  9
$UCSORGBACK
 10
0.0
 20
0.0
 30
0.0
  9
$PUCSBASE
  2

  9
$PUCSNAME
  2

  9
$PUCSORG
 10
0.0
 20
0.0
 30
0.0
  9
$PUCSXDIR
 10
1.0
 20
0.0
 30
0.0
  9
$PUCSYDIR
 10
0.0
 20
1.0
 30
0.0
  9
$PUCSORTHOREF
  2

  9
$PUCSORTHOVIEW
 70
     0
  9
$PUCSORGTOP
 10
0.0
 20
0.0
 30
0.0
  9
$PUCSORGBOTTOM
 10
0.0
 20
0.0
 30
0.0
  9
$PUCSORGLEFT
 10
0.0
 20
0.0
 30
0.0
  9
$PUCSORGRIGHT
 10
0.0
 20
0.0
 30
0.0
  9
$PUCSORGFRONT
 10
0.0
 20
0.0
 30
0.0
  9
$PUCSORGBACK
 10
0.0
 20
0.0
 30
0.0
  9
$USERI1
 70
     0
  9
$USERI2
 70
     0
  9
$USERI3
 70
     0
  9
$USERI4
 70
     0
  9
$USERI5
 70
     0
  9
$USERR1
 40
0.0
  9
$USERR2
 40
0.0
  9
$USERR3
 40
0.0
  9
$USERR4
 40
0.0
  9
$USERR5
 40
0.0
  9
$WORLDVIEW
 70
     1
  9
$SHADEDGE
 70
     3
  9
$SHADEDIF
 70
    70
  9
$TILEMODE
 70
     1
  9
$MAXACTVP
 70
    64
  9
$PINSBASE
 10
0.0
 20
0.0
 30
0.0
  9
$PLIMCHECK
 70
     0
  9
$PEXTMIN
 10
1.000000000000000E+20
 20
1.000000000000000E+20
 30
1.000000000000000E+20
  9
$PEXTMAX
 10
-1.000000000000000E+20
 20
-1.000000000000000E+20
 30
-1.000000000000000E+20
  9
$PLIMMIN
 10
0.0
 20
0.0
  9
$PLIMMAX
 10
420.0
 20
297.0
  9
$UNITMODE
 70
     0
  9
$VISRETAIN
 70
     1
  9
$PLINEGEN
 70
     0
  9
$PSLTSCALE
 70
     1
  9
$TREEDEPTH
 70
  3020
  9
$CMLSTYLE
  2
Standard
  9
$CMLJUST
 70
     0
  9
$CMLSCALE
 40
20.0
  9
$PROXYGRAPHICS
 70
     1
  9
$MEASUREMENT
 70
     1
  9
$CELWEIGHT
370
    -1
  9
$ENDCAPS
280
     0
  9
$JOINSTYLE
280
     0
  9
$LWDISPLAY
290
     0
  9
$INSUNITS
 70
     4
  9
$HYPERLINKBASE
  1

  9
$STYLESHEET
  1

  9
$XEDIT
290
     1
  9
$CEPSNTYPE
380
     0
  9
$PSTYLEMODE
290
     1
  9
$FINGERPRINTGUID
  2
{D2E5F358-E2DD-4B5D-817A-53A1D928D8EC}
  9
$VERSIONGUID
  2
{FAEB1C32-E019-11D5-929B-00C0DF256EC4}
  9
$EXTNAMES
290
     1
  9
$PSVPSCALE
 40
0.0
  9
$OLESTARTUP
290
     0
  9
$SORTENTS
280
   127
  9
$INDEXCTL
280
     0
  9
$HIDETEXT
280
     1
  9
$XCLIPFRAME
280
     2
  9
$HALOGAP
280
     0
  9
$OBSCOLOR
 70
   257
  9
$OBSLTYPE
280
     0
  9
$INTERSECTIONDISPLAY
280
     0
  9
$INTERSECTIONCOLOR
 70
   257
  9
$DIMASSOC
280
     2
  9
$PROJECTNAME
  1

  9
$CAMERADISPLAY
290
     0
  9
$LENSLENGTH
 40
50.0
  9
$CAMERAHEIGHT
 40
0.0
  9
$STEPSPERSEC
 40
2.0
  9
$STEPSIZE
 40
6.0
  9
$3DDWFPREC
 40
2.0
  9
$PSOLWIDTH
 40
5.0
  9
$PSOLHEIGHT
 40
80.0
  9
$LOFTANG1
 40
1.570796326794897
  9
$LOFTANG2
 40
1.570796326794897
  9
$LOFTMAG1
 40
0.0
  9
$LOFTMAG2
 40
0.0
  9
$LOFTPARAM
 70
     7
  9
$LOFTNORMALS
280
     1
  9
$LATITUDE
 40
37.795
  9
$LONGITUDE
 40
-122.394
  9
$NORTHDIRECTION
 40
0.0
  9
$TIMEZONE
 70
 -8000
  9
$LIGHTGLYPHDISPLAY
280
     1
  9
$TILEMODELIGHTSYNCH
280
     1
  9
$SOLIDHIST
280
     1
  9
$SHOWHIST
280
     1
  9
$DWFFRAME
280
     2
  9
$DGNFRAME
280
     2
  9
$REALWORLDSCALE
290
     1
  9
$INTERFERECOLOR
 62
   256
  9
$CSHADOW
280
     0
  9
$SHADOWPLANELOCATION
 40
0.0
  0
ENDSEC
  0
SECTION
  2
CLASSES
  0
CLASS
  1
ACDBDICTIONARYWDFLT
  2
AcDbDictionaryWithDefault
  3
ObjectDBX Classes
 90
        0
 91
        4
280
     0
281
     0
  0
CLASS
  1
VISUALSTYLE
  2
AcDbVisualStyle
  3
ObjectDBX Classes
 90
     4095
 91
        4
280
     0
281
     0
  0
CLASS
  1
MATERIAL
  2
AcDbMaterial
  3
ObjectDBX Classes
 90
     1153
 91
        4
280
     0
281
     0
  0
ENDSEC
  0
SECTION
  2
TABLES
  0
TABLE
  2
VPORT
  5
8
330
0
100
AcDbSymbolTable
 70
     1
  0
VPORT
  5
29
330
8
100
AcDbSymbolTableRecord
100
AcDbViewportTableRecord
  2
*Active
 70
     0
 10
0.0
 20
0.0
 11
1.0
 21
1.0
 12
0.0
 22
0.0
 13
0.0
 23
0.0
 14
10.0
 24
10.0
 15
10.0
 25
10.0
 16
0.0
 26
0.0
 36
1.0
 17
0.0
 27
0.0
 37
0.0
 40
9801.0
 41
1.414141414141414
 42
50.0
 43
0.0
 44
0.0
 50
0.0
 51
0.0
 71
     0
 72
 10000
 73
     1
 74
     3
 75
     0
 76
     0
 77
     0
 78
     0
281
     0
 65
     1
110
0.0
120
0.0
130
0.0
111
1.0
121
0.0
131
0.0
112
0.0
122
1.0
132
0.0
 79
     0
146
0.0
 60
     3
 61
     5
292
     1
282
     1
141
0.0
142
0.0
 63
   250
  0
ENDTAB
  0
TABLE
  2
LTYPE
  5
5
330
0
100
AcDbSymbolTable
 70
     5
  0
LTYPE
  5
14
330
5
100
AcDbSymbolTableRecord
100
AcDbLinetypeTableRecord
  2
ByBlock
 70
     0
  3

 72
    65
 73
     0
 40
0.0
  0
LTYPE
  5
15
330
5
100
AcDbSymbolTableRecord
100
AcDbLinetypeTableRecord
  2
ByLayer
 70
     0
  3

 72
    65
 73
     0
 40
0.0
  0
LTYPE
  5
16
330
5
100
AcDbSymbolTableRecord
100
AcDbLinetypeTableRecord
  2
Continuous
 70
     0
  3
Solid line
 72
    65
 73
     0
 40
0.0
  0
LTYPE
  5
3F
330
5
100
AcDbSymbolTableRecord
100
AcDbLinetypeTableRecord
  2
JWW_HOJO
 70
     0
  3
  -   -   -   -   -   -   -   - 
 72
    65
 73
     2
 40
1.693333333333333
 49
-1.27
 74
     0
 49
0.4233333333333333
 74
     0
  0
LTYPE
  5
40
330
5
100
AcDbSymbolTableRecord
100
AcDbLinetypeTableRecord
  2
JWW_DASHED2
 70
     0
  3
--    ----    ----    ----    --
 72
    65
 73
     2
 40
3.386666666666667
 49
1.693333333333333
 74
     0
 49
-1.693333333333333
 74
     0
  0
LTYPE
  5
41
330
5
100
AcDbSymbolTableRecord
100
AcDbLinetypeTableRecord
  2
JWW_CENTER1
 70
     0
  3
-----  --  ----------  --  -----
 72
    65
 73
     4
 40
6.773333333333333
 49
4.233333333333333
 74
     0
 49
-0.8466666666666667
 74
     0
 49
0.8466666666666667
 74
     0
 49
-0.8466666666666667
 74
     0
  0
LTYPE
  5
42
330
5
100
AcDbSymbolTableRecord
100
AcDbLinetypeTableRecord
  2
JWW_DASHED1
 70
     0
  3
-  --  --  --  --  --  --  --  -
 72
    65
 73
     2
 40
1.693333333333333
 49
0.8466666666666667
 74
     0
 49
-0.8466666666666667
 74
     0
  0
ENDTAB
  0
TABLE
  2
LAYER
  5
2
330
0
100
AcDbSymbolTable
 70
    15
  0
LAYER
  5
10
330
2
100
AcDbSymbolTableRecord
100
AcDbLayerTableRecord
  2
0
 70
     0
 62
     7
  6
Continuous
370
    -3
390
F
347
3E
  0
LAYER
  5
43
330
2
100
AcDbSymbolTableRecord
100
AcDbLayerTableRecord
  2
F-0_補助線
 70
     0
 62
     7
  6
Continuous
370
    -3
390
F
347
3E
  0
LAYER
  5
44
330
2
100
AcDbSymbolTableRecord
100
AcDbLayerTableRecord
  2
F-1_枠
 70
     0
 62
     7
  6
Continuous
370
    -3
390
F
347
3E
  0
LAYER
  5
45
330
2
100
AcDbSymbolTableRecord
100
AcDbLayerTableRecord
  2
F-A_文字
 70
     0
 62
     7
  6
Continuous
370
    -3
390
F
347
3E
  0
LAYER
  5
46
330
2
100
AcDbSymbolTableRecord
100
AcDbLayerTableRecord
  2
0-A_文字
 70
     0
 62
     7
  6
Continuous
370
    -3
390
F
347
3E
  0
LAYER
  5
47
330
2
100
AcDbSymbolTableRecord
100
AcDbLayerTableRecord
  2
戸当り
 70
     0
 62
     7
  6
Continuous
370
    -3
390
F
347
3E
  0
LAYER
  5
48
330
2
100
AcDbSymbolTableRecord
100
AcDbLayerTableRecord
  2
0-0_補助線
 70
     0
 62
     7
  6
Continuous
370
    -3
390
F
347
3E
  0
LAYER
  5
49
330
2
100
AcDbSymbolTableRecord
100
AcDbLayerTableRecord
  2
0-1_通り芯
 70
     0
 62
     7
  6
Continuous
370
    -3
390
F
347
3E
  0
LAYER
  5
4A
330
2
100
AcDbSymbolTableRecord
100
AcDbLayerTableRecord
  2
0-7_金物
 70
     0
 62
     7
  6
Continuous
370
    -3
390
F
347
3E
  0
LAYER
  5
4B
330
2
100
AcDbSymbolTableRecord
100
AcDbLayerTableRecord
  2
0-3_仕上げ
 70
     0
 62
     7
  6
Continuous
370
    -3
390
F
347
3E
  0
LAYER
  5
4C
330
2
100
AcDbSymbolTableRecord
100
AcDbLayerTableRecord
  2
0-B_寸法
 70
     0
 62
     7
  6
Continuous
370
    -3
390
F
347
3E
  0
LAYER
  5
4D
330
2
100
AcDbSymbolTableRecord
100
AcDbLayerTableRecord
  2
0-6_扉
 70
     0
 62
     7
  6
Continuous
370
    -3
390
F
347
3E
  0
LAYER
  5
4E
330
2
100
AcDbSymbolTableRecord
100
AcDbLayerTableRecord
  2
0-C_ハッチ
 70
     0
 62
     7
  6
Continuous
370
    -3
390
F
347
3E
  0
LAYER
  5
4F
330
2
100
AcDbSymbolTableRecord
100
AcDbLayerTableRecord
  2
0-4_枠
 70
     0
 62
     7
  6
Continuous
370
    -3
390
F
347
3E
  0
LAYER
  5
50
330
2
100
AcDbSymbolTableRecord
100
AcDbLayerTableRecord
  2
1-E
 70
     0
 62
     7
  6
Continuous
370
    -3
390
F
347
3E
  0
ENDTAB
  0
TABLE
  2
STYLE
  5
3
330
0
100
AcDbSymbolTable
 70
     1
  0
STYLE
  5
11
330
3
100
AcDbSymbolTableRecord
100
AcDbTextStyleTableRecord
  2
Standard
 70
     0
 40
0.0
 41
1.0
 50
0.0
 71
     0
 42
2.5
  3
txt
  4

  0
ENDTAB
  0
TABLE
  2
VIEW
  5
6
330
0
100
AcDbSymbolTable
 70
     0
  0
ENDTAB
  0
TABLE
  2
UCS
  5
7
330
0
100
AcDbSymbolTable
 70
     0
  0
ENDTAB
  0
TABLE
  2
APPID
  5
9
330
0
100
AcDbSymbolTable
 70
     1
  0
APPID
  5
12
330
9
100
AcDbSymbolTableRecord
100
AcDbRegAppTableRecord
  2
ACAD
 70
     0
  0
ENDTAB
  0
TABLE
  2
DIMSTYLE
  5
A
330
0
100
AcDbSymbolTable
 70
     1
100
AcDbDimStyleTable
  0
DIMSTYLE
105
27
330
A
100
AcDbSymbolTableRecord
100
AcDbDimStyleTableRecord
  2
ISO-25
 70
     0
 41
2.5
 42
0.625
 43
3.75
 44
1.25
 73
     0
 74
     0
 77
     1
 78
     8
140
2.5
141
2.5
143
0.03937007874016
147
0.625
171
     3
172
     1
178
     0
271
     2
272
     2
274
     3
278
    44
283
     0
284
     8
340
11
  0
ENDTAB
  0
TABLE
  2
BLOCK_RECORD
  5
1
330
0
100
AcDbSymbolTable
 70
     2
  0
BLOCK_RECORD
  5
1F
330
1
100
AcDbSymbolTableRecord
100
AcDbBlockTableRecord
  2
*Model_Space
340
22
 70
     0
280
     1
281
     0
  0
BLOCK_RECORD
  5
1B
330
1
100
AcDbSymbolTableRecord
100
AcDbBlockTableRecord
  2
*Paper_Space
340
1E
 70
     0
280
     1
281
     0
  0
BLOCK_RECORD
  5
23
330
1
100
AcDbSymbolTableRecord
100
AcDbBlockTableRecord
  2
*Paper_Space0
340
26
 70
     0
280
     1
281
     0
  0
BLOCK_RECORD
  5
51
330
1
100
AcDbSymbolTableRecord
100
AcDbBlockTableRecord
  2
01@@SfigorgFlag@@4
340
0
102
{BLKREFS
331
3E0
102
}
 70
     0
280
     1
281
     0
  0
ENDTAB
  0
ENDSEC
  0
SECTION
  2
BLOCKS
  0
BLOCK
  5
20
330
1F
100
AcDbEntity
  8
0
100
AcDbBlockBegin
  2
*Model_Space
 70
     0
 10
0.0
 20
0.0
 30
0.0
  3
*Model_Space
  1

  0
ENDBLK
  5
21
330
1F
100
AcDbEntity
  8
0
100
AcDbBlockEnd
  0
BLOCK
  5
1C
330
1B
100
AcDbEntity
 67
     1
  8
0
100
AcDbBlockBegin
  2
*Paper_Space
 70
     0
 10
0.0
 20
0.0
 30
0.0
  3
*Paper_Space
  1

  0
ENDBLK
  5
1D
330
1B
100
AcDbEntity
 67
     1
  8
0
100
AcDbBlockEnd
  0
BLOCK
  5
24
330
23
100
AcDbEntity
  8
0
100
AcDbBlockBegin
  2
*Paper_Space0
 70
     0
 10
0.0
 20
0.0
 30
0.0
  3
*Paper_Space0
  1

  0
ENDBLK
  5
25
330
23
100
AcDbEntity
  8
0
100
AcDbBlockEnd
  0
BLOCK
  5
52
330
51
100
AcDbEntity
  8
0
100
AcDbBlockBegin
  2
01@@SfigorgFlag@@4
 70
     0
 10
0.0
 20
0.0
 30
0.0
  3
01@@SfigorgFlag@@4
  1

  0
LINE
  5
4B1
330
51
100
AcDbEntity
  8
0-0_補助線
  6
Continuous
 62
     7
370
     9
100
AcDbLine
 10
-4.25
 20
-1.491025641025665
 30
0.0
 11
-3.25
 21
-1.491025641025665
 31
0.0
  0
LINE
  5
4B2
330
51
100
AcDbEntity
  8
0-0_補助線
  6
Continuous
 62
     7
370
     9
100
AcDbLine
 10
-2.75
 20
-1.491025641025665
 30
0.0
 11
-0.1500000000000909
 21
-1.491025641025665
 31
0.0
  0
LINE
  5
4B3
330
51
100
AcDbEntity
  8
0-0_補助線
  6
Continuous
 62
     7
370
     9
100
AcDbLine
 10
-0.1500000000000909
 20
-1.491025641025665
 30
0.0
 11
0.0
 21
-1.641025641025642
 31
0.0
  0
LINE
  5
4B4
330
51
100
AcDbEntity
  8
0-0_補助線
  6
Continuous
 62
     7
370
     9
100
AcDbLine
 10
0.0
 20
-1.641025641025642
 30
0.0
 11
0.1500000000000909
 21
-1.491025641025665
 31
0.0
  0
LINE
  5
4B5
330
51
100
AcDbEntity
  8
0-0_補助線
  6
Continuous
 62
     7
370
     9
100
AcDbLine
 10
0.1500000000000909
 20
-1.491025641025665
 30
0.0
 11
2.75
 21
-1.491025641025665
 31
0.0
  0
LINE
  5
4B6
330
51
100
AcDbEntity
  8
0-0_補助線
  6
Continuous
 62
     7
370
     9
100
AcDbLine
 10
3.25
 20
-1.491025641025665
 30
0.0
 11
4.25
 21
-1.491025641025665
 31
0.0
  0
LINE
  5
4B7
330
51
100
AcDbEntity
  8
0-0_補助線
  6
Continuous
 62
     7
370
     9
100
AcDbLine
 10
7.849999999999909
 20
1.408974358974312
 30
0.0
 11
4.849999999999909
 21
1.408974358974312
 31
0.0
  0
LINE
  5
4B8
330
51
100
AcDbEntity
  8
0-0_補助線
  6
Continuous
 62
     7
370
     9
100
AcDbLine
 10
-4.849999999999909
 20
1.408974358974312
 30
0.0
 11
-7.849999999999909
 21
1.408974358974312
 31
0.0
  0
LINE
  5
4B9
330
51
100
AcDbEntity
  8
0-0_補助線
  6
Continuous
 62
     7
370
     9
100
AcDbLine
 10
-4.849999999999909
 20
2.008974358974335
 30
0.0
 11
-7.849999999999909
 21
1.70897435897438
 31
0.0
  0
ARC
  5
4BA
330
51
100
AcDbEntity
  8
0-0_補助線
  6
Continuous
 62
     7
370
     9
100
AcDbCircle
 10
-7.849999999999909
 20
1.558974358974403
 30
0.0
 40
0.15
100
AcDbArc
 50
90.0
 51
270.0
  0
ARC
  5
4BB
330
51
100
AcDbEntity
  8
0-0_補助線
  6
Continuous
 62
     7
370
     9
100
AcDbCircle
 10
7.849999999999909
 20
1.558974358974403
 30
0.0
 40
0.15
100
AcDbArc
 50
270.0
 51
89.99999999999997
  0
LINE
  5
4BC
330
51
100
AcDbEntity
  8
0-0_補助線
  6
Continuous
 62
     7
370
     9
100
AcDbLine
 10
7.849999999999909
 20
1.70897435897438
 30
0.0
 11
4.849999999999909
 21
2.008974358974335
 31
0.0
  0
LINE
  5
4BD
330
51
100
AcDbEntity
  8
0-0_補助線
  6
Continuous
 62
     7
370
     9
100
AcDbLine
 10
-3.050000000000182
 20
2.008974358974335
 30
0.0
 11
-4.849999999999909
 21
2.008974358974335
 31
0.0
  0
ARC
  5
4BE
330
51
100
AcDbEntity
  8
0-0_補助線
  6
Continuous
 62
     7
370
     9
100
AcDbCircle
 10
-3.050000000000182
 20
1.70897435897438
 30
0.0
 40
0.3
100
AcDbArc
 50
0.0
 51
90.0
  0
ARC
  5
4BF
330
51
100
AcDbEntity
  8
0-0_補助線
  6
Continuous
 62
     7
370
     9
100
AcDbCircle
 10
-3.050000000000182
 20
1.70897435897438
 30
0.0
 40
0.3
100
AcDbArc
 50
270.0
 51
0.0
  0
ARC
  5
4C0
330
51
100
AcDbEntity
  8
0-0_補助線
  6
Continuous
 62
     7
370
     9
100
AcDbCircle
 10
3.050000000000182
 20
1.70897435897438
 30
0.0
 40
0.3
100
AcDbArc
 50
180.0
 51
270.0
  0
LINE
  5
4C1
330
51
100
AcDbEntity
  8
0-0_補助線
  6
Continuous
 62
     7
370
     9
100
AcDbLine
 10
3.050000000000182
 20
2.008974358974335
 30
0.0
 11
4.849999999999909
 21
2.008974358974335
 31
0.0
  0
ARC
  5
4C2
330
51
100
AcDbEntity
  8
0-0_補助線
  6
Continuous
 62
     7
370
     9
100
AcDbCircle
 10
3.050000000000182
 20
1.70897435897438
 30
0.0
 40
0.3
100
AcDbArc
 50
90.0
 51
180.0
  0
LINE
  5
4C3
330
51
100
AcDbEntity
  8
0-0_補助線
  6
Continuous
 62
     7
370
     9
100
AcDbLine
 10
4.849999999999909
 20
-1.341025641025688
 30
0.0
 11
4.849999999999909
 21
1.408974358974312
 31
0.0
  0
ARC
  5
4C4
330
51
100
AcDbEntity
  8
0-0_補助線
  6
Continuous
 62
     7
370
     9
100
AcDbCircle
 10
4.099999999999909
 20
-1.341025641025688
 30
0.0
 40
0.75
100
AcDbArc
 50
270.0
 51
0.0
  0
LINE
  5
4C5
330
51
100
AcDbEntity
  8
0-0_補助線
  6
Continuous
 62
     7
370
     9
100
AcDbLine
 10
-4.849999999999909
 20
-1.341025641025688
 30
0.0
 11
-4.849999999999909
 21
1.408974358974312
 31
0.0
  0
LINE
  5
4C6
330
51
100
AcDbEntity
  8
0-0_補助線
  6
Continuous
 62
     7
370
     9
100
AcDbLine
 10
-4.099999999999909
 20
-2.091025641025688
 30
0.0
 11
4.099999999999909
 21
-2.091025641025688
 31
0.0
  0
ARC
  5
4C7
330
51
100
AcDbEntity
  8
0-0_補助線
  6
Continuous
 62
     7
370
     9
100
AcDbCircle
 10
-4.099999999999909
 20
-1.341025641025688
 30
0.0
 40
0.75
100
AcDbArc
 50
180.0
 51
270.0
  0
LINE
  5
4C8
330
51
100
AcDbEntity
  8
0-0_補助線
  6
Continuous
 62
     7
370
     9
100
AcDbLine
 10
-4.0
 20
1.408974358974312
 30
0.0
 11
-3.050000000000182
 21
1.408974358974312
 31
0.0
  0
LINE
  5
4C9
330
51
100
AcDbEntity
  8
0-0_補助線
  6
Continuous
 62
     7
370
     9
100
AcDbLine
 10
-4.25
 20
1.158974358974312
 30
0.0
 11
-4.25
 21
-1.491025641025665
 31
0.0
  0
ARC
  5
4CA
330
51
100
AcDbEntity
  8
0-0_補助線
  6
Continuous
 62
     7
370
     9
100
AcDbCircle
 10
-4.0
 20
1.158974358974312
 30
0.0
 40
0.25
100
AcDbArc
 50
90.0
 51
180.0
  0
LINE
  5
4CB
330
51
100
AcDbEntity
  8
0-0_補助線
  6
Continuous
 62
     7
370
     9
100
AcDbLine
 10
4.0
 20
1.408974358974312
 30
0.0
 11
3.050000000000182
 21
1.408974358974312
 31
0.0
  0
LINE
  5
4CC
330
51
100
AcDbEntity
  8
0-0_補助線
  6
Continuous
 62
     7
370
     9
100
AcDbLine
 10
4.25
 20
1.158974358974312
 30
0.0
 11
4.25
 21
-1.491025641025665
 31
0.0
  0
ARC
  5
4CD
330
51
100
AcDbEntity
  8
0-0_補助線
  6
Continuous
 62
     7
370
     9
100
AcDbCircle
 10
4.0
 20
1.158974358974312
 30
0.0
 40
0.25
100
AcDbArc
 50
0.0
 51
90.0
  0
LINE
  5
4CE
330
51
100
AcDbEntity
  8
0-0_補助線
  6
Continuous
 62
     7
370
     9
100
AcDbLine
 10
-3.25
 20
-1.091025641025688
 30
0.0
 11
-3.25
 21
-1.491025641025665
 31
0.0
  0
ARC
  5
4CF
330
51
100
AcDbEntity
  8
0-0_補助線
  6
Continuous
 62
     7
370
     9
100
AcDbCircle
 10
-3.150000000000091
 20
-1.091025641025688
 30
0.0
 40
0.1
100
AcDbArc
 50
90.0
 51
180.0
  0
LINE
  5
4D0
330
51
100
AcDbEntity
  8
0-0_補助線
  6
Continuous
 62
     7
370
     9
100
AcDbLine
 10
-2.849999999999909
 20
-0.991025641025665
 30
0.0
 11
-3.150000000000091
 21
-0.991025641025665
 31
0.0
  0
LINE
  5
4D1
330
51
100
AcDbEntity
  8
0-0_補助線
  6
Continuous
 62
     7
370
     9
100
AcDbLine
 10
-2.75
 20
-1.091025641025688
 30
0.0
 11
-2.75
 21
-1.491025641025665
 31
0.0
  0
ARC
  5
4D2
330
51
100
AcDbEntity
  8
0-0_補助線
  6
Continuous
 62
     7
370
     9
100
AcDbCircle
 10
-2.849999999999909
 20
-1.091025641025688
 30
0.0
 40
0.1
100
AcDbArc
 50
0.0
 51
90.0
  0
LINE
  5
4D3
330
51
100
AcDbEntity
  8
0-0_補助線
  6
Continuous
 62
     7
370
     9
100
AcDbLine
 10
2.75
 20
-1.091025641025688
 30
0.0
 11
2.75
 21
-1.491025641025665
 31
0.0
  0
ARC
  5
4D4
330
51
100
AcDbEntity
  8
0-0_補助線
  6
Continuous
 62
     7
370
     9
100
AcDbCircle
 10
2.849999999999909
 20
-1.091025641025688
 30
0.0
 40
0.1
100
AcDbArc
 50
90.0
 51
180.0
  0
LINE
  5
4D5
330
51
100
AcDbEntity
  8
0-0_補助線
  6
Continuous
 62
     7
370
     9
100
AcDbLine
 10
3.150000000000091
 20
-0.991025641025665
 30
0.0
 11
2.849999999999909
 21
-0.991025641025665
 31
0.0
  0
LINE
  5
4D6
330
51
100
AcDbEntity
  8
0-0_補助線
  6
Continuous
 62
     7
370
     9
100
AcDbLine
 10
3.25
 20
-1.091025641025688
 30
0.0
 11
3.25
 21
-1.491025641025665
 31
0.0
  0
ARC
  5
4D7
330
51
100
AcDbEntity
  8
0-0_補助線
  6
Continuous
 62
     7
370
     9
100
AcDbCircle
 10
3.150000000000091
 20
-1.091025641025688
 30
0.0
 40
0.1
100
AcDbArc
 50
0.0
 51
90.0
  0
ENDBLK
  5
53
330
51
100
AcDbEntity
  8
0
100
AcDbBlockEnd
  0
ENDSEC
  0
SECTION
  2
ENTITIES
  0
LINE
  5
54
330
1F
100
AcDbEntity
  8
F-0_補助線
  6
JWW_HOJO
 62
   120
370
     5
100
AcDbLine
 10
-6140.081333436773
 20
-4455.0
 30
0.0
 11
-6140.081333436773
 21
4424.999604096284
 31
0.0
  0
LINE
  5
55
330
1F
100
AcDbEntity
  8
F-0_補助線
  6
JWW_HOJO
 62
   120
370
     5
100
AcDbLine
 10
-6140.081333436773
 20
4424.999604096284
 30
0.0
 11
6159.917676803936
 21
4424.999604096284
 31
0.0
  0
LINE
  5
56
330
1F
100
AcDbEntity
  8
F-0_補助線
  6
JWW_HOJO
 62
   120
370
     5
100
AcDbLine
 10
6159.917676803936
 20
4424.999604096284
 30
0.0
 11
6159.917676803936
 21
-4455.0
 31
0.0
  0
LINE
  5
57
330
1F
100
AcDbEntity
  8
F-0_補助線
  6
JWW_HOJO
 62
   120
370
     5
100
AcDbLine
 10
6159.917676803936
 20
-4455.0
 30
0.0
 11
-6140.081333436773
 21
-4455.0
 31
0.0
  0
LINE
  5
58
330
1F
100
AcDbEntity
  8
F-0_補助線
  6
JWW_HOJO
 62
     7
370
     9
100
AcDbLine
 10
1009.918254163524
 20
-3795.000003092998
 30
0.0
 11
1009.918254163524
 21
-4195.000008247994
 31
0.0
  0
LINE
  5
59
330
1F
100
AcDbEntity
  8
F-0_補助線
  6
JWW_HOJO
 62
     7
370
     9
100
AcDbLine
 10
509.9185840832865
 20
-3795.000003092998
 30
0.0
 11
509.9185840832865
 21
-4195.000008247994
 31
0.0
  0
LINE
  5
5A
330
1F
100
AcDbEntity
  8
F-1_枠
  6
Continuous
 62
   200
370
    20
100
AcDbLine
 10
5859.917429364114
 20
4174.999769056166
 30
0.0
 11
5859.917429364114
 21
-4205.000164959882
 31
0.0
  0
LINE
  5
5B
330
1F
100
AcDbEntity
  8
F-1_枠
  6
Continuous
 62
   200
370
    20
100
AcDbLine
 10
-5840.081317971782
 20
4174.999769056166
 30
0.0
 11
-5840.081317971782
 21
-4205.000164959882
 31
0.0
  0
LINE
  5
5C
330
1F
100
AcDbEntity
  8
F-1_枠
  6
Continuous
 62
   200
370
    20
100
AcDbLine
 10
5859.917429364114
 20
-4205.000002577499
 30
0.0
 11
-5840.081085996952
 21
-4205.000002577499
 31
0.0
  0
LINE
  5
5D
330
1F
100
AcDbEntity
  8
F-1_枠
  6
Continuous
 62
   200
370
    20
100
AcDbLine
 10
-5830.081323642279
 20
4174.999769056166
 30
0.0
 11
-5830.081323642279
 21
-4205.000164959882
 31
0.0
  0
LINE
  5
5E
330
1F
100
AcDbEntity
  8
F-1_枠
  6
Continuous
 62
   200
370
    20
100
AcDbLine
 10
-5835.081309208291
 20
4174.999769056166
 30
0.0
 11
-5835.081309208291
 21
-4205.000164959882
 31
0.0
  0
LINE
  5
5F
330
1F
100
AcDbEntity
  8
F-1_枠
  6
Continuous
 62
   200
370
    20
100
AcDbLine
 10
5854.917165428305
 20
4174.999769056166
 30
0.0
 11
5854.917165428305
 21
-4205.000164959882
 31
0.0
  0
LINE
  5
60
330
1F
100
AcDbEntity
  8
F-1_枠
  6
Continuous
 62
   200
370
    20
100
AcDbLine
 10
5849.917643811961
 20
4174.999769056166
 30
0.0
 11
5849.917643811961
 21
-4205.000164959882
 31
0.0
  0
LINE
  5
61
330
1F
100
AcDbEntity
  8
F-1_枠
  6
Continuous
 62
   200
370
    20
100
AcDbLine
 10
5859.917429364114
 20
-4199.999993814004
 30
0.0
 11
-5840.081085996952
 21
-4199.999993814004
 31
0.0
  0
LINE
  5
62
330
1F
100
AcDbEntity
  8
F-1_枠
  6
Continuous
 62
   200
370
    20
100
AcDbLine
 10
5859.917429364114
 20
-4195.000008247994
 30
0.0
 11
-5840.081085996952
 21
-4195.000008247994
 31
0.0
  0
LINE
  5
63
330
1F
100
AcDbEntity
  8
F-1_枠
  6
Continuous
 62
   200
370
    20
100
AcDbLine
 10
4349.917891251784
 20
-3795.000003092998
 30
0.0
 11
4349.917891251784
 21
-4195.000008247994
 31
0.0
  0
LINE
  5
64
330
1F
100
AcDbEntity
  8
F-1_枠
  6
Continuous
 62
   200
370
    20
100
AcDbLine
 10
2849.91739637214
 20
-3795.000003092998
 30
0.0
 11
2849.91739637214
 21
-4195.000008247994
 31
0.0
  0
LINE
  5
65
330
1F
100
AcDbEntity
  8
F-1_枠
  6
Continuous
 62
   200
370
    20
100
AcDbLine
 10
9.918542843316231
 20
-3795.000003092998
 30
0.0
 11
9.918542843316231
 21
-4195.000008247994
 31
0.0
  0
LINE
  5
66
330
1F
100
AcDbEntity
  8
F-1_枠
  6
Continuous
 62
   200
370
    20
100
AcDbLine
 10
9.918542843316231
 20
-3994.999936078045
 30
0.0
 11
5849.917643811961
 21
-3995.005364289155
 31
0.0
  0
LINE
  5
67
330
1F
100
AcDbEntity
  8
F-1_枠
  6
Continuous
 62
   200
370
    20
100
AcDbLine
 10
-5840.081085996952
 20
4174.999769056166
 30
0.0
 11
5859.917429364114
 21
4174.999769056166
 31
0.0
  0
LINE
  5
68
330
1F
100
AcDbEntity
  8
F-1_枠
  6
Continuous
 62
   200
370
    20
100
AcDbLine
 10
-5840.081085996952
 20
4164.999983504013
 30
0.0
 11
5859.917429364114
 21
4164.999983504013
 31
0.0
  0
LINE
  5
69
330
1F
100
AcDbEntity
  8
F-1_枠
  6
Continuous
 62
   200
370
    20
100
AcDbLine
 10
-5840.081085996952
 20
4169.999505120355
 30
0.0
 11
5859.917429364114
 21
4169.999505120355
 31
0.0
  0
LINE
  5
6A
330
1F
100
AcDbEntity
  8
F-0_補助線
  6
JWW_HOJO
 62
     7
370
     9
100
AcDbLine
 10
-5830.081323642279
 20
-3994.99993607839
 30
0.0
 11
9.918542843316231
 21
-3994.99993607839
 31
0.0
  0
LINE
  5
6B
330
1F
100
AcDbEntity
  8
F-0_補助線
  6
JWW_HOJO
 62
     7
370
     9
100
AcDbLine
 10
-5830.081323642279
 20
-3904.99993607839
 30
0.0
 11
9.918542843316231
 21
-3904.99993607839
 31
0.0
  0
LINE
  5
6C
330
1F
100
AcDbEntity
  8
F-0_補助線
  6
JWW_HOJO
 62
     7
370
     9
100
AcDbLine
 10
-5830.081323642279
 20
-4084.99993607839
 30
0.0
 11
9.918542843316231
 21
-4084.99993607839
 31
0.0
  0
LINE
  5
6D
330
1F
100
AcDbEntity
  8
F-0_補助線
  6
JWW_HOJO
 62
     7
370
     9
100
AcDbLine
 10
9.918408067688347
 20
-4139.999739777984
 30
0.0
 11
5849.917509036333
 21
-4140.005167989091
 31
0.0
  0
LINE
  5
6E
330
1F
100
AcDbEntity
  8
F-0_補助線
  6
JWW_HOJO
 62
     7
370
     9
100
AcDbLine
 10
9.918491721639953
 20
-4049.999739778022
 30
0.0
 11
5849.917592690285
 21
-4050.005167989132
 31
0.0
  0
LINE
  5
6F
330
1F
100
AcDbEntity
  8
F-0_補助線
  6
JWW_HOJO
 62
     7
370
     9
100
AcDbLine
 10
9.91859396535915
 20
-3939.99973721807
 30
0.0
 11
5849.917694934003
 21
-3940.005165429179
 31
0.0
  0
LINE
  5
70
330
1F
100
AcDbEntity
  8
F-0_補助線
  6
JWW_HOJO
 62
     7
370
     9
100
AcDbLine
 10
9.918677619310756
 20
-3849.999737218109
 30
0.0
 11
5849.917778587955
 21
-3850.005165429218
 31
0.0
  0
LINE
  5
71
330
1F
100
AcDbEntity
  8
F-0_補助線
  6
JWW_HOJO
 62
     7
370
     9
100
AcDbLine
 10
2939.91739637214
 20
-3795.000003092998
 30
0.0
 11
2939.91739637214
 21
-4195.000008247994
 31
0.0
  0
LINE
  5
72
330
1F
100
AcDbEntity
  8
F-0_補助線
  6
JWW_HOJO
 62
     7
370
     9
100
AcDbLine
 10
99.91854284331623
 20
-3795.000003092998
 30
0.0
 11
99.91854284331623
 21
-4195.000008247994
 31
0.0
  0
LINE
  5
73
330
1F
100
AcDbEntity
  8
F-0_補助線
  6
JWW_HOJO
 62
     7
370
     9
100
AcDbLine
 10
4439.917891251784
 20
-3795.000003092998
 30
0.0
 11
4439.917891251784
 21
-4195.000008247994
 31
0.0
  0
MTEXT
  5
74
330
1F
100
AcDbEntity
  8
F-A_文字
  6
Continuous
 62
     7
370
     0
100
AcDbMText
 10
4439.917891251784
 20
-3887.143854850754
 30
0.0
 40
45.72
 41
240.0
 46
0.0
 71
     7
 72
     1
  1
{\fＭＳ ゴシック|b0|i0|c128|p49;ＤＡＴＥ}
 73
     1
 44
1.0
  0
MTEXT
  5
75
330
1F
100
AcDbEntity
  8
F-A_文字
  6
Continuous
 62
     7
370
     0
100
AcDbMText
 10
4439.917891251784
 20
-4087.143857410839
 30
0.0
 40
45.72
 41
180.0
 46
0.0
 71
     7
 72
     1
  1
{\fＭＳ ゴシック|b0|i0|c128|p49;ＮＯ．}
 73
     1
 44
1.0
  0
MTEXT
  5
76
330
1F
100
AcDbEntity
  8
F-A_文字
  6
Continuous
 62
     7
370
     0
100
AcDbMText
 10
2939.91739637214
 20
-3887.142460617775
 30
0.0
 40
45.72
 41
300.0
 46
0.0
 71
     7
 72
     1
  1
{\fＭＳ ゴシック|b0|i0|c128|p49;ＳＣＡＬＥ}
 73
     1
 44
1.0
  0
MTEXT
  5
77
330
1F
100
AcDbEntity
  8
F-A_文字
  6
Continuous
 62
     7
370
     0
100
AcDbMText
 10
2939.91739637214
 20
-4087.142463177859
 30
0.0
 40
45.72
 41
240.0
 46
0.0
 71
     7
 72
     1
  1
{\fＭＳ ゴシック|b0|i0|c128|p49;ＦＩＬＥ}
 73
     1
 44
1.0
  0
MTEXT
  5
78
330
1F
100
AcDbEntity
  8
F-A_文字
  6
Continuous
 62
     7
370
     0
100
AcDbMText
 10
99.91854284331623
 20
-3887.139820871936
 30
0.0
 40
45.72
 41
180.0
 46
0.0
 71
     7
 72
     1
  1
{\fＭＳ ゴシック|b0|i0|c128|p49;図面名}
 73
     1
 44
1.0
  0
MTEXT
  5
79
330
1F
100
AcDbEntity
  8
F-A_文字
  6
Continuous
 62
     7
370
     0
100
AcDbMText
 10
1604.917396372138
 20
-4164.281754523929
 30
0.0
 40
101.44125
 41
1065.0
 46
0.0
 71
     7
 72
     1
  1
{\fＭＳ ゴシック|b0|i0|c128|p49;ウッドワン・・・}
 73
     1
 44
1.0
  0
MTEXT
  5
7A
330
1F
100
AcDbEntity
  8
F-A_文字
  6
Continuous
 62
     7
370
     0
100
AcDbMText
 10
1394.917396372138
 20
-4096.140669266148
 30
0.0
 40
45.72
 41
120.0
 46
0.0
 71
     7
 72
     1
  1
{\fＭＳ ゴシック|b0|i0|c128|p49;株式}
 73
     1
 44
1.0
  0
MTEXT
  5
7B
330
1F
100
AcDbEntity
  8
F-A_文字
  6
Continuous
 62
     7
370
     0
100
AcDbMText
 10
1394.917396372138
 20
-4168.140669266188
 30
0.0
 40
45.72
 41
120.0
 46
0.0
 71
     7
 72
     1
  1
{\fＭＳ ゴシック|b0|i0|c128|p49;会社}
 73
     1
 44
1.0
  0
LINE
  5
7C
330
1F
100
AcDbEntity
  8
F-1_枠
  6
Continuous
 62
   200
370
    20
100
AcDbLine
 10
5859.917429364114
 20
-3795.000003092998
 30
0.0
 11
-5840.081085996952
 21
-3795.000003092998
 31
0.0
  0
LINE
  5
7D
330
1F
100
AcDbEntity
  8
F-1_枠
  6
Continuous
 62
   200
370
    20
100
AcDbLine
 10
5859.917429364114
 20
-3790.000017526988
 30
0.0
 11
-5840.081085996952
 21
-3790.000017526988
 31
0.0
  0
LINE
  5
7E
330
1F
100
AcDbEntity
  8
F-0_補助線
  6
JWW_HOJO
 62
     7
370
     9
100
AcDbLine
 10
-5087.628710189611
 20
-3795.000003093
 30
0.0
 11
-5087.628710189611
 21
-4205.000164959882
 31
0.0
  0
LINE
  5
7F
330
1F
100
AcDbEntity
  8
F-0_補助線
  6
JWW_HOJO
 62
     7
370
     9
100
AcDbLine
 10
-50.08145715668377
 20
-3795.000003092998
 30
0.0
 11
-50.08145715668377
 21
-4195.000008247994
 31
0.0
  0
MTEXT
  5
80
330
1F
100
AcDbEntity
  8
F-0_補助線
  6
Continuous
 62
     7
370
     0
100
AcDbMText
 10
509.9185840832865
 20
-3946.496666872502
 30
0.0
 40
78.58125
 41
412.5
 46
0.0
 71
     7
 72
     1
  1
{\fＭＳ ゴシック|b0|i0|c128|p49;DOORETUS}
 73
     1
 44
1.0
  0
MTEXT
  5
81
330
1F
100
AcDbEntity
  8
F-0_補助線
  6
Continuous
 62
     7
370
     0
100
AcDbMText
 10
1110.209427605312
 20
-3946.734791872503
 30
0.0
 40
78.105
 41
615.0
 46
0.0
 71
     7
 72
     1
  1
{\fＭＳ ゴシック|b0|i0|c128|p49;建具納まり図}
 73
     1
 44
1.0
  0
MTEXT
  5
82
330
1F
100
AcDbEntity
  8
0-A_文字
  6
Continuous
 62
     7
370
     9
100
AcDbMText
 10
4259.917643811961
 20
3562.188554932929
 30
0.0
 40
78.37714285714286
 41
720.0
 46
0.0
 71
     7
 72
     1
  1
{\fＭＳ ゴシック|b0|i0|c128|p49;フリーオープン}
 73
     1
 44
1.0
  0
LINE
  5
83
330
1F
100
AcDbEntity
  8
0-A_文字
  6
Continuous
 62
    92
370
    13
100
AcDbLine
 10
5369.917643811961
 20
3684.999983504358
 30
0.0
 11
3869.917643811962
 21
3684.999983504358
 31
0.0
  0
LINE
  5
84
330
1F
100
AcDbEntity
  8
0-A_文字
  6
Continuous
 62
    92
370
    13
100
AcDbLine
 10
5369.917643811961
 20
3540.999983504357
 30
0.0
 11
3869.917643811962
 21
3540.999983504357
 31
0.0
  0
LINE
  5
85
330
1F
100
AcDbEntity
  8
戸当り
  6
Continuous
 62
    40
370
    15
100
AcDbLine
 10
5159.917643811961
 20
3385.504011183093
 30
0.0
 11
5339.917643811961
 21
3385.504011183093
 31
0.0
  0
LINE
  5
86
330
1F
100
AcDbEntity
  8
戸当り
  6
Continuous
 62
    40
370
    15
100
AcDbLine
 10
5159.917643811961
 20
3439.504011183093
 30
0.0
 11
5339.917643811961
 21
3439.504011183093
 31
0.0
  0
LINE
  5
87
330
1F
100
AcDbEntity
  8
戸当り
  6
Continuous
 62
    40
370
    15
100
AcDbLine
 10
5159.917643811961
 20
3439.504011183093
 30
0.0
 11
5159.917643811961
 21
3385.504011183093
 31
0.0
  0
LINE
  5
88
330
1F
100
AcDbEntity
  8
戸当り
  6
Continuous
 62
    40
370
    15
100
AcDbLine
 10
4079.917643811962
 20
3385.504011183093
 30
0.0
 11
3899.917643811962
 21
3385.504011183093
 31
0.0
  0
LINE
  5
89
330
1F
100
AcDbEntity
  8
戸当り
  6
Continuous
 62
    40
370
    15
100
AcDbLine
 10
4079.917643811962
 20
3439.504011183093
 30
0.0
 11
3899.917643811962
 21
3439.504011183093
 31
0.0
  0
LINE
  5
8A
330
1F
100
AcDbEntity
  8
戸当り
  6
Continuous
 62
    40
370
    15
100
AcDbLine
 10
4079.917643811962
 20
3439.504011183093
 30
0.0
 11
4079.917643811962
 21
3385.504011183093
 31
0.0
  0
LINE
  5
8B
330
1F
100
AcDbEntity
  8
戸当り
  6
JWW_DASHED2
 62
     7
370
     9
100
AcDbLine
 10
5159.917643811961
 20
3385.504011183093
 30
0.0
 11
4079.917643811962
 21
3385.504011183093
 31
0.0
  0
CIRCLE
  5
8C
330
1F
100
AcDbEntity
  8
0-0_補助線
  6
JWW_HOJO
 62
   120
370
     5
100
AcDbCircle
 10
4214.917643811963
 20
3385.504011183093
 30
0.0
 40
135.0
  0
CIRCLE
  5
8D
330
1F
100
AcDbEntity
  8
0-0_補助線
  6
JWW_HOJO
 62
   120
370
     5
100
AcDbCircle
 10
4484.917643811961
 20
3385.504011183093
 30
0.0
 40
135.0
  0
CIRCLE
  5
8E
330
1F
100
AcDbEntity
  8
0-0_補助線
  6
JWW_HOJO
 62
   120
370
     5
100
AcDbCircle
 10
4754.917643811961
 20
3385.504011183093
 30
0.0
 40
135.0
  0
CIRCLE
  5
8F
330
1F
100
AcDbEntity
  8
0-0_補助線
  6
JWW_HOJO
 62
   120
370
     5
100
AcDbCircle
 10
5024.917643811961
 20
3385.504011183093
 30
0.0
 40
135.0
  0
CIRCLE
  5
90
330
1F
100
AcDbEntity
  8
0-0_補助線
  6
JWW_HOJO
 62
   120
370
     5
100
AcDbCircle
 10
4079.917643811962
 20
3385.504011183093
 30
0.0
 40
135.0
  0
CIRCLE
  5
91
330
1F
100
AcDbEntity
  8
0-0_補助線
  6
JWW_HOJO
 62
   120
370
     5
100
AcDbCircle
 10
5159.917643811961
 20
3385.504011183093
 30
0.0
 40
135.0
  0
LINE
  5
92
330
1F
100
AcDbEntity
  8
戸当り
  6
Continuous
 62
    40
370
    15
100
AcDbLine
 10
4079.917643811962
 20
3385.504011183093
 30
0.0
 11
4114.858214900803
 21
3255.104024634068
 31
0.0
  0
LINE
  5
93
330
1F
100
AcDbEntity
  8
戸当り
  6
Continuous
 62
    40
370
    15
100
AcDbLine
 10
4149.798785989644
 20
3385.504011183093
 30
0.0
 11
4114.858214900803
 21
3255.104024634068
 31
0.0
  0
LINE
  5
94
330
1F
100
AcDbEntity
  8
戸当り
  6
Continuous
 62
    40
370
    15
100
AcDbLine
 10
5090.036501634283
 20
3385.504011183093
 30
0.0
 11
5124.977072723121
 21
3255.104024634068
 31
0.0
  0
LINE
  5
95
330
1F
100
AcDbEntity
  8
戸当り
  6
Continuous
 62
    40
370
    15
100
AcDbLine
 10
5159.917643811961
 20
3385.504011183093
 30
0.0
 11
5124.977072723121
 21
3255.104024634068
 31
0.0
  0
LINE
  5
96
330
1F
100
AcDbEntity
  8
戸当り
  6
Continuous
 62
    40
370
    15
100
AcDbLine
 10
4349.917643811961
 20
3385.504011183093
 30
0.0
 11
4384.858214900803
 21
3255.104024634068
 31
0.0
  0
LINE
  5
97
330
1F
100
AcDbEntity
  8
戸当り
  6
Continuous
 62
    40
370
    15
100
AcDbLine
 10
4419.798785989644
 20
3385.504011183093
 30
0.0
 11
4384.858214900803
 21
3255.104024634068
 31
0.0
  0
LINE
  5
98
330
1F
100
AcDbEntity
  8
戸当り
  6
Continuous
 62
    40
370
    15
100
AcDbLine
 10
4820.036501634283
 20
3385.504011183093
 30
0.0
 11
4854.977072723121
 21
3255.104024634068
 31
0.0
  0
LINE
  5
99
330
1F
100
AcDbEntity
  8
戸当り
  6
Continuous
 62
    40
370
    15
100
AcDbLine
 10
4889.917643811961
 20
3385.504011183093
 30
0.0
 11
4854.977072723121
 21
3255.104024634068
 31
0.0
  0
LINE
  5
9A
330
1F
100
AcDbEntity
  8
0-0_補助線
  6
JWW_HOJO
 62
   120
370
     5
100
AcDbLine
 10
5339.917643811961
 20
3684.999983504358
 30
0.0
 11
5339.917643811961
 21
2718.999983504358
 31
0.0
  0
LINE
  5
9B
330
1F
100
AcDbEntity
  8
0-A_文字
  6
Continuous
 62
    92
370
    13
100
AcDbLine
 10
5369.917643811961
 20
3684.999983504358
 30
0.0
 11
5369.917643811961
 21
2718.999983504358
 31
0.0
  0
LINE
  5
9C
330
1F
100
AcDbEntity
  8
0-A_文字
  6
Continuous
 62
    92
370
    13
100
AcDbLine
 10
5369.917643811961
 20
2718.999983504358
 30
0.0
 11
3869.917643811962
 21
2718.999983504358
 31
0.0
  0
LINE
  5
9D
330
1F
100
AcDbEntity
  8
0-0_補助線
  6
JWW_HOJO
 62
   120
370
     5
100
AcDbLine
 10
3899.917643811962
 20
3684.999983504358
 30
0.0
 11
3899.917643811962
 21
2718.999983504358
 31
0.0
  0
LINE
  5
9E
330
1F
100
AcDbEntity
  8
0-A_文字
  6
Continuous
 62
    92
370
    13
100
AcDbLine
 10
3869.917643811962
 20
3684.999983504358
 30
0.0
 11
3869.917643811962
 21
2718.999983504358
 31
0.0
  0
LINE
  5
9F
330
1F
100
AcDbEntity
  8
0-0_補助線
  6
JWW_HOJO
 62
   120
370
     5
100
AcDbLine
 10
4619.917643811961
 20
2718.999983504358
 30
0.0
 11
4619.917643811961
 21
3536.444090121028
 31
0.0
  0
ELLIPSE
  5
A0
330
1F
100
AcDbEntity
  8
戸当り
  6
Continuous
 62
    92
370
    13
100
AcDbEllipse
 10
4544.51791894478
 20
2927.884230441541
 30
0.0
 11
-17.7763823922528
 21
100.8148742797557
 31
0.0
210
0.0
220
0.0
230
1.0
 40
0.4000000000000001
 41
1.850633272656679
 42
2.442876790075129
  0
ELLIPSE
  5
A1
330
1F
100
AcDbEntity
  8
戸当り
  6
Continuous
 62
    92
370
    13
100
AcDbEllipse
 10
4544.51791894478
 20
2927.884230441541
 30
0.0
 11
-17.7763823922528
 21
100.8148742797557
 31
0.0
210
0.0
220
0.0
230
1.0
 40
0.4000000000000001
 41
3.840308517104466
 42
4.432552034522944
  0
ELLIPSE
  5
A2
330
1F
100
AcDbEntity
  8
戸当り
  6
Continuous
 62
    92
370
    13
100
AcDbEllipse
 10
4544.098172894875
 20
2930.264728583199
 30
0.0
 11
-14.67024424252691
 21
83.19908946199426
 31
0.0
210
0.0
220
0.0
230
1.0
 40
0.5
 41
4.340591432030095
 42
8.225779182329084
  0
LINE
  5
A3
330
1F
100
AcDbEntity
  8
戸当り
  6
Continuous
 62
    92
370
    13
100
AcDbLine
 10
4584.067802717541
 20
2855.267181118272
 30
0.0
 11
4532.189678628003
 21
2846.119668132746
 31
0.0
  0
LINE
  5
A4
330
1F
100
AcDbEntity
  8
戸当り
  6
Continuous
 62
    92
370
    13
100
AcDbLine
 10
4586.255769756144
 20
2842.858603430318
 30
0.0
 11
4534.377645666606
 21
2833.711090444791
 31
0.0
  0
ELLIPSE
  5
A5
330
1F
100
AcDbEntity
  8
戸当り
  6
Continuous
 62
    92
370
    13
100
AcDbEllipse
 10
4560.316707711374
 20
2838.284846937556
 30
0.0
 11
-7.622927487939132
 21
43.23177007461331
 31
0.0
210
0.0
220
0.0
230
1.0
 40
0.6000000000000001
 41
1.570796326794897
 42
4.71238898038469
  0
ELLIPSE
  5
A6
330
1F
100
AcDbEntity
  8
戸当り
  6
Continuous
 62
    92
370
    13
100
AcDbEllipse
 10
4698.978687882654
 20
2963.935065931348
 30
0.0
 11
26.49533313827761
 21
98.88192943551533
 31
0.0
210
0.0
220
0.0
230
0.9999999999999999
 40
0.4
 41
1.850633272656679
 42
2.442876790075129
  0
ELLIPSE
  5
A7
330
1F
100
AcDbEntity
  8
戸当り
  6
Continuous
 62
    92
370
    13
100
AcDbEllipse
 10
4698.978687882654
 20
2963.935065931348
 30
0.0
 11
26.49533313827761
 21
98.88192943551533
 31
0.0
210
0.0
220
0.0
230
0.9999999999999999
 40
0.4
 41
3.840308517104466
 42
4.432552034522944
  0
ELLIPSE
  5
A8
330
1F
100
AcDbEntity
  8
戸当り
  6
Continuous
 62
    92
370
    13
100
AcDbEllipse
 10
4699.604310755758
 20
2966.26992228014
 30
0.0
 11
21.86569797210526
 21
81.6038957748525
 31
0.0
210
0.0
220
0.0
230
1.0
 40
0.5
 41
4.340591432030095
 42
8.225779182329084
  0
LINE
  5
A9
330
1F
100
AcDbEntity
  8
戸当り
  6
Continuous
 62
    92
370
    13
100
AcDbLine
 10
4704.133764364565
 20
2881.407165525954
 30
0.0
 11
4653.25031048817
 21
2895.04134590024
 31
0.0
  0
LINE
  5
AA
330
1F
100
AcDbEntity
  8
戸当り
  6
Continuous
 62
    92
370
    13
100
AcDbLine
 10
4700.872644396272
 20
2869.236500114714
 30
0.0
 11
4649.989190519879
 21
2882.870680488999
 31
0.0
  0
ELLIPSE
  5
AB
330
1F
100
AcDbEntity
  8
戸当り
  6
Continuous
 62
    92
370
    13
100
AcDbEllipse
 10
4675.430917458078
 20
2876.053590301855
 30
0.0
 11
11.36181697857171
 21
42.40287823032828
 31
0.0
210
0.0
220
0.0
230
0.9999999999999999
 40
0.6
 41
1.570796326794897
 42
4.71238898038469
  0
LINE
  5
AC
330
1F
100
AcDbEntity
  8
0-A_文字
  6
Continuous
 62
    92
370
    13
100
AcDbLine
 10
-5659.999495325866
 20
3730.000181456215
 30
0.0
 11
-5659.999495325866
 21
4000.000181456215
 31
0.0
  0
MTEXT
  5
AD
330
1F
100
AcDbEntity
  8
F-A_文字
  6
Continuous
 62
     7
370
     0
100
AcDbMText
 10
3689.917643811962
 20
-3946.903115907308
 30
0.0
 40
76.19999999999999
 41
150.0
 46
0.0
 71
     7
 72
     1
  1
{\fＭＳ ゴシック|b0|i0|c128|p49;1/5}
 73
     1
 44
1.0
  0
MTEXT
  5
AE
330
1F
100
AcDbEntity
  8
0-A_文字
  6
Continuous
 62
    92
370
    13
100
AcDbMText
 10
-5592.499495325865
 20
3758.977681456215
 30
0.0
 40
147.955
 41
3495.0
 46
0.0
 71
     7
 72
     1
  1
{\fＭＳ ゴシック|b0|i0|c128|p49;クローゼットドア　調整枠　間口１２尺}
 73
     1
 44
1.0
  0
LINE
  5
AF
330
1F
100
AcDbEntity
  8
0-A_文字
  6
Continuous
 62
    92
370
    13
100
AcDbLine
 10
-2050.0
 20
3730.000181456215
 30
0.0
 11
-2050.0
 21
4000.000181456215
 31
0.0
  0
LINE
  5
B0
330
1F
100
AcDbEntity
  8
0-A_文字
  6
Continuous
 62
    92
370
    13
100
AcDbLine
 10
-5659.999495325866
 20
4000.000181456215
 30
0.0
 11
-2050.0
 21
4000.000181456215
 31
0.0
  0
LINE
  5
B1
330
1F
100
AcDbEntity
  8
0-A_文字
  6
Continuous
 62
    92
370
    13
100
AcDbLine
 10
-5659.999495325866
 20
3730.000181456215
 30
0.0
 11
-2050.0
 21
3730.000181456215
 31
0.0
  0
MTEXT
  5
B2
330
1F
100
AcDbEntity
  8
F-A_文字
  6
Continuous
 62
     7
370
     0
100
AcDbMText
 10
-5080.081323642279
 20
-4045.064631200341
 30
0.0
 40
79.87060975609751
 41
4297.5
 46
0.0
 71
     7
 72
     1
  1
{\fＭＳ ゴシック|b0|i0|c128|p49;ドレタス　クローゼットドア  調整枠　３方枠＋埋め込みレール　枠外H2,348　枠外W3,393}
 73
     1
 44
1.0
  0
MTEXT
  5
B3
330
1F
100
AcDbEntity
  8
F-A_文字
  6
Continuous
 62
     7
370
     9
100
AcDbMText
 10
5096.167700144057
 20
-4147.857012699984
 30
0.0
 40
74.295
 41
97.5
 46
0.0
 71
     7
 72
     1
  1
{\fＭＳ ゴシック|b0|i0|c128|p49;05}
 73
     1
 44
1.0
  0
LINE
  5
B4
330
1F
100
AcDbEntity
  8
0-0_補助線
  6
JWW_HOJO
 62
   120
370
     5
100
AcDbLine
 10
1920.310144901905
 20
2781.94514659684
 30
0.0
 11
-3623.689459194383
 21
2781.94514659684
 31
0.0
  0
LINE
  5
B5
330
1F
100
AcDbEntity
  8
0-0_補助線
  6
JWW_HOJO
 62
   120
370
     5
100
AcDbLine
 10
1920.310144901905
 20
3141.94514659684
 30
0.0
 11
-3623.689459194383
 21
3141.94514659684
 31
0.0
  0
LINE
  5
B6
330
1F
100
AcDbEntity
  8
0-0_補助線
  6
JWW_HOJO
 62
   120
370
     5
100
AcDbLine
 10
1920.310144901905
 20
2961.94514659684
 30
0.0
 11
-3623.689459194383
 21
2961.94514659684
 31
0.0
  0
LINE
  5
B7
330
1F
100
AcDbEntity
  8
0-1_通り芯
  6
JWW_CENTER1
 62
   120
370
     5
100
AcDbLine
 10
1920.310144901905
 20
2361.94514659684
 30
0.0
 11
-3623.689459194383
 21
2361.94514659684
 31
0.0
  0
LINE
  5
B8
330
1F
100
AcDbEntity
  8
0-0_補助線
  6
Continuous
 62
   120
370
     5
100
AcDbLine
 10
-2843.689657146242
 20
2324.359196304377
 30
0.0
 11
-2858.689657146242
 21
2324.359196304377
 31
0.0
  0
LWPOLYLINE
  5
B9
330
1F
100
AcDbEntity
  8
0-0_補助線
  6
Continuous
 62
     7
370
     9
100
AcDbPolyline
 90
        4
 70
     1
 43
3.0
 10
-2842.189657146242
 20
2324.359196304377
 42
0.4142135623731
 10
-2843.689657146242
 20
2325.859196304377
 42
0.4142135623731
 10
-2845.189657146242
 20
2324.359196304377
 42
0.4142135623731
 10
-2843.689657146242
 20
2322.859196304377
 42
0.4142135623731
  0
LWPOLYLINE
  5
BA
330
1F
100
AcDbEntity
  8
0-0_補助線
  6
Continuous
 62
     7
370
     9
100
AcDbPolyline
 90
        4
 70
     1
 43
3.0
 10
-2857.189657146242
 20
2324.359196304377
 42
0.4142135623731
 10
-2858.689657146242
 20
2325.859196304377
 42
0.4142135623731
 10
-2860.189657146242
 20
2324.359196304377
 42
0.4142135623731
 10
-2858.689657146242
 20
2322.859196304377
 42
0.4142135623731
  0
LINE
  5
BB
330
1F
100
AcDbEntity
  8
0-0_補助線
  6
Continuous
 62
   120
370
     5
100
AcDbLine
 10
-2843.689657146242
 20
2324.359196304377
 30
0.0
 11
-2843.689657146242
 21
2405.688459527563
 31
0.0
  0
LINE
  5
BC
330
1F
100
AcDbEntity
  8
0-0_補助線
  6
Continuous
 62
   120
370
     5
100
AcDbLine
 10
-2858.689657146242
 20
2324.359196304377
 30
0.0
 11
-2858.689657146242
 21
2405.688459527563
 31
0.0
  0
LINE
  5
BD
330
1F
100
AcDbEntity
  8
0-0_補助線
  6
Continuous
 62
   120
370
     5
100
AcDbLine
 10
-2858.689657146242
 20
2324.359196304377
 30
0.0
 11
-2879.689657146241
 21
2324.359196304377
 31
0.0
  0
LWPOLYLINE
  5
BE
330
1F
100
AcDbEntity
  8
0-0_補助線
  6
Continuous
 62
     7
370
     9
100
AcDbPolyline
 90
        4
 70
     1
 43
3.0
 10
-2878.189657146241
 20
2324.359196304377
 42
0.4142135623731
 10
-2879.689657146241
 20
2325.859196304377
 42
0.4142135623731
 10
-2881.189657146241
 20
2324.359196304377
 42
0.4142135623731
 10
-2879.689657146241
 20
2322.859196304377
 42
0.4142135623731
  0
LINE
  5
BF
330
1F
100
AcDbEntity
  8
0-0_補助線
  6
Continuous
 62
   120
370
     5
100
AcDbLine
 10
-2879.689657146241
 20
2324.359196304377
 30
0.0
 11
-2879.689657146241
 21
2405.688459527563
 31
0.0
  0
MTEXT
  5
C0
330
1F
100
AcDbEntity
  8
0-0_補助線
  6
Continuous
 62
     7
370
   211
100
AcDbMText
 10
-3037.094878837587
 20
2325.079196304378
 30
0.0
 40
91.43999999999912
 41
179.9999999999983
 46
0.0
 71
     7
 72
     1
  1
{\fＭＳ ゴシック|b0|i0|c128|p49;3.5}
 73
     1
 44
1.0
  0
LINE
  5
C1
330
1F
100
AcDbEntity
  8
0-7_金物
  6
Continuous
 62
     7
370
     9
100
AcDbLine
 10
1338.3100063356
 20
2271.945220828786
 30
0.0
 11
1338.3100063356
 21
2451.945072364892
 31
0.0
  0
LINE
  5
C2
330
1F
100
AcDbEntity
  8
0-7_金物
  6
Continuous
 62
     7
370
     9
100
AcDbLine
 10
1350.310342853759
 20
2451.945072364892
 30
0.0
 11
1338.3100063356
 21
2451.945072364892
 31
0.0
  0
LINE
  5
C3
330
1F
100
AcDbEntity
  8
0-7_金物
  6
Continuous
 62
     7
370
     9
100
AcDbLine
 10
1350.310342853759
 20
2271.945220828786
 30
0.0
 11
1338.3100063356
 21
2271.945220828786
 31
0.0
  0
LINE
  5
C4
330
1F
100
AcDbEntity
  8
0-7_金物
  6
Continuous
 62
     7
370
     9
100
AcDbLine
 10
1338.3100063356
 20
2301.945319804714
 30
0.0
 11
1326.310412136909
 21
2301.945319804714
 31
0.0
  0
LINE
  5
C5
330
1F
100
AcDbEntity
  8
0-7_金物
  6
Continuous
 62
     7
370
     9
100
AcDbLine
 10
1338.3100063356
 20
2421.944973388963
 30
0.0
 11
1326.310412136909
 21
2421.944973388963
 31
0.0
  0
LINE
  5
C6
330
1F
100
AcDbEntity
  8
0-7_金物
  6
Continuous
 62
     7
370
     9
100
AcDbLine
 10
1326.310412136909
 20
2301.945319804714
 30
0.0
 11
1326.310412136909
 21
2421.944973388963
 31
0.0
  0
LINE
  5
C7
330
1F
100
AcDbEntity
  8
0-7_金物
  6
Continuous
 62
     7
370
     9
100
AcDbLine
 10
1326.310412136909
 20
2415.945547449352
 30
0.0
 11
1320.310342853759
 21
2415.945547449352
 31
0.0
  0
LINE
  5
C8
330
1F
100
AcDbEntity
  8
0-7_金物
  6
Continuous
 62
     7
370
     9
100
AcDbLine
 10
1326.310412136909
 20
2307.945488063794
 30
0.0
 11
1320.310342853759
 21
2307.945488063794
 31
0.0
  0
LINE
  5
C9
330
1F
100
AcDbEntity
  8
0-7_金物
  6
Continuous
 62
     7
370
     9
100
AcDbLine
 10
1350.310342853759
 20
2271.945220828786
 30
0.0
 11
1350.310342853759
 21
2451.945072364892
 31
0.0
  0
LINE
  5
CA
330
1F
100
AcDbEntity
  8
0-7_金物
  6
Continuous
 62
     7
370
     9
100
AcDbLine
 10
-3041.689320628083
 20
2271.945220828786
 30
0.0
 11
-3041.689320628083
 21
2451.945072364892
 31
0.0
  0
LINE
  5
CB
330
1F
100
AcDbEntity
  8
0-7_金物
  6
Continuous
 62
     7
370
     9
100
AcDbLine
 10
-3053.689657146242
 20
2451.945072364892
 30
0.0
 11
-3041.689320628083
 21
2451.945072364892
 31
0.0
  0
LINE
  5
CC
330
1F
100
AcDbEntity
  8
0-7_金物
  6
Continuous
 62
     7
370
     9
100
AcDbLine
 10
-3053.689657146242
 20
2271.945220828786
 30
0.0
 11
-3041.689320628083
 21
2271.945220828786
 31
0.0
  0
LINE
  5
CD
330
1F
100
AcDbEntity
  8
0-7_金物
  6
Continuous
 62
     7
370
     9
100
AcDbLine
 10
-3041.689320628083
 20
2301.945319804714
 30
0.0
 11
-3029.689726429392
 21
2301.945319804714
 31
0.0
  0
LINE
  5
CE
330
1F
100
AcDbEntity
  8
0-7_金物
  6
Continuous
 62
     7
370
     9
100
AcDbLine
 10
-3041.689320628083
 20
2421.944973388963
 30
0.0
 11
-3029.689726429392
 21
2421.944973388963
 31
0.0
  0
LINE
  5
CF
330
1F
100
AcDbEntity
  8
0-7_金物
  6
Continuous
 62
     7
370
     9
100
AcDbLine
 10
-3029.689726429392
 20
2301.945319804714
 30
0.0
 11
-3029.689726429392
 21
2421.944973388963
 31
0.0
  0
LINE
  5
D0
330
1F
100
AcDbEntity
  8
0-7_金物
  6
Continuous
 62
     7
370
     9
100
AcDbLine
 10
-3029.689726429392
 20
2415.945547449352
 30
0.0
 11
-3023.689657146242
 21
2415.945547449352
 31
0.0
  0
LINE
  5
D1
330
1F
100
AcDbEntity
  8
0-7_金物
  6
Continuous
 62
     7
370
     9
100
AcDbLine
 10
-3029.689726429392
 20
2307.945488063794
 30
0.0
 11
-3023.689657146242
 21
2307.945488063794
 31
0.0
  0
LINE
  5
D2
330
1F
100
AcDbEntity
  8
0-7_金物
  6
Continuous
 62
     7
370
     9
100
AcDbLine
 10
-3053.689657146242
 20
2271.945220828786
 30
0.0
 11
-3053.689657146242
 21
2451.945072364892
 31
0.0
  0
MTEXT
  5
D3
330
1F
100
AcDbEntity
  8
0-0_補助線
  6
Continuous
 62
     7
370
   211
100
AcDbMText
 10
-2833.303202233893
 20
2325.079196304378
 30
0.0
 40
91.43999999999912
 41
179.9999999999983
 46
0.0
 71
     7
 72
     1
  1
{\fＭＳ ゴシック|b0|i0|c128|p49;2.5}
 73
     1
 44
1.0
  0
MTEXT
  5
D4
330
1F
100
AcDbEntity
  8
0-3_仕上げ
  6
Continuous
 62
     7
370
   211
100
AcDbMText
 10
-2524.359306424998
 20
2287.665022876921
 30
0.0
 40
91.44
 41
120.0
 46
0.0
 71
     7
 72
     1
  1
{\fＭＳ ゴシック|b0|i0|c128|p49;77}
 11
6.123031769111886E-17
 21
1.0
 31
0.0
 73
     1
 44
1.0
  0
LINE
  5
D5
330
1F
100
AcDbEntity
  8
0-B_寸法
  6
Continuous
 62
   120
370
     5
100
AcDbLine
 10
-3053.689657146242
 20
3141.94514659684
 30
0.0
 11
1350.310342853759
 21
3141.94514659684
 31
0.0
  0
LWPOLYLINE
  5
D6
330
1F
100
AcDbEntity
  8
0-B_寸法
  6
Continuous
 62
     7
370
     9
100
AcDbPolyline
 90
        4
 70
     1
 43
3.0
 10
-3052.189657146242
 20
3141.94514659684
 42
0.4142135623731
 10
-3053.689657146242
 20
3143.445146596839
 42
0.4142135623731
 10
-3055.189657146242
 20
3141.94514659684
 42
0.4142135623731
 10
-3053.689657146242
 20
3140.44514659684
 42
0.4142135623731
  0
LWPOLYLINE
  5
D7
330
1F
100
AcDbEntity
  8
0-B_寸法
  6
Continuous
 62
     7
370
     9
100
AcDbPolyline
 90
        4
 70
     1
 43
3.0
 10
1351.810342853759
 20
3141.94514659684
 42
0.4142135623731
 10
1350.310342853759
 20
3143.445146596839
 42
0.4142135623731
 10
1348.81034285376
 20
3141.94514659684
 42
0.4142135623731
 10
1350.310342853759
 20
3140.44514659684
 42
0.4142135623731
  0
LINE
  5
D8
330
1F
100
AcDbEntity
  8
0-B_寸法
  6
Continuous
 62
   120
370
     5
100
AcDbLine
 10
-3053.689657146242
 20
3141.94514659684
 30
0.0
 11
-3053.689657146242
 21
2781.94514659684
 31
0.0
  0
LINE
  5
D9
330
1F
100
AcDbEntity
  8
0-B_寸法
  6
Continuous
 62
   120
370
     5
100
AcDbLine
 10
1350.310342853759
 20
3141.94514659684
 30
0.0
 11
1350.310342853759
 21
2781.94514659684
 31
0.0
  0
ARC
  5
DA
330
1F
100
AcDbEntity
  8
0-6_扉
  6
JWW_DASHED2
 62
    40
370
    15
100
AcDbCircle
 10
859.2269827434077
 20
2557.712520567019
 30
0.0
 40
18.0
100
AcDbArc
 50
85.6539792783598
 51
175.65397927836
  0
LINE
  5
DB
330
1F
100
AcDbEntity
  8
0-6_扉
  6
JWW_DASHED2
 62
    40
370
    15
100
AcDbLine
 10
950.3322294456418
 20
2568.840594224459
 30
0.0
 11
860.5910165286018
 21
2575.660763150428
 31
0.0
  0
ARC
  5
DC
330
1F
100
AcDbEntity
  8
0-6_扉
  6
JWW_DASHED2
 62
    40
370
    15
100
AcDbCircle
 10
948.968195660447
 20
2550.89235164105
 30
0.0
 40
18.0
100
AcDbArc
 50
355.6539792783599
 51
85.6539792783597
  0
ARC
  5
DD
330
1F
100
AcDbEntity
  8
0-6_扉
  6
JWW_DASHED2
 62
    40
370
    15
100
AcDbCircle
 10
515.9997983542066
 20
2557.712520567022
 30
0.0
 40
18.0
100
AcDbArc
 50
4.346020721638975
 51
94.34602072163908
  0
LINE
  5
DE
330
1F
100
AcDbEntity
  8
0-6_扉
  6
JWW_DASHED2
 62
    40
370
    15
100
AcDbLine
 10
424.8945516519734
 20
2568.840594224464
 30
0.0
 11
514.6357645690114
 21
2575.660763150431
 31
0.0
  0
ARC
  5
DF
330
1F
100
AcDbEntity
  8
0-6_扉
  6
JWW_DASHED2
 62
    40
370
    15
100
AcDbCircle
 10
426.2585854371662
 20
2550.892351641055
 30
0.0
 40
18.0
100
AcDbArc
 50
94.34602072163908
 51
184.3460207216391
  0
LINE
  5
E0
330
1F
100
AcDbEntity
  8
0-6_扉
  6
JWW_DASHED2
 62
    40
370
    15
100
AcDbLine
 10
966.9164382438546
 20
2549.528317855859
 30
0.0
 11
933.2809223681353
 21
2106.94514659684
 31
0.0
  0
LINE
  5
E1
330
1F
100
AcDbEntity
  8
0-6_扉
  6
JWW_DASHED2
 62
    40
370
    15
100
AcDbLine
 10
408.3103428537606
 20
2549.528317855864
 30
0.0
 11
441.9458587294719
 21
2106.94514659684
 31
0.0
  0
LINE
  5
E2
330
1F
100
AcDbEntity
  8
0-6_扉
  6
JWW_DASHED2
 62
    40
370
    15
100
AcDbLine
 10
533.9480409376131
 20
2559.076554352217
 30
0.0
 11
568.3092054170539
 21
2106.94514659684
 31
0.0
  0
LINE
  5
E3
330
1F
100
AcDbEntity
  8
0-6_扉
  6
JWW_DASHED2
 62
    40
370
    15
100
AcDbLine
 10
841.2787401600009
 20
2559.076554352213
 30
0.0
 11
806.9175756805523
 21
2106.94514659684
 31
0.0
  0
LINE
  5
E4
330
1F
100
AcDbEntity
  8
0-1_通り芯
  6
JWW_CENTER1
 62
   120
370
     5
100
AcDbLine
 10
408.3103428537598
 20
2781.94514659684
 30
0.0
 11
408.3103428537598
 21
2549.528317855864
 31
0.0
  0
LWPOLYLINE
  5
E5
330
1F
100
AcDbEntity
  8
0-B_寸法
  6
Continuous
 62
     7
370
     9
100
AcDbPolyline
 90
        4
 70
     1
 43
3.0
 10
409.8103428537598
 20
2961.94514659684
 42
0.4142135623731
 10
408.3103428537598
 20
2963.445146596839
 42
0.4142135623731
 10
406.8103428537598
 20
2961.94514659684
 42
0.4142135623731
 10
408.3103428537598
 20
2960.44514659684
 42
0.4142135623731
  0
LINE
  5
E6
330
1F
100
AcDbEntity
  8
0-B_寸法
  6
Continuous
 62
   120
370
     5
100
AcDbLine
 10
408.3103428537598
 20
2961.94514659684
 30
0.0
 11
408.3103428537598
 21
2781.94514659684
 31
0.0
  0
ARC
  5
E7
330
1F
100
AcDbEntity
  8
0-6_扉
  6
JWW_DASHED2
 62
    40
370
    15
100
AcDbCircle
 10
-2562.60629703589
 20
2557.712520567019
 30
0.0
 40
18.0
100
AcDbArc
 50
4.346020721640005
 51
94.34602072164022
  0
LINE
  5
E8
330
1F
100
AcDbEntity
  8
0-6_扉
  6
JWW_DASHED2
 62
    40
370
    15
100
AcDbLine
 10
-2653.711543738124
 20
2568.840594224459
 30
0.0
 11
-2563.970330821084
 21
2575.660763150428
 31
0.0
  0
ARC
  5
E9
330
1F
100
AcDbEntity
  8
0-6_扉
  6
JWW_DASHED2
 62
    40
370
    15
100
AcDbCircle
 10
-2652.347509952931
 20
2550.89235164105
 30
0.0
 40
18.0
100
AcDbArc
 50
94.3460207216403
 51
184.3460207216401
  0
ARC
  5
EA
330
1F
100
AcDbEntity
  8
0-6_扉
  6
JWW_DASHED2
 62
    40
370
    15
100
AcDbCircle
 10
-2219.379112646688
 20
2557.712520567022
 30
0.0
 40
18.0
100
AcDbArc
 50
85.65397927836092
 51
175.653979278361
  0
LINE
  5
EB
330
1F
100
AcDbEntity
  8
0-6_扉
  6
JWW_DASHED2
 62
    40
370
    15
100
AcDbLine
 10
-2128.273865944456
 20
2568.840594224464
 30
0.0
 11
-2218.015078861494
 21
2575.660763150431
 31
0.0
  0
ARC
  5
EC
330
1F
100
AcDbEntity
  8
0-6_扉
  6
JWW_DASHED2
 62
    40
370
    15
100
AcDbCircle
 10
-2129.637899729648
 20
2550.892351641055
 30
0.0
 40
18.0
100
AcDbArc
 50
355.653979278361
 51
85.65397927836094
  0
LINE
  5
ED
330
1F
100
AcDbEntity
  8
0-6_扉
  6
JWW_DASHED2
 62
    40
370
    15
100
AcDbLine
 10
-2670.295752536337
 20
2549.528317855859
 30
0.0
 11
-2636.660236660618
 21
2106.94514659684
 31
0.0
  0
LINE
  5
EE
330
1F
100
AcDbEntity
  8
0-6_扉
  6
JWW_DASHED2
 62
    40
370
    15
100
AcDbLine
 10
-2111.689657146243
 20
2549.528317855864
 30
0.0
 11
-2145.325173021954
 21
2106.94514659684
 31
0.0
  0
LINE
  5
EF
330
1F
100
AcDbEntity
  8
0-6_扉
  6
JWW_DASHED2
 62
    40
370
    15
100
AcDbLine
 10
-2237.327355230095
 20
2559.076554352217
 30
0.0
 11
-2271.688519709535
 21
2106.94514659684
 31
0.0
  0
LINE
  5
F0
330
1F
100
AcDbEntity
  8
0-6_扉
  6
JWW_DASHED2
 62
    40
370
    15
100
AcDbLine
 10
-2544.658054452484
 20
2559.076554352213
 30
0.0
 11
-2510.296889973034
 21
2106.94514659684
 31
0.0
  0
LINE
  5
F1
330
1F
100
AcDbEntity
  8
0-1_通り芯
  6
JWW_CENTER1
 62
   120
370
     5
100
AcDbLine
 10
-2111.689657146241
 20
2781.94514659684
 30
0.0
 11
-2111.689657146241
 21
2549.528317855864
 31
0.0
  0
LWPOLYLINE
  5
F2
330
1F
100
AcDbEntity
  8
0-B_寸法
  6
Continuous
 62
     7
370
     9
100
AcDbPolyline
 90
        4
 70
     1
 43
3.0
 10
-2110.189657146241
 20
2961.94514659684
 42
0.4142135623731
 10
-2111.689657146241
 20
2963.445146596839
 42
0.4142135623731
 10
-2113.189657146241
 20
2961.94514659684
 42
0.4142135623731
 10
-2111.689657146241
 20
2960.44514659684
 42
0.4142135623731
  0
LINE
  5
F3
330
1F
100
AcDbEntity
  8
0-B_寸法
  6
Continuous
 62
   120
370
     5
100
AcDbLine
 10
-2111.689657146241
 20
2961.94514659684
 30
0.0
 11
-2111.689657146241
 21
2781.94514659684
 31
0.0
  0
LINE
  5
F4
330
1F
100
AcDbEntity
  8
0-B_寸法
  6
Continuous
 62
   120
370
     5
100
AcDbLine
 10
-2111.689657146241
 20
2961.94514659684
 30
0.0
 11
408.3103428537598
 21
2961.94514659684
 31
0.0
  0
LINE
  5
F5
330
1F
100
AcDbEntity
  8
0-C_ハッチ
  6
Continuous
 62
   120
370
     5
100
AcDbLine
 10
-3023.689657146237
 20
2387.264773392529
 30
0.0
 11
-2843.689657146242
 21
2567.264773392526
 31
0.0
  0
LINE
  5
F6
330
1F
100
AcDbEntity
  8
0-C_ハッチ
  6
Continuous
 62
   120
370
     5
100
AcDbLine
 10
-3023.689657146244
 20
2327.867803772819
 30
0.0
 11
-2843.689657146256
 21
2507.86780377281
 31
0.0
  0
LINE
  5
F7
330
1F
100
AcDbEntity
  8
0-C_ハッチ
  6
Continuous
 62
   120
370
     5
100
AcDbLine
 10
-3023.689657146242
 20
2268.470834153177
 30
0.0
 11
-2874.591640386995
 21
2417.568850912423
 31
0.0
  0
LINE
  5
F8
330
1F
100
AcDbEntity
  8
0-C_ハッチ
  6
Continuous
 62
   120
370
     5
100
AcDbLine
 10
-3023.689657146235
 20
2209.073864533535
 30
0.0
 11
-2879.564636367415
 21
2353.198885312356
 31
0.0
  0
ARC
  5
F9
330
1F
100
AcDbEntity
  8
0-4_枠
  6
Continuous
 62
    92
370
    13
100
AcDbCircle
 10
-2573.689657146239
 20
2361.94514659684
 30
0.0
 40
306.0000000000022
100
AcDbArc
 50
151.9275130641473
 51
208.0724869358527
  0
LINE
  5
FA
330
1F
100
AcDbEntity
  8
0-4_枠
  6
Continuous
 62
    92
370
    13
100
AcDbLine
 10
-2957.689657146241
 20
2190.946220485669
 30
0.0
 11
-2903.689657146242
 21
2190.946220485669
 31
0.0
  0
LINE
  5
FB
330
1F
100
AcDbEntity
  8
0-4_枠
  6
Continuous
 62
    92
370
    13
100
AcDbLine
 10
-3023.689657146242
 20
2172.946220485668
 30
0.0
 11
-2993.689657146242
 21
2172.946220485668
 31
0.0
  0
LINE
  5
FC
330
1F
100
AcDbEntity
  8
0-4_枠
  6
Continuous
 62
    92
370
    13
100
AcDbLine
 10
-2993.689657146242
 20
2130.946220485669
 30
0.0
 11
-2993.689657146242
 21
2172.946220485668
 31
0.0
  0
LINE
  5
FD
330
1F
100
AcDbEntity
  8
0-4_枠
  6
Continuous
 62
    92
370
    13
100
AcDbLine
 10
-2957.689657146241
 20
2130.946220485669
 30
0.0
 11
-2957.689657146241
 21
2190.946220485669
 31
0.0
  0
LINE
  5
FE
330
1F
100
AcDbEntity
  8
0-4_枠
  6
Continuous
 62
    92
370
    13
100
AcDbLine
 10
-2993.689657146242
 20
2130.946220485669
 30
0.0
 11
-2957.689657146241
 21
2130.946220485669
 31
0.0
  0
LINE
  5
FF
330
1F
100
AcDbEntity
  8
0-4_枠
  6
Continuous
 62
    92
370
    13
100
AcDbLine
 10
-2903.689657146242
 20
2130.946220485669
 30
0.0
 11
-2903.689657146242
 21
2190.946220485669
 31
0.0
  0
LINE
  5
100
330
1F
100
AcDbEntity
  8
0-4_枠
  6
Continuous
 62
    92
370
    13
100
AcDbLine
 10
-2903.689657146242
 20
2130.946220485669
 30
0.0
 11
-2888.277614179119
 21
2130.946220485669
 31
0.0
  0
LINE
  5
101
330
1F
100
AcDbEntity
  8
0-4_枠
  6
Continuous
 62
    92
370
    13
100
AcDbLine
 10
-2888.277614179119
 20
2130.946220485669
 30
0.0
 11
-2843.689657146242
 21
2130.946220485669
 31
0.0
  0
LINE
  5
102
330
1F
100
AcDbEntity
  8
0-4_枠
  6
Continuous
 62
    92
370
    13
100
AcDbLine
 10
-2843.689657146242
 20
2130.946220485669
 30
0.0
 11
-2843.689657146242
 21
2217.94514659684
 31
0.0
  0
LINE
  5
103
330
1F
100
AcDbEntity
  8
0-4_枠
  6
Continuous
 62
    92
370
    13
100
AcDbLine
 10
-3023.689657146242
 20
2172.946220485668
 30
0.0
 11
-3023.689657146242
 21
2592.946220485668
 31
0.0
  0
LINE
  5
104
330
1F
100
AcDbEntity
  8
0-C_ハッチ
  6
Continuous
 62
   120
370
     5
100
AcDbLine
 10
-3023.689657146256
 20
2565.455682251506
 30
0.0
 11
-2996.199118912095
 21
2592.946220485668
 31
0.0
  0
LINE
  5
105
330
1F
100
AcDbEntity
  8
0-C_ハッチ
  6
Continuous
 62
   120
370
     5
100
AcDbLine
 10
-3023.689657146251
 20
2446.661743012163
 30
0.0
 11
-2877.405179672746
 21
2592.946220485668
 31
0.0
  0
LINE
  5
106
330
1F
100
AcDbEntity
  8
0-C_ハッチ
  6
Continuous
 62
   120
370
     5
100
AcDbLine
 10
-3023.689657146238
 20
2506.058712631876
 30
0.0
 11
-2936.80214929245
 21
2592.946220485668
 31
0.0
  0
LINE
  5
107
330
1F
100
AcDbEntity
  8
0-4_枠
  6
Continuous
 62
    92
370
    13
100
AcDbLine
 10
-2843.689657146242
 20
2505.945146596838
 30
0.0
 11
-2843.689657146242
 21
2592.946220485668
 31
0.0
  0
LINE
  5
108
330
1F
100
AcDbEntity
  8
0-4_枠
  6
Continuous
 62
    92
370
    13
100
AcDbLine
 10
-3023.689657146242
 20
2592.946220485668
 30
0.0
 11
-2843.689657146242
 21
2592.946220485668
 31
0.0
  0
LINE
  5
109
330
1F
100
AcDbEntity
  8
0-C_ハッチ
  6
Continuous
 62
   120
370
     5
100
AcDbLine
 10
-3000.4203315744
 20
2172.946220485668
 30
0.0
 11
-2873.356261282608
 21
2300.010290777461
 31
0.0
  0
LINE
  5
10A
330
1F
100
AcDbEntity
  8
0-C_ハッチ
  6
Continuous
 62
   120
370
     5
100
AcDbLine
 10
-2923.023361954753
 20
2190.946220485669
 30
0.0
 11
-2860.004647740117
 21
2253.964934700305
 31
0.0
  0
LINE
  5
10B
330
1F
100
AcDbEntity
  8
0-C_ハッチ
  6
Continuous
 62
   120
370
     5
100
AcDbLine
 10
-2983.023361954753
 20
2130.946220485669
 30
0.0
 11
-2957.689657146241
 21
2156.27992529418
 31
0.0
  0
LINE
  5
10C
330
1F
100
AcDbEntity
  8
0-C_ハッチ
  6
Continuous
 62
   120
370
     5
100
AcDbLine
 10
-2903.689657146242
 20
2150.882955674478
 30
0.0
 11
-2843.689657146244
 21
2210.882955674476
 31
0.0
  0
LINE
  5
10D
330
1F
100
AcDbEntity
  8
0-C_ハッチ
  6
Continuous
 62
   120
370
     5
100
AcDbLine
 10
-2864.229422715404
 20
2130.946220485669
 30
0.0
 11
-2843.689657146249
 21
2151.485986054824
 31
0.0
  0
ARC
  5
10E
330
1F
100
AcDbEntity
  8
0-4_枠
  6
Continuous
 62
    92
370
    13
100
AcDbCircle
 10
870.310342853757
 20
2361.94514659684
 30
0.0
 40
306.0000000000022
100
AcDbArc
 50
331.9275130641473
 51
28.07248693585271
  0
LINE
  5
10F
330
1F
100
AcDbEntity
  8
0-4_枠
  6
Continuous
 62
    92
370
    13
100
AcDbLine
 10
1254.31034285376
 20
2190.946220485669
 30
0.0
 11
1200.310342853759
 21
2190.946220485669
 31
0.0
  0
LINE
  5
110
330
1F
100
AcDbEntity
  8
0-4_枠
  6
Continuous
 62
    92
370
    13
100
AcDbLine
 10
1320.310342853759
 20
2172.946220485668
 30
0.0
 11
1290.310342853759
 21
2172.946220485668
 31
0.0
  0
LINE
  5
111
330
1F
100
AcDbEntity
  8
0-4_枠
  6
Continuous
 62
    92
370
    13
100
AcDbLine
 10
1290.310342853759
 20
2130.946220485669
 30
0.0
 11
1290.310342853759
 21
2172.946220485668
 31
0.0
  0
LINE
  5
112
330
1F
100
AcDbEntity
  8
0-4_枠
  6
Continuous
 62
    92
370
    13
100
AcDbLine
 10
1254.31034285376
 20
2130.946220485669
 30
0.0
 11
1254.31034285376
 21
2190.946220485669
 31
0.0
  0
LINE
  5
113
330
1F
100
AcDbEntity
  8
0-4_枠
  6
Continuous
 62
    92
370
    13
100
AcDbLine
 10
1290.310342853759
 20
2130.946220485669
 30
0.0
 11
1254.31034285376
 21
2130.946220485669
 31
0.0
  0
LINE
  5
114
330
1F
100
AcDbEntity
  8
0-4_枠
  6
Continuous
 62
    92
370
    13
100
AcDbLine
 10
1200.310342853759
 20
2130.946220485669
 30
0.0
 11
1200.310342853759
 21
2190.946220485669
 31
0.0
  0
LINE
  5
115
330
1F
100
AcDbEntity
  8
0-4_枠
  6
Continuous
 62
    92
370
    13
100
AcDbLine
 10
1200.310342853759
 20
2130.946220485669
 30
0.0
 11
1184.898299886636
 21
2130.946220485669
 31
0.0
  0
LINE
  5
116
330
1F
100
AcDbEntity
  8
0-4_枠
  6
Continuous
 62
    92
370
    13
100
AcDbLine
 10
1184.898299886636
 20
2130.946220485669
 30
0.0
 11
1140.310342853759
 21
2130.946220485669
 31
0.0
  0
LINE
  5
117
330
1F
100
AcDbEntity
  8
0-4_枠
  6
Continuous
 62
    92
370
    13
100
AcDbLine
 10
1140.310342853759
 20
2130.946220485669
 30
0.0
 11
1140.310342853759
 21
2217.94514659684
 31
0.0
  0
LINE
  5
118
330
1F
100
AcDbEntity
  8
0-4_枠
  6
Continuous
 62
    92
370
    13
100
AcDbLine
 10
1320.310342853759
 20
2172.946220485668
 30
0.0
 11
1320.310342853759
 21
2592.946220485668
 31
0.0
  0
LINE
  5
119
330
1F
100
AcDbEntity
  8
0-4_枠
  6
Continuous
 62
    92
370
    13
100
AcDbLine
 10
1140.310342853759
 20
2505.945146596838
 30
0.0
 11
1140.310342853759
 21
2592.946220485668
 31
0.0
  0
LINE
  5
11A
330
1F
100
AcDbEntity
  8
0-4_枠
  6
Continuous
 62
    92
370
    13
100
AcDbLine
 10
1320.310342853759
 20
2592.946220485668
 30
0.0
 11
1140.310342853759
 21
2592.946220485668
 31
0.0
  0
LINE
  5
11B
330
1F
100
AcDbEntity
  8
0-C_ハッチ
  6
Continuous
 62
   120
370
     5
100
AcDbLine
 10
1269.335584189528
 20
2130.946220485669
 30
0.0
 11
1290.310342853763
 21
2151.920979149904
 31
0.0
  0
LINE
  5
11C
330
1F
100
AcDbEntity
  8
0-C_ハッチ
  6
Continuous
 62
   120
370
     5
100
AcDbLine
 10
1311.335584189515
 20
2172.946220485655
 30
0.0
 11
1320.310342853775
 21
2181.920979149914
 31
0.0
  0
LINE
  5
11D
330
1F
100
AcDbEntity
  8
0-C_ハッチ
  6
Continuous
 62
   120
370
     5
100
AcDbLine
 10
1254.310342853743
 20
2175.317948769586
 30
0.0
 11
1320.310342853759
 21
2241.317948769601
 31
0.0
  0
LINE
  5
11E
330
1F
100
AcDbEntity
  8
0-C_ハッチ
  6
Continuous
 62
   120
370
     5
100
AcDbLine
 10
1150.541644950176
 20
2130.946220485665
 30
0.0
 11
1200.310342853763
 21
2180.714918389253
 31
0.0
  0
LINE
  5
11F
330
1F
100
AcDbEntity
  8
0-C_ハッチ
  6
Continuous
 62
   120
370
     5
100
AcDbLine
 10
1210.541644950177
 20
2190.946220485665
 30
0.0
 11
1320.310342853766
 21
2300.714918389256
 31
0.0
  0
LINE
  5
120
330
1F
100
AcDbEntity
  8
0-C_ハッチ
  6
Continuous
 62
   120
370
     5
100
AcDbLine
 10
1140.310342853768
 20
2180.111888008906
 30
0.0
 11
1320.310342853767
 21
2360.111888008903
 31
0.0
  0
LINE
  5
121
330
1F
100
AcDbEntity
  8
0-C_ハッチ
  6
Continuous
 62
   120
370
     5
100
AcDbLine
 10
1157.723003484482
 20
2256.92151825932
 30
0.0
 11
1320.310342853767
 21
2419.508857628606
 31
0.0
  0
LINE
  5
122
330
1F
100
AcDbEntity
  8
0-C_ハッチ
  6
Continuous
 62
   120
370
     5
100
AcDbLine
 10
1174.993684231947
 20
2333.589168626432
 30
0.0
 11
1320.310342853763
 21
2478.905827248249
 31
0.0
  0
LINE
  5
123
330
1F
100
AcDbEntity
  8
0-C_ハッチ
  6
Continuous
 62
   120
370
     5
100
AcDbLine
 10
1174.755997161721
 20
2392.748451175908
 30
0.0
 11
1320.310342853763
 21
2538.302796867952
 31
0.0
  0
LINE
  5
124
330
1F
100
AcDbEntity
  8
0-C_ハッチ
  6
Continuous
 62
   120
370
     5
100
AcDbLine
 10
1165.429653291441
 20
2442.819076925276
 30
0.0
 11
1315.556796851833
 21
2592.946220485668
 31
0.0
  0
LINE
  5
125
330
1F
100
AcDbEntity
  8
0-C_ハッチ
  6
Continuous
 62
   120
370
     5
100
AcDbLine
 10
1149.782790957062
 20
2486.569184210544
 30
0.0
 11
1256.159827232174
 21
2592.946220485656
 31
0.0
  0
LINE
  5
126
330
1F
100
AcDbEntity
  8
0-C_ハッチ
  6
Continuous
 62
   120
370
     5
100
AcDbLine
 10
1140.310342853767
 20
2536.493705726951
 30
0.0
 11
1196.762857612471
 21
2592.946220485655
 31
0.0
  0
MTEXT
  5
127
330
1F
100
AcDbEntity
  8
0-B_寸法
  6
Continuous
 62
     7
370
   211
100
AcDbMText
 10
-1241.68965714624
 20
3142.665146596839
 30
0.0
 40
91.43999999999981
 41
779.9999999999983
 46
0.0
 71
     7
 72
     1
  1
{\fＭＳ ゴシック|b0|i0|c128|p49;ＲＯＷ＝3,403}
 73
     1
 44
1.0
  0
LINE
  5
128
330
1F
100
AcDbEntity
  8
0-0_補助線
  6
JWW_HOJO
 62
   120
370
     5
100
AcDbLine
 10
-3623.689459194383
 20
1086.945146596839
 30
0.0
 11
-3623.689459194383
 21
3141.94514659684
 31
0.0
  0
LINE
  5
129
330
1F
100
AcDbEntity
  8
0-0_補助線
  6
JWW_HOJO
 62
   120
370
     5
100
AcDbLine
 10
1920.310144901905
 20
1086.945146596839
 30
0.0
 11
1920.310144901905
 21
3141.94514659684
 31
0.0
  0
LINE
  5
12A
330
1F
100
AcDbEntity
  8
0-0_補助線
  6
JWW_HOJO
 62
   120
370
     5
100
AcDbLine
 10
1920.310144901905
 20
1446.945146596839
 30
0.0
 11
-3623.689459194383
 21
1446.945146596839
 31
0.0
  0
LINE
  5
12B
330
1F
100
AcDbEntity
  8
0-0_補助線
  6
JWW_HOJO
 62
   120
370
     5
100
AcDbLine
 10
1920.310144901905
 20
1266.945146596839
 30
0.0
 11
-3623.689459194383
 21
1266.945146596839
 31
0.0
  0
LINE
  5
12C
330
1F
100
AcDbEntity
  8
0-0_補助線
  6
JWW_HOJO
 62
   120
370
     5
100
AcDbLine
 10
1920.310144901905
 20
1086.945146596839
 30
0.0
 11
-3623.689459194383
 21
1086.945146596839
 31
0.0
  0
LINE
  5
12D
330
1F
100
AcDbEntity
  8
0-0_補助線
  6
JWW_HOJO
 62
   120
370
     5
100
AcDbLine
 10
1920.310144901905
 20
1626.945146596839
 30
0.0
 11
-3623.689459194383
 21
1626.945146596839
 31
0.0
  0
LINE
  5
12E
330
1F
100
AcDbEntity
  8
0-0_補助線
  6
JWW_HOJO
 62
   120
370
     5
100
AcDbLine
 10
1920.310144901905
 20
1806.945146596839
 30
0.0
 11
-3623.689459194383
 21
1806.945146596839
 31
0.0
  0
MTEXT
  5
12F
330
1F
100
AcDbEntity
  8
0-B_寸法
  6
Continuous
 62
     7
370
   211
100
AcDbMText
 10
-1405.791242853717
 20
2962.66514659684
 30
0.0
 40
91.44000000000027
 41
1140.000000000003
 46
0.0
 71
     7
 72
     1
  1
{\fＭＳ ゴシック|b0|i0|c128|p49;有効開口寸法＝2,849}
 73
     1
 44
1.0
  0
LINE
  5
130
330
1F
100
AcDbEntity
  8
0-0_補助線
  6
JWW_HOJO
 62
     7
370
     9
100
AcDbLine
 10
-2843.689657146242
 20
906.9451465968391
 30
0.0
 11
-2843.689657146242
 21
3321.94514659684
 31
0.0
  0
LINE
  5
131
330
1F
100
AcDbEntity
  8
0-0_補助線
  6
JWW_HOJO
 62
     7
370
     9
100
AcDbLine
 10
1140.310342853759
 20
906.9451465968391
 30
0.0
 11
1140.310342853759
 21
3321.94514659684
 31
0.0
  0
LINE
  5
132
330
1F
100
AcDbEntity
  8
0-0_補助線
  6
JWW_HOJO
 62
     7
370
     9
100
AcDbLine
 10
-2361.439657146245
 20
906.9451465968391
 30
0.0
 11
-2361.439657146245
 21
3321.94514659684
 31
0.0
  0
LINE
  5
133
330
1F
100
AcDbEntity
  8
0-0_補助線
  6
JWW_HOJO
 62
     7
370
     9
100
AcDbLine
 10
-1858.189657146246
 20
906.9451465968391
 30
0.0
 11
-1858.189657146246
 21
3321.94514659684
 31
0.0
  0
LINE
  5
134
330
1F
100
AcDbEntity
  8
0-0_補助線
  6
JWW_HOJO
 62
     7
370
     9
100
AcDbLine
 10
-1354.939657146244
 20
906.9451465968391
 30
0.0
 11
-1354.939657146244
 21
3321.94514659684
 31
0.0
  0
LINE
  5
135
330
1F
100
AcDbEntity
  8
0-0_補助線
  6
JWW_HOJO
 62
     7
370
     9
100
AcDbLine
 10
-851.6896571462462
 20
906.9451465968391
 30
0.0
 11
-851.6896571462462
 21
3321.94514659684
 31
0.0
  0
LINE
  5
136
330
1F
100
AcDbEntity
  8
0-0_補助線
  6
JWW_HOJO
 62
     7
370
     9
100
AcDbLine
 10
-348.4396571462452
 20
906.9451465968391
 30
0.0
 11
-348.4396571462452
 21
3321.94514659684
 31
0.0
  0
LINE
  5
137
330
1F
100
AcDbEntity
  8
0-0_補助線
  6
JWW_HOJO
 62
     7
370
     9
100
AcDbLine
 10
154.8103428537593
 20
906.9451465968391
 30
0.0
 11
154.8103428537593
 21
3321.94514659684
 31
0.0
  0
LINE
  5
138
330
1F
100
AcDbEntity
  8
0-0_補助線
  6
JWW_HOJO
 62
     7
370
     9
100
AcDbLine
 10
658.0603428537543
 20
906.9451465968391
 30
0.0
 11
658.0603428537543
 21
3321.94514659684
 31
0.0
  0
LINE
  5
139
330
1F
100
AcDbEntity
  8
0-B_寸法
  6
Continuous
 62
   120
370
     5
100
AcDbLine
 10
-2858.689657146244
 20
1626.945146596839
 30
0.0
 11
-2364.439657146247
 21
1626.945146596839
 31
0.0
  0
LWPOLYLINE
  5
13A
330
1F
100
AcDbEntity
  8
0-B_寸法
  6
Continuous
 62
     7
370
     9
100
AcDbPolyline
 90
        4
 70
     1
 43
3.0
 10
-2857.189657146244
 20
1626.945146596839
 42
0.4142135623731
 10
-2858.689657146244
 20
1628.445146596839
 42
0.4142135623731
 10
-2860.189657146244
 20
1626.945146596839
 42
0.4142135623731
 10
-2858.689657146244
 20
1625.445146596839
 42
0.4142135623731
  0
LINE
  5
13B
330
1F
100
AcDbEntity
  8
0-B_寸法
  6
Continuous
 62
   120
370
     5
100
AcDbLine
 10
-2858.689657146244
 20
1626.945146596839
 30
0.0
 11
-2858.689657146244
 21
1806.945146596839
 31
0.0
  0
LINE
  5
13C
330
1F
100
AcDbEntity
  8
0-B_寸法
  6
Continuous
 62
   120
370
     5
100
AcDbLine
 10
-2364.439657146247
 20
1626.945146596839
 30
0.0
 11
-2364.439657146247
 21
1806.945146596839
 31
0.0
  0
LINE
  5
13D
330
1F
100
AcDbEntity
  8
0-B_寸法
  6
Continuous
 62
   120
370
     5
100
AcDbLine
 10
-2358.439657146245
 20
1626.945146596839
 30
0.0
 11
-2358.439657146245
 21
1806.945146596839
 31
0.0
  0
LINE
  5
13E
330
1F
100
AcDbEntity
  8
0-B_寸法
  6
Continuous
 62
   120
370
     5
100
AcDbLine
 10
-1864.189657146246
 20
1626.945146596839
 30
0.0
 11
-1864.189657146246
 21
1806.945146596839
 31
0.0
  0
LINE
  5
13F
330
1F
100
AcDbEntity
  8
0-B_寸法
  6
Continuous
 62
   120
370
     5
100
AcDbLine
 10
-1852.189657146245
 20
1626.945146596839
 30
0.0
 11
-1852.189657146245
 21
1806.945146596839
 31
0.0
  0
LINE
  5
140
330
1F
100
AcDbEntity
  8
0-B_寸法
  6
Continuous
 62
   120
370
     5
100
AcDbLine
 10
-1357.939657146246
 20
1626.945146596839
 30
0.0
 11
-1357.939657146246
 21
1806.945146596839
 31
0.0
  0
LINE
  5
141
330
1F
100
AcDbEntity
  8
0-B_寸法
  6
Continuous
 62
   120
370
     5
100
AcDbLine
 10
-1351.939657146241
 20
1626.945146596839
 30
0.0
 11
-1351.939657146241
 21
1806.945146596839
 31
0.0
  0
LINE
  5
142
330
1F
100
AcDbEntity
  8
0-B_寸法
  6
Continuous
 62
   120
370
     5
100
AcDbLine
 10
-857.6896571462466
 20
1626.945146596839
 30
0.0
 11
-857.6896571462466
 21
1806.945146596839
 31
0.0
  0
LINE
  5
143
330
1F
100
AcDbEntity
  8
0-B_寸法
  6
Continuous
 62
   120
370
     5
100
AcDbLine
 10
-845.6896571462448
 20
1626.945146596839
 30
0.0
 11
-845.6896571462448
 21
1806.945146596839
 31
0.0
  0
LINE
  5
144
330
1F
100
AcDbEntity
  8
0-B_寸法
  6
Continuous
 62
   120
370
     5
100
AcDbLine
 10
-351.4396571462467
 20
1626.945146596839
 30
0.0
 11
-351.4396571462467
 21
1806.945146596839
 31
0.0
  0
LINE
  5
145
330
1F
100
AcDbEntity
  8
0-B_寸法
  6
Continuous
 62
   120
370
     5
100
AcDbLine
 10
-345.4396571462462
 20
1626.945146596839
 30
0.0
 11
-345.4396571462462
 21
1806.945146596839
 31
0.0
  0
LINE
  5
146
330
1F
100
AcDbEntity
  8
0-B_寸法
  6
Continuous
 62
   120
370
     5
100
AcDbLine
 10
148.8103428537639
 20
1626.945146596839
 30
0.0
 11
148.8103428537639
 21
1806.945146596839
 31
0.0
  0
LINE
  5
147
330
1F
100
AcDbEntity
  8
0-B_寸法
  6
Continuous
 62
   120
370
     5
100
AcDbLine
 10
160.8103428537538
 20
1626.945146596839
 30
0.0
 11
160.8103428537538
 21
1806.945146596839
 31
0.0
  0
LINE
  5
148
330
1F
100
AcDbEntity
  8
0-B_寸法
  6
Continuous
 62
   120
370
     5
100
AcDbLine
 10
655.0603428537536
 20
1626.945146596839
 30
0.0
 11
655.0603428537536
 21
1806.945146596839
 31
0.0
  0
LINE
  5
149
330
1F
100
AcDbEntity
  8
0-B_寸法
  6
Continuous
 62
   120
370
     5
100
AcDbLine
 10
661.0603428537537
 20
1626.945146596839
 30
0.0
 11
1155.310342853763
 21
1626.945146596839
 31
0.0
  0
LWPOLYLINE
  5
14A
330
1F
100
AcDbEntity
  8
0-B_寸法
  6
Continuous
 62
     7
370
     9
100
AcDbPolyline
 90
        4
 70
     1
 43
3.0
 10
1156.810342853763
 20
1626.945146596839
 42
0.4142135623731
 10
1155.310342853763
 20
1628.445146596839
 42
0.4142135623731
 10
1153.810342853763
 20
1626.945146596839
 42
0.4142135623731
 10
1155.310342853763
 20
1625.445146596839
 42
0.4142135623731
  0
LINE
  5
14B
330
1F
100
AcDbEntity
  8
0-B_寸法
  6
Continuous
 62
   120
370
     5
100
AcDbLine
 10
661.0603428537537
 20
1626.945146596839
 30
0.0
 11
661.0603428537537
 21
1806.945146596839
 31
0.0
  0
LINE
  5
14C
330
1F
100
AcDbEntity
  8
0-B_寸法
  6
Continuous
 62
   120
370
     5
100
AcDbLine
 10
1155.310342853763
 20
1626.945146596839
 30
0.0
 11
1155.310342853763
 21
1806.945146596839
 31
0.0
  0
LINE
  5
14D
330
1F
100
AcDbEntity
  8
0-B_寸法
  6
Continuous
 62
   120
370
     5
100
AcDbLine
 10
-2858.689657146244
 20
1446.945146596839
 30
0.0
 11
-1864.189657146246
 21
1446.945146596839
 31
0.0
  0
LWPOLYLINE
  5
14E
330
1F
100
AcDbEntity
  8
0-B_寸法
  6
Continuous
 62
     7
370
     9
100
AcDbPolyline
 90
        4
 70
     1
 43
3.0
 10
-2857.189657146244
 20
1446.945146596839
 42
0.4142135623731
 10
-2858.689657146244
 20
1448.445146596839
 42
0.4142135623731
 10
-2860.189657146244
 20
1446.945146596839
 42
0.4142135623731
 10
-2858.689657146244
 20
1445.445146596839
 42
0.4142135623731
  0
LINE
  5
14F
330
1F
100
AcDbEntity
  8
0-B_寸法
  6
Continuous
 62
   120
370
     5
100
AcDbLine
 10
-2858.689657146244
 20
1446.945146596839
 30
0.0
 11
-2858.689657146244
 21
1626.945146596839
 31
0.0
  0
LINE
  5
150
330
1F
100
AcDbEntity
  8
0-B_寸法
  6
Continuous
 62
   120
370
     5
100
AcDbLine
 10
160.8103428537538
 20
1446.945146596839
 30
0.0
 11
1155.310342853763
 21
1446.945146596839
 31
0.0
  0
LWPOLYLINE
  5
151
330
1F
100
AcDbEntity
  8
0-B_寸法
  6
Continuous
 62
     7
370
     9
100
AcDbPolyline
 90
        4
 70
     1
 43
3.0
 10
1156.810342853763
 20
1446.945146596839
 42
0.4142135623731
 10
1155.310342853763
 20
1448.445146596839
 42
0.4142135623731
 10
1153.810342853763
 20
1446.945146596839
 42
0.4142135623731
 10
1155.310342853763
 20
1445.445146596839
 42
0.4142135623731
  0
LINE
  5
152
330
1F
100
AcDbEntity
  8
0-B_寸法
  6
Continuous
 62
   120
370
     5
100
AcDbLine
 10
1155.310342853763
 20
1446.945146596839
 30
0.0
 11
1155.310342853763
 21
1626.945146596839
 31
0.0
  0
LWPOLYLINE
  5
153
330
1F
100
AcDbEntity
  8
0-B_寸法
  6
Continuous
 62
     7
370
     9
100
AcDbPolyline
 90
        4
 70
     1
 43
3.0
 10
-2362.939657146247
 20
1626.945146596839
 42
0.4142135623731
 10
-2364.439657146247
 20
1628.445146596839
 42
0.4142135623731
 10
-2365.939657146247
 20
1626.945146596839
 42
0.4142135623731
 10
-2364.439657146247
 20
1625.445146596839
 42
0.4142135623731
  0
LINE
  5
154
330
1F
100
AcDbEntity
  8
0-B_寸法
  6
Continuous
 62
   120
370
     5
100
AcDbLine
 10
-2358.439657146245
 20
1626.945146596839
 30
0.0
 11
-1864.189657146246
 21
1626.945146596839
 31
0.0
  0
LWPOLYLINE
  5
155
330
1F
100
AcDbEntity
  8
0-B_寸法
  6
Continuous
 62
     7
370
     9
100
AcDbPolyline
 90
        4
 70
     1
 43
3.0
 10
-2356.939657146245
 20
1626.945146596839
 42
0.4142135623731
 10
-2358.439657146245
 20
1628.445146596839
 42
0.4142135623731
 10
-2359.939657146245
 20
1626.945146596839
 42
0.4142135623731
 10
-2358.439657146245
 20
1625.445146596839
 42
0.4142135623731
  0
LWPOLYLINE
  5
156
330
1F
100
AcDbEntity
  8
0-B_寸法
  6
Continuous
 62
     7
370
     9
100
AcDbPolyline
 90
        4
 70
     1
 43
3.0
 10
-1862.689657146246
 20
1626.945146596839
 42
0.4142135623731
 10
-1864.189657146246
 20
1628.445146596839
 42
0.4142135623731
 10
-1865.689657146246
 20
1626.945146596839
 42
0.4142135623731
 10
-1864.189657146246
 20
1625.445146596839
 42
0.4142135623731
  0
LINE
  5
157
330
1F
100
AcDbEntity
  8
0-B_寸法
  6
Continuous
 62
   120
370
     5
100
AcDbLine
 10
-1852.189657146245
 20
1626.945146596839
 30
0.0
 11
-1357.939657146246
 21
1626.945146596839
 31
0.0
  0
LWPOLYLINE
  5
158
330
1F
100
AcDbEntity
  8
0-B_寸法
  6
Continuous
 62
     7
370
     9
100
AcDbPolyline
 90
        4
 70
     1
 43
3.0
 10
-1850.689657146245
 20
1626.945146596839
 42
0.4142135623731
 10
-1852.189657146245
 20
1628.445146596839
 42
0.4142135623731
 10
-1853.689657146245
 20
1626.945146596839
 42
0.4142135623731
 10
-1852.189657146245
 20
1625.445146596839
 42
0.4142135623731
  0
LWPOLYLINE
  5
159
330
1F
100
AcDbEntity
  8
0-B_寸法
  6
Continuous
 62
     7
370
     9
100
AcDbPolyline
 90
        4
 70
     1
 43
3.0
 10
-1356.439657146246
 20
1626.945146596839
 42
0.4142135623731
 10
-1357.939657146246
 20
1628.445146596839
 42
0.4142135623731
 10
-1359.439657146246
 20
1626.945146596839
 42
0.4142135623731
 10
-1357.939657146246
 20
1625.445146596839
 42
0.4142135623731
  0
LINE
  5
15A
330
1F
100
AcDbEntity
  8
0-B_寸法
  6
Continuous
 62
   120
370
     5
100
AcDbLine
 10
-1351.939657146241
 20
1626.945146596839
 30
0.0
 11
-857.6896571462466
 21
1626.945146596839
 31
0.0
  0
LWPOLYLINE
  5
15B
330
1F
100
AcDbEntity
  8
0-B_寸法
  6
Continuous
 62
     7
370
     9
100
AcDbPolyline
 90
        4
 70
     1
 43
3.0
 10
-1350.439657146241
 20
1626.945146596839
 42
0.4142135623731
 10
-1351.939657146241
 20
1628.445146596839
 42
0.4142135623731
 10
-1353.439657146241
 20
1626.945146596839
 42
0.4142135623731
 10
-1351.939657146241
 20
1625.445146596839
 42
0.4142135623731
  0
LWPOLYLINE
  5
15C
330
1F
100
AcDbEntity
  8
0-B_寸法
  6
Continuous
 62
     7
370
     9
100
AcDbPolyline
 90
        4
 70
     1
 43
3.0
 10
-856.1896571462466
 20
1626.945146596839
 42
0.4142135623731
 10
-857.6896571462466
 20
1628.445146596839
 42
0.4142135623731
 10
-859.1896571462468
 20
1626.945146596839
 42
0.4142135623731
 10
-857.6896571462466
 20
1625.445146596839
 42
0.4142135623731
  0
LINE
  5
15D
330
1F
100
AcDbEntity
  8
0-B_寸法
  6
Continuous
 62
   120
370
     5
100
AcDbLine
 10
-845.6896571462448
 20
1626.945146596839
 30
0.0
 11
-351.4396571462467
 21
1626.945146596839
 31
0.0
  0
LWPOLYLINE
  5
15E
330
1F
100
AcDbEntity
  8
0-B_寸法
  6
Continuous
 62
     7
370
     9
100
AcDbPolyline
 90
        4
 70
     1
 43
3.0
 10
-844.1896571462448
 20
1626.945146596839
 42
0.4142135623731
 10
-845.6896571462448
 20
1628.445146596839
 42
0.4142135623731
 10
-847.1896571462448
 20
1626.945146596839
 42
0.4142135623731
 10
-845.6896571462448
 20
1625.445146596839
 42
0.4142135623731
  0
LWPOLYLINE
  5
15F
330
1F
100
AcDbEntity
  8
0-B_寸法
  6
Continuous
 62
     7
370
     9
100
AcDbPolyline
 90
        4
 70
     1
 43
3.0
 10
-349.9396571462467
 20
1626.945146596839
 42
0.4142135623731
 10
-351.4396571462467
 20
1628.445146596839
 42
0.4142135623731
 10
-352.9396571462467
 20
1626.945146596839
 42
0.4142135623731
 10
-351.4396571462467
 20
1625.445146596839
 42
0.4142135623731
  0
LINE
  5
160
330
1F
100
AcDbEntity
  8
0-B_寸法
  6
Continuous
 62
   120
370
     5
100
AcDbLine
 10
-345.4396571462462
 20
1626.945146596839
 30
0.0
 11
148.8103428537639
 21
1626.945146596839
 31
0.0
  0
LWPOLYLINE
  5
161
330
1F
100
AcDbEntity
  8
0-B_寸法
  6
Continuous
 62
     7
370
     9
100
AcDbPolyline
 90
        4
 70
     1
 43
3.0
 10
-343.9396571462462
 20
1626.945146596839
 42
0.4142135623731
 10
-345.4396571462462
 20
1628.445146596839
 42
0.4142135623731
 10
-346.9396571462462
 20
1626.945146596839
 42
0.4142135623731
 10
-345.4396571462462
 20
1625.445146596839
 42
0.4142135623731
  0
LWPOLYLINE
  5
162
330
1F
100
AcDbEntity
  8
0-B_寸法
  6
Continuous
 62
     7
370
     9
100
AcDbPolyline
 90
        4
 70
     1
 43
3.0
 10
150.3103428537639
 20
1626.945146596839
 42
0.4142135623731
 10
148.8103428537639
 20
1628.445146596839
 42
0.4142135623731
 10
147.3103428537639
 20
1626.945146596839
 42
0.4142135623731
 10
148.8103428537639
 20
1625.445146596839
 42
0.4142135623731
  0
LINE
  5
163
330
1F
100
AcDbEntity
  8
0-B_寸法
  6
Continuous
 62
   120
370
     5
100
AcDbLine
 10
160.8103428537538
 20
1626.945146596839
 30
0.0
 11
655.0603428537536
 21
1626.945146596839
 31
0.0
  0
LWPOLYLINE
  5
164
330
1F
100
AcDbEntity
  8
0-B_寸法
  6
Continuous
 62
     7
370
     9
100
AcDbPolyline
 90
        4
 70
     1
 43
3.0
 10
162.3103428537538
 20
1626.945146596839
 42
0.4142135623731
 10
160.8103428537538
 20
1628.445146596839
 42
0.4142135623731
 10
159.3103428537538
 20
1626.945146596839
 42
0.4142135623731
 10
160.8103428537538
 20
1625.445146596839
 42
0.4142135623731
  0
LWPOLYLINE
  5
165
330
1F
100
AcDbEntity
  8
0-B_寸法
  6
Continuous
 62
     7
370
     9
100
AcDbPolyline
 90
        4
 70
     1
 43
3.0
 10
656.5603428537537
 20
1626.945146596839
 42
0.4142135623731
 10
655.0603428537536
 20
1628.445146596839
 42
0.4142135623731
 10
653.5603428537536
 20
1626.945146596839
 42
0.4142135623731
 10
655.0603428537536
 20
1625.445146596839
 42
0.4142135623731
  0
LWPOLYLINE
  5
166
330
1F
100
AcDbEntity
  8
0-B_寸法
  6
Continuous
 62
     7
370
     9
100
AcDbPolyline
 90
        4
 70
     1
 43
3.0
 10
662.5603428537537
 20
1626.945146596839
 42
0.4142135623731
 10
661.0603428537537
 20
1628.445146596839
 42
0.4142135623731
 10
659.5603428537537
 20
1626.945146596839
 42
0.4142135623731
 10
661.0603428537537
 20
1625.445146596839
 42
0.4142135623731
  0
LWPOLYLINE
  5
167
330
1F
100
AcDbEntity
  8
0-B_寸法
  6
Continuous
 62
     7
370
     9
100
AcDbPolyline
 90
        4
 70
     1
 43
3.0
 10
-1862.689657146246
 20
1446.945146596839
 42
0.4142135623731
 10
-1864.189657146246
 20
1448.445146596839
 42
0.4142135623731
 10
-1865.689657146246
 20
1446.945146596839
 42
0.4142135623731
 10
-1864.189657146246
 20
1445.445146596839
 42
0.4142135623731
  0
LINE
  5
168
330
1F
100
AcDbEntity
  8
0-B_寸法
  6
Continuous
 62
   120
370
     5
100
AcDbLine
 10
-1864.189657146246
 20
1446.945146596839
 30
0.0
 11
-1864.189657146246
 21
1626.945146596839
 31
0.0
  0
LINE
  5
169
330
1F
100
AcDbEntity
  8
0-B_寸法
  6
Continuous
 62
   120
370
     5
100
AcDbLine
 10
-1864.189657146246
 20
1446.945146596839
 30
0.0
 11
-1852.189657146245
 21
1446.945146596839
 31
0.0
  0
LWPOLYLINE
  5
16A
330
1F
100
AcDbEntity
  8
0-B_寸法
  6
Continuous
 62
     7
370
     9
100
AcDbPolyline
 90
        4
 70
     1
 43
3.0
 10
-1850.689657146245
 20
1446.945146596839
 42
0.4142135623731
 10
-1852.189657146245
 20
1448.445146596839
 42
0.4142135623731
 10
-1853.689657146245
 20
1446.945146596839
 42
0.4142135623731
 10
-1852.189657146245
 20
1445.445146596839
 42
0.4142135623731
  0
LINE
  5
16B
330
1F
100
AcDbEntity
  8
0-B_寸法
  6
Continuous
 62
   120
370
     5
100
AcDbLine
 10
-1852.189657146245
 20
1446.945146596839
 30
0.0
 11
-1852.189657146245
 21
1626.945146596839
 31
0.0
  0
LINE
  5
16C
330
1F
100
AcDbEntity
  8
0-B_寸法
  6
Continuous
 62
   120
370
     5
100
AcDbLine
 10
-1852.189657146245
 20
1446.945146596839
 30
0.0
 11
-857.6896571462466
 21
1446.945146596839
 31
0.0
  0
LWPOLYLINE
  5
16D
330
1F
100
AcDbEntity
  8
0-B_寸法
  6
Continuous
 62
     7
370
     9
100
AcDbPolyline
 90
        4
 70
     1
 43
3.0
 10
-856.1896571462466
 20
1446.945146596839
 42
0.4142135623731
 10
-857.6896571462466
 20
1448.445146596839
 42
0.4142135623731
 10
-859.1896571462468
 20
1446.945146596839
 42
0.4142135623731
 10
-857.6896571462466
 20
1445.445146596839
 42
0.4142135623731
  0
LINE
  5
16E
330
1F
100
AcDbEntity
  8
0-B_寸法
  6
Continuous
 62
   120
370
     5
100
AcDbLine
 10
-857.6896571462466
 20
1446.945146596839
 30
0.0
 11
-857.6896571462466
 21
1626.945146596839
 31
0.0
  0
LINE
  5
16F
330
1F
100
AcDbEntity
  8
0-B_寸法
  6
Continuous
 62
   120
370
     5
100
AcDbLine
 10
-857.6896571462466
 20
1446.945146596839
 30
0.0
 11
-845.6896571462448
 21
1446.945146596839
 31
0.0
  0
LWPOLYLINE
  5
170
330
1F
100
AcDbEntity
  8
0-B_寸法
  6
Continuous
 62
     7
370
     9
100
AcDbPolyline
 90
        4
 70
     1
 43
3.0
 10
-844.1896571462448
 20
1446.945146596839
 42
0.4142135623731
 10
-845.6896571462448
 20
1448.445146596839
 42
0.4142135623731
 10
-847.1896571462448
 20
1446.945146596839
 42
0.4142135623731
 10
-845.6896571462448
 20
1445.445146596839
 42
0.4142135623731
  0
LINE
  5
171
330
1F
100
AcDbEntity
  8
0-B_寸法
  6
Continuous
 62
   120
370
     5
100
AcDbLine
 10
-845.6896571462448
 20
1446.945146596839
 30
0.0
 11
-845.6896571462448
 21
1626.945146596839
 31
0.0
  0
LINE
  5
172
330
1F
100
AcDbEntity
  8
0-B_寸法
  6
Continuous
 62
   120
370
     5
100
AcDbLine
 10
-845.6896571462448
 20
1446.945146596839
 30
0.0
 11
148.8103428537639
 21
1446.945146596839
 31
0.0
  0
LWPOLYLINE
  5
173
330
1F
100
AcDbEntity
  8
0-B_寸法
  6
Continuous
 62
     7
370
     9
100
AcDbPolyline
 90
        4
 70
     1
 43
3.0
 10
150.3103428537639
 20
1446.945146596839
 42
0.4142135623731
 10
148.8103428537639
 20
1448.445146596839
 42
0.4142135623731
 10
147.3103428537639
 20
1446.945146596839
 42
0.4142135623731
 10
148.8103428537639
 20
1445.445146596839
 42
0.4142135623731
  0
LINE
  5
174
330
1F
100
AcDbEntity
  8
0-B_寸法
  6
Continuous
 62
   120
370
     5
100
AcDbLine
 10
148.8103428537639
 20
1446.945146596839
 30
0.0
 11
148.8103428537639
 21
1626.945146596839
 31
0.0
  0
LINE
  5
175
330
1F
100
AcDbEntity
  8
0-B_寸法
  6
Continuous
 62
   120
370
     5
100
AcDbLine
 10
148.8103428537639
 20
1446.945146596839
 30
0.0
 11
160.8103428537538
 21
1446.945146596839
 31
0.0
  0
LWPOLYLINE
  5
176
330
1F
100
AcDbEntity
  8
0-B_寸法
  6
Continuous
 62
     7
370
     9
100
AcDbPolyline
 90
        4
 70
     1
 43
3.0
 10
162.3103428537538
 20
1446.945146596839
 42
0.4142135623731
 10
160.8103428537538
 20
1448.445146596839
 42
0.4142135623731
 10
159.3103428537538
 20
1446.945146596839
 42
0.4142135623731
 10
160.8103428537538
 20
1445.445146596839
 42
0.4142135623731
  0
LINE
  5
177
330
1F
100
AcDbEntity
  8
0-B_寸法
  6
Continuous
 62
   120
370
     5
100
AcDbLine
 10
160.8103428537538
 20
1446.945146596839
 30
0.0
 11
160.8103428537538
 21
1626.945146596839
 31
0.0
  0
LINE
  5
178
330
1F
100
AcDbEntity
  8
0-B_寸法
  6
Continuous
 62
   120
370
     5
100
AcDbLine
 10
-3023.689657146251
 20
1266.945146596839
 30
0.0
 11
-2843.689657146248
 21
1266.945146596839
 31
0.0
  0
LWPOLYLINE
  5
179
330
1F
100
AcDbEntity
  8
0-B_寸法
  6
Continuous
 62
     7
370
     9
100
AcDbPolyline
 90
        4
 70
     1
 43
3.0
 10
-3022.189657146251
 20
1266.945146596839
 42
0.4142135623731
 10
-3023.689657146251
 20
1268.445146596839
 42
0.4142135623731
 10
-3025.189657146251
 20
1266.945146596839
 42
0.4142135623731
 10
-3023.689657146251
 20
1265.445146596839
 42
0.4142135623731
  0
LWPOLYLINE
  5
17A
330
1F
100
AcDbEntity
  8
0-B_寸法
  6
Continuous
 62
     7
370
     9
100
AcDbPolyline
 90
        4
 70
     1
 43
3.0
 10
-2842.189657146248
 20
1266.945146596839
 42
0.4142135623731
 10
-2843.689657146248
 20
1268.445146596839
 42
0.4142135623731
 10
-2845.189657146248
 20
1266.945146596839
 42
0.4142135623731
 10
-2843.689657146248
 20
1265.445146596839
 42
0.4142135623731
  0
LINE
  5
17B
330
1F
100
AcDbEntity
  8
0-B_寸法
  6
Continuous
 62
   120
370
     5
100
AcDbLine
 10
-2843.689657146248
 20
1266.945146596839
 30
0.0
 11
-2843.689657146248
 21
1626.945146596839
 31
0.0
  0
LINE
  5
17C
330
1F
100
AcDbEntity
  8
0-B_寸法
  6
Continuous
 62
   120
370
     5
100
AcDbLine
 10
-2843.689657146248
 20
1266.945146596839
 30
0.0
 11
1140.310342853761
 21
1266.945146596839
 31
0.0
  0
LWPOLYLINE
  5
17D
330
1F
100
AcDbEntity
  8
0-B_寸法
  6
Continuous
 62
     7
370
     9
100
AcDbPolyline
 90
        4
 70
     1
 43
3.0
 10
1141.810342853761
 20
1266.945146596839
 42
0.4142135623731
 10
1140.310342853761
 20
1268.445146596839
 42
0.4142135623731
 10
1138.810342853761
 20
1266.945146596839
 42
0.4142135623731
 10
1140.310342853761
 20
1265.445146596839
 42
0.4142135623731
  0
LINE
  5
17E
330
1F
100
AcDbEntity
  8
0-B_寸法
  6
Continuous
 62
   120
370
     5
100
AcDbLine
 10
1140.310342853761
 20
1266.945146596839
 30
0.0
 11
1140.310342853761
 21
1626.945146596839
 31
0.0
  0
LINE
  5
17F
330
1F
100
AcDbEntity
  8
0-B_寸法
  6
Continuous
 62
   120
370
     5
100
AcDbLine
 10
1140.310342853761
 20
1266.945146596839
 30
0.0
 11
1320.310342853748
 21
1266.945146596839
 31
0.0
  0
LWPOLYLINE
  5
180
330
1F
100
AcDbEntity
  8
0-B_寸法
  6
Continuous
 62
     7
370
     9
100
AcDbPolyline
 90
        4
 70
     1
 43
3.0
 10
1321.810342853747
 20
1266.945146596839
 42
0.4142135623731
 10
1320.310342853748
 20
1268.445146596839
 42
0.4142135623731
 10
1318.810342853748
 20
1266.945146596839
 42
0.4142135623731
 10
1320.310342853748
 20
1265.445146596839
 42
0.4142135623731
  0
MTEXT
  5
181
330
1F
100
AcDbEntity
  8
0-B_寸法
  6
Continuous
 62
     7
370
   211
100
AcDbMText
 10
-3113.689657146245
 20
1856.235146596841
 30
0.0
 40
68.5800000000026
 41
45.00000000000171
 46
0.0
 71
     7
 72
     1
  1
{\fＭＳ ゴシック|b0|i0|c128|p49;5}
 73
     1
 44
1.0
  0
LINE
  5
182
330
1F
100
AcDbEntity
  8
0-B_寸法
  6
Continuous
 62
   120
370
     5
100
AcDbLine
 10
-3023.689657146251
 20
1086.945146596839
 30
0.0
 11
1320.310342853748
 21
1086.945146596839
 31
0.0
  0
LWPOLYLINE
  5
183
330
1F
100
AcDbEntity
  8
0-B_寸法
  6
Continuous
 62
     7
370
     9
100
AcDbPolyline
 90
        4
 70
     1
 43
3.0
 10
-3022.189657146251
 20
1086.945146596839
 42
0.4142135623731
 10
-3023.689657146251
 20
1088.445146596839
 42
0.4142135623731
 10
-3025.189657146251
 20
1086.945146596839
 42
0.4142135623731
 10
-3023.689657146251
 20
1085.445146596839
 42
0.4142135623731
  0
LWPOLYLINE
  5
184
330
1F
100
AcDbEntity
  8
0-B_寸法
  6
Continuous
 62
     7
370
     9
100
AcDbPolyline
 90
        4
 70
     1
 43
3.0
 10
1321.810342853747
 20
1086.945146596839
 42
0.4142135623731
 10
1320.310342853748
 20
1088.445146596839
 42
0.4142135623731
 10
1318.810342853748
 20
1086.945146596839
 42
0.4142135623731
 10
1320.310342853748
 20
1085.445146596839
 42
0.4142135623731
  0
MTEXT
  5
185
330
1F
100
AcDbEntity
  8
0-B_寸法
  6
Continuous
 62
     7
370
   211
100
AcDbMText
 10
-2953.189657146248
 20
1796.235146596841
 30
0.0
 40
68.5800000000026
 41
45.00000000000171
 46
0.0
 71
     7
 72
     1
  1
{\fＭＳ ゴシック|b0|i0|c128|p49;9}
 73
     1
 44
1.0
  0
MTEXT
  5
186
330
1F
100
AcDbEntity
  8
0-B_寸法
  6
Continuous
 62
     7
370
   211
100
AcDbMText
 10
-2892.439657146242
 20
1799.092646596838
 30
0.0
 40
74.2949999999974
 41
97.49999999999659
 46
0.0
 71
     7
 72
     1
  1
{\fＭＳ ゴシック|b0|i0|c128|p49;10}
 73
     1
 44
1.0
  0
MTEXT
  5
187
330
1F
100
AcDbEntity
  8
0-B_寸法
  6
Continuous
 62
     7
370
   211
100
AcDbMText
 10
-3110.689657146248
 20
1706.235146596841
 30
0.0
 40
68.5800000000026
 41
45.00000000000171
 46
0.0
 71
     7
 72
     1
  1
{\fＭＳ ゴシック|b0|i0|c128|p49;6}
 73
     1
 44
1.0
  0
MTEXT
  5
188
330
1F
100
AcDbEntity
  8
0-B_寸法
  6
Continuous
 62
     7
370
   211
100
AcDbMText
 10
-2821.564657146246
 20
1621.95014659684
 30
0.0
 40
80.01000000000032
 41
420.0000000000017
 46
0.0
 71
     7
 72
     1
  1
{\fＭＳ ゴシック|b0|i0|c128|p49;ＤＷ=416}
 73
     1
 44
1.0
  0
MTEXT
  5
189
330
1F
100
AcDbEntity
  8
0-B_寸法
  6
Continuous
 62
     7
370
   211
100
AcDbMText
 10
-2321.314657146248
 20
1621.95014659684
 30
0.0
 40
80.01000000000032
 41
420.0000000000017
 46
0.0
 71
     7
 72
     1
  1
{\fＭＳ ゴシック|b0|i0|c128|p49;ＤＷ=416}
 73
     1
 44
1.0
  0
MTEXT
  5
18A
330
1F
100
AcDbEntity
  8
0-B_寸法
  6
Continuous
 62
     7
370
   211
100
AcDbMText
 10
-1815.064657146247
 20
1621.95014659684
 30
0.0
 40
80.01000000000032
 41
420.0000000000017
 46
0.0
 71
     7
 72
     1
  1
{\fＭＳ ゴシック|b0|i0|c128|p49;ＤＷ=416}
 73
     1
 44
1.0
  0
MTEXT
  5
18B
330
1F
100
AcDbEntity
  8
0-B_寸法
  6
Continuous
 62
     7
370
   211
100
AcDbMText
 10
-1314.814657146242
 20
1621.950146596839
 30
0.0
 40
80.00999999999951
 41
419.9999999999974
 46
0.0
 71
     7
 72
     1
  1
{\fＭＳ ゴシック|b0|i0|c128|p49;ＤＷ=416}
 73
     1
 44
1.0
  0
MTEXT
  5
18C
330
1F
100
AcDbEntity
  8
0-B_寸法
  6
Continuous
 62
     7
370
   211
100
AcDbMText
 10
-808.5646571462471
 20
1621.95014659684
 30
0.0
 40
80.01000000000032
 41
420.0000000000017
 46
0.0
 71
     7
 72
     1
  1
{\fＭＳ ゴシック|b0|i0|c128|p49;ＤＷ=416}
 73
     1
 44
1.0
  0
MTEXT
  5
18D
330
1F
100
AcDbEntity
  8
0-B_寸法
  6
Continuous
 62
     7
370
   211
100
AcDbMText
 10
-308.3146571462416
 20
1621.95014659684
 30
0.0
 40
80.01000000000016
 41
420.0000000000009
 46
0.0
 71
     7
 72
     1
  1
{\fＭＳ ゴシック|b0|i0|c128|p49;ＤＷ=416}
 73
     1
 44
1.0
  0
MTEXT
  5
18E
330
1F
100
AcDbEntity
  8
0-B_寸法
  6
Continuous
 62
     7
370
   211
100
AcDbMText
 10
197.9353428537537
 20
1621.95014659684
 30
0.0
 40
80.01000000000008
 41
420.0000000000005
 46
0.0
 71
     7
 72
     1
  1
{\fＭＳ ゴシック|b0|i0|c128|p49;ＤＷ=416}
 73
     1
 44
1.0
  0
MTEXT
  5
18F
330
1F
100
AcDbEntity
  8
0-B_寸法
  6
Continuous
 62
     7
370
   211
100
AcDbMText
 10
698.1853428537588
 20
1621.95014659684
 30
0.0
 40
80.0099999999999
 41
419.9999999999995
 46
0.0
 71
     7
 72
     1
  1
{\fＭＳ ゴシック|b0|i0|c128|p49;ＤＷ=416}
 73
     1
 44
1.0
  0
MTEXT
  5
190
330
1F
100
AcDbEntity
  8
0-B_寸法
  6
Continuous
 62
     7
370
   211
100
AcDbMText
 10
-2751.439657146244
 20
1447.66514659684
 30
0.0
 40
91.4399999999998
 41
779.9999999999983
 46
0.0
 71
     7
 72
     1
  1
{\fＭＳ ゴシック|b0|i0|c128|p49;折戸:ＤＷ=833}
 73
     1
 44
1.0
  0
MTEXT
  5
191
330
1F
100
AcDbEntity
  8
0-B_寸法
  6
Continuous
 62
     7
370
   211
100
AcDbMText
 10
-1828.189657146246
 20
1447.66514659684
 30
0.0
 40
91.4400000000013
 41
60.00000000000085
 46
0.0
 71
     7
 72
     1
  1
{\fＭＳ ゴシック|b0|i0|c128|p49;2}
 73
     1
 44
1.0
  0
MTEXT
  5
192
330
1F
100
AcDbEntity
  8
0-B_寸法
  6
Continuous
 62
     7
370
   211
100
AcDbMText
 10
-1744.939657146247
 20
1447.66514659684
 30
0.0
 40
91.4400000000003
 41
780.0000000000025
 46
0.0
 71
     7
 72
     1
  1
{\fＭＳ ゴシック|b0|i0|c128|p49;折戸:ＤＷ=833}
 73
     1
 44
1.0
  0
MTEXT
  5
193
330
1F
100
AcDbEntity
  8
0-B_寸法
  6
Continuous
 62
     7
370
   211
100
AcDbMText
 10
-821.6896571462462
 20
1447.66514659684
 30
0.0
 40
91.4400000000013
 41
60.00000000000085
 46
0.0
 71
     7
 72
     1
  1
{\fＭＳ ゴシック|b0|i0|c128|p49;2}
 73
     1
 44
1.0
  0
MTEXT
  5
194
330
1F
100
AcDbEntity
  8
0-B_寸法
  6
Continuous
 62
     7
370
   211
100
AcDbMText
 10
-738.4396571462391
 20
1447.66514659684
 30
0.0
 40
91.4399999999997
 41
779.9999999999975
 46
0.0
 71
     7
 72
     1
  1
{\fＭＳ ゴシック|b0|i0|c128|p49;折戸:ＤＷ=833}
 73
     1
 44
1.0
  0
MTEXT
  5
195
330
1F
100
AcDbEntity
  8
0-B_寸法
  6
Continuous
 62
     7
370
   211
100
AcDbMText
 10
184.810342853758
 20
1447.66514659684
 30
0.0
 40
91.4400000000013
 41
60.00000000000085
 46
0.0
 71
     7
 72
     1
  1
{\fＭＳ ゴシック|b0|i0|c128|p49;2}
 73
     1
 44
1.0
  0
LINE
  5
196
330
1F
100
AcDbEntity
  8
0-0_補助線
  6
JWW_HOJO
 62
   120
370
     5
100
AcDbLine
 10
1920.310144901905
 20
1986.945146596839
 30
0.0
 11
-3623.689459194383
 21
1986.945146596839
 31
0.0
  0
LINE
  5
197
330
1F
100
AcDbEntity
  8
0-B_寸法
  6
Continuous
 62
   120
370
     5
100
AcDbLine
 10
-3023.689657146251
 20
1086.945146596839
 30
0.0
 11
-3023.689657146251
 21
1806.945146596839
 31
0.0
  0
LINE
  5
198
330
1F
100
AcDbEntity
  8
0-B_寸法
  6
Continuous
 62
   120
370
     5
100
AcDbLine
 10
1320.310342853748
 20
1086.945146596839
 30
0.0
 11
1320.310342853748
 21
1806.945146596839
 31
0.0
  0
LINE
  5
199
330
1F
100
AcDbEntity
  8
0-B_寸法
  6
Continuous
 62
   120
370
     5
100
AcDbLine
 10
-3023.689657146242
 20
1806.945146596839
 30
0.0
 11
-2843.689657146242
 21
1806.945146596839
 31
0.0
  0
LWPOLYLINE
  5
19A
330
1F
100
AcDbEntity
  8
0-B_寸法
  6
Continuous
 62
     7
370
     9
100
AcDbPolyline
 90
        4
 70
     1
 43
3.0
 10
-3022.189657146242
 20
1806.945146596839
 42
0.4142135623731
 10
-3023.689657146242
 20
1808.445146596839
 42
0.4142135623731
 10
-3025.189657146242
 20
1806.945146596839
 42
0.4142135623731
 10
-3023.689657146242
 20
1805.445146596839
 42
0.4142135623731
  0
LWPOLYLINE
  5
19B
330
1F
100
AcDbEntity
  8
0-B_寸法
  6
Continuous
 62
     7
370
     9
100
AcDbPolyline
 90
        4
 70
     1
 43
3.0
 10
-2992.189657146242
 20
1806.945146596839
 42
0.4142135623731
 10
-2993.689657146242
 20
1808.445146596839
 42
0.4142135623731
 10
-2995.189657146242
 20
1806.945146596839
 42
0.4142135623731
 10
-2993.689657146242
 20
1805.445146596839
 42
0.4142135623731
  0
LWPOLYLINE
  5
19C
330
1F
100
AcDbEntity
  8
0-B_寸法
  6
Continuous
 62
     7
370
     9
100
AcDbPolyline
 90
        4
 70
     1
 43
3.0
 10
-2956.189657146244
 20
1806.945146596839
 42
0.4142135623731
 10
-2957.689657146244
 20
1808.445146596839
 42
0.4142135623731
 10
-2959.189657146244
 20
1806.945146596839
 42
0.4142135623731
 10
-2957.689657146244
 20
1805.445146596839
 42
0.4142135623731
  0
LINE
  5
19D
330
1F
100
AcDbEntity
  8
0-B_寸法
  6
Continuous
 62
   120
370
     5
100
AcDbLine
 10
-2957.689657146244
 20
1806.945146596839
 30
0.0
 11
-2957.689657146244
 21
1986.945146596839
 31
0.0
  0
LWPOLYLINE
  5
19E
330
1F
100
AcDbEntity
  8
0-B_寸法
  6
Continuous
 62
     7
370
     9
100
AcDbPolyline
 90
        4
 70
     1
 43
3.0
 10
-2902.189657146242
 20
1806.945146596839
 42
0.4142135623731
 10
-2903.689657146242
 20
1808.445146596839
 42
0.4142135623731
 10
-2905.189657146242
 20
1806.945146596839
 42
0.4142135623731
 10
-2903.689657146242
 20
1805.445146596839
 42
0.4142135623731
  0
LINE
  5
19F
330
1F
100
AcDbEntity
  8
0-B_寸法
  6
Continuous
 62
   120
370
     5
100
AcDbLine
 10
-2903.689657146242
 20
1806.945146596839
 30
0.0
 11
-2903.689657146242
 21
1986.945146596839
 31
0.0
  0
LWPOLYLINE
  5
1A0
330
1F
100
AcDbEntity
  8
0-B_寸法
  6
Continuous
 62
     7
370
     9
100
AcDbPolyline
 90
        4
 70
     1
 43
3.0
 10
-2842.189657146242
 20
1806.945146596839
 42
0.4142135623731
 10
-2843.689657146242
 20
1808.445146596839
 42
0.4142135623731
 10
-2845.189657146242
 20
1806.945146596839
 42
0.4142135623731
 10
-2843.689657146242
 20
1805.445146596839
 42
0.4142135623731
  0
LINE
  5
1A1
330
1F
100
AcDbEntity
  8
0-B_寸法
  6
Continuous
 62
   120
370
     5
100
AcDbLine
 10
-2843.689657146242
 20
1806.945146596839
 30
0.0
 11
-2843.689657146242
 21
1986.945146596839
 31
0.0
  0
MTEXT
  5
1A2
330
1F
100
AcDbEntity
  8
0-B_寸法
  6
Continuous
 62
     7
370
   211
100
AcDbMText
 10
268.060342853759
 20
1447.66514659684
 30
0.0
 40
91.43999999999994
 41
779.9999999999995
 46
0.0
 71
     7
 72
     1
  1
{\fＭＳ ゴシック|b0|i0|c128|p49;折戸:ＤＷ=833}
 73
     1
 44
1.0
  0
LINE
  5
1A3
330
1F
100
AcDbEntity
  8
0-B_寸法
  6
Continuous
 62
   120
370
     5
100
AcDbLine
 10
-2975.689657146245
 20
1806.945146596839
 30
0.0
 11
-3065.689657146245
 21
1716.945146596839
 31
0.0
  0
MTEXT
  5
1A4
330
1F
100
AcDbEntity
  8
0-B_寸法
  6
Continuous
 62
     7
370
   211
100
AcDbMText
 10
-2978.689657146252
 20
1271.235146596842
 30
0.0
 40
68.5800000000026
 41
90.00000000000341
 46
0.0
 71
     7
 72
     1
  1
{\fＭＳ ゴシック|b0|i0|c128|p49;30}
 73
     1
 44
1.0
  0
LINE
  5
1A5
330
1F
100
AcDbEntity
  8
0-B_寸法
  6
Continuous
 62
   120
370
     5
100
AcDbLine
 10
-3120.93619700142
 20
1716.945146596839
 30
0.0
 11
-3065.689657146245
 21
1716.945146596839
 31
0.0
  0
LINE
  5
1A6
330
1F
100
AcDbEntity
  8
0-B_寸法
  6
Continuous
 62
   120
370
     5
100
AcDbLine
 10
-3008.689657146242
 20
1806.945146596839
 30
0.0
 11
-3068.689657146242
 21
1866.945146596839
 31
0.0
  0
MTEXT
  5
1A7
330
1F
100
AcDbEntity
  8
0-B_寸法
  6
Continuous
 62
     7
370
   211
100
AcDbMText
 10
-1181.689657146244
 20
1267.66514659684
 30
0.0
 40
91.44000000000013
 41
660.0000000000009
 46
0.0
 71
     7
 72
     1
  1
{\fＭＳ ゴシック|b0|i0|c128|p49;枠内＝3,333}
 73
     1
 44
1.0
  0
LINE
  5
1A8
330
1F
100
AcDbEntity
  8
0-B_寸法
  6
Continuous
 62
   120
370
     5
100
AcDbLine
 10
-3129.138478974905
 20
1866.945146596839
 30
0.0
 11
-3068.689657146242
 21
1866.945146596839
 31
0.0
  0
MTEXT
  5
1A9
330
1F
100
AcDbEntity
  8
0-B_寸法
  6
Continuous
 62
     7
370
   211
100
AcDbMText
 10
1170.310342853754
 20
1267.66514659684
 30
0.0
 40
91.43999999999967
 41
119.9999999999996
 46
0.0
 71
     7
 72
     1
  1
{\fＭＳ ゴシック|b0|i0|c128|p49;30}
 73
     1
 44
1.0
  0
LINE
  5
1AA
330
1F
100
AcDbEntity
  8
0-B_寸法
  6
Continuous
 62
   120
370
     5
100
AcDbLine
 10
-3023.689657146242
 20
1806.945146596839
 30
0.0
 11
-3023.689657146242
 21
1986.945146596839
 31
0.0
  0
LINE
  5
1AB
330
1F
100
AcDbEntity
  8
0-B_寸法
  6
Continuous
 62
   120
370
     5
100
AcDbLine
 10
-2993.689657146242
 20
1806.945146596839
 30
0.0
 11
-2993.689657146242
 21
1986.945146596839
 31
0.0
  0
LWPOLYLINE
  5
1AC
330
1F
100
AcDbEntity
  8
0-3_仕上げ
  6
Continuous
 62
     7
370
     9
100
AcDbPolyline
 90
        4
 70
     1
 43
3.0
 10
-2507.859306424999
 20
2592.946220485668
 42
0.4142135623731
 10
-2509.359306424999
 20
2594.446220485668
 42
0.4142135623731
 10
-2510.859306424999
 20
2592.946220485668
 42
0.4142135623731
 10
-2509.359306424999
 20
2591.446220485668
 42
0.4142135623731
  0
LINE
  5
1AD
330
1F
100
AcDbEntity
  8
0-3_仕上げ
  6
Continuous
 62
   120
370
     5
100
AcDbLine
 10
-2509.359306424999
 20
2592.946220485668
 30
0.0
 11
-2672.591051964657
 21
2592.946220485668
 31
0.0
  0
LWPOLYLINE
  5
1AE
330
1F
100
AcDbEntity
  8
0-3_仕上げ
  6
Continuous
 62
     7
370
     9
100
AcDbPolyline
 90
        4
 70
     1
 43
3.0
 10
-2507.859306424999
 20
2130.946220485667
 42
0.4142135623731
 10
-2509.359306424999
 20
2132.446220485667
 42
0.4142135623731
 10
-2510.859306424999
 20
2130.946220485667
 42
0.4142135623731
 10
-2509.359306424999
 20
2129.446220485667
 42
0.4142135623731
  0
LINE
  5
1AF
330
1F
100
AcDbEntity
  8
0-3_仕上げ
  6
Continuous
 62
   120
370
     5
100
AcDbLine
 10
-2509.359306424999
 20
2130.946220485667
 30
0.0
 11
-2672.591051964657
 21
2130.946220485667
 31
0.0
  0
LINE
  5
1B0
330
1F
100
AcDbEntity
  8
0-3_仕上げ
  6
Continuous
 62
   120
370
     5
100
AcDbLine
 10
-2509.359306424999
 20
2592.946220485668
 30
0.0
 11
-2509.359306424999
 21
2130.946220485667
 31
0.0
  0
MTEXT
  5
1B1
330
1F
100
AcDbEntity
  8
0-B_寸法
  6
Continuous
 62
     7
370
   211
100
AcDbMText
 10
-1181.689657146253
 20
1087.66514659684
 30
0.0
 40
91.44000000000013
 41
660.0000000000009
 46
0.0
 71
     7
 72
     1
  1
{\fＭＳ ゴシック|b0|i0|c128|p49;枠外＝3,393}
 73
     1
 44
1.0
  0
MTEXT
  5
1B2
330
1F
100
AcDbEntity
  8
0-A_文字
  6
Continuous
 62
     7
370
     9
100
AcDbMText
 10
-3590.222872428838
 20
3310.355192580248
 30
0.0
 40
100.5840000000001
 41
660.0000000000009
 46
0.0
 71
     7
 72
     1
  1
{\fＭＳ ゴシック|b0|i0|c128|p49;■横断面図}
 73
     1
 44
1.0
  0
LINE
  5
1B3
330
1F
100
AcDbEntity
  8
0-A_文字
  6
JWW_HOJO
 62
   120
370
     5
100
AcDbLine
 10
-851.6896571462437
 20
947.6368213445021
 30
0.0
 11
1557.834152377566
 21
947.6368213445021
 31
0.0
  0
LINE
  5
1B4
330
1F
100
AcDbEntity
  8
0-A_文字
  6
JWW_HOJO
 62
   120
370
     5
100
AcDbLine
 10
-851.6896571462437
 20
827.6368213445021
 30
0.0
 11
1557.834152377566
 21
827.6368213445021
 31
0.0
  0
LINE
  5
1B5
330
1F
100
AcDbEntity
  8
0-A_文字
  6
JWW_HOJO
 62
   120
370
     5
100
AcDbLine
 10
-851.6896571462437
 20
707.6368213445026
 30
0.0
 11
1557.834152377566
 21
707.6368213445026
 31
0.0
  0
MTEXT
  5
1B6
330
1F
100
AcDbEntity
  8
0-A_文字
  6
Continuous
 62
     7
370
     9
100
AcDbMText
 10
-851.6896571462445
 20
942.3820486172293
 30
0.0
 40
79.49045454545461
 41
2295.000000000002
 46
0.0
 71
     7
 72
     1
  1
{\fＭＳ ゴシック|b0|i0|c128|p49;※有効開口寸法にはハンドルの突出は含まない。}
 73
     1
 44
1.0
  0
MTEXT
  5
1B7
330
1F
100
AcDbEntity
  8
0-A_文字
  6
Continuous
 62
     7
370
     9
100
AcDbMText
 10
-851.6896571462445
 20
822.4301546778354
 30
0.0
 40
79.5866666666667
 41
2820.000000000002
 46
0.0
 71
     7
 72
     1
  1
{\fＭＳ ゴシック|b0|i0|c128|p49;※有効開口寸法は扉の厚さや調整によって若干異なります。}
 73
     1
 44
1.0
  0
MTEXT
  5
1B8
330
1F
100
AcDbEntity
  8
0-A_文字
  6
Continuous
 62
     7
370
     0
100
AcDbMText
 10
-851.6896571462437
 20
696.9268213445033
 30
0.0
 40
68.58000000000003
 41
1350.0
 46
0.0
 71
     7
 72
     1
  1
{\fＭＳ ゴシック|b0|i0|c128|p49;※扉厚（　）内はルーバーの場合}
 73
     1
 44
1.0
  0
MTEXT
  5
1B9
330
1F
100
AcDbEntity
  8
0-A_文字
  6
Continuous
 62
     7
370
   211
100
AcDbMText
 10
-1883.653684209013
 20
2227.665146596839
 30
0.0
 40
91.44
 41
240.0
 46
0.0
 71
     7
 72
     1
  1
{\fＭＳ ゴシック|b0|i0|c128|p49;(24)}
 11
6.123031769111886E-17
 21
1.0
 31
0.0
 73
     1
 44
1.0
  0
LINE
  5
1BA
330
1F
100
AcDbEntity
  8
0-C_ハッチ
  6
JWW_DASHED1
 62
   120
370
     5
100
AcDbLine
 10
-3005.70939498742
 20
2097.946220485674
 30
0.0
 11
-2993.689657146233
 21
2109.965958326864
 31
0.0
  0
LINE
  5
1BB
330
1F
100
AcDbEntity
  8
0-C_ハッチ
  6
JWW_DASHED1
 62
   120
370
     5
100
AcDbLine
 10
-3048.135801858618
 20
2097.946220485677
 30
0.0
 11
-2993.689657146242
 21
2152.392365198054
 31
0.0
  0
LINE
  5
1BC
330
1F
100
AcDbEntity
  8
0-C_ハッチ
  6
JWW_DASHED1
 62
   120
370
     5
100
AcDbLine
 10
-3090.562208729813
 20
2097.946220485681
 30
0.0
 11
-3015.562208729805
 21
2172.946220485692
 31
0.0
  0
LINE
  5
1BD
330
1F
100
AcDbEntity
  8
0-C_ハッチ
  6
JWW_DASHED1
 62
   120
370
     5
100
AcDbLine
 10
-3132.988615601025
 20
2097.946220485672
 30
0.0
 11
-3057.988615601029
 21
2172.946220485667
 31
0.0
  0
LINE
  5
1BE
330
1F
100
AcDbEntity
  8
0-C_ハッチ
  6
JWW_DASHED1
 62
   120
370
     5
100
AcDbLine
 10
-3175.415022472223
 20
2097.946220485672
 30
0.0
 11
-3100.415022472227
 21
2172.946220485668
 31
0.0
  0
LINE
  5
1BF
330
1F
100
AcDbEntity
  8
0-C_ハッチ
  6
JWW_DASHED1
 62
   120
370
     5
100
AcDbLine
 10
-3217.84142934342
 20
2097.946220485675
 30
0.0
 11
-3142.841429343425
 21
2172.946220485672
 31
0.0
  0
LINE
  5
1C0
330
1F
100
AcDbEntity
  8
0-C_ハッチ
  6
JWW_DASHED1
 62
   120
370
     5
100
AcDbLine
 10
-3260.267836214557
 20
2097.946220485684
 30
0.0
 11
-3185.267836214561
 21
2172.94622048568
 31
0.0
  0
LINE
  5
1C1
330
1F
100
AcDbEntity
  8
0-C_ハッチ
  6
JWW_DASHED1
 62
   120
370
     5
100
AcDbLine
 10
-3302.694243085753
 20
2097.946220485688
 30
0.0
 11
-3227.694243085759
 21
2172.946220485684
 31
0.0
  0
LINE
  5
1C2
330
1F
100
AcDbEntity
  8
0-C_ハッチ
  6
JWW_DASHED1
 62
   120
370
     5
100
AcDbLine
 10
-3345.120649956967
 20
2097.946220485675
 30
0.0
 11
-3270.120649956954
 21
2172.946220485687
 31
0.0
  0
LINE
  5
1C3
330
1F
100
AcDbEntity
  8
0-C_ハッチ
  6
JWW_DASHED1
 62
   120
370
     5
100
AcDbLine
 10
-3387.547056828161
 20
2097.946220485679
 30
0.0
 11
-3312.54705682815
 21
2172.946220485691
 31
0.0
  0
LINE
  5
1C4
330
1F
100
AcDbEntity
  8
0-C_ハッチ
  6
JWW_DASHED1
 62
   120
370
     5
100
AcDbLine
 10
-3429.973463699359
 20
2097.946220485684
 30
0.0
 11
-3354.973463699364
 21
2172.946220485679
 31
0.0
  0
LINE
  5
1C5
330
1F
100
AcDbEntity
  8
0-C_ハッチ
  6
JWW_DASHED1
 62
   120
370
     5
100
AcDbLine
 10
-3472.399870570571
 20
2097.946220485672
 30
0.0
 11
-3397.399870570575
 21
2172.946220485667
 31
0.0
  0
LINE
  5
1C6
330
1F
100
AcDbEntity
  8
0-C_ハッチ
  6
JWW_DASHED1
 62
   120
370
     5
100
AcDbLine
 10
-3514.826277441767
 20
2097.946220485675
 30
0.0
 11
-3439.826277441773
 21
2172.94622048567
 31
0.0
  0
LINE
  5
1C7
330
1F
100
AcDbEntity
  8
0-C_ハッチ
  6
JWW_DASHED1
 62
   120
370
     5
100
AcDbLine
 10
-3557.252684312964
 20
2097.946220485679
 30
0.0
 11
-3482.252684312967
 21
2172.946220485674
 31
0.0
  0
LINE
  5
1C8
330
1F
100
AcDbEntity
  8
0-3_仕上げ
  6
Continuous
 62
    40
370
    15
100
AcDbLine
 10
-2993.689657146242
 20
2172.946220485668
 30
0.0
 11
-2993.689657146242
 21
2097.946220485668
 31
0.0
  0
LINE
  5
1C9
330
1F
100
AcDbEntity
  8
0-C_ハッチ
  6
JWW_DASHED1
 62
   120
370
     5
100
AcDbLine
 10
1793.437593318315
 20
2097.946220485682
 30
0.0
 11
1868.437593318326
 21
2172.946220485692
 31
0.0
  0
LINE
  5
1CA
330
1F
100
AcDbEntity
  8
0-C_ハッチ
  6
JWW_DASHED1
 62
   120
370
     5
100
AcDbLine
 10
1751.011186447107
 20
2097.946220485673
 30
0.0
 11
1826.0111864471
 21
2172.946220485667
 31
0.0
  0
LINE
  5
1CB
330
1F
100
AcDbEntity
  8
0-C_ハッチ
  6
JWW_DASHED1
 62
   120
370
     5
100
AcDbLine
 10
1708.584779575907
 20
2097.946220485673
 30
0.0
 11
1783.584779575902
 21
2172.946220485668
 31
0.0
  0
LINE
  5
1CC
330
1F
100
AcDbEntity
  8
0-C_ハッチ
  6
JWW_DASHED1
 62
   120
370
     5
100
AcDbLine
 10
1666.15837270471
 20
2097.946220485676
 30
0.0
 11
1741.158372704705
 21
2172.946220485672
 31
0.0
  0
LINE
  5
1CD
330
1F
100
AcDbEntity
  8
0-C_ハッチ
  6
JWW_DASHED1
 62
   120
370
     5
100
AcDbLine
 10
1623.731965833573
 20
2097.946220485685
 30
0.0
 11
1698.731965833568
 21
2172.94622048568
 31
0.0
  0
LINE
  5
1CE
330
1F
100
AcDbEntity
  8
0-C_ハッチ
  6
JWW_DASHED1
 62
   120
370
     5
100
AcDbLine
 10
1581.305558962377
 20
2097.946220485688
 30
0.0
 11
1656.305558962372
 21
2172.946220485684
 31
0.0
  0
LINE
  5
1CF
330
1F
100
AcDbEntity
  8
0-C_ハッチ
  6
JWW_DASHED1
 62
   120
370
     5
100
AcDbLine
 10
1538.879152091165
 20
2097.946220485676
 30
0.0
 11
1613.879152091176
 21
2172.946220485687
 31
0.0
  0
LINE
  5
1D0
330
1F
100
AcDbEntity
  8
0-C_ハッチ
  6
JWW_DASHED1
 62
   120
370
     5
100
AcDbLine
 10
1496.452745219968
 20
2097.94622048568
 30
0.0
 11
1571.452745219979
 21
2172.94622048569
 31
0.0
  0
LINE
  5
1D1
330
1F
100
AcDbEntity
  8
0-C_ハッチ
  6
JWW_DASHED1
 62
   120
370
     5
100
AcDbLine
 10
1454.026338348772
 20
2097.946220485684
 30
0.0
 11
1529.026338348767
 21
2172.946220485679
 31
0.0
  0
LINE
  5
1D2
330
1F
100
AcDbEntity
  8
0-C_ハッチ
  6
JWW_DASHED1
 62
   120
370
     5
100
AcDbLine
 10
1411.59993147756
 20
2097.946220485672
 30
0.0
 11
1486.599931477555
 21
2172.946220485667
 31
0.0
  0
LINE
  5
1D3
330
1F
100
AcDbEntity
  8
0-C_ハッチ
  6
JWW_DASHED1
 62
   120
370
     5
100
AcDbLine
 10
1369.173524606364
 20
2097.946220485675
 30
0.0
 11
1444.173524606359
 21
2172.94622048567
 31
0.0
  0
LINE
  5
1D4
330
1F
100
AcDbEntity
  8
0-C_ハッチ
  6
JWW_DASHED1
 62
   120
370
     5
100
AcDbLine
 10
1326.747117735167
 20
2097.946220485679
 30
0.0
 11
1401.747117735163
 21
2172.946220485674
 31
0.0
  0
LINE
  5
1D5
330
1F
100
AcDbEntity
  8
0-C_ハッチ
  6
JWW_DASHED1
 62
   120
370
     5
100
AcDbLine
 10
1290.310342853741
 20
2103.935852475398
 30
0.0
 11
1359.320710864025
 21
2172.946220485682
 31
0.0
  0
LINE
  5
1D6
330
1F
100
AcDbEntity
  8
0-C_ハッチ
  6
JWW_DASHED1
 62
   120
370
     5
100
AcDbLine
 10
1290.310342853746
 20
2146.362259346602
 30
0.0
 11
1316.894303992829
 21
2172.946220485685
 31
0.0
  0
LINE
  5
1D7
330
1F
100
AcDbEntity
  8
0-3_仕上げ
  6
Continuous
 62
    40
370
    15
100
AcDbLine
 10
1290.310342853759
 20
2097.946220485668
 30
0.0
 11
1290.310342853759
 21
2172.946220485668
 31
0.0
  0
LINE
  5
1D8
330
1F
100
AcDbEntity
  8
0-3_仕上げ
  6
Continuous
 62
    40
370
    15
100
AcDbLine
 10
1290.310342853759
 20
2097.946220485668
 30
0.0
 11
1920.310144901905
 21
2097.946220485668
 31
0.0
  0
LINE
  5
1D9
330
1F
100
AcDbEntity
  8
0-3_仕上げ
  6
Continuous
 62
    40
370
    15
100
AcDbLine
 10
1290.310342853759
 20
2172.946220485668
 30
0.0
 11
1920.310144901905
 21
2172.946220485668
 31
0.0
  0
LINE
  5
1DA
330
1F
100
AcDbEntity
  8
0-C_ハッチ
  6
JWW_DASHED1
 62
   120
370
     5
100
AcDbLine
 10
1878.290407060708
 20
2097.946220485674
 30
0.0
 11
1920.310144901905
 21
2139.965958326871
 31
0.0
  0
LINE
  5
1DB
330
1F
100
AcDbEntity
  8
0-C_ハッチ
  6
JWW_DASHED1
 62
   120
370
     5
100
AcDbLine
 10
1835.864000189512
 20
2097.946220485678
 30
0.0
 11
1910.864000189504
 21
2172.946220485668
 31
0.0
  0
LINE
  5
1DC
330
1F
100
AcDbEntity
  8
0-3_仕上げ
  6
Continuous
 62
    40
370
    15
100
AcDbLine
 10
-3623.689459194383
 20
2097.946220485668
 30
0.0
 11
-2993.689657146223
 21
2097.946220485668
 31
0.0
  0
LINE
  5
1DD
330
1F
100
AcDbEntity
  8
0-3_仕上げ
  6
Continuous
 62
    40
370
    15
100
AcDbLine
 10
-3623.689459194383
 20
2172.946220485668
 30
0.0
 11
-2993.689657146223
 21
2172.946220485668
 31
0.0
  0
LINE
  5
1DE
330
1F
100
AcDbEntity
  8
0-C_ハッチ
  6
JWW_DASHED1
 62
   120
370
     5
100
AcDbLine
 10
-3599.679091184118
 20
2097.946220485668
 30
0.0
 11
-3524.679091184106
 21
2172.946220485682
 31
0.0
  0
LINE
  5
1DF
330
1F
100
AcDbEntity
  8
0-C_ハッチ
  6
JWW_DASHED1
 62
   120
370
     5
100
AcDbLine
 10
-3623.689459194383
 20
2116.362259346605
 30
0.0
 11
-3567.105498055303
 21
2172.946220485686
 31
0.0
  0
MTEXT
  5
1E0
330
1F
100
AcDbEntity
  8
0-3_仕上げ
  6
Continuous
 62
     7
370
   211
100
AcDbMText
 10
-2720.689459194373
 20
-2901.781431134225
 30
0.0
 40
91.44000000000129
 41
120.0000000000017
 46
0.0
 71
     7
 72
     1
  1
{\fＭＳ ゴシック|b0|i0|c128|p49;32}
 73
     1
 44
1.0
  0
MTEXT
  5
1E1
330
1F
100
AcDbEntity
  8
0-A_文字
  6
Continuous
 62
     7
370
     9
100
AcDbMText
 10
-3611.689459194394
 20
198.8080100189872
 30
0.0
 40
91.44
 41
600.0
 46
0.0
 71
     7
 72
     1
  1
{\fＭＳ ゴシック|b0|i0|c128|p49;■縦断面図}
 73
     1
 44
1.0
  0
MTEXT
  5
1E2
330
1F
100
AcDbEntity
  8
0-A_文字
  6
Continuous
 62
     7
370
     9
100
AcDbMText
 10
-3611.689459194394
 20
50.28774485154391
 30
0.0
 40
91.44000000000001
 41
1800.0
 46
0.0
 71
     7
 72
     1
  1
{\fＭＳ ゴシック|b0|i0|c128|p49;　[３方枠＋レール(レール埋込)]}
 73
     1
 44
1.0
  0
MTEXT
  5
1E3
330
1F
100
AcDbEntity
  8
0-B_寸法
  6
Continuous
 62
     7
370
   211
100
AcDbMText
 10
-1507.94625164698
 20
-260.0312686796411
 30
0.0
 40
91.43999999999805
 41
59.99999999999872
 46
0.0
 71
     7
 72
     1
  1
{\fＭＳ ゴシック|b0|i0|c128|p49;8}
 11
6.123031769111886E-17
 21
1.0
 31
0.0
 73
     1
 44
1.0
  0
MTEXT
  5
1E4
330
1F
100
AcDbEntity
  8
0-B_寸法
  6
Continuous
 62
     7
370
   211
100
AcDbMText
 10
-2069.689459194377
 20
-304.7257350661095
 30
0.0
 40
91.44000000000129
 41
60.00000000000085
 46
0.0
 71
     7
 72
     1
  1
{\fＭＳ ゴシック|b0|i0|c128|p49;8}
 11
6.123031769111886E-17
 21
1.0
 31
0.0
 73
     1
 44
1.0
  0
MTEXT
  5
1E5
330
1F
100
AcDbEntity
  8
0-B_寸法
  6
Continuous
 62
     7
370
   211
100
AcDbMText
 10
-2069.689459194377
 20
-390.2791294234634
 30
0.0
 40
91.44000000000129
 41
60.00000000000085
 46
0.0
 71
     7
 72
     1
  1
{\fＭＳ ゴシック|b0|i0|c128|p49;9}
 11
6.123031769111886E-17
 21
1.0
 31
0.0
 73
     1
 44
1.0
  0
MTEXT
  5
1E6
330
1F
100
AcDbEntity
  8
0-B_寸法
  6
Continuous
 62
     7
370
     0
100
AcDbMText
 10
-1694.688766362877
 20
-480.2790725123053
 30
0.0
 40
91.43999999999966
 41
119.9999999999996
 46
0.0
 71
     7
 72
     1
  1
{\fＭＳ ゴシック|b0|i0|c128|p49;36}
 11
6.123031769111886E-17
 21
1.0
 31
0.0
 73
     1
 44
1.0
  0
MTEXT
  5
1E7
330
1F
100
AcDbEntity
  8
0-B_寸法
  6
Continuous
 62
     7
370
   211
100
AcDbMText
 10
-2069.689459194377
 20
-498.2791294234641
 30
0.0
 40
91.44000000000129
 41
60.00000000000085
 46
0.0
 71
     7
 72
     1
  1
{\fＭＳ ゴシック|b0|i0|c128|p49;9}
 11
6.123031769111886E-17
 21
1.0
 31
0.0
 73
     1
 44
1.0
  0
MTEXT
  5
1E8
330
1F
100
AcDbEntity
  8
0-B_寸法
  6
Continuous
 62
     7
370
   211
100
AcDbMText
 10
-2069.689459194377
 20
-665.9420510709082
 30
0.0
 40
91.43999999999966
 41
119.9999999999996
 46
0.0
 71
     7
 72
     1
  1
{\fＭＳ ゴシック|b0|i0|c128|p49;10}
 11
6.123031769111886E-17
 21
1.0
 31
0.0
 73
     1
 44
1.0
  0
MTEXT
  5
1E9
330
1F
100
AcDbEntity
  8
0-B_寸法
  6
Continuous
 62
     7
370
     0
100
AcDbMText
 10
-1874.117241774683
 20
-751.2353149729322
 30
0.0
 40
91.44000000000023
 41
180.0000000000004
 46
0.0
 71
     7
 72
     1
  1
{\fＭＳ ゴシック|b0|i0|c128|p49;7.5}
 11
6.123031769111886E-17
 21
1.0
 31
0.0
 73
     1
 44
1.0
  0
MTEXT
  5
1EA
330
1F
100
AcDbEntity
  8
0-B_寸法
  6
Continuous
 62
     7
370
     0
100
AcDbMText
 10
-2720.690008510801
 20
-808.7618943240949
 30
0.0
 40
91.4400000000013
 41
120.0000000000017
 46
0.0
 71
     7
 72
     1
  1
{\fＭＳ ゴシック|b0|i0|c128|p49;77}
 73
     1
 44
1.0
  0
LINE
  5
1EB
330
1F
100
AcDbEntity
  8
0-3_仕上げ
  6
Continuous
 62
     7
370
     9
100
AcDbLine
 10
-2585.689117108822
 20
-3238.000113874221
 30
0.0
 11
-2069.689459194378
 21
-3238.000113874221
 31
0.0
  0
LINE
  5
1EC
330
1F
100
AcDbEntity
  8
0-3_仕上げ
  6
Continuous
 62
     7
370
     9
100
AcDbLine
 10
-2585.689117108822
 20
-3250.000264812515
 30
0.0
 11
-2069.689459194378
 21
-3250.000264812515
 31
0.0
  0
LINE
  5
1ED
330
1F
100
AcDbEntity
  8
0-3_仕上げ
  6
Continuous
 62
     7
370
     9
100
AcDbLine
 10
-2585.689117108822
 20
-3262.00023017094
 30
0.0
 11
-2069.689459194378
 21
-3262.00023017094
 31
0.0
  0
LINE
  5
1EE
330
1F
100
AcDbEntity
  8
0-3_仕上げ
  6
Continuous
 62
     7
370
     9
100
AcDbLine
 10
-2585.689117108822
 20
-3274.000195529365
 30
0.0
 11
-2069.689459194378
 21
-3274.000195529365
 31
0.0
  0
LINE
  5
1EF
330
1F
100
AcDbEntity
  8
0-3_仕上げ
  6
Continuous
 62
     7
370
     9
100
AcDbLine
 10
-2585.689117108822
 20
-3286.000346467658
 30
0.0
 11
-2069.689459194378
 21
-3286.000346467658
 31
0.0
  0
LINE
  5
1F0
330
1F
100
AcDbEntity
  8
0-3_仕上げ
  6
Continuous
 62
    40
370
    15
100
AcDbLine
 10
-2069.689459194378
 20
-3226.000334095665
 30
0.0
 11
-2585.689117108822
 21
-3226.000334095665
 31
0.0
  0
LINE
  5
1F1
330
1F
100
AcDbEntity
  8
0-0_補助線
  6
JWW_HOJO
 62
   120
370
     5
100
AcDbLine
 10
-1709.689459194378
 20
2.000074026429672
 30
0.0
 11
-3623.689459194383
 21
2.000074026429672
 31
0.0
  0
LINE
  5
1F2
330
1F
100
AcDbEntity
  8
0-1_通り芯
  6
JWW_CENTER1
 62
   120
370
     5
100
AcDbLine
 10
-2660.689459194372
 20
-3519.904954944439
 30
0.0
 11
-2660.689459194372
 21
2.000074026429672
 31
0.0
  0
LINE
  5
1F3
330
1F
100
AcDbEntity
  8
0-0_補助線
  6
JWW_HOJO
 62
   120
370
     5
100
AcDbLine
 10
-2069.689459194378
 20
2.000074026429672
 30
0.0
 11
-2069.689459194378
 21
-3297.99994081996
 31
0.0
  0
LINE
  5
1F4
330
1F
100
AcDbEntity
  8
0-0_補助線
  6
JWW_HOJO
 62
   120
370
     5
100
AcDbLine
 10
-3263.689459194383
 20
2.000074026429672
 30
0.0
 11
-3263.689459194383
 21
-3297.99994081996
 31
0.0
  0
LINE
  5
1F5
330
1F
100
AcDbEntity
  8
0-0_補助線
  6
JWW_HOJO
 62
   120
370
     5
100
AcDbLine
 10
-3623.689459194383
 20
2.000074026429672
 30
0.0
 11
-3623.689459194383
 21
-3297.99994081996
 31
0.0
  0
LINE
  5
1F6
330
1F
100
AcDbEntity
  8
0-0_補助線
  6
JWW_HOJO
 62
   120
370
     5
100
AcDbLine
 10
-1709.689459194378
 20
2.000074026429672
 30
0.0
 11
-1709.689459194378
 21
-3297.99994081996
 31
0.0
  0
LINE
  5
1F7
330
1F
100
AcDbEntity
  8
0-B_寸法
  6
Continuous
 62
   120
370
     5
100
AcDbLine
 10
-2069.689459194378
 20
-3174.999460992826
 30
0.0
 11
-1859.689459194378
 21
-3174.999460992826
 31
0.0
  0
LWPOLYLINE
  5
1F8
330
1F
100
AcDbEntity
  8
0-B_寸法
  6
Continuous
 62
     7
370
     9
100
AcDbPolyline
 90
        4
 70
     1
 43
3.0
 10
-3622.189459194384
 20
-3297.99994081996
 42
0.4142135623731
 10
-3623.689459194383
 20
-3296.49994081996
 42
0.4142135623731
 10
-3625.189459194383
 20
-3297.99994081996
 42
0.4142135623731
 10
-3623.689459194383
 20
-3299.49994081996
 42
0.4142135623731
  0
LINE
  5
1F9
330
1F
100
AcDbEntity
  8
0-B_寸法
  6
Continuous
 62
   120
370
     5
100
AcDbLine
 10
-3623.689459194383
 20
-3297.99994081996
 30
0.0
 11
-3263.689459194383
 21
-3297.99994081996
 31
0.0
  0
LINE
  5
1FA
330
1F
100
AcDbEntity
  8
0-B_寸法
  6
Continuous
 62
   120
370
     5
100
AcDbLine
 10
-2069.689459194378
 20
-3297.999941026083
 30
0.0
 11
-1499.689459194378
 21
-3297.999941026083
 31
0.0
  0
LWPOLYLINE
  5
1FB
330
1F
100
AcDbEntity
  8
0-B_寸法
  6
Continuous
 62
     7
370
     9
100
AcDbPolyline
 90
        4
 70
     1
 43
3.0
 10
-1498.189459194378
 20
-3297.999941026083
 42
0.4142135623731
 10
-1499.689459194378
 20
-3296.499941026083
 42
0.4142135623731
 10
-1501.189459194378
 20
-3297.999941026083
 42
0.4142135623731
 10
-1499.689459194378
 20
-3299.499941026083
 42
0.4142135623731
  0
LWPOLYLINE
  5
1FC
330
1F
100
AcDbEntity
  8
0-B_寸法
  6
Continuous
 62
     7
370
     9
100
AcDbPolyline
 90
        4
 70
     1
 43
3.0
 10
-1858.189459194378
 20
-3174.999460992826
 42
0.4142135623731
 10
-1859.689459194378
 20
-3173.499460992826
 42
0.4142135623731
 10
-1861.189459194378
 20
-3174.999460992826
 42
0.4142135623731
 10
-1859.689459194378
 20
-3176.499460992826
 42
0.4142135623731
  0
LWPOLYLINE
  5
1FD
330
1F
100
AcDbEntity
  8
0-B_寸法
  6
Continuous
 62
     7
370
     9
100
AcDbPolyline
 90
        4
 70
     1
 43
3.0
 10
-1858.189459194378
 20
-3225.999592135932
 42
0.4142135623731
 10
-1859.689459194378
 20
-3224.499592135932
 42
0.4142135623731
 10
-1861.189459194378
 20
-3225.999592135932
 42
0.4142135623731
 10
-1859.689459194378
 20
-3227.499592135931
 42
0.4142135623731
  0
LINE
  5
1FE
330
1F
100
AcDbEntity
  8
0-B_寸法
  6
Continuous
 62
   120
370
     5
100
AcDbLine
 10
-1859.689459194378
 20
-3225.999592135932
 30
0.0
 11
-1859.689459194378
 21
-513.9989463179945
 31
0.0
  0
LINE
  5
1FF
330
1F
100
AcDbEntity
  8
0-B_寸法
  6
Continuous
 62
   120
370
     5
100
AcDbLine
 10
-2069.689459194378
 20
-3225.999592135932
 30
0.0
 11
-1679.689459194378
 21
-3225.999592135932
 31
0.0
  0
LINE
  5
200
330
1F
100
AcDbEntity
  8
0-B_寸法
  6
Continuous
 62
   120
370
     5
100
AcDbLine
 10
-1679.689459194378
 20
-3297.999569866349
 30
0.0
 11
-1679.689459194378
 21
-297.9995698663473
 31
0.0
  0
LINE
  5
201
330
1F
100
AcDbEntity
  8
0-B_寸法
  6
Continuous
 62
   120
370
     5
100
AcDbLine
 10
-1859.689459194378
 20
-3297.999569866349
 30
0.0
 11
-1679.689459194378
 21
-3297.999569866349
 31
0.0
  0
LWPOLYLINE
  5
202
330
1F
100
AcDbEntity
  8
0-B_寸法
  6
Continuous
 62
     7
370
     9
100
AcDbPolyline
 90
        4
 70
     1
 43
3.0
 10
-1678.189459194378
 20
-3297.999569866349
 42
0.4142135623731
 10
-1679.689459194378
 20
-3296.499569866349
 42
0.4142135623731
 10
-1681.189459194378
 20
-3297.999569866349
 42
0.4142135623731
 10
-1679.689459194378
 20
-3299.499569866349
 42
0.4142135623731
  0
LWPOLYLINE
  5
203
330
1F
100
AcDbEntity
  8
0-B_寸法
  6
Continuous
 62
     7
370
     9
100
AcDbPolyline
 90
        4
 70
     1
 43
3.0
 10
-1678.189459194378
 20
-3225.999592135932
 42
0.4142135623731
 10
-1679.689459194378
 20
-3224.499592135932
 42
0.4142135623731
 10
-1681.189459194378
 20
-3225.999592135932
 42
0.4142135623731
 10
-1679.689459194378
 20
-3227.499592135931
 42
0.4142135623731
  0
LWPOLYLINE
  5
204
330
1F
100
AcDbEntity
  8
0-B_寸法
  6
Continuous
 62
     7
370
     9
100
AcDbPolyline
 90
        4
 70
     1
 43
3.0
 10
-1498.189459194378
 20
-297.9995698663473
 42
0.4142135623731
 10
-1499.689459194378
 20
-296.4995698663473
 42
0.4142135623731
 10
-1501.189459194378
 20
-297.9995698663473
 42
0.4142135623731
 10
-1499.689459194378
 20
-299.4995698663473
 42
0.4142135623731
  0
LWPOLYLINE
  5
205
330
1F
100
AcDbEntity
  8
0-B_寸法
  6
Continuous
 62
     7
370
     9
100
AcDbPolyline
 90
        4
 70
     1
 43
3.0
 10
-1858.189459194378
 20
-513.9989463179945
 42
0.4142135623731
 10
-1859.689459194378
 20
-512.4989463179945
 42
0.4142135623731
 10
-1861.189459194378
 20
-513.9989463179945
 42
0.4142135623731
 10
-1859.689459194378
 20
-515.4989463179945
 42
0.4142135623731
  0
LWPOLYLINE
  5
206
330
1F
100
AcDbEntity
  8
0-B_寸法
  6
Continuous
 62
     7
370
     9
100
AcDbPolyline
 90
        4
 70
     1
 43
3.0
 10
-1858.189459194378
 20
-558.9990947818883
 42
0.4142135623731
 10
-1859.689459194378
 20
-557.4990947818883
 42
0.4142135623731
 10
-1861.189459194378
 20
-558.9990947818883
 42
0.4142135623731
 10
-1859.689459194378
 20
-560.4990947818883
 42
0.4142135623731
  0
LINE
  5
207
330
1F
100
AcDbEntity
  8
0-B_寸法
  6
Continuous
 62
   120
370
     5
100
AcDbLine
 10
-2069.689459194378
 20
-558.9990947818883
 30
0.0
 11
-1859.689459194378
 21
-558.9990947818883
 31
0.0
  0
LINE
  5
208
330
1F
100
AcDbEntity
  8
0-B_寸法
  6
Continuous
 62
   120
370
     5
100
AcDbLine
 10
-1859.689459194378
 20
-513.998575158261
 30
0.0
 11
-1679.689459194378
 21
-513.998575158261
 31
0.0
  0
LWPOLYLINE
  5
209
330
1F
100
AcDbEntity
  8
0-B_寸法
  6
Continuous
 62
     7
370
     9
100
AcDbPolyline
 90
        4
 70
     1
 43
3.0
 10
-1678.189459194378
 20
-513.998575158261
 42
0.4142135623731
 10
-1679.689459194378
 20
-512.498575158261
 42
0.4142135623731
 10
-1681.189459194378
 20
-513.998575158261
 42
0.4142135623731
 10
-1679.689459194378
 20
-515.498575158261
 42
0.4142135623731
  0
LWPOLYLINE
  5
20A
330
1F
100
AcDbEntity
  8
0-B_寸法
  6
Continuous
 62
     7
370
     9
100
AcDbPolyline
 90
        4
 70
     1
 43
3.0
 10
-1678.189459194378
 20
-297.9995698663473
 42
0.4142135623731
 10
-1679.689459194378
 20
-296.4995698663473
 42
0.4142135623731
 10
-1681.189459194378
 20
-297.9995698663473
 42
0.4142135623731
 10
-1679.689459194378
 20
-299.4995698663473
 42
0.4142135623731
  0
LINE
  5
20B
330
1F
100
AcDbEntity
  8
0-0_補助線
  6
JWW_HOJO
 62
   120
370
     5
100
AcDbLine
 10
-1859.689459194378
 20
-3297.99994081996
 30
0.0
 11
-3623.689459194383
 21
-3297.99994081996
 31
0.0
  0
MTEXT
  5
20C
330
1F
100
AcDbEntity
  8
0-B_寸法
  6
Continuous
 62
     7
370
     0
100
AcDbMText
 10
-1874.155954441784
 20
-3191.411730017681
 30
0.0
 40
91.4400000000013
 41
180.0000000000026
 46
0.0
 71
     7
 72
     1
  1
{\fＭＳ ゴシック|b0|i0|c128|p49;8.5}
 11
6.123031769111886E-17
 21
1.0
 31
0.0
 73
     1
 44
1.0
  0
MTEXT
  5
20D
330
1F
100
AcDbEntity
  8
0-B_寸法
  6
Continuous
 62
     7
370
     0
100
AcDbMText
 10
-1694.688766362877
 20
-3446.060221696647
 30
0.0
 40
91.43999999999805
 41
119.9999999999974
 46
0.0
 71
     7
 72
     1
  1
{\fＭＳ ゴシック|b0|i0|c128|p49;12}
 11
6.123031769111886E-17
 21
1.0
 31
0.0
 73
     1
 44
1.0
  0
LINE
  5
20E
330
1F
100
AcDbEntity
  8
0-3_仕上げ
  6
Continuous
 62
   120
370
     5
100
AcDbLine
 10
-2756.689013802706
 20
-2902.501431134224
 30
0.0
 11
-2564.689904586066
 21
-2902.501431134224
 31
0.0
  0
LWPOLYLINE
  5
20F
330
1F
100
AcDbEntity
  8
0-3_仕上げ
  6
Continuous
 62
     7
370
     9
100
AcDbPolyline
 90
        4
 70
     1
 43
3.0
 10
-2755.189013802707
 20
-2902.501431134224
 42
0.4142135623731
 10
-2756.689013802706
 20
-2901.001431134224
 42
0.4142135623731
 10
-2758.189013802706
 20
-2902.501431134224
 42
0.4142135623731
 10
-2756.689013802706
 20
-2904.001431134224
 42
0.4142135623731
  0
LWPOLYLINE
  5
210
330
1F
100
AcDbEntity
  8
0-3_仕上げ
  6
Continuous
 62
     7
370
     9
100
AcDbPolyline
 90
        4
 70
     1
 43
3.0
 10
-2563.189904586066
 20
-2902.501431134224
 42
0.4142135623731
 10
-2564.689904586066
 20
-2901.001431134224
 42
0.4142135623731
 10
-2566.189904586066
 20
-2902.501431134224
 42
0.4142135623731
 10
-2564.689904586066
 20
-2904.001431134224
 42
0.4142135623731
  0
LINE
  5
211
330
1F
100
AcDbEntity
  8
0-3_仕上げ
  6
Continuous
 62
   120
370
     5
100
AcDbLine
 10
-2756.689013802706
 20
-2902.501431134224
 30
0.0
 11
-2756.689013802706
 21
-3011.209140507489
 31
0.0
  0
LINE
  5
212
330
1F
100
AcDbEntity
  8
0-3_仕上げ
  6
Continuous
 62
   120
370
     5
100
AcDbLine
 10
-2564.689904586066
 20
-2902.501431134224
 30
0.0
 11
-2564.689904586066
 21
-3011.209140507489
 31
0.0
  0
LINE
  5
213
330
1F
100
AcDbEntity
  8
0-3_仕上げ
  6
Continuous
 62
    40
370
    15
100
AcDbLine
 10
-3251.689459194394
 20
-3298.000311826083
 30
0.0
 11
-1907.203479650243
 21
-3298.000311826083
 31
0.0
  0
LINE
  5
214
330
1F
100
AcDbEntity
  8
0-3_仕上げ
  6
Continuous
 62
     7
370
     9
100
AcDbLine
 10
-3251.689459194394
 20
-3238.000113874221
 30
0.0
 11
-2735.689117108822
 21
-3238.000113874221
 31
0.0
  0
LINE
  5
215
330
1F
100
AcDbEntity
  8
0-3_仕上げ
  6
Continuous
 62
     7
370
     9
100
AcDbLine
 10
-3251.689459194394
 20
-3250.000264812515
 30
0.0
 11
-2735.689117108822
 21
-3250.000264812515
 31
0.0
  0
LINE
  5
216
330
1F
100
AcDbEntity
  8
0-3_仕上げ
  6
Continuous
 62
     7
370
     9
100
AcDbLine
 10
-3251.689459194394
 20
-3262.00023017094
 30
0.0
 11
-2735.689117108822
 21
-3262.00023017094
 31
0.0
  0
LINE
  5
217
330
1F
100
AcDbEntity
  8
0-3_仕上げ
  6
Continuous
 62
     7
370
     9
100
AcDbLine
 10
-3251.689459194394
 20
-3274.000195529365
 30
0.0
 11
-2735.689117108822
 21
-3274.000195529365
 31
0.0
  0
LINE
  5
218
330
1F
100
AcDbEntity
  8
0-3_仕上げ
  6
Continuous
 62
     7
370
     9
100
AcDbLine
 10
-3251.689459194394
 20
-3286.000346467658
 30
0.0
 11
-2735.689117108822
 21
-3286.000346467658
 31
0.0
  0
LINE
  5
219
330
1F
100
AcDbEntity
  8
0-3_仕上げ
  6
Continuous
 62
    40
370
    15
100
AcDbLine
 10
-3251.689459194394
 20
-3226.000334095665
 30
0.0
 11
-2735.689117108822
 21
-3226.000334095665
 31
0.0
  0
LINE
  5
21A
330
1F
100
AcDbEntity
  8
0-3_仕上げ
  6
Continuous
 62
    40
370
    15
100
AcDbLine
 10
-2735.689459194372
 20
-3298.000497405949
 30
0.0
 11
-2735.689459194372
 21
-3226.000705255399
 31
0.0
  0
LINE
  5
21B
330
1F
100
AcDbEntity
  8
0-3_仕上げ
  6
Continuous
 62
    40
370
    15
100
AcDbLine
 10
-2585.689459194372
 20
-3298.000497405949
 30
0.0
 11
-2585.689459194372
 21
-3226.000705255399
 31
0.0
  0
LINE
  5
21C
330
1F
100
AcDbEntity
  8
0-C_ハッチ
  6
Continuous
 62
   120
370
     5
100
AcDbLine
 10
-2729.689459194378
 20
-3276.120416773097
 30
0.0
 11
-2720.689459194372
 21
-3267.120416773098
 31
0.0
  0
LINE
  5
21D
330
1F
100
AcDbEntity
  8
0-7_金物
  6
Continuous
 62
    92
370
    13
100
AcDbLine
 10
-2720.689459194372
 20
-3268.000705101788
 30
0.0
 11
-2600.689459194372
 21
-3268.000705101788
 31
0.0
  0
LINE
  5
21E
330
1F
100
AcDbEntity
  8
0-7_金物
  6
Continuous
 62
    92
370
    13
100
AcDbLine
 10
-2720.689459194372
 20
-3256.000705101788
 30
0.0
 11
-2720.689459194372
 21
-3268.000705101788
 31
0.0
  0
LINE
  5
21F
330
1F
100
AcDbEntity
  8
0-7_金物
  6
Continuous
 62
    92
370
    13
100
AcDbLine
 10
-2720.689459194372
 20
-3256.000705101788
 30
0.0
 11
-2729.689517514443
 21
-3256.000705101788
 31
0.0
  0
LINE
  5
220
330
1F
100
AcDbEntity
  8
0-7_金物
  6
Continuous
 62
    92
370
    13
100
AcDbLine
 10
-2600.689459194372
 20
-3256.000705101788
 30
0.0
 11
-2591.878543874727
 21
-3256.000705101788
 31
0.0
  0
LINE
  5
221
330
1F
100
AcDbEntity
  8
0-7_金物
  6
Continuous
 62
    92
370
    13
100
AcDbLine
 10
-2600.689459194372
 20
-3256.000705101788
 30
0.0
 11
-2600.689459194372
 21
-3268.000705101788
 31
0.0
  0
LINE
  5
222
330
1F
100
AcDbEntity
  8
0-7_金物
  6
Continuous
 62
    92
370
    13
100
AcDbLine
 10
-2591.878602194819
 20
-3256.00048277149
 30
0.0
 11
-2591.878602194819
 21
-3298.000705101788
 31
0.0
  0
LINE
  5
223
330
1F
100
AcDbEntity
  8
0-7_金物
  6
Continuous
 62
    92
370
    13
100
AcDbLine
 10
-2729.689459194378
 20
-3256.00048277149
 30
0.0
 11
-2729.689459194378
 21
-3298.000705101788
 31
0.0
  0
LINE
  5
224
330
1F
100
AcDbEntity
  8
0-7_金物
  6
Continuous
 62
    92
370
    13
100
AcDbLine
 10
-2729.689459194378
 20
-3298.000705101788
 30
0.0
 11
-2591.878602194819
 21
-3298.000705101788
 31
0.0
  0
LINE
  5
225
330
1F
100
AcDbEntity
  8
0-C_ハッチ
  6
Continuous
 62
   120
370
     5
100
AcDbLine
 10
-2598.834682786773
 20
-3298.000705101788
 30
0.0
 11
-2591.878602194819
 21
-3291.044624509816
 31
0.0
  0
LINE
  5
226
330
1F
100
AcDbEntity
  8
0-C_ハッチ
  6
Continuous
 62
   120
370
     5
100
AcDbLine
 10
-2726.113903400346
 20
-3298.000705101788
 30
0.0
 11
-2696.113903400346
 21
-3268.000705101788
 31
0.0
  0
LINE
  5
227
330
1F
100
AcDbEntity
  8
0-C_ハッチ
  6
Continuous
 62
   120
370
     5
100
AcDbLine
 10
-2649.746371032224
 20
-3298.000705101788
 30
0.0
 11
-2619.746371032224
 21
-3268.000705101788
 31
0.0
  0
LINE
  5
228
330
1F
100
AcDbEntity
  8
0-C_ハッチ
  6
Continuous
 62
   120
370
     5
100
AcDbLine
 10
-2675.202215154949
 20
-3298.000705101788
 30
0.0
 11
-2645.202215154922
 21
-3268.000705101788
 31
0.0
  0
LINE
  5
229
330
1F
100
AcDbEntity
  8
0-C_ハッチ
  6
Continuous
 62
   120
370
     5
100
AcDbLine
 10
-2700.658059277648
 20
-3298.000705101788
 30
0.0
 11
-2670.658059277648
 21
-3268.000705101784
 31
0.0
  0
LINE
  5
22A
330
1F
100
AcDbEntity
  8
0-C_ハッチ
  6
Continuous
 62
   120
370
     5
100
AcDbLine
 10
-2624.290526909499
 20
-3298.000705101788
 30
0.0
 11
-2591.878602194819
 21
-3265.588780387098
 31
0.0
  0
LINE
  5
22B
330
1F
100
AcDbEntity
  8
0-7_金物
  6
Continuous
 62
     7
370
     9
100
AcDbLine
 10
-2618.688823583343
 20
-3229.367745736013
 30
0.0
 11
-2702.689694571518
 21
-3229.367745736013
 31
0.0
  0
LINE
  5
22C
330
1F
100
AcDbEntity
  8
0-7_金物
  6
Continuous
 62
     7
370
     9
100
AcDbLine
 10
-2651.689377848542
 20
-3175.000705101786
 30
0.0
 11
-2651.689377848542
 21
-3229.367745736013
 31
0.0
  0
LINE
  5
22D
330
1F
100
AcDbEntity
  8
0-7_金物
  6
Continuous
 62
     7
370
     9
100
AcDbLine
 10
-2669.689140306318
 20
-3175.000705101786
 30
0.0
 11
-2669.689140306318
 21
-3229.367745736013
 31
0.0
  0
LINE
  5
22E
330
1F
100
AcDbEntity
  8
0-7_金物
  6
Continuous
 62
     7
370
     9
100
AcDbLine
 10
-2636.690070680042
 20
-3241.367745736011
 30
0.0
 11
-2684.689932113742
 21
-3241.367745736011
 31
0.0
  0
LINE
  5
22F
330
1F
100
AcDbEntity
  8
0-7_金物
  6
Continuous
 62
     7
370
     9
100
AcDbLine
 10
-2651.689377848542
 20
-3246.065143328918
 30
0.0
 11
-2669.689140306318
 21
-3246.065143328918
 31
0.0
  0
LINE
  5
230
330
1F
100
AcDbEntity
  8
0-7_金物
  6
Continuous
 62
     7
370
     9
100
AcDbLine
 10
-2651.689377848542
 20
-3241.367745736011
 30
0.0
 11
-2651.689377848542
 21
-3246.065143328918
 31
0.0
  0
LINE
  5
231
330
1F
100
AcDbEntity
  8
0-7_金物
  6
Continuous
 62
     7
370
     9
100
AcDbLine
 10
-2669.689140306318
 20
-3241.367745736011
 30
0.0
 11
-2669.689140306318
 21
-3246.065143328918
 31
0.0
  0
LINE
  5
232
330
1F
100
AcDbEntity
  8
0-7_金物
  6
Continuous
 62
     7
370
     9
100
AcDbLine
 10
-2636.690070680042
 20
-3241.367745736011
 30
0.0
 11
-2636.690070680042
 21
-3253.367745736014
 31
0.0
  0
LINE
  5
233
330
1F
100
AcDbEntity
  8
0-7_金物
  6
Continuous
 62
     7
370
     9
100
AcDbLine
 10
-2618.688823583343
 20
-3229.367745736013
 30
0.0
 11
-2618.688823583343
 21
-3253.367745736014
 31
0.0
  0
LINE
  5
234
330
1F
100
AcDbEntity
  8
0-7_金物
  6
Continuous
 62
     7
370
     9
100
AcDbLine
 10
-2684.689932113742
 20
-3241.367745736011
 30
0.0
 11
-2684.689932113742
 21
-3253.367745736014
 31
0.0
  0
LINE
  5
235
330
1F
100
AcDbEntity
  8
0-7_金物
  6
Continuous
 62
     7
370
     9
100
AcDbLine
 10
-2702.689694571518
 20
-3229.367745736013
 30
0.0
 11
-2702.689694571518
 21
-3253.367745736014
 31
0.0
  0
LINE
  5
236
330
1F
100
AcDbEntity
  8
0-7_金物
  6
Continuous
 62
     7
370
     9
100
AcDbLine
 10
-2702.689694571518
 20
-3253.367745736014
 30
0.0
 11
-2618.688823583343
 21
-3253.367745736014
 31
0.0
  0
LINE
  5
237
330
1F
100
AcDbEntity
  8
0-7_金物
  6
Continuous
 62
     7
370
     9
100
AcDbLine
 10
-2711.689459194394
 20
-3260.800705101788
 30
0.0
 11
-2699.689459194378
 21
-3260.800705101788
 31
0.0
  0
LINE
  5
238
330
1F
100
AcDbEntity
  8
0-7_金物
  6
Continuous
 62
     7
370
     9
100
AcDbLine
 10
-2693.689459194383
 20
-3260.800705101788
 30
0.0
 11
-2662.489459194384
 21
-3260.800705101788
 31
0.0
  0
LINE
  5
239
330
1F
100
AcDbEntity
  8
0-7_金物
  6
Continuous
 62
     7
370
     9
100
AcDbLine
 10
-2662.489459194384
 20
-3260.800705101788
 30
0.0
 11
-2660.689459194372
 21
-3262.600705101789
 31
0.0
  0
LINE
  5
23A
330
1F
100
AcDbEntity
  8
0-7_金物
  6
Continuous
 62
     7
370
     9
100
AcDbLine
 10
-2660.689459194372
 20
-3262.600705101789
 30
0.0
 11
-2658.889459194388
 21
-3260.800705101788
 31
0.0
  0
LINE
  5
23B
330
1F
100
AcDbEntity
  8
0-7_金物
  6
Continuous
 62
     7
370
     9
100
AcDbLine
 10
-2658.889459194388
 20
-3260.800705101788
 30
0.0
 11
-2627.689459194389
 21
-3260.800705101788
 31
0.0
  0
LINE
  5
23C
330
1F
100
AcDbEntity
  8
0-7_金物
  6
Continuous
 62
     7
370
     9
100
AcDbLine
 10
-2621.689459194394
 20
-3260.800705101788
 30
0.0
 11
-2609.689459194378
 21
-3260.800705101788
 31
0.0
  0
LINE
  5
23D
330
1F
100
AcDbEntity
  8
0-7_金物
  6
Continuous
 62
     7
370
     9
100
AcDbLine
 10
-2566.48945919439
 20
-3226.000705101788
 30
0.0
 11
-2602.489459194384
 21
-3226.000705101788
 31
0.0
  0
LINE
  5
23E
330
1F
100
AcDbEntity
  8
0-7_金物
  6
Continuous
 62
     7
370
     9
100
AcDbLine
 10
-2718.889459194388
 20
-3226.000705101788
 30
0.0
 11
-2754.889459194382
 21
-3226.000705101788
 31
0.0
  0
LINE
  5
23F
330
1F
100
AcDbEntity
  8
0-7_金物
  6
Continuous
 62
     7
370
     9
100
AcDbLine
 10
-2718.889459194388
 20
-3218.800705101788
 30
0.0
 11
-2754.889459194382
 21
-3222.400705101788
 31
0.0
  0
ARC
  5
240
330
1F
100
AcDbEntity
  8
0-7_金物
  6
Continuous
 62
     7
370
     9
100
AcDbCircle
 10
-2754.889459194382
 20
-3224.200705101789
 30
0.0
 40
1.8
100
AcDbArc
 50
90.0
 51
270.0
  0
ARC
  5
241
330
1F
100
AcDbEntity
  8
0-7_金物
  6
Continuous
 62
     7
370
     9
100
AcDbCircle
 10
-2566.48945919439
 20
-3224.200705101789
 30
0.0
 40
1.8
100
AcDbArc
 50
270.0
 51
89.99999999999997
  0
LINE
  5
242
330
1F
100
AcDbEntity
  8
0-7_金物
  6
Continuous
 62
     7
370
     9
100
AcDbLine
 10
-2566.48945919439
 20
-3222.400705101788
 30
0.0
 11
-2602.489459194384
 21
-3218.800705101788
 31
0.0
  0
LINE
  5
243
330
1F
100
AcDbEntity
  8
0-7_金物
  6
Continuous
 62
     7
370
     9
100
AcDbLine
 10
-2697.28945919438
 20
-3218.800705101788
 30
0.0
 11
-2718.889459194388
 21
-3218.800705101788
 31
0.0
  0
ARC
  5
244
330
1F
100
AcDbEntity
  8
0-7_金物
  6
Continuous
 62
     7
370
     9
100
AcDbCircle
 10
-2697.28945919438
 20
-3222.400705101788
 30
0.0
 40
3.600000000000001
100
AcDbArc
 50
0.0
 51
90.0
  0
ARC
  5
245
330
1F
100
AcDbEntity
  8
0-7_金物
  6
Continuous
 62
     7
370
     9
100
AcDbCircle
 10
-2697.28945919438
 20
-3222.400705101788
 30
0.0
 40
3.600000000000001
100
AcDbArc
 50
270.0
 51
0.0
  0
ARC
  5
246
330
1F
100
AcDbEntity
  8
0-7_金物
  6
Continuous
 62
     7
370
     9
100
AcDbCircle
 10
-2624.089459194392
 20
-3222.400705101788
 30
0.0
 40
3.600000000000001
100
AcDbArc
 50
180.0
 51
270.0
  0
LINE
  5
247
330
1F
100
AcDbEntity
  8
0-7_金物
  6
Continuous
 62
     7
370
     9
100
AcDbLine
 10
-2624.089459194392
 20
-3218.800705101788
 30
0.0
 11
-2602.489459194384
 21
-3218.800705101788
 31
0.0
  0
ARC
  5
248
330
1F
100
AcDbEntity
  8
0-7_金物
  6
Continuous
 62
     7
370
     9
100
AcDbCircle
 10
-2624.089459194392
 20
-3222.400705101788
 30
0.0
 40
3.600000000000001
100
AcDbArc
 50
90.0
 51
180.0
  0
LINE
  5
249
330
1F
100
AcDbEntity
  8
0-7_金物
  6
Continuous
 62
     7
370
     9
100
AcDbLine
 10
-2602.489459194384
 20
-3259.000705101789
 30
0.0
 11
-2602.489459194384
 21
-3226.000705101788
 31
0.0
  0
ARC
  5
24A
330
1F
100
AcDbEntity
  8
0-7_金物
  6
Continuous
 62
     7
370
     9
100
AcDbCircle
 10
-2611.48945919439
 20
-3259.000705101789
 30
0.0
 40
9.000000000000002
100
AcDbArc
 50
270.0
 51
0.0
  0
LINE
  5
24B
330
1F
100
AcDbEntity
  8
0-7_金物
  6
Continuous
 62
     7
370
     9
100
AcDbLine
 10
-2718.889459194388
 20
-3259.000705101789
 30
0.0
 11
-2718.889459194388
 21
-3226.000705101788
 31
0.0
  0
LINE
  5
24C
330
1F
100
AcDbEntity
  8
0-7_金物
  6
Continuous
 62
     7
370
     9
100
AcDbLine
 10
-2709.889459194382
 20
-3268.000705101788
 30
0.0
 11
-2611.48945919439
 21
-3268.000705101788
 31
0.0
  0
ARC
  5
24D
330
1F
100
AcDbEntity
  8
0-7_金物
  6
Continuous
 62
     7
370
     9
100
AcDbCircle
 10
-2709.889459194382
 20
-3259.000705101789
 30
0.0
 40
9.000000000000002
100
AcDbArc
 50
180.0
 51
270.0
  0
LINE
  5
24E
330
1F
100
AcDbEntity
  8
0-7_金物
  6
Continuous
 62
     7
370
     9
100
AcDbLine
 10
-2708.689459194383
 20
-3226.000705101788
 30
0.0
 11
-2697.28945919438
 21
-3226.000705101788
 31
0.0
  0
LINE
  5
24F
330
1F
100
AcDbEntity
  8
0-7_金物
  6
Continuous
 62
     7
370
     9
100
AcDbLine
 10
-2711.689459194394
 20
-3229.000705101789
 30
0.0
 11
-2711.689459194394
 21
-3260.800705101788
 31
0.0
  0
ARC
  5
250
330
1F
100
AcDbEntity
  8
0-7_金物
  6
Continuous
 62
     7
370
     9
100
AcDbCircle
 10
-2708.689459194383
 20
-3229.000705101789
 30
0.0
 40
3.0
100
AcDbArc
 50
90.0
 51
180.0
  0
LINE
  5
251
330
1F
100
AcDbEntity
  8
0-7_金物
  6
Continuous
 62
     7
370
     9
100
AcDbLine
 10
-2612.689459194389
 20
-3226.000705101788
 30
0.0
 11
-2624.089459194392
 21
-3226.000705101788
 31
0.0
  0
LINE
  5
252
330
1F
100
AcDbEntity
  8
0-7_金物
  6
Continuous
 62
     7
370
     9
100
AcDbLine
 10
-2609.689459194378
 20
-3229.000705101789
 30
0.0
 11
-2609.689459194378
 21
-3260.800705101788
 31
0.0
  0
ARC
  5
253
330
1F
100
AcDbEntity
  8
0-7_金物
  6
Continuous
 62
     7
370
     9
100
AcDbCircle
 10
-2612.689459194389
 20
-3229.000705101789
 30
0.0
 40
3.0
100
AcDbArc
 50
0.0
 51
90.0
  0
LINE
  5
254
330
1F
100
AcDbEntity
  8
0-7_金物
  6
Continuous
 62
     7
370
     9
100
AcDbLine
 10
-2699.689459194378
 20
-3256.000705101788
 30
0.0
 11
-2699.689459194378
 21
-3260.800705101788
 31
0.0
  0
ARC
  5
255
330
1F
100
AcDbEntity
  8
0-7_金物
  6
Continuous
 62
     7
370
     9
100
AcDbCircle
 10
-2698.489459194379
 20
-3256.000705101788
 30
0.0
 40
1.2
100
AcDbArc
 50
90.0
 51
180.0
  0
LINE
  5
256
330
1F
100
AcDbEntity
  8
0-7_金物
  6
Continuous
 62
     7
370
     9
100
AcDbLine
 10
-2694.889459194382
 20
-3254.800705101789
 30
0.0
 11
-2698.489459194379
 21
-3254.800705101789
 31
0.0
  0
LINE
  5
257
330
1F
100
AcDbEntity
  8
0-7_金物
  6
Continuous
 62
     7
370
     9
100
AcDbLine
 10
-2693.689459194383
 20
-3256.000705101788
 30
0.0
 11
-2693.689459194383
 21
-3260.800705101788
 31
0.0
  0
ARC
  5
258
330
1F
100
AcDbEntity
  8
0-7_金物
  6
Continuous
 62
     7
370
     9
100
AcDbCircle
 10
-2694.889459194382
 20
-3256.000705101788
 30
0.0
 40
1.2
100
AcDbArc
 50
0.0
 51
90.0
  0
LINE
  5
259
330
1F
100
AcDbEntity
  8
0-7_金物
  6
Continuous
 62
     7
370
     9
100
AcDbLine
 10
-2627.689459194389
 20
-3256.000705101788
 30
0.0
 11
-2627.689459194389
 21
-3260.800705101788
 31
0.0
  0
ARC
  5
25A
330
1F
100
AcDbEntity
  8
0-7_金物
  6
Continuous
 62
     7
370
     9
100
AcDbCircle
 10
-2626.48945919439
 20
-3256.000705101788
 30
0.0
 40
1.2
100
AcDbArc
 50
90.0
 51
180.0
  0
LINE
  5
25B
330
1F
100
AcDbEntity
  8
0-7_金物
  6
Continuous
 62
     7
370
     9
100
AcDbLine
 10
-2622.889459194393
 20
-3254.800705101789
 30
0.0
 11
-2626.48945919439
 21
-3254.800705101789
 31
0.0
  0
LINE
  5
25C
330
1F
100
AcDbEntity
  8
0-7_金物
  6
Continuous
 62
     7
370
     9
100
AcDbLine
 10
-2621.689459194394
 20
-3256.000705101788
 30
0.0
 11
-2621.689459194394
 21
-3260.800705101788
 31
0.0
  0
ARC
  5
25D
330
1F
100
AcDbEntity
  8
0-7_金物
  6
Continuous
 62
     7
370
     9
100
AcDbCircle
 10
-2622.889459194393
 20
-3256.000705101788
 30
0.0
 40
1.2
100
AcDbArc
 50
0.0
 51
90.0
  0
ARC
  5
25E
330
1F
100
AcDbEntity
  8
0-7_金物
  6
JWW_DASHED1
 62
     7
370
     9
100
AcDbCircle
 10
-2754.889459194382
 20
-3224.200705101789
 30
0.0
 40
1.8
100
AcDbArc
 50
270.0
 51
90.0
  0
ARC
  5
25F
330
1F
100
AcDbEntity
  8
0-7_金物
  6
JWW_DASHED1
 62
     7
370
     9
100
AcDbCircle
 10
-2566.48945919439
 20
-3224.200705101789
 30
0.0
 40
1.8
100
AcDbArc
 50
90.0
 51
270.0
  0
LINE
  5
260
330
1F
100
AcDbEntity
  8
0-B_寸法
  6
Continuous
 62
   120
370
     5
100
AcDbLine
 10
-3623.689459194383
 20
-249.8536340391381
 30
0.0
 11
-2951.689413418016
 21
-249.8536340391381
 31
0.0
  0
LINE
  5
261
330
1F
100
AcDbEntity
  8
0-B_寸法
  6
Continuous
 62
   120
370
     5
100
AcDbLine
 10
-1499.689459194378
 20
-249.9995550199598
 30
0.0
 11
-2069.689459194378
 21
-249.9995550199598
 31
0.0
  0
LWPOLYLINE
  5
262
330
1F
100
AcDbEntity
  8
0-B_寸法
  6
Continuous
 62
     7
370
     9
100
AcDbPolyline
 90
        4
 70
     1
 43
3.0
 10
-3622.189459194384
 20
-249.8536340391381
 42
0.4142135623731
 10
-3623.689459194383
 20
-248.3536340391381
 42
0.4142135623731
 10
-3625.189459194383
 20
-249.8536340391381
 42
0.4142135623731
 10
-3623.689459194383
 20
-251.3536340391381
 42
0.4142135623731
  0
LINE
  5
263
330
1F
100
AcDbEntity
  8
0-B_寸法
  6
Continuous
 62
   120
370
     5
100
AcDbLine
 10
-3623.689459194383
 20
-249.8536340391381
 30
0.0
 11
-3623.689459194383
 21
-3297.99994081996
 31
0.0
  0
LWPOLYLINE
  5
264
330
1F
100
AcDbEntity
  8
0-B_寸法
  6
Continuous
 62
     7
370
     9
100
AcDbPolyline
 90
        4
 70
     1
 43
3.0
 10
-1498.189459194378
 20
-249.9995550199598
 42
0.4142135623731
 10
-1499.689459194378
 20
-248.4995550199598
 42
0.4142135623731
 10
-1501.189459194378
 20
-249.9995550199598
 42
0.4142135623731
 10
-1499.689459194378
 20
-251.4995550199599
 42
0.4142135623731
  0
LINE
  5
265
330
1F
100
AcDbEntity
  8
0-B_寸法
  6
Continuous
 62
   120
370
     5
100
AcDbLine
 10
-1499.689459194378
 20
-249.9995550199598
 30
0.0
 11
-1499.689459194378
 21
-3297.999941026083
 31
0.0
  0
LINE
  5
266
330
1F
100
AcDbEntity
  8
0-B_寸法
  6
Continuous
 62
   120
370
     5
100
AcDbLine
 10
-2069.689459194378
 20
-297.9991294234642
 30
0.0
 11
-2069.689459194378
 21
-513.9989463179945
 31
0.0
  0
LWPOLYLINE
  5
267
330
1F
100
AcDbEntity
  8
0-B_寸法
  6
Continuous
 62
     7
370
     9
100
AcDbPolyline
 90
        4
 70
     1
 43
3.0
 10
-2068.189459194378
 20
-297.9991294234642
 42
0.4142135623731
 10
-2069.689459194378
 20
-296.4991294234642
 42
0.4142135623731
 10
-2071.189459194378
 20
-297.9991294234642
 42
0.4142135623731
 10
-2069.689459194378
 20
-299.4991294234642
 42
0.4142135623731
  0
LWPOLYLINE
  5
268
330
1F
100
AcDbEntity
  8
0-B_寸法
  6
Continuous
 62
     7
370
     9
100
AcDbPolyline
 90
        4
 70
     1
 43
3.0
 10
-2068.189459194378
 20
-399.9991294234636
 42
0.4142135623731
 10
-2069.689459194378
 20
-398.4991294234636
 42
0.4142135623731
 10
-2071.189459194378
 20
-399.9991294234636
 42
0.4142135623731
 10
-2069.689459194378
 20
-401.4991294234636
 42
0.4142135623731
  0
LWPOLYLINE
  5
269
330
1F
100
AcDbEntity
  8
0-B_寸法
  6
Continuous
 62
     7
370
     9
100
AcDbPolyline
 90
        4
 70
     1
 43
3.0
 10
-2068.189459194378
 20
-453.9991294234635
 42
0.4142135623731
 10
-2069.689459194378
 20
-452.4991294234634
 42
0.4142135623731
 10
-2071.189459194378
 20
-453.9991294234635
 42
0.4142135623731
 10
-2069.689459194378
 20
-455.4991294234635
 42
0.4142135623731
  0
LWPOLYLINE
  5
26A
330
1F
100
AcDbEntity
  8
0-B_寸法
  6
Continuous
 62
     7
370
     9
100
AcDbPolyline
 90
        4
 70
     1
 43
3.0
 10
-2068.189459194378
 20
-513.9989463179945
 42
0.4142135623731
 10
-2069.689459194378
 20
-512.4989463179945
 42
0.4142135623731
 10
-2071.189459194378
 20
-513.9989463179945
 42
0.4142135623731
 10
-2069.689459194378
 20
-515.4989463179945
 42
0.4142135623731
  0
LWPOLYLINE
  5
26B
330
1F
100
AcDbEntity
  8
0-B_寸法
  6
Continuous
 62
     7
370
     9
100
AcDbPolyline
 90
        4
 70
     1
 43
3.0
 10
-2068.189459194378
 20
-345.9991294234632
 42
0.4142135623731
 10
-2069.689459194378
 20
-344.4991294234632
 42
0.4142135623731
 10
-2071.189459194378
 20
-345.9991294234632
 42
0.4142135623731
 10
-2069.689459194378
 20
-347.4991294234632
 42
0.4142135623731
  0
LINE
  5
26C
330
1F
100
AcDbEntity
  8
0-B_寸法
  6
Continuous
 62
   120
370
     5
100
AcDbLine
 10
-2181.183759786208
 20
-453.9991294234635
 30
0.0
 11
-2201.689504970745
 21
-453.9991294234635
 31
0.0
  0
LINE
  5
26D
330
1F
100
AcDbEntity
  8
0-B_寸法
  6
Continuous
 62
   120
370
     5
100
AcDbLine
 10
-2069.689459194378
 20
-453.9991294234635
 30
0.0
 11
-2082.221749316395
 21
-453.9991294234635
 31
0.0
  0
LINE
  5
26E
330
1F
100
AcDbEntity
  8
0-B_寸法
  6
Continuous
 62
   120
370
     5
100
AcDbLine
 10
-2069.689459194378
 20
-399.9991294234636
 30
0.0
 11
-2201.689504970745
 21
-399.9991294234636
 31
0.0
  0
LINE
  5
26F
330
1F
100
AcDbEntity
  8
0-B_寸法
  6
Continuous
 62
   120
370
     5
100
AcDbLine
 10
-2181.183759786208
 20
-345.9991294234632
 30
0.0
 11
-2201.689504970745
 21
-345.9991294234632
 31
0.0
  0
LINE
  5
270
330
1F
100
AcDbEntity
  8
0-B_寸法
  6
Continuous
 62
   120
370
     5
100
AcDbLine
 10
-2069.689459194378
 20
-345.9991294234632
 30
0.0
 11
-2082.221749316395
 21
-345.9991294234632
 31
0.0
  0
LINE
  5
271
330
1F
100
AcDbEntity
  8
0-B_寸法
  6
Continuous
 62
   120
370
     5
100
AcDbLine
 10
-2201.689504970745
 20
-297.9995698663473
 30
0.0
 11
-1499.689459194378
 21
-297.9995698663473
 31
0.0
  0
LINE
  5
272
330
1F
100
AcDbEntity
  8
0-B_寸法
  6
Continuous
 62
   120
370
     5
100
AcDbLine
 10
-2201.689504970745
 20
-513.9989463179945
 30
0.0
 11
-1859.689459194378
 21
-513.9989463179945
 31
0.0
  0
LINE
  5
273
330
1F
100
AcDbEntity
  8
0-4_枠
  6
Continuous
 62
    92
370
    13
100
AcDbLine
 10
-2891.689459194394
 20
-513.9993719144904
 30
0.0
 11
-2744.690135468672
 21
-513.9993719144904
 31
0.0
  0
LINE
  5
274
330
1F
100
AcDbEntity
  8
0-4_枠
  6
Continuous
 62
    92
370
    13
100
AcDbLine
 10
-2744.690135468672
 20
-513.9993719144904
 30
0.0
 11
-2744.690135468672
 21
-393.9989141508186
 31
0.0
  0
LINE
  5
275
330
1F
100
AcDbEntity
  8
0-4_枠
  6
Continuous
 62
    92
370
    13
100
AcDbLine
 10
-2744.690135468672
 20
-393.9989141508186
 30
0.0
 11
-2576.689882625769
 21
-393.9989141508186
 31
0.0
  0
LINE
  5
276
330
1F
100
AcDbEntity
  8
0-4_枠
  6
Continuous
 62
    92
370
    13
100
AcDbLine
 10
-2576.689882625769
 20
-393.9989141508186
 30
0.0
 11
-2576.689882625769
 21
-513.9993719144904
 31
0.0
  0
LINE
  5
277
330
1F
100
AcDbEntity
  8
0-7_金物
  6
Continuous
 62
     7
370
     9
100
AcDbLine
 10
-2726.869271625719
 20
-500.7871221586304
 30
0.0
 11
-2726.869271625719
 21
-434.7871221586315
 31
0.0
  0
LINE
  5
278
330
1F
100
AcDbEntity
  8
0-7_金物
  6
Continuous
 62
     7
370
     9
100
AcDbLine
 10
-2726.869271625719
 20
-434.7871221586315
 30
0.0
 11
-2690.69010578557
 21
-434.7871221586315
 31
0.0
  0
LINE
  5
279
330
1F
100
AcDbEntity
  8
0-7_金物
  6
Continuous
 62
     7
370
     9
100
AcDbLine
 10
-2690.69010578557
 20
-513.9993719144904
 30
0.0
 11
-2690.69010578557
 21
-417.9989141508193
 31
0.0
  0
LINE
  5
27A
330
1F
100
AcDbEntity
  8
0-7_金物
  6
Continuous
 62
     7
370
     9
100
AcDbLine
 10
-2690.69010578557
 20
-417.9989141508193
 30
0.0
 11
-2630.68841778203
 21
-417.9989141508193
 31
0.0
  0
LINE
  5
27B
330
1F
100
AcDbEntity
  8
0-7_金物
  6
Continuous
 62
     7
370
     9
100
AcDbLine
 10
-2630.68841778203
 20
-417.9989141508193
 30
0.0
 11
-2630.68841778203
 21
-513.9993719144904
 31
0.0
  0
LINE
  5
27C
330
1F
100
AcDbEntity
  8
0-7_金物
  6
Continuous
 62
     7
370
     9
100
AcDbLine
 10
-2594.870024074743
 20
-434.7871221586315
 30
0.0
 11
-2594.870024074743
 21
-500.7871221586304
 31
0.0
  0
LINE
  5
27D
330
1F
100
AcDbEntity
  8
0-7_金物
  6
Continuous
 62
     7
370
     9
100
AcDbLine
 10
-2630.68841778203
 20
-434.7871221586315
 30
0.0
 11
-2594.870024074743
 21
-434.7871221586315
 31
0.0
  0
LINE
  5
27E
330
1F
100
AcDbEntity
  8
0-7_金物
  6
Continuous
 62
     7
370
     9
100
AcDbLine
 10
-2576.689882625769
 20
-513.9993719144904
 30
0.0
 11
-2558.690111507621
 21
-513.9993719144904
 31
0.0
  0
LINE
  5
27F
330
1F
100
AcDbEntity
  8
0-7_金物
  6
Continuous
 62
     7
370
     9
100
AcDbLine
 10
-2595.693998684118
 20
-519.9994634672241
 30
0.0
 11
-2595.693998684118
 21
-513.9993719144904
 31
0.0
  0
LINE
  5
280
330
1F
100
AcDbEntity
  8
0-7_金物
  6
Continuous
 62
     7
370
     9
100
AcDbLine
 10
-2588.690214504431
 20
-513.9993719144904
 30
0.0
 11
-2595.693998684118
 21
-513.9993719144904
 31
0.0
  0
LINE
  5
281
330
1F
100
AcDbEntity
  8
0-7_金物
  6
Continuous
 62
     7
370
     9
100
AcDbLine
 10
-2744.690135468672
 20
-513.9993719144904
 30
0.0
 11
-2762.688413490495
 21
-513.9993719144904
 31
0.0
  0
LINE
  5
282
330
1F
100
AcDbEntity
  8
0-7_金物
  6
Continuous
 62
     7
370
     9
100
AcDbLine
 10
-2724.903611530498
 20
-519.9994634672241
 30
0.0
 11
-2724.903611530498
 21
-513.9993719144904
 31
0.0
  0
LINE
  5
283
330
1F
100
AcDbEntity
  8
0-7_金物
  6
Continuous
 62
     7
370
     9
100
AcDbLine
 10
-2724.903611530498
 20
-513.9993719144904
 30
0.0
 11
-2732.690542091559
 21
-513.9993719144904
 31
0.0
  0
LINE
  5
284
330
1F
100
AcDbEntity
  8
0-7_金物
  6
Continuous
 62
     7
370
     9
100
AcDbLine
 10
-2558.690111507621
 20
-513.9993719144904
 30
0.0
 11
-2558.690111507621
 21
-519.9994634672241
 31
0.0
  0
LINE
  5
285
330
1F
100
AcDbEntity
  8
0-7_金物
  6
Continuous
 62
     7
370
     9
100
AcDbLine
 10
-2724.903611530498
 20
-519.9994634672241
 30
0.0
 11
-2762.688413490495
 21
-519.9994634672241
 31
0.0
  0
LINE
  5
286
330
1F
100
AcDbEntity
  8
0-7_金物
  6
Continuous
 62
     7
370
     9
100
AcDbLine
 10
-2762.688413490495
 20
-513.9993719144904
 30
0.0
 11
-2762.688413490495
 21
-519.9994634672241
 31
0.0
  0
LINE
  5
287
330
1F
100
AcDbEntity
  8
0-7_金物
  6
Continuous
 62
     7
370
     9
100
AcDbLine
 10
-2648.68966518803
 20
-558.9994634672253
 30
0.0
 11
-2672.690346111503
 21
-558.9994634672253
 31
0.0
  0
LINE
  5
288
330
1F
100
AcDbEntity
  8
0-7_金物
  6
Continuous
 62
     7
370
     9
100
AcDbLine
 10
-2648.68966518803
 20
-513.9993719144904
 30
0.0
 11
-2648.68966518803
 21
-558.9994634672253
 31
0.0
  0
LINE
  5
289
330
1F
100
AcDbEntity
  8
0-7_金物
  6
Continuous
 62
     7
370
     9
100
AcDbLine
 10
-2672.690346111503
 20
-558.9994634672253
 30
0.0
 11
-2672.690346111503
 21
-513.9993719144904
 31
0.0
  0
LINE
  5
28A
330
1F
100
AcDbEntity
  8
0-7_金物
  6
Continuous
 62
     7
370
     9
100
AcDbLine
 10
-2690.69010578557
 20
-500.7871221586304
 30
0.0
 11
-2726.869271625719
 21
-500.7871221586304
 31
0.0
  0
LINE
  5
28B
330
1F
100
AcDbEntity
  8
0-7_金物
  6
Continuous
 62
     7
370
     9
100
AcDbLine
 10
-2594.870024074743
 20
-500.7871221586304
 30
0.0
 11
-2630.68841778203
 21
-500.7871221586304
 31
0.0
  0
LINE
  5
28C
330
1F
100
AcDbEntity
  8
0-7_金物
  6
Continuous
 62
     7
370
     9
100
AcDbLine
 10
-2630.68841778203
 20
-513.9993719144904
 30
0.0
 11
-2690.69010578557
 21
-513.9993719144904
 31
0.0
  0
LINE
  5
28D
330
1F
100
AcDbEntity
  8
0-7_金物
  6
Continuous
 62
     7
370
     9
100
AcDbLine
 10
-2595.693998684118
 20
-519.9994634672241
 30
0.0
 11
-2558.690111507621
 21
-519.9994634672241
 31
0.0
  0
LINE
  5
28E
330
1F
100
AcDbEntity
  8
0-4_枠
  6
Continuous
 62
    92
370
    13
100
AcDbLine
 10
-2891.689459194394
 20
-297.9995550199592
 30
0.0
 11
-2471.689459194394
 21
-297.9995550199592
 31
0.0
  0
LINE
  5
28F
330
1F
100
AcDbEntity
  8
0-4_枠
  6
Continuous
 62
    92
370
    13
100
AcDbLine
 10
-2429.689459194378
 20
-513.9993719144904
 30
0.0
 11
-2576.689882625769
 21
-513.9993719144904
 31
0.0
  0
LINE
  5
290
330
1F
100
AcDbEntity
  8
0-B_寸法
  6
Continuous
 62
   120
370
     5
100
AcDbLine
 10
-2429.689459194378
 20
-809.4818943240962
 30
0.0
 11
-2891.689459194394
 21
-809.4818943240962
 31
0.0
  0
LWPOLYLINE
  5
291
330
1F
100
AcDbEntity
  8
0-B_寸法
  6
Continuous
 62
     7
370
     9
100
AcDbPolyline
 90
        4
 70
     1
 43
3.0
 10
-2890.189459194395
 20
-809.4818943240962
 42
0.4142135623731
 10
-2891.689459194394
 20
-807.9818943240962
 42
0.4142135623731
 10
-2893.189459194394
 20
-809.4818943240962
 42
0.4142135623731
 10
-2891.689459194394
 20
-810.9818943240962
 42
0.4142135623731
  0
LINE
  5
292
330
1F
100
AcDbEntity
  8
0-B_寸法
  6
Continuous
 62
   120
370
     5
100
AcDbLine
 10
-2891.689459194394
 20
-809.4818943240962
 30
0.0
 11
-2891.689459194394
 21
-655.7709469022002
 31
0.0
  0
LWPOLYLINE
  5
293
330
1F
100
AcDbEntity
  8
0-B_寸法
  6
Continuous
 62
     7
370
     9
100
AcDbPolyline
 90
        4
 70
     1
 43
3.0
 10
-2428.189459194378
 20
-809.4818943240962
 42
0.4142135623731
 10
-2429.689459194378
 20
-807.9818943240962
 42
0.4142135623731
 10
-2431.189459194378
 20
-809.4818943240962
 42
0.4142135623731
 10
-2429.689459194378
 20
-810.9818943240962
 42
0.4142135623731
  0
LINE
  5
294
330
1F
100
AcDbEntity
  8
0-B_寸法
  6
Continuous
 62
   120
370
     5
100
AcDbLine
 10
-2429.689459194378
 20
-809.4818943240962
 30
0.0
 11
-2429.689459194378
 21
-655.7709469022002
 31
0.0
  0
LINE
  5
295
330
1F
100
AcDbEntity
  8
0-7_金物
  6
Continuous
 62
     7
370
     9
100
AcDbLine
 10
-2588.690214504431
 20
-513.9993719144904
 30
0.0
 11
-2588.690214504431
 21
-405.9992803617565
 31
0.0
  0
LINE
  5
296
330
1F
100
AcDbEntity
  8
0-7_金物
  6
Continuous
 62
     7
370
     9
100
AcDbLine
 10
-2576.689882626451
 20
-513.9993719144904
 30
0.0
 11
-2576.689882626451
 21
-393.9989141517552
 31
0.0
  0
LINE
  5
297
330
1F
100
AcDbEntity
  8
0-7_金物
  6
Continuous
 62
     7
370
     9
100
AcDbLine
 10
-2732.690542091559
 20
-513.9993719144904
 30
0.0
 11
-2732.690542091559
 21
-405.9992803617565
 31
0.0
  0
LINE
  5
298
330
1F
100
AcDbEntity
  8
0-7_金物
  6
Continuous
 62
     7
370
     9
100
AcDbLine
 10
-2744.690873969566
 20
-513.9993719144904
 30
0.0
 11
-2744.690873969566
 21
-393.9989141517552
 31
0.0
  0
LINE
  5
299
330
1F
100
AcDbEntity
  8
0-7_金物
  6
Continuous
 62
     7
370
     9
100
AcDbLine
 10
-2588.690214504431
 20
-405.9992803617565
 30
0.0
 11
-2732.690542091559
 21
-405.9992803617565
 31
0.0
  0
LINE
  5
29A
330
1F
100
AcDbEntity
  8
0-7_金物
  6
Continuous
 62
     7
370
     9
100
AcDbLine
 10
-2576.689882626451
 20
-393.9989141517552
 30
0.0
 11
-2744.690873969566
 21
-393.9989141517552
 31
0.0
  0
LINE
  5
29B
330
1F
100
AcDbEntity
  8
0-7_金物
  6
Continuous
 62
     7
370
     9
100
AcDbLine
 10
-2570.689155925956
 20
-261.8539716398475
 30
0.0
 11
-2750.689018596849
 21
-261.8539716398475
 31
0.0
  0
LINE
  5
29C
330
1F
100
AcDbEntity
  8
0-7_金物
  6
Continuous
 62
     7
370
     9
100
AcDbLine
 10
-2750.689018596849
 20
-249.8536340391381
 30
0.0
 11
-2750.689018596849
 21
-261.8539716398475
 31
0.0
  0
LINE
  5
29D
330
1F
100
AcDbEntity
  8
0-7_金物
  6
Continuous
 62
     7
370
     9
100
AcDbLine
 10
-2570.689155925956
 20
-249.8536340391381
 30
0.0
 11
-2570.689155925956
 21
-261.8539716398475
 31
0.0
  0
LINE
  5
29E
330
1F
100
AcDbEntity
  8
0-7_金物
  6
Continuous
 62
     7
370
     9
100
AcDbLine
 10
-2570.689155925956
 20
-249.8536340391381
 30
0.0
 11
-2750.689018596849
 21
-249.8536340391381
 31
0.0
  0
LINE
  5
29F
330
1F
100
AcDbEntity
  8
0-7_金物
  6
Continuous
 62
     7
370
     9
100
AcDbLine
 10
-2600.689258922766
 20
-261.8539716398475
 30
0.0
 11
-2600.689258922766
 21
-273.853565374587
 31
0.0
  0
LINE
  5
2A0
330
1F
100
AcDbEntity
  8
0-7_金物
  6
Continuous
 62
     7
370
     9
100
AcDbLine
 10
-2720.688915600012
 20
-261.8539716398475
 30
0.0
 11
-2720.688915600012
 21
-273.853565374587
 31
0.0
  0
LINE
  5
2A1
330
1F
100
AcDbEntity
  8
0-7_金物
  6
Continuous
 62
     7
370
     9
100
AcDbLine
 10
-2600.689258922766
 20
-273.853565374587
 30
0.0
 11
-2720.688915600012
 21
-273.853565374587
 31
0.0
  0
LINE
  5
2A2
330
1F
100
AcDbEntity
  8
0-7_金物
  6
Continuous
 62
     7
370
     9
100
AcDbLine
 10
-2606.689424862097
 20
-273.853565374587
 30
0.0
 11
-2606.689424862097
 21
-297.999555019964
 31
0.0
  0
LINE
  5
2A3
330
1F
100
AcDbEntity
  8
0-7_金物
  6
Continuous
 62
     7
370
     9
100
AcDbLine
 10
-2714.689493526648
 20
-297.999555019964
 30
0.0
 11
-2714.689493526648
 21
-273.853565374587
 31
0.0
  0
LINE
  5
2A4
330
1F
100
AcDbEntity
  8
0-4_枠
  6
Continuous
 62
    92
370
    13
100
AcDbLine
 10
-2471.689459194394
 20
-297.9995550199592
 30
0.0
 11
-2471.689459194394
 21
-345.9995550199599
 31
0.0
  0
LINE
  5
2A5
330
1F
100
AcDbEntity
  8
0-4_枠
  6
Continuous
 62
    92
370
    13
100
AcDbLine
 10
-2429.689459194378
 20
-345.9995550199599
 30
0.0
 11
-2471.689459194394
 21
-345.9995550199599
 31
0.0
  0
LINE
  5
2A6
330
1F
100
AcDbEntity
  8
0-4_枠
  6
Continuous
 62
    92
370
    13
100
AcDbLine
 10
-2429.689459194378
 20
-345.9995550199599
 30
0.0
 11
-2429.689459194378
 21
-399.9995550199586
 31
0.0
  0
LINE
  5
2A7
330
1F
100
AcDbEntity
  8
0-4_枠
  6
Continuous
 62
    92
370
    13
100
AcDbLine
 10
-2429.689459194378
 20
-399.9995550199586
 30
0.0
 11
-2489.689459194378
 21
-399.9995550199586
 31
0.0
  0
LINE
  5
2A8
330
1F
100
AcDbEntity
  8
0-4_枠
  6
Continuous
 62
    92
370
    13
100
AcDbLine
 10
-2489.689459194378
 20
-399.9995550199586
 30
0.0
 11
-2489.689459194378
 21
-453.9995550199585
 31
0.0
  0
LINE
  5
2A9
330
1F
100
AcDbEntity
  8
0-4_枠
  6
Continuous
 62
    92
370
    13
100
AcDbLine
 10
-2429.689459194378
 20
-453.9995550199585
 30
0.0
 11
-2489.689459194378
 21
-453.9995550199585
 31
0.0
  0
LINE
  5
2AA
330
1F
100
AcDbEntity
  8
0-C_ハッチ
  6
Continuous
 62
   120
370
     5
100
AcDbLine
 10
-2432.789652988867
 20
-513.9993719144993
 30
0.0
 11
-2429.689459194378
 21
-510.8991781200139
 31
0.0
  0
LINE
  5
2AB
330
1F
100
AcDbEntity
  8
0-C_ハッチ
  6
Continuous
 62
   120
370
     5
100
AcDbLine
 10
-2492.186622608487
 20
-513.9993719144788
 30
0.0
 11
-2432.186805713972
 21
-453.9995550199504
 31
0.0
  0
LINE
  5
2AC
330
1F
100
AcDbEntity
  8
0-C_ハッチ
  6
Continuous
 62
   120
370
     5
100
AcDbLine
 10
-2551.583592228216
 20
-513.9993719144964
 30
0.0
 11
-2489.689459194378
 21
-452.1052388806793
 31
0.0
  0
LINE
  5
2AD
330
1F
100
AcDbEntity
  8
0-C_ハッチ
  6
Continuous
 62
   120
370
     5
100
AcDbLine
 10
-2437.583775333669
 20
-399.9995550199586
 30
0.0
 11
-2429.689459194378
 21
-392.1052388806715
 31
0.0
  0
LINE
  5
2AE
330
1F
100
AcDbEntity
  8
0-C_ハッチ
  6
Continuous
 62
   120
370
     5
100
AcDbLine
 10
-2576.689882625769
 20
-479.7086926924221
 30
0.0
 11
-2442.98074495331
 21
-345.9995550199599
 31
0.0
  0
LINE
  5
2AF
330
1F
100
AcDbEntity
  8
0-C_ハッチ
  6
Continuous
 62
   120
370
     5
100
AcDbLine
 10
-2576.689882625769
 20
-420.3117230727203
 30
0.0
 11
-2471.689459194394
 21
-315.3112996413213
 31
0.0
  0
LINE
  5
2B0
330
1F
100
AcDbEntity
  8
0-C_ハッチ
  6
Continuous
 62
   120
370
     5
100
AcDbLine
 10
-2609.774043323541
 20
-393.9989141508275
 30
0.0
 11
-2513.774684192676
 21
-297.9995550199661
 31
0.0
  0
LINE
  5
2B1
330
1F
100
AcDbEntity
  8
0-C_ハッチ
  6
Continuous
 62
   120
370
     5
100
AcDbLine
 10
-2789.171470706833
 20
-513.999371914487
 30
0.0
 11
-2744.690873969566
 21
-469.5187751772228
 31
0.0
  0
LINE
  5
2B2
330
1F
100
AcDbEntity
  8
0-C_ハッチ
  6
Continuous
 62
   120
370
     5
100
AcDbLine
 10
-2669.171012943161
 20
-393.9989141508117
 30
0.0
 11
-2573.171653812323
 21
-297.999555019964
 31
0.0
  0
LINE
  5
2B3
330
1F
100
AcDbEntity
  8
0-C_ハッチ
  6
Continuous
 62
   120
370
     5
100
AcDbLine
 10
-2848.568440326562
 20
-513.9993719144938
 30
0.0
 11
-2744.690873969566
 21
-410.1218055575048
 31
0.0
  0
LINE
  5
2B4
330
1F
100
AcDbEntity
  8
0-C_ハッチ
  6
Continuous
 62
   120
370
     5
100
AcDbLine
 10
-2728.56798256289
 20
-393.9989141508275
 30
0.0
 11
-2632.568623432025
 21
-297.9995550199592
 31
0.0
  0
LINE
  5
2B5
330
1F
100
AcDbEntity
  8
0-C_ハッチ
  6
Continuous
 62
   120
370
     5
100
AcDbLine
 10
-2891.689459194394
 20
-497.7234211626824
 30
0.0
 11
-2691.965593051672
 21
-297.999555019961
 31
0.0
  0
LINE
  5
2B6
330
1F
100
AcDbEntity
  8
0-C_ハッチ
  6
Continuous
 62
   120
370
     5
100
AcDbLine
 10
-2891.689459194367
 20
-438.326451542969
 30
0.0
 11
-2751.362562671374
 21
-297.999555019961
 31
0.0
  0
LINE
  5
2B7
330
1F
100
AcDbEntity
  8
0-C_ハッチ
  6
Continuous
 62
   120
370
     5
100
AcDbLine
 10
-2891.689459194394
 20
-378.9294819233353
 30
0.0
 11
-2810.759532291022
 21
-297.9995550199558
 31
0.0
  0
LINE
  5
2B8
330
1F
100
AcDbEntity
  8
0-C_ハッチ
  6
Continuous
 62
   120
370
     5
100
AcDbLine
 10
-2891.689459194394
 20
-319.5325123036301
 30
0.0
 11
-2870.156501910723
 21
-297.9995550199571
 31
0.0
  0
LINE
  5
2B9
330
1F
100
AcDbEntity
  8
0-0_補助線
  6
JWW_HOJO
 62
   120
370
     5
100
AcDbLine
 10
-2890.375227216754
 20
-1797.999673791074
 30
0.0
 11
-2431.00369117199
 21
-1797.999673791074
 31
0.0
  0
LINE
  5
2BA
330
1F
100
AcDbEntity
  8
0-0_補助線
  6
JWW_HOJO
 62
   120
370
     5
100
AcDbLine
 10
-2890.375227216754
 20
-1917.999673791074
 30
0.0
 11
-2431.00369117199
 21
-1917.999673791074
 31
0.0
  0
MTEXT
  5
2BB
330
1F
100
AcDbEntity
  8
0-B_寸法
  6
Continuous
 62
     7
370
   211
100
AcDbMText
 10
-3638.689459194383
 20
-2178.206787532613
 30
0.0
 40
91.4400000000003
 41
780.0000000000025
 46
0.0
 71
     7
 72
     1
  1
{\fＭＳ ゴシック|b0|i0|c128|p49;ＲＯＨ＝2,356}
 11
6.123031769111886E-17
 21
1.0
 31
0.0
 73
     1
 44
1.0
  0
MTEXT
  5
2BC
330
1F
100
AcDbEntity
  8
0-B_寸法
  6
Continuous
 62
     7
370
     0
100
AcDbMText
 10
-1874.688766362877
 20
-2211.279277887358
 30
0.0
 40
91.44000000000014
 41
660.0000000000009
 46
0.0
 71
     7
 72
     1
  1
{\fＭＳ ゴシック|b0|i0|c128|p49;ＤＨ＝2,284}
 11
6.123031769111886E-17
 21
1.0
 31
0.0
 73
     1
 44
1.0
  0
MTEXT
  5
2BD
330
1F
100
AcDbEntity
  8
0-B_寸法
  6
Continuous
 62
     7
370
     0
100
AcDbMText
 10
-1694.688766362877
 20
-2211.279277887358
 30
0.0
 40
91.44000000000014
 41
660.0000000000009
 46
0.0
 71
     7
 72
     1
  1
{\fＭＳ ゴシック|b0|i0|c128|p49;枠内＝2,300}
 11
6.123031769111886E-17
 21
1.0
 31
0.0
 73
     1
 44
1.0
  0
MTEXT
  5
2BE
330
1F
100
AcDbEntity
  8
0-B_寸法
  6
Continuous
 62
     7
370
     0
100
AcDbMText
 10
-1514.690251001829
 20
-2211.279277887358
 30
0.0
 40
91.44000000000014
 41
660.0000000000009
 46
0.0
 71
     7
 72
     1
  1
{\fＭＳ ゴシック|b0|i0|c128|p49;枠外＝2,348}
 11
6.123031769111886E-17
 21
1.0
 31
0.0
 73
     1
 44
1.0
  0
MTEXT
  5
2BF
330
1F
100
AcDbEntity
  8
0-A_文字
  6
Continuous
 62
     7
370
   211
100
AcDbMText
 10
-2780.689459194372
 20
-1324.495058745302
 30
0.0
 40
91.43999999999966
 41
239.9999999999991
 46
0.0
 71
     7
 72
     1
  1
{\fＭＳ ゴシック|b0|i0|c128|p49;(24)}
 73
     1
 44
1.0
  0
MTEXT
  5
2C0
330
1F
100
AcDbEntity
  8
0-A_文字
  6
Continuous
 62
     7
370
     0
100
AcDbMText
 10
-2659.061374017214
 20
-3666.907689123975
 30
0.0
 40
68.58000000000003
 41
1350.0
 46
0.0
 71
     7
 72
     1
  1
{\fＭＳ ゴシック|b0|i0|c128|p49;※扉厚（　）内はルーバーの場合}
 73
     1
 44
1.0
  0
LINE
  5
2C1
330
1F
100
AcDbEntity
  8
0-3_仕上げ
  6
Continuous
 62
    40
370
    15
100
AcDbLine
 10
-2396.689459194394
 20
-345.9995550199599
 30
0.0
 11
-2471.689459194394
 21
-345.9995550199599
 31
0.0
  0
LINE
  5
2C2
330
1F
100
AcDbEntity
  8
0-3_仕上げ
  6
Continuous
 62
   120
370
     5
100
AcDbLine
 10
-2471.689459194394
 20
-117.8536340391388
 30
0.0
 11
-2471.689459194394
 21
-297.8536340391388
 31
0.0
  0
LINE
  5
2C3
330
1F
100
AcDbEntity
  8
0-C_ハッチ
  6
JWW_DASHED1
 62
   120
370
     5
100
AcDbLine
 10
-2422.618411447401
 20
-345.9995550199616
 30
0.0
 11
-2396.689459194394
 21
-320.0706027669563
 31
0.0
  0
LINE
  5
2C4
330
1F
100
AcDbEntity
  8
0-C_ハッチ
  6
JWW_DASHED1
 62
   120
370
     5
100
AcDbLine
 10
-2465.044818318601
 20
-345.9995550199599
 30
0.0
 11
-2396.689459194394
 21
-277.6441958957597
 31
0.0
  0
LINE
  5
2C5
330
1F
100
AcDbEntity
  8
0-C_ハッチ
  6
JWW_DASHED1
 62
   120
370
     5
100
AcDbLine
 10
-2471.689459194394
 20
-310.2177890245596
 30
0.0
 11
-2396.689459194394
 21
-235.217789024563
 31
0.0
  0
LINE
  5
2C6
330
1F
100
AcDbEntity
  8
0-C_ハッチ
  6
JWW_DASHED1
 62
   120
370
     5
100
AcDbLine
 10
-2471.689459194394
 20
-267.791382153363
 30
0.0
 11
-2396.689459194394
 21
-192.7913821533507
 31
0.0
  0
LINE
  5
2C7
330
1F
100
AcDbEntity
  8
0-C_ハッチ
  6
JWW_DASHED1
 62
   120
370
     5
100
AcDbLine
 10
-2471.689459194394
 20
-225.3649752821664
 30
0.0
 11
-2396.689459194394
 21
-150.3649752821545
 31
0.0
  0
LINE
  5
2C8
330
1F
100
AcDbEntity
  8
0-C_ハッチ
  6
JWW_DASHED1
 62
   120
370
     5
100
AcDbLine
 10
-2471.689459194367
 20
-182.9385684110005
 30
0.0
 11
-2396.689459194394
 21
-107.9385684110073
 31
0.0
  0
LINE
  5
2C9
330
1F
100
AcDbEntity
  8
0-C_ハッチ
  6
JWW_DASHED1
 62
   120
370
     5
100
AcDbLine
 10
-2471.689459194394
 20
-140.5121615398052
 30
0.0
 11
-2396.689459194394
 21
-65.51216153981073
 31
0.0
  0
LINE
  5
2CA
330
1F
100
AcDbEntity
  8
0-3_仕上げ
  6
Continuous
 62
   120
370
     5
100
AcDbLine
 10
-2891.689459194394
 20
-69.85363403913809
 30
0.0
 11
-2471.689459194394
 21
-69.85363403913809
 31
0.0
  0
LINE
  5
2CB
330
1F
100
AcDbEntity
  8
0-3_仕上げ
  6
Continuous
 62
   120
370
     5
100
AcDbLine
 10
-2891.689459194394
 20
-249.8536340391381
 30
0.0
 11
-2891.689459194394
 21
-69.85363403913809
 31
0.0
  0
LINE
  5
2CC
330
1F
100
AcDbEntity
  8
0-3_仕上げ
  6
Continuous
 62
   120
370
     5
100
AcDbLine
 10
-2471.689459194394
 20
-249.8536340391381
 30
0.0
 11
-2891.689459194394
 21
-249.8536340391381
 31
0.0
  0
LINE
  5
2CD
330
1F
100
AcDbEntity
  8
0-3_仕上げ
  6
Continuous
 62
   120
370
     5
100
AcDbLine
 10
-2891.689459194394
 20
-249.8536340391381
 30
0.0
 11
-2471.689459194394
 21
-69.85363403913809
 31
0.0
  0
LINE
  5
2CE
330
1F
100
AcDbEntity
  8
0-3_仕上げ
  6
Continuous
 62
    40
370
    15
100
AcDbLine
 10
-2396.689459194394
 20
-345.9995550199599
 30
0.0
 11
-2396.689459194394
 21
2.000074026429672
 31
0.0
  0
LINE
  5
2CF
330
1F
100
AcDbEntity
  8
0-3_仕上げ
  6
Continuous
 62
    40
370
    15
100
AcDbLine
 10
-2471.689459194394
 20
-345.9995550199599
 30
0.0
 11
-2471.689459194394
 21
2.000074026429672
 31
0.0
  0
LINE
  5
2D0
330
1F
100
AcDbEntity
  8
0-C_ハッチ
  6
JWW_DASHED1
 62
   120
370
     5
100
AcDbLine
 10
-2471.689459194367
 20
-98.0857546686039
 30
0.0
 11
-2396.689459194394
 21
-23.08575466860219
 31
0.0
  0
LINE
  5
2D1
330
1F
100
AcDbEntity
  8
0-C_ハッチ
  6
JWW_DASHED1
 62
   120
370
     5
100
AcDbLine
 10
-2471.689459194394
 20
-55.65934779740516
 30
0.0
 11
-2414.030037370525
 21
2.000074026429672
 31
0.0
  0
LINE
  5
2D2
330
1F
100
AcDbEntity
  8
0-4_枠
  6
Continuous
 62
    92
370
    13
100
AcDbLine
 10
-2891.689459194394
 20
-297.9995550199592
 30
0.0
 11
-2891.689459194394
 21
-1797.999673791074
 31
0.0
  0
LINE
  5
2D3
330
1F
100
AcDbEntity
  8
0-4_枠
  6
Continuous
 62
    92
370
    13
100
AcDbLine
 10
-2891.689459194394
 20
-1917.999673791074
 30
0.0
 11
-2891.689459194394
 21
-3226.000334095665
 31
0.0
  0
LINE
  5
2D4
330
1F
100
AcDbEntity
  8
0-4_枠
  6
Continuous
 62
    92
370
    13
100
AcDbLine
 10
-2429.689459194378
 20
-3226.000334095665
 30
0.0
 11
-2429.689459194378
 21
-1917.999673791074
 31
0.0
  0
LINE
  5
2D5
330
1F
100
AcDbEntity
  8
0-4_枠
  6
Continuous
 62
    92
370
    13
100
AcDbLine
 10
-2429.689459194378
 20
-1797.999673791074
 30
0.0
 11
-2429.689459194378
 21
-453.9995550199585
 31
0.0
  0
LINE
  5
2D6
330
1F
100
AcDbEntity
  8
0-A_文字
  6
JWW_HOJO
 62
   120
370
     5
100
AcDbLine
 10
-2659.061374017214
 20
-3656.197689123976
 30
0.0
 11
-249.5375644934037
 21
-3656.197689123976
 31
0.0
  0
LINE
  5
2D7
330
1F
100
AcDbEntity
  8
1-E
  6
JWW_DASHED1
 62
   120
370
     5
100
AcDbLine
 10
822.381799903118
 20
-2857.680265754437
 30
0.0
 11
897.381799903118
 21
-2782.680265754438
 31
0.0
  0
LINE
  5
2D8
330
1F
100
AcDbEntity
  8
1-E
  6
JWW_DASHED1
 62
   120
370
     5
100
AcDbLine
 10
779.955393031918
 20
-2857.680265754434
 30
0.0
 11
854.955393031918
 21
-2782.680265754437
 31
0.0
  0
LINE
  5
2D9
330
1F
100
AcDbEntity
  8
1-E
  6
JWW_DASHED1
 62
   120
370
     5
100
AcDbLine
 10
737.528986160718
 20
-2857.680265754431
 30
0.0
 11
812.528986160718
 21
-2782.680265754434
 31
0.0
  0
LINE
  5
2DA
330
1F
100
AcDbEntity
  8
1-E
  6
JWW_DASHED1
 62
   120
370
     5
100
AcDbLine
 10
695.1025792895725
 20
-2857.680265754438
 30
0.0
 11
770.1025792895862
 21
-2782.680265754424
 31
0.0
  0
LINE
  5
2DB
330
1F
100
AcDbEntity
  8
1-E
  6
JWW_DASHED1
 62
   120
370
     5
100
AcDbLine
 10
652.6761724183589
 20
-2857.680265754445
 30
0.0
 11
727.6761724183725
 21
-2782.680265754434
 31
0.0
  0
LINE
  5
2DC
330
1F
100
AcDbEntity
  8
1-E
  6
JWW_DASHED1
 62
   120
370
     5
100
AcDbLine
 10
610.2497655471725
 20
-2857.680265754444
 30
0.0
 11
685.2497655471725
 21
-2782.680265754431
 31
0.0
  0
LINE
  5
2DD
330
1F
100
AcDbEntity
  8
1-E
  6
JWW_DASHED1
 62
   120
370
     5
100
AcDbLine
 10
567.8233586759588
 20
-2857.680265754445
 30
0.0
 11
642.8233586759588
 21
-2782.680265754451
 31
0.0
  0
LINE
  5
2DE
330
1F
100
AcDbEntity
  8
1-E
  6
JWW_DASHED1
 62
   120
370
     5
100
AcDbLine
 10
525.3969518047725
 20
-2857.680265754444
 30
0.0
 11
600.3969518047588
 21
-2782.680265754448
 31
0.0
  0
LINE
  5
2DF
330
1F
100
AcDbEntity
  8
1-E
  6
JWW_DASHED1
 62
   120
370
     5
100
AcDbLine
 10
482.9705449335725
 20
-2857.680265754438
 30
0.0
 11
557.9705449335588
 21
-2782.680265754444
 31
0.0
  0
LINE
  5
2E0
330
1F
100
AcDbEntity
  8
1-E
  6
JWW_DASHED1
 62
   120
370
     5
100
AcDbLine
 10
440.5441380623725
 20
-2857.680265754438
 30
0.0
 11
515.5441380623724
 21
-2782.680265754441
 31
0.0
  0
LINE
  5
2E1
330
1F
100
AcDbEntity
  8
1-E
  6
JWW_DASHED1
 62
   120
370
     5
100
AcDbLine
 10
398.1177311912271
 20
-2857.68026575443
 30
0.0
 11
473.1177311912271
 21
-2782.680265754434
 31
0.0
  0
LINE
  5
2E2
330
1F
100
AcDbEntity
  8
1-E
  6
Continuous
 62
    40
370
    15
100
AcDbLine
 10
269.587383297725
 20
-2857.680265754444
 30
0.0
 11
269.587383297725
 21
-2782.680265754441
 31
0.0
  0
LINE
  5
2E3
330
1F
100
AcDbEntity
  8
1-E
  6
JWW_DASHED1
 62
   120
370
     5
100
AcDbLine
 10
355.691324320027
 20
-2857.680265754444
 30
0.0
 11
430.691324320027
 21
-2782.680265754431
 31
0.0
  0
LINE
  5
2E4
330
1F
100
AcDbEntity
  8
1-E
  6
JWW_DASHED1
 62
   120
370
     5
100
AcDbLine
 10
313.264917448827
 20
-2857.680265754441
 30
0.0
 11
388.264917448827
 21
-2782.680265754431
 31
0.0
  0
LINE
  5
2E5
330
1F
100
AcDbEntity
  8
1-E
  6
JWW_DASHED1
 62
   120
370
     5
100
AcDbLine
 10
270.8385105776134
 20
-2857.680265754452
 30
0.0
 11
345.838510577627
 21
-2782.680265754441
 31
0.0
  0
LINE
  5
2E6
330
1F
100
AcDbEntity
  8
1-E
  6
JWW_DASHED1
 62
   120
370
     5
100
AcDbLine
 10
269.587383297725
 20
-2816.504986163133
 30
0.0
 11
303.4121037064133
 21
-2782.680265754452
 31
0.0
  0
MTEXT
  5
2E7
330
1F
100
AcDbEntity
  8
1-E
  6
Continuous
 62
     7
370
     0
100
AcDbMText
 10
-586.6948144449416
 20
36.0852539574816
 30
0.0
 40
91.43999999999998
 41
1440.0
 46
0.0
 71
     7
 72
     1
  1
{\fＭＳ ゴシック|b0|i0|c128|p49;竪枠下端形状図（S＝1/3）}
 73
     1
 44
1.0
  0
LINE
  5
2E8
330
1F
100
AcDbEntity
  8
1-E
  6
Continuous
 62
    92
370
    13
100
AcDbLine
 10
1126.139866390348
 20
200.3652539574819
 30
0.0
 11
3111.809228060926
 21
200.3652539574819
 31
0.0
  0
LINE
  5
2E9
330
1F
100
AcDbEntity
  8
1-E
  6
Continuous
 62
    92
370
    13
100
AcDbLine
 10
1126.139866390348
 20
20.36525395748022
 30
0.0
 11
3111.809228060926
 21
20.36525395748022
 31
0.0
  0
LINE
  5
2EA
330
1F
100
AcDbEntity
  8
1-E
  6
Continuous
 62
    92
370
    13
100
AcDbLine
 10
-859.529495280233
 20
20.36525395748193
 30
0.0
 11
1126.139866390348
 21
20.36525395748193
 31
0.0
  0
LINE
  5
2EB
330
1F
100
AcDbEntity
  8
1-E
  6
Continuous
 62
    92
370
    13
100
AcDbLine
 10
-859.529495280233
 20
200.3652539574819
 30
0.0
 11
1126.139866390348
 21
200.3652539574819
 31
0.0
  0
MTEXT
  5
2EC
330
1F
100
AcDbEntity
  8
1-E
  6
Continuous
 62
     7
370
     9
100
AcDbMText
 10
1458.974547225638
 20
36.0852539574799
 30
0.0
 40
91.44
 41
1320.0
 46
0.0
 71
     7
 72
     1
  1
{\fＭＳ ゴシック|b0|i0|c128|p49;レール拡大図（S＝1/2）}
 73
     1
 44
1.0
  0
LINE
  5
2ED
330
1F
100
AcDbEntity
  8
1-E
  6
Continuous
 62
    92
370
    13
100
AcDbLine
 10
-859.529495280233
 20
200.3652539574819
 30
0.0
 11
-859.529495280233
 21
-3404.565202714477
 31
0.0
  0
LINE
  5
2EE
330
1F
100
AcDbEntity
  8
1-E
  6
Continuous
 62
    92
370
    13
100
AcDbLine
 10
-859.529495280233
 20
-3404.565202714477
 30
0.0
 11
3111.809228060926
 21
-3404.565202714477
 31
0.0
  0
MTEXT
  5
2EF
330
1F
100
AcDbEntity
  8
1-E
  6
Continuous
 62
     7
370
   211
100
AcDbMText
 10
-46.29303473701142
 20
-243.7021483342581
 30
0.0
 40
68.58
 41
90.0
 46
0.0
 71
     7
 72
     1
  1
{\fＭＳ ゴシック|b0|i0|c128|p49;77}
 73
     1
 44
1.0
  0
LINE
  5
2F0
330
1F
100
AcDbEntity
  8
1-E
  6
Continuous
 62
    92
370
    13
100
AcDbLine
 10
-859.529495280233
 20
-1784.565202714477
 30
0.0
 11
1126.139866390348
 21
-1784.565202714477
 31
0.0
  0
LINE
  5
2F1
330
1F
100
AcDbEntity
  8
1-E
  6
Continuous
 62
    92
370
    13
100
AcDbLine
 10
-859.529495280233
 20
-1964.565202714477
 30
0.0
 11
1126.139866390348
 21
-1964.565202714477
 31
0.0
  0
LINE
  5
2F2
330
1F
100
AcDbEntity
  8
1-E
  6
Continuous
 62
    92
370
    13
100
AcDbLine
 10
1126.139866390348
 20
200.3652539574819
 30
0.0
 11
1126.139866390348
 21
-3404.565202714477
 31
0.0
  0
LINE
  5
2F3
330
1F
100
AcDbEntity
  8
1-E
  6
Continuous
 62
    92
370
    13
100
AcDbLine
 10
3111.809228060926
 20
200.3652539574819
 30
0.0
 11
3111.809228060926
 21
-3404.565202714477
 31
0.0
  0
MTEXT
  5
2F4
330
1F
100
AcDbEntity
  8
1-E
  6
Continuous
 62
     7
370
     0
100
AcDbMText
 10
1987.444881584363
 20
-406.3031884981577
 30
0.0
 40
91.43999999999998
 41
120.0
 46
0.0
 71
     7
 72
     1
  1
{\fＭＳ ゴシック|b0|i0|c128|p49;32}
 73
     1
 44
1.0
  0
MTEXT
  5
2F5
330
1F
100
AcDbEntity
  8
1-E
  6
Continuous
 62
     7
370
   211
100
AcDbMText
 10
1571.763766056658
 20
-526.3032785662537
 30
0.0
 40
91.43999999999998
 41
240.0
 46
0.0
 71
     7
 72
     1
  1
{\fＭＳ ゴシック|b0|i0|c128|p49;10.5}
 73
     1
 44
1.0
  0
LINE
  5
2F6
330
1F
100
AcDbEntity
  8
1-E
  6
JWW_HOJO
 62
   120
370
     5
100
AcDbLine
 10
-43.97071901411024
 20
-2914.680265754443
 30
0.0
 11
-43.97071901411024
 21
-2302.680265754442
 31
0.0
  0
LINE
  5
2F7
330
1F
100
AcDbEntity
  8
1-E
  6
JWW_HOJO
 62
   120
370
     5
100
AcDbLine
 10
946.8689155164602
 20
-3214.680265754443
 30
0.0
 11
946.8689155164602
 21
-2302.680265754442
 31
0.0
  0
LINE
  5
2F8
330
1F
100
AcDbEntity
  8
1-E
  6
JWW_HOJO
 62
   120
370
     5
100
AcDbLine
 10
-158.5973730541041
 20
-3064.680265754443
 30
0.0
 11
946.8689155164602
 21
-3064.680265754443
 31
0.0
  0
LINE
  5
2F9
330
1F
100
AcDbEntity
  8
1-E
  6
JWW_HOJO
 62
   120
370
     5
100
AcDbLine
 10
-43.97071901411024
 20
-2914.680265754443
 30
0.0
 11
946.8689155164602
 21
-2914.680265754443
 31
0.0
  0
LINE
  5
2FA
330
1F
100
AcDbEntity
  8
1-E
  6
JWW_HOJO
 62
   120
370
     5
100
AcDbLine
 10
-158.5973730541041
 20
-3214.680265754443
 30
0.0
 11
946.8689155164602
 21
-3214.680265754443
 31
0.0
  0
LINE
  5
2FB
330
1F
100
AcDbEntity
  8
1-E
  6
JWW_HOJO
 62
   120
370
     5
100
AcDbLine
 10
-158.5973730541041
 20
-2362.680265754442
 30
0.0
 11
-158.5973730541041
 21
-3214.680265754443
 31
0.0
  0
LINE
  5
2FC
330
1F
100
AcDbEntity
  8
1-E
  6
Continuous
 62
   120
370
     5
100
AcDbLine
 10
119.588274081088
 20
-3064.680265754443
 30
0.0
 11
299.587383297725
 21
-3064.680265754443
 31
0.0
  0
LWPOLYLINE
  5
2FD
330
1F
100
AcDbEntity
  8
1-E
  6
Continuous
 62
     7
370
     9
100
AcDbPolyline
 90
        4
 70
     1
 43
3.0
 10
121.088274081088
 20
-3064.680265754443
 42
0.4142135623731
 10
119.588274081088
 20
-3063.180265754444
 42
0.4142135623731
 10
118.088274081088
 20
-3064.680265754443
 42
0.4142135623731
 10
119.588274081088
 20
-3066.180265754443
 42
0.4142135623731
  0
LWPOLYLINE
  5
2FE
330
1F
100
AcDbEntity
  8
1-E
  6
Continuous
 62
     7
370
     9
100
AcDbPolyline
 90
        4
 70
     1
 43
3.0
 10
181.0873832977254
 20
-3064.680265754443
 42
0.4142135623731
 10
179.5873832977254
 20
-3063.180265754444
 42
0.4142135623731
 10
178.0873832977254
 20
-3064.680265754443
 42
0.4142135623731
 10
179.5873832977254
 20
-3066.180265754443
 42
0.4142135623731
  0
LINE
  5
2FF
330
1F
100
AcDbEntity
  8
1-E
  6
Continuous
 62
   120
370
     5
100
AcDbLine
 10
119.588274081088
 20
-3214.680265754443
 30
0.0
 11
119.588274081088
 21
-2914.680265754443
 31
0.0
  0
LINE
  5
300
330
1F
100
AcDbEntity
  8
1-E
  6
Continuous
 62
   120
370
     5
100
AcDbLine
 10
179.5873832977254
 20
-3064.680265754443
 30
0.0
 11
179.5873832977254
 21
-2914.680265754443
 31
0.0
  0
LWPOLYLINE
  5
301
330
1F
100
AcDbEntity
  8
1-E
  6
Continuous
 62
     7
370
     9
100
AcDbPolyline
 90
        4
 70
     1
 43
3.0
 10
235.0873832977168
 20
-3064.680265754443
 42
0.4142135623731
 10
233.5873832977168
 20
-3063.180265754444
 42
0.4142135623731
 10
232.0873832977168
 20
-3064.680265754443
 42
0.4142135623731
 10
233.5873832977168
 20
-3066.180265754443
 42
0.4142135623731
  0
LINE
  5
302
330
1F
100
AcDbEntity
  8
1-E
  6
Continuous
 62
   120
370
     5
100
AcDbLine
 10
233.5873832977168
 20
-3064.680265754443
 30
0.0
 11
233.5873832977168
 21
-2914.680265754443
 31
0.0
  0
LWPOLYLINE
  5
303
330
1F
100
AcDbEntity
  8
1-E
  6
Continuous
 62
     7
370
     9
100
AcDbPolyline
 90
        4
 70
     1
 43
3.0
 10
271.087383297725
 20
-3064.680265754443
 42
0.4142135623731
 10
269.587383297725
 20
-3063.180265754444
 42
0.4142135623731
 10
268.087383297725
 20
-3064.680265754443
 42
0.4142135623731
 10
269.587383297725
 20
-3066.180265754443
 42
0.4142135623731
  0
LINE
  5
304
330
1F
100
AcDbEntity
  8
1-E
  6
Continuous
 62
   120
370
     5
100
AcDbLine
 10
269.587383297725
 20
-3064.680265754443
 30
0.0
 11
269.587383297725
 21
-2914.680265754443
 31
0.0
  0
LWPOLYLINE
  5
305
330
1F
100
AcDbEntity
  8
1-E
  6
Continuous
 62
     7
370
     9
100
AcDbPolyline
 90
        4
 70
     1
 43
3.0
 10
301.087383297725
 20
-3064.680265754443
 42
0.4142135623731
 10
299.587383297725
 20
-3063.180265754444
 42
0.4142135623731
 10
298.087383297725
 20
-3064.680265754443
 42
0.4142135623731
 10
299.587383297725
 20
-3066.180265754443
 42
0.4142135623731
  0
LINE
  5
306
330
1F
100
AcDbEntity
  8
1-E
  6
Continuous
 62
   120
370
     5
100
AcDbLine
 10
299.587383297725
 20
-3214.680265754443
 30
0.0
 11
299.587383297725
 21
-2914.680265754443
 31
0.0
  0
LINE
  5
307
330
1F
100
AcDbEntity
  8
1-E
  6
Continuous
 62
   120
370
     5
100
AcDbLine
 10
119.588274081088
 20
-3214.680265754443
 30
0.0
 11
299.587383297725
 21
-3214.680265754443
 31
0.0
  0
LWPOLYLINE
  5
308
330
1F
100
AcDbEntity
  8
1-E
  6
Continuous
 62
     7
370
     9
100
AcDbPolyline
 90
        4
 70
     1
 43
3.0
 10
121.088274081088
 20
-3214.680265754443
 42
0.4142135623731
 10
119.588274081088
 20
-3213.180265754444
 42
0.4142135623731
 10
118.088274081088
 20
-3214.680265754443
 42
0.4142135623731
 10
119.588274081088
 20
-3216.180265754443
 42
0.4142135623731
  0
LWPOLYLINE
  5
309
330
1F
100
AcDbEntity
  8
1-E
  6
Continuous
 62
     7
370
     9
100
AcDbPolyline
 90
        4
 70
     1
 43
3.0
 10
301.087383297725
 20
-3214.680265754443
 42
0.4142135623731
 10
299.587383297725
 20
-3213.180265754444
 42
0.4142135623731
 10
298.087383297725
 20
-3214.680265754443
 42
0.4142135623731
 10
299.587383297725
 20
-3216.180265754443
 42
0.4142135623731
  0
LINE
  5
30A
330
1F
100
AcDbEntity
  8
1-E
  6
Continuous
 62
   120
370
     5
100
AcDbLine
 10
251.5873832977141
 20
-3064.680265754443
 30
0.0
 11
341.5873832977141
 21
-3154.680265754443
 31
0.0
  0
LINE
  5
30B
330
1F
100
AcDbEntity
  8
1-E
  6
Continuous
 62
   120
370
     5
100
AcDbLine
 10
341.5873832977141
 20
-3154.680265754443
 30
0.0
 11
398.1063145307363
 21
-3154.680265754443
 31
0.0
  0
LINE
  5
30C
330
1F
100
AcDbEntity
  8
1-E
  6
Continuous
 62
   120
370
     5
100
AcDbLine
 10
284.587383297725
 20
-3064.680265754443
 30
0.0
 11
344.587383297725
 21
-3004.680265754443
 31
0.0
  0
LINE
  5
30D
330
1F
100
AcDbEntity
  8
1-E
  6
Continuous
 62
   120
370
     5
100
AcDbLine
 10
344.587383297725
 20
-3004.680265754443
 30
0.0
 11
400.243067115297
 21
-3004.680265754443
 31
0.0
  0
LINE
  5
30E
330
1F
100
AcDbEntity
  8
1-E
  6
JWW_HOJO
 62
   120
370
     5
100
AcDbLine
 10
946.8689155164602
 20
-2302.680265754442
 30
0.0
 11
-43.97071901411024
 21
-2302.680265754442
 31
0.0
  0
LINE
  5
30F
330
1F
100
AcDbEntity
  8
1-E
  6
Continuous
 62
    92
370
    13
100
AcDbLine
 10
299.587383297725
 20
-2362.680265754442
 30
0.0
 11
119.588274081088
 21
-2362.680265754442
 31
0.0
  0
LINE
  5
310
330
1F
100
AcDbEntity
  8
1-E
  6
Continuous
 62
    92
370
    13
100
AcDbLine
 10
119.588274081088
 20
-2449.678553470872
 30
0.0
 11
119.588274081088
 21
-2362.680265754442
 31
0.0
  0
LINE
  5
311
330
1F
100
AcDbEntity
  8
1-E
  6
Continuous
 62
   120
370
     5
100
AcDbLine
 10
-302.9420485667247
 20
-2362.680265754442
 30
0.0
 11
-43.97071901411024
 21
-2362.680265754442
 31
0.0
  0
LINE
  5
312
330
1F
100
AcDbEntity
  8
1-E
  6
Continuous
 62
   120
370
     5
100
AcDbLine
 10
299.587383297725
 20
-2467.687223762256
 30
0.0
 11
194.5810295108818
 21
-2362.680265754442
 31
0.0
  0
LINE
  5
313
330
1F
100
AcDbEntity
  8
1-E
  6
Continuous
 62
   120
370
     5
100
AcDbLine
 10
299.587383297725
 20
-2510.113750630922
 30
0.0
 11
152.1545923401659
 21
-2362.680265754442
 31
0.0
  0
LINE
  5
314
330
1F
100
AcDbEntity
  8
1-E
  6
Continuous
 62
   120
370
     5
100
AcDbLine
 10
299.587383297725
 20
-2552.540277499587
 30
0.0
 11
120.6586987537999
 21
-2373.610108316731
 31
0.0
  0
LINE
  5
315
330
1F
100
AcDbEntity
  8
1-E
  6
Continuous
 62
   120
370
     5
100
AcDbLine
 10
299.587383297725
 20
-2425.260696893591
 30
0.0
 11
237.0072204332328
 21
-2362.680265754442
 31
0.0
  0
LINE
  5
316
330
1F
100
AcDbEntity
  8
1-E
  6
Continuous
 62
   120
370
     5
100
AcDbLine
 10
299.587383297725
 20
-2382.834170024925
 30
0.0
 11
279.4338178565104
 21
-2362.680265754442
 31
0.0
  0
LINE
  5
317
330
1F
100
AcDbEntity
  8
1-E
  6
Continuous
 62
    92
370
    13
100
AcDbLine
 10
299.587383297725
 20
-2782.680265754441
 30
0.0
 11
299.587383297725
 21
-2362.680265754442
 31
0.0
  0
LINE
  5
318
330
1F
100
AcDbEntity
  8
1-E
  6
Continuous
 62
   120
370
     5
100
AcDbLine
 10
-495.2053034641453
 20
-2668.680265754457
 30
0.0
 11
155.5877989966253
 21
-2668.680265754457
 31
0.0
  0
LINE
  5
319
330
1F
100
AcDbEntity
  8
1-E
  6
Continuous
 62
   120
370
     5
100
AcDbLine
 10
-302.9420485667247
 20
-2824.680265754443
 30
0.0
 11
-302.9420485667247
 21
-2362.680265754442
 31
0.0
  0
LINE
  5
31A
330
1F
100
AcDbEntity
  8
1-E
  6
Continuous
 62
   120
370
     5
100
AcDbLine
 10
-158.5973730783739
 20
-2824.680265754443
 30
0.0
 11
-158.5973730783739
 21
-2362.680265754442
 31
0.0
  0
LWPOLYLINE
  5
31B
330
1F
100
AcDbEntity
  8
1-E
  6
Continuous
 62
     7
370
     9
100
AcDbPolyline
 90
        4
 70
     1
 43
3.0
 10
-301.4420485667246
 20
-2824.680265754443
 42
0.4142135623731
 10
-302.9420485667247
 20
-2823.180265754444
 42
0.4142135623731
 10
-304.4420485667247
 20
-2824.680265754443
 42
0.4142135623731
 10
-302.9420485667247
 20
-2826.180265754443
 42
0.4142135623731
  0
LWPOLYLINE
  5
31C
330
1F
100
AcDbEntity
  8
1-E
  6
Continuous
 62
     7
370
     9
100
AcDbPolyline
 90
        4
 70
     1
 43
3.0
 10
-157.0973730783739
 20
-2824.680265754443
 42
0.4142135623731
 10
-158.5973730783739
 20
-2823.180265754444
 42
0.4142135623731
 10
-160.0973730783739
 20
-2824.680265754443
 42
0.4142135623731
 10
-158.5973730783739
 20
-2826.180265754443
 42
0.4142135623731
  0
LINE
  5
31D
330
1F
100
AcDbEntity
  8
1-E
  6
Continuous
 62
   120
370
     5
100
AcDbLine
 10
-302.9420485667247
 20
-2824.680265754443
 30
0.0
 11
-43.97071901411024
 21
-2824.680265754443
 31
0.0
  0
LINE
  5
31E
330
1F
100
AcDbEntity
  8
1-E
  6
Continuous
 62
   120
370
     5
100
AcDbLine
 10
232.7425281164497
 20
-2782.680265754441
 30
0.0
 11
144.5227850080251
 21
-2694.46136729055
 31
0.0
  0
LINE
  5
31F
330
1F
100
AcDbEntity
  8
1-E
  6
Continuous
 62
   120
370
     5
100
AcDbLine
 10
269.587383297725
 20
-2819.524768171074
 30
0.0
 11
233.5873832977168
 21
-2783.52511284679
 31
0.0
  0
LINE
  5
320
330
1F
100
AcDbEntity
  8
1-E
  6
Continuous
 62
   120
370
     5
100
AcDbLine
 10
147.4637869475914
 20
-2824.680265754443
 30
0.0
 11
119.588274081088
 21
-2796.804952330667
 31
0.0
  0
LINE
  5
321
330
1F
100
AcDbEntity
  8
1-E
  6
Continuous
 62
   120
370
     5
100
AcDbLine
 10
179.5873832977254
 20
-2814.378040849013
 30
0.0
 11
119.588274081088
 21
-2754.379167781471
 31
0.0
  0
LINE
  5
322
330
1F
100
AcDbEntity
  8
1-E
  6
Continuous
 62
   120
370
     5
100
AcDbLine
 10
190.3166120987085
 20
-2782.680265754441
 30
0.0
 11
129.3022666380871
 21
-2721.666633469816
 31
0.0
  0
LINE
  5
323
330
1F
100
AcDbEntity
  8
1-E
  6
Continuous
 62
   120
370
     5
100
AcDbLine
 10
275.1694432300101
 20
-2782.680265754441
 30
0.0
 11
155.5877989966253
 21
-2663.099854410481
 31
0.0
  0
LINE
  5
324
330
1F
100
AcDbEntity
  8
1-E
  6
Continuous
 62
    92
370
    13
100
AcDbLine
 10
269.587383297725
 20
-2782.680265754441
 30
0.0
 11
299.587383297725
 21
-2782.680265754441
 31
0.0
  0
LINE
  5
325
330
1F
100
AcDbEntity
  8
1-E
  6
Continuous
 62
    92
370
    13
100
AcDbLine
 10
119.5873832977254
 20
-2824.680265754443
 30
0.0
 11
179.5873832977254
 21
-2824.680265754443
 31
0.0
  0
LINE
  5
326
330
1F
100
AcDbEntity
  8
1-E
  6
Continuous
 62
    92
370
    13
100
AcDbLine
 10
119.5873832977254
 20
-2824.680265754443
 30
0.0
 11
119.5873832977254
 21
-2737.680265754442
 31
0.0
  0
LINE
  5
327
330
1F
100
AcDbEntity
  8
1-E
  6
Continuous
 62
    92
370
    13
100
AcDbLine
 10
269.587383297725
 20
-2782.680265754441
 30
0.0
 11
269.587383297725
 21
-2824.680265754443
 31
0.0
  0
LINE
  5
328
330
1F
100
AcDbEntity
  8
1-E
  6
Continuous
 62
    92
370
    13
100
AcDbLine
 10
233.5873832977168
 20
-2824.680265754443
 30
0.0
 11
269.587383297725
 21
-2824.680265754443
 31
0.0
  0
LINE
  5
329
330
1F
100
AcDbEntity
  8
1-E
  6
Continuous
 62
    92
370
    13
100
AcDbLine
 10
233.5873832977168
 20
-2782.680265754441
 30
0.0
 11
233.5873832977168
 21
-2824.680265754443
 31
0.0
  0
LINE
  5
32A
330
1F
100
AcDbEntity
  8
1-E
  6
Continuous
 62
    92
370
    13
100
AcDbLine
 10
233.5873832977168
 20
-2782.680265754441
 30
0.0
 11
179.5873832977254
 21
-2782.680265754441
 31
0.0
  0
LINE
  5
32B
330
1F
100
AcDbEntity
  8
1-E
  6
Continuous
 62
    92
370
    13
100
AcDbLine
 10
179.5873832977254
 20
-2782.680265754441
 30
0.0
 11
179.5873832977254
 21
-2824.680265754443
 31
0.0
  0
LWPOLYLINE
  5
32C
330
1F
100
AcDbEntity
  8
1-E
  6
Continuous
 62
     7
370
     9
100
AcDbPolyline
 90
        4
 70
     1
 43
3.0
 10
-301.4420485667246
 20
-2362.680265754442
 42
0.4142135623731
 10
-302.9420485667247
 20
-2361.180265754442
 42
0.4142135623731
 10
-304.4420485667247
 20
-2362.680265754442
 42
0.4142135623731
 10
-302.9420485667247
 20
-2364.180265754442
 42
0.4142135623731
  0
LWPOLYLINE
  5
32D
330
1F
100
AcDbEntity
  8
1-E
  6
Continuous
 62
     7
370
     9
100
AcDbPolyline
 90
        4
 70
     1
 43
3.0
 10
-157.0973730783739
 20
-2362.680265754442
 42
0.4142135623731
 10
-158.5973730783739
 20
-2361.180265754442
 42
0.4142135623731
 10
-160.0973730783739
 20
-2362.680265754442
 42
0.4142135623731
 10
-158.5973730783739
 20
-2364.180265754442
 42
0.4142135623731
  0
LWPOLYLINE
  5
32E
330
1F
100
AcDbEntity
  8
1-E
  6
Continuous
 62
     7
370
     9
100
AcDbPolyline
 90
        4
 70
     1
 43
3.0
 10
-157.0973730783739
 20
-2518.680265754444
 42
0.4142135623731
 10
-158.5973730783739
 20
-2517.180265754444
 42
0.4142135623731
 10
-160.0973730783739
 20
-2518.680265754444
 42
0.4142135623731
 10
-158.5973730783739
 20
-2520.180265754444
 42
0.4142135623731
  0
LWPOLYLINE
  5
32F
330
1F
100
AcDbEntity
  8
1-E
  6
Continuous
 62
     7
370
     9
100
AcDbPolyline
 90
        4
 70
     1
 43
3.0
 10
-157.0973730783739
 20
-2668.680265754444
 42
0.4142135623731
 10
-158.5973730783739
 20
-2667.180265754444
 42
0.4142135623731
 10
-160.0973730783739
 20
-2668.680265754444
 42
0.4142135623731
 10
-158.5973730783739
 20
-2670.180265754444
 42
0.4142135623731
  0
LINE
  5
330
330
1F
100
AcDbEntity
  8
1-E
  6
Continuous
 62
   120
370
     5
100
AcDbLine
 10
-158.5973730783739
 20
-2518.680265754444
 30
0.0
 11
-43.97071901411024
 21
-2518.680265754444
 31
0.0
  0
LINE
  5
331
330
1F
100
AcDbEntity
  8
1-E
  6
Continuous
 62
   120
370
     5
100
AcDbLine
 10
-158.5973730783739
 20
-2668.680265754444
 30
0.0
 11
-43.97071901411024
 21
-2668.680265754444
 31
0.0
  0
LINE
  5
332
330
1F
100
AcDbEntity
  8
1-E
  6
Continuous
 62
   120
370
     5
100
AcDbLine
 10
299.587383297725
 20
-2637.393331236919
 30
0.0
 11
131.5871259602996
 21
-2469.392331580034
 31
0.0
  0
LINE
  5
333
330
1F
100
AcDbEntity
  8
1-E
  6
Continuous
 62
   120
370
     5
100
AcDbLine
 10
299.587383297725
 20
-2594.966804368253
 30
0.0
 11
119.588274081088
 21
-2414.966210512678
 31
0.0
  0
LINE
  5
334
330
1F
100
AcDbEntity
  8
1-E
  6
Continuous
 62
   120
370
     5
100
AcDbLine
 10
299.587383297725
 20
-2679.819858105584
 30
0.0
 11
155.5877989966253
 21
-2535.819531485019
 31
0.0
  0
LINE
  5
335
330
1F
100
AcDbEntity
  8
1-E
  6
Continuous
 62
   120
370
     5
100
AcDbLine
 10
299.587383297725
 20
-2764.672169523446
 30
0.0
 11
155.5877989966253
 21
-2620.674069861284
 31
0.0
  0
LINE
  5
336
330
1F
100
AcDbEntity
  8
1-E
  6
Continuous
 62
   120
370
     5
100
AcDbLine
 10
299.587383297725
 20
-2722.24638497425
 30
0.0
 11
155.5877989966253
 21
-2578.246058353684
 31
0.0
  0
LINE
  5
337
330
1F
100
AcDbEntity
  8
1-E
  6
Continuous
 62
    92
370
    13
100
AcDbLine
 10
119.588274081088
 20
-2812.680196471292
 30
0.0
 11
119.588274081088
 21
-2737.676979753598
 31
0.0
  0
LINE
  5
338
330
1F
100
AcDbEntity
  8
1-E
  6
Continuous
 62
    92
370
    13
100
AcDbLine
 10
155.5877989966253
 20
-2514.631506912594
 30
0.0
 11
155.5877989966253
 21
-2672.724768631344
 31
0.0
  0
ARC
  5
339
330
1F
100
AcDbEntity
  8
1-E
  6
Continuous
 62
    92
370
    13
100
AcDbCircle
 10
-480.4122207985624
 20
-2362.677969512891
 30
0.0
 40
707.5483889193149
100
AcDbArc
 50
327.9947052001953
 51
334.0110321044921
  0
ARC
  5
33A
330
1F
100
AcDbEntity
  8
1-E
  6
Continuous
 62
    92
370
    13
100
AcDbCircle
 10
-480.4122207985624
 20
-2824.677563711579
 30
0.0
 40
707.5483889193149
100
AcDbArc
 50
25.9889678955078
 51
32.00529479980467
  0
LINE
  5
33B
330
1F
100
AcDbEntity
  8
1-E
  6
Continuous
 62
     7
370
     9
100
AcDbLine
 10
311.5877198158742
 20
-2624.102897920301
 30
0.0
 11
311.5877198158742
 21
-2564.102699968443
 31
0.0
  0
LINE
  5
33C
330
1F
100
AcDbEntity
  8
1-E
  6
Continuous
 62
     7
370
     9
100
AcDbLine
 10
299.587383297725
 20
-2564.102699968443
 30
0.0
 11
317.5878880749624
 21
-2564.102699968443
 31
0.0
  0
LINE
  5
33D
330
1F
100
AcDbEntity
  8
1-E
  6
Continuous
 62
     7
370
     9
100
AcDbLine
 10
317.5878880749624
 20
-2624.102897920301
 30
0.0
 11
299.587383297725
 21
-2624.102897920301
 31
0.0
  0
LINE
  5
33E
330
1F
100
AcDbEntity
  8
1-E
  6
Continuous
 62
     7
370
     9
100
AcDbLine
 10
317.5878880749624
 20
-2534.102600992514
 30
0.0
 11
329.5874822736496
 21
-2534.102600992514
 31
0.0
  0
LINE
  5
33F
330
1F
100
AcDbEntity
  8
1-E
  6
Continuous
 62
     7
370
     9
100
AcDbLine
 10
317.5878880749624
 20
-2654.102996896231
 30
0.0
 11
317.5878880749624
 21
-2534.102600992514
 31
0.0
  0
LINE
  5
340
330
1F
100
AcDbEntity
  8
1-E
  6
Continuous
 62
     7
370
     9
100
AcDbLine
 10
329.5874822736496
 20
-2654.102996896231
 30
0.0
 11
317.5878880749624
 21
-2654.102996896231
 31
0.0
  0
LINE
  5
341
330
1F
100
AcDbEntity
  8
1-E
  6
Continuous
 62
   120
370
     5
100
AcDbLine
 10
-495.2053034641453
 20
-2518.680265754457
 30
0.0
 11
155.5877989966253
 21
-2518.680265754457
 31
0.0
  0
MTEXT
  5
342
330
1F
100
AcDbEntity
  8
1-E
  6
Continuous
 62
     7
370
   211
100
AcDbMText
 10
1987.444881584363
 20
-526.3032785662537
 30
0.0
 40
91.43999999999998
 41
120.0
 46
0.0
 71
     7
 72
     1
  1
{\fＭＳ ゴシック|b0|i0|c128|p49;11}
 73
     1
 44
1.0
  0
MTEXT
  5
343
330
1F
100
AcDbEntity
  8
1-E
  6
Continuous
 62
     7
370
   211
100
AcDbMText
 10
2288.696972069344
 20
-526.3032785662537
 30
0.0
 40
91.43999999999998
 41
240.0
 46
0.0
 71
     7
 72
     1
  1
{\fＭＳ ゴシック|b0|i0|c128|p49;10.5}
 73
     1
 44
1.0
  0
MTEXT
  5
344
330
1F
100
AcDbEntity
  8
1-E
  6
Continuous
 62
     7
370
   211
100
AcDbMText
 10
2202.845376958887
 20
-646.3032785662537
 30
0.0
 40
91.43999999999998
 41
180.0
 46
0.0
 71
     7
 72
     1
  1
{\fＭＳ ゴシック|b0|i0|c128|p49;6.3}
 73
     1
 44
1.0
  0
MTEXT
  5
345
330
1F
100
AcDbEntity
  8
1-E
  6
Continuous
 62
     7
370
   211
100
AcDbMText
 10
1709.290622661317
 20
-649.0108550112935
 30
0.0
 40
91.43999999999998
 41
180.0
 46
0.0
 71
     7
 72
     1
  1
{\fＭＳ ゴシック|b0|i0|c128|p49;6.3}
 73
     1
 44
1.0
  0
MTEXT
  5
346
330
1F
100
AcDbEntity
  8
1-E
  6
Continuous
 62
     7
370
     0
100
AcDbMText
 10
2881.35814276012
 20
-830.8872271612091
 30
0.0
 40
91.43999999999998
 41
180.0
 46
0.0
 71
     7
 72
     1
  1
{\fＭＳ ゴシック|b0|i0|c128|p49;1.2}
 11
6.123031769111886E-17
 21
1.0
 31
0.0
 73
     1
 44
1.0
  0
MTEXT
  5
347
330
1F
100
AcDbEntity
  8
1-E
  6
Continuous
 62
     7
370
     0
100
AcDbMText
 10
2878.837163109544
 20
-930.9021601097631
 30
0.0
 40
91.44000000000064
 41
60.00000000000043
 46
0.0
 71
     7
 72
     1
  1
{\fＭＳ ゴシック|b0|i0|c128|p49;7}
 11
6.123031769111886E-17
 21
1.0
 31
0.0
 73
     1
 44
1.0
  0
MTEXT
  5
348
330
1F
100
AcDbEntity
  8
1-E
  6
Continuous
 62
     7
370
     0
100
AcDbMText
 10
2880.097652934839
 20
-1020.902160109763
 30
0.0
 40
91.44000000000064
 41
60.00000000000043
 46
0.0
 71
     7
 72
     1
  1
{\fＭＳ ゴシック|b0|i0|c128|p49;5}
 11
6.123031769111886E-17
 21
1.0
 31
0.0
 73
     1
 44
1.0
  0
MTEXT
  5
349
330
1F
100
AcDbEntity
  8
1-E
  6
Continuous
 62
     7
370
     0
100
AcDbMText
 10
1987.444954484438
 20
-1198.497051116941
 30
0.0
 40
91.44
 41
120.0
 46
0.0
 71
     7
 72
     1
  1
{\fＭＳ ゴシック|b0|i0|c128|p49;23}
 73
     1
 44
1.0
  0
MTEXT
  5
34A
330
1F
100
AcDbEntity
  8
1-E
  6
Continuous
 62
     7
370
     0
100
AcDbMText
 10
2328.336467430983
 20
-1199.960679703977
 30
0.0
 40
91.44
 41
600.0
 46
0.0
 71
     7
 72
     1
  1
{\fＭＳ ゴシック|b0|i0|c128|p49;下地ベース}
 73
     1
 44
1.0
  0
LINE
  5
34B
330
1F
100
AcDbEntity
  8
1-E
  6
Continuous
 62
    92
370
    13
100
AcDbLine
 10
113.7078395503569
 20
-1231.824859315474
 30
0.0
 11
113.7078395503569
 21
-1181.825374815102
 31
0.0
  0
LINE
  5
34C
330
1F
100
AcDbEntity
  8
1-E
  6
Continuous
 62
    92
370
    13
100
AcDbLine
 10
-116.2924243854557
 20
-1231.824859315474
 30
0.0
 11
-116.2924243854557
 21
-1181.825374815102
 31
0.0
  0
LINE
  5
34D
330
1F
100
AcDbEntity
  8
1-E
  6
Continuous
 62
    92
370
    13
100
AcDbLine
 10
-101.2931172169554
 20
-1251.825172739249
 30
0.0
 11
98.70704774293259
 21
-1251.825172739249
 31
0.0
  0
LINE
  5
34E
330
1F
100
AcDbEntity
  8
1-E
  6
Continuous
 62
    92
370
    13
100
AcDbLine
 10
-116.2924243854557
 20
-1231.824859315474
 30
0.0
 11
-101.2931172169554
 21
-1231.824859315474
 31
0.0
  0
LINE
  5
34F
330
1F
100
AcDbEntity
  8
1-E
  6
Continuous
 62
    92
370
    13
100
AcDbLine
 10
-101.2931172169554
 20
-1251.825172739249
 30
0.0
 11
-101.2931172169554
 21
-1231.824859315474
 31
0.0
  0
LINE
  5
350
330
1F
100
AcDbEntity
  8
1-E
  6
Continuous
 62
    92
370
    13
100
AcDbLine
 10
98.70704774293259
 20
-1251.825172739249
 30
0.0
 11
98.70704774293259
 21
-1231.824859315474
 31
0.0
  0
LINE
  5
351
330
1F
100
AcDbEntity
  8
1-E
  6
Continuous
 62
    92
370
    13
100
AcDbLine
 10
113.7078395503569
 20
-1231.824859315474
 30
0.0
 11
98.70704774293259
 21
-1231.824859315474
 31
0.0
  0
LINE
  5
352
330
1F
100
AcDbEntity
  8
1-E
  6
JWW_HOJO
 62
   120
370
     5
100
AcDbLine
 10
-444.4626421557404
 20
-1379.334827016332
 30
0.0
 11
698.7074931188513
 21
-1379.334827016332
 31
0.0
  0
LINE
  5
353
330
1F
100
AcDbEntity
  8
1-E
  6
JWW_HOJO
 62
   120
370
     5
100
AcDbLine
 10
-444.4626421557404
 20
-1559.334827016331
 30
0.0
 11
878.7074931188513
 21
-1559.334827016331
 31
0.0
  0
LINE
  5
354
330
1F
100
AcDbEntity
  8
1-E
  6
JWW_HOJO
 62
   120
370
     5
100
AcDbLine
 10
-461.2935626086436
 20
-391.5341981342589
 30
0.0
 11
698.7074931188513
 21
-391.5341981342589
 31
0.0
  0
LINE
  5
355
330
1F
100
AcDbEntity
  8
1-E
  6
JWW_HOJO
 62
   120
370
     5
100
AcDbLine
 10
-461.2935626086436
 20
-247.9921483342583
 30
0.0
 11
878.7074931188513
 21
-247.9921483342583
 31
0.0
  0
LINE
  5
356
330
1F
100
AcDbEntity
  8
1-E
  6
JWW_HOJO
 62
   120
370
     5
100
AcDbLine
 10
-461.2935626086436
 20
-441.5341981342577
 30
0.0
 11
698.7074931188513
 21
-441.5341981342577
 31
0.0
  0
LINE
  5
357
330
1F
100
AcDbEntity
  8
1-E
  6
JWW_HOJO
 62
   120
370
     5
100
AcDbLine
 10
878.7074931188513
 20
-1559.334827016331
 30
0.0
 11
878.7074931188513
 21
-247.9921483342583
 31
0.0
  0
LINE
  5
358
330
1F
100
AcDbEntity
  8
1-E
  6
Continuous
 62
   120
370
     5
100
AcDbLine
 10
698.7074931188513
 20
-1181.825374815102
 30
0.0
 11
698.7074931188513
 21
-1251.825172739249
 31
0.0
  0
LWPOLYLINE
  5
359
330
1F
100
AcDbEntity
  8
1-E
  6
Continuous
 62
     7
370
     9
100
AcDbPolyline
 90
        4
 70
     1
 43
3.0
 10
700.2074931188514
 20
-1181.825374815102
 42
0.4142135623731
 10
698.7074931188513
 20
-1180.325374815102
 42
0.4142135623731
 10
697.2074931188513
 20
-1181.825374815102
 42
0.4142135623731
 10
698.7074931188513
 20
-1183.325374815102
 42
0.4142135623731
  0
LWPOLYLINE
  5
35A
330
1F
100
AcDbEntity
  8
1-E
  6
Continuous
 62
     7
370
     9
100
AcDbPolyline
 90
        4
 70
     1
 43
3.0
 10
700.2074931188514
 20
-1251.825172739249
 42
0.4142135623731
 10
698.7074931188513
 20
-1250.325172739249
 42
0.4142135623731
 10
697.2074931188513
 20
-1251.825172739249
 42
0.4142135623731
 10
698.7074931188513
 20
-1253.325172739249
 42
0.4142135623731
  0
LINE
  5
35B
330
1F
100
AcDbEntity
  8
1-E
  6
Continuous
 62
   120
370
     5
100
AcDbLine
 10
698.7074931188513
 20
-1181.825374815102
 30
0.0
 11
506.974185482579
 21
-1181.825374815102
 31
0.0
  0
LINE
  5
35C
330
1F
100
AcDbEntity
  8
1-E
  6
Continuous
 62
   120
370
     5
100
AcDbLine
 10
698.7074931188513
 20
-1251.825172739249
 30
0.0
 11
506.974185482579
 21
-1251.825172739249
 31
0.0
  0
MTEXT
  5
35D
330
1F
100
AcDbEntity
  8
1-E
  6
Continuous
 62
     7
370
   211
100
AcDbMText
 10
683.7074931188513
 20
-1250.035273777176
 30
0.0
 40
68.58
 41
45.0
 46
0.0
 71
     7
 72
     1
  1
{\fＭＳ ゴシック|b0|i0|c128|p49;7}
 11
6.123031769111886E-17
 21
1.0
 31
0.0
 73
     1
 44
1.0
  0
LINE
  5
35E
330
1F
100
AcDbEntity
  8
1-E
  6
JWW_HOJO
 62
   120
370
     5
100
AcDbLine
 10
698.7074931188513
 20
-1379.334827016332
 30
0.0
 11
698.7074931188513
 21
-441.5341981342577
 31
0.0
  0
MTEXT
  5
35F
330
1F
100
AcDbEntity
  8
1-E
  6
Continuous
 62
     7
370
     0
100
AcDbMText
 10
1850.439201190836
 20
-1318.317469751055
 30
0.0
 40
91.44
 41
60.0
 46
0.0
 71
     7
 72
     1
  1
{\fＭＳ ゴシック|b0|i0|c128|p49;1}
 73
     1
 44
1.0
  0
LINE
  5
360
330
1F
100
AcDbEntity
  8
1-E
  6
Continuous
 62
     7
370
     9
100
AcDbLine
 10
2148.050672174588
 20
-982.6541004386984
 30
0.0
 11
2274.725236927045
 21
-1125.339660921175
 31
0.0
  0
LINE
  5
361
330
1F
100
AcDbEntity
  8
1-E
  6
Continuous
 62
    40
370
    15
100
AcDbLine
 10
1507.444881584363
 20
-1014.122160109763
 30
0.0
 11
2587.444881584363
 21
-1014.122160109763
 31
0.0
  0
LINE
  5
362
330
1F
100
AcDbEntity
  8
1-E
  6
JWW_HOJO
 62
   120
370
     5
100
AcDbLine
 10
1507.444881584363
 20
-1193.610184507998
 30
0.0
 11
2587.444881584363
 21
-1193.610184507998
 31
0.0
  0
LINE
  5
363
330
1F
100
AcDbEntity
  8
1-E
  6
Continuous
 62
   120
370
     5
100
AcDbLine
 10
2617.444881584363
 20
-1014.122160109763
 30
0.0
 11
2887.444881584363
 21
-1014.122160109763
 31
0.0
  0
LWPOLYLINE
  5
364
330
1F
100
AcDbEntity
  8
1-E
  6
Continuous
 62
     7
370
     9
100
AcDbPolyline
 90
        4
 70
     1
 43
3.0
 10
2888.944881584363
 20
-1014.122160109763
 42
0.4142135623731
 10
2887.444881584363
 20
-1012.622160109764
 42
0.4142135623731
 10
2885.944881584363
 20
-1014.122160109763
 42
0.4142135623731
 10
2887.444881584363
 20
-1015.622160109763
 42
0.4142135623731
  0
LINE
  5
365
330
1F
100
AcDbEntity
  8
1-E
  6
Continuous
 62
   120
370
     5
100
AcDbLine
 10
1859.944881584363
 20
-1073.610184507824
 30
0.0
 11
1859.944881584363
 21
-1193.610184507824
 31
0.0
  0
LWPOLYLINE
  5
366
330
1F
100
AcDbEntity
  8
1-E
  6
Continuous
 62
     7
370
     9
100
AcDbPolyline
 90
        4
 70
     1
 43
3.0
 10
1861.444881584363
 20
-1193.610184507824
 42
0.4142135623731
 10
1859.944881584363
 20
-1192.110184507824
 42
0.4142135623731
 10
1858.444881584363
 20
-1193.610184507824
 42
0.4142135623731
 10
1859.944881584363
 20
-1195.110184507824
 42
0.4142135623731
  0
MTEXT
  5
367
330
1F
100
AcDbEntity
  8
1-E
  6
Continuous
 62
     7
370
     0
100
AcDbMText
 10
2200.904651993198
 20
-1318.317469751055
 30
0.0
 40
91.44
 41
60.0
 46
0.0
 71
     7
 72
     1
  1
{\fＭＳ ゴシック|b0|i0|c128|p49;1}
 73
     1
 44
1.0
  0
LINE
  5
368
330
1F
100
AcDbEntity
  8
1-E
  6
Continuous
 62
   120
370
     5
100
AcDbLine
 10
2234.944881584363
 20
-1073.610184507824
 30
0.0
 11
2234.944881584363
 21
-1193.610184507824
 31
0.0
  0
LWPOLYLINE
  5
369
330
1F
100
AcDbEntity
  8
1-E
  6
Continuous
 62
     7
370
     9
100
AcDbPolyline
 90
        4
 70
     1
 43
3.0
 10
2236.444881584363
 20
-1193.610184507824
 42
0.4142135623731
 10
2234.944881584363
 20
-1192.110184507824
 42
0.4142135623731
 10
2233.444881584363
 20
-1193.610184507824
 42
0.4142135623731
 10
2234.944881584363
 20
-1195.110184507824
 42
0.4142135623731
  0
MTEXT
  5
36A
330
1F
100
AcDbEntity
  8
1-E
  6
Continuous
 62
     7
370
   211
100
AcDbMText
 10
-296.2928202891687
 20
-1555.044827016331
 30
0.0
 40
68.58
 41
90.0
 46
0.0
 71
     7
 72
     1
  1
{\fＭＳ ゴシック|b0|i0|c128|p49;27}
 73
     1
 44
1.0
  0
LINE
  5
36B
330
1F
100
AcDbEntity
  8
1-E
  6
Continuous
 62
   120
370
     5
100
AcDbLine
 10
1859.944881584363
 20
-1193.610184507824
 30
0.0
 11
2234.944881584363
 21
-1193.610184507824
 31
0.0
  0
LINE
  5
36C
330
1F
100
AcDbEntity
  8
1-E
  6
Continuous
 62
   120
370
     5
100
AcDbLine
 10
2219.944881584363
 20
-1073.610184507824
 30
0.0
 11
2219.944881584363
 21
-1193.610184507824
 31
0.0
  0
LWPOLYLINE
  5
36D
330
1F
100
AcDbEntity
  8
1-E
  6
Continuous
 62
     7
370
     9
100
AcDbPolyline
 90
        4
 70
     1
 43
3.0
 10
2221.444881584363
 20
-1193.610184507824
 42
0.4142135623731
 10
2219.944881584363
 20
-1192.110184507824
 42
0.4142135623731
 10
2218.444881584363
 20
-1193.610184507824
 42
0.4142135623731
 10
2219.944881584363
 20
-1195.110184507824
 42
0.4142135623731
  0
LINE
  5
36E
330
1F
100
AcDbEntity
  8
1-E
  6
Continuous
 62
   120
370
     5
100
AcDbLine
 10
1874.945027384526
 20
-1073.610184507824
 30
0.0
 11
1874.945027384526
 21
-1193.610184507824
 31
0.0
  0
LWPOLYLINE
  5
36F
330
1F
100
AcDbEntity
  8
1-E
  6
Continuous
 62
     7
370
     9
100
AcDbPolyline
 90
        4
 70
     1
 43
3.0
 10
1876.445027384526
 20
-1193.610184507824
 42
0.4142135623731
 10
1874.945027384526
 20
-1192.110184507824
 42
0.4142135623731
 10
1873.445027384526
 20
-1193.610184507824
 42
0.4142135623731
 10
1874.945027384526
 20
-1195.110184507824
 42
0.4142135623731
  0
MTEXT
  5
370
330
1F
100
AcDbEntity
  8
1-E
  6
Continuous
 62
     7
370
   211
100
AcDbMText
 10
-46.29229241754942
 20
-1555.044827016331
 30
0.0
 40
68.58
 41
90.0
 46
0.0
 71
     7
 72
     1
  1
{\fＭＳ ゴシック|b0|i0|c128|p49;23}
 73
     1
 44
1.0
  0
LINE
  5
371
330
1F
100
AcDbEntity
  8
1-E
  6
Continuous
 62
   120
370
     5
100
AcDbLine
 10
2617.444881584363
 20
-939.1221601097634
 30
0.0
 11
2887.444881584363
 21
-939.1221601097634
 31
0.0
  0
LWPOLYLINE
  5
372
330
1F
100
AcDbEntity
  8
1-E
  6
Continuous
 62
     7
370
     9
100
AcDbPolyline
 90
        4
 70
     1
 43
3.0
 10
2888.944881584363
 20
-939.1221601097634
 42
0.4142135623731
 10
2887.444881584363
 20
-937.6221601097634
 42
0.4142135623731
 10
2885.944881584363
 20
-939.1221601097634
 42
0.4142135623731
 10
2887.444881584363
 20
-940.6221601097635
 42
0.4142135623731
  0
LINE
  5
373
330
1F
100
AcDbEntity
  8
1-E
  6
Continuous
 62
   120
370
     5
100
AcDbLine
 10
1807.444881584363
 20
-752.2822231574269
 30
0.0
 11
1807.444881584363
 21
-392.2822231574269
 31
0.0
  0
LWPOLYLINE
  5
374
330
1F
100
AcDbEntity
  8
1-E
  6
Continuous
 62
     7
370
     9
100
AcDbPolyline
 90
        4
 70
     1
 43
3.0
 10
1808.944881584363
 20
-632.2822231574269
 42
0.4142135623731
 10
1807.444881584363
 20
-630.7822231574269
 42
0.4142135623731
 10
1805.944881584363
 20
-632.2822231574269
 42
0.4142135623731
 10
1807.444881584363
 20
-633.782223157427
 42
0.4142135623731
  0
LWPOLYLINE
  5
375
330
1F
100
AcDbEntity
  8
1-E
  6
Continuous
 62
     7
370
     9
100
AcDbPolyline
 90
        4
 70
     1
 43
3.0
 10
1808.944881584363
 20
-512.2822231574269
 42
0.4142135623731
 10
1807.444881584363
 20
-510.7822231574269
 42
0.4142135623731
 10
1805.944881584363
 20
-512.2822231574269
 42
0.4142135623731
 10
1807.444881584363
 20
-513.782223157427
 42
0.4142135623731
  0
LWPOLYLINE
  5
376
330
1F
100
AcDbEntity
  8
1-E
  6
Continuous
 62
     7
370
     9
100
AcDbPolyline
 90
        4
 70
     1
 43
3.0
 10
1808.944881584363
 20
-392.2822231574269
 42
0.4142135623731
 10
1807.444881584363
 20
-390.7822231574269
 42
0.4142135623731
 10
1805.944881584363
 20
-392.2822231574269
 42
0.4142135623731
 10
1807.444881584363
 20
-393.7822231574269
 42
0.4142135623731
  0
MTEXT
  5
377
330
1F
100
AcDbEntity
  8
1-E
  6
Continuous
 62
     7
370
   211
100
AcDbMText
 10
203.70749313461
 20
-1555.044827016331
 30
0.0
 40
68.58
 41
90.0
 46
0.0
 71
     7
 72
     1
  1
{\fＭＳ ゴシック|b0|i0|c128|p49;27}
 73
     1
 44
1.0
  0
LINE
  5
378
330
1F
100
AcDbEntity
  8
1-E
  6
JWW_HOJO
 62
   120
370
     5
100
AcDbLine
 10
1507.444881584363
 20
-392.2822231574269
 30
0.0
 11
1507.444881584363
 21
-1193.610184507998
 31
0.0
  0
LINE
  5
379
330
1F
100
AcDbEntity
  8
1-E
  6
JWW_HOJO
 62
   120
370
     5
100
AcDbLine
 10
1807.444881584363
 20
-632.2822231574269
 30
0.0
 11
2287.444881584363
 21
-632.2822231574269
 31
0.0
  0
LINE
  5
37A
330
1F
100
AcDbEntity
  8
1-E
  6
JWW_HOJO
 62
   120
370
     5
100
AcDbLine
 10
1807.444881584363
 20
-512.2822231574269
 30
0.0
 11
2287.444881584363
 21
-512.2822231574269
 31
0.0
  0
LINE
  5
37B
330
1F
100
AcDbEntity
  8
1-E
  6
Continuous
 62
   120
370
     5
100
AcDbLine
 10
1807.444881584363
 20
-512.2822231574269
 30
0.0
 11
2287.444881584363
 21
-512.2822231574269
 31
0.0
  0
LINE
  5
37C
330
1F
100
AcDbEntity
  8
1-E
  6
Continuous
 62
   120
370
     5
100
AcDbLine
 10
1807.444881584363
 20
-392.2822231574269
 30
0.0
 11
2287.444881584363
 21
-392.2822231574269
 31
0.0
  0
LWPOLYLINE
  5
37D
330
1F
100
AcDbEntity
  8
1-E
  6
Continuous
 62
     7
370
     9
100
AcDbPolyline
 90
        4
 70
     1
 43
3.0
 10
2288.944881584363
 20
-632.2822231574269
 42
0.4142135623731
 10
2287.444881584363
 20
-630.7822231574269
 42
0.4142135623731
 10
2285.944881584363
 20
-632.2822231574269
 42
0.4142135623731
 10
2287.444881584363
 20
-633.782223157427
 42
0.4142135623731
  0
LWPOLYLINE
  5
37E
330
1F
100
AcDbEntity
  8
1-E
  6
Continuous
 62
     7
370
     9
100
AcDbPolyline
 90
        4
 70
     1
 43
3.0
 10
2288.944881584363
 20
-512.2822231574269
 42
0.4142135623731
 10
2287.444881584363
 20
-510.7822231574269
 42
0.4142135623731
 10
2285.944881584363
 20
-512.2822231574269
 42
0.4142135623731
 10
2287.444881584363
 20
-513.782223157427
 42
0.4142135623731
  0
LWPOLYLINE
  5
37F
330
1F
100
AcDbEntity
  8
1-E
  6
Continuous
 62
     7
370
     9
100
AcDbPolyline
 90
        4
 70
     1
 43
3.0
 10
2288.944881584363
 20
-392.2822231574269
 42
0.4142135623731
 10
2287.444881584363
 20
-390.7822231574269
 42
0.4142135623731
 10
2285.944881584363
 20
-392.2822231574269
 42
0.4142135623731
 10
2287.444881584363
 20
-393.7822231574269
 42
0.4142135623731
  0
LINE
  5
380
330
1F
100
AcDbEntity
  8
1-E
  6
Continuous
 62
   120
370
     5
100
AcDbLine
 10
2287.444881584363
 20
-752.2822231574269
 30
0.0
 11
2287.444881584363
 21
-392.2822231574269
 31
0.0
  0
MTEXT
  5
381
330
1F
100
AcDbEntity
  8
1-E
  6
Continuous
 62
     7
370
   211
100
AcDbMText
 10
2002.444881584363
 20
-1764.467876344355
 30
0.0
 40
68.58
 41
90.0
 46
0.0
 71
     7
 72
     1
  1
{\fＭＳ ゴシック|b0|i0|c128|p49;32}
 73
     1
 44
1.0
  0
LINE
  5
382
330
1F
100
AcDbEntity
  8
1-E
  6
JWW_HOJO
 62
   120
370
     5
100
AcDbLine
 10
1507.444881584363
 20
-392.2822231574269
 30
0.0
 11
2587.444881584363
 21
-392.2822231574269
 31
0.0
  0
LINE
  5
383
330
1F
100
AcDbEntity
  8
1-E
  6
JWW_HOJO
 62
   120
370
     5
100
AcDbLine
 10
2587.444881584363
 20
-392.2822231574269
 30
0.0
 11
2587.444881584363
 21
-1193.610184507998
 31
0.0
  0
LINE
  5
384
330
1F
100
AcDbEntity
  8
1-E
  6
Continuous
 62
   120
370
     5
100
AcDbLine
 10
2617.444881584363
 20
-834.1221601097634
 30
0.0
 11
2887.444881584363
 21
-834.1221601097634
 31
0.0
  0
LWPOLYLINE
  5
385
330
1F
100
AcDbEntity
  8
1-E
  6
Continuous
 62
     7
370
     9
100
AcDbPolyline
 90
        4
 70
     1
 43
3.0
 10
2888.944881584363
 20
-834.1221601097634
 42
0.4142135623731
 10
2887.444881584363
 20
-832.6221601097634
 42
0.4142135623731
 10
2885.944881584363
 20
-834.1221601097634
 42
0.4142135623731
 10
2887.444881584363
 20
-835.6221601097635
 42
0.4142135623731
  0
LWPOLYLINE
  5
386
330
1F
100
AcDbEntity
  8
1-E
  6
Continuous
 62
     7
370
     9
100
AcDbPolyline
 90
        4
 70
     1
 43
3.0
 10
1966.444881584363
 20
-512.2822231574269
 42
0.4142135623731
 10
1964.944881584363
 20
-510.7822231574269
 42
0.4142135623731
 10
1963.444881584363
 20
-512.2822231574269
 42
0.4142135623731
 10
1964.944881584363
 20
-513.782223157427
 42
0.4142135623731
  0
LINE
  5
387
330
1F
100
AcDbEntity
  8
1-E
  6
Continuous
 62
   120
370
     5
100
AcDbLine
 10
1964.944881584363
 20
-512.2822231574269
 30
0.0
 11
1964.944881584363
 21
-752.2822231574269
 31
0.0
  0
LWPOLYLINE
  5
388
330
1F
100
AcDbEntity
  8
1-E
  6
Continuous
 62
     7
370
     9
100
AcDbPolyline
 90
        4
 70
     1
 43
3.0
 10
2131.444881584363
 20
-512.2822231574269
 42
0.4142135623731
 10
2129.944881584363
 20
-510.7822231574269
 42
0.4142135623731
 10
2128.444881584363
 20
-512.2822231574269
 42
0.4142135623731
 10
2129.944881584363
 20
-513.782223157427
 42
0.4142135623731
  0
LINE
  5
389
330
1F
100
AcDbEntity
  8
1-E
  6
Continuous
 62
   120
370
     5
100
AcDbLine
 10
2129.944881584363
 20
-512.2822231574269
 30
0.0
 11
2129.944881584363
 21
-752.2822231574269
 31
0.0
  0
MTEXT
  5
38A
330
1F
100
AcDbEntity
  8
1-E
  6
Continuous
 62
     7
370
   211
100
AcDbMText
 10
2002.444881584363
 20
-1923.930164334826
 30
0.0
 40
68.58
 41
90.0
 46
0.0
 71
     7
 72
     1
  1
{\fＭＳ ゴシック|b0|i0|c128|p49;11}
 73
     1
 44
1.0
  0
LINE
  5
38B
330
1F
100
AcDbEntity
  8
1-E
  6
Continuous
 62
    40
370
    15
100
AcDbLine
 10
1860.160386111431
 20
-834.1221601097634
 30
0.0
 11
1507.444881584363
 21
-834.1221601097634
 31
0.0
  0
LINE
  5
38C
330
1F
100
AcDbEntity
  8
1-E
  6
Continuous
 62
    40
370
    15
100
AcDbLine
 10
2234.729377057294
 20
-834.1221601097634
 30
0.0
 11
2587.444881584363
 21
-834.1221601097634
 31
0.0
  0
MTEXT
  5
38D
330
1F
100
AcDbEntity
  8
1-E
  6
Continuous
 62
     7
370
     9
100
AcDbMText
 10
-736.6948144449419
 20
-1948.845202714477
 30
0.0
 40
91.44000000000003
 41
1740.0
 46
0.0
 71
     7
 72
     1
  1
{\fＭＳ ゴシック|b0|i0|c128|p49;レール埋込時 フロアー貼込位置}
 73
     1
 44
1.0
  0
MTEXT
  5
38E
330
1F
100
AcDbEntity
  8
1-E
  6
Continuous
 62
     7
370
   211
100
AcDbMText
 10
1574.593155845437
 20
-2060.086971205257
 30
0.0
 40
68.57999999999988
 41
134.9999999999998
 46
0.0
 71
     7
 72
     1
  1
{\fＭＳ ゴシック|b0|i0|c128|p49;1.2}
 11
6.123031769111886E-17
 21
1.0
 31
0.0
 73
     1
 44
1.0
  0
MTEXT
  5
38F
330
1F
100
AcDbEntity
  8
1-E
  6
Continuous
 62
     7
370
   211
100
AcDbMText
 10
1574.593155845437
 20
-2172.110280267577
 30
0.0
 40
68.58
 41
45.0
 46
0.0
 71
     7
 72
     1
  1
{\fＭＳ ゴシック|b0|i0|c128|p49;7}
 11
6.123031769111886E-17
 21
1.0
 31
0.0
 73
     1
 44
1.0
  0
LINE
  5
390
330
1F
100
AcDbEntity
  8
1-E
  6
Continuous
 62
     7
370
     9
100
AcDbLine
 10
1859.944881584363
 20
-870.1221601097614
 30
0.0
 11
1507.444881584363
 21
-870.1221601097614
 31
0.0
  0
LINE
  5
391
330
1F
100
AcDbEntity
  8
1-E
  6
Continuous
 62
     7
370
     9
100
AcDbLine
 10
1859.944881584363
 20
-906.1221601097627
 30
0.0
 11
1507.444881584363
 21
-906.1221601097627
 31
0.0
  0
LINE
  5
392
330
1F
100
AcDbEntity
  8
1-E
  6
Continuous
 62
     7
370
     9
100
AcDbLine
 10
1859.944881584363
 20
-942.1221601097607
 30
0.0
 11
1507.444881584363
 21
-942.1221601097607
 31
0.0
  0
LINE
  5
393
330
1F
100
AcDbEntity
  8
1-E
  6
Continuous
 62
     7
370
     9
100
AcDbLine
 10
1859.944881584363
 20
-978.122160109762
 30
0.0
 11
1507.444881584363
 21
-978.122160109762
 31
0.0
  0
LINE
  5
394
330
1F
100
AcDbEntity
  8
1-E
  6
Continuous
 62
     7
370
     9
100
AcDbLine
 10
2587.444881584363
 20
-870.5501303477131
 30
0.0
 11
2234.944881584363
 21
-870.5501303477131
 31
0.0
  0
LINE
  5
395
330
1F
100
AcDbEntity
  8
1-E
  6
Continuous
 62
     7
370
     9
100
AcDbLine
 10
2587.444881584363
 20
-906.5501303477145
 30
0.0
 11
2234.944881584363
 21
-906.5501303477145
 31
0.0
  0
LINE
  5
396
330
1F
100
AcDbEntity
  8
1-E
  6
Continuous
 62
     7
370
     9
100
AcDbLine
 10
2587.444881584363
 20
-942.5501303477124
 30
0.0
 11
2234.944881584363
 21
-942.5501303477124
 31
0.0
  0
LINE
  5
397
330
1F
100
AcDbEntity
  8
1-E
  6
Continuous
 62
     7
370
     9
100
AcDbLine
 10
2587.444881584363
 20
-978.5501303477138
 30
0.0
 11
2234.944881584363
 21
-978.5501303477138
 31
0.0
  0
LINE
  5
398
330
1F
100
AcDbEntity
  8
1-E
  6
Continuous
 62
   120
370
     5
100
AcDbLine
 10
2887.444881584363
 20
-1014.122160109763
 30
0.0
 11
2887.444881584363
 21
-816.1221601097627
 31
0.0
  0
LINE
  5
399
330
1F
100
AcDbEntity
  8
1-E
  6
Continuous
 62
   120
370
     5
100
AcDbLine
 10
2617.444881584363
 20
-816.1221601097627
 30
0.0
 11
2887.444881584363
 21
-816.1221601097627
 31
0.0
  0
LWPOLYLINE
  5
39A
330
1F
100
AcDbEntity
  8
1-E
  6
Continuous
 62
     7
370
     9
100
AcDbPolyline
 90
        4
 70
     1
 43
3.0
 10
2888.944881584363
 20
-816.1221601097627
 42
0.4142135623731
 10
2887.444881584363
 20
-814.6221601097627
 42
0.4142135623731
 10
2885.944881584363
 20
-816.1221601097627
 42
0.4142135623731
 10
2887.444881584363
 20
-817.6221601097628
 42
0.4142135623731
  0
LINE
  5
39B
330
1F
100
AcDbEntity
  8
1-E
  6
Continuous
 62
   120
370
     5
100
AcDbLine
 10
2192.94488158436
 20
-632.2822231574269
 30
0.0
 11
2287.444881584363
 21
-632.2822231574269
 31
0.0
  0
LWPOLYLINE
  5
39C
330
1F
100
AcDbEntity
  8
1-E
  6
Continuous
 62
     7
370
     9
100
AcDbPolyline
 90
        4
 70
     1
 43
3.0
 10
2194.44488158436
 20
-632.2822231574269
 42
0.4142135623731
 10
2192.94488158436
 20
-630.7822231574269
 42
0.4142135623731
 10
2191.44488158436
 20
-632.2822231574269
 42
0.4142135623731
 10
2192.94488158436
 20
-633.782223157427
 42
0.4142135623731
  0
LINE
  5
39D
330
1F
100
AcDbEntity
  8
1-E
  6
Continuous
 62
   120
370
     5
100
AcDbLine
 10
2192.94488158436
 20
-632.2822231574269
 30
0.0
 11
2192.94488158436
 21
-752.2822231574269
 31
0.0
  0
LINE
  5
39E
330
1F
100
AcDbEntity
  8
1-E
  6
Continuous
 62
   120
370
     5
100
AcDbLine
 10
1807.444881584363
 20
-632.2822231574269
 30
0.0
 11
1901.944881584365
 21
-632.2822231574269
 31
0.0
  0
LINE
  5
39F
330
1F
100
AcDbEntity
  8
1-E
  6
Continuous
 62
   120
370
     5
100
AcDbLine
 10
1901.944881584365
 20
-632.2822231574269
 30
0.0
 11
1901.944881584365
 21
-752.2822231574269
 31
0.0
  0
LWPOLYLINE
  5
3A0
330
1F
100
AcDbEntity
  8
1-E
  6
Continuous
 62
     7
370
     9
100
AcDbPolyline
 90
        4
 70
     1
 43
3.0
 10
1903.444881584365
 20
-632.2822231574269
 42
0.4142135623731
 10
1901.944881584365
 20
-630.7822231574269
 42
0.4142135623731
 10
1900.444881584365
 20
-632.2822231574269
 42
0.4142135623731
 10
1901.944881584365
 20
-633.782223157427
 42
0.4142135623731
  0
MTEXT
  5
3A1
330
1F
100
AcDbEntity
  8
1-E
  6
Continuous
 62
     7
370
   211
100
AcDbMText
 10
1418.150185601443
 20
-2208.110280267577
 30
0.0
 40
68.57999999999998
 41
135.0
 46
0.0
 71
     7
 72
     1
  1
{\fＭＳ ゴシック|b0|i0|c128|p49;8.2}
 11
6.123031769111886E-17
 21
1.0
 31
0.0
 73
     1
 44
1.0
  0
MTEXT
  5
3A2
330
1F
100
AcDbEntity
  8
1-E
  6
Continuous
 62
     7
370
     9
100
AcDbMText
 10
-533.6074248672144
 20
-2241.439083674201
 30
0.0
 40
91.44
 41
360.0
 46
0.0
 71
     7
 72
     1
  1
{\fＭＳ ゴシック|b0|i0|c128|p49;収納側}
 73
     1
 44
1.0
  0
MTEXT
  5
3A3
330
1F
100
AcDbEntity
  8
1-E
  6
Continuous
 62
     7
370
   211
100
AcDbMText
 10
1957.444881584363
 20
-2398.006629078027
 30
0.0
 40
68.58
 41
180.0
 46
0.0
 71
     7
 72
     1
  1
{\fＭＳ ゴシック|b0|i0|c128|p49;19.4}
 73
     1
 44
1.0
  0
LINE
  5
3A4
330
1F
100
AcDbEntity
  8
1-E
  6
Continuous
 62
   120
370
     5
100
AcDbLine
 10
1874.944881584363
 20
-959.4214392880365
 30
0.0
 11
1897.444881584363
 21
-936.9214392880331
 31
0.0
  0
LINE
  5
3A5
330
1F
100
AcDbEntity
  8
1-E
  6
Continuous
 62
    92
370
    13
100
AcDbLine
 10
1897.444881584363
 20
-939.1221601097634
 30
0.0
 11
2197.444881584363
 21
-939.1221601097634
 31
0.0
  0
LINE
  5
3A6
330
1F
100
AcDbEntity
  8
1-E
  6
Continuous
 62
    92
370
    13
100
AcDbLine
 10
1897.444881584363
 20
-909.12216010976
 30
0.0
 11
1897.444881584363
 21
-939.1221601097634
 31
0.0
  0
LINE
  5
3A7
330
1F
100
AcDbEntity
  8
1-E
  6
Continuous
 62
    92
370
    13
100
AcDbLine
 10
1897.444881584363
 20
-909.12216010976
 30
0.0
 11
1874.944735784199
 21
-909.12216010976
 31
0.0
  0
LINE
  5
3A8
330
1F
100
AcDbEntity
  8
1-E
  6
Continuous
 62
    92
370
    13
100
AcDbLine
 10
2197.444881584363
 20
-909.12216010976
 30
0.0
 11
2219.472169883476
 21
-909.12216010976
 31
0.0
  0
LINE
  5
3A9
330
1F
100
AcDbEntity
  8
1-E
  6
Continuous
 62
    92
370
    13
100
AcDbLine
 10
2197.444881584363
 20
-909.12216010976
 30
0.0
 11
2197.444881584363
 21
-939.1221601097634
 31
0.0
  0
LINE
  5
3AA
330
1F
100
AcDbEntity
  8
1-E
  6
Continuous
 62
    92
370
    13
100
AcDbLine
 10
2219.472024083299
 20
-909.1216042840147
 30
0.0
 11
2219.472024083299
 21
-1014.122160109763
 31
0.0
  0
LINE
  5
3AB
330
1F
100
AcDbEntity
  8
1-E
  6
Continuous
 62
    92
370
    13
100
AcDbLine
 10
1874.944881584363
 20
-909.1216042840147
 30
0.0
 11
1874.944881584363
 21
-1014.122160109763
 31
0.0
  0
LINE
  5
3AC
330
1F
100
AcDbEntity
  8
1-E
  6
Continuous
 62
    92
370
    13
100
AcDbLine
 10
1874.944881584363
 20
-1014.122160109763
 30
0.0
 11
2219.472024083299
 21
-1014.122160109763
 31
0.0
  0
LINE
  5
3AD
330
1F
100
AcDbEntity
  8
1-E
  6
Continuous
 62
   120
370
     5
100
AcDbLine
 10
2202.081822603388
 20
-1014.122160109763
 30
0.0
 11
2219.472024083299
 21
-996.7319586298349
 31
0.0
  0
LINE
  5
3AE
330
1F
100
AcDbEntity
  8
1-E
  6
Continuous
 62
   120
370
     5
100
AcDbLine
 10
1883.883771069443
 20
-1014.122160109763
 30
0.0
 11
1958.883771069443
 21
-939.1221601097634
 31
0.0
  0
LINE
  5
3AF
330
1F
100
AcDbEntity
  8
1-E
  6
Continuous
 62
   120
370
     5
100
AcDbLine
 10
2074.802601989788
 20
-1014.122160109763
 30
0.0
 11
2149.802601989788
 21
-939.1221601097634
 31
0.0
  0
LINE
  5
3B0
330
1F
100
AcDbEntity
  8
1-E
  6
Continuous
 62
   120
370
     5
100
AcDbLine
 10
2011.162991682988
 20
-1014.122160109763
 30
0.0
 11
2086.162991682988
 21
-939.1221601097566
 31
0.0
  0
LINE
  5
3B1
330
1F
100
AcDbEntity
  8
1-E
  6
Continuous
 62
   120
370
     5
100
AcDbLine
 10
1947.523381376188
 20
-1014.122160109763
 30
0.0
 11
2022.523381376188
 21
-939.1221601097532
 31
0.0
  0
LINE
  5
3B2
330
1F
100
AcDbEntity
  8
1-E
  6
Continuous
 62
   120
370
     5
100
AcDbLine
 10
2138.442212296588
 20
-1014.122160109763
 30
0.0
 11
2219.472024083299
 21
-933.0923483230349
 31
0.0
  0
LINE
  5
3B3
330
1F
100
AcDbEntity
  8
1-E
  6
JWW_HOJO
 62
   120
370
     5
100
AcDbLine
 10
2047.444881584363
 20
-819.6331525224348
 30
0.0
 11
2047.444881584363
 21
-973.8409357060748
 31
0.0
  0
LINE
  5
3B4
330
1F
100
AcDbEntity
  8
1-E
  6
Continuous
 62
     7
370
     9
100
AcDbLine
 10
1919.944881584363
 20
-921.1221601097627
 30
0.0
 11
1949.944881584363
 21
-921.1221601097627
 31
0.0
  0
LINE
  5
3B5
330
1F
100
AcDbEntity
  8
1-E
  6
Continuous
 62
     7
370
     9
100
AcDbLine
 10
1964.944881584363
 20
-921.1221601097627
 30
0.0
 11
2042.94488158436
 21
-921.1221601097627
 31
0.0
  0
LINE
  5
3B6
330
1F
100
AcDbEntity
  8
1-E
  6
Continuous
 62
     7
370
     9
100
AcDbLine
 10
2042.94488158436
 20
-921.1221601097627
 30
0.0
 11
2047.444881584363
 21
-925.622160109762
 31
0.0
  0
LINE
  5
3B7
330
1F
100
AcDbEntity
  8
1-E
  6
Continuous
 62
     7
370
     9
100
AcDbLine
 10
2047.444881584363
 20
-925.622160109762
 30
0.0
 11
2051.944881584365
 21
-921.1221601097627
 31
0.0
  0
LINE
  5
3B8
330
1F
100
AcDbEntity
  8
1-E
  6
Continuous
 62
     7
370
     9
100
AcDbLine
 10
2051.944881584365
 20
-921.1221601097627
 30
0.0
 11
2129.944881584363
 21
-921.1221601097627
 31
0.0
  0
LINE
  5
3B9
330
1F
100
AcDbEntity
  8
1-E
  6
Continuous
 62
     7
370
     9
100
AcDbLine
 10
2144.944881584363
 20
-921.1221601097627
 30
0.0
 11
2174.944881584363
 21
-921.1221601097627
 31
0.0
  0
LINE
  5
3BA
330
1F
100
AcDbEntity
  8
1-E
  6
Continuous
 62
     7
370
     9
100
AcDbLine
 10
2282.94488158436
 20
-834.1221601097634
 30
0.0
 11
2192.94488158436
 21
-834.1221601097634
 31
0.0
  0
LINE
  5
3BB
330
1F
100
AcDbEntity
  8
1-E
  6
Continuous
 62
     7
370
     9
100
AcDbLine
 10
1901.944881584365
 20
-834.1221601097634
 30
0.0
 11
1811.944881584365
 21
-834.1221601097634
 31
0.0
  0
LINE
  5
3BC
330
1F
100
AcDbEntity
  8
1-E
  6
Continuous
 62
     7
370
     9
100
AcDbLine
 10
1901.944881584365
 20
-816.1221601097627
 30
0.0
 11
1811.944881584365
 21
-825.1221601097614
 31
0.0
  0
ARC
  5
3BD
330
1F
100
AcDbEntity
  8
1-E
  6
Continuous
 62
     7
370
     9
100
AcDbCircle
 10
1811.944881584365
 20
-829.6221601097607
 30
0.0
 40
4.500000000000001
100
AcDbArc
 50
90.0
 51
270.0
  0
ARC
  5
3BE
330
1F
100
AcDbEntity
  8
1-E
  6
Continuous
 62
     7
370
     9
100
AcDbCircle
 10
2282.94488158436
 20
-829.6221601097607
 30
0.0
 40
4.500000000000001
100
AcDbArc
 50
270.0
 51
89.99999999999997
  0
LINE
  5
3BF
330
1F
100
AcDbEntity
  8
1-E
  6
Continuous
 62
     7
370
     9
100
AcDbLine
 10
2282.94488158436
 20
-825.1221601097614
 30
0.0
 11
2192.94488158436
 21
-816.1221601097627
 31
0.0
  0
LINE
  5
3C0
330
1F
100
AcDbEntity
  8
1-E
  6
Continuous
 62
     7
370
     9
100
AcDbLine
 10
1955.944881584357
 20
-816.1221601097627
 30
0.0
 11
1901.944881584365
 21
-816.1221601097627
 31
0.0
  0
ARC
  5
3C1
330
1F
100
AcDbEntity
  8
1-E
  6
Continuous
 62
     7
370
     9
100
AcDbCircle
 10
1955.944881584357
 20
-825.1221601097614
 30
0.0
 40
9.000000000000002
100
AcDbArc
 50
0.0
 51
90.0
  0
ARC
  5
3C2
330
1F
100
AcDbEntity
  8
1-E
  6
Continuous
 62
     7
370
     9
100
AcDbCircle
 10
1955.944881584357
 20
-825.1221601097614
 30
0.0
 40
9.000000000000002
100
AcDbArc
 50
270.0
 51
0.0
  0
ARC
  5
3C3
330
1F
100
AcDbEntity
  8
1-E
  6
Continuous
 62
     7
370
     9
100
AcDbCircle
 10
2138.944881584368
 20
-825.1221601097614
 30
0.0
 40
9.000000000000002
100
AcDbArc
 50
180.0
 51
270.0
  0
LINE
  5
3C4
330
1F
100
AcDbEntity
  8
1-E
  6
Continuous
 62
     7
370
     9
100
AcDbLine
 10
2138.944881584368
 20
-816.1221601097627
 30
0.0
 11
2192.94488158436
 21
-816.1221601097627
 31
0.0
  0
ARC
  5
3C5
330
1F
100
AcDbEntity
  8
1-E
  6
Continuous
 62
     7
370
     9
100
AcDbCircle
 10
2138.944881584368
 20
-825.1221601097614
 30
0.0
 40
9.000000000000002
100
AcDbArc
 50
90.0
 51
180.0
  0
LINE
  5
3C6
330
1F
100
AcDbEntity
  8
1-E
  6
Continuous
 62
     7
370
     9
100
AcDbLine
 10
2192.94488158436
 20
-916.6221601097634
 30
0.0
 11
2192.94488158436
 21
-834.1221601097634
 31
0.0
  0
ARC
  5
3C7
330
1F
100
AcDbEntity
  8
1-E
  6
Continuous
 62
     7
370
     9
100
AcDbCircle
 10
2170.44488158436
 20
-916.6221601097634
 30
0.0
 40
22.5
100
AcDbArc
 50
270.0
 51
0.0
  0
LINE
  5
3C8
330
1F
100
AcDbEntity
  8
1-E
  6
Continuous
 62
     7
370
     9
100
AcDbLine
 10
1901.944881584365
 20
-916.6221601097634
 30
0.0
 11
1901.944881584365
 21
-834.1221601097634
 31
0.0
  0
LINE
  5
3C9
330
1F
100
AcDbEntity
  8
1-E
  6
Continuous
 62
     7
370
     9
100
AcDbLine
 10
1924.444881584365
 20
-939.1221601097634
 30
0.0
 11
2170.44488158436
 21
-939.1221601097634
 31
0.0
  0
ARC
  5
3CA
330
1F
100
AcDbEntity
  8
1-E
  6
Continuous
 62
     7
370
     9
100
AcDbCircle
 10
1924.444881584365
 20
-916.6221601097634
 30
0.0
 40
22.5
100
AcDbArc
 50
180.0
 51
270.0
  0
LINE
  5
3CB
330
1F
100
AcDbEntity
  8
1-E
  6
Continuous
 62
     7
370
     9
100
AcDbLine
 10
1927.444881584363
 20
-834.1221601097634
 30
0.0
 11
1955.944881584357
 21
-834.1221601097634
 31
0.0
  0
LINE
  5
3CC
330
1F
100
AcDbEntity
  8
1-E
  6
Continuous
 62
     7
370
     9
100
AcDbLine
 10
1919.944881584363
 20
-841.6221601097634
 30
0.0
 11
1919.944881584363
 21
-921.1221601097627
 31
0.0
  0
ARC
  5
3CD
330
1F
100
AcDbEntity
  8
1-E
  6
Continuous
 62
     7
370
     9
100
AcDbCircle
 10
1927.444881584363
 20
-841.6221601097634
 30
0.0
 40
7.5
100
AcDbArc
 50
90.0
 51
180.0
  0
LINE
  5
3CE
330
1F
100
AcDbEntity
  8
1-E
  6
Continuous
 62
     7
370
     9
100
AcDbLine
 10
2167.444881584363
 20
-834.1221601097634
 30
0.0
 11
2138.944881584368
 21
-834.1221601097634
 31
0.0
  0
LINE
  5
3CF
330
1F
100
AcDbEntity
  8
1-E
  6
Continuous
 62
     7
370
     9
100
AcDbLine
 10
2174.944881584363
 20
-841.6221601097634
 30
0.0
 11
2174.944881584363
 21
-921.1221601097627
 31
0.0
  0
ARC
  5
3D0
330
1F
100
AcDbEntity
  8
1-E
  6
Continuous
 62
     7
370
     9
100
AcDbCircle
 10
2167.444881584363
 20
-841.6221601097634
 30
0.0
 40
7.5
100
AcDbArc
 50
0.0
 51
90.0
  0
LINE
  5
3D1
330
1F
100
AcDbEntity
  8
1-E
  6
Continuous
 62
     7
370
     9
100
AcDbLine
 10
1949.944881584363
 20
-909.1221601097634
 30
0.0
 11
1949.944881584363
 21
-921.1221601097627
 31
0.0
  0
ARC
  5
3D2
330
1F
100
AcDbEntity
  8
1-E
  6
Continuous
 62
     7
370
     9
100
AcDbCircle
 10
1952.94488158436
 20
-909.1221601097634
 30
0.0
 40
3.0
100
AcDbArc
 50
90.0
 51
180.0
  0
LINE
  5
3D3
330
1F
100
AcDbEntity
  8
1-E
  6
Continuous
 62
     7
370
     9
100
AcDbLine
 10
1961.944881584365
 20
-906.1221601097627
 30
0.0
 11
1952.94488158436
 21
-906.1221601097627
 31
0.0
  0
LINE
  5
3D4
330
1F
100
AcDbEntity
  8
1-E
  6
Continuous
 62
     7
370
     9
100
AcDbLine
 10
1964.944881584363
 20
-909.1221601097634
 30
0.0
 11
1964.944881584363
 21
-921.1221601097627
 31
0.0
  0
ARC
  5
3D5
330
1F
100
AcDbEntity
  8
1-E
  6
Continuous
 62
     7
370
     9
100
AcDbCircle
 10
1961.944881584365
 20
-909.1221601097634
 30
0.0
 40
3.0
100
AcDbArc
 50
0.0
 51
90.0
  0
LINE
  5
3D6
330
1F
100
AcDbEntity
  8
1-E
  6
Continuous
 62
     7
370
     9
100
AcDbLine
 10
2129.944881584363
 20
-909.1221601097634
 30
0.0
 11
2129.944881584363
 21
-921.1221601097627
 31
0.0
  0
ARC
  5
3D7
330
1F
100
AcDbEntity
  8
1-E
  6
Continuous
 62
     7
370
     9
100
AcDbCircle
 10
2132.94488158436
 20
-909.1221601097634
 30
0.0
 40
3.0
100
AcDbArc
 50
90.0
 51
180.0
  0
LINE
  5
3D8
330
1F
100
AcDbEntity
  8
1-E
  6
Continuous
 62
     7
370
     9
100
AcDbLine
 10
2141.944881584365
 20
-906.1221601097627
 30
0.0
 11
2132.94488158436
 21
-906.1221601097627
 31
0.0
  0
LINE
  5
3D9
330
1F
100
AcDbEntity
  8
1-E
  6
Continuous
 62
     7
370
     9
100
AcDbLine
 10
2144.944881584363
 20
-909.1221601097634
 30
0.0
 11
2144.944881584363
 21
-921.1221601097627
 31
0.0
  0
ARC
  5
3DA
330
1F
100
AcDbEntity
  8
1-E
  6
Continuous
 62
     7
370
     9
100
AcDbCircle
 10
2141.944881584365
 20
-909.1221601097634
 30
0.0
 40
3.0
100
AcDbArc
 50
0.0
 51
90.0
  0
ARC
  5
3DB
330
1F
100
AcDbEntity
  8
1-E
  6
JWW_DASHED1
 62
     7
370
     9
100
AcDbCircle
 10
1811.944881584365
 20
-829.6221601097607
 30
0.0
 40
4.500000000000001
100
AcDbArc
 50
270.0
 51
90.0
  0
ARC
  5
3DC
330
1F
100
AcDbEntity
  8
1-E
  6
JWW_DASHED1
 62
     7
370
     9
100
AcDbCircle
 10
2282.94488158436
 20
-829.6221601097607
 30
0.0
 40
4.500000000000001
100
AcDbArc
 50
90.0
 51
270.0
  0
LINE
  5
3DD
330
1F
100
AcDbEntity
  8
1-E
  6
Continuous
 62
    40
370
    15
100
AcDbLine
 10
2234.944881584363
 20
-834.1221601097634
 30
0.0
 11
2234.944881584363
 21
-1014.122160109763
 31
0.0
  0
LINE
  5
3DE
330
1F
100
AcDbEntity
  8
1-E
  6
Continuous
 62
    40
370
    15
100
AcDbLine
 10
1859.944881584363
 20
-834.1221601097634
 30
0.0
 11
1859.944881584363
 21
-1014.122160109763
 31
0.0
  0
LINE
  5
3DF
330
1F
100
AcDbEntity
  8
1-E
  6
Continuous
 62
     7
370
     9
100
AcDbLine
 10
2274.725236927045
 20
-1125.339660921175
 30
0.0
 11
2341.277861403993
 21
-1125.339660921175
 31
0.0
  0
INSERT
  5
3E0
330
1F
100
AcDbEntity
  8
1-E
  6
Continuous
 62
     7
370
     9
100
AcDbBlockReference
  2
01@@SfigorgFlag@@4
 10
2047.444881584363
 20
-2128.669511036806
 30
0.0
 41
30.0
 42
30.0
  0
LWPOLYLINE
  5
3E1
330
1F
100
AcDbEntity
  8
1-E
  6
Continuous
 62
     7
370
     9
100
AcDbPolyline
 90
        4
 70
     1
 43
3.0
 10
1808.944881584365
 20
-2081.900280267574
 42
0.4142135623731
 10
1807.444881584365
 20
-2080.400280267575
 42
0.4142135623731
 10
1805.944881584365
 20
-2081.900280267574
 42
0.4142135623731
 10
1807.444881584365
 20
-2083.400280267574
 42
0.4142135623731
  0
LWPOLYLINE
  5
3E2
330
1F
100
AcDbEntity
  8
1-E
  6
Continuous
 62
     7
370
     9
100
AcDbPolyline
 90
        4
 70
     1
 43
3.0
 10
2288.944881584361
 20
-2081.900280267574
 42
0.4142135623731
 10
2287.444881584361
 20
-2080.400280267575
 42
0.4142135623731
 10
2285.944881584361
 20
-2081.900280267574
 42
0.4142135623731
 10
2287.444881584361
 20
-2083.400280267574
 42
0.4142135623731
  0
LWPOLYLINE
  5
3E3
330
1F
100
AcDbEntity
  8
1-E
  6
Continuous
 62
     7
370
     9
100
AcDbPolyline
 90
        4
 70
     1
 43
3.0
 10
1966.444881584358
 20
-2077.400280267575
 42
0.4142135623731
 10
1964.944881584358
 20
-2075.900280267575
 42
0.4142135623731
 10
1963.444881584358
 20
-2077.400280267575
 42
0.4142135623731
 10
1964.944881584358
 20
-2078.900280267575
 42
0.4142135623731
  0
LWPOLYLINE
  5
3E4
330
1F
100
AcDbEntity
  8
1-E
  6
Continuous
 62
     7
370
     9
100
AcDbPolyline
 90
        4
 70
     1
 43
3.0
 10
2131.444881584368
 20
-2077.400280267575
 42
0.4142135623731
 10
2129.944881584369
 20
-2075.900280267575
 42
0.4142135623731
 10
2128.444881584369
 20
-2077.400280267575
 42
0.4142135623731
 10
2129.944881584369
 20
-2078.900280267575
 42
0.4142135623731
  0
LINE
  5
3E5
330
1F
100
AcDbEntity
  8
1-E
  6
Continuous
 62
   120
370
     5
100
AcDbLine
 10
1964.944881584358
 20
-1928.220164334827
 30
0.0
 11
2129.944881584369
 21
-1928.220164334827
 31
0.0
  0
LWPOLYLINE
  5
3E6
330
1F
100
AcDbEntity
  8
1-E
  6
Continuous
 62
     7
370
     9
100
AcDbPolyline
 90
        4
 70
     1
 43
3.0
 10
1966.444881584358
 20
-1928.220164334827
 42
0.4142135623731
 10
1964.944881584358
 20
-1926.720164334827
 42
0.4142135623731
 10
1963.444881584358
 20
-1928.220164334827
 42
0.4142135623731
 10
1964.944881584358
 20
-1929.720164334827
 42
0.4142135623731
  0
LWPOLYLINE
  5
3E7
330
1F
100
AcDbEntity
  8
1-E
  6
Continuous
 62
     7
370
     9
100
AcDbPolyline
 90
        4
 70
     1
 43
3.0
 10
2131.444881584368
 20
-1928.220164334827
 42
0.4142135623731
 10
2129.944881584369
 20
-1926.720164334827
 42
0.4142135623731
 10
2128.444881584369
 20
-1928.220164334827
 42
0.4142135623731
 10
2129.944881584369
 20
-1929.720164334827
 42
0.4142135623731
  0
LINE
  5
3E8
330
1F
100
AcDbEntity
  8
1-E
  6
Continuous
 62
   120
370
     5
100
AcDbLine
 10
1964.944881584358
 20
-1928.220164334827
 30
0.0
 11
1964.944881584358
 21
-2014.084473252773
 31
0.0
  0
LINE
  5
3E9
330
1F
100
AcDbEntity
  8
1-E
  6
Continuous
 62
   120
370
     5
100
AcDbLine
 10
2129.944881584369
 20
-1928.220164334827
 30
0.0
 11
2129.944881584369
 21
-2014.084473252773
 31
0.0
  0
MTEXT
  5
3EA
330
1F
100
AcDbEntity
  8
1-E
  6
Continuous
 62
     7
370
   211
100
AcDbMText
 10
-173.5973730783743
 20
-2514.960265754442
 30
0.0
 40
91.44000000000065
 41
120.0000000000009
 46
0.0
 71
     7
 72
     1
  1
{\fＭＳ ゴシック|b0|i0|c128|p49;26}
 11
6.123031769111886E-17
 21
1.0
 31
0.0
 73
     1
 44
1.0
  0
LINE
  5
3EB
330
1F
100
AcDbEntity
  8
1-E
  6
Continuous
 62
   120
370
     5
100
AcDbLine
 10
1807.444881584365
 20
-1768.757876344355
 30
0.0
 11
2287.444881584361
 21
-1768.757876344355
 31
0.0
  0
LWPOLYLINE
  5
3EC
330
1F
100
AcDbEntity
  8
1-E
  6
Continuous
 62
     7
370
     9
100
AcDbPolyline
 90
        4
 70
     1
 43
3.0
 10
1808.944881584365
 20
-1768.757876344355
 42
0.4142135623731
 10
1807.444881584365
 20
-1767.257876344355
 42
0.4142135623731
 10
1805.944881584365
 20
-1768.757876344355
 42
0.4142135623731
 10
1807.444881584365
 20
-1770.257876344355
 42
0.4142135623731
  0
LWPOLYLINE
  5
3ED
330
1F
100
AcDbEntity
  8
1-E
  6
Continuous
 62
     7
370
     9
100
AcDbPolyline
 90
        4
 70
     1
 43
3.0
 10
2288.944881584361
 20
-1768.757876344355
 42
0.4142135623731
 10
2287.444881584361
 20
-1767.257876344355
 42
0.4142135623731
 10
2285.944881584361
 20
-1768.757876344355
 42
0.4142135623731
 10
2287.444881584361
 20
-1770.257876344355
 42
0.4142135623731
  0
LINE
  5
3EE
330
1F
100
AcDbEntity
  8
1-E
  6
Continuous
 62
   120
370
     5
100
AcDbLine
 10
1807.444881584365
 20
-1768.757876344355
 30
0.0
 11
1807.444881584365
 21
-2014.084473252773
 31
0.0
  0
LINE
  5
3EF
330
1F
100
AcDbEntity
  8
1-E
  6
Continuous
 62
   120
370
     5
100
AcDbLine
 10
2287.444881584361
 20
-1768.757876344355
 30
0.0
 11
2287.444881584361
 21
-2014.084473252773
 31
0.0
  0
MTEXT
  5
3F0
330
1F
100
AcDbEntity
  8
1-E
  6
Continuous
 62
     7
370
   211
100
AcDbMText
 10
2002.208452833831
 20
-2607.676425215065
 30
0.0
 40
68.58
 41
90.0
 46
0.0
 71
     7
 72
     1
  1
{\fＭＳ ゴシック|b0|i0|c128|p49;23}
 73
     1
 44
1.0
  0
LWPOLYLINE
  5
3F1
330
1F
100
AcDbEntity
  8
1-E
  6
Continuous
 62
     7
370
     9
100
AcDbPolyline
 90
        4
 70
     1
 43
3.0
 10
1591.093155845437
 20
-2068.400280267576
 42
0.4142135623731
 10
1589.593155845437
 20
-2066.900280267576
 42
0.4142135623731
 10
1588.093155845437
 20
-2068.400280267576
 42
0.4142135623731
 10
1589.593155845437
 20
-2069.900280267576
 42
0.4142135623731
  0
LWPOLYLINE
  5
3F2
330
1F
100
AcDbEntity
  8
1-E
  6
Continuous
 62
     7
370
     9
100
AcDbPolyline
 90
        4
 70
     1
 43
3.0
 10
1591.093155845437
 20
-2086.400280267577
 42
0.4142135623731
 10
1589.593155845437
 20
-2084.900280267577
 42
0.4142135623731
 10
1588.093155845437
 20
-2086.400280267577
 42
0.4142135623731
 10
1589.593155845437
 20
-2087.900280267577
 42
0.4142135623731
  0
LINE
  5
3F3
330
1F
100
AcDbEntity
  8
1-E
  6
Continuous
 62
   120
370
     5
100
AcDbLine
 10
1589.593155845437
 20
-2068.400280267576
 30
0.0
 11
1720.434007529927
 21
-2068.400280267576
 31
0.0
  0
LINE
  5
3F4
330
1F
100
AcDbEntity
  8
1-E
  6
Continuous
 62
   120
370
     5
100
AcDbLine
 10
1589.593155845437
 20
-2086.400280267577
 30
0.0
 11
1720.434007529927
 21
-2086.400280267577
 31
0.0
  0
LINE
  5
3F5
330
1F
100
AcDbEntity
  8
1-E
  6
Continuous
 62
   120
370
     5
100
AcDbLine
 10
1589.593155845437
 20
-2086.400280267577
 30
0.0
 11
1589.593155845437
 21
-2191.400280267577
 31
0.0
  0
LWPOLYLINE
  5
3F6
330
1F
100
AcDbEntity
  8
1-E
  6
Continuous
 62
     7
370
     9
100
AcDbPolyline
 90
        4
 70
     1
 43
3.0
 10
1591.093155845437
 20
-2191.400280267577
 42
0.4142135623731
 10
1589.593155845437
 20
-2189.900280267577
 42
0.4142135623731
 10
1588.093155845437
 20
-2191.400280267577
 42
0.4142135623731
 10
1589.593155845437
 20
-2192.900280267577
 42
0.4142135623731
  0
LINE
  5
3F7
330
1F
100
AcDbEntity
  8
1-E
  6
Continuous
 62
   120
370
     5
100
AcDbLine
 10
1589.593155845437
 20
-2191.400280267577
 30
0.0
 11
1720.434007529927
 21
-2191.400280267577
 31
0.0
  0
MTEXT
  5
3F8
330
1F
100
AcDbEntity
  8
1-E
  6
Continuous
 62
     7
370
   211
100
AcDbMText
 10
-173.5973730783743
 20
-2667.960265754443
 30
0.0
 40
91.44000000000065
 41
120.0000000000009
 46
0.0
 71
     7
 72
     1
  1
{\fＭＳ ゴシック|b0|i0|c128|p49;25}
 11
6.123031769111886E-17
 21
1.0
 31
0.0
 73
     1
 44
1.0
  0
LINE
  5
3F9
330
1F
100
AcDbEntity
  8
1-E
  6
Continuous
 62
   120
370
     5
100
AcDbLine
 10
1901.944881584365
 20
-2402.296629078027
 30
0.0
 11
2192.94488158436
 21
-2402.296629078027
 31
0.0
  0
LWPOLYLINE
  5
3FA
330
1F
100
AcDbEntity
  8
1-E
  6
Continuous
 62
     7
370
     9
100
AcDbPolyline
 90
        4
 70
     1
 43
3.0
 10
1903.444881584365
 20
-2402.296629078027
 42
0.4142135623731
 10
1901.944881584365
 20
-2400.796629078027
 42
0.4142135623731
 10
1900.444881584365
 20
-2402.296629078027
 42
0.4142135623731
 10
1901.944881584365
 20
-2403.796629078027
 42
0.4142135623731
  0
LWPOLYLINE
  5
3FB
330
1F
100
AcDbEntity
  8
1-E
  6
Continuous
 62
     7
370
     9
100
AcDbPolyline
 90
        4
 70
     1
 43
3.0
 10
2194.44488158436
 20
-2402.296629078027
 42
0.4142135623731
 10
2192.94488158436
 20
-2400.796629078027
 42
0.4142135623731
 10
2191.44488158436
 20
-2402.296629078027
 42
0.4142135623731
 10
2192.94488158436
 20
-2403.796629078027
 42
0.4142135623731
  0
LINE
  5
3FC
330
1F
100
AcDbEntity
  8
1-E
  6
Continuous
 62
   120
370
     5
100
AcDbLine
 10
1901.944881584365
 20
-2402.296629078027
 30
0.0
 11
1901.944881584365
 21
-2274.680547009878
 31
0.0
  0
LINE
  5
3FD
330
1F
100
AcDbEntity
  8
1-E
  6
Continuous
 62
   120
370
     5
100
AcDbLine
 10
2192.94488158436
 20
-2402.296629078027
 30
0.0
 11
2192.94488158436
 21
-2274.680547009878
 31
0.0
  0
MTEXT
  5
3FE
330
1F
100
AcDbEntity
  8
1-E
  6
Continuous
 62
     7
370
   211
100
AcDbMText
 10
-317.9420485667251
 20
-2668.382373347878
 30
0.0
 40
91.44000000000065
 41
120.0000000000009
 46
0.0
 71
     7
 72
     1
  1
{\fＭＳ ゴシック|b0|i0|c128|p49;77}
 11
6.123031769111886E-17
 21
1.0
 31
0.0
 73
     1
 44
1.0
  0
MTEXT
  5
3FF
330
1F
100
AcDbEntity
  8
1-E
  6
Continuous
 62
     7
370
   211
100
AcDbMText
 10
1725.560217485893
 20
-2769.623660872837
 30
0.0
 40
68.57999999999998
 41
135.0
 46
0.0
 71
     7
 72
     1
  1
{\fＭＳ ゴシック|b0|i0|c128|p49;1.5}
 73
     1
 44
1.0
  0
LINE
  5
400
330
1F
100
AcDbEntity
  8
1-E
  6
Continuous
 62
   120
370
     5
100
AcDbLine
 10
1589.593155845437
 20
-1901.91243564327
 30
0.0
 11
1589.593155845437
 21
-2086.400280267577
 31
0.0
  0
LINE
  5
401
330
1F
100
AcDbEntity
  8
1-E
  6
JWW_HOJO
 62
   120
370
     5
100
AcDbLine
 10
2047.444881584363
 20
-2071.911272680249
 30
0.0
 11
2047.444881584363
 21
-2226.119055863888
 31
0.0
  0
LINE
  5
402
330
1F
100
AcDbEntity
  8
1-E
  6
Continuous
 62
   120
370
     5
100
AcDbLine
 10
1874.944881584363
 20
-3000.906861803774
 30
0.0
 11
1897.444881584363
 21
-2978.406861803771
 31
0.0
  0
LINE
  5
403
330
1F
100
AcDbEntity
  8
1-E
  6
Continuous
 62
    92
370
    13
100
AcDbLine
 10
1897.444881584363
 20
-2950.607582625498
 30
0.0
 11
1897.444881584363
 21
-2980.607582625501
 31
0.0
  0
LINE
  5
404
330
1F
100
AcDbEntity
  8
1-E
  6
Continuous
 62
    92
370
    13
100
AcDbLine
 10
1897.444881584363
 20
-2950.607582625498
 30
0.0
 11
1874.944735784199
 21
-2950.607582625498
 31
0.0
  0
LINE
  5
405
330
1F
100
AcDbEntity
  8
1-E
  6
Continuous
 62
    92
370
    13
100
AcDbLine
 10
1874.944881584363
 20
-2950.607026799752
 30
0.0
 11
1874.944881584363
 21
-3055.607582625501
 31
0.0
  0
LINE
  5
406
330
1F
100
AcDbEntity
  8
1-E
  6
Continuous
 62
    92
370
    13
100
AcDbLine
 10
1897.444881584363
 20
-2980.607582625501
 30
0.0
 11
2197.444881584363
 21
-2980.607582625501
 31
0.0
  0
LINE
  5
407
330
1F
100
AcDbEntity
  8
1-E
  6
Continuous
 62
   120
370
     5
100
AcDbLine
 10
1883.883771069443
 20
-3055.607582625501
 30
0.0
 11
1958.883771069443
 21
-2980.607582625501
 31
0.0
  0
LINE
  5
408
330
1F
100
AcDbEntity
  8
1-E
  6
Continuous
 62
   120
370
     5
100
AcDbLine
 10
1947.523381376188
 20
-3055.607582625501
 30
0.0
 11
2022.523381376188
 21
-2980.607582625491
 31
0.0
  0
LINE
  5
409
330
1F
100
AcDbEntity
  8
1-E
  6
Continuous
 62
   120
370
     5
100
AcDbLine
 10
2011.162991682988
 20
-3055.607582625501
 30
0.0
 11
2086.162991682988
 21
-2980.607582625494
 31
0.0
  0
LINE
  5
40A
330
1F
100
AcDbEntity
  8
1-E
  6
Continuous
 62
   120
370
     5
100
AcDbLine
 10
2074.802601989788
 20
-3055.607582625501
 30
0.0
 11
2149.802601989788
 21
-2980.607582625501
 31
0.0
  0
LINE
  5
40B
330
1F
100
AcDbEntity
  8
1-E
  6
Continuous
 62
   120
370
     5
100
AcDbLine
 10
2138.442212296588
 20
-3055.607582625501
 30
0.0
 11
2219.472024083299
 21
-2974.577770838773
 31
0.0
  0
LINE
  5
40C
330
1F
100
AcDbEntity
  8
1-E
  6
Continuous
 62
   120
370
     5
100
AcDbLine
 10
2202.081822603388
 20
-3055.607582625501
 30
0.0
 11
2219.472024083299
 21
-3038.217381145573
 31
0.0
  0
LINE
  5
40D
330
1F
100
AcDbEntity
  8
1-E
  6
Continuous
 62
    92
370
    13
100
AcDbLine
 10
2197.444881584363
 20
-2950.607582625498
 30
0.0
 11
2197.444881584363
 21
-2980.607582625501
 31
0.0
  0
LINE
  5
40E
330
1F
100
AcDbEntity
  8
1-E
  6
Continuous
 62
    92
370
    13
100
AcDbLine
 10
2197.444881584363
 20
-2950.607582625498
 30
0.0
 11
2219.472169883476
 21
-2950.607582625498
 31
0.0
  0
LINE
  5
40F
330
1F
100
AcDbEntity
  8
1-E
  6
Continuous
 62
    92
370
    13
100
AcDbLine
 10
2219.472024083299
 20
-2950.607026799752
 30
0.0
 11
2219.472024083299
 21
-3055.607582625501
 31
0.0
  0
LINE
  5
410
330
1F
100
AcDbEntity
  8
1-E
  6
Continuous
 62
    92
370
    13
100
AcDbLine
 10
1874.944881584363
 20
-3055.607582625501
 30
0.0
 11
2219.472024083299
 21
-3055.607582625501
 31
0.0
  0
LWPOLYLINE
  5
411
330
1F
100
AcDbEntity
  8
1-E
  6
Continuous
 62
     7
370
     9
100
AcDbPolyline
 90
        4
 70
     1
 43
3.0
 10
1876.444881584363
 20
-2773.913660872837
 42
0.4142135623731
 10
1874.944881584363
 20
-2772.413660872837
 42
0.4142135623731
 10
1873.444881584363
 20
-2773.913660872837
 42
0.4142135623731
 10
1874.944881584363
 20
-2775.413660872837
 42
0.4142135623731
  0
LWPOLYLINE
  5
412
330
1F
100
AcDbEntity
  8
1-E
  6
Continuous
 62
     7
370
     9
100
AcDbPolyline
 90
        4
 70
     1
 43
3.0
 10
1898.944881584363
 20
-2773.913660872837
 42
0.4142135623731
 10
1897.444881584363
 20
-2772.413660872837
 42
0.4142135623731
 10
1895.944881584363
 20
-2773.913660872837
 42
0.4142135623731
 10
1897.444881584363
 20
-2775.413660872837
 42
0.4142135623731
  0
LINE
  5
413
330
1F
100
AcDbEntity
  8
1-E
  6
Continuous
 62
   120
370
     5
100
AcDbLine
 10
1874.944881584363
 20
-2773.913660872837
 30
0.0
 11
1874.944881584363
 21
-2878.426012601738
 31
0.0
  0
LINE
  5
414
330
1F
100
AcDbEntity
  8
1-E
  6
Continuous
 62
   120
370
     5
100
AcDbLine
 10
1897.444881584363
 20
-2773.913660872837
 30
0.0
 11
1897.444881584363
 21
-2878.426012601738
 31
0.0
  0
LINE
  5
415
330
1F
100
AcDbEntity
  8
1-E
  6
Continuous
 62
   120
370
     5
100
AcDbLine
 10
1897.444881584363
 20
-2773.913660872837
 30
0.0
 11
2197.444881584363
 21
-2773.913660872837
 31
0.0
  0
LWPOLYLINE
  5
416
330
1F
100
AcDbEntity
  8
1-E
  6
Continuous
 62
     7
370
     9
100
AcDbPolyline
 90
        4
 70
     1
 43
3.0
 10
2198.944881584363
 20
-2773.913660872837
 42
0.4142135623731
 10
2197.444881584363
 20
-2772.413660872837
 42
0.4142135623731
 10
2195.944881584363
 20
-2773.913660872837
 42
0.4142135623731
 10
2197.444881584363
 20
-2775.413660872837
 42
0.4142135623731
  0
LINE
  5
417
330
1F
100
AcDbEntity
  8
1-E
  6
Continuous
 62
   120
370
     5
100
AcDbLine
 10
2197.444881584363
 20
-2773.913660872837
 30
0.0
 11
2197.444881584363
 21
-2878.426012601738
 31
0.0
  0
MTEXT
  5
418
330
1F
100
AcDbEntity
  8
1-E
  6
Continuous
 62
     7
370
   211
100
AcDbMText
 10
2002.444881584363
 20
-2769.623660872837
 30
0.0
 40
68.58
 41
90.0
 46
0.0
 71
     7
 72
     1
  1
{\fＭＳ ゴシック|b0|i0|c128|p49;20}
 73
     1
 44
1.0
  0
LWPOLYLINE
  5
419
330
1F
100
AcDbEntity
  8
1-E
  6
Continuous
 62
     7
370
     9
100
AcDbPolyline
 90
        4
 70
     1
 43
3.0
 10
2220.972024083299
 20
-2773.913660872837
 42
0.4142135623731
 10
2219.472024083299
 20
-2772.413660872837
 42
0.4142135623731
 10
2217.9720240833
 20
-2773.913660872837
 42
0.4142135623731
 10
2219.472024083299
 20
-2775.413660872837
 42
0.4142135623731
  0
LINE
  5
41A
330
1F
100
AcDbEntity
  8
1-E
  6
Continuous
 62
   120
370
     5
100
AcDbLine
 10
2219.472024083299
 20
-2773.913660872837
 30
0.0
 11
2219.472024083299
 21
-2878.426012601738
 31
0.0
  0
LWPOLYLINE
  5
41B
330
1F
100
AcDbEntity
  8
1-E
  6
Continuous
 62
     7
370
     9
100
AcDbPolyline
 90
        4
 70
     1
 43
3.0
 10
1591.093155845437
 20
-2950.607026799752
 42
0.4142135623731
 10
1589.593155845437
 20
-2949.107026799752
 42
0.4142135623731
 10
1588.093155845437
 20
-2950.607026799752
 42
0.4142135623731
 10
1589.593155845437
 20
-2952.107026799752
 42
0.4142135623731
  0
LWPOLYLINE
  5
41C
330
1F
100
AcDbEntity
  8
1-E
  6
Continuous
 62
     7
370
     9
100
AcDbPolyline
 90
        4
 70
     1
 43
3.0
 10
1591.093155845437
 20
-2980.607582625494
 42
0.4142135623731
 10
1589.593155845437
 20
-2979.107582625494
 42
0.4142135623731
 10
1588.093155845437
 20
-2980.607582625494
 42
0.4142135623731
 10
1589.593155845437
 20
-2982.107582625494
 42
0.4142135623731
  0
LINE
  5
41D
330
1F
100
AcDbEntity
  8
1-E
  6
Continuous
 62
   120
370
     5
100
AcDbLine
 10
1589.593155845437
 20
-2950.607026799752
 30
0.0
 11
1720.434007529927
 21
-2950.607026799752
 31
0.0
  0
LINE
  5
41E
330
1F
100
AcDbEntity
  8
1-E
  6
Continuous
 62
   120
370
     5
100
AcDbLine
 10
1589.593155845437
 20
-2980.607582625494
 30
0.0
 11
1720.434007529927
 21
-2980.607582625494
 31
0.0
  0
LINE
  5
41F
330
1F
100
AcDbEntity
  8
1-E
  6
Continuous
 62
   120
370
     5
100
AcDbLine
 10
1589.593155845437
 20
-2980.607582625494
 30
0.0
 11
1589.593155845437
 21
-3055.607582625501
 31
0.0
  0
LWPOLYLINE
  5
420
330
1F
100
AcDbEntity
  8
1-E
  6
Continuous
 62
     7
370
     9
100
AcDbPolyline
 90
        4
 70
     1
 43
3.0
 10
1591.093155845437
 20
-3055.607582625501
 42
0.4142135623731
 10
1589.593155845437
 20
-3054.107582625501
 42
0.4142135623731
 10
1588.093155845437
 20
-3055.607582625501
 42
0.4142135623731
 10
1589.593155845437
 20
-3057.107582625501
 42
0.4142135623731
  0
LINE
  5
421
330
1F
100
AcDbEntity
  8
1-E
  6
Continuous
 62
   120
370
     5
100
AcDbLine
 10
1589.593155845437
 20
-3055.607582625501
 30
0.0
 11
1720.434007529927
 21
-3055.607582625501
 31
0.0
  0
MTEXT
  5
422
330
1F
100
AcDbEntity
  8
1-E
  6
Continuous
 62
     7
370
   211
100
AcDbMText
 10
2246.312029055123
 20
-2769.623660872837
 30
0.0
 40
68.57999999999998
 41
135.0
 46
0.0
 71
     7
 72
     1
  1
{\fＭＳ ゴシック|b0|i0|c128|p49;1.5}
 73
     1
 44
1.0
  0
LINE
  5
423
330
1F
100
AcDbEntity
  8
1-E
  6
Continuous
 62
   120
370
     5
100
AcDbLine
 10
1433.150185601443
 20
-3055.607582625501
 30
0.0
 11
1433.150185601443
 21
-2950.607026799752
 31
0.0
  0
LWPOLYLINE
  5
424
330
1F
100
AcDbEntity
  8
1-E
  6
Continuous
 62
     7
370
     9
100
AcDbPolyline
 90
        4
 70
     1
 43
3.0
 10
1434.650185601443
 20
-3055.607582625501
 42
0.4142135623731
 10
1433.150185601443
 20
-3054.107582625501
 42
0.4142135623731
 10
1431.650185601443
 20
-3055.607582625501
 42
0.4142135623731
 10
1433.150185601443
 20
-3057.107582625501
 42
0.4142135623731
  0
LWPOLYLINE
  5
425
330
1F
100
AcDbEntity
  8
1-E
  6
Continuous
 62
     7
370
     9
100
AcDbPolyline
 90
        4
 70
     1
 43
3.0
 10
1434.650185601443
 20
-2950.607026799752
 42
0.4142135623731
 10
1433.150185601443
 20
-2949.107026799752
 42
0.4142135623731
 10
1431.650185601443
 20
-2950.607026799752
 42
0.4142135623731
 10
1433.150185601443
 20
-2952.107026799752
 42
0.4142135623731
  0
LINE
  5
426
330
1F
100
AcDbEntity
  8
1-E
  6
Continuous
 62
   120
370
     5
100
AcDbLine
 10
1433.150185601443
 20
-3055.607582625501
 30
0.0
 11
1589.593155845437
 21
-3055.607582625501
 31
0.0
  0
LINE
  5
427
330
1F
100
AcDbEntity
  8
1-E
  6
Continuous
 62
   120
370
     5
100
AcDbLine
 10
1433.150185601443
 20
-2950.607026799752
 30
0.0
 11
1589.593155845437
 21
-2950.607026799752
 31
0.0
  0
MTEXT
  5
428
330
1F
100
AcDbEntity
  8
1-E
  6
Continuous
 62
     7
370
   211
100
AcDbMText
 10
-173.5973730783743
 20
-2820.96026575444
 30
0.0
 40
91.44000000000065
 41
120.0000000000009
 46
0.0
 71
     7
 72
     1
  1
{\fＭＳ ゴシック|b0|i0|c128|p49;26}
 11
6.123031769111886E-17
 21
1.0
 31
0.0
 73
     1
 44
1.0
  0
LWPOLYLINE
  5
429
330
1F
100
AcDbEntity
  8
1-E
  6
Continuous
 62
     7
370
     9
100
AcDbPolyline
 90
        4
 70
     1
 43
3.0
 10
1434.650185601443
 20
-2191.400280267577
 42
0.4142135623731
 10
1433.150185601443
 20
-2189.900280267577
 42
0.4142135623731
 10
1431.650185601443
 20
-2191.400280267577
 42
0.4142135623731
 10
1433.150185601443
 20
-2192.900280267577
 42
0.4142135623731
  0
LINE
  5
42A
330
1F
100
AcDbEntity
  8
1-E
  6
Continuous
 62
   120
370
     5
100
AcDbLine
 10
1433.150185601443
 20
-2191.400280267577
 30
0.0
 11
1589.593155845437
 21
-2191.400280267577
 31
0.0
  0
LINE
  5
42B
330
1F
100
AcDbEntity
  8
1-E
  6
Continuous
 62
   120
370
     5
100
AcDbLine
 10
1433.150185601443
 20
-2191.400280267577
 30
0.0
 11
1433.150185601443
 21
-2068.400280267576
 31
0.0
  0
LWPOLYLINE
  5
42C
330
1F
100
AcDbEntity
  8
1-E
  6
Continuous
 62
     7
370
     9
100
AcDbPolyline
 90
        4
 70
     1
 43
3.0
 10
1434.650185601443
 20
-2068.400280267576
 42
0.4142135623731
 10
1433.150185601443
 20
-2066.900280267576
 42
0.4142135623731
 10
1431.650185601443
 20
-2068.400280267576
 42
0.4142135623731
 10
1433.150185601443
 20
-2069.900280267576
 42
0.4142135623731
  0
LINE
  5
42D
330
1F
100
AcDbEntity
  8
1-E
  6
Continuous
 62
   120
370
     5
100
AcDbLine
 10
1433.150185601443
 20
-2068.400280267576
 30
0.0
 11
1589.593155845437
 21
-2068.400280267576
 31
0.0
  0
MTEXT
  5
42E
330
1F
100
AcDbEntity
  8
1-E
  6
Continuous
 62
     7
370
   211
100
AcDbMText
 10
1574.593155845437
 20
-2949.738177966343
 30
0.0
 40
68.58
 41
45.0
 46
0.0
 71
     7
 72
     1
  1
{\fＭＳ ゴシック|b0|i0|c128|p49;2}
 11
6.123031769111886E-17
 21
1.0
 31
0.0
 73
     1
 44
1.0
  0
MTEXT
  5
42F
330
1F
100
AcDbEntity
  8
1-E
  6
Continuous
 62
     7
370
   211
100
AcDbMText
 10
337.087383297725
 20
-3018.960265754444
 30
0.0
 40
91.43999999999969
 41
59.99999999999979
 46
0.0
 71
     7
 72
     1
  1
{\fＭＳ ゴシック|b0|i0|c128|p49;5}
 73
     1
 44
1.0
  0
LINE
  5
430
330
1F
100
AcDbEntity
  8
1-E
  6
Continuous
 62
   120
370
     5
100
AcDbLine
 10
1589.593155845437
 20
-2884.085730390663
 30
0.0
 11
1589.593155845437
 21
-2980.607582625494
 31
0.0
  0
LINE
  5
431
330
1F
100
AcDbEntity
  8
1-E
  6
Continuous
 62
   120
370
     5
100
AcDbLine
 10
1874.944881584363
 20
-2611.966425215065
 30
0.0
 11
2219.472024083299
 21
-2611.966425215065
 31
0.0
  0
LWPOLYLINE
  5
432
330
1F
100
AcDbEntity
  8
1-E
  6
Continuous
 62
     7
370
     9
100
AcDbPolyline
 90
        4
 70
     1
 43
3.0
 10
1876.444881584363
 20
-2611.966425215065
 42
0.4142135623731
 10
1874.944881584363
 20
-2610.466425215066
 42
0.4142135623731
 10
1873.444881584363
 20
-2611.966425215065
 42
0.4142135623731
 10
1874.944881584363
 20
-2613.466425215065
 42
0.4142135623731
  0
LWPOLYLINE
  5
433
330
1F
100
AcDbEntity
  8
1-E
  6
Continuous
 62
     7
370
     9
100
AcDbPolyline
 90
        4
 70
     1
 43
3.0
 10
2220.972024083299
 20
-2611.966425215065
 42
0.4142135623731
 10
2219.472024083299
 20
-2610.466425215066
 42
0.4142135623731
 10
2217.9720240833
 20
-2611.966425215065
 42
0.4142135623731
 10
2219.472024083299
 20
-2613.466425215065
 42
0.4142135623731
  0
LINE
  5
434
330
1F
100
AcDbEntity
  8
1-E
  6
Continuous
 62
   120
370
     5
100
AcDbLine
 10
1874.944881584363
 20
-2611.966425215065
 30
0.0
 11
1874.944881584363
 21
-2773.913660872837
 31
0.0
  0
LINE
  5
435
330
1F
100
AcDbEntity
  8
1-E
  6
Continuous
 62
   120
370
     5
100
AcDbLine
 10
2219.472024083299
 20
-2611.966425215065
 30
0.0
 11
2219.472024083299
 21
-2773.913660872837
 31
0.0
  0
MTEXT
  5
436
330
1F
100
AcDbEntity
  8
1-E
  6
Continuous
 62
     7
370
   211
100
AcDbMText
 10
1418.150185601443
 20
-3036.317304712627
 30
0.0
 40
68.58
 41
45.0
 46
0.0
 71
     7
 72
     1
  1
{\fＭＳ ゴシック|b0|i0|c128|p49;7}
 11
6.123031769111886E-17
 21
1.0
 31
0.0
 73
     1
 44
1.0
  0
LINE
  5
437
330
1F
100
AcDbEntity
  8
1-E
  6
Continuous
 62
   120
370
     5
100
AcDbLine
 10
1710.542799806828
 20
-2773.913660872837
 30
0.0
 11
1897.444881584363
 21
-2773.913660872837
 31
0.0
  0
LINE
  5
438
330
1F
100
AcDbEntity
  8
1-E
  6
Continuous
 62
   120
370
     5
100
AcDbLine
 10
2197.444881584363
 20
-2773.913660872837
 30
0.0
 11
2390.753945539657
 21
-2773.913660872837
 31
0.0
  0
MTEXT
  5
439
330
1F
100
AcDbEntity
  8
1-E
  6
Continuous
 62
     7
370
   211
100
AcDbMText
 10
1574.593155845437
 20
-3051.317582625498
 30
0.0
 40
68.58
 41
45.0
 46
0.0
 71
     7
 72
     1
  1
{\fＭＳ ゴシック|b0|i0|c128|p49;5}
 11
6.123031769111886E-17
 21
1.0
 31
0.0
 73
     1
 44
1.0
  0
MTEXT
  5
43A
330
1F
100
AcDbEntity
  8
1-E
  6
Continuous
 62
     7
370
   211
100
AcDbMText
 10
10.83827408108803
 20
-3078.960265754443
 30
0.0
 40
91.44000000000017
 41
120.0000000000002
 46
0.0
 71
     7
 72
     1
  1
{\fＭＳ ゴシック|b0|i0|c128|p49;10}
 73
     1
 44
1.0
  0
LINE
  5
43B
330
1F
100
AcDbEntity
  8
1-E
  6
Continuous
 62
   120
370
     5
100
AcDbLine
 10
-386.2932161928839
 20
-247.9921483342583
 30
0.0
 11
383.707146718863
 21
-247.9921483342583
 31
0.0
  0
LWPOLYLINE
  5
43C
330
1F
100
AcDbEntity
  8
1-E
  6
Continuous
 62
     7
370
     9
100
AcDbPolyline
 90
        4
 70
     1
 43
3.0
 10
-384.7932161928839
 20
-247.9921483342583
 42
0.4142135623731
 10
-386.2932161928839
 20
-246.4921483342583
 42
0.4142135623731
 10
-387.7932161928839
 20
-247.9921483342583
 42
0.4142135623731
 10
-386.2932161928839
 20
-249.4921483342583
 42
0.4142135623731
  0
LWPOLYLINE
  5
43D
330
1F
100
AcDbEntity
  8
1-E
  6
Continuous
 62
     7
370
     9
100
AcDbPolyline
 90
        4
 70
     1
 43
3.0
 10
385.207146718863
 20
-247.9921483342583
 42
0.4142135623731
 10
383.707146718863
 20
-246.4921483342583
 42
0.4142135623731
 10
382.2071467188629
 20
-247.9921483342583
 42
0.4142135623731
 10
383.707146718863
 20
-249.4921483342583
 42
0.4142135623731
  0
LINE
  5
43E
330
1F
100
AcDbEntity
  8
1-E
  6
Continuous
 62
   120
370
     5
100
AcDbLine
 10
-386.2932161928839
 20
-247.9921483342583
 30
0.0
 11
-386.2932161928839
 21
-391.5341981342589
 31
0.0
  0
LINE
  5
43F
330
1F
100
AcDbEntity
  8
1-E
  6
Continuous
 62
   120
370
     5
100
AcDbLine
 10
383.707146718863
 20
-247.9921483342583
 30
0.0
 11
383.707146718863
 21
-391.5341981342589
 31
0.0
  0
MTEXT
  5
440
330
1F
100
AcDbEntity
  8
1-E
  6
Continuous
 62
     7
370
   211
100
AcDbMText
 10
176.5873832977141
 20
-3078.960265754444
 30
0.0
 40
91.43999999999936
 41
59.99999999999957
 46
0.0
 71
     7
 72
     1
  1
{\fＭＳ ゴシック|b0|i0|c128|p49;9}
 73
     1
 44
1.0
  0
LINE
  5
441
330
1F
100
AcDbEntity
  8
1-E
  6
Continuous
 62
    92
370
    13
100
AcDbLine
 10
-386.2932161928839
 20
-441.5341981342577
 30
0.0
 11
-386.2932161928839
 21
-1181.825374815102
 31
0.0
  0
LINE
  5
442
330
1F
100
AcDbEntity
  8
1-E
  6
Continuous
 62
    92
370
    13
100
AcDbLine
 10
-386.2932161928839
 20
-1181.825374815102
 30
0.0
 11
-116.2924243854557
 21
-1181.825374815102
 31
0.0
  0
LINE
  5
443
330
1F
100
AcDbEntity
  8
1-E
  6
Continuous
 62
    92
370
    13
100
AcDbLine
 10
113.7078395503569
 20
-1181.825374815102
 30
0.0
 11
383.707146718863
 21
-1181.825374815102
 31
0.0
  0
LINE
  5
444
330
1F
100
AcDbEntity
  8
1-E
  6
Continuous
 62
    92
370
    13
100
AcDbLine
 10
383.707146718863
 20
-441.5341981342577
 30
0.0
 11
383.707146718863
 21
-1181.825374815102
 31
0.0
  0
LINE
  5
445
330
1F
100
AcDbEntity
  8
1-E
  6
Continuous
 62
   120
370
     5
100
AcDbLine
 10
-386.2932161928839
 20
-1559.334827016331
 30
0.0
 11
-116.2924243854557
 21
-1559.334827016331
 31
0.0
  0
LWPOLYLINE
  5
446
330
1F
100
AcDbEntity
  8
1-E
  6
Continuous
 62
     7
370
     9
100
AcDbPolyline
 90
        4
 70
     1
 43
3.0
 10
-384.7932161928839
 20
-1559.334827016331
 42
0.4142135623731
 10
-386.2932161928839
 20
-1557.834827016331
 42
0.4142135623731
 10
-387.7932161928839
 20
-1559.334827016331
 42
0.4142135623731
 10
-386.2932161928839
 20
-1560.834827016331
 42
0.4142135623731
  0
LWPOLYLINE
  5
447
330
1F
100
AcDbEntity
  8
1-E
  6
Continuous
 62
     7
370
     9
100
AcDbPolyline
 90
        4
 70
     1
 43
3.0
 10
-114.7924243854557
 20
-1559.334827016331
 42
0.4142135623731
 10
-116.2924243854557
 20
-1557.834827016331
 42
0.4142135623731
 10
-117.7924243854557
 20
-1559.334827016331
 42
0.4142135623731
 10
-116.2924243854557
 20
-1560.834827016331
 42
0.4142135623731
  0
LINE
  5
448
330
1F
100
AcDbEntity
  8
1-E
  6
Continuous
 62
   120
370
     5
100
AcDbLine
 10
-386.2932161928839
 20
-1559.334827016331
 30
0.0
 11
-386.2932161928839
 21
-1379.334827016332
 31
0.0
  0
LINE
  5
449
330
1F
100
AcDbEntity
  8
1-E
  6
Continuous
 62
   120
370
     5
100
AcDbLine
 10
-116.2924243854557
 20
-1559.334827016331
 30
0.0
 11
-116.2924243854557
 21
-1379.334827016332
 31
0.0
  0
MTEXT
  5
44A
330
1F
100
AcDbEntity
  8
1-E
  6
Continuous
 62
     7
370
     9
100
AcDbMText
 10
-518.3900335628691
 20
-3123.960265754443
 30
0.0
 40
91.44000000000001
 41
360.0
 46
0.0
 71
     7
 72
     1
  1
{\fＭＳ ゴシック|b0|i0|c128|p49;室内側}
 73
     1
 44
1.0
  0
LINE
  5
44B
330
1F
100
AcDbEntity
  8
1-E
  6
Continuous
 62
   120
370
     5
100
AcDbLine
 10
-116.2924243854557
 20
-1559.334827016331
 30
0.0
 11
113.7078395503569
 21
-1559.334827016331
 31
0.0
  0
LWPOLYLINE
  5
44C
330
1F
100
AcDbEntity
  8
1-E
  6
Continuous
 62
     7
370
     9
100
AcDbPolyline
 90
        4
 70
     1
 43
3.0
 10
115.2078395503569
 20
-1559.334827016331
 42
0.4142135623731
 10
113.7078395503569
 20
-1557.834827016331
 42
0.4142135623731
 10
112.2078395503569
 20
-1559.334827016331
 42
0.4142135623731
 10
113.7078395503569
 20
-1560.834827016331
 42
0.4142135623731
  0
LINE
  5
44D
330
1F
100
AcDbEntity
  8
1-E
  6
Continuous
 62
   120
370
     5
100
AcDbLine
 10
113.7078395503569
 20
-1559.334827016331
 30
0.0
 11
113.7078395503569
 21
-1379.334827016332
 31
0.0
  0
MTEXT
  5
44E
330
1F
100
AcDbEntity
  8
1-E
  6
Continuous
 62
     7
370
   211
100
AcDbMText
 10
334.0873832977141
 20
-3168.960265754444
 30
0.0
 40
91.43999999999969
 41
59.99999999999979
 46
0.0
 71
     7
 72
     1
  1
{\fＭＳ ゴシック|b0|i0|c128|p49;6}
 73
     1
 44
1.0
  0
LINE
  5
44F
330
1F
100
AcDbEntity
  8
1-E
  6
Continuous
 62
   120
370
     5
100
AcDbLine
 10
113.7078395503569
 20
-1559.334827016331
 30
0.0
 11
383.707146718863
 21
-1559.334827016331
 31
0.0
  0
LWPOLYLINE
  5
450
330
1F
100
AcDbEntity
  8
1-E
  6
Continuous
 62
     7
370
     9
100
AcDbPolyline
 90
        4
 70
     1
 43
3.0
 10
385.207146718863
 20
-1559.334827016331
 42
0.4142135623731
 10
383.707146718863
 20
-1557.834827016331
 42
0.4142135623731
 10
382.2071467188629
 20
-1559.334827016331
 42
0.4142135623731
 10
383.707146718863
 20
-1560.834827016331
 42
0.4142135623731
  0
LINE
  5
451
330
1F
100
AcDbEntity
  8
1-E
  6
Continuous
 62
   120
370
     5
100
AcDbLine
 10
383.707146718863
 20
-1559.334827016331
 30
0.0
 11
383.707146718863
 21
-1379.334827016332
 31
0.0
  0
MTEXT
  5
452
330
1F
100
AcDbEntity
  8
1-E
  6
Continuous
 62
     7
370
   211
100
AcDbMText
 10
149.5878286893993
 20
-3213.960265754443
 30
0.0
 40
91.44000000000017
 41
120.0000000000002
 46
0.0
 71
     7
 72
     1
  1
{\fＭＳ ゴシック|b0|i0|c128|p49;30}
 73
     1
 44
1.0
  0
LINE
  5
453
330
1F
100
AcDbEntity
  8
1-E
  6
Continuous
 62
    92
370
    13
100
AcDbLine
 10
329.5874822736496
 20
-2465.10235355269
 30
0.0
 11
329.5874822736496
 21
-2782.680265754441
 31
0.0
  0
LINE
  5
454
330
1F
100
AcDbEntity
  8
1-E
  6
Continuous
 62
    40
370
    15
100
AcDbLine
 10
269.587383297725
 20
-2857.680265754444
 30
0.0
 11
946.8689155164602
 21
-2857.680265754444
 31
0.0
  0
LINE
  5
455
330
1F
100
AcDbEntity
  8
1-E
  6
Continuous
 62
    40
370
    15
100
AcDbLine
 10
269.587383297725
 20
-2782.680265754441
 30
0.0
 11
946.8689155164602
 21
-2782.680265754441
 31
0.0
  0
LINE
  5
456
330
1F
100
AcDbEntity
  8
1-E
  6
JWW_DASHED1
 62
   120
370
     5
100
AcDbLine
 10
907.234613645518
 20
-2857.680265754444
 30
0.0
 11
946.8689155164602
 21
-2818.04596388348
 31
0.0
  0
LINE
  5
457
330
1F
100
AcDbEntity
  8
1-E
  6
JWW_DASHED1
 62
   120
370
     5
100
AcDbLine
 10
864.808206774318
 20
-2857.680265754438
 30
0.0
 11
939.8082067743198
 21
-2782.680265754441
 31
0.0
  0
MTEXT
  5
458
330
1F
100
AcDbEntity
  8
0-B_寸法
  6
Continuous
 62
     7
370
     0
100
AcDbMText
 10
-2724.440013768379
 20
-1160.269884247098
 30
0.0
 40
91.43999999999855
 41
119.9999999999981
 46
0.0
 71
     7
 72
     1
  1
{\fＭＳ ゴシック|b0|i0|c128|p49;20}
 11
0.9999999999914964
 21
4.124000500689212E-6
 31
0.0
 73
     1
 44
1.0
  0
MTEXT
  5
459
330
1F
100
AcDbEntity
  8
0-B_寸法
  6
Continuous
 62
     7
370
   211
100
AcDbMText
 10
-2047.879242239148
 20
2287.665146596839
 30
0.0
 40
91.44
 41
120.0
 46
0.0
 71
     7
 72
     1
  1
{\fＭＳ ゴシック|b0|i0|c128|p49;20}
 11
6.123031769111886E-17
 21
1.0
 31
0.0
 73
     1
 44
1.0
  0
MTEXT
  5
45A
330
1F
100
AcDbEntity
  8
F-A_文字
  6
Continuous
 62
     7
370
     0
100
AcDbMText
 10
4938.667793092893
 20
-3938.071010139966
 30
0.0
 40
78.86699999999999
 41
517.5
 46
0.0
 71
     7
 72
     1
  1
{\fＭＳ ゴシック|b0|i0|c128|p49;2024.04.01}
 73
     1
 44
1.0
  0
LWPOLYLINE
  5
45B
330
1F
100
AcDbEntity
  8
0-B_寸法
  6
Continuous
 62
     7
370
     9
100
AcDbPolyline
 90
        4
 70
     1
 43
3.0
 10
-2031.379242239148
 20
2421.94514659684
 42
0.4142135623731
 10
-2032.879242239148
 20
2423.445146596839
 42
0.4142135623731
 10
-2034.379242239148
 20
2421.94514659684
 42
0.4142135623731
 10
-2032.879242239148
 20
2420.44514659684
 42
0.4142135623731
  0
LINE
  5
45C
330
1F
100
AcDbEntity
  8
0-0_補助線
  6
JWW_HOJO
 62
     7
370
     9
100
AcDbLine
 10
-2581.564657146245
 20
2439.945146596838
 30
0.0
 11
-2581.564657146245
 21
2280.9445032533
 31
0.0
  0
LINE
  5
45D
330
1F
100
AcDbEntity
  8
0-0_補助線
  6
JWW_HOJO
 62
     7
370
     9
100
AcDbLine
 10
-2641.564657146245
 20
2439.945146596838
 30
0.0
 11
-2641.564657146245
 21
2280.9445032533
 31
0.0
  0
LINE
  5
45E
330
1F
100
AcDbEntity
  8
0-6_扉
  6
Continuous
 62
   200
370
    20
100
AcDbLine
 10
-2641.564657146245
 20
2421.94514659684
 30
0.0
 11
-2858.689657146244
 21
2421.94514659684
 31
0.0
  0
LINE
  5
45F
330
1F
100
AcDbEntity
  8
0-6_扉
  6
Continuous
 62
   200
370
    20
100
AcDbLine
 10
-2364.439657146247
 20
2421.94514659684
 30
0.0
 11
-2581.564657146245
 21
2421.94514659684
 31
0.0
  0
LINE
  5
460
330
1F
100
AcDbEntity
  8
0-6_扉
  6
Continuous
 62
   200
370
    20
100
AcDbLine
 10
-1864.189657146246
 20
2421.94514659684
 30
0.0
 11
-2081.314657146246
 21
2421.94514659684
 31
0.0
  0
LINE
  5
461
330
1F
100
AcDbEntity
  8
0-6_扉
  6
Continuous
 62
   200
370
    20
100
AcDbLine
 10
-2141.314657146246
 20
2421.94514659684
 30
0.0
 11
-2358.439657146245
 21
2421.94514659684
 31
0.0
  0
LINE
  5
462
330
1F
100
AcDbEntity
  8
0-0_補助線
  6
JWW_HOJO
 62
     7
370
     9
100
AcDbLine
 10
-2141.314657146246
 20
2439.945146596838
 30
0.0
 11
-2141.314657146246
 21
2280.9445032533
 31
0.0
  0
LINE
  5
463
330
1F
100
AcDbEntity
  8
0-0_補助線
  6
JWW_HOJO
 62
     7
370
     9
100
AcDbLine
 10
-2081.314657146246
 20
2439.945146596838
 30
0.0
 11
-2081.314657146246
 21
2280.9445032533
 31
0.0
  0
LINE
  5
464
330
1F
100
AcDbEntity
  8
0-0_補助線
  6
JWW_HOJO
 62
     7
370
     9
100
AcDbLine
 10
-1575.064657146245
 20
2439.945146596838
 30
0.0
 11
-1575.064657146245
 21
2280.9445032533
 31
0.0
  0
LINE
  5
465
330
1F
100
AcDbEntity
  8
0-0_補助線
  6
JWW_HOJO
 62
     7
370
     9
100
AcDbLine
 10
-1635.064657146245
 20
2439.945146596838
 30
0.0
 11
-1635.064657146245
 21
2280.9445032533
 31
0.0
  0
LINE
  5
466
330
1F
100
AcDbEntity
  8
0-6_扉
  6
Continuous
 62
   200
370
    20
100
AcDbLine
 10
-1635.064657146245
 20
2421.94514659684
 30
0.0
 11
-1852.189657146245
 21
2421.94514659684
 31
0.0
  0
LINE
  5
467
330
1F
100
AcDbEntity
  8
0-6_扉
  6
Continuous
 62
   200
370
    20
100
AcDbLine
 10
-1357.939657146246
 20
2421.94514659684
 30
0.0
 11
-1575.064657146245
 21
2421.94514659684
 31
0.0
  0
LINE
  5
468
330
1F
100
AcDbEntity
  8
0-0_補助線
  6
JWW_HOJO
 62
     7
370
     9
100
AcDbLine
 10
-1134.814657146243
 20
2439.945146596838
 30
0.0
 11
-1134.814657146243
 21
2280.9445032533
 31
0.0
  0
LINE
  5
469
330
1F
100
AcDbEntity
  8
0-0_補助線
  6
JWW_HOJO
 62
     7
370
     9
100
AcDbLine
 10
-1074.814657146243
 20
2439.945146596838
 30
0.0
 11
-1074.814657146243
 21
2280.9445032533
 31
0.0
  0
LINE
  5
46A
330
1F
100
AcDbEntity
  8
0-6_扉
  6
Continuous
 62
   200
370
    20
100
AcDbLine
 10
-1351.939657146241
 20
2421.94514659684
 30
0.0
 11
-1134.814657146243
 21
2421.94514659684
 31
0.0
  0
LINE
  5
46B
330
1F
100
AcDbEntity
  8
0-6_扉
  6
Continuous
 62
   200
370
    20
100
AcDbLine
 10
-1074.814657146243
 20
2421.94514659684
 30
0.0
 11
-857.6896571462466
 21
2421.94514659684
 31
0.0
  0
LINE
  5
46C
330
1F
100
AcDbEntity
  8
0-0_補助線
  6
JWW_HOJO
 62
     7
370
     9
100
AcDbLine
 10
-628.5646571462453
 20
2439.945146596838
 30
0.0
 11
-628.5646571462453
 21
2280.9445032533
 31
0.0
  0
LINE
  5
46D
330
1F
100
AcDbEntity
  8
0-0_補助線
  6
JWW_HOJO
 62
     7
370
     9
100
AcDbLine
 10
-568.5646571462453
 20
2439.945146596838
 30
0.0
 11
-568.5646571462453
 21
2280.9445032533
 31
0.0
  0
LINE
  5
46E
330
1F
100
AcDbEntity
  8
0-6_扉
  6
Continuous
 62
   200
370
    20
100
AcDbLine
 10
-845.6896571462448
 20
2421.94514659684
 30
0.0
 11
-628.5646571462453
 21
2421.94514659684
 31
0.0
  0
LINE
  5
46F
330
1F
100
AcDbEntity
  8
0-6_扉
  6
Continuous
 62
   200
370
    20
100
AcDbLine
 10
-568.5646571462453
 20
2421.94514659684
 30
0.0
 11
-351.4396571462467
 21
2421.94514659684
 31
0.0
  0
LINE
  5
470
330
1F
100
AcDbEntity
  8
0-0_補助線
  6
JWW_HOJO
 62
     7
370
     9
100
AcDbLine
 10
-128.3146571462467
 20
2439.945146596838
 30
0.0
 11
-128.3146571462467
 21
2280.9445032533
 31
0.0
  0
LINE
  5
471
330
1F
100
AcDbEntity
  8
0-0_補助線
  6
JWW_HOJO
 62
     7
370
     9
100
AcDbLine
 10
-68.3146571462467
 20
2439.945146596838
 30
0.0
 11
-68.3146571462467
 21
2280.9445032533
 31
0.0
  0
LINE
  5
472
330
1F
100
AcDbEntity
  8
0-6_扉
  6
Continuous
 62
   200
370
    20
100
AcDbLine
 10
-345.4396571462462
 20
2421.94514659684
 30
0.0
 11
-128.3146571462467
 21
2421.94514659684
 31
0.0
  0
LINE
  5
473
330
1F
100
AcDbEntity
  8
0-6_扉
  6
Continuous
 62
   200
370
    20
100
AcDbLine
 10
-68.3146571462467
 20
2421.94514659684
 30
0.0
 11
148.8103428537639
 21
2421.94514659684
 31
0.0
  0
LINE
  5
474
330
1F
100
AcDbEntity
  8
0-0_補助線
  6
JWW_HOJO
 62
     7
370
     9
100
AcDbLine
 10
377.9353428537537
 20
2439.945146596838
 30
0.0
 11
377.9353428537537
 21
2280.9445032533
 31
0.0
  0
LINE
  5
475
330
1F
100
AcDbEntity
  8
0-0_補助線
  6
JWW_HOJO
 62
     7
370
     9
100
AcDbLine
 10
437.9353428537537
 20
2439.945146596838
 30
0.0
 11
437.9353428537537
 21
2280.9445032533
 31
0.0
  0
LINE
  5
476
330
1F
100
AcDbEntity
  8
0-6_扉
  6
Continuous
 62
   200
370
    20
100
AcDbLine
 10
160.8103428537538
 20
2421.94514659684
 30
0.0
 11
377.9353428537537
 21
2421.94514659684
 31
0.0
  0
LINE
  5
477
330
1F
100
AcDbEntity
  8
0-6_扉
  6
Continuous
 62
   200
370
    20
100
AcDbLine
 10
437.9353428537537
 20
2421.94514659684
 30
0.0
 11
655.0603428537536
 21
2421.94514659684
 31
0.0
  0
LINE
  5
478
330
1F
100
AcDbEntity
  8
0-0_補助線
  6
JWW_HOJO
 62
     7
370
     9
100
AcDbLine
 10
878.1853428537536
 20
2439.945146596838
 30
0.0
 11
878.1853428537536
 21
2280.9445032533
 31
0.0
  0
LINE
  5
479
330
1F
100
AcDbEntity
  8
0-0_補助線
  6
JWW_HOJO
 62
     7
370
     9
100
AcDbLine
 10
938.1853428537536
 20
2439.945146596838
 30
0.0
 11
938.1853428537536
 21
2280.9445032533
 31
0.0
  0
LINE
  5
47A
330
1F
100
AcDbEntity
  8
0-6_扉
  6
Continuous
 62
   200
370
    20
100
AcDbLine
 10
661.0603428537537
 20
2421.94514659684
 30
0.0
 11
878.1853428537536
 21
2421.94514659684
 31
0.0
  0
LINE
  5
47B
330
1F
100
AcDbEntity
  8
0-6_扉
  6
Continuous
 62
   200
370
    20
100
AcDbLine
 10
938.1853428537536
 20
2421.94514659684
 30
0.0
 11
1155.310342853763
 21
2421.94514659684
 31
0.0
  0
CIRCLE
  5
47C
330
1F
100
AcDbEntity
  8
0-7_金物
  6
Continuous
 62
     7
370
     9
100
AcDbCircle
 10
-2361.439657146245
 20
2451.945146596815
 30
0.0
 40
21.00000000000001
  0
CIRCLE
  5
47D
330
1F
100
AcDbEntity
  8
0-7_金物
  6
Continuous
 62
     7
370
     9
100
AcDbCircle
 10
-2361.439657146245
 20
2451.945146596815
 30
0.0
 40
30.0
  0
CIRCLE
  5
47E
330
1F
100
AcDbEntity
  8
0-7_金物
  6
Continuous
 62
     7
370
     9
100
AcDbCircle
 10
-1354.939657146244
 20
2451.945146596815
 30
0.0
 40
21.00000000000001
  0
CIRCLE
  5
47F
330
1F
100
AcDbEntity
  8
0-7_金物
  6
Continuous
 62
     7
370
     9
100
AcDbCircle
 10
-1354.939657146244
 20
2451.945146596815
 30
0.0
 40
30.0
  0
CIRCLE
  5
480
330
1F
100
AcDbEntity
  8
0-7_金物
  6
Continuous
 62
     7
370
     9
100
AcDbCircle
 10
658.0603428537543
 20
2451.945146596815
 30
0.0
 40
21.00000000000001
  0
CIRCLE
  5
481
330
1F
100
AcDbEntity
  8
0-7_金物
  6
Continuous
 62
     7
370
     9
100
AcDbCircle
 10
658.0603428537543
 20
2451.945146596815
 30
0.0
 40
30.0
  0
CIRCLE
  5
482
330
1F
100
AcDbEntity
  8
0-7_金物
  6
Continuous
 62
     7
370
     9
100
AcDbCircle
 10
-348.4396571462452
 20
2451.945146596815
 30
0.0
 40
21.00000000000001
  0
CIRCLE
  5
483
330
1F
100
AcDbEntity
  8
0-7_金物
  6
Continuous
 62
     7
370
     9
100
AcDbCircle
 10
-348.4396571462452
 20
2451.945146596815
 30
0.0
 40
30.0
  0
LWPOLYLINE
  5
484
330
1F
100
AcDbEntity
  8
0-B_寸法
  6
Continuous
 62
     7
370
     9
100
AcDbPolyline
 90
        4
 70
     1
 43
3.0
 10
-2031.379242239148
 20
2301.94514659684
 42
0.4142135623731
 10
-2032.879242239148
 20
2303.445146596839
 42
0.4142135623731
 10
-2034.379242239148
 20
2301.94514659684
 42
0.4142135623731
 10
-2032.879242239148
 20
2300.44514659684
 42
0.4142135623731
  0
LINE
  5
485
330
1F
100
AcDbEntity
  8
0-6_扉
  6
Continuous
 62
   200
370
    20
100
AcDbLine
 10
-2641.564657146245
 20
2301.94514659684
 30
0.0
 11
-2858.689657146244
 21
2301.94514659684
 31
0.0
  0
LINE
  5
486
330
1F
100
AcDbEntity
  8
0-6_扉
  6
Continuous
 62
   200
370
    20
100
AcDbLine
 10
-2364.439657146247
 20
2301.94514659684
 30
0.0
 11
-2581.564657146245
 21
2301.94514659684
 31
0.0
  0
LINE
  5
487
330
1F
100
AcDbEntity
  8
0-6_扉
  6
Continuous
 62
   200
370
    20
100
AcDbLine
 10
-1864.189657146246
 20
2301.94514659684
 30
0.0
 11
-2081.314657146246
 21
2301.94514659684
 31
0.0
  0
LINE
  5
488
330
1F
100
AcDbEntity
  8
0-6_扉
  6
Continuous
 62
   200
370
    20
100
AcDbLine
 10
-2141.314657146246
 20
2301.94514659684
 30
0.0
 11
-2358.439657146245
 21
2301.94514659684
 31
0.0
  0
LINE
  5
489
330
1F
100
AcDbEntity
  8
0-6_扉
  6
Continuous
 62
   200
370
    20
100
AcDbLine
 10
-1635.064657146245
 20
2301.94514659684
 30
0.0
 11
-1852.189657146245
 21
2301.94514659684
 31
0.0
  0
LINE
  5
48A
330
1F
100
AcDbEntity
  8
0-6_扉
  6
Continuous
 62
   200
370
    20
100
AcDbLine
 10
-1357.939657146246
 20
2301.94514659684
 30
0.0
 11
-1575.064657146245
 21
2301.94514659684
 31
0.0
  0
LINE
  5
48B
330
1F
100
AcDbEntity
  8
0-6_扉
  6
Continuous
 62
   200
370
    20
100
AcDbLine
 10
-1351.939657146241
 20
2301.94514659684
 30
0.0
 11
-1134.814657146243
 21
2301.94514659684
 31
0.0
  0
LINE
  5
48C
330
1F
100
AcDbEntity
  8
0-6_扉
  6
Continuous
 62
   200
370
    20
100
AcDbLine
 10
-1074.814657146243
 20
2301.94514659684
 30
0.0
 11
-857.6896571462466
 21
2301.94514659684
 31
0.0
  0
LINE
  5
48D
330
1F
100
AcDbEntity
  8
0-6_扉
  6
Continuous
 62
   200
370
    20
100
AcDbLine
 10
-845.6896571462448
 20
2301.94514659684
 30
0.0
 11
-628.5646571462453
 21
2301.94514659684
 31
0.0
  0
LINE
  5
48E
330
1F
100
AcDbEntity
  8
0-6_扉
  6
Continuous
 62
   200
370
    20
100
AcDbLine
 10
-568.5646571462453
 20
2301.94514659684
 30
0.0
 11
-351.4396571462467
 21
2301.94514659684
 31
0.0
  0
LINE
  5
48F
330
1F
100
AcDbEntity
  8
0-6_扉
  6
Continuous
 62
   200
370
    20
100
AcDbLine
 10
-345.4396571462462
 20
2301.94514659684
 30
0.0
 11
-128.3146571462467
 21
2301.94514659684
 31
0.0
  0
LINE
  5
490
330
1F
100
AcDbEntity
  8
0-6_扉
  6
Continuous
 62
   200
370
    20
100
AcDbLine
 10
-68.3146571462467
 20
2301.94514659684
 30
0.0
 11
148.8103428537639
 21
2301.94514659684
 31
0.0
  0
LINE
  5
491
330
1F
100
AcDbEntity
  8
0-6_扉
  6
Continuous
 62
   200
370
    20
100
AcDbLine
 10
160.8103428537538
 20
2301.94514659684
 30
0.0
 11
377.9353428537537
 21
2301.94514659684
 31
0.0
  0
LINE
  5
492
330
1F
100
AcDbEntity
  8
0-6_扉
  6
Continuous
 62
   200
370
    20
100
AcDbLine
 10
437.9353428537537
 20
2301.94514659684
 30
0.0
 11
655.0603428537536
 21
2301.94514659684
 31
0.0
  0
LINE
  5
493
330
1F
100
AcDbEntity
  8
0-6_扉
  6
Continuous
 62
   200
370
    20
100
AcDbLine
 10
661.0603428537537
 20
2301.94514659684
 30
0.0
 11
878.1853428537536
 21
2301.94514659684
 31
0.0
  0
LINE
  5
494
330
1F
100
AcDbEntity
  8
0-6_扉
  6
Continuous
 62
   200
370
    20
100
AcDbLine
 10
938.1853428537536
 20
2301.94514659684
 30
0.0
 11
1155.310342853763
 21
2301.94514659684
 31
0.0
  0
LINE
  5
495
330
1F
100
AcDbEntity
  8
0-B_寸法
  6
Continuous
 62
   120
370
     5
100
AcDbLine
 10
-2032.879242239148
 20
2421.94514659684
 30
0.0
 11
-2032.879242239148
 21
2301.94514659684
 31
0.0
  0
LINE
  5
496
330
1F
100
AcDbEntity
  8
0-6_扉
  6
Continuous
 62
   200
370
    20
100
AcDbLine
 10
-2858.689657146244
 20
2421.94514659684
 30
0.0
 11
-2858.689657146244
 21
2301.94514659684
 31
0.0
  0
LINE
  5
497
330
1F
100
AcDbEntity
  8
0-6_扉
  6
Continuous
 62
   200
370
    20
100
AcDbLine
 10
-2358.439657146245
 20
2421.94514659684
 30
0.0
 11
-2358.439657146245
 21
2301.94514659684
 31
0.0
  0
LINE
  5
498
330
1F
100
AcDbEntity
  8
0-6_扉
  6
Continuous
 62
   200
370
    20
100
AcDbLine
 10
-2364.439657146247
 20
2421.94514659684
 30
0.0
 11
-2364.439657146247
 21
2301.94514659684
 31
0.0
  0
LINE
  5
499
330
1F
100
AcDbEntity
  8
0-6_扉
  6
Continuous
 62
   200
370
    20
100
AcDbLine
 10
-1852.189657146245
 20
2421.94514659684
 30
0.0
 11
-1852.189657146245
 21
2301.94514659684
 31
0.0
  0
LINE
  5
49A
330
1F
100
AcDbEntity
  8
0-6_扉
  6
Continuous
 62
   200
370
    20
100
AcDbLine
 10
-1864.189657146246
 20
2421.94514659684
 30
0.0
 11
-1864.189657146246
 21
2301.94514659684
 31
0.0
  0
LINE
  5
49B
330
1F
100
AcDbEntity
  8
0-6_扉
  6
Continuous
 62
   200
370
    20
100
AcDbLine
 10
-1351.939657146241
 20
2421.94514659684
 30
0.0
 11
-1351.939657146241
 21
2301.94514659684
 31
0.0
  0
LINE
  5
49C
330
1F
100
AcDbEntity
  8
0-6_扉
  6
Continuous
 62
   200
370
    20
100
AcDbLine
 10
-1357.939657146246
 20
2421.94514659684
 30
0.0
 11
-1357.939657146246
 21
2301.94514659684
 31
0.0
  0
LINE
  5
49D
330
1F
100
AcDbEntity
  8
0-6_扉
  6
Continuous
 62
   200
370
    20
100
AcDbLine
 10
-857.6896571462466
 20
2421.94514659684
 30
0.0
 11
-857.6896571462466
 21
2301.94514659684
 31
0.0
  0
LINE
  5
49E
330
1F
100
AcDbEntity
  8
0-6_扉
  6
Continuous
 62
   200
370
    20
100
AcDbLine
 10
-845.6896571462448
 20
2421.94514659684
 30
0.0
 11
-845.6896571462448
 21
2301.94514659684
 31
0.0
  0
LINE
  5
49F
330
1F
100
AcDbEntity
  8
0-6_扉
  6
Continuous
 62
   200
370
    20
100
AcDbLine
 10
-351.4396571462467
 20
2421.94514659684
 30
0.0
 11
-351.4396571462467
 21
2301.94514659684
 31
0.0
  0
LINE
  5
4A0
330
1F
100
AcDbEntity
  8
0-6_扉
  6
Continuous
 62
   200
370
    20
100
AcDbLine
 10
-345.4396571462462
 20
2421.94514659684
 30
0.0
 11
-345.4396571462462
 21
2301.94514659684
 31
0.0
  0
LINE
  5
4A1
330
1F
100
AcDbEntity
  8
0-6_扉
  6
Continuous
 62
   200
370
    20
100
AcDbLine
 10
148.8103428537639
 20
2421.94514659684
 30
0.0
 11
148.8103428537639
 21
2301.94514659684
 31
0.0
  0
LINE
  5
4A2
330
1F
100
AcDbEntity
  8
0-6_扉
  6
Continuous
 62
   200
370
    20
100
AcDbLine
 10
160.8103428537538
 20
2421.94514659684
 30
0.0
 11
160.8103428537538
 21
2301.94514659684
 31
0.0
  0
LINE
  5
4A3
330
1F
100
AcDbEntity
  8
0-6_扉
  6
Continuous
 62
   200
370
    20
100
AcDbLine
 10
655.0603428537536
 20
2421.94514659684
 30
0.0
 11
655.0603428537536
 21
2301.94514659684
 31
0.0
  0
LINE
  5
4A4
330
1F
100
AcDbEntity
  8
0-6_扉
  6
Continuous
 62
   200
370
    20
100
AcDbLine
 10
661.0603428537537
 20
2421.94514659684
 30
0.0
 11
661.0603428537537
 21
2301.94514659684
 31
0.0
  0
LINE
  5
4A5
330
1F
100
AcDbEntity
  8
0-6_扉
  6
Continuous
 62
   200
370
    20
100
AcDbLine
 10
1155.310342853763
 20
2421.94514659684
 30
0.0
 11
1155.310342853763
 21
2301.94514659684
 31
0.0
  0
LWPOLYLINE
  5
4A6
330
1F
100
AcDbEntity
  8
0-B_寸法
  6
Continuous
 62
     7
370
     9
100
AcDbPolyline
 90
        4
 70
     1
 43
3.0
 10
-2599.189459194373
 20
-1160.989500715166
 42
0.4142135623731
 10
-2600.689459194372
 20
-1159.489500715166
 42
0.4142135623731
 10
-2602.189459194372
 20
-1160.989500715166
 42
0.4142135623731
 10
-2600.689459194372
 20
-1162.489500715166
 42
0.4142135623731
  0
LINE
  5
4A7
330
1F
100
AcDbEntity
  8
0-B_寸法
  6
Continuous
 62
   120
370
     5
100
AcDbLine
 10
-2600.689459194372
 20
-1076.752572136194
 30
0.0
 11
-2600.689459194372
 21
-1160.989500715166
 31
0.0
  0
LINE
  5
4A8
330
1F
100
AcDbEntity
  8
0-6_扉
  6
Continuous
 62
   200
370
    20
100
AcDbLine
 10
-2600.689459194372
 20
-3175.000334095664
 30
0.0
 11
-2600.689459194372
 21
-1917.999673791074
 31
0.0
  0
LINE
  5
4A9
330
1F
100
AcDbEntity
  8
0-6_扉
  6
Continuous
 62
   200
370
    20
100
AcDbLine
 10
-2600.689459194372
 20
-558.9994634672253
 30
0.0
 11
-2600.689459194372
 21
-1797.999673791074
 31
0.0
  0
LWPOLYLINE
  5
4AA
330
1F
100
AcDbEntity
  8
0-B_寸法
  6
Continuous
 62
     7
370
     9
100
AcDbPolyline
 90
        4
 70
     1
 43
3.0
 10
-2719.189459194373
 20
-1160.989500715166
 42
0.4142135623731
 10
-2720.689459194372
 20
-1159.489500715166
 42
0.4142135623731
 10
-2722.189459194372
 20
-1160.989500715166
 42
0.4142135623731
 10
-2720.689459194372
 20
-1162.489500715166
 42
0.4142135623731
  0
LINE
  5
4AB
330
1F
100
AcDbEntity
  8
0-B_寸法
  6
Continuous
 62
   120
370
     5
100
AcDbLine
 10
-2720.689459194372
 20
-1076.752572136194
 30
0.0
 11
-2720.689459194372
 21
-1160.989500715166
 31
0.0
  0
LINE
  5
4AC
330
1F
100
AcDbEntity
  8
0-6_扉
  6
Continuous
 62
   200
370
    20
100
AcDbLine
 10
-2720.689459194372
 20
-3175.000334095664
 30
0.0
 11
-2720.689459194372
 21
-1917.999673791074
 31
0.0
  0
LINE
  5
4AD
330
1F
100
AcDbEntity
  8
0-6_扉
  6
Continuous
 62
   200
370
    20
100
AcDbLine
 10
-2720.689459194372
 20
-558.9994634672253
 30
0.0
 11
-2720.689459194372
 21
-1797.999673791074
 31
0.0
  0
LINE
  5
4AE
330
1F
100
AcDbEntity
  8
0-6_扉
  6
Continuous
 62
   200
370
    20
100
AcDbLine
 10
-2600.689459194372
 20
-3175.000334095666
 30
0.0
 11
-2720.689459194372
 21
-3175.000334095666
 31
0.0
  0
LINE
  5
4AF
330
1F
100
AcDbEntity
  8
0-6_扉
  6
Continuous
 62
   200
370
    20
100
AcDbLine
 10
-2720.689459194372
 20
-558.9994634672253
 30
0.0
 11
-2600.689459194372
 21
-558.9994634672253
 31
0.0
  0
LINE
  5
4B0
330
1F
100
AcDbEntity
  8
0-B_寸法
  6
Continuous
 62
   120
370
     5
100
AcDbLine
 10
-2720.689459194372
 20
-1160.989500715166
 30
0.0
 11
-2600.689459194372
 21
-1160.989500715166
 31
0.0
  0
ENDSEC
  0
SECTION
  2
OBJECTS
  0
DICTIONARY
  5
C
330
0
100
AcDbDictionary
281
     1
  3
ACAD_GROUP
350
D
  3
ACAD_LAYOUT
350
1A
  3
ACAD_MATERIAL
350
3B
  3
ACAD_MLEADERSTYLE
350
4D9
  3
ACAD_MLINESTYLE
350
17
  3
ACAD_PLOTSETTINGS
350
19
  3
ACAD_PLOTSTYLENAME
350
E
  3
ACAD_TABLESTYLE
350
4D8
  3
ACAD_VISUALSTYLE
350
2A
  0
DICTIONARY
  5
D
102
{ACAD_REACTORS
330
C
102
}
330
C
100
AcDbDictionary
281
     1
  0
DICTIONARY
  5
1A
102
{ACAD_REACTORS
330
C
102
}
330
C
100
AcDbDictionary
281
     1
  3
Layout1
350
1E
  3
Layout2
350
26
  3
Model
350
22
  0
DICTIONARY
  5
3B
102
{ACAD_REACTORS
330
C
102
}
330
C
100
AcDbDictionary
281
     1
  3
ByBlock
350
3D
  3
ByLayer
350
3C
  3
Global
350
3E
  0
DICTIONARY
  5
4D9
102
{ACAD_REACTORS
330
C
102
}
330
C
100
AcDbDictionary
281
     1
  0
DICTIONARY
  5
17
102
{ACAD_REACTORS
330
C
102
}
330
C
100
AcDbDictionary
281
     1
  3
Standard
350
18
  0
DICTIONARY
  5
19
102
{ACAD_REACTORS
330
C
102
}
330
C
100
AcDbDictionary
281
     1
  0
ACDBDICTIONARYWDFLT
  5
E
102
{ACAD_REACTORS
330
C
102
}
330
C
100
AcDbDictionary
281
     1
  3
Normal
350
F
100
AcDbDictionaryWithDefault
340
F
  0
DICTIONARY
  5
4D8
102
{ACAD_REACTORS
330
C
102
}
330
C
100
AcDbDictionary
281
     1
  0
DICTIONARY
  5
2A
102
{ACAD_REACTORS
330
C
102
}
330
C
100
AcDbDictionary
281
     1
  3
2dWireframe
350
2F
  3
3D Hidden
350
31
  3
3dWireframe
350
30
  3
Basic
350
32
  3
Brighten
350
36
  3
ColorChange
350
3A
  3
Conceptual
350
34
  3
Dim
350
35
  3
Facepattern
350
39
  3
Flat
350
2B
  3
FlatWithEdges
350
2C
  3
Gouraud
350
2D
  3
GouraudWithEdges
350
2E
  3
Linepattern
350
38
  3
Realistic
350
33
  3
Thicken
350
37
  0
LAYOUT
  5
1E
102
{ACAD_REACTORS
330
1A
102
}
330
1A
100
AcDbPlotSettings
  1

  2
none_device
  4

  6

 40
0.0
 41
0.0
 42
0.0
 43
0.0
 44
0.0
 45
0.0
 46
0.0
 47
0.0
 48
0.0
 49
0.0
140
0.0
141
0.0
142
1.0
143
1.0
 70
   688
 72
     0
 73
     0
 74
     5
  7

 75
    16
 76
     0
 77
     5
 78
   300
147
1.0
148
0.0
149
0.0
100
AcDbLayout
  1
Layout1
 70
     1
 71
     1
 10
0.0
 20
0.0
 11
420.0
 21
297.0
 12
0.0
 22
0.0
 32
0.0
 14
1.000000000000000E+20
 24
1.000000000000000E+20
 34
1.000000000000000E+20
 15
-1.000000000000000E+20
 25
-1.000000000000000E+20
 35
-1.000000000000000E+20
146
0.0
 13
0.0
 23
0.0
 33
0.0
 16
1.0
 26
0.0
 36
0.0
 17
0.0
 27
1.0
 37
0.0
 76
     0
330
1B
  0
LAYOUT
  5
26
102
{ACAD_REACTORS
330
1A
102
}
330
1A
100
AcDbPlotSettings
  1

  2
none_device
  4

  6

 40
0.0
 41
0.0
 42
0.0
 43
0.0
 44
0.0
 45
0.0
 46
0.0
 47
0.0
 48
0.0
 49
0.0
140
0.0
141
0.0
142
1.0
143
1.0
 70
   688
 72
     0
 73
     0
 74
     5
  7

 75
    16
 76
     0
 77
     5
 78
   300
147
1.0
148
0.0
149
0.0
100
AcDbLayout
  1
Layout2
 70
     1
 71
     2
 10
0.0
 20
0.0
 11
0.0
 21
0.0
 12
0.0
 22
0.0
 32
0.0
 14
0.0
 24
0.0
 34
0.0
 15
0.0
 25
0.0
 35
0.0
146
0.0
 13
0.0
 23
0.0
 33
0.0
 16
1.0
 26
0.0
 36
0.0
 17
0.0
 27
1.0
 37
0.0
 76
     0
330
23
  0
LAYOUT
  5
22
102
{ACAD_REACTORS
330
1A
102
}
330
1A
100
AcDbPlotSettings
  1

  2
none_device
  4

  6

 40
0.0
 41
0.0
 42
0.0
 43
0.0
 44
0.0
 45
0.0
 46
0.0
 47
0.0
 48
0.0
 49
0.0
140
0.0
141
0.0
142
1.0
143
1.0
 70
  1712
 72
     0
 73
     0
 74
     0
  7

 75
     0
 76
     0
 77
     5
 78
   300
147
1.0
148
0.0
149
0.0
100
AcDbLayout
  1
Model
 70
     1
 71
     0
 10
-6300.0
 20
-4455.0
 11
6300.0
 21
4455.0
 12
0.0
 22
0.0
 32
0.0
 14
-6300.0
 24
-4455.0
 34
0.0
 15
6300.0
 25
4455.0
 35
0.0
146
0.0
 13
0.0
 23
0.0
 33
0.0
 16
1.0
 26
0.0
 36
0.0
 17
0.0
 27
1.0
 37
0.0
 76
     0
330
1F
331
29
  0
MATERIAL
  5
3D
102
{ACAD_REACTORS
330
3B
102
}
330
3B
100
AcDbMaterial
  1
ByBlock
 72
     1
 94
      127
  0
MATERIAL
  5
3C
102
{ACAD_REACTORS
330
3B
102
}
330
3B
100
AcDbMaterial
  1
ByLayer
 72
     1
 94
      127
  0
MATERIAL
  5
3E
102
{ACAD_REACTORS
330
3B
102
}
330
3B
100
AcDbMaterial
  1
Global
 72
     1
 94
      127
  0
MLINESTYLE
  5
18
102
{ACAD_REACTORS
330
17
102
}
330
17
100
AcDbMlineStyle
  2
Standard
 70
     0
  3

 62
   256
 51
90.0
 52
90.0
 71
     2
 49
0.5
 62
   256
  6
BYLAYER
 49
-0.5
 62
   256
  6
BYLAYER
  0
ACDBPLACEHOLDER
  5
F
102
{ACAD_REACTORS
330
E
102
}
330
E
  0
VISUALSTYLE
  5
2F
102
{ACAD_REACTORS
330
2A
102
}
330
2A
100
AcDbVisualStyle
  2
2dWireframe
 70
     4
177
     2
291
     0
 71
     0
176
     1
 72
     2
176
     1
 73
     0
176
     1
 90
        0
176
     1
 40
-0.6
176
     1
 41
-30.0
176
     1
 62
     5
 63
     7
421
 16777215
176
     1
 74
     1
176
     1
 91
        4
176
     1
 64
     7
176
     1
 65
   257
176
     1
 75
     1
176
     1
175
     1
176
     1
 42
1.0
176
     1
 92
        0
176
     1
 66
   257
176
     1
 43
1.0
176
     1
 76
     1
176
     1
 77
     6
176
     1
 78
     2
176
     1
 67
     7
176
     1
 79
     5
176
     1
170
     0
176
     1
171
     0
176
     1
290
     0
176
     1
 93
        1
176
     1
 44
0.0
176
     1
173
     0
176
     1
  0
VISUALSTYLE
  5
31
102
{ACAD_REACTORS
330
2A
102
}
330
2A
100
AcDbVisualStyle
  2
3D Hidden
 70
     6
177
     2
291
     0
 71
     1
176
     1
 72
     2
176
     1
 73
     2
176
     1
 90
        0
176
     1
 40
-0.6
176
     1
 41
-30.0
176
     1
 62
     5
 63
     7
421
 16777215
176
     1
 74
     2
176
     1
 91
        2
176
     1
 64
     7
176
     1
 65
   257
176
     1
 75
     2
176
     1
175
     1
176
     1
 42
40.0
176
     1
 92
        0
176
     1
 66
   257
176
     1
 43
1.0
176
     1
 76
     1
176
     1
 77
     6
176
     1
 78
     2
176
     1
 67
     7
176
     1
 79
     3
176
     1
170
     0
176
     1
171
     0
176
     1
290
     0
176
     1
 93
        1
176
     1
 44
0.0
176
     1
173
     0
176
     1
  0
VISUALSTYLE
  5
30
102
{ACAD_REACTORS
330
2A
102
}
330
2A
100
AcDbVisualStyle
  2
3dWireframe
 70
     5
177
     2
291
     0
 71
     0
176
     1
 72
     2
176
     1
 73
     0
176
     1
 90
        0
176
     1
 40
-0.6
176
     1
 41
-30.0
176
     1
 62
     5
 63
     7
421
 16777215
176
     1
 74
     1
176
     1
 91
        4
176
     1
 64
     7
176
     1
 65
   257
176
     1
 75
     1
176
     1
175
     1
176
     1
 42
1.0
176
     1
 92
        0
176
     1
 66
   257
176
     1
 43
1.0
176
     1
 76
     1
176
     1
 77
     6
176
     1
 78
     2
176
     1
 67
     7
176
     1
 79
     5
176
     1
170
     0
176
     1
171
     0
176
     1
290
     0
176
     1
 93
        1
176
     1
 44
0.0
176
     1
173
     0
176
     1
  0
VISUALSTYLE
  5
32
102
{ACAD_REACTORS
330
2A
102
}
330
2A
100
AcDbVisualStyle
  2
Basic
 70
     7
177
     2
291
     1
 71
     1
176
     1
 72
     0
176
     1
 73
     1
176
     1
 90
        0
176
     1
 40
-0.6
176
     1
 41
-30.0
176
     1
 62
     5
 63
     7
421
 16777215
176
     1
 74
     0
176
     1
 91
        4
176
     1
 64
     7
176
     1
 65
   257
176
     1
 75
     1
176
     1
175
     1
176
     1
 42
1.0
176
     1
 92
        8
176
     1
 66
     7
176
     1
 43
1.0
176
     1
 76
     1
176
     1
 77
     6
176
     1
 78
     2
176
     1
 67
     7
176
     1
 79
     5
176
     1
170
     0
176
     1
171
     0
176
     1
290
     0
176
     1
 93
        1
176
     1
 44
0.0
176
     1
173
     0
176
     1
  0
VISUALSTYLE
  5
36
102
{ACAD_REACTORS
330
2A
102
}
330
2A
100
AcDbVisualStyle
  2
Brighten
 70
    12
177
     2
291
     1
 71
     2
176
     1
 72
     2
176
     1
 73
     0
176
     1
 90
        0
176
     1
 40
-0.6
176
     1
 41
-30.0
176
     1
 62
     5
 63
     7
421
 16777215
176
     1
 74
     1
176
     1
 91
        4
176
     1
 64
     7
176
     1
 65
   257
176
     1
 75
     1
176
     1
175
     1
176
     1
 42
1.0
176
     1
 92
        8
176
     1
 66
     7
176
     1
 43
1.0
176
     1
 76
     1
176
     1
 77
     6
176
     1
 78
     2
176
     1
 67
     7
176
     1
 79
     5
176
     1
170
     0
176
     1
171
     0
176
     1
290
     0
176
     1
 93
        1
176
     1
 44
50.0
176
     1
173
     0
176
     1
  0
VISUALSTYLE
  5
3A
102
{ACAD_REACTORS
330
2A
102
}
330
2A
100
AcDbVisualStyle
  2
ColorChange
 70
    16
177
     2
291
     1
 71
     2
176
     1
 72
     2
176
     1
 73
     3
176
     1
 90
        0
176
     1
 40
-0.6
176
     1
 41
-30.0
176
     1
 62
     5
 63
     8
421
  8421504
176
     1
 74
     1
176
     1
 91
        4
176
     1
 64
     7
176
     1
 65
   257
176
     1
 75
     1
176
     1
175
     1
176
     1
 42
1.0
176
     1
 92
        8
176
     1
 66
     8
424
  8421504
176
     1
 43
1.0
176
     1
 76
     1
176
     1
 77
     6
176
     1
 78
     2
176
     1
 67
     7
176
     1
 79
     5
176
     1
170
     0
176
     1
171
     0
176
     1
290
     0
176
     1
 93
        1
176
     1
 44
0.0
176
     1
173
     0
176
     1
  0
VISUALSTYLE
  5
34
102
{ACAD_REACTORS
330
2A
102
}
330
2A
100
AcDbVisualStyle
  2
Conceptual
 70
     9
177
     2
291
     0
 71
     3
176
     1
 72
     2
176
     1
 73
     0
176
     1
 90
        0
176
     1
 40
-0.6
176
     1
 41
-30.0
176
     1
 62
     5
 63
     7
421
 16777215
176
     1
 74
     2
176
     1
 91
        2
176
     1
 64
     7
176
     1
 65
   257
176
     1
 75
     1
176
     1
175
     1
176
     1
 42
40.0
176
     1
 92
        8
176
     1
 66
     7
176
     1
 43
1.0
176
     1
 76
     1
176
     1
 77
     6
176
     1
 78
     2
176
     1
 67
     7
176
     1
 79
     3
176
     1
170
     0
176
     1
171
     0
176
     1
290
     0
176
     1
 93
        1
176
     1
 44
0.0
176
     1
173
     0
176
     1
  0
VISUALSTYLE
  5
35
102
{ACAD_REACTORS
330
2A
102
}
330
2A
100
AcDbVisualStyle
  2
Dim
 70
    11
177
     2
291
     1
 71
     2
176
     1
 72
     2
176
     1
 73
     0
176
     1
 90
        0
176
     1
 40
-0.6
176
     1
 41
-30.0
176
     1
 62
     5
 63
     7
421
 16777215
176
     1
 74
     1
176
     1
 91
        4
176
     1
 64
     7
176
     1
 65
   257
176
     1
 75
     1
176
     1
175
     1
176
     1
 42
1.0
176
     1
 92
        8
176
     1
 66
     7
176
     1
 43
1.0
176
     1
 76
     1
176
     1
 77
     6
176
     1
 78
     2
176
     1
 67
     7
176
     1
 79
     5
176
     1
170
     0
176
     1
171
     0
176
     1
290
     0
176
     1
 93
        1
176
     1
 44
-50.0
176
     1
173
     0
176
     1
  0
VISUALSTYLE
  5
39
102
{ACAD_REACTORS
330
2A
102
}
330
2A
100
AcDbVisualStyle
  2
Facepattern
 70
    15
177
     2
291
     1
 71
     2
176
     1
 72
     2
176
     1
 73
     0
176
     1
 90
        0
176
     1
 40
-0.6
176
     1
 41
-30.0
176
     1
 62
     5
 63
     7
421
 16777215
176
     1
 74
     1
176
     1
 91
        4
176
     1
 64
     7
176
     1
 65
   257
176
     1
 75
     1
176
     1
175
     1
176
     1
 42
1.0
176
     1
 92
        8
176
     1
 66
     7
176
     1
 43
1.0
176
     1
 76
     1
176
     1
 77
     6
176
     1
 78
     2
176
     1
 67
     7
176
     1
 79
     5
176
     1
170
     0
176
     1
171
     0
176
     1
290
     0
176
     1
 93
        1
176
     1
 44
0.0
176
     1
173
     0
176
     1
  0
VISUALSTYLE
  5
2B
102
{ACAD_REACTORS
330
2A
102
}
330
2A
100
AcDbVisualStyle
  2
Flat
 70
     0
177
     2
291
     1
 71
     2
176
     1
 72
     1
176
     1
 73
     1
176
     1
 90
        2
176
     1
 40
-0.6
176
     1
 41
30.0
176
     1
 62
     5
 63
     7
421
 16777215
176
     1
 74
     0
176
     1
 91
        4
176
     1
 64
     7
176
     1
 65
   257
176
     1
 75
     1
176
     1
175
     1
176
     1
 42
1.0
176
     1
 92
        8
176
     1
 66
     7
176
     1
 43
1.0
176
     1
 76
     1
176
     1
 77
     6
176
     1
 78
     2
176
     1
 67
     7
176
     1
 79
     5
176
     1
170
     0
176
     1
171
     0
176
     1
290
     0
176
     1
 93
       13
176
     1
 44
0.0
176
     1
173
     0
176
     1
  0
VISUALSTYLE
  5
2C
102
{ACAD_REACTORS
330
2A
102
}
330
2A
100
AcDbVisualStyle
  2
FlatWithEdges
 70
     1
177
     2
291
     1
 71
     2
176
     1
 72
     1
176
     1
 73
     1
176
     1
 90
        2
176
     1
 40
-0.6
176
     1
 41
30.0
176
     1
 62
     5
 63
     7
421
 16777215
176
     1
 74
     1
176
     1
 91
        4
176
     1
 64
     7
176
     1
 65
   257
176
     1
 75
     1
176
     1
175
     1
176
     1
 42
1.0
176
     1
 92
        0
176
     1
 66
   257
176
     1
 43
1.0
176
     1
 76
     1
176
     1
 77
     6
176
     1
 78
     2
176
     1
 67
     7
176
     1
 79
     5
176
     1
170
     0
176
     1
171
     0
176
     1
290
     0
176
     1
 93
       13
176
     1
 44
0.0
176
     1
173
     0
176
     1
  0
VISUALSTYLE
  5
2D
102
{ACAD_REACTORS
330
2A
102
}
330
2A
100
AcDbVisualStyle
  2
Gouraud
 70
     2
177
     2
291
     1
 71
     2
176
     1
 72
     2
176
     1
 73
     1
176
     1
 90
        2
176
     1
 40
-0.6
176
     1
 41
30.0
176
     1
 62
     5
 63
     7
421
 16777215
176
     1
 74
     0
176
     1
 91
        4
176
     1
 64
     7
176
     1
 65
   257
176
     1
 75
     1
176
     1
175
     1
176
     1
 42
1.0
176
     1
 92
        0
176
     1
 66
     7
176
     1
 43
1.0
176
     1
 76
     1
176
     1
 77
     6
176
     1
 78
     2
176
     1
 67
     7
176
     1
 79
     5
176
     1
170
     0
176
     1
171
     0
176
     1
290
     0
176
     1
 93
       13
176
     1
 44
0.0
176
     1
173
     0
176
     1
  0
VISUALSTYLE
  5
2E
102
{ACAD_REACTORS
330
2A
102
}
330
2A
100
AcDbVisualStyle
  2
GouraudWithEdges
 70
     3
177
     2
291
     1
 71
     2
176
     1
 72
     2
176
     1
 73
     1
176
     1
 90
        2
176
     1
 40
-0.6
176
     1
 41
30.0
176
     1
 62
     5
 63
     7
421
 16777215
176
     1
 74
     1
176
     1
 91
        4
176
     1
 64
     7
176
     1
 65
   257
176
     1
 75
     1
176
     1
175
     1
176
     1
 42
1.0
176
     1
 92
        0
176
     1
 66
   257
176
     1
 43
1.0
176
     1
 76
     1
176
     1
 77
     6
176
     1
 78
     2
176
     1
 67
     7
176
     1
 79
     5
176
     1
170
     0
176
     1
171
     0
176
     1
290
     0
176
     1
 93
       13
176
     1
 44
0.0
176
     1
173
     0
176
     1
  0
VISUALSTYLE
  5
38
102
{ACAD_REACTORS
330
2A
102
}
330
2A
100
AcDbVisualStyle
  2
Linepattern
 70
    14
177
     2
291
     1
 71
     2
176
     1
 72
     2
176
     1
 73
     0
176
     1
 90
        0
176
     1
 40
-0.6
176
     1
 41
-30.0
176
     1
 62
     5
 63
     7
421
 16777215
176
     1
 74
     1
176
     1
 91
        4
176
     1
 64
     7
176
     1
 65
   257
176
     1
 75
     7
176
     1
175
     7
176
     1
 42
1.0
176
     1
 92
        8
176
     1
 66
     7
176
     1
 43
1.0
176
     1
 76
     1
176
     1
 77
     6
176
     1
 78
     2
176
     1
 67
     7
176
     1
 79
     5
176
     1
170
     0
176
     1
171
     0
176
     1
290
     0
176
     1
 93
        1
176
     1
 44
0.0
176
     1
173
     0
176
     1
  0
VISUALSTYLE
  5
33
102
{ACAD_REACTORS
330
2A
102
}
330
2A
100
AcDbVisualStyle
  2
Realistic
 70
     8
177
     2
291
     0
 71
     2
176
     1
 72
     2
176
     1
 73
     0
176
     1
 90
        0
176
     1
 40
-0.6
176
     1
 41
-30.0
176
     1
 62
     5
 63
     7
421
 16777215
176
     1
 74
     1
176
     1
 91
        0
176
     1
 64
     7
176
     1
 65
   257
176
     1
 75
     1
176
     1
175
     1
176
     1
 42
1.0
176
     1
 92
        8
176
     1
 66
     8
424
  7895160
176
     1
 43
1.0
176
     1
 76
     1
176
     1
 77
     6
176
     1
 78
     2
176
     1
 67
     7
176
     1
 79
     5
176
     1
170
     0
176
     1
171
     0
176
     1
290
     0
176
     1
 93
       13
176
     1
 44
0.0
176
     1
173
     0
176
     1
  0
VISUALSTYLE
  5
37
102
{ACAD_REACTORS
330
2A
102
}
330
2A
100
AcDbVisualStyle
  2
Thicken
 70
    13
177
     2
291
     1
 71
     2
176
     1
 72
     2
176
     1
 73
     0
176
     1
 90
        0
176
     1
 40
-0.6
176
     1
 41
-30.0
176
     1
 62
     5
 63
     7
421
 16777215
176
     1
 74
     1
176
     1
 91
        4
176
     1
 64
     7
176
     1
 65
   257
176
     1
 75
     1
176
     1
175
     1
176
     1
 42
1.0
176
     1
 92
       12
176
     1
 66
     7
176
     1
 43
1.0
176
     1
 76
     1
176
     1
 77
     6
176
     1
 78
     2
176
     1
 67
     7
176
     1
 79
     5
176
     1
170
     0
176
     1
171
     0
176
     1
290
     0
176
     1
 93
        1
176
     1
 44
0.0
176
     1
173
     0
176
     1
  0
ENDSEC
  0
EOF
