  0
SECTION
  2
HEADER
  9
$ACADVER
  1
AC1024
  9
$ACADMAINTVER
 70
     6
  9
$DWGCODEPAGE
  3
ANSI_932
  9
$INSBASE
 10
0.0
 20
0.0
 30
0.0
  9
$EXTMIN
 10
-8910.0
 20
-6300.0
 30
0.0
  9
$EXTMAX
 10
8910.0
 20
6300.0
 30
0.0
  9
$LIMMIN
 10
-8910.0
 20
-6300.0
  9
$LIMMAX
 10
8910.0
 20
6300.0
  9
$ORTHOMODE
 70
     0
  9
$REGENMODE
 70
     1
  9
$FILLMODE
 70
     1
  9
$QTEXTMODE
 70
     0
  9
$MIRRTEXT
 70
     1
  9
$LTSCALE
 40
30.0
  9
$ATTMODE
 70
     1
  9
$TEXTSIZE
 40
2.5
  9
$TRACEWID
 40
1.0
  9
$TEXTSTYLE
  7
Standard
  9
$CLAYER
  8
0
  9
$CELTYPE
  6
ByLayer
  9
$CECOLOR
 62
   256
  9
$CELTSCALE
 40
1.0
  9
$DISPSILH
 70
     0
  9
$DIMSCALE
 40
1.0
  9
$DIMASZ
 40
2.5
  9
$DIMEXO
 40
0.625
  9
$DIMDLI
 40
3.75
  9
$DIMRND
 40
0.0
  9
$DIMDLE
 40
0.0
  9
$DIMEXE
 40
1.25
  9
$DIMTP
 40
0.0
  9
$DIMTM
 40
0.0
  9
$DIMTXT
 40
2.5
  9
$DIMCEN
 40
2.5
  9
$DIMTSZ
 40
0.0
  9
$DIMTOL
 70
     0
  9
$DIMLIM
 70
     0
  9
$DIMTIH
 70
     0
  9
$DIMTOH
 70
     0
  9
$DIMSE1
 70
     0
  9
$DIMSE2
 70
     0
  9
$DIMTAD
 70
     1
  9
$DIMZIN
 70
     8
  9
$DIMBLK
  1

  9
$DIMASO
 70
     1
  9
$DIMSHO
 70
     1
  9
$DIMPOST
  1

  9
$DIMAPOST
  1

  9
$DIMALT
 70
     0
  9
$DIMALTD
 70
     3
  9
$DIMALTF
 40
0.03937007874016
  9
$DIMLFAC
 40
1.0
  9
$DIMTOFL
 70
     1
  9
$DIMTVP
 40
0.0
  9
$DIMTIX
 70
     0
  9
$DIMSOXD
 70
     0
  9
$DIMSAH
 70
     0
  9
$DIMBLK1
  1

  9
$DIMBLK2
  1

  9
$DIMSTYLE
  2
ISO-25
  9
$DIMCLRD
 70
     0
  9
$DIMCLRE
 70
     0
  9
$DIMCLRT
 70
     0
  9
$DIMTFAC
 40
1.0
  9
$DIMGAP
 40
0.625
  9
$DIMJUST
 70
     0
  9
$DIMSD1
 70
     0
  9
$DIMSD2
 70
     0
  9
$DIMTOLJ
 70
     0
  9
$DIMTZIN
 70
     8
  9
$DIMALTZ
 70
     0
  9
$DIMALTTZ
 70
     0
  9
$DIMUPT
 70
     0
  9
$DIMDEC
 70
     2
  9
$DIMTDEC
 70
     2
  9
$DIMALTU
 70
     2
  9
$DIMALTTD
 70
     3
  9
$DIMTXSTY
  7
Standard
  9
$DIMAUNIT
 70
     0
  9
$DIMADEC
 70
     0
  9
$DIMALTRND
 40
0.0
  9
$DIMAZIN
 70
     0
  9
$DIMDSEP
 70
    44
  9
$DIMATFIT
 70
     3
  9
$DIMFRAC
 70
     0
  9
$DIMLDRBLK
  1

  9
$DIMLUNIT
 70
     2
  9
$DIMLWD
 70
    -2
  9
$DIMLWE
 70
    -2
  9
$DIMTMOVE
 70
     0
  9
$DIMFXL
 40
1.0
  9
$DIMFXLON
 70
     0
  9
$DIMJOGANG
 40
0.7853981633974483
  9
$DIMTFILL
 70
     0
  9
$DIMTFILLCLR
 70
     0
  9
$DIMARCSYM
 70
     0
  9
$DIMLTYPE
  6

  9
$DIMLTEX1
  6

  9
$DIMLTEX2
  6

  9
$DIMTXTDIRECTION
 70
     0
  9
$LUNITS
 70
     2
  9
$LUPREC
 70
     4
  9
$SKETCHINC
 40
1.0
  9
$FILLETRAD
 40
10.0
  9
$AUNITS
 70
     0
  9
$AUPREC
 70
     0
  9
$MENU
  1
.
  9
$ELEVATION
 40
0.0
  9
$PELEVATION
 40
0.0
  9
$THICKNESS
 40
0.0
  9
$LIMCHECK
 70
     0
  9
$CHAMFERA
 40
10.0
  9
$CHAMFERB
 40
10.0
  9
$CHAMFERC
 40
20.0
  9
$CHAMFERD
 40
0.0
  9
$SKPOLY
 70
     0
  9
$TDCREATE
 40
2459720.609949815
  9
$TDUCREATE
 40
2459720.234949815
  9
$TDUPDATE
 40
2459720.609949826
  9
$TDUUPDATE
 40
2459720.234949826
  9
$TDINDWG
 40
0.0000000116
  9
$TDUSRTIMER
 40
0.0000000116
  9
$USRTIMER
 70
     1
  9
$ANGBASE
 50
0.0
  9
$ANGDIR
 70
     0
  9
$PDMODE
 70
     0
  9
$PDSIZE
 40
0.0
  9
$PLINEWID
 40
0.0
  9
$SPLFRAME
 70
     0
  9
$SPLINETYPE
 70
     6
  9
$SPLINESEGS
 70
     8
  9
$HANDSEED
  5
59C
  9
$SURFTAB1
 70
     6
  9
$SURFTAB2
 70
     6
  9
$SURFTYPE
 70
     6
  9
$SURFU
 70
     6
  9
$SURFV
 70
     6
  9
$UCSBASE
  2

  9
$UCSNAME
  2

  9
$UCSORG
 10
0.0
 20
0.0
 30
0.0
  9
$UCSXDIR
 10
1.0
 20
0.0
 30
0.0
  9
$UCSYDIR
 10
0.0
 20
1.0
 30
0.0
  9
$UCSORTHOREF
  2

  9
$UCSORTHOVIEW
 70
     0
  9
$UCSORGTOP
 10
0.0
 20
0.0
 30
0.0
  9
$UCSORGBOTTOM
 10
0.0
 20
0.0
 30
0.0
  9
$UCSORGLEFT
 10
0.0
 20
0.0
 30
0.0
  9
$UCSORGRIGHT
 10
0.0
 20
0.0
 30
0.0
  9
$UCSORGFRONT
 10
0.0
 20
0.0
 30
0.0
  9
$UCSORGBACK
 10
0.0
 20
0.0
 30
0.0
  9
$PUCSBASE
  2

  9
$PUCSNAME
  2

  9
$PUCSORG
 10
0.0
 20
0.0
 30
0.0
  9
$PUCSXDIR
 10
1.0
 20
0.0
 30
0.0
  9
$PUCSYDIR
 10
0.0
 20
1.0
 30
0.0
  9
$PUCSORTHOREF
  2

  9
$PUCSORTHOVIEW
 70
     0
  9
$PUCSORGTOP
 10
0.0
 20
0.0
 30
0.0
  9
$PUCSORGBOTTOM
 10
0.0
 20
0.0
 30
0.0
  9
$PUCSORGLEFT
 10
0.0
 20
0.0
 30
0.0
  9
$PUCSORGRIGHT
 10
0.0
 20
0.0
 30
0.0
  9
$PUCSORGFRONT
 10
0.0
 20
0.0
 30
0.0
  9
$PUCSORGBACK
 10
0.0
 20
0.0
 30
0.0
  9
$USERI1
 70
     0
  9
$USERI2
 70
     0
  9
$USERI3
 70
     0
  9
$USERI4
 70
     0
  9
$USERI5
 70
     0
  9
$USERR1
 40
0.0
  9
$USERR2
 40
0.0
  9
$USERR3
 40
0.0
  9
$USERR4
 40
0.0
  9
$USERR5
 40
0.0
  9
$WORLDVIEW
 70
     1
  9
$SHADEDGE
 70
     3
  9
$SHADEDIF
 70
    70
  9
$TILEMODE
 70
     1
  9
$MAXACTVP
 70
    64
  9
$PINSBASE
 10
0.0
 20
0.0
 30
0.0
  9
$PLIMCHECK
 70
     0
  9
$PEXTMIN
 10
1.000000000000000E+20
 20
1.000000000000000E+20
 30
1.000000000000000E+20
  9
$PEXTMAX
 10
-1.000000000000000E+20
 20
-1.000000000000000E+20
 30
-1.000000000000000E+20
  9
$PLIMMIN
 10
0.0
 20
0.0
  9
$PLIMMAX
 10
420.0
 20
297.0
  9
$UNITMODE
 70
     0
  9
$VISRETAIN
 70
     1
  9
$PLINEGEN
 70
     0
  9
$PSLTSCALE
 70
     1
  9
$TREEDEPTH
 70
  3020
  9
$CMLSTYLE
  2
Standard
  9
$CMLJUST
 70
     0
  9
$CMLSCALE
 40
20.0
  9
$PROXYGRAPHICS
 70
     1
  9
$MEASUREMENT
 70
     1
  9
$CELWEIGHT
370
    -1
  9
$ENDCAPS
280
     0
  9
$JOINSTYLE
280
     0
  9
$LWDISPLAY
290
     0
  9
$INSUNITS
 70
     4
  9
$HYPERLINKBASE
  1

  9
$STYLESHEET
  1

  9
$XEDIT
290
     1
  9
$CEPSNTYPE
380
     0
  9
$PSTYLEMODE
290
     1
  9
$FINGERPRINTGUID
  2
{4E1E385A-2BDB-44F0-9133-E79FF1F74851}
  9
$VERSIONGUID
  2
{FAEB1C32-E019-11D5-929B-00C0DF256EC4}
  9
$EXTNAMES
290
     1
  9
$PSVPSCALE
 40
0.0
  9
$OLESTARTUP
290
     0
  9
$SORTENTS
280
   127
  9
$INDEXCTL
280
     0
  9
$HIDETEXT
280
     1
  9
$XCLIPFRAME
280
     2
  9
$HALOGAP
280
     0
  9
$OBSCOLOR
 70
   257
  9
$OBSLTYPE
280
     0
  9
$INTERSECTIONDISPLAY
280
     0
  9
$INTERSECTIONCOLOR
 70
   257
  9
$DIMASSOC
280
     2
  9
$PROJECTNAME
  1

  9
$CAMERADISPLAY
290
     0
  9
$LENSLENGTH
 40
50.0
  9
$CAMERAHEIGHT
 40
0.0
  9
$STEPSPERSEC
 40
2.0
  9
$STEPSIZE
 40
6.0
  9
$3DDWFPREC
 40
2.0
  9
$PSOLWIDTH
 40
5.0
  9
$PSOLHEIGHT
 40
80.0
  9
$LOFTANG1
 40
1.570796326794897
  9
$LOFTANG2
 40
1.570796326794897
  9
$LOFTMAG1
 40
0.0
  9
$LOFTMAG2
 40
0.0
  9
$LOFTPARAM
 70
     7
  9
$LOFTNORMALS
280
     1
  9
$LATITUDE
 40
37.795
  9
$LONGITUDE
 40
-122.394
  9
$NORTHDIRECTION
 40
0.0
  9
$TIMEZONE
 70
 -8000
  9
$LIGHTGLYPHDISPLAY
280
     1
  9
$TILEMODELIGHTSYNCH
280
     1
  9
$SOLIDHIST
280
     1
  9
$SHOWHIST
280
     1
  9
$DWFFRAME
280
     2
  9
$DGNFRAME
280
     2
  9
$REALWORLDSCALE
290
     1
  9
$INTERFERECOLOR
 62
   256
  9
$CSHADOW
280
     0
  9
$SHADOWPLANELOCATION
 40
0.0
  0
ENDSEC
  0
SECTION
  2
CLASSES
  0
CLASS
  1
ACDBDICTIONARYWDFLT
  2
AcDbDictionaryWithDefault
  3
ObjectDBX Classes
 90
        0
 91
        4
280
     0
281
     0
  0
CLASS
  1
VISUALSTYLE
  2
AcDbVisualStyle
  3
ObjectDBX Classes
 90
     4095
 91
        4
280
     0
281
     0
  0
CLASS
  1
MATERIAL
  2
AcDbMaterial
  3
ObjectDBX Classes
 90
     1153
 91
        4
280
     0
281
     0
  0
ENDSEC
  0
SECTION
  2
TABLES
  0
TABLE
  2
VPORT
  5
8
330
0
100
AcDbSymbolTable
 70
     1
  0
VPORT
  5
29
330
8
100
AcDbSymbolTableRecord
100
AcDbViewportTableRecord
  2
*Active
 70
     0
 10
0.0
 20
0.0
 11
1.0
 21
1.0
 12
0.0
 22
0.0
 13
0.0
 23
0.0
 14
10.0
 24
10.0
 15
10.0
 25
10.0
 16
0.0
 26
0.0
 36
1.0
 17
0.0
 27
0.0
 37
0.0
 40
13860.0
 41
1.414285714285714
 42
50.0
 43
0.0
 44
0.0
 50
0.0
 51
0.0
 71
     0
 72
 10000
 73
     1
 74
     3
 75
     0
 76
     0
 77
     0
 78
     0
281
     0
 65
     1
110
0.0
120
0.0
130
0.0
111
1.0
121
0.0
131
0.0
112
0.0
122
1.0
132
0.0
 79
     0
146
0.0
 60
     3
 61
     5
292
     1
282
     1
141
0.0
142
0.0
 63
   250
  0
ENDTAB
  0
TABLE
  2
LTYPE
  5
5
330
0
100
AcDbSymbolTable
 70
     5
  0
LTYPE
  5
14
330
5
100
AcDbSymbolTableRecord
100
AcDbLinetypeTableRecord
  2
ByBlock
 70
     0
  3

 72
    65
 73
     0
 40
0.0
  0
LTYPE
  5
15
330
5
100
AcDbSymbolTableRecord
100
AcDbLinetypeTableRecord
  2
ByLayer
 70
     0
  3

 72
    65
 73
     0
 40
0.0
  0
LTYPE
  5
16
330
5
100
AcDbSymbolTableRecord
100
AcDbLinetypeTableRecord
  2
Continuous
 70
     0
  3
Solid line
 72
    65
 73
     0
 40
0.0
  0
LTYPE
  5
3F
330
5
100
AcDbSymbolTableRecord
100
AcDbLinetypeTableRecord
  2
JWW_HOJO
 70
     0
  3
  -   -   -   -   -   -   -   - 
 72
    65
 73
     2
 40
1.693333333333333
 49
-1.27
 74
     0
 49
0.4233333333333333
 74
     0
  0
LTYPE
  5
40
330
5
100
AcDbSymbolTableRecord
100
AcDbLinetypeTableRecord
  2
JWW_DASHED1
 70
     0
  3
-  --  --  --  --  --  --  --  -
 72
    65
 73
     2
 40
1.693333333333333
 49
0.8466666666666667
 74
     0
 49
-0.8466666666666667
 74
     0
  0
LTYPE
  5
41
330
5
100
AcDbSymbolTableRecord
100
AcDbLinetypeTableRecord
  2
JWW_DASHED2
 70
     0
  3
--    ----    ----    ----    --
 72
    65
 73
     2
 40
3.386666666666667
 49
1.693333333333333
 74
     0
 49
-1.693333333333333
 74
     0
  0
LTYPE
  5
42
330
5
100
AcDbSymbolTableRecord
100
AcDbLinetypeTableRecord
  2
JWW_CENTER1
 70
     0
  3
-----  --  ----------  --  -----
 72
    65
 73
     4
 40
6.773333333333333
 49
4.233333333333333
 74
     0
 49
-0.8466666666666667
 74
     0
 49
0.8466666666666667
 74
     0
 49
-0.8466666666666667
 74
     0
  0
ENDTAB
  0
TABLE
  2
LAYER
  5
2
330
0
100
AcDbSymbolTable
 70
    22
  0
LAYER
  5
10
330
2
100
AcDbSymbolTableRecord
100
AcDbLayerTableRecord
  2
0
 70
     0
 62
     7
  6
Continuous
370
    -3
390
F
347
3E
  0
LAYER
  5
43
330
2
100
AcDbSymbolTableRecord
100
AcDbLayerTableRecord
  2
0-0_補助線
 70
     0
 62
     7
  6
Continuous
370
    -3
390
F
347
3E
  0
LAYER
  5
44
330
2
100
AcDbSymbolTableRecord
100
AcDbLayerTableRecord
  2
F-A_文字
 70
     0
 62
     7
  6
Continuous
370
    -3
390
F
347
3E
  0
LAYER
  5
45
330
2
100
AcDbSymbolTableRecord
100
AcDbLayerTableRecord
  2
F-0_補助線
 70
     0
 62
     7
  6
Continuous
370
    -3
390
F
347
3E
  0
LAYER
  5
46
330
2
100
AcDbSymbolTableRecord
100
AcDbLayerTableRecord
  2
F-1_枠
 70
     0
 62
     7
  6
Continuous
370
    -3
390
F
347
3E
  0
LAYER
  5
47
330
2
100
AcDbSymbolTableRecord
100
AcDbLayerTableRecord
  2
0-6_扉
 70
     0
 62
     7
  6
Continuous
370
    -3
390
F
347
3E
  0
LAYER
  5
48
330
2
100
AcDbSymbolTableRecord
100
AcDbLayerTableRecord
  2
0-C_ハッチ
 70
     0
 62
     7
  6
Continuous
370
    -3
390
F
347
3E
  0
LAYER
  5
49
330
2
100
AcDbSymbolTableRecord
100
AcDbLayerTableRecord
  2
0-7_金物
 70
     0
 62
     7
  6
Continuous
370
    -3
390
F
347
3E
  0
LAYER
  5
4A
330
2
100
AcDbSymbolTableRecord
100
AcDbLayerTableRecord
  2
0-3_仕上げ
 70
     0
 62
     7
  6
Continuous
370
    -3
390
F
347
3E
  0
LAYER
  5
4B
330
2
100
AcDbSymbolTableRecord
100
AcDbLayerTableRecord
  2
0-1_通り芯
 70
     0
 62
     7
  6
Continuous
370
    -3
390
F
347
3E
  0
LAYER
  5
4C
330
2
100
AcDbSymbolTableRecord
100
AcDbLayerTableRecord
  2
0-2_柱
 70
     0
 62
     7
  6
Continuous
370
    -3
390
F
347
3E
  0
LAYER
  5
4D
330
2
100
AcDbSymbolTableRecord
100
AcDbLayerTableRecord
  2
0-A_文字
 70
     0
 62
     7
  6
Continuous
370
    -3
390
F
347
3E
  0
LAYER
  5
4E
330
2
100
AcDbSymbolTableRecord
100
AcDbLayerTableRecord
  2
0-4_枠
 70
     0
 62
     7
  6
Continuous
370
    -3
390
F
347
3E
  0
LAYER
  5
4F
330
2
100
AcDbSymbolTableRecord
100
AcDbLayerTableRecord
  2
0-B_寸法
 70
     0
 62
     7
  6
Continuous
370
    -3
390
F
347
3E
  0
LAYER
  5
50
330
2
100
AcDbSymbolTableRecord
100
AcDbLayerTableRecord
  2
1-6_扉
 70
     0
 62
     7
  6
Continuous
370
    -3
390
F
347
3E
  0
LAYER
  5
51
330
2
100
AcDbSymbolTableRecord
100
AcDbLayerTableRecord
  2
1-A_文字
 70
     0
 62
     7
  6
Continuous
370
    -3
390
F
347
3E
  0
LAYER
  5
52
330
2
100
AcDbSymbolTableRecord
100
AcDbLayerTableRecord
  2
1-B_寸法
 70
     0
 62
     7
  6
Continuous
370
    -3
390
F
347
3E
  0
LAYER
  5
53
330
2
100
AcDbSymbolTableRecord
100
AcDbLayerTableRecord
  2
1-7_金物
 70
     0
 62
     7
  6
Continuous
370
    -3
390
F
347
3E
  0
LAYER
  5
54
330
2
100
AcDbSymbolTableRecord
100
AcDbLayerTableRecord
  2
1-4_枠
 70
     0
 62
     7
  6
Continuous
370
    -3
390
F
347
3E
  0
LAYER
  5
55
330
2
100
AcDbSymbolTableRecord
100
AcDbLayerTableRecord
  2
1-1_通り芯
 70
     0
 62
     7
  6
Continuous
370
    -3
390
F
347
3E
  0
LAYER
  5
56
330
2
100
AcDbSymbolTableRecord
100
AcDbLayerTableRecord
  2
1-0_補助線
 70
     0
 62
     7
  6
Continuous
370
    -3
390
F
347
3E
  0
LAYER
  5
57
330
2
100
AcDbSymbolTableRecord
100
AcDbLayerTableRecord
  2
1-3_仕上げ
 70
     0
 62
     7
  6
Continuous
370
    -3
390
F
347
3E
  0
ENDTAB
  0
TABLE
  2
STYLE
  5
3
330
0
100
AcDbSymbolTable
 70
     1
  0
STYLE
  5
11
330
3
100
AcDbSymbolTableRecord
100
AcDbTextStyleTableRecord
  2
Standard
 70
     0
 40
0.0
 41
1.0
 50
0.0
 71
     0
 42
2.5
  3
txt
  4

  0
ENDTAB
  0
TABLE
  2
VIEW
  5
6
330
0
100
AcDbSymbolTable
 70
     0
  0
ENDTAB
  0
TABLE
  2
UCS
  5
7
330
0
100
AcDbSymbolTable
 70
     0
  0
ENDTAB
  0
TABLE
  2
APPID
  5
9
330
0
100
AcDbSymbolTable
 70
     1
  0
APPID
  5
12
330
9
100
AcDbSymbolTableRecord
100
AcDbRegAppTableRecord
  2
ACAD
 70
     0
  0
ENDTAB
  0
TABLE
  2
DIMSTYLE
  5
A
330
0
100
AcDbSymbolTable
 70
     1
100
AcDbDimStyleTable
  0
DIMSTYLE
105
27
330
A
100
AcDbSymbolTableRecord
100
AcDbDimStyleTableRecord
  2
ISO-25
 70
     0
 41
2.5
 42
0.625
 43
3.75
 44
1.25
 73
     0
 74
     0
 77
     1
 78
     8
140
2.5
141
2.5
143
0.03937007874016
147
0.625
171
     3
172
     1
178
     0
271
     2
272
     2
274
     3
278
    44
283
     0
284
     8
340
11
  0
ENDTAB
  0
TABLE
  2
BLOCK_RECORD
  5
1
330
0
100
AcDbSymbolTable
 70
     1
  0
BLOCK_RECORD
  5
1F
330
1
100
AcDbSymbolTableRecord
100
AcDbBlockTableRecord
  2
*Model_Space
340
22
 70
     0
280
     1
281
     0
  0
BLOCK_RECORD
  5
1B
330
1
100
AcDbSymbolTableRecord
100
AcDbBlockTableRecord
  2
*Paper_Space
340
1E
 70
     0
280
     1
281
     0
  0
BLOCK_RECORD
  5
23
330
1
100
AcDbSymbolTableRecord
100
AcDbBlockTableRecord
  2
*Paper_Space0
340
26
 70
     0
280
     1
281
     0
  0
ENDTAB
  0
ENDSEC
  0
SECTION
  2
BLOCKS
  0
BLOCK
  5
20
330
1F
100
AcDbEntity
  8
0
100
AcDbBlockBegin
  2
*Model_Space
 70
     0
 10
0.0
 20
0.0
 30
0.0
  3
*Model_Space
  1

  0
ENDBLK
  5
21
330
1F
100
AcDbEntity
  8
0
100
AcDbBlockEnd
  0
BLOCK
  5
1C
330
1B
100
AcDbEntity
 67
     1
  8
0
100
AcDbBlockBegin
  2
*Paper_Space
 70
     0
 10
0.0
 20
0.0
 30
0.0
  3
*Paper_Space
  1

  0
ENDBLK
  5
1D
330
1B
100
AcDbEntity
 67
     1
  8
0
100
AcDbBlockEnd
  0
BLOCK
  5
24
330
23
100
AcDbEntity
  8
0
100
AcDbBlockBegin
  2
*Paper_Space0
 70
     0
 10
0.0
 20
0.0
 30
0.0
  3
*Paper_Space0
  1

  0
ENDBLK
  5
25
330
23
100
AcDbEntity
  8
0
100
AcDbBlockEnd
  0
ENDSEC
  0
SECTION
  2
ENTITIES
  0
LINE
  5
58
330
1F
100
AcDbEntity
  8
0-0_補助線
  6
JWW_HOJO
 62
   120
370
     5
100
AcDbLine
 10
-2581.334868081911
 20
1091.962331356172
 30
0.0
 11
2581.33561040138
 21
1091.962331356172
 31
0.0
  0
MTEXT
  5
59
330
1F
100
AcDbEntity
  8
F-A_文字
  6
Continuous
 62
     7
370
     0
100
AcDbMText
 10
1394.917396372138
 20
-4096.140669266149
 30
0.0
 40
45.72
 41
120.0
 46
0.0
 71
     7
 72
     1
  1
{\fＭＳ ゴシック|b0|i0|c128|p49;株式}
 73
     1
 44
1.0
  0
LINE
  5
5A
330
1F
100
AcDbEntity
  8
F-0_補助線
  6
JWW_HOJO
 62
   120
370
     5
100
AcDbLine
 10
-6140.081333436773
 20
-4455.0
 30
0.0
 11
-6140.081333436773
 21
4424.999604096284
 31
0.0
  0
LINE
  5
5B
330
1F
100
AcDbEntity
  8
F-0_補助線
  6
JWW_HOJO
 62
   120
370
     5
100
AcDbLine
 10
-6140.081333436773
 20
4424.999604096284
 30
0.0
 11
6159.917676803936
 21
4424.999604096284
 31
0.0
  0
LINE
  5
5C
330
1F
100
AcDbEntity
  8
F-0_補助線
  6
JWW_HOJO
 62
   120
370
     5
100
AcDbLine
 10
6159.917676803936
 20
4424.999604096284
 30
0.0
 11
6159.917676803936
 21
-4455.0
 31
0.0
  0
LINE
  5
5D
330
1F
100
AcDbEntity
  8
F-0_補助線
  6
JWW_HOJO
 62
   120
370
     5
100
AcDbLine
 10
6159.917676803936
 20
-4455.0
 30
0.0
 11
-6140.081333436773
 21
-4455.0
 31
0.0
  0
LINE
  5
5E
330
1F
100
AcDbEntity
  8
F-0_補助線
  6
JWW_HOJO
 62
     7
370
     9
100
AcDbLine
 10
509.9185840832865
 20
-3795.000003092998
 30
0.0
 11
509.9185840832865
 21
-4195.000008247994
 31
0.0
  0
LINE
  5
5F
330
1F
100
AcDbEntity
  8
F-1_枠
  6
Continuous
 62
   200
370
    20
100
AcDbLine
 10
5859.917429364114
 20
4174.999769056166
 30
0.0
 11
5859.917429364114
 21
-4205.000164959882
 31
0.0
  0
LINE
  5
60
330
1F
100
AcDbEntity
  8
F-1_枠
  6
Continuous
 62
   200
370
    20
100
AcDbLine
 10
-5840.081317971782
 20
4174.999769056166
 30
0.0
 11
-5840.081317971782
 21
-4205.000164959882
 31
0.0
  0
LINE
  5
61
330
1F
100
AcDbEntity
  8
F-1_枠
  6
Continuous
 62
   200
370
    20
100
AcDbLine
 10
5859.917429364114
 20
-4205.000002577498
 30
0.0
 11
-5840.081085996952
 21
-4205.000002577498
 31
0.0
  0
LINE
  5
62
330
1F
100
AcDbEntity
  8
F-1_枠
  6
Continuous
 62
   200
370
    20
100
AcDbLine
 10
-5830.081323642279
 20
4174.999769056166
 30
0.0
 11
-5830.081323642279
 21
-4205.000164959882
 31
0.0
  0
LINE
  5
63
330
1F
100
AcDbEntity
  8
F-1_枠
  6
Continuous
 62
   200
370
    20
100
AcDbLine
 10
-5835.081309208291
 20
4174.999769056166
 30
0.0
 11
-5835.081309208291
 21
-4205.000164959882
 31
0.0
  0
LINE
  5
64
330
1F
100
AcDbEntity
  8
F-1_枠
  6
Continuous
 62
   200
370
    20
100
AcDbLine
 10
5854.917165428304
 20
4174.999769056166
 30
0.0
 11
5854.917165428304
 21
-4205.000164959882
 31
0.0
  0
LINE
  5
65
330
1F
100
AcDbEntity
  8
F-1_枠
  6
Continuous
 62
   200
370
    20
100
AcDbLine
 10
5849.917643811961
 20
4174.999769056166
 30
0.0
 11
5849.917643811961
 21
-4205.000164959882
 31
0.0
  0
LINE
  5
66
330
1F
100
AcDbEntity
  8
F-1_枠
  6
Continuous
 62
   200
370
    20
100
AcDbLine
 10
5859.917429364114
 20
-4199.999993814004
 30
0.0
 11
-5840.081085996952
 21
-4199.999993814004
 31
0.0
  0
LINE
  5
67
330
1F
100
AcDbEntity
  8
F-1_枠
  6
Continuous
 62
   200
370
    20
100
AcDbLine
 10
5859.917429364114
 20
-4195.000008247994
 30
0.0
 11
-5840.081085996952
 21
-4195.000008247994
 31
0.0
  0
LINE
  5
68
330
1F
100
AcDbEntity
  8
F-1_枠
  6
Continuous
 62
   200
370
    20
100
AcDbLine
 10
4349.917891251784
 20
-3795.000003092998
 30
0.0
 11
4349.917891251784
 21
-4195.000008247994
 31
0.0
  0
LINE
  5
69
330
1F
100
AcDbEntity
  8
F-1_枠
  6
Continuous
 62
   200
370
    20
100
AcDbLine
 10
2849.917396372139
 20
-3795.000003092998
 30
0.0
 11
2849.917396372139
 21
-4195.000008247994
 31
0.0
  0
LINE
  5
6A
330
1F
100
AcDbEntity
  8
F-1_枠
  6
Continuous
 62
   200
370
    20
100
AcDbLine
 10
9.918542843316231
 20
-3795.000003092998
 30
0.0
 11
9.918542843316231
 21
-4195.000008247994
 31
0.0
  0
LINE
  5
6B
330
1F
100
AcDbEntity
  8
F-1_枠
  6
Continuous
 62
   200
370
    20
100
AcDbLine
 10
9.918542843316231
 20
-3994.999936078046
 30
0.0
 11
5849.917643811961
 21
-3995.005364289155
 31
0.0
  0
LINE
  5
6C
330
1F
100
AcDbEntity
  8
F-1_枠
  6
Continuous
 62
   200
370
    20
100
AcDbLine
 10
-5840.081085996952
 20
4174.999769056166
 30
0.0
 11
5859.917429364114
 21
4174.999769056166
 31
0.0
  0
LINE
  5
6D
330
1F
100
AcDbEntity
  8
F-1_枠
  6
Continuous
 62
   200
370
    20
100
AcDbLine
 10
-5840.081085996952
 20
4164.999983504013
 30
0.0
 11
5859.917429364114
 21
4164.999983504013
 31
0.0
  0
LINE
  5
6E
330
1F
100
AcDbEntity
  8
F-1_枠
  6
Continuous
 62
   200
370
    20
100
AcDbLine
 10
-5840.081085996952
 20
4169.999505120355
 30
0.0
 11
5859.917429364114
 21
4169.999505120355
 31
0.0
  0
LINE
  5
6F
330
1F
100
AcDbEntity
  8
F-0_補助線
  6
JWW_HOJO
 62
     7
370
     9
100
AcDbLine
 10
-5830.081323642279
 20
-3994.99993607839
 30
0.0
 11
9.918542843316231
 21
-3994.99993607839
 31
0.0
  0
LINE
  5
70
330
1F
100
AcDbEntity
  8
F-0_補助線
  6
JWW_HOJO
 62
     7
370
     9
100
AcDbLine
 10
-5830.081323642279
 20
-3904.99993607839
 30
0.0
 11
9.918542843316231
 21
-3904.99993607839
 31
0.0
  0
LINE
  5
71
330
1F
100
AcDbEntity
  8
F-0_補助線
  6
JWW_HOJO
 62
     7
370
     9
100
AcDbLine
 10
-5830.081323642279
 20
-4084.99993607839
 30
0.0
 11
9.918542843316231
 21
-4084.99993607839
 31
0.0
  0
LINE
  5
72
330
1F
100
AcDbEntity
  8
F-0_補助線
  6
JWW_HOJO
 62
     7
370
     9
100
AcDbLine
 10
9.918408067688347
 20
-4139.999739777983
 30
0.0
 11
5849.917509036332
 21
-4140.005167989091
 31
0.0
  0
LINE
  5
73
330
1F
100
AcDbEntity
  8
F-0_補助線
  6
JWW_HOJO
 62
     7
370
     9
100
AcDbLine
 10
9.918491721639953
 20
-4049.999739778022
 30
0.0
 11
5849.917592690284
 21
-4050.005167989131
 31
0.0
  0
LINE
  5
74
330
1F
100
AcDbEntity
  8
F-0_補助線
  6
JWW_HOJO
 62
     7
370
     9
100
AcDbLine
 10
9.918593965360003
 20
-3939.99973721807
 30
0.0
 11
5849.917694934004
 21
-3940.005165429179
 31
0.0
  0
LINE
  5
75
330
1F
100
AcDbEntity
  8
F-0_補助線
  6
JWW_HOJO
 62
     7
370
     9
100
AcDbLine
 10
9.918677619311609
 20
-3849.999737218109
 30
0.0
 11
5849.917778587956
 21
-3850.005165429218
 31
0.0
  0
LINE
  5
76
330
1F
100
AcDbEntity
  8
F-0_補助線
  6
JWW_HOJO
 62
     7
370
     9
100
AcDbLine
 10
2939.917396372139
 20
-3795.000003092998
 30
0.0
 11
2939.917396372139
 21
-4195.000008247994
 31
0.0
  0
LINE
  5
77
330
1F
100
AcDbEntity
  8
F-0_補助線
  6
JWW_HOJO
 62
     7
370
     9
100
AcDbLine
 10
99.91854284331623
 20
-3795.000003092998
 30
0.0
 11
99.91854284331623
 21
-4195.000008247994
 31
0.0
  0
LINE
  5
78
330
1F
100
AcDbEntity
  8
F-0_補助線
  6
JWW_HOJO
 62
     7
370
     9
100
AcDbLine
 10
4439.917891251784
 20
-3795.000003092998
 30
0.0
 11
4439.917891251784
 21
-4195.000008247994
 31
0.0
  0
MTEXT
  5
79
330
1F
100
AcDbEntity
  8
F-A_文字
  6
Continuous
 62
     7
370
     0
100
AcDbMText
 10
99.91854284331623
 20
-3887.139820871936
 30
0.0
 40
45.72
 41
180.0
 46
0.0
 71
     7
 72
     1
  1
{\fＭＳ ゴシック|b0|i0|c128|p49;図面名}
 73
     1
 44
1.0
  0
MTEXT
  5
7A
330
1F
100
AcDbEntity
  8
F-A_文字
  6
Continuous
 62
     7
370
     0
100
AcDbMText
 10
2939.917396372139
 20
-3887.142460617774
 30
0.0
 40
45.72
 41
300.0
 46
0.0
 71
     7
 72
     1
  1
{\fＭＳ ゴシック|b0|i0|c128|p49;ＳＣＡＬＥ}
 73
     1
 44
1.0
  0
MTEXT
  5
7B
330
1F
100
AcDbEntity
  8
F-A_文字
  6
Continuous
 62
     7
370
     0
100
AcDbMText
 10
4439.917891251784
 20
-3887.143854850754
 30
0.0
 40
45.72
 41
240.0
 46
0.0
 71
     7
 72
     1
  1
{\fＭＳ ゴシック|b0|i0|c128|p49;ＤＡＴＥ}
 73
     1
 44
1.0
  0
MTEXT
  5
7C
330
1F
100
AcDbEntity
  8
F-A_文字
  6
Continuous
 62
     7
370
     0
100
AcDbMText
 10
3569.917643811961
 20
-3946.903115907308
 30
0.0
 40
76.19999999999999
 41
150.0
 46
0.0
 71
     7
 72
     1
  1
{\fＭＳ ゴシック|b0|i0|c128|p49;1/5}
 73
     1
 44
1.0
  0
LINE
  5
7D
330
1F
100
AcDbEntity
  8
F-1_枠
  6
Continuous
 62
   200
370
    20
100
AcDbLine
 10
5859.917429364114
 20
-3795.000003092998
 30
0.0
 11
-5840.081085996952
 21
-3795.000003092998
 31
0.0
  0
LINE
  5
7E
330
1F
100
AcDbEntity
  8
F-1_枠
  6
Continuous
 62
   200
370
    20
100
AcDbLine
 10
5859.917429364114
 20
-3790.000017526987
 30
0.0
 11
-5840.081085996952
 21
-3790.000017526987
 31
0.0
  0
LINE
  5
7F
330
1F
100
AcDbEntity
  8
F-0_補助線
  6
JWW_HOJO
 62
     7
370
     9
100
AcDbLine
 10
-5087.628710189611
 20
-3795.000003092999
 30
0.0
 11
-5087.628710189611
 21
-4205.000164959882
 31
0.0
  0
LINE
  5
80
330
1F
100
AcDbEntity
  8
F-0_補助線
  6
JWW_HOJO
 62
     7
370
     9
100
AcDbLine
 10
-50.08145715668377
 20
-3795.000003092998
 30
0.0
 11
-50.08145715668377
 21
-4195.000008247994
 31
0.0
  0
MTEXT
  5
81
330
1F
100
AcDbEntity
  8
F-A_文字
  6
Continuous
 62
     7
370
     0
100
AcDbMText
 10
2939.917396372139
 20
-4087.14246317786
 30
0.0
 40
45.72
 41
240.0
 46
0.0
 71
     7
 72
     1
  1
{\fＭＳ ゴシック|b0|i0|c128|p49;ＦＩＬＥ}
 73
     1
 44
1.0
  0
MTEXT
  5
82
330
1F
100
AcDbEntity
  8
F-A_文字
  6
Continuous
 62
     7
370
     0
100
AcDbMText
 10
4439.917891251784
 20
-4087.143857410839
 30
0.0
 40
45.72
 41
180.0
 46
0.0
 71
     7
 72
     1
  1
{\fＭＳ ゴシック|b0|i0|c128|p49;ＮＯ．}
 73
     1
 44
1.0
  0
MTEXT
  5
83
330
1F
100
AcDbEntity
  8
F-A_文字
  6
Continuous
 62
     7
370
     0
100
AcDbMText
 10
1604.917396372138
 20
-4164.281754523929
 30
0.0
 40
101.44125
 41
1065.0
 46
0.0
 71
     7
 72
     1
  1
{\fＭＳ ゴシック|b0|i0|c128|p49;ウッドワン・・・}
 73
     1
 44
1.0
  0
MTEXT
  5
84
330
1F
100
AcDbEntity
  8
F-A_文字
  6
Continuous
 62
     7
370
     0
100
AcDbMText
 10
1394.917396372138
 20
-4168.140669266187
 30
0.0
 40
45.72
 41
120.0
 46
0.0
 71
     7
 72
     1
  1
{\fＭＳ ゴシック|b0|i0|c128|p49;会社}
 73
     1
 44
1.0
  0
MTEXT
  5
85
330
1F
100
AcDbEntity
  8
F-A_文字
  6
Continuous
 62
     7
370
     0
100
AcDbMText
 10
5768.321977672939
 20
-4314.841419020919
 30
0.0
 40
68.58
 41
90.0
 46
0.0
 71
     7
 72
     1
  1
{\fＭＳ ゴシック|b0|i0|c128|p49;）}
 73
     1
 44
1.0
  0
MTEXT
  5
86
330
1F
100
AcDbEntity
  8
F-A_文字
  6
Continuous
 62
     7
370
     0
100
AcDbMText
 10
5350.114617405298
 20
-4316.235443869856
 30
0.0
 40
68.58
 41
45.0
 46
0.0
 71
     7
 72
     1
  1
{\fＭＳ ゴシック|b0|i0|c128|p49;,}
 73
     1
 44
1.0
  0
MTEXT
  5
87
330
1F
100
AcDbEntity
  8
F-A_文字
  6
Continuous
 62
     7
370
     0
100
AcDbMText
 10
5083.855928478601
 20
-4314.771967288282
 30
0.0
 40
74.295
 41
97.5
 46
0.0
 71
     7
 72
     1
  1
{\fＭＳ ゴシック|b0|i0|c128|p49;$y}
 73
     1
 44
1.0
  0
MTEXT
  5
88
330
1F
100
AcDbEntity
  8
F-A_文字
  6
Continuous
 62
     7
370
     0
100
AcDbMText
 10
5238.592649517422
 20
-4314.771967288282
 30
0.0
 40
74.295
 41
97.5
 46
0.0
 71
     7
 72
     1
  1
{\fＭＳ ゴシック|b0|i0|c128|p49;$m}
 73
     1
 44
1.0
  0
MTEXT
  5
89
330
1F
100
AcDbEntity
  8
F-A_文字
  6
Continuous
 62
     7
370
     0
100
AcDbMText
 10
5393.32938200033
 20
-4314.771967288282
 30
0.0
 40
74.295
 41
97.5
 46
0.0
 71
     7
 72
     1
  1
{\fＭＳ ゴシック|b0|i0|c128|p49;$d}
 73
     1
 44
1.0
  0
MTEXT
  5
8A
330
1F
100
AcDbEntity
  8
F-A_文字
  6
Continuous
 62
     7
370
     0
100
AcDbMText
 10
5548.066114483239
 20
-4314.771967288282
 30
0.0
 40
74.295
 41
195.0
 46
0.0
 71
     7
 72
     1
  1
{\fＭＳ ゴシック|b0|i0|c128|p49;印刷}
 73
     1
 44
1.0
  0
MTEXT
  5
8B
330
1F
100
AcDbEntity
  8
F-A_文字
  6
Continuous
 62
     7
370
     0
100
AcDbMText
 10
4943.952040816226
 20
-4319.023493567732
 30
0.0
 40
68.58
 41
90.0
 46
0.0
 71
     7
 72
     1
  1
{\fＭＳ ゴシック|b0|i0|c128|p49;（}
 73
     1
 44
1.0
  0
MTEXT
  5
8C
330
1F
100
AcDbEntity
  8
F-A_文字
  6
Continuous
 62
     7
370
     0
100
AcDbMText
 10
5191.195810375571
 20
-4319.023493567732
 30
0.0
 40
68.58
 41
45.0
 46
0.0
 71
     7
 72
     1
  1
{\fＭＳ ゴシック|b0|i0|c128|p49;,}
 73
     1
 44
1.0
  0
MTEXT
  5
8D
330
1F
100
AcDbEntity
  8
F-A_文字
  6
Continuous
 62
     7
370
     9
100
AcDbMText
 10
5096.167700144058
 20
-4147.857012699985
 30
0.0
 40
74.295
 41
97.5
 46
0.0
 71
     7
 72
     1
  1
{\fＭＳ ゴシック|b0|i0|c128|p49;01}
 73
     1
 44
1.0
  0
LINE
  5
8E
330
1F
100
AcDbEntity
  8
0-6_扉
  6
Continuous
 62
   200
370
    20
100
AcDbLine
 10
1.041398053354357
 20
2660.962331356171
 30
0.0
 11
1.041398053354357
 21
2480.962331356171
 31
0.0
  0
LINE
  5
8F
330
1F
100
AcDbEntity
  8
0-C_ハッチ
  6
JWW_DASHED1
 62
   120
370
     5
100
AcDbLine
 10
2559.401921584074
 20
2771.962331356168
 30
0.0
 11
2581.298141208031
 21
2793.858550980119
 31
0.0
  0
LINE
  5
90
330
1F
100
AcDbEntity
  8
0-C_ハッチ
  6
JWW_DASHED1
 62
   120
370
     5
100
AcDbLine
 10
2516.975514712881
 20
2771.962331356173
 30
0.0
 11
2581.298141208035
 21
2836.284957851323
 31
0.0
  0
LINE
  5
91
330
1F
100
AcDbEntity
  8
0-C_ハッチ
  6
JWW_DASHED1
 62
   120
370
     5
100
AcDbLine
 10
2474.549107841685
 20
2771.962331356175
 30
0.0
 11
2549.549107841681
 21
2846.962331356173
 31
0.0
  0
LINE
  5
92
330
1F
100
AcDbEntity
  8
0-C_ハッチ
  6
JWW_DASHED1
 62
   120
370
     5
100
AcDbLine
 10
2432.122700970488
 20
2771.962331356179
 30
0.0
 11
2507.122700970485
 21
2846.962331356175
 31
0.0
  0
LINE
  5
93
330
1F
100
AcDbEntity
  8
0-C_ハッチ
  6
JWW_DASHED1
 62
   120
370
     5
100
AcDbLine
 10
2389.696294099336
 20
2771.962331356173
 30
0.0
 11
2464.696294099329
 21
2846.962331356168
 31
0.0
  0
LINE
  5
94
330
1F
100
AcDbEntity
  8
0-C_ハッチ
  6
JWW_DASHED1
 62
   120
370
     5
100
AcDbLine
 10
2347.269887228139
 20
2771.962331356176
 30
0.0
 11
2422.269887228136
 21
2846.962331356173
 31
0.0
  0
LINE
  5
95
330
1F
100
AcDbEntity
  8
0-C_ハッチ
  6
JWW_DASHED1
 62
   120
370
     5
100
AcDbLine
 10
2304.843480356929
 20
2771.962331356166
 30
0.0
 11
2379.843480356939
 21
2846.962331356175
 31
0.0
  0
LINE
  5
96
330
1F
100
AcDbEntity
  8
0-C_ハッチ
  6
JWW_DASHED1
 62
   120
370
     5
100
AcDbLine
 10
2262.417073485728
 20
2771.962331356168
 30
0.0
 11
2337.417073485743
 21
2846.962331356179
 31
0.0
  0
LINE
  5
97
330
1F
100
AcDbEntity
  8
0-C_ハッチ
  6
JWW_DASHED1
 62
   120
370
     5
100
AcDbLine
 10
2063.81201869503
 20
2321.962331356171
 30
0.0
 11
2071.381578376206
 21
2329.531891037345
 31
0.0
  0
LINE
  5
98
330
1F
100
AcDbEntity
  8
0-C_ハッチ
  6
JWW_DASHED1
 62
   120
370
     5
100
AcDbLine
 10
2021.385611823818
 20
2321.96233135616
 30
0.0
 11
2071.381578376215
 21
2371.958297908556
 31
0.0
  0
LINE
  5
99
330
1F
100
AcDbEntity
  8
0-C_ハッチ
  6
JWW_DASHED1
 62
   120
370
     5
100
AcDbLine
 10
1978.959204952621
 20
2321.962331356162
 30
0.0
 11
2050.95920495262
 21
2393.962331356162
 31
0.0
  0
LINE
  5
9A
330
1F
100
AcDbEntity
  8
0-C_ハッチ
  6
JWW_DASHED1
 62
   120
370
     5
100
AcDbLine
 10
1936.532798081425
 20
2321.962331356166
 30
0.0
 11
2008.532798081424
 21
2393.962331356165
 31
0.0
  0
LINE
  5
9B
330
1F
100
AcDbEntity
  8
0-C_ハッチ
  6
JWW_DASHED1
 62
   120
370
     5
100
AcDbLine
 10
1894.10639121023
 20
2321.962331356171
 30
0.0
 11
1966.106391210231
 21
2393.962331356169
 31
0.0
  0
LINE
  5
9C
330
1F
100
AcDbEntity
  8
0-C_ハッチ
  6
JWW_DASHED1
 62
   120
370
     5
100
AcDbLine
 10
1851.679984339035
 20
2321.962331356175
 30
0.0
 11
1923.679984339032
 21
2393.962331356173
 31
0.0
  0
LINE
  5
9D
330
1F
100
AcDbEntity
  8
0-C_ハッチ
  6
JWW_DASHED1
 62
   120
370
     5
100
AcDbLine
 10
1809.253577467837
 20
2321.962331356177
 30
0.0
 11
1881.253577467838
 21
2393.962331356178
 31
0.0
  0
LINE
  5
9E
330
1F
100
AcDbEntity
  8
0-C_ハッチ
  6
JWW_DASHED1
 62
   120
370
     5
100
AcDbLine
 10
1766.827170596686
 20
2321.962331356173
 30
0.0
 11
1838.827170596668
 21
2393.962331356156
 31
0.0
  0
LINE
  5
9F
330
1F
100
AcDbEntity
  8
0-C_ハッチ
  6
JWW_DASHED1
 62
   120
370
     5
100
AcDbLine
 10
1724.400763725476
 20
2321.962331356161
 30
0.0
 11
1796.400763725473
 21
2393.96233135616
 31
0.0
  0
LINE
  5
A0
330
1F
100
AcDbEntity
  8
0-7_金物
  6
Continuous
 62
     7
370
     9
100
AcDbLine
 10
-2135.298782269491
 20
2555.962331356171
 30
0.0
 11
-2135.298782269491
 21
2585.962331356171
 31
0.0
  0
LINE
  5
A1
330
1F
100
AcDbEntity
  8
0-7_金物
  6
Continuous
 62
     7
370
     9
100
AcDbLine
 10
-2105.298782269491
 20
2525.962331356171
 30
0.0
 11
-2087.29878226949
 21
2525.962331356171
 31
0.0
  0
LINE
  5
A2
330
1F
100
AcDbEntity
  8
0-7_金物
  6
Continuous
 62
     7
370
     9
100
AcDbLine
 10
-2087.29878226949
 20
2615.962331356171
 30
0.0
 11
-2105.298782269491
 21
2615.962331356171
 31
0.0
  0
LINE
  5
A3
330
1F
100
AcDbEntity
  8
0-7_金物
  6
Continuous
 62
     7
370
     9
100
AcDbLine
 10
-2105.298782269491
 20
2615.962331356171
 30
0.0
 11
-2105.298782269491
 21
2525.962331356171
 31
0.0
  0
LINE
  5
A4
330
1F
100
AcDbEntity
  8
0-7_金物
  6
Continuous
 62
     7
370
     9
100
AcDbLine
 10
-2105.298782269491
 20
2555.962331356171
 30
0.0
 11
-2135.298782269491
 21
2555.962331356171
 31
0.0
  0
LINE
  5
A5
330
1F
100
AcDbEntity
  8
0-7_金物
  6
Continuous
 62
     7
370
     9
100
AcDbLine
 10
-2135.298782269491
 20
2585.962331356171
 30
0.0
 11
-2105.298782269491
 21
2585.962331356171
 31
0.0
  0
ARC
  5
A6
330
1F
100
AcDbEntity
  8
0-7_金物
  6
Continuous
 62
     7
370
     9
100
AcDbCircle
 10
-2253.048782269492
 20
2570.962331356171
 30
0.0
 40
171.7499999999977
100
AcDbArc
 50
344.8107132628169
 51
15.1892867371831
  0
LINE
  5
A7
330
1F
100
AcDbEntity
  8
0-7_金物
  6
Continuous
 62
     7
370
     9
100
AcDbLine
 10
2137.381578376201
 20
2555.962331356171
 30
0.0
 11
2137.381578376201
 21
2585.962331356171
 31
0.0
  0
LINE
  5
A8
330
1F
100
AcDbEntity
  8
0-7_金物
  6
Continuous
 62
     7
370
     9
100
AcDbLine
 10
2107.381578376201
 20
2525.962331356171
 30
0.0
 11
2089.3815783762
 21
2525.962331356171
 31
0.0
  0
LINE
  5
A9
330
1F
100
AcDbEntity
  8
0-7_金物
  6
Continuous
 62
     7
370
     9
100
AcDbLine
 10
2089.3815783762
 20
2615.962331356171
 30
0.0
 11
2107.381578376201
 21
2615.962331356171
 31
0.0
  0
LINE
  5
AA
330
1F
100
AcDbEntity
  8
0-7_金物
  6
Continuous
 62
     7
370
     9
100
AcDbLine
 10
2107.381578376201
 20
2615.962331356171
 30
0.0
 11
2107.381578376201
 21
2525.962331356171
 31
0.0
  0
LINE
  5
AB
330
1F
100
AcDbEntity
  8
0-7_金物
  6
Continuous
 62
     7
370
     9
100
AcDbLine
 10
2107.381578376201
 20
2555.962331356171
 30
0.0
 11
2137.381578376201
 21
2555.962331356171
 31
0.0
  0
LINE
  5
AC
330
1F
100
AcDbEntity
  8
0-7_金物
  6
Continuous
 62
     7
370
     9
100
AcDbLine
 10
2137.381578376201
 20
2585.962331356171
 30
0.0
 11
2107.381578376201
 21
2585.962331356171
 31
0.0
  0
ARC
  5
AD
330
1F
100
AcDbEntity
  8
0-7_金物
  6
Continuous
 62
     7
370
     9
100
AcDbCircle
 10
2255.131578376201
 20
2570.962331356171
 30
0.0
 40
171.7499999999977
100
AcDbArc
 50
164.8107132628169
 51
195.1892867371831
  0
LINE
  5
AE
330
1F
100
AcDbEntity
  8
0-6_扉
  6
Continuous
 62
   200
370
    20
100
AcDbLine
 10
-1133.128692108068
 20
2660.962331356171
 30
0.0
 11
-1133.128692108068
 21
2480.962331356171
 31
0.0
  0
LINE
  5
AF
330
1F
100
AcDbEntity
  8
0-6_扉
  6
Continuous
 62
   200
370
    20
100
AcDbLine
 10
1135.211488214778
 20
2660.962331356171
 30
0.0
 11
1135.211488214778
 21
2480.962331356171
 31
0.0
  0
LINE
  5
B0
330
1F
100
AcDbEntity
  8
0-3_仕上げ
  6
Continuous
 62
    40
370
    15
100
AcDbLine
 10
2071.381578376203
 20
2393.962331356171
 30
0.0
 11
1672.341356398234
 21
2393.962331356171
 31
0.0
  0
LINE
  5
B1
330
1F
100
AcDbEntity
  8
0-3_仕上げ
  6
Continuous
 62
    40
370
    15
100
AcDbLine
 10
2581.298141208028
 20
2066.962331356172
 30
0.0
 11
1672.341356398234
 21
2066.962331356172
 31
0.0
  0
LINE
  5
B2
330
1F
100
AcDbEntity
  8
0-C_ハッチ
  6
JWW_DASHED1
 62
   120
370
     5
100
AcDbLine
 10
1672.341356398234
 20
2354.75573777132
 30
0.0
 11
1711.547949983079
 21
2393.962331356165
 31
0.0
  0
LINE
  5
B3
330
1F
100
AcDbEntity
  8
0-3_仕上げ
  6
Continuous
 62
    40
370
    15
100
AcDbLine
 10
2071.381578376203
 20
2321.962331356171
 30
0.0
 11
1672.341356398234
 21
2321.962331356171
 31
0.0
  0
LINE
  5
B4
330
1F
100
AcDbEntity
  8
0-3_仕上げ
  6
Continuous
 62
    40
370
    15
100
AcDbLine
 10
2581.298141208028
 20
2141.962331356172
 30
0.0
 11
1672.341356398234
 21
2141.962331356172
 31
0.0
  0
LINE
  5
B5
330
1F
100
AcDbEntity
  8
0-C_ハッチ
  6
JWW_DASHED1
 62
   120
370
     5
100
AcDbLine
 10
1681.974356854284
 20
2321.962331356171
 30
0.0
 11
1753.974356854275
 21
2393.962331356162
 31
0.0
  0
LINE
  5
B6
330
1F
100
AcDbEntity
  8
0-C_ハッチ
  6
JWW_DASHED1
 62
   120
370
     5
100
AcDbLine
 10
1440.316767787288
 20
2321.962331356175
 30
0.0
 11
1512.316767787286
 21
2393.962331356173
 31
0.0
  0
LINE
  5
B7
330
1F
100
AcDbEntity
  8
0-C_ハッチ
  6
JWW_DASHED1
 62
   120
370
     5
100
AcDbLine
 10
1397.89036091609
 20
2321.962331356179
 30
0.0
 11
1469.890360916091
 21
2393.962331356178
 31
0.0
  0
LINE
  5
B8
330
1F
100
AcDbEntity
  8
0-C_ハッチ
  6
JWW_DASHED1
 62
   120
370
     5
100
AcDbLine
 10
1355.463954044895
 20
2321.962331356182
 30
0.0
 11
1427.463954044892
 21
2393.962331356182
 31
0.0
  0
LINE
  5
B9
330
1F
100
AcDbEntity
  8
0-C_ハッチ
  6
JWW_DASHED1
 62
   120
370
     5
100
AcDbLine
 10
1313.037547173751
 20
2321.962331356187
 30
0.0
 11
1385.037547173735
 21
2393.962331356168
 31
0.0
  0
LINE
  5
BA
330
1F
100
AcDbEntity
  8
0-C_ハッチ
  6
JWW_DASHED1
 62
   120
370
     5
100
AcDbLine
 10
1270.611140302529
 20
2321.962331356162
 30
0.0
 11
1342.611140302528
 21
2393.962331356162
 31
0.0
  0
LINE
  5
BB
330
1F
100
AcDbEntity
  8
0-C_ハッチ
  6
JWW_DASHED1
 62
   120
370
     5
100
AcDbLine
 10
1228.184733431332
 20
2321.962331356166
 30
0.0
 11
1300.184733431332
 21
2393.962331356165
 31
0.0
  0
LINE
  5
BC
330
1F
100
AcDbEntity
  8
0-C_ハッチ
  6
JWW_DASHED1
 62
   120
370
     5
100
AcDbLine
 10
1185.758326560136
 20
2321.962331356169
 30
0.0
 11
1257.758326560135
 21
2393.962331356169
 31
0.0
  0
LINE
  5
BD
330
1F
100
AcDbEntity
  8
0-C_ハッチ
  6
JWW_DASHED1
 62
   120
370
     5
100
AcDbLine
 10
1143.331919688939
 20
2321.962331356175
 30
0.0
 11
1215.331919688938
 21
2393.962331356173
 31
0.0
  0
LINE
  5
BE
330
1F
100
AcDbEntity
  8
0-C_ハッチ
  6
JWW_DASHED1
 62
   120
370
     5
100
AcDbLine
 10
1525.169581529678
 20
2321.962331356166
 30
0.0
 11
1552.341356398234
 21
2349.134106224721
 31
0.0
  0
LINE
  5
BF
330
1F
100
AcDbEntity
  8
0-C_ハッチ
  6
JWW_DASHED1
 62
   120
370
     5
100
AcDbLine
 10
1482.743174658481
 20
2321.962331356171
 30
0.0
 11
1552.341356398234
 21
2391.560513095921
 31
0.0
  0
LINE
  5
C0
330
1F
100
AcDbEntity
  8
0-3_仕上げ
  6
Continuous
 62
    40
370
    15
100
AcDbLine
 10
1552.341356398234
 20
2393.962331356171
 30
0.0
 11
1135.211488214778
 21
2393.962331356171
 31
0.0
  0
LINE
  5
C1
330
1F
100
AcDbEntity
  8
0-C_ハッチ
  6
JWW_DASHED1
 62
   120
370
     5
100
AcDbLine
 10
1135.211488214778
 20
2356.268306753213
 30
0.0
 11
1172.905512817742
 21
2393.962331356178
 31
0.0
  0
LINE
  5
C2
330
1F
100
AcDbEntity
  8
0-3_仕上げ
  6
Continuous
 62
    40
370
    15
100
AcDbLine
 10
1552.341356398234
 20
2321.962331356171
 30
0.0
 11
1135.211488214778
 21
2321.962331356171
 31
0.0
  0
LINE
  5
C3
330
1F
100
AcDbEntity
  8
0-3_仕上げ
  6
Continuous
 62
    40
370
    15
100
AcDbLine
 10
1552.341356398234
 20
2141.962331356172
 30
0.0
 11
1135.211488214778
 21
2141.962331356172
 31
0.0
  0
LINE
  5
C4
330
1F
100
AcDbEntity
  8
0-3_仕上げ
  6
Continuous
 62
    40
370
    15
100
AcDbLine
 10
1552.341356398234
 20
2066.962331356172
 30
0.0
 11
1135.211488214778
 21
2066.962331356172
 31
0.0
  0
LINE
  5
C5
330
1F
100
AcDbEntity
  8
0-3_仕上げ
  6
Continuous
 62
    40
370
    15
100
AcDbLine
 10
1135.211488214778
 20
2066.962331356172
 30
0.0
 11
1135.211488214778
 21
2141.962331356172
 31
0.0
  0
LINE
  5
C6
330
1F
100
AcDbEntity
  8
0-6_扉
  6
JWW_DASHED2
 62
    40
370
    15
100
AcDbLine
 10
-2087.29878226949
 20
2660.962331356171
 30
0.0
 11
-2087.29878226949
 21
2480.962331356171
 31
0.0
  0
LINE
  5
C7
330
1F
100
AcDbEntity
  8
0-6_扉
  6
JWW_DASHED2
 62
    40
370
    15
100
AcDbLine
 10
-953.1286921080685
 20
2660.962331356171
 30
0.0
 11
-953.1286921080685
 21
2480.962331356171
 31
0.0
  0
LINE
  5
C8
330
1F
100
AcDbEntity
  8
0-6_扉
  6
JWW_DASHED2
 62
    40
370
    15
100
AcDbLine
 10
955.2114882147773
 20
2660.962331356171
 30
0.0
 11
955.2114882147773
 21
2480.962331356171
 31
0.0
  0
LINE
  5
C9
330
1F
100
AcDbEntity
  8
0-6_扉
  6
JWW_DASHED2
 62
    40
370
    15
100
AcDbLine
 10
2089.3815783762
 20
2660.962331356171
 30
0.0
 11
2089.3815783762
 21
2480.962331356171
 31
0.0
  0
LINE
  5
CA
330
1F
100
AcDbEntity
  8
0-3_仕上げ
  6
Continuous
 62
    40
370
    15
100
AcDbLine
 10
-1133.128692108067
 20
2066.962331356172
 30
0.0
 11
-1133.128692108067
 21
2141.962331356172
 31
0.0
  0
LINE
  5
CB
330
1F
100
AcDbEntity
  8
0-3_仕上げ
  6
Continuous
 62
    40
370
    15
100
AcDbLine
 10
-1133.128692108067
 20
2393.962331356171
 30
0.0
 11
-1133.128692108067
 21
2321.962331356171
 31
0.0
  0
LINE
  5
CC
330
1F
100
AcDbEntity
  8
0-3_仕上げ
  6
Continuous
 62
    40
370
    15
100
AcDbLine
 10
-1448.637331856013
 20
2393.962331356171
 30
0.0
 11
-1133.128692108067
 21
2393.962331356171
 31
0.0
  0
LINE
  5
CD
330
1F
100
AcDbEntity
  8
0-3_仕上げ
  6
Continuous
 62
    40
370
    15
100
AcDbLine
 10
-1448.637331856013
 20
2066.962331356172
 30
0.0
 11
-1133.128692108067
 21
2066.962331356172
 31
0.0
  0
LINE
  5
CE
330
1F
100
AcDbEntity
  8
0-3_仕上げ
  6
Continuous
 62
    40
370
    15
100
AcDbLine
 10
-1448.637331856013
 20
2321.962331356171
 30
0.0
 11
-1133.128692108067
 21
2321.962331356171
 31
0.0
  0
LINE
  5
CF
330
1F
100
AcDbEntity
  8
0-3_仕上げ
  6
Continuous
 62
    40
370
    15
100
AcDbLine
 10
-1448.637331856013
 20
2141.962331356172
 30
0.0
 11
-1133.128692108067
 21
2141.962331356172
 31
0.0
  0
LINE
  5
D0
330
1F
100
AcDbEntity
  8
0-3_仕上げ
  6
Continuous
 62
    40
370
    15
100
AcDbLine
 10
-2579.726631826883
 20
2141.962331356172
 30
0.0
 11
-1568.637331856013
 21
2141.962331356172
 31
0.0
  0
LINE
  5
D1
330
1F
100
AcDbEntity
  8
0-3_仕上げ
  6
Continuous
 62
    40
370
    15
100
AcDbLine
 10
-2579.848366761541
 20
2066.962331356172
 30
0.0
 11
-1568.637331856013
 21
2066.962331356172
 31
0.0
  0
LINE
  5
D2
330
1F
100
AcDbEntity
  8
0-3_仕上げ
  6
Continuous
 62
    40
370
    15
100
AcDbLine
 10
-2069.298782269493
 20
2393.962331356171
 30
0.0
 11
-1568.637331856013
 21
2393.962331356171
 31
0.0
  0
LINE
  5
D3
330
1F
100
AcDbEntity
  8
0-3_仕上げ
  6
Continuous
 62
    40
370
    15
100
AcDbLine
 10
-2069.298782269493
 20
2321.962331356171
 30
0.0
 11
-1568.637331856013
 21
2321.962331356171
 31
0.0
  0
LINE
  5
D4
330
1F
100
AcDbEntity
  8
0-C_ハッチ
  6
JWW_DASHED1
 62
   120
370
     5
100
AcDbLine
 10
2572.487342376472
 20
2066.962331356176
 30
0.0
 11
2581.3815783762
 21
2075.856567355904
 31
0.0
  0
LINE
  5
D5
330
1F
100
AcDbEntity
  8
0-C_ハッチ
  6
JWW_DASHED1
 62
   120
370
     5
100
AcDbLine
 10
2530.06093550526
 20
2066.962331356163
 30
0.0
 11
2581.381578376207
 21
2118.282974227108
 31
0.0
  0
LINE
  5
D6
330
1F
100
AcDbEntity
  8
0-C_ハッチ
  6
JWW_DASHED1
 62
   120
370
     5
100
AcDbLine
 10
2487.634528634123
 20
2066.962331356172
 30
0.0
 11
2562.634528634133
 21
2141.962331356182
 31
0.0
  0
LINE
  5
D7
330
1F
100
AcDbEntity
  8
0-C_ハッチ
  6
JWW_DASHED1
 62
   120
370
     5
100
AcDbLine
 10
2445.208121762926
 20
2066.962331356176
 30
0.0
 11
2520.208121762921
 21
2141.96233135617
 31
0.0
  0
LINE
  5
D8
330
1F
100
AcDbEntity
  8
0-C_ハッチ
  6
JWW_DASHED1
 62
   120
370
     5
100
AcDbLine
 10
2402.781714891716
 20
2066.962331356166
 30
0.0
 11
2477.781714891709
 21
2141.96233135616
 31
0.0
  0
LINE
  5
D9
330
1F
100
AcDbEntity
  8
0-C_ハッチ
  6
JWW_DASHED1
 62
   120
370
     5
100
AcDbLine
 10
2360.355308020519
 20
2066.962331356169
 30
0.0
 11
2435.355308020514
 21
2141.962331356163
 31
0.0
  0
LINE
  5
DA
330
1F
100
AcDbEntity
  8
0-C_ハッチ
  6
JWW_DASHED1
 62
   120
370
     5
100
AcDbLine
 10
2317.928901149323
 20
2066.962331356173
 30
0.0
 11
2392.928901149319
 21
2141.962331356166
 31
0.0
  0
LINE
  5
DB
330
1F
100
AcDbEntity
  8
0-C_ハッチ
  6
JWW_DASHED1
 62
   120
370
     5
100
AcDbLine
 10
2275.502494278126
 20
2066.962331356176
 30
0.0
 11
2350.502494278119
 21
2141.962331356169
 31
0.0
  0
LINE
  5
DC
330
1F
100
AcDbEntity
  8
0-C_ハッチ
  6
JWW_DASHED1
 62
   120
370
     5
100
AcDbLine
 10
2233.076087406927
 20
2066.962331356176
 30
0.0
 11
2308.076087406923
 21
2141.962331356172
 31
0.0
  0
LINE
  5
DD
330
1F
100
AcDbEntity
  8
0-C_ハッチ
  6
JWW_DASHED1
 62
   120
370
     5
100
AcDbLine
 10
2190.649680535716
 20
2066.962331356166
 30
0.0
 11
2265.649680535726
 21
2141.962331356176
 31
0.0
  0
LINE
  5
DE
330
1F
100
AcDbEntity
  8
0-C_ハッチ
  6
JWW_DASHED1
 62
   120
370
     5
100
AcDbLine
 10
2148.223273664577
 20
2066.962331356173
 30
0.0
 11
2223.223273664573
 21
2141.962331356169
 31
0.0
  0
LINE
  5
DF
330
1F
100
AcDbEntity
  8
0-C_ハッチ
  6
JWW_DASHED1
 62
   120
370
     5
100
AcDbLine
 10
2105.79686679337
 20
2066.962331356166
 30
0.0
 11
2180.796866793366
 21
2141.962331356162
 31
0.0
  0
LINE
  5
E0
330
1F
100
AcDbEntity
  8
0-C_ハッチ
  6
JWW_DASHED1
 62
   120
370
     5
100
AcDbLine
 10
2063.370459922175
 20
2066.96233135617
 30
0.0
 11
2138.37045992217
 21
2141.962331356166
 31
0.0
  0
LINE
  5
E1
330
1F
100
AcDbEntity
  8
0-C_ハッチ
  6
JWW_DASHED1
 62
   120
370
     5
100
AcDbLine
 10
2020.94405305098
 20
2066.962331356176
 30
0.0
 11
2095.944053050973
 21
2141.962331356169
 31
0.0
  0
LINE
  5
E2
330
1F
100
AcDbEntity
  8
0-C_ハッチ
  6
JWW_DASHED1
 62
   120
370
     5
100
AcDbLine
 10
1978.517646179784
 20
2066.962331356179
 30
0.0
 11
2053.517646179777
 21
2141.962331356173
 31
0.0
  0
LINE
  5
E3
330
1F
100
AcDbEntity
  8
0-C_ハッチ
  6
JWW_DASHED1
 62
   120
370
     5
100
AcDbLine
 10
1936.09123930858
 20
2066.962331356176
 30
0.0
 11
2011.091239308575
 21
2141.96233135617
 31
0.0
  0
LINE
  5
E4
330
1F
100
AcDbEntity
  8
0-C_ハッチ
  6
JWW_DASHED1
 62
   120
370
     5
100
AcDbLine
 10
1893.664832437368
 20
2066.962331356163
 30
0.0
 11
1968.66483243738
 21
2141.962331356176
 31
0.0
  0
LINE
  5
E5
330
1F
100
AcDbEntity
  8
0-C_ハッチ
  6
JWW_DASHED1
 62
   120
370
     5
100
AcDbLine
 10
1851.238425566232
 20
2066.962331356172
 30
0.0
 11
1926.238425566242
 21
2141.962331356182
 31
0.0
  0
LINE
  5
E6
330
1F
100
AcDbEntity
  8
0-C_ハッチ
  6
JWW_DASHED1
 62
   120
370
     5
100
AcDbLine
 10
1808.812018695035
 20
2066.962331356176
 30
0.0
 11
1883.81201869503
 21
2141.96233135617
 31
0.0
  0
LINE
  5
E7
330
1F
100
AcDbEntity
  8
0-C_ハッチ
  6
JWW_DASHED1
 62
   120
370
     5
100
AcDbLine
 10
1766.385611823832
 20
2066.962331356172
 30
0.0
 11
1841.385611823825
 21
2141.962331356166
 31
0.0
  0
LINE
  5
E8
330
1F
100
AcDbEntity
  8
0-C_ハッチ
  6
JWW_DASHED1
 62
   120
370
     5
100
AcDbLine
 10
1723.959204952635
 20
2066.962331356176
 30
0.0
 11
1798.95920495263
 21
2141.96233135617
 31
0.0
  0
LINE
  5
E9
330
1F
100
AcDbEntity
  8
0-C_ハッチ
  6
JWW_DASHED1
 62
   120
370
     5
100
AcDbLine
 10
1672.341356398234
 20
2100.197296544174
 30
0.0
 11
1714.106391210228
 21
2141.962331356169
 31
0.0
  0
LINE
  5
EA
330
1F
100
AcDbEntity
  8
0-C_ハッチ
  6
JWW_DASHED1
 62
   120
370
     5
100
AcDbLine
 10
1681.532798081432
 20
2066.962331356172
 30
0.0
 11
1756.532798081435
 21
2141.962331356176
 31
0.0
  0
LINE
  5
EB
330
1F
100
AcDbEntity
  8
0-C_ハッチ
  6
JWW_DASHED1
 62
   120
370
     5
100
AcDbLine
 10
1524.728022756847
 20
2066.962331356189
 30
0.0
 11
1552.34135639822
 21
2094.575664997562
 31
0.0
  0
LINE
  5
EC
330
1F
100
AcDbEntity
  8
0-C_ハッチ
  6
JWW_DASHED1
 62
   120
370
     5
100
AcDbLine
 10
1482.301615885634
 20
2066.962331356176
 30
0.0
 11
1552.341356398234
 21
2137.002071868776
 31
0.0
  0
LINE
  5
ED
330
1F
100
AcDbEntity
  8
0-C_ハッチ
  6
JWW_DASHED1
 62
   120
370
     5
100
AcDbLine
 10
1439.875209014423
 20
2066.962331356166
 30
0.0
 11
1514.875209014433
 21
2141.962331356176
 31
0.0
  0
LINE
  5
EE
330
1F
100
AcDbEntity
  8
0-C_ハッチ
  6
JWW_DASHED1
 62
   120
370
     5
100
AcDbLine
 10
1397.448802143285
 20
2066.962331356176
 30
0.0
 11
1472.448802143295
 21
2141.962331356183
 31
0.0
  0
LINE
  5
EF
330
1F
100
AcDbEntity
  8
0-C_ハッチ
  6
JWW_DASHED1
 62
   120
370
     5
100
AcDbLine
 10
1355.02239527209
 20
2066.962331356179
 30
0.0
 11
1430.022395272085
 21
2141.962331356172
 31
0.0
  0
LINE
  5
F0
330
1F
100
AcDbEntity
  8
0-C_ハッチ
  6
JWW_DASHED1
 62
   120
370
     5
100
AcDbLine
 10
1312.595988400888
 20
2066.962331356176
 30
0.0
 11
1387.595988400885
 21
2141.962331356176
 31
0.0
  0
LINE
  5
F1
330
1F
100
AcDbEntity
  8
0-C_ハッチ
  6
JWW_DASHED1
 62
   120
370
     5
100
AcDbLine
 10
1270.169581529692
 20
2066.96233135618
 30
0.0
 11
1345.169581529688
 21
2141.962331356176
 31
0.0
  0
LINE
  5
F2
330
1F
100
AcDbEntity
  8
0-C_ハッチ
  6
JWW_DASHED1
 62
   120
370
     5
100
AcDbLine
 10
1227.743174658495
 20
2066.962331356182
 30
0.0
 11
1302.743174658492
 21
2141.96233135618
 31
0.0
  0
LINE
  5
F3
330
1F
100
AcDbEntity
  8
0-C_ハッチ
  6
JWW_DASHED1
 62
   120
370
     5
100
AcDbLine
 10
1185.316767787298
 20
2066.962331356187
 30
0.0
 11
1260.316767787295
 21
2141.962331356182
 31
0.0
  0
LINE
  5
F4
330
1F
100
AcDbEntity
  8
0-C_ハッチ
  6
JWW_DASHED1
 62
   120
370
     5
100
AcDbLine
 10
1142.890360916095
 20
2066.962331356182
 30
0.0
 11
1217.890360916088
 21
2141.962331356176
 31
0.0
  0
LINE
  5
F5
330
1F
100
AcDbEntity
  8
0-C_ハッチ
  6
JWW_DASHED1
 62
   120
370
     5
100
AcDbLine
 10
1135.211488214778
 20
2101.709865526066
 30
0.0
 11
1175.463954044895
 21
2141.96233135618
 31
0.0
  0
LINE
  5
F6
330
1F
100
AcDbEntity
  8
0-C_ハッチ
  6
JWW_DASHED1
 62
   120
370
     5
100
AcDbLine
 10
-1228.384866025897
 20
2321.962331356182
 30
0.0
 11
-1156.384866025898
 21
2393.962331356182
 31
0.0
  0
LINE
  5
F7
330
1F
100
AcDbEntity
  8
0-C_ハッチ
  6
JWW_DASHED1
 62
   120
370
     5
100
AcDbLine
 10
-1270.811272897039
 20
2321.962331356187
 30
0.0
 11
-1198.811272897057
 21
2393.962331356168
 31
0.0
  0
LINE
  5
F8
330
1F
100
AcDbEntity
  8
0-C_ハッチ
  6
JWW_DASHED1
 62
   120
370
     5
100
AcDbLine
 10
-1313.237679768263
 20
2321.962331356162
 30
0.0
 11
-1241.237679768264
 21
2393.962331356162
 31
0.0
  0
LINE
  5
F9
330
1F
100
AcDbEntity
  8
0-C_ハッチ
  6
JWW_DASHED1
 62
   120
370
     5
100
AcDbLine
 10
-1355.664086639458
 20
2321.962331356166
 30
0.0
 11
-1283.664086639459
 21
2393.962331356165
 31
0.0
  0
LINE
  5
FA
330
1F
100
AcDbEntity
  8
0-C_ハッチ
  6
JWW_DASHED1
 62
   120
370
     5
100
AcDbLine
 10
-1398.090493510655
 20
2321.962331356169
 30
0.0
 11
-1326.090493510655
 21
2393.962331356169
 31
0.0
  0
LINE
  5
FB
330
1F
100
AcDbEntity
  8
0-C_ハッチ
  6
JWW_DASHED1
 62
   120
370
     5
100
AcDbLine
 10
-1440.516900381851
 20
2321.962331356175
 30
0.0
 11
-1368.516900381852
 21
2393.962331356173
 31
0.0
  0
LINE
  5
FC
330
1F
100
AcDbEntity
  8
0-C_ハッチ
  6
JWW_DASHED1
 62
   120
370
     5
100
AcDbLine
 10
-1228.826424798702
 20
2066.962331356179
 30
0.0
 11
-1153.826424798706
 21
2141.962331356172
 31
0.0
  0
LINE
  5
FD
330
1F
100
AcDbEntity
  8
0-C_ハッチ
  6
JWW_DASHED1
 62
   120
370
     5
100
AcDbLine
 10
-1271.252831669902
 20
2066.962331356176
 30
0.0
 11
-1196.252831669906
 21
2141.962331356176
 31
0.0
  0
LINE
  5
FE
330
1F
100
AcDbEntity
  8
0-C_ハッチ
  6
JWW_DASHED1
 62
   120
370
     5
100
AcDbLine
 10
-1313.679238541099
 20
2066.96233135618
 30
0.0
 11
-1238.679238541102
 21
2141.962331356176
 31
0.0
  0
LINE
  5
FF
330
1F
100
AcDbEntity
  8
0-C_ハッチ
  6
JWW_DASHED1
 62
   120
370
     5
100
AcDbLine
 10
-1356.105645412295
 20
2066.962331356182
 30
0.0
 11
-1281.105645412299
 21
2141.96233135618
 31
0.0
  0
LINE
  5
100
330
1F
100
AcDbEntity
  8
0-C_ハッチ
  6
JWW_DASHED1
 62
   120
370
     5
100
AcDbLine
 10
-1398.532052283492
 20
2066.962331356187
 30
0.0
 11
-1323.532052283495
 21
2141.962331356182
 31
0.0
  0
LINE
  5
101
330
1F
100
AcDbEntity
  8
0-C_ハッチ
  6
JWW_DASHED1
 62
   120
370
     5
100
AcDbLine
 10
-1440.958459154697
 20
2066.962331356182
 30
0.0
 11
-1365.958459154702
 21
2141.962331356176
 31
0.0
  0
LINE
  5
102
330
1F
100
AcDbEntity
  8
0-C_ハッチ
  6
JWW_DASHED1
 62
   120
370
     5
100
AcDbLine
 10
-1448.637331856013
 20
2356.268306753213
 30
0.0
 11
-1410.943307253048
 21
2393.962331356178
 31
0.0
  0
LINE
  5
103
330
1F
100
AcDbEntity
  8
0-C_ハッチ
  6
JWW_DASHED1
 62
   120
370
     5
100
AcDbLine
 10
-1448.637331856013
 20
2101.709865526066
 30
0.0
 11
-1408.384866025899
 21
2141.96233135618
 31
0.0
  0
LINE
  5
104
330
1F
100
AcDbEntity
  8
0-C_ハッチ
  6
JWW_DASHED1
 62
   120
370
     5
100
AcDbLine
 10
-1143.532052283504
 20
2321.962331356175
 30
0.0
 11
-1133.128692108067
 21
2332.365691531612
 31
0.0
  0
LINE
  5
105
330
1F
100
AcDbEntity
  8
0-C_ハッチ
  6
JWW_DASHED1
 62
   120
370
     5
100
AcDbLine
 10
-1185.958459154701
 20
2321.962331356179
 30
0.0
 11
-1133.128692108067
 21
2374.792098402812
 31
0.0
  0
LINE
  5
106
330
1F
100
AcDbEntity
  8
0-C_ハッチ
  6
JWW_DASHED1
 62
   120
370
     5
100
AcDbLine
 10
-1143.973611056369
 20
2066.962331356166
 30
0.0
 11
-1133.128692108067
 21
2077.807250304467
 31
0.0
  0
LINE
  5
107
330
1F
100
AcDbEntity
  8
0-C_ハッチ
  6
JWW_DASHED1
 62
   120
370
     5
100
AcDbLine
 10
-1186.400017927506
 20
2066.962331356176
 30
0.0
 11
-1133.128692108067
 21
2120.233657175613
 31
0.0
  0
LINE
  5
108
330
1F
100
AcDbEntity
  8
0-C_ハッチ
  6
JWW_DASHED1
 62
   120
370
     5
100
AcDbLine
 10
-1578.602952841407
 20
2066.962331356166
 30
0.0
 11
-1568.637331856008
 21
2076.927952341568
 31
0.0
  0
LINE
  5
109
330
1F
100
AcDbEntity
  8
0-C_ハッチ
  6
JWW_DASHED1
 62
   120
370
     5
100
AcDbLine
 10
-1621.029359712604
 20
2066.96233135617
 30
0.0
 11
-1568.637331856009
 21
2119.354359212767
 31
0.0
  0
LINE
  5
10A
330
1F
100
AcDbEntity
  8
0-C_ハッチ
  6
JWW_DASHED1
 62
   120
370
     5
100
AcDbLine
 10
-1663.455766583801
 20
2066.962331356176
 30
0.0
 11
-1588.455766583806
 21
2141.962331356169
 31
0.0
  0
LINE
  5
10B
330
1F
100
AcDbEntity
  8
0-C_ハッチ
  6
JWW_DASHED1
 62
   120
370
     5
100
AcDbLine
 10
-1705.882173454996
 20
2066.962331356179
 30
0.0
 11
-1630.882173455001
 21
2141.962331356173
 31
0.0
  0
LINE
  5
10C
330
1F
100
AcDbEntity
  8
0-C_ハッチ
  6
JWW_DASHED1
 62
   120
370
     5
100
AcDbLine
 10
-1748.308580326192
 20
2066.962331356182
 30
0.0
 11
-1673.308580326197
 21
2141.962331356176
 31
0.0
  0
LINE
  5
10D
330
1F
100
AcDbEntity
  8
0-C_ハッチ
  6
JWW_DASHED1
 62
   120
370
     5
100
AcDbLine
 10
-1790.734987197404
 20
2066.96233135617
 30
0.0
 11
-1715.734987197411
 21
2141.962331356166
 31
0.0
  0
LINE
  5
10E
330
1F
100
AcDbEntity
  8
0-C_ハッチ
  6
JWW_DASHED1
 62
   120
370
     5
100
AcDbLine
 10
-1833.161394068616
 20
2066.962331356159
 30
0.0
 11
-1758.161394068606
 21
2141.962331356169
 31
0.0
  0
LINE
  5
10F
330
1F
100
AcDbEntity
  8
0-C_ハッチ
  6
JWW_DASHED1
 62
   120
370
     5
100
AcDbLine
 10
-1578.161394068609
 20
2321.962331356166
 30
0.0
 11
-1568.637331856008
 21
2331.486393568768
 31
0.0
  0
LINE
  5
110
330
1F
100
AcDbEntity
  8
0-C_ハッチ
  6
JWW_DASHED1
 62
   120
370
     5
100
AcDbLine
 10
-1875.587800939753
 20
2066.962331356166
 30
0.0
 11
-1800.58780093976
 21
2141.962331356162
 31
0.0
  0
LINE
  5
111
330
1F
100
AcDbEntity
  8
0-C_ハッチ
  6
JWW_DASHED1
 62
   120
370
     5
100
AcDbLine
 10
-1620.587800939746
 20
2321.962331356175
 30
0.0
 11
-1568.637331856004
 21
2373.912800439916
 31
0.0
  0
LINE
  5
112
330
1F
100
AcDbEntity
  8
0-C_ハッチ
  6
JWW_DASHED1
 62
   120
370
     5
100
AcDbLine
 10
-1918.01420781095
 20
2066.962331356172
 30
0.0
 11
-1843.014207810955
 21
2141.962331356166
 31
0.0
  0
LINE
  5
113
330
1F
100
AcDbEntity
  8
0-C_ハッチ
  6
JWW_DASHED1
 62
   120
370
     5
100
AcDbLine
 10
-1663.014207810958
 20
2321.962331356162
 30
0.0
 11
-1591.014207810959
 21
2393.962331356162
 31
0.0
  0
LINE
  5
114
330
1F
100
AcDbEntity
  8
0-C_ハッチ
  6
JWW_DASHED1
 62
   120
370
     5
100
AcDbLine
 10
-1960.440614682145
 20
2066.962331356176
 30
0.0
 11
-1885.440614682151
 21
2141.962331356169
 31
0.0
  0
LINE
  5
115
330
1F
100
AcDbEntity
  8
0-C_ハッチ
  6
JWW_DASHED1
 62
   120
370
     5
100
AcDbLine
 10
-1705.440614682155
 20
2321.962331356166
 30
0.0
 11
-1633.440614682155
 21
2393.962331356165
 31
0.0
  0
LINE
  5
116
330
1F
100
AcDbEntity
  8
0-C_ハッチ
  6
JWW_DASHED1
 62
   120
370
     5
100
AcDbLine
 10
-2002.867021553342
 20
2066.962331356179
 30
0.0
 11
-1927.867021553348
 21
2141.962331356173
 31
0.0
  0
LINE
  5
117
330
1F
100
AcDbEntity
  8
0-C_ハッチ
  6
JWW_DASHED1
 62
   120
370
     5
100
AcDbLine
 10
-1747.867021553351
 20
2321.962331356169
 30
0.0
 11
-1675.867021553352
 21
2393.962331356168
 31
0.0
  0
LINE
  5
118
330
1F
100
AcDbEntity
  8
0-C_ハッチ
  6
JWW_DASHED1
 62
   120
370
     5
100
AcDbLine
 10
-2045.293428424538
 20
2066.962331356182
 30
0.0
 11
-1970.293428424545
 21
2141.962331356176
 31
0.0
  0
LINE
  5
119
330
1F
100
AcDbEntity
  8
0-C_ハッチ
  6
JWW_DASHED1
 62
   120
370
     5
100
AcDbLine
 10
-1790.293428424546
 20
2321.962331356173
 30
0.0
 11
-1718.293428424547
 21
2393.962331356171
 31
0.0
  0
LINE
  5
11A
330
1F
100
AcDbEntity
  8
0-C_ハッチ
  6
JWW_DASHED1
 62
   120
370
     5
100
AcDbLine
 10
-2087.719835295733
 20
2066.962331356187
 30
0.0
 11
-2012.71983529574
 21
2141.96233135618
 31
0.0
  0
LINE
  5
11B
330
1F
100
AcDbEntity
  8
0-C_ハッチ
  6
JWW_DASHED1
 62
   120
370
     5
100
AcDbLine
 10
-1832.719835295753
 20
2321.962331356169
 30
0.0
 11
-1760.71983529575
 21
2393.962331356169
 31
0.0
  0
LINE
  5
11C
330
1F
100
AcDbEntity
  8
0-C_ハッチ
  6
JWW_DASHED1
 62
   120
370
     5
100
AcDbLine
 10
-2130.146242166945
 20
2066.962331356176
 30
0.0
 11
-2055.146242166952
 21
2141.962331356169
 31
0.0
  0
LINE
  5
11D
330
1F
100
AcDbEntity
  8
0-C_ハッチ
  6
JWW_DASHED1
 62
   120
370
     5
100
AcDbLine
 10
-1875.146242166956
 20
2321.962331356166
 30
0.0
 11
-1803.146242166957
 21
2393.962331356164
 31
0.0
  0
LINE
  5
11E
330
1F
100
AcDbEntity
  8
0-C_ハッチ
  6
JWW_DASHED1
 62
   120
370
     5
100
AcDbLine
 10
-2172.572649038158
 20
2066.962331356162
 30
0.0
 11
-2097.572649038148
 21
2141.962331356172
 31
0.0
  0
LINE
  5
11F
330
1F
100
AcDbEntity
  8
0-C_ハッチ
  6
JWW_DASHED1
 62
   120
370
     5
100
AcDbLine
 10
-1917.572649038153
 20
2321.962331356169
 30
0.0
 11
-1845.572649038168
 21
2393.962331356151
 31
0.0
  0
LINE
  5
120
330
1F
100
AcDbEntity
  8
0-C_ハッチ
  6
JWW_DASHED1
 62
   120
370
     5
100
AcDbLine
 10
-2214.999055909295
 20
2066.96233135617
 30
0.0
 11
-2139.999055909302
 21
2141.962331356166
 31
0.0
  0
LINE
  5
121
330
1F
100
AcDbEntity
  8
0-C_ハッチ
  6
JWW_DASHED1
 62
   120
370
     5
100
AcDbLine
 10
-1959.99905590929
 20
2321.962331356176
 30
0.0
 11
-1887.999055909306
 21
2393.96233135616
 31
0.0
  0
LINE
  5
122
330
1F
100
AcDbEntity
  8
0-C_ハッチ
  6
JWW_DASHED1
 62
   120
370
     5
100
AcDbLine
 10
-2257.425462780491
 20
2066.962331356176
 30
0.0
 11
-2182.425462780498
 21
2141.962331356169
 31
0.0
  0
LINE
  5
123
330
1F
100
AcDbEntity
  8
0-C_ハッチ
  6
JWW_DASHED1
 62
   120
370
     5
100
AcDbLine
 10
-2002.425462780502
 20
2321.962331356164
 30
0.0
 11
-1930.425462780503
 21
2393.962331356164
 31
0.0
  0
LINE
  5
124
330
1F
100
AcDbEntity
  8
0-C_ハッチ
  6
JWW_DASHED1
 62
   120
370
     5
100
AcDbLine
 10
-2299.851869651687
 20
2066.962331356179
 30
0.0
 11
-2224.851869651694
 21
2141.962331356172
 31
0.0
  0
LINE
  5
125
330
1F
100
AcDbEntity
  8
0-C_ハッチ
  6
JWW_DASHED1
 62
   120
370
     5
100
AcDbLine
 10
-2044.851869651699
 20
2321.962331356166
 30
0.0
 11
-1972.851869651699
 21
2393.962331356166
 31
0.0
  0
LINE
  5
126
330
1F
100
AcDbEntity
  8
0-C_ハッチ
  6
JWW_DASHED1
 62
   120
370
     5
100
AcDbLine
 10
-2342.278276522883
 20
2066.962331356182
 30
0.0
 11
-2267.27827652289
 21
2141.962331356176
 31
0.0
  0
LINE
  5
127
330
1F
100
AcDbEntity
  8
0-C_ハッチ
  6
JWW_DASHED1
 62
   120
370
     5
100
AcDbLine
 10
-2069.298782269493
 20
2339.941825609572
 30
0.0
 11
-2015.278276522896
 21
2393.962331356171
 31
0.0
  0
LINE
  5
128
330
1F
100
AcDbEntity
  8
0-C_ハッチ
  6
JWW_DASHED1
 62
   120
370
     5
100
AcDbLine
 10
-2384.704683394079
 20
2066.962331356189
 30
0.0
 11
-2309.704683394086
 21
2141.96233135618
 31
0.0
  0
LINE
  5
129
330
1F
100
AcDbEntity
  8
0-C_ハッチ
  6
JWW_DASHED1
 62
   120
370
     5
100
AcDbLine
 10
-2069.298782269497
 20
2382.36823248077
 30
0.0
 11
-2057.704683394092
 21
2393.962331356176
 31
0.0
  0
LINE
  5
12A
330
1F
100
AcDbEntity
  8
0-C_ハッチ
  6
JWW_DASHED1
 62
   120
370
     5
100
AcDbLine
 10
-2427.131090265291
 20
2066.962331356176
 30
0.0
 11
-2352.131090265299
 21
2141.962331356169
 31
0.0
  0
LINE
  5
12B
330
1F
100
AcDbEntity
  8
0-C_ハッチ
  6
JWW_DASHED1
 62
   120
370
     5
100
AcDbLine
 10
-2469.557497136502
 20
2066.962331356163
 30
0.0
 11
-2394.557497136495
 21
2141.962331356172
 31
0.0
  0
LINE
  5
12C
330
1F
100
AcDbEntity
  8
0-C_ハッチ
  6
JWW_DASHED1
 62
   120
370
     5
100
AcDbLine
 10
-2511.983904007669
 20
2066.962331356169
 30
0.0
 11
-2436.983904007661
 21
2141.962331356176
 31
0.0
  0
LINE
  5
12D
330
1F
100
AcDbEntity
  8
0-C_ハッチ
  6
JWW_DASHED1
 62
   120
370
     5
100
AcDbLine
 10
-2554.410310878835
 20
2066.962331356176
 30
0.0
 11
-2479.410310878844
 21
2141.962331356166
 31
0.0
  0
LINE
  5
12E
330
1F
100
AcDbEntity
  8
0-C_ハッチ
  6
JWW_DASHED1
 62
   120
370
     5
100
AcDbLine
 10
-2579.820747588004
 20
2083.978301518209
 30
0.0
 11
-2521.83671775004
 21
2141.962331356172
 31
0.0
  0
LINE
  5
12F
330
1F
100
AcDbEntity
  8
0-C_ハッチ
  6
JWW_DASHED1
 62
   120
370
     5
100
AcDbLine
 10
-2579.751771953167
 20
2126.473684024244
 30
0.0
 11
-2564.263124621237
 21
2141.962331356176
 31
0.0
  0
LINE
  5
130
330
1F
100
AcDbEntity
  8
0-C_ハッチ
  6
JWW_DASHED1
 62
   120
370
     5
100
AcDbLine
 10
-2358.527193333183
 20
2771.962331356175
 30
0.0
 11
-2283.527193333186
 21
2846.962331356173
 31
0.0
  0
LINE
  5
131
330
1F
100
AcDbEntity
  8
0-C_ハッチ
  6
JWW_DASHED1
 62
   120
370
     5
100
AcDbLine
 10
-2400.953600204379
 20
2771.962331356179
 30
0.0
 11
-2325.953600204381
 21
2846.962331356176
 31
0.0
  0
LINE
  5
132
330
1F
100
AcDbEntity
  8
0-C_ハッチ
  6
JWW_DASHED1
 62
   120
370
     5
100
AcDbLine
 10
-2443.380007075574
 20
2771.962331356182
 30
0.0
 11
-2368.380007075574
 21
2846.962331356182
 31
0.0
  0
LINE
  5
133
330
1F
100
AcDbEntity
  8
0-C_ハッチ
  6
JWW_DASHED1
 62
   120
370
     5
100
AcDbLine
 10
-2485.80641394674
 20
2771.962331356162
 30
0.0
 11
-2410.806413946726
 21
2846.962331356176
 31
0.0
  0
LINE
  5
134
330
1F
100
AcDbEntity
  8
0-C_ハッチ
  6
JWW_DASHED1
 62
   120
370
     5
100
AcDbLine
 10
-2528.23282081794
 20
2771.962331356162
 30
0.0
 11
-2453.232820817947
 21
2846.962331356155
 31
0.0
  0
LINE
  5
135
330
1F
100
AcDbEntity
  8
0-C_ハッチ
  6
JWW_DASHED1
 62
   120
370
     5
100
AcDbLine
 10
-2570.659227689135
 20
2771.962331356166
 30
0.0
 11
-2495.659227689143
 21
2846.96233135616
 31
0.0
  0
LINE
  5
136
330
1F
100
AcDbEntity
  8
0-C_ハッチ
  6
JWW_DASHED1
 62
   120
370
     5
100
AcDbLine
 10
-2578.648161795793
 20
2806.39980412071
 30
0.0
 11
-2538.08563456034
 21
2846.962331356164
 31
0.0
  0
LINE
  5
137
330
1F
100
AcDbEntity
  8
0-6_扉
  6
JWW_DASHED2
 62
    40
370
    15
100
AcDbLine
 10
-1448.637331856013
 20
2660.962331356171
 30
0.0
 11
-953.1286921080685
 21
2660.962331356171
 31
0.0
  0
LINE
  5
138
330
1F
100
AcDbEntity
  8
0-6_扉
  6
JWW_DASHED2
 62
    40
370
    15
100
AcDbLine
 10
-1448.637331856013
 20
2480.962331356171
 30
0.0
 11
-953.1286921080685
 21
2480.962331356171
 31
0.0
  0
LINE
  5
139
330
1F
100
AcDbEntity
  8
0-6_扉
  6
JWW_DASHED2
 62
    40
370
    15
100
AcDbLine
 10
-2087.29878226949
 20
2660.962331356171
 30
0.0
 11
-1568.637331856013
 21
2660.962331356171
 31
0.0
  0
LINE
  5
13A
330
1F
100
AcDbEntity
  8
0-6_扉
  6
JWW_DASHED2
 62
    40
370
    15
100
AcDbLine
 10
-2087.29878226949
 20
2480.962331356171
 30
0.0
 11
-1568.637331856013
 21
2480.962331356171
 31
0.0
  0
LINE
  5
13B
330
1F
100
AcDbEntity
  8
0-6_扉
  6
JWW_DASHED2
 62
    40
370
    15
100
AcDbLine
 10
955.2114882147773
 20
2660.962331356171
 30
0.0
 11
1552.341356398234
 21
2660.962331356171
 31
0.0
  0
LINE
  5
13C
330
1F
100
AcDbEntity
  8
0-6_扉
  6
JWW_DASHED2
 62
    40
370
    15
100
AcDbLine
 10
955.2114882147773
 20
2480.962331356171
 30
0.0
 11
1552.341356398234
 21
2480.962331356171
 31
0.0
  0
LINE
  5
13D
330
1F
100
AcDbEntity
  8
0-6_扉
  6
JWW_DASHED2
 62
    40
370
    15
100
AcDbLine
 10
1672.341356398234
 20
2660.962331356171
 30
0.0
 11
2089.3815783762
 21
2660.962331356171
 31
0.0
  0
LINE
  5
13E
330
1F
100
AcDbEntity
  8
0-6_扉
  6
JWW_DASHED2
 62
    40
370
    15
100
AcDbLine
 10
1672.341356398234
 20
2480.962331356171
 30
0.0
 11
2089.3815783762
 21
2480.962331356171
 31
0.0
  0
LINE
  5
13F
330
1F
100
AcDbEntity
  8
0-6_扉
  6
Continuous
 62
   200
370
    20
100
AcDbLine
 10
-1133.128692108068
 20
2660.962331356171
 30
0.0
 11
-524.6373324363695
 21
2660.962331356171
 31
0.0
  0
LINE
  5
140
330
1F
100
AcDbEntity
  8
0-6_扉
  6
Continuous
 62
   200
370
    20
100
AcDbLine
 10
-404.6373324363695
 20
2660.962331356171
 30
0.0
 11
418.3643398052892
 21
2660.962331356171
 31
0.0
  0
LINE
  5
141
330
1F
100
AcDbEntity
  8
0-6_扉
  6
Continuous
 62
   200
370
    20
100
AcDbLine
 10
-404.6373324363695
 20
2480.962331356171
 30
0.0
 11
418.3643398052892
 21
2480.962331356171
 31
0.0
  0
LINE
  5
142
330
1F
100
AcDbEntity
  8
0-6_扉
  6
Continuous
 62
   200
370
    20
100
AcDbLine
 10
538.3643398052892
 20
2660.962331356171
 30
0.0
 11
1135.211488214778
 21
2660.962331356171
 31
0.0
  0
LINE
  5
143
330
1F
100
AcDbEntity
  8
0-1_通り芯
  6
JWW_CENTER1
 62
   120
370
     5
100
AcDbLine
 10
-2579.215345101319
 20
2456.962331356173
 30
0.0
 11
2581.381578376203
 21
2456.962331356173
 31
0.0
  0
LINE
  5
144
330
1F
100
AcDbEntity
  8
0-C_ハッチ
  6
JWW_DASHED1
 62
   120
370
     5
100
AcDbLine
 10
2251.382172231764
 20
2803.353836973401
 30
0.0
 11
2294.990666614528
 21
2846.962331356166
 31
0.0
  0
LINE
  5
145
330
1F
100
AcDbEntity
  8
0-3_仕上げ
  6
Continuous
 62
    40
370
    15
100
AcDbLine
 10
2581.298141208028
 20
2771.962331356173
 30
0.0
 11
2251.382172231764
 21
2771.962331356173
 31
0.0
  0
LINE
  5
146
330
1F
100
AcDbEntity
  8
0-3_仕上げ
  6
Continuous
 62
    40
370
    15
100
AcDbLine
 10
2581.298141208028
 20
2846.962331356173
 30
0.0
 11
2251.382172231764
 21
2846.962331356173
 31
0.0
  0
LINE
  5
147
330
1F
100
AcDbEntity
  8
0-3_仕上げ
  6
Continuous
 62
    40
370
    15
100
AcDbLine
 10
2251.382172231764
 20
2771.962331356173
 30
0.0
 11
2251.382172231764
 21
2846.962331356173
 31
0.0
  0
LINE
  5
148
330
1F
100
AcDbEntity
  8
0-2_柱
  6
Continuous
 62
     7
370
     9
100
AcDbLine
 10
2251.382172231764
 20
2141.962331356172
 30
0.0
 11
2089.382172231763
 21
2141.962331356172
 31
0.0
  0
LINE
  5
149
330
1F
100
AcDbEntity
  8
0-2_柱
  6
Continuous
 62
     7
370
     9
100
AcDbLine
 10
2089.382172231763
 20
2141.962331356172
 30
0.0
 11
2089.382172231763
 21
2321.962331356171
 31
0.0
  0
LINE
  5
14A
330
1F
100
AcDbEntity
  8
0-2_柱
  6
Continuous
 62
     7
370
     9
100
AcDbLine
 10
2089.382172231763
 20
2321.962331356171
 30
0.0
 11
2251.382172231764
 21
2321.962331356171
 31
0.0
  0
LINE
  5
14B
330
1F
100
AcDbEntity
  8
0-2_柱
  6
Continuous
 62
     7
370
     9
100
AcDbLine
 10
2251.382172231764
 20
2321.962331356171
 30
0.0
 11
2089.382172231763
 21
2141.962331356172
 31
0.0
  0
LINE
  5
14C
330
1F
100
AcDbEntity
  8
0-2_柱
  6
Continuous
 62
    92
370
    13
100
AcDbLine
 10
1135.211488214778
 20
2141.961960351089
 30
0.0
 11
1135.211488214778
 21
2321.961712911268
 31
0.0
  0
LINE
  5
14D
330
1F
100
AcDbEntity
  8
0-2_柱
  6
Continuous
 62
     7
370
     9
100
AcDbLine
 10
1297.211488214777
 20
2321.962331356171
 30
0.0
 11
1135.211488214778
 21
2141.962331356172
 31
0.0
  0
LINE
  5
14E
330
1F
100
AcDbEntity
  8
0-2_柱
  6
Continuous
 62
     7
370
     9
100
AcDbLine
 10
1297.211488214777
 20
2321.962331356171
 30
0.0
 11
1297.211488214777
 21
2141.962331356172
 31
0.0
  0
LINE
  5
14F
330
1F
100
AcDbEntity
  8
0-2_柱
  6
Continuous
 62
     7
370
     9
100
AcDbLine
 10
1135.211488214778
 20
2321.962331356171
 30
0.0
 11
1297.211488214777
 21
2321.962331356171
 31
0.0
  0
LINE
  5
150
330
1F
100
AcDbEntity
  8
0-2_柱
  6
Continuous
 62
     7
370
     9
100
AcDbLine
 10
1135.211488214778
 20
2141.962331356172
 30
0.0
 11
1135.211488214778
 21
2321.962331356171
 31
0.0
  0
LINE
  5
151
330
1F
100
AcDbEntity
  8
0-2_柱
  6
Continuous
 62
     7
370
     9
100
AcDbLine
 10
1297.211488214777
 20
2141.962331356172
 30
0.0
 11
1135.211488214778
 21
2141.962331356172
 31
0.0
  0
LINE
  5
152
330
1F
100
AcDbEntity
  8
0-C_ハッチ
  6
Continuous
 62
   120
370
     5
100
AcDbLine
 10
-2191.616991357535
 20
2918.962331356168
 30
0.0
 11
-2246.299376125071
 21
2864.279946588633
 31
0.0
  0
LINE
  5
153
330
1F
100
AcDbEntity
  8
0-C_ハッチ
  6
Continuous
 62
   120
370
     5
100
AcDbLine
 10
-2123.734740363643
 20
2918.96233135616
 30
0.0
 11
-2249.299376125065
 21
2793.39769559474
 31
0.0
  0
LINE
  5
154
330
1F
100
AcDbEntity
  8
0-C_ハッチ
  6
Continuous
 62
   120
370
     5
100
AcDbLine
 10
-2072.298782269484
 20
2902.516038456421
 30
0.0
 11
-2249.299376125068
 21
2725.515444600836
 31
0.0
  0
LINE
  5
155
330
1F
100
AcDbEntity
  8
0-C_ハッチ
  6
Continuous
 62
   120
370
     5
100
AcDbLine
 10
-2072.298782269487
 20
2834.633787462521
 30
0.0
 11
-2249.299376125075
 21
2657.633193606933
 31
0.0
  0
LINE
  5
156
330
1F
100
AcDbEntity
  8
0-C_ハッチ
  6
Continuous
 62
   120
370
     5
100
AcDbLine
 10
-2072.298782269487
 20
2766.751536468568
 30
0.0
 11
-2249.299376125085
 21
2589.750942612969
 31
0.0
  0
LINE
  5
157
330
1F
100
AcDbEntity
  8
0-C_ハッチ
  6
Continuous
 62
   120
370
     5
100
AcDbLine
 10
-2105.298782269498
 20
2665.869285474659
 30
0.0
 11
-2249.299376125061
 21
2521.868691619094
 31
0.0
  0
LINE
  5
158
330
1F
100
AcDbEntity
  8
0-C_ハッチ
  6
Continuous
 62
   120
370
     5
100
AcDbLine
 10
-2105.298782269478
 20
2597.98703448078
 30
0.0
 11
-2249.299376125065
 21
2453.986440625194
 31
0.0
  0
LINE
  5
159
330
1F
100
AcDbEntity
  8
0-C_ハッチ
  6
Continuous
 62
   120
370
     5
100
AcDbLine
 10
-2105.298782269486
 20
2530.104783486874
 30
0.0
 11
-2246.299376125057
 21
2389.104189631305
 31
0.0
  0
LINE
  5
15A
330
1F
100
AcDbEntity
  8
0-C_ハッチ
  6
Continuous
 62
   120
370
     5
100
AcDbLine
 10
-2105.298782269494
 20
2462.222532492966
 30
0.0
 11
-2245.558983406296
 21
2321.962331356166
 31
0.0
  0
LINE
  5
15B
330
1F
100
AcDbEntity
  8
0-C_ハッチ
  6
Continuous
 62
   120
370
     5
100
AcDbLine
 10
-2072.298347393993
 20
2427.340716374517
 30
0.0
 11
-2177.676732412334
 21
2321.962331356175
 31
0.0
  0
LINE
  5
15C
330
1F
100
AcDbEntity
  8
0-C_ハッチ
  6
Continuous
 62
   120
370
     5
100
AcDbLine
 10
-2072.298347394001
 20
2359.458465380609
 30
0.0
 11
-2109.794481418432
 21
2321.962331356177
 31
0.0
  0
LINE
  5
15D
330
1F
100
AcDbEntity
  8
0-C_ハッチ
  6
Continuous
 62
   120
370
     5
100
AcDbLine
 10
-2072.298782269477
 20
2698.869285474679
 30
0.0
 11
-2077.205736387986
 21
2693.962331356171
 31
0.0
  0
LINE
  5
15E
330
1F
100
AcDbEntity
  8
0-C_ハッチ
  6
Continuous
 62
   120
370
     5
100
AcDbLine
 10
-956.1284694122422
 20
2404.990723383741
 30
0.0
 11
-1133.128692108075
 21
2227.990500687908
 31
0.0
  0
LINE
  5
15F
330
1F
100
AcDbEntity
  8
0-C_ハッチ
  6
Continuous
 62
   120
370
     5
100
AcDbLine
 10
-956.1284694122337
 20
2337.108472389797
 30
0.0
 11
-1133.128692108082
 21
2160.108249693948
 31
0.0
  0
LINE
  5
160
330
1F
100
AcDbEntity
  8
0-C_ハッチ
  6
Continuous
 62
   120
370
     5
100
AcDbLine
 10
-956.1284694122371
 20
2269.226221395895
 30
0.0
 11
-1133.128692108091
 21
2092.225998700041
 31
0.0
  0
LINE
  5
161
330
1F
100
AcDbEntity
  8
0-C_ハッチ
  6
Continuous
 62
   120
370
     5
100
AcDbLine
 10
-956.1284694122422
 20
2201.343970401993
 30
0.0
 11
-1130.12869210809
 21
2027.343747706145
 31
0.0
  0
LINE
  5
162
330
1F
100
AcDbEntity
  8
0-C_ハッチ
  6
Continuous
 62
   120
370
     5
100
AcDbLine
 10
-956.1284694122439
 20
2133.461719408092
 30
0.0
 11
-1094.627857464152
 21
1994.962331356184
 31
0.0
  0
LINE
  5
163
330
1F
100
AcDbEntity
  8
0-C_ハッチ
  6
Continuous
 62
   120
370
     5
100
AcDbLine
 10
-956.1284694122473
 20
2065.579468414191
 30
0.0
 11
-1026.745606470276
 21
1994.962331356163
 31
0.0
  0
LINE
  5
164
330
1F
100
AcDbEntity
  8
0-2_柱
  6
Continuous
 62
     7
370
     9
100
AcDbLine
 10
-1295.128692108081
 20
2321.962331356171
 30
0.0
 11
-1295.128692108081
 21
2141.962331356172
 31
0.0
  0
LINE
  5
165
330
1F
100
AcDbEntity
  8
0-2_柱
  6
Continuous
 62
     7
370
     9
100
AcDbLine
 10
-1133.128692108082
 20
2321.962331356171
 30
0.0
 11
-1295.128692108081
 21
2321.962331356171
 31
0.0
  0
LINE
  5
166
330
1F
100
AcDbEntity
  8
0-2_柱
  6
Continuous
 62
     7
370
     9
100
AcDbLine
 10
-1133.128692108082
 20
2141.962331356172
 30
0.0
 11
-1133.128692108082
 21
2321.962331356171
 31
0.0
  0
LINE
  5
167
330
1F
100
AcDbEntity
  8
0-2_柱
  6
Continuous
 62
     7
370
     9
100
AcDbLine
 10
-1295.128692108081
 20
2141.962331356172
 30
0.0
 11
-1133.128692108082
 21
2141.962331356172
 31
0.0
  0
LINE
  5
168
330
1F
100
AcDbEntity
  8
0-3_仕上げ
  6
Continuous
 62
    40
370
    15
100
AcDbLine
 10
-2579.215345101319
 20
2846.962331356173
 30
0.0
 11
-2249.299376125061
 21
2846.962331356173
 31
0.0
  0
LINE
  5
169
330
1F
100
AcDbEntity
  8
0-3_仕上げ
  6
Continuous
 62
    40
370
    15
100
AcDbLine
 10
-2579.215345101319
 20
2771.962331356173
 30
0.0
 11
-2249.299376125061
 21
2771.962331356173
 31
0.0
  0
LINE
  5
16A
330
1F
100
AcDbEntity
  8
0-3_仕上げ
  6
Continuous
 62
    40
370
    15
100
AcDbLine
 10
-2249.299376125061
 20
2771.962331356173
 30
0.0
 11
-2249.299376125061
 21
2846.962331356173
 31
0.0
  0
LINE
  5
16B
330
1F
100
AcDbEntity
  8
0-C_ハッチ
  6
JWW_DASHED1
 62
   120
370
     5
100
AcDbLine
 10
-2316.100786461986
 20
2771.962331356171
 30
0.0
 11
-2249.299376125061
 21
2838.763741693096
 31
0.0
  0
LINE
  5
16C
330
1F
100
AcDbEntity
  8
0-C_ハッチ
  6
JWW_DASHED1
 62
   120
370
     5
100
AcDbLine
 10
-2273.674379590791
 20
2771.962331356166
 30
0.0
 11
-2249.299376125061
 21
2796.337334821896
 31
0.0
  0
LINE
  5
16D
330
1F
100
AcDbEntity
  8
0-0_補助線
  6
JWW_HOJO
 62
   120
370
     5
100
AcDbLine
 10
-2578.372938983995
 20
3041.962331356173
 30
0.0
 11
2581.381578376203
 21
3041.962331356173
 31
0.0
  0
MTEXT
  5
16E
330
1F
100
AcDbEntity
  8
0-A_文字
  6
Continuous
 62
     7
370
     9
100
AcDbMText
 10
-2578.372938983995
 20
3027.682331356173
 30
0.0
 40
91.44
 41
600.0
 46
0.0
 71
     7
 72
     1
  1
{\fＭＳ ゴシック|b0|i0|c128|p49;■横断面図}
 73
     1
 44
1.0
  0
LINE
  5
16F
330
1F
100
AcDbEntity
  8
0-2_柱
  6
Continuous
 62
     7
370
     9
100
AcDbLine
 10
-2249.299376125061
 20
2141.962331356172
 30
0.0
 11
-2087.299376125061
 21
2141.962331356172
 31
0.0
  0
LINE
  5
170
330
1F
100
AcDbEntity
  8
0-2_柱
  6
Continuous
 62
     7
370
     9
100
AcDbLine
 10
-2087.299376125061
 20
2141.962331356172
 30
0.0
 11
-2087.299376125061
 21
2321.962331356171
 31
0.0
  0
LINE
  5
171
330
1F
100
AcDbEntity
  8
0-2_柱
  6
Continuous
 62
     7
370
     9
100
AcDbLine
 10
-2087.299376125061
 20
2321.962331356171
 30
0.0
 11
-2249.299376125061
 21
2321.962331356171
 31
0.0
  0
LINE
  5
172
330
1F
100
AcDbEntity
  8
0-2_柱
  6
Continuous
 62
     7
370
     9
100
AcDbLine
 10
-2249.299376125061
 20
2141.962331356172
 30
0.0
 11
-2087.299376125061
 21
2321.962331356173
 31
0.0
  0
LINE
  5
173
330
1F
100
AcDbEntity
  8
0-2_柱
  6
Continuous
 62
     7
370
     9
100
AcDbLine
 10
-1295.128692108081
 20
2141.962331356172
 30
0.0
 11
-1133.128692108082
 21
2321.962331356171
 31
0.0
  0
LINE
  5
174
330
1F
100
AcDbEntity
  8
0-C_ハッチ
  6
JWW_DASHED1
 62
   120
370
     5
100
AcDbLine
 10
2251.382172231764
 20
2845.780243844599
 30
0.0
 11
2252.564259743328
 21
2846.962331356164
 31
0.0
  0
LINE
  5
175
330
1F
100
AcDbEntity
  8
0-4_枠
  6
Continuous
 62
    92
370
    13
100
AcDbLine
 10
-1133.128692108068
 20
2081.962331356173
 30
0.0
 11
-1130.128692108068
 21
2081.962331356173
 31
0.0
  0
LINE
  5
176
330
1F
100
AcDbEntity
  8
0-4_枠
  6
Continuous
 62
    92
370
    13
100
AcDbLine
 10
-1130.128692108068
 20
2081.962331356173
 30
0.0
 11
-1130.128692108068
 21
1994.962331356173
 31
0.0
  0
LINE
  5
177
330
1F
100
AcDbEntity
  8
0-4_枠
  6
Continuous
 62
    92
370
    13
100
AcDbLine
 10
-1133.128692108068
 20
2351.962331356173
 30
0.0
 11
-1130.128692108068
 21
2351.962331356173
 31
0.0
  0
LINE
  5
178
330
1F
100
AcDbEntity
  8
0-4_枠
  6
Continuous
 62
    92
370
    13
100
AcDbLine
 10
-1130.128692108068
 20
2351.962331356173
 30
0.0
 11
-1130.128692108068
 21
2438.962331356173
 31
0.0
  0
LINE
  5
179
330
1F
100
AcDbEntity
  8
0-4_枠
  6
Continuous
 62
    92
370
    13
100
AcDbLine
 10
-1133.128692108068
 20
1991.962331356173
 30
0.0
 11
-1133.128692108068
 21
2441.962331356173
 31
0.0
  0
LINE
  5
17A
330
1F
100
AcDbEntity
  8
0-4_枠
  6
Continuous
 62
    92
370
    13
100
AcDbLine
 10
-1007.128692108072
 20
2441.962331356173
 30
0.0
 11
-953.1284694122279
 21
2441.962331356173
 31
0.0
  0
LINE
  5
17B
330
1F
100
AcDbEntity
  8
0-4_枠
  6
Continuous
 62
    92
370
    13
100
AcDbLine
 10
-1007.128692108072
 20
2438.962331356173
 30
0.0
 11
-956.1284694122286
 21
2438.962331356173
 31
0.0
  0
LINE
  5
17C
330
1F
100
AcDbEntity
  8
0-4_枠
  6
Continuous
 62
    92
370
    13
100
AcDbLine
 10
-1007.128692108072
 20
2441.962331356173
 30
0.0
 11
-1007.128692108072
 21
2426.962331356173
 31
0.0
  0
LINE
  5
17D
330
1F
100
AcDbEntity
  8
0-4_枠
  6
Continuous
 62
    92
370
    13
100
AcDbLine
 10
-1079.128692108072
 20
2426.962331356173
 30
0.0
 11
-1079.128692108072
 21
2441.962331356173
 31
0.0
  0
LINE
  5
17E
330
1F
100
AcDbEntity
  8
0-4_枠
  6
Continuous
 62
    92
370
    13
100
AcDbLine
 10
-1079.128692108072
 20
2441.962331356173
 30
0.0
 11
-1133.128692108068
 21
2441.962331356173
 31
0.0
  0
LINE
  5
17F
330
1F
100
AcDbEntity
  8
0-4_枠
  6
Continuous
 62
    92
370
    13
100
AcDbLine
 10
-1079.128692108072
 20
2438.962331356173
 30
0.0
 11
-1130.128692108068
 21
2438.962331356173
 31
0.0
  0
LINE
  5
180
330
1F
100
AcDbEntity
  8
0-4_枠
  6
Continuous
 62
    92
370
    13
100
AcDbLine
 10
-1079.128692108072
 20
2426.962331356173
 30
0.0
 11
-1007.128692108072
 21
2426.962331356173
 31
0.0
  0
LINE
  5
181
330
1F
100
AcDbEntity
  8
0-4_枠
  6
Continuous
 62
    92
370
    13
100
AcDbLine
 10
-2069.298782269484
 20
2321.962331356171
 30
0.0
 11
-2249.299376125055
 21
2321.962331356171
 31
0.0
  0
LINE
  5
182
330
1F
100
AcDbEntity
  8
0-4_枠
  6
Continuous
 62
    92
370
    13
100
AcDbLine
 10
-2249.299376125055
 20
2321.962331356171
 30
0.0
 11
-2249.299376125055
 21
2921.962331356171
 31
0.0
  0
LINE
  5
183
330
1F
100
AcDbEntity
  8
0-4_枠
  6
Continuous
 62
    92
370
    13
100
AcDbLine
 10
-2246.299376125058
 20
2918.962331356169
 30
0.0
 11
-2246.299376125058
 21
2831.962331356171
 31
0.0
  0
LINE
  5
184
330
1F
100
AcDbEntity
  8
0-4_枠
  6
Continuous
 62
    92
370
    13
100
AcDbLine
 10
-2249.299376125055
 20
2831.962331356171
 30
0.0
 11
-2246.299376125058
 21
2831.962331356171
 31
0.0
  0
LINE
  5
185
330
1F
100
AcDbEntity
  8
0-4_枠
  6
Continuous
 62
    92
370
    13
100
AcDbLine
 10
-2246.299376125058
 20
2321.962331356171
 30
0.0
 11
-2246.299376125058
 21
2411.962331356171
 31
0.0
  0
LINE
  5
186
330
1F
100
AcDbEntity
  8
0-4_枠
  6
Continuous
 62
    92
370
    13
100
AcDbLine
 10
-2246.299376125058
 20
2411.962331356171
 30
0.0
 11
-2249.299376125055
 21
2411.962331356171
 31
0.0
  0
LINE
  5
187
330
1F
100
AcDbEntity
  8
0-4_枠
  6
Continuous
 62
    92
370
    13
100
AcDbLine
 10
-2105.298782269485
 20
2447.96233135617
 30
0.0
 11
-2069.298782269484
 21
2447.96233135617
 31
0.0
  0
LINE
  5
188
330
1F
100
AcDbEntity
  8
0-4_枠
  6
Continuous
 62
    92
370
    13
100
AcDbLine
 10
-2072.298347393995
 20
2321.962331356171
 30
0.0
 11
-2072.298347393995
 21
2447.96233135617
 31
0.0
  0
LINE
  5
189
330
1F
100
AcDbEntity
  8
0-4_枠
  6
Continuous
 62
    92
370
    13
100
AcDbLine
 10
-2069.298782269484
 20
2321.962331356171
 30
0.0
 11
-2069.298782269484
 21
2447.96233135617
 31
0.0
  0
LINE
  5
18A
330
1F
100
AcDbEntity
  8
0-4_枠
  6
Continuous
 62
    92
370
    13
100
AcDbLine
 10
-2105.298782269485
 20
2447.96233135617
 30
0.0
 11
-2105.298782269485
 21
2693.962331356171
 31
0.0
  0
LINE
  5
18B
330
1F
100
AcDbEntity
  8
0-4_枠
  6
Continuous
 62
    92
370
    13
100
AcDbLine
 10
-2105.298782269485
 20
2693.962331356171
 30
0.0
 11
-2069.298782269484
 21
2693.962331356171
 31
0.0
  0
LINE
  5
18C
330
1F
100
AcDbEntity
  8
0-C_ハッチ
  6
Continuous
 62
   120
370
     5
100
AcDbLine
 10
-1069.921363427606
 20
2426.962331356173
 30
0.0
 11
-1130.128692108087
 21
2366.755002675692
 31
0.0
  0
LINE
  5
18D
330
1F
100
AcDbEntity
  8
0-C_ハッチ
  6
Continuous
 62
   120
370
     5
100
AcDbLine
 10
-990.0391124337101
 20
2438.962331356173
 30
0.0
 11
-1133.128692108067
 21
2295.872751681806
 31
0.0
  0
LINE
  5
18E
330
1F
100
AcDbEntity
  8
0-C_ハッチ
  6
Continuous
 62
   120
370
     5
100
AcDbLine
 10
-1125.803614421496
 20
2438.962331356173
 30
0.0
 11
-1130.128692108078
 21
2434.63725366959
 31
0.0
  0
LINE
  5
18F
330
1F
100
AcDbEntity
  8
0-B_寸法
  6
Continuous
 62
   120
370
     5
100
AcDbLine
 10
-2069.298782269493
 20
1511.962331356172
 30
0.0
 11
-1133.128692108067
 21
1511.962331356172
 31
0.0
  0
LWPOLYLINE
  5
190
330
1F
100
AcDbEntity
  8
0-B_寸法
  6
Continuous
 62
     7
370
     9
100
AcDbPolyline
 90
        4
 70
     1
 43
3.0
 10
-2067.798782269493
 20
1511.962331356172
 42
0.4142135623731
 10
-2069.298782269493
 20
1513.462331356172
 42
0.4142135623731
 10
-2070.798782269493
 20
1511.962331356172
 42
0.4142135623731
 10
-2069.298782269493
 20
1510.462331356172
 42
0.4142135623731
  0
LWPOLYLINE
  5
191
330
1F
100
AcDbEntity
  8
0-B_寸法
  6
Continuous
 62
     7
370
     9
100
AcDbPolyline
 90
        4
 70
     1
 43
3.0
 10
-1131.628692108067
 20
1511.962331356172
 42
0.4142135623731
 10
-1133.128692108067
 20
1513.462331356172
 42
0.4142135623731
 10
-1134.628692108067
 20
1511.962331356172
 42
0.4142135623731
 10
-1133.128692108067
 20
1510.462331356172
 42
0.4142135623731
  0
LINE
  5
192
330
1F
100
AcDbEntity
  8
0-B_寸法
  6
Continuous
 62
   120
370
     5
100
AcDbLine
 10
-2069.298782269493
 20
1301.962331356172
 30
0.0
 11
-2069.298782269493
 21
1871.962331356173
 31
0.0
  0
LINE
  5
193
330
1F
100
AcDbEntity
  8
0-B_寸法
  6
Continuous
 62
   120
370
     5
100
AcDbLine
 10
-1133.128692108067
 20
1511.962331356172
 30
0.0
 11
-1133.128692108067
 21
1871.962331356173
 31
0.0
  0
LINE
  5
194
330
1F
100
AcDbEntity
  8
0-B_寸法
  6
Continuous
 62
   120
370
     5
100
AcDbLine
 10
-1133.128692108067
 20
1511.962331356172
 30
0.0
 11
-953.1286921080634
 21
1511.962331356172
 31
0.0
  0
LWPOLYLINE
  5
195
330
1F
100
AcDbEntity
  8
0-B_寸法
  6
Continuous
 62
     7
370
     9
100
AcDbPolyline
 90
        4
 70
     1
 43
3.0
 10
-951.6286921080634
 20
1511.962331356172
 42
0.4142135623731
 10
-953.1286921080634
 20
1513.462331356172
 42
0.4142135623731
 10
-954.6286921080634
 20
1511.962331356172
 42
0.4142135623731
 10
-953.1286921080634
 20
1510.462331356172
 42
0.4142135623731
  0
LINE
  5
196
330
1F
100
AcDbEntity
  8
0-B_寸法
  6
Continuous
 62
   120
370
     5
100
AcDbLine
 10
-953.1286921080634
 20
1511.962331356172
 30
0.0
 11
-953.1286921080634
 21
1871.962331356173
 31
0.0
  0
MTEXT
  5
197
330
1F
100
AcDbEntity
  8
0-B_寸法
  6
Continuous
 62
     7
370
   211
100
AcDbMText
 10
-1106.878692108065
 20
1515.539831356172
 30
0.0
 40
97.15499999999999
 41
127.5
 46
0.0
 71
     7
 72
     1
  1
{\fＭＳ ゴシック|b0|i0|c128|p49;30}
 73
     1
 44
1.0
  0
LINE
  5
198
330
1F
100
AcDbEntity
  8
0-B_寸法
  6
Continuous
 62
   120
370
     5
100
AcDbLine
 10
-953.1286921080634
 20
1511.962331356172
 30
0.0
 11
955.2114882147739
 21
1511.962331356172
 31
0.0
  0
LWPOLYLINE
  5
199
330
1F
100
AcDbEntity
  8
0-B_寸法
  6
Continuous
 62
     7
370
     9
100
AcDbPolyline
 90
        4
 70
     1
 43
3.0
 10
956.7114882147739
 20
1511.962331356172
 42
0.4142135623731
 10
955.2114882147739
 20
1513.462331356172
 42
0.4142135623731
 10
953.7114882147739
 20
1511.962331356172
 42
0.4142135623731
 10
955.2114882147739
 20
1510.462331356172
 42
0.4142135623731
  0
LINE
  5
19A
330
1F
100
AcDbEntity
  8
0-B_寸法
  6
Continuous
 62
   120
370
     5
100
AcDbLine
 10
955.2114882147739
 20
1511.962331356172
 30
0.0
 11
955.2114882147739
 21
1871.962331356173
 31
0.0
  0
LINE
  5
19B
330
1F
100
AcDbEntity
  8
0-B_寸法
  6
Continuous
 62
   120
370
     5
100
AcDbLine
 10
955.2114882147739
 20
1511.962331356172
 30
0.0
 11
1135.211488214778
 21
1511.962331356172
 31
0.0
  0
LWPOLYLINE
  5
19C
330
1F
100
AcDbEntity
  8
0-B_寸法
  6
Continuous
 62
     7
370
     9
100
AcDbPolyline
 90
        4
 70
     1
 43
3.0
 10
1136.711488214777
 20
1511.962331356172
 42
0.4142135623731
 10
1135.211488214778
 20
1513.462331356172
 42
0.4142135623731
 10
1133.711488214778
 20
1511.962331356172
 42
0.4142135623731
 10
1135.211488214778
 20
1510.462331356172
 42
0.4142135623731
  0
LINE
  5
19D
330
1F
100
AcDbEntity
  8
0-B_寸法
  6
Continuous
 62
   120
370
     5
100
AcDbLine
 10
1135.211488214778
 20
1511.962331356172
 30
0.0
 11
1135.211488214778
 21
1871.962331356173
 31
0.0
  0
MTEXT
  5
19E
330
1F
100
AcDbEntity
  8
0-B_寸法
  6
Continuous
 62
     7
370
   211
100
AcDbMText
 10
981.4614882147772
 20
1515.539831356172
 30
0.0
 40
97.15499999999999
 41
127.5
 46
0.0
 71
     7
 72
     1
  1
{\fＭＳ ゴシック|b0|i0|c128|p49;30}
 73
     1
 44
1.0
  0
LINE
  5
19F
330
1F
100
AcDbEntity
  8
0-B_寸法
  6
Continuous
 62
   120
370
     5
100
AcDbLine
 10
1135.211488214778
 20
1511.962331356172
 30
0.0
 11
2071.381578376203
 21
1511.962331356172
 31
0.0
  0
LWPOLYLINE
  5
1A0
330
1F
100
AcDbEntity
  8
0-B_寸法
  6
Continuous
 62
     7
370
     9
100
AcDbPolyline
 90
        4
 70
     1
 43
3.0
 10
2072.881578376203
 20
1511.962331356172
 42
0.4142135623731
 10
2071.381578376203
 20
1513.462331356172
 42
0.4142135623731
 10
2069.881578376203
 20
1511.962331356172
 42
0.4142135623731
 10
2071.381578376203
 20
1510.462331356172
 42
0.4142135623731
  0
LINE
  5
1A1
330
1F
100
AcDbEntity
  8
0-B_寸法
  6
Continuous
 62
   120
370
     5
100
AcDbLine
 10
2071.381578376203
 20
1301.962331356172
 30
0.0
 11
2071.381578376203
 21
1871.962331356173
 31
0.0
  0
LINE
  5
1A2
330
1F
100
AcDbEntity
  8
0-B_寸法
  6
Continuous
 62
   120
370
     5
100
AcDbLine
 10
-2249.298782269493
 20
1301.962331356172
 30
0.0
 11
-2069.298782269493
 21
1301.962331356172
 31
0.0
  0
LWPOLYLINE
  5
1A3
330
1F
100
AcDbEntity
  8
0-B_寸法
  6
Continuous
 62
     7
370
     9
100
AcDbPolyline
 90
        4
 70
     1
 43
3.0
 10
-2247.798782269493
 20
1301.962331356172
 42
0.4142135623731
 10
-2249.298782269493
 20
1303.462331356172
 42
0.4142135623731
 10
-2250.798782269493
 20
1301.962331356172
 42
0.4142135623731
 10
-2249.298782269493
 20
1300.462331356172
 42
0.4142135623731
  0
LWPOLYLINE
  5
1A4
330
1F
100
AcDbEntity
  8
0-B_寸法
  6
Continuous
 62
     7
370
     9
100
AcDbPolyline
 90
        4
 70
     1
 43
3.0
 10
-2067.798782269493
 20
1301.962331356172
 42
0.4142135623731
 10
-2069.298782269493
 20
1303.462331356172
 42
0.4142135623731
 10
-2070.798782269493
 20
1301.962331356172
 42
0.4142135623731
 10
-2069.298782269493
 20
1300.462331356172
 42
0.4142135623731
  0
LINE
  5
1A5
330
1F
100
AcDbEntity
  8
0-B_寸法
  6
Continuous
 62
   120
370
     5
100
AcDbLine
 10
-2249.298782269493
 20
1091.962331356172
 30
0.0
 11
-2249.298782269493
 21
1871.962331356173
 31
0.0
  0
MTEXT
  5
1A6
330
1F
100
AcDbEntity
  8
0-B_寸法
  6
Continuous
 62
     7
370
   211
100
AcDbMText
 10
-2223.048782269494
 20
1305.539831356172
 30
0.0
 40
97.15499999999999
 41
127.5
 46
0.0
 71
     7
 72
     1
  1
{\fＭＳ ゴシック|b0|i0|c128|p49;30}
 73
     1
 44
1.0
  0
LINE
  5
1A7
330
1F
100
AcDbEntity
  8
0-B_寸法
  6
Continuous
 62
   120
370
     5
100
AcDbLine
 10
-2069.298782269493
 20
1301.962331356172
 30
0.0
 11
2071.381578376203
 21
1301.962331356172
 31
0.0
  0
LWPOLYLINE
  5
1A8
330
1F
100
AcDbEntity
  8
0-B_寸法
  6
Continuous
 62
     7
370
     9
100
AcDbPolyline
 90
        4
 70
     1
 43
3.0
 10
2072.881578376203
 20
1301.962331356172
 42
0.4142135623731
 10
2071.381578376203
 20
1303.462331356172
 42
0.4142135623731
 10
2069.881578376203
 20
1301.962331356172
 42
0.4142135623731
 10
2071.381578376203
 20
1300.462331356172
 42
0.4142135623731
  0
LINE
  5
1A9
330
1F
100
AcDbEntity
  8
0-B_寸法
  6
Continuous
 62
   120
370
     5
100
AcDbLine
 10
2071.381578376203
 20
1301.962331356172
 30
0.0
 11
2251.381578376203
 21
1301.962331356172
 31
0.0
  0
LWPOLYLINE
  5
1AA
330
1F
100
AcDbEntity
  8
0-B_寸法
  6
Continuous
 62
     7
370
     9
100
AcDbPolyline
 90
        4
 70
     1
 43
3.0
 10
2252.881578376203
 20
1301.962331356172
 42
0.4142135623731
 10
2251.381578376203
 20
1303.462331356172
 42
0.4142135623731
 10
2249.881578376203
 20
1301.962331356172
 42
0.4142135623731
 10
2251.381578376203
 20
1300.462331356172
 42
0.4142135623731
  0
LINE
  5
1AB
330
1F
100
AcDbEntity
  8
0-B_寸法
  6
Continuous
 62
   120
370
     5
100
AcDbLine
 10
2251.381578376203
 20
1091.962331356172
 30
0.0
 11
2251.381578376203
 21
1871.962331356173
 31
0.0
  0
MTEXT
  5
1AC
330
1F
100
AcDbEntity
  8
0-B_寸法
  6
Continuous
 62
     7
370
   211
100
AcDbMText
 10
2097.631578376203
 20
1305.539831356172
 30
0.0
 40
97.15499999999999
 41
127.5
 46
0.0
 71
     7
 72
     1
  1
{\fＭＳ ゴシック|b0|i0|c128|p49;30}
 73
     1
 44
1.0
  0
LWPOLYLINE
  5
1AD
330
1F
100
AcDbEntity
  8
0-B_寸法
  6
Continuous
 62
     7
370
     9
100
AcDbPolyline
 90
        4
 70
     1
 43
3.0
 10
-2247.798782269493
 20
1091.962331356172
 42
0.4142135623731
 10
-2249.298782269493
 20
1093.462331356172
 42
0.4142135623731
 10
-2250.798782269493
 20
1091.962331356172
 42
0.4142135623731
 10
-2249.298782269493
 20
1090.462331356172
 42
0.4142135623731
  0
LINE
  5
1AE
330
1F
100
AcDbEntity
  8
0-B_寸法
  6
Continuous
 62
   120
370
     5
100
AcDbLine
 10
-2249.298782269493
 20
1091.962331356172
 30
0.0
 11
2251.381578376203
 21
1091.962331356172
 31
0.0
  0
LWPOLYLINE
  5
1AF
330
1F
100
AcDbEntity
  8
0-B_寸法
  6
Continuous
 62
     7
370
     9
100
AcDbPolyline
 90
        4
 70
     1
 43
3.0
 10
2252.881578376203
 20
1091.962331356172
 42
0.4142135623731
 10
2251.381578376203
 20
1093.462331356172
 42
0.4142135623731
 10
2249.881578376203
 20
1091.962331356172
 42
0.4142135623731
 10
2251.381578376203
 20
1090.462331356172
 42
0.4142135623731
  0
MTEXT
  5
1B0
330
1F
100
AcDbEntity
  8
0-B_寸法
  6
Continuous
 62
     7
370
   211
100
AcDbMText
 10
-636.458601946644
 20
1518.096541882488
 30
0.0
 40
102.2684210526316
 41
1275.0
 46
0.0
 71
     7
 72
     1
  1
{\fＭＳ ゴシック|b0|i0|c128|p49;有効開口寸法＝1,560}
 73
     1
 44
1.0
  0
MTEXT
  5
1B1
330
1F
100
AcDbEntity
  8
0-B_寸法
  6
Continuous
 62
     7
370
   211
100
AcDbMText
 10
-366.458601946644
 20
1307.877785901627
 30
0.0
 40
101.8309090909091
 41
735.0
 46
0.0
 71
     7
 72
     1
  1
{\fＭＳ ゴシック|b0|i0|c128|p49;枠内＝3,174}
 73
     1
 44
1.0
  0
MTEXT
  5
1B2
330
1F
100
AcDbEntity
  8
0-B_寸法
  6
Continuous
 62
     7
370
   211
100
AcDbMText
 10
-366.458601946644
 20
1097.877785901627
 30
0.0
 40
101.8309090909091
 41
735.0
 46
0.0
 71
     7
 72
     1
  1
{\fＭＳ ゴシック|b0|i0|c128|p49;枠外＝3,234}
 73
     1
 44
1.0
  0
MTEXT
  5
1B3
330
1F
100
AcDbEntity
  8
0-B_寸法
  6
Continuous
 62
     7
370
   211
100
AcDbMText
 10
-1698.71373718878
 20
1516.492331356172
 30
0.0
 40
99.06
 41
195.0
 46
0.0
 71
     7
 72
     1
  1
{\fＭＳ ゴシック|b0|i0|c128|p49;777}
 73
     1
 44
1.0
  0
MTEXT
  5
1B4
330
1F
100
AcDbEntity
  8
0-B_寸法
  6
Continuous
 62
     7
370
   211
100
AcDbMText
 10
1505.79653329549
 20
1516.492331356172
 30
0.0
 40
99.06
 41
195.0
 46
0.0
 71
     7
 72
     1
  1
{\fＭＳ ゴシック|b0|i0|c128|p49;777}
 73
     1
 44
1.0
  0
LINE
  5
1B5
330
1F
100
AcDbEntity
  8
0-0_補助線
  6
JWW_HOJO
 62
   120
370
     5
100
AcDbLine
 10
-2580.057751218643
 20
1871.962331356173
 30
0.0
 11
2581.381578376203
 21
1871.962331356173
 31
0.0
  0
LINE
  5
1B6
330
1F
100
AcDbEntity
  8
0-0_補助線
  6
JWW_HOJO
 62
   120
370
     5
100
AcDbLine
 10
-2580.057751218643
 20
1511.962331356172
 30
0.0
 11
2581.381578376203
 21
1511.962331356172
 31
0.0
  0
LINE
  5
1B7
330
1F
100
AcDbEntity
  8
0-0_補助線
  6
JWW_HOJO
 62
   120
370
     5
100
AcDbLine
 10
-2580.057751218643
 20
1301.962331356172
 30
0.0
 11
2581.381578376203
 21
1301.962331356172
 31
0.0
  0
LINE
  5
1B8
330
1F
100
AcDbEntity
  8
0-0_補助線
  6
JWW_HOJO
 62
   120
370
     5
100
AcDbLine
 10
-1568.637331856013
 20
1871.962331356173
 30
0.0
 11
-1568.637331856013
 21
3041.962331356173
 31
0.0
  0
LINE
  5
1B9
330
1F
100
AcDbEntity
  8
0-0_補助線
  6
JWW_HOJO
 62
   120
370
     5
100
AcDbLine
 10
1672.341356398234
 20
1871.962331356173
 30
0.0
 11
1672.341356398234
 21
3041.962331356173
 31
0.0
  0
LINE
  5
1BA
330
1F
100
AcDbEntity
  8
0-0_補助線
  6
JWW_HOJO
 62
   120
370
     5
100
AcDbLine
 10
-1448.637331856013
 20
1871.962331356173
 30
0.0
 11
-1448.637331856013
 21
3041.962331356173
 31
0.0
  0
LINE
  5
1BB
330
1F
100
AcDbEntity
  8
0-0_補助線
  6
JWW_HOJO
 62
   120
370
     5
100
AcDbLine
 10
-524.6373324363695
 20
1871.962331356173
 30
0.0
 11
-524.6373324363695
 21
3041.962331356173
 31
0.0
  0
LINE
  5
1BC
330
1F
100
AcDbEntity
  8
0-0_補助線
  6
JWW_HOJO
 62
   120
370
     5
100
AcDbLine
 10
-404.6373324363695
 20
1871.962331356173
 30
0.0
 11
-404.6373324363695
 21
3041.962331356173
 31
0.0
  0
LINE
  5
1BD
330
1F
100
AcDbEntity
  8
0-0_補助線
  6
JWW_HOJO
 62
   120
370
     5
100
AcDbLine
 10
418.3643398052892
 20
1871.962331356173
 30
0.0
 11
418.3643398052892
 21
3041.962331356173
 31
0.0
  0
LINE
  5
1BE
330
1F
100
AcDbEntity
  8
0-0_補助線
  6
JWW_HOJO
 62
   120
370
     5
100
AcDbLine
 10
538.3643398052892
 20
1871.962331356173
 30
0.0
 11
538.3643398052892
 21
3041.962331356173
 31
0.0
  0
LINE
  5
1BF
330
1F
100
AcDbEntity
  8
0-0_補助線
  6
JWW_HOJO
 62
   120
370
     5
100
AcDbLine
 10
1552.341356398234
 20
1871.962331356173
 30
0.0
 11
1552.341356398234
 21
3041.962331356173
 31
0.0
  0
LWPOLYLINE
  5
1C0
330
1F
100
AcDbEntity
  8
0-B_寸法
  6
Continuous
 62
     7
370
     9
100
AcDbPolyline
 90
        4
 70
     1
 43
3.0
 10
-767.4004775348512
 20
2441.962331356171
 42
0.4142135623731
 10
-768.9004775348512
 20
2443.462331356171
 42
0.4142135623731
 10
-770.4004775348512
 20
2441.962331356171
 42
0.4142135623731
 10
-768.9004775348512
 20
2440.462331356171
 42
0.4142135623731
  0
LWPOLYLINE
  5
1C1
330
1F
100
AcDbEntity
  8
0-B_寸法
  6
Continuous
 62
     7
370
     9
100
AcDbPolyline
 90
        4
 70
     1
 43
3.0
 10
-767.4004775348512
 20
2480.963815995107
 42
0.4142135623731
 10
-768.9004775348512
 20
2482.463815995107
 42
0.4142135623731
 10
-770.4004775348512
 20
2480.963815995107
 42
0.4142135623731
 10
-768.9004775348512
 20
2479.463815995107
 42
0.4142135623731
  0
LWPOLYLINE
  5
1C2
330
1F
100
AcDbEntity
  8
0-B_寸法
  6
Continuous
 62
     7
370
     9
100
AcDbPolyline
 90
        4
 70
     1
 43
3.0
 10
-767.4004775348512
 20
2660.964558314576
 42
0.4142135623731
 10
-768.9004775348512
 20
2662.464558314576
 42
0.4142135623731
 10
-770.4004775348512
 20
2660.964558314576
 42
0.4142135623731
 10
-768.9004775348512
 20
2659.464558314576
 42
0.4142135623731
  0
LINE
  5
1C3
330
1F
100
AcDbEntity
  8
0-B_寸法
  6
Continuous
 62
   120
370
     5
100
AcDbLine
 10
-768.9004775348512
 20
2660.964558314576
 30
0.0
 11
-768.9004775348512
 21
1991.962331356173
 31
0.0
  0
LWPOLYLINE
  5
1C4
330
1F
100
AcDbEntity
  8
0-B_寸法
  6
Continuous
 62
     7
370
     9
100
AcDbPolyline
 90
        4
 70
     1
 43
3.0
 10
-767.4004775348512
 20
1991.962331356173
 42
0.4142135623731
 10
-768.9004775348512
 20
1993.462331356173
 42
0.4142135623731
 10
-770.4004775348512
 20
1991.962331356173
 42
0.4142135623731
 10
-768.9004775348512
 20
1990.462331356173
 42
0.4142135623731
  0
LINE
  5
1C5
330
1F
100
AcDbEntity
  8
0-B_寸法
  6
Continuous
 62
   120
370
     5
100
AcDbLine
 10
-919.1782287357607
 20
1991.962331356173
 30
0.0
 11
-768.9004775348512
 21
1991.962331356173
 31
0.0
  0
LINE
  5
1C6
330
1F
100
AcDbEntity
  8
0-B_寸法
  6
Continuous
 62
   120
370
     5
100
AcDbLine
 10
-1825.452280991677
 20
2321.962331356184
 30
0.0
 11
-1979.298782269482
 21
2321.962331356184
 31
0.0
  0
LWPOLYLINE
  5
1C7
330
1F
100
AcDbEntity
  8
0-B_寸法
  6
Continuous
 62
     7
370
     9
100
AcDbPolyline
 90
        4
 70
     1
 43
3.0
 10
-1823.952280991677
 20
2321.962331356184
 42
0.4142135623731
 10
-1825.452280991677
 20
2323.462331356184
 42
0.4142135623731
 10
-1826.952280991677
 20
2321.962331356184
 42
0.4142135623731
 10
-1825.452280991677
 20
2320.462331356184
 42
0.4142135623731
  0
LINE
  5
1C8
330
1F
100
AcDbEntity
  8
0-B_寸法
  6
Continuous
 62
   120
370
     5
100
AcDbLine
 10
-1825.452280991677
 20
2921.962331356173
 30
0.0
 11
-1979.298782269482
 21
2921.962331356173
 31
0.0
  0
LWPOLYLINE
  5
1C9
330
1F
100
AcDbEntity
  8
0-B_寸法
  6
Continuous
 62
     7
370
     9
100
AcDbPolyline
 90
        4
 70
     1
 43
3.0
 10
-1823.952280991677
 20
2921.962331356173
 42
0.4142135623731
 10
-1825.452280991677
 20
2923.462331356173
 42
0.4142135623731
 10
-1826.952280991677
 20
2921.962331356173
 42
0.4142135623731
 10
-1825.452280991677
 20
2920.462331356173
 42
0.4142135623731
  0
LINE
  5
1CA
330
1F
100
AcDbEntity
  8
0-B_寸法
  6
Continuous
 62
   120
370
     5
100
AcDbLine
 10
-1825.452280991677
 20
2921.962331356173
 30
0.0
 11
-1825.452280991677
 21
2321.962331356184
 31
0.0
  0
MTEXT
  5
1CB
330
1F
100
AcDbEntity
  8
0-B_寸法
  6
Continuous
 62
     7
370
     0
100
AcDbMText
 10
196.7201285430801
 20
2490.682331356172
 30
0.0
 40
91.43999999999998
 41
540.0
 46
0.0
 71
     7
 72
     1
  1
{\fＭＳ ゴシック|b0|i0|c128|p49;ＤＷ＝810}
 73
     1
 44
1.0
  0
MTEXT
  5
1CC
330
1F
100
AcDbEntity
  8
0-B_寸法
  6
Continuous
 62
     7
370
     0
100
AcDbMText
 10
-783.9005270228135
 20
2142.682331356173
 30
0.0
 40
91.44
 41
120.0
 46
0.0
 71
     7
 72
     1
  1
{\fＭＳ ゴシック|b0|i0|c128|p49;75}
 11
6.123031769111886E-17
 21
1.0
 31
0.0
 73
     1
 44
1.0
  0
MTEXT
  5
1CD
330
1F
100
AcDbEntity
  8
0-B_寸法
  6
Continuous
 62
     7
370
     0
100
AcDbMText
 10
-783.9005270228135
 20
2496.684988859867
 30
0.0
 40
91.44
 41
120.0
 46
0.0
 71
     7
 72
     1
  1
{\fＭＳ ゴシック|b0|i0|c128|p49;30}
 11
6.123031769111886E-17
 21
1.0
 31
0.0
 73
     1
 44
1.0
  0
MTEXT
  5
1CE
330
1F
100
AcDbEntity
  8
0-B_寸法
  6
Continuous
 62
     7
370
   211
100
AcDbMText
 10
-641.1059839712668
 20
2348.574395198627
 30
0.0
 40
91.44
 41
180.0
 46
0.0
 71
     7
 72
     1
  1
{\fＭＳ ゴシック|b0|i0|c128|p49;6.5}
 11
6.123031769111886E-17
 21
1.0
 31
0.0
 73
     1
 44
1.0
  0
LINE
  5
1CF
330
1F
100
AcDbEntity
  8
0-6_扉
  6
Continuous
 62
   200
370
    20
100
AcDbLine
 10
-1133.128692108068
 20
2480.962331356171
 30
0.0
 11
-524.6373324363695
 21
2480.962331356171
 31
0.0
  0
LINE
  5
1D0
330
1F
100
AcDbEntity
  8
0-B_寸法
  6
Continuous
 62
   120
370
     5
100
AcDbLine
 10
-919.1782287357607
 20
2441.962331356171
 30
0.0
 11
-768.9004775348512
 21
2441.962331356171
 31
0.0
  0
LINE
  5
1D1
330
1F
100
AcDbEntity
  8
0-B_寸法
  6
Continuous
 62
   120
370
     5
100
AcDbLine
 10
-919.1782287357607
 20
2480.963815995107
 30
0.0
 11
-768.9004775348512
 21
2480.963815995107
 31
0.0
  0
LINE
  5
1D2
330
1F
100
AcDbEntity
  8
0-4_枠
  6
Continuous
 62
    92
370
    13
100
AcDbLine
 10
2071.381578376192
 20
2321.962331356173
 30
0.0
 11
2251.382172231764
 21
2321.962331356173
 31
0.0
  0
LINE
  5
1D3
330
1F
100
AcDbEntity
  8
0-4_枠
  6
Continuous
 62
    92
370
    13
100
AcDbLine
 10
2251.382172231764
 20
2321.962331356173
 30
0.0
 11
2251.382172231764
 21
2921.962331356173
 31
0.0
  0
LINE
  5
1D4
330
1F
100
AcDbEntity
  8
0-4_枠
  6
Continuous
 62
    92
370
    13
100
AcDbLine
 10
2248.382172231767
 20
2918.962331356173
 30
0.0
 11
2248.382172231767
 21
2831.962331356173
 31
0.0
  0
LINE
  5
1D5
330
1F
100
AcDbEntity
  8
0-4_枠
  6
Continuous
 62
    92
370
    13
100
AcDbLine
 10
2251.382172231764
 20
2831.962331356173
 30
0.0
 11
2248.382172231767
 21
2831.962331356173
 31
0.0
  0
LINE
  5
1D6
330
1F
100
AcDbEntity
  8
0-4_枠
  6
Continuous
 62
    92
370
    13
100
AcDbLine
 10
2248.382172231767
 20
2321.962331356173
 30
0.0
 11
2248.382172231767
 21
2411.962331356173
 31
0.0
  0
LINE
  5
1D7
330
1F
100
AcDbEntity
  8
0-4_枠
  6
Continuous
 62
    92
370
    13
100
AcDbLine
 10
2248.382172231767
 20
2411.962331356173
 30
0.0
 11
2251.382172231764
 21
2411.962331356173
 31
0.0
  0
LINE
  5
1D8
330
1F
100
AcDbEntity
  8
0-4_枠
  6
Continuous
 62
    92
370
    13
100
AcDbLine
 10
2107.381578376194
 20
2447.962331356174
 30
0.0
 11
2071.381578376192
 21
2447.962331356174
 31
0.0
  0
LINE
  5
1D9
330
1F
100
AcDbEntity
  8
0-4_枠
  6
Continuous
 62
    92
370
    13
100
AcDbLine
 10
2074.381143500704
 20
2321.962331356173
 30
0.0
 11
2074.381143500704
 21
2447.962331356174
 31
0.0
  0
LINE
  5
1DA
330
1F
100
AcDbEntity
  8
0-4_枠
  6
Continuous
 62
    92
370
    13
100
AcDbLine
 10
2071.381578376192
 20
2321.962331356173
 30
0.0
 11
2071.381578376192
 21
2447.962331356174
 31
0.0
  0
LINE
  5
1DB
330
1F
100
AcDbEntity
  8
0-4_枠
  6
Continuous
 62
    92
370
    13
100
AcDbLine
 10
2107.381578376194
 20
2447.962331356174
 30
0.0
 11
2107.381578376194
 21
2693.962331356173
 31
0.0
  0
LINE
  5
1DC
330
1F
100
AcDbEntity
  8
0-4_枠
  6
Continuous
 62
    92
370
    13
100
AcDbLine
 10
2107.381578376194
 20
2693.962331356173
 30
0.0
 11
2071.381578376192
 21
2693.962331356173
 31
0.0
  0
LINE
  5
1DD
330
1F
100
AcDbEntity
  8
0-C_ハッチ
  6
Continuous
 62
   120
370
     5
100
AcDbLine
 10
2248.382607107253
 20
2359.458465380611
 30
0.0
 11
2210.886473082821
 21
2321.962331356179
 31
0.0
  0
LINE
  5
1DE
330
1F
100
AcDbEntity
  8
0-C_ハッチ
  6
Continuous
 62
   120
370
     5
100
AcDbLine
 10
2251.382172231764
 20
2430.340281499022
 30
0.0
 11
2143.00422208892
 21
2321.962331356176
 31
0.0
  0
LINE
  5
1DF
330
1F
100
AcDbEntity
  8
0-C_ハッチ
  6
Continuous
 62
   120
370
     5
100
AcDbLine
 10
2251.382172231764
 20
2566.104783486873
 30
0.0
 11
2074.3815783762
 21
2389.104189631305
 31
0.0
  0
LINE
  5
1E0
330
1F
100
AcDbEntity
  8
0-C_ハッチ
  6
Continuous
 62
   120
370
     5
100
AcDbLine
 10
2251.382172231764
 20
2498.222532492975
 30
0.0
 11
2075.12197109496
 21
2321.962331356168
 31
0.0
  0
LINE
  5
1E1
330
1F
100
AcDbEntity
  8
0-C_ハッチ
  6
Continuous
 62
   120
370
     5
100
AcDbLine
 10
2248.382172231767
 20
2834.633787462523
 30
0.0
 11
2107.381578376194
 21
2693.633193606945
 31
0.0
  0
LINE
  5
1E2
330
1F
100
AcDbEntity
  8
0-C_ハッチ
  6
Continuous
 62
   120
370
     5
100
AcDbLine
 10
2251.382172231764
 20
2633.987034480771
 30
0.0
 11
2107.381578376194
 21
2489.986440625197
 31
0.0
  0
LINE
  5
1E3
330
1F
100
AcDbEntity
  8
0-C_ハッチ
  6
Continuous
 62
   120
370
     5
100
AcDbLine
 10
2251.382172231764
 20
2769.751536468567
 30
0.0
 11
2107.381578376194
 21
2625.750942612994
 31
0.0
  0
LINE
  5
1E4
330
1F
100
AcDbEntity
  8
0-C_ハッチ
  6
Continuous
 62
   120
370
     5
100
AcDbLine
 10
2251.382172231764
 20
2701.869285474669
 30
0.0
 11
2107.381578376194
 21
2557.868691619094
 31
0.0
  0
LINE
  5
1E5
330
1F
100
AcDbEntity
  8
0-C_ハッチ
  6
Continuous
 62
   120
370
     5
100
AcDbLine
 10
2129.063963143723
 20
2918.962331356168
 30
0.0
 11
2074.381578376193
 21
2864.279946588639
 31
0.0
  0
LINE
  5
1E6
330
1F
100
AcDbEntity
  8
0-C_ハッチ
  6
Continuous
 62
   120
370
     5
100
AcDbLine
 10
2248.38217223177
 20
2902.516038456423
 30
0.0
 11
2074.381578376193
 21
2728.515444600845
 31
0.0
  0
LINE
  5
1E7
330
1F
100
AcDbEntity
  8
0-C_ハッチ
  6
Continuous
 62
   120
370
     5
100
AcDbLine
 10
2196.946214137611
 20
2918.962331356161
 30
0.0
 11
2074.381578376193
 21
2796.397695594743
 31
0.0
  0
LINE
  5
1E8
330
1F
100
AcDbEntity
  8
0-4_枠
  6
Continuous
 62
    92
370
    13
100
AcDbLine
 10
2089.381578376193
 20
2921.962331356173
 30
0.0
 11
2251.382172231764
 21
2921.962331356173
 31
0.0
  0
LINE
  5
1E9
330
1F
100
AcDbEntity
  8
0-4_枠
  6
Continuous
 62
    92
370
    13
100
AcDbLine
 10
2071.381578376192
 20
2903.962331356173
 30
0.0
 11
2071.381578376192
 21
2693.962331356173
 31
0.0
  0
ARC
  5
1EA
330
1F
100
AcDbEntity
  8
0-4_枠
  6
Continuous
 62
    92
370
    13
100
AcDbCircle
 10
2089.381578376193
 20
2903.962331356173
 30
0.0
 40
18.0
100
AcDbArc
 50
90.0
 51
180.0
  0
ARC
  5
1EB
330
1F
100
AcDbEntity
  8
0-4_枠
  6
Continuous
 62
    92
370
    13
100
AcDbCircle
 10
2089.381578376193
 20
2903.962331356173
 30
0.0
 40
15.0
100
AcDbArc
 50
90.0
 51
180.0
  0
LINE
  5
1EC
330
1F
100
AcDbEntity
  8
0-4_枠
  6
Continuous
 62
    92
370
    13
100
AcDbLine
 10
2074.381578376193
 20
2903.962331356173
 30
0.0
 11
2074.381578376193
 21
2693.962331356173
 31
0.0
  0
LINE
  5
1ED
330
1F
100
AcDbEntity
  8
0-4_枠
  6
Continuous
 62
    92
370
    13
100
AcDbLine
 10
2089.381578376193
 20
2918.962331356173
 30
0.0
 11
2248.382172231767
 21
2918.962331356173
 31
0.0
  0
LINE
  5
1EE
330
1F
100
AcDbEntity
  8
0-C_ハッチ
  6
Continuous
 62
   120
370
     5
100
AcDbLine
 10
1132.211488214772
 20
2065.579468414193
 30
0.0
 11
1061.594351156741
 21
1994.962331356163
 31
0.0
  0
LINE
  5
1EF
330
1F
100
AcDbEntity
  8
0-C_ハッチ
  6
Continuous
 62
   120
370
     5
100
AcDbLine
 10
1135.211488214778
 20
2136.461719408096
 30
0.0
 11
993.7121001628666
 21
1994.962331356186
 31
0.0
  0
LINE
  5
1F0
330
1F
100
AcDbEntity
  8
0-C_ハッチ
  6
Continuous
 62
   120
370
     5
100
AcDbLine
 10
1018.419212644318
 20
2426.962949801081
 30
0.0
 11
958.2112655189376
 21
2366.755002675701
 31
0.0
  0
LINE
  5
1F1
330
1F
100
AcDbEntity
  8
0-C_ハッチ
  6
Continuous
 62
   120
370
     5
100
AcDbLine
 10
1135.211488214778
 20
2204.343970401994
 30
0.0
 11
958.2112655189376
 21
2027.343747706155
 31
0.0
  0
LINE
  5
1F2
330
1F
100
AcDbEntity
  8
0-C_ハッチ
  6
Continuous
 62
   120
370
     5
100
AcDbLine
 10
1132.211488214775
 20
2404.990723383743
 30
0.0
 11
958.2112655189376
 21
2230.990500687903
 31
0.0
  0
LINE
  5
1F3
330
1F
100
AcDbEntity
  8
0-C_ハッチ
  6
Continuous
 62
   120
370
     5
100
AcDbLine
 10
1135.211488214778
 20
2340.10847238979
 30
0.0
 11
958.2112655189376
 21
2163.10824969395
 31
0.0
  0
LINE
  5
1F4
330
1F
100
AcDbEntity
  8
0-C_ハッチ
  6
Continuous
 62
   120
370
     5
100
AcDbLine
 10
1135.211488214778
 20
2272.226221395892
 30
0.0
 11
958.2112655189376
 21
2095.225998700053
 31
0.0
  0
LINE
  5
1F5
330
1F
100
AcDbEntity
  8
0-C_ハッチ
  6
Continuous
 62
   120
370
     5
100
AcDbLine
 10
1098.301463638214
 20
2438.962949801081
 30
0.0
 11
958.2112655189376
 21
2298.872751681791
 31
0.0
  0
LINE
  5
1F6
330
1F
100
AcDbEntity
  8
0-4_枠
  6
Continuous
 62
    92
370
    13
100
AcDbLine
 10
1132.211488214778
 20
2081.962331356172
 30
0.0
 11
1135.211488214778
 21
2081.962331356172
 31
0.0
  0
LINE
  5
1F7
330
1F
100
AcDbEntity
  8
0-4_枠
  6
Continuous
 62
    92
370
    13
100
AcDbLine
 10
1132.211488214778
 20
1994.962331356172
 30
0.0
 11
1132.211488214778
 21
2081.962331356172
 31
0.0
  0
LINE
  5
1F8
330
1F
100
AcDbEntity
  8
0-4_枠
  6
Continuous
 62
    92
370
    13
100
AcDbLine
 10
1009.211488214778
 20
2441.962949801081
 30
0.0
 11
955.2114882147724
 21
2441.962949801081
 31
0.0
  0
LINE
  5
1F9
330
1F
100
AcDbEntity
  8
0-4_枠
  6
Continuous
 62
    92
370
    13
100
AcDbLine
 10
1081.211488214781
 20
2441.962949801081
 30
0.0
 11
1135.211488214778
 21
2441.962949801081
 31
0.0
  0
LINE
  5
1FA
330
1F
100
AcDbEntity
  8
0-4_枠
  6
Continuous
 62
    92
370
    13
100
AcDbLine
 10
1009.211488214778
 20
2426.962949801081
 30
0.0
 11
1009.211488214778
 21
2441.962949801081
 31
0.0
  0
LINE
  5
1FB
330
1F
100
AcDbEntity
  8
0-4_枠
  6
Continuous
 62
    92
370
    13
100
AcDbLine
 10
1009.211488214778
 20
2426.962949801081
 30
0.0
 11
1081.211488214781
 21
2426.962949801081
 31
0.0
  0
LINE
  5
1FC
330
1F
100
AcDbEntity
  8
0-4_枠
  6
Continuous
 62
    92
370
    13
100
AcDbLine
 10
1081.211488214781
 20
2426.962949801081
 30
0.0
 11
1081.211488214781
 21
2441.962949801081
 31
0.0
  0
LINE
  5
1FD
330
1F
100
AcDbEntity
  8
0-4_枠
  6
Continuous
 62
    92
370
    13
100
AcDbLine
 10
1135.211488214778
 20
1991.962331356172
 30
0.0
 11
1135.211488214778
 21
2441.962949801081
 31
0.0
  0
LINE
  5
1FE
330
1F
100
AcDbEntity
  8
0-4_枠
  6
Continuous
 62
    92
370
    13
100
AcDbLine
 10
1009.211488214778
 20
2438.962949801081
 30
0.0
 11
958.2114882147731
 21
2438.962949801081
 31
0.0
  0
LINE
  5
1FF
330
1F
100
AcDbEntity
  8
0-4_枠
  6
Continuous
 62
    92
370
    13
100
AcDbLine
 10
1081.211488214781
 20
2438.962949801081
 30
0.0
 11
1132.211488214778
 21
2438.962949801081
 31
0.0
  0
LINE
  5
200
330
1F
100
AcDbEntity
  8
0-4_枠
  6
Continuous
 62
    92
370
    13
100
AcDbLine
 10
1132.211488214778
 20
2351.962949801081
 30
0.0
 11
1135.211488214778
 21
2351.962949801081
 31
0.0
  0
LINE
  5
201
330
1F
100
AcDbEntity
  8
0-4_枠
  6
Continuous
 62
    92
370
    13
100
AcDbLine
 10
1132.211488214778
 20
2351.962949801081
 30
0.0
 11
1132.211488214778
 21
2438.962949801081
 31
0.0
  0
LINE
  5
202
330
1F
100
AcDbEntity
  8
0-4_枠
  6
Continuous
 62
    92
370
    13
100
AcDbLine
 10
955.2114882147724
 20
2009.962331356172
 30
0.0
 11
955.2114882147724
 21
2441.962949801081
 31
0.0
  0
LINE
  5
203
330
1F
100
AcDbEntity
  8
0-4_枠
  6
Continuous
 62
    92
370
    13
100
AcDbLine
 10
973.2114882147722
 20
1991.962331356172
 30
0.0
 11
1135.211488214778
 21
1991.962331356172
 31
0.0
  0
ARC
  5
204
330
1F
100
AcDbEntity
  8
0-4_枠
  6
Continuous
 62
    92
370
    13
100
AcDbCircle
 10
973.2114882147722
 20
2009.962331356172
 30
0.0
 40
18.0
100
AcDbArc
 50
180.0
 51
270.0
  0
LINE
  5
205
330
1F
100
AcDbEntity
  8
0-4_枠
  6
Continuous
 62
    92
370
    13
100
AcDbLine
 10
973.211488214773
 20
1994.962331356172
 30
0.0
 11
1132.211488214778
 21
1994.962331356172
 31
0.0
  0
LINE
  5
206
330
1F
100
AcDbEntity
  8
0-4_枠
  6
Continuous
 62
    92
370
    13
100
AcDbLine
 10
958.2114882147731
 20
2009.962331356172
 30
0.0
 11
958.2114882147731
 21
2438.962949801081
 31
0.0
  0
ARC
  5
207
330
1F
100
AcDbEntity
  8
0-4_枠
  6
Continuous
 62
    92
370
    13
100
AcDbCircle
 10
973.211488214773
 20
2009.962331356172
 30
0.0
 40
15.0
100
AcDbArc
 50
180.0
 51
270.0
  0
LINE
  5
208
330
1F
100
AcDbEntity
  8
0-4_枠
  6
Continuous
 62
    92
370
    13
100
AcDbLine
 10
-971.1284694122279
 20
1991.962331356173
 30
0.0
 11
-1133.128692108068
 21
1991.962331356173
 31
0.0
  0
LINE
  5
209
330
1F
100
AcDbEntity
  8
0-4_枠
  6
Continuous
 62
    92
370
    13
100
AcDbLine
 10
-953.1284694122279
 20
2009.962331356173
 30
0.0
 11
-953.1284694122279
 21
2441.962331356173
 31
0.0
  0
ARC
  5
20A
330
1F
100
AcDbEntity
  8
0-4_枠
  6
Continuous
 62
    92
370
    13
100
AcDbCircle
 10
-971.1284694122279
 20
2009.962331356173
 30
0.0
 40
18.0
100
AcDbArc
 50
270.0
 51
0.0
  0
ARC
  5
20B
330
1F
100
AcDbEntity
  8
0-4_枠
  6
Continuous
 62
    92
370
    13
100
AcDbCircle
 10
-971.1284694122279
 20
2009.962331356173
 30
0.0
 40
15.0
100
AcDbArc
 50
270.0
 51
0.0
  0
LINE
  5
20C
330
1F
100
AcDbEntity
  8
0-4_枠
  6
Continuous
 62
    92
370
    13
100
AcDbLine
 10
-956.1284694122286
 20
2438.962331356173
 30
0.0
 11
-956.1284694122286
 21
2009.962331356173
 31
0.0
  0
LINE
  5
20D
330
1F
100
AcDbEntity
  8
0-4_枠
  6
Continuous
 62
    92
370
    13
100
AcDbLine
 10
-1130.128692108068
 20
1994.962331356173
 30
0.0
 11
-971.1284694122279
 21
1994.962331356173
 31
0.0
  0
LINE
  5
20E
330
1F
100
AcDbEntity
  8
0-4_枠
  6
Continuous
 62
    92
370
    13
100
AcDbLine
 10
-2087.298782269484
 20
2921.962331356171
 30
0.0
 11
-2249.299376125055
 21
2921.962331356171
 31
0.0
  0
LINE
  5
20F
330
1F
100
AcDbEntity
  8
0-4_枠
  6
Continuous
 62
    92
370
    13
100
AcDbLine
 10
-2069.298782269484
 20
2903.962331356171
 30
0.0
 11
-2069.298782269484
 21
2693.962331356171
 31
0.0
  0
ARC
  5
210
330
1F
100
AcDbEntity
  8
0-4_枠
  6
Continuous
 62
    92
370
    13
100
AcDbCircle
 10
-2087.298782269484
 20
2903.962331356171
 30
0.0
 40
18.0
100
AcDbArc
 50
0.0
 51
90.0
  0
ARC
  5
211
330
1F
100
AcDbEntity
  8
0-4_枠
  6
Continuous
 62
    92
370
    13
100
AcDbCircle
 10
-2087.298782269484
 20
2903.962331356171
 30
0.0
 40
15.0
100
AcDbArc
 50
0.0
 51
90.0
  0
LINE
  5
212
330
1F
100
AcDbEntity
  8
0-4_枠
  6
Continuous
 62
    92
370
    13
100
AcDbLine
 10
-2087.298782269484
 20
2918.962331356169
 30
0.0
 11
-2246.299376125058
 21
2918.962331356169
 31
0.0
  0
LINE
  5
213
330
1F
100
AcDbEntity
  8
0-4_枠
  6
Continuous
 62
    92
370
    13
100
AcDbLine
 10
-2072.298782269484
 20
2903.962331356171
 30
0.0
 11
-2072.298782269484
 21
2693.962331356171
 31
0.0
  0
LINE
  5
214
330
1F
100
AcDbEntity
  8
0-2_柱
  6
Continuous
 62
     7
370
     9
100
AcDbLine
 10
2281.382172231764
 20
2141.962331356172
 30
0.0
 11
2281.382172231764
 21
2771.962331356173
 31
0.0
  0
LINE
  5
215
330
1F
100
AcDbEntity
  8
0-2_柱
  6
Continuous
 62
     7
370
     9
100
AcDbLine
 10
2443.382172231766
 20
2141.962331356172
 30
0.0
 11
2281.382172231764
 21
2141.962331356172
 31
0.0
  0
LINE
  5
216
330
1F
100
AcDbEntity
  8
0-2_柱
  6
Continuous
 62
     7
370
     9
100
AcDbLine
 10
2443.382172231766
 20
2771.962331356173
 30
0.0
 11
2443.382172231766
 21
2141.962331356172
 31
0.0
  0
LINE
  5
217
330
1F
100
AcDbEntity
  8
0-2_柱
  6
Continuous
 62
     7
370
     9
100
AcDbLine
 10
2281.382172231764
 20
2771.962331356173
 30
0.0
 11
2443.382172231766
 21
2771.962331356173
 31
0.0
  0
LINE
  5
218
330
1F
100
AcDbEntity
  8
0-2_柱
  6
Continuous
 62
     7
370
     9
100
AcDbLine
 10
2281.382172231764
 20
2141.962331356172
 30
0.0
 11
2443.382172231766
 21
2771.962331356173
 31
0.0
  0
LINE
  5
219
330
1F
100
AcDbEntity
  8
0-2_柱
  6
Continuous
 62
     7
370
     9
100
AcDbLine
 10
2251.382172231764
 20
2141.962331356172
 30
0.0
 11
2251.382172231764
 21
2321.962331356171
 31
0.0
  0
LINE
  5
21A
330
1F
100
AcDbEntity
  8
0-2_柱
  6
Continuous
 62
     7
370
     9
100
AcDbLine
 10
-2279.299376125067
 20
2141.962331356172
 30
0.0
 11
-2279.299376125067
 21
2771.962331356173
 31
0.0
  0
LINE
  5
21B
330
1F
100
AcDbEntity
  8
0-2_柱
  6
Continuous
 62
     7
370
     9
100
AcDbLine
 10
-2441.299376125068
 20
2771.962331356173
 30
0.0
 11
-2441.299376125068
 21
2141.962331356172
 31
0.0
  0
LINE
  5
21C
330
1F
100
AcDbEntity
  8
0-2_柱
  6
Continuous
 62
     7
370
     9
100
AcDbLine
 10
-2279.299376125067
 20
2771.962331356173
 30
0.0
 11
-2441.299376125068
 21
2771.962331356173
 31
0.0
  0
LINE
  5
21D
330
1F
100
AcDbEntity
  8
0-2_柱
  6
Continuous
 62
     7
370
     9
100
AcDbLine
 10
-2441.299376125068
 20
2141.962331356172
 30
0.0
 11
-2279.299376125067
 21
2141.962331356172
 31
0.0
  0
LINE
  5
21E
330
1F
100
AcDbEntity
  8
0-2_柱
  6
Continuous
 62
     7
370
     9
100
AcDbLine
 10
-2279.299376125067
 20
2771.962331356173
 30
0.0
 11
-2441.299376125068
 21
2141.962331356172
 31
0.0
  0
LINE
  5
21F
330
1F
100
AcDbEntity
  8
0-2_柱
  6
Continuous
 62
     7
370
     9
100
AcDbLine
 10
-2249.299376125061
 20
2141.962331356172
 30
0.0
 11
-2249.299376125061
 21
2321.962331356171
 31
0.0
  0
LINE
  5
220
330
1F
100
AcDbEntity
  8
0-7_金物
  6
Continuous
 62
     7
370
     9
100
AcDbLine
 10
-2267.299039606898
 20
2546.96262828396
 30
0.0
 11
-2267.299039606898
 21
2366.962776747854
 31
0.0
  0
LINE
  5
221
330
1F
100
AcDbEntity
  8
0-7_金物
  6
Continuous
 62
     7
370
     9
100
AcDbLine
 10
-2279.299376125055
 20
2366.962776747854
 30
0.0
 11
-2267.299039606898
 21
2366.962776747854
 31
0.0
  0
LINE
  5
222
330
1F
100
AcDbEntity
  8
0-7_金物
  6
Continuous
 62
     7
370
     9
100
AcDbLine
 10
-2279.299376125055
 20
2546.96262828396
 30
0.0
 11
-2267.299039606898
 21
2546.96262828396
 31
0.0
  0
LINE
  5
223
330
1F
100
AcDbEntity
  8
0-7_金物
  6
Continuous
 62
     7
370
     9
100
AcDbLine
 10
-2267.299039606898
 20
2516.962529308032
 30
0.0
 11
-2255.299445408205
 21
2516.962529308032
 31
0.0
  0
LINE
  5
224
330
1F
100
AcDbEntity
  8
0-7_金物
  6
Continuous
 62
     7
370
     9
100
AcDbLine
 10
-2267.299039606898
 20
2396.962875723783
 30
0.0
 11
-2255.299445408205
 21
2396.962875723783
 31
0.0
  0
LINE
  5
225
330
1F
100
AcDbEntity
  8
0-7_金物
  6
Continuous
 62
     7
370
     9
100
AcDbLine
 10
-2255.299445408205
 20
2516.962529308032
 30
0.0
 11
-2255.299445408205
 21
2396.962875723783
 31
0.0
  0
LINE
  5
226
330
1F
100
AcDbEntity
  8
0-7_金物
  6
Continuous
 62
     7
370
     9
100
AcDbLine
 10
-2255.299445408205
 20
2402.962301663394
 30
0.0
 11
-2249.299376125055
 21
2402.962301663394
 31
0.0
  0
LINE
  5
227
330
1F
100
AcDbEntity
  8
0-7_金物
  6
Continuous
 62
     7
370
     9
100
AcDbLine
 10
-2255.299445408205
 20
2510.962361048952
 30
0.0
 11
-2249.299376125055
 21
2510.962361048952
 31
0.0
  0
LINE
  5
228
330
1F
100
AcDbEntity
  8
0-7_金物
  6
Continuous
 62
     7
370
     9
100
AcDbLine
 10
-2279.299376125055
 20
2546.96262828396
 30
0.0
 11
-2279.299376125055
 21
2366.962776747854
 31
0.0
  0
LINE
  5
229
330
1F
100
AcDbEntity
  8
0-7_金物
  6
Continuous
 62
     7
370
     9
100
AcDbLine
 10
2269.381835713607
 20
2366.962034428387
 30
0.0
 11
2269.381835713607
 21
2546.961885964493
 31
0.0
  0
LINE
  5
22A
330
1F
100
AcDbEntity
  8
0-7_金物
  6
Continuous
 62
     7
370
     9
100
AcDbLine
 10
2281.382172231764
 20
2546.961885964493
 30
0.0
 11
2269.381835713607
 21
2546.961885964493
 31
0.0
  0
LINE
  5
22B
330
1F
100
AcDbEntity
  8
0-7_金物
  6
Continuous
 62
     7
370
     9
100
AcDbLine
 10
2281.382172231764
 20
2366.962034428387
 30
0.0
 11
2269.381835713607
 21
2366.962034428387
 31
0.0
  0
LINE
  5
22C
330
1F
100
AcDbEntity
  8
0-7_金物
  6
Continuous
 62
     7
370
     9
100
AcDbLine
 10
2269.381835713607
 20
2396.962133404314
 30
0.0
 11
2257.382241514914
 21
2396.962133404314
 31
0.0
  0
LINE
  5
22D
330
1F
100
AcDbEntity
  8
0-7_金物
  6
Continuous
 62
     7
370
     9
100
AcDbLine
 10
2269.381835713607
 20
2516.961786988563
 30
0.0
 11
2257.382241514914
 21
2516.961786988563
 31
0.0
  0
LINE
  5
22E
330
1F
100
AcDbEntity
  8
0-7_金物
  6
Continuous
 62
     7
370
     9
100
AcDbLine
 10
2257.382241514914
 20
2396.962133404314
 30
0.0
 11
2257.382241514914
 21
2516.961786988563
 31
0.0
  0
LINE
  5
22F
330
1F
100
AcDbEntity
  8
0-7_金物
  6
Continuous
 62
     7
370
     9
100
AcDbLine
 10
2257.382241514914
 20
2510.962361048952
 30
0.0
 11
2251.382172231764
 21
2510.962361048952
 31
0.0
  0
LINE
  5
230
330
1F
100
AcDbEntity
  8
0-7_金物
  6
Continuous
 62
     7
370
     9
100
AcDbLine
 10
2257.382241514914
 20
2402.962301663394
 30
0.0
 11
2251.382172231764
 21
2402.962301663394
 31
0.0
  0
LINE
  5
231
330
1F
100
AcDbEntity
  8
0-7_金物
  6
Continuous
 62
     7
370
     9
100
AcDbLine
 10
2281.382172231764
 20
2366.962034428387
 30
0.0
 11
2281.382172231764
 21
2546.961885964493
 31
0.0
  0
LINE
  5
232
330
1F
100
AcDbEntity
  8
0-0_補助線
  6
JWW_HOJO
 62
   120
370
     5
100
AcDbLine
 10
2581.33561040138
 20
881.9623313561724
 30
0.0
 11
2581.33561040138
 21
3041.962331356173
 31
0.0
  0
LINE
  5
233
330
1F
100
AcDbEntity
  8
0-0_補助線
  6
JWW_HOJO
 62
   120
370
     5
100
AcDbLine
 10
-2581.653845061687
 20
881.9623313561724
 30
0.0
 11
2581.33561040138
 21
881.9623313561724
 31
0.0
  0
LINE
  5
234
330
1F
100
AcDbEntity
  8
0-0_補助線
  6
JWW_HOJO
 62
   120
370
     5
100
AcDbLine
 10
-2578.372938983995
 20
3041.962331356173
 30
0.0
 11
-2581.653845061687
 21
881.9623313561724
 31
0.0
  0
LINE
  5
235
330
1F
100
AcDbEntity
  8
0-B_寸法
  6
Continuous
 62
   120
370
     5
100
AcDbLine
 10
-2279.299376125067
 20
1091.962331356172
 30
0.0
 11
-2249.299376125055
 21
1091.962331356172
 31
0.0
  0
LWPOLYLINE
  5
236
330
1F
100
AcDbEntity
  8
0-B_寸法
  6
Continuous
 62
     7
370
     9
100
AcDbPolyline
 90
        4
 70
     1
 43
3.0
 10
-2277.799376125068
 20
1091.962331356172
 42
0.4142135623731
 10
-2279.299376125067
 20
1093.462331356172
 42
0.4142135623731
 10
-2280.799376125067
 20
1091.962331356172
 42
0.4142135623731
 10
-2279.299376125067
 20
1090.462331356172
 42
0.4142135623731
  0
LWPOLYLINE
  5
237
330
1F
100
AcDbEntity
  8
0-B_寸法
  6
Continuous
 62
     7
370
     9
100
AcDbPolyline
 90
        4
 70
     1
 43
3.0
 10
-2247.799376125055
 20
1091.962331356172
 42
0.4142135623731
 10
-2249.299376125055
 20
1093.462331356172
 42
0.4142135623731
 10
-2250.799376125055
 20
1091.962331356172
 42
0.4142135623731
 10
-2249.299376125055
 20
1090.462331356172
 42
0.4142135623731
  0
LINE
  5
238
330
1F
100
AcDbEntity
  8
0-B_寸法
  6
Continuous
 62
   120
370
     5
100
AcDbLine
 10
-2279.299376125067
 20
1091.962331356172
 30
0.0
 11
-2279.299376125067
 21
1871.962331356173
 31
0.0
  0
LINE
  5
239
330
1F
100
AcDbEntity
  8
0-B_寸法
  6
Continuous
 62
   120
370
     5
100
AcDbLine
 10
-2249.299376125055
 20
1091.962331356172
 30
0.0
 11
-2249.299376125055
 21
1871.962331356173
 31
0.0
  0
LINE
  5
23A
330
1F
100
AcDbEntity
  8
0-B_寸法
  6
Continuous
 62
   120
370
     5
100
AcDbLine
 10
2251.382172231764
 20
1091.962331356172
 30
0.0
 11
2281.382172231764
 21
1091.962331356172
 31
0.0
  0
LWPOLYLINE
  5
23B
330
1F
100
AcDbEntity
  8
0-B_寸法
  6
Continuous
 62
     7
370
     9
100
AcDbPolyline
 90
        4
 70
     1
 43
3.0
 10
2252.882172231764
 20
1091.962331356172
 42
0.4142135623731
 10
2251.382172231764
 20
1093.462331356172
 42
0.4142135623731
 10
2249.882172231764
 20
1091.962331356172
 42
0.4142135623731
 10
2251.382172231764
 20
1090.462331356172
 42
0.4142135623731
  0
LWPOLYLINE
  5
23C
330
1F
100
AcDbEntity
  8
0-B_寸法
  6
Continuous
 62
     7
370
     9
100
AcDbPolyline
 90
        4
 70
     1
 43
3.0
 10
2282.882172231764
 20
1091.962331356172
 42
0.4142135623731
 10
2281.382172231764
 20
1093.462331356172
 42
0.4142135623731
 10
2279.882172231764
 20
1091.962331356172
 42
0.4142135623731
 10
2281.382172231764
 20
1090.462331356172
 42
0.4142135623731
  0
LINE
  5
23D
330
1F
100
AcDbEntity
  8
0-B_寸法
  6
Continuous
 62
   120
370
     5
100
AcDbLine
 10
2251.382172231764
 20
1091.962331356172
 30
0.0
 11
2251.382172231764
 21
1871.962331356173
 31
0.0
  0
LINE
  5
23E
330
1F
100
AcDbEntity
  8
0-B_寸法
  6
Continuous
 62
   120
370
     5
100
AcDbLine
 10
2281.382172231764
 20
1091.962331356172
 30
0.0
 11
2281.382172231764
 21
1871.962331356173
 31
0.0
  0
MTEXT
  5
23F
330
1F
100
AcDbEntity
  8
0-B_寸法
  6
Continuous
 62
     7
370
   211
100
AcDbMText
 10
2176.382172231764
 20
1092.682331356172
 30
0.0
 40
91.44
 41
60.0
 46
0.0
 71
     7
 72
     1
  1
{\fＭＳ ゴシック|b0|i0|c128|p49;5}
 73
     1
 44
1.0
  0
MTEXT
  5
240
330
1F
100
AcDbEntity
  8
0-B_寸法
  6
Continuous
 62
     7
370
   211
100
AcDbMText
 10
-2234.299376125061
 20
1092.682331356172
 30
0.0
 40
91.44
 41
60.0
 46
0.0
 71
     7
 72
     1
  1
{\fＭＳ ゴシック|b0|i0|c128|p49;5}
 73
     1
 44
1.0
  0
LINE
  5
241
330
1F
100
AcDbEntity
  8
0-B_寸法
  6
Continuous
 62
   120
370
     5
100
AcDbLine
 10
-2279.299376125067
 20
881.9623313561724
 30
0.0
 11
2281.382172231765
 21
881.9623313561724
 31
0.0
  0
LWPOLYLINE
  5
242
330
1F
100
AcDbEntity
  8
0-B_寸法
  6
Continuous
 62
     7
370
     9
100
AcDbPolyline
 90
        4
 70
     1
 43
3.0
 10
-2277.799376125068
 20
881.9623313561724
 42
0.4142135623731
 10
-2279.299376125067
 20
883.4623313561724
 42
0.4142135623731
 10
-2280.799376125067
 20
881.9623313561724
 42
0.4142135623731
 10
-2279.299376125067
 20
880.4623313561723
 42
0.4142135623731
  0
LWPOLYLINE
  5
243
330
1F
100
AcDbEntity
  8
0-B_寸法
  6
Continuous
 62
     7
370
     9
100
AcDbPolyline
 90
        4
 70
     1
 43
3.0
 10
2282.882172231765
 20
881.9623313561724
 42
0.4142135623731
 10
2281.382172231765
 20
883.4623313561724
 42
0.4142135623731
 10
2279.882172231765
 20
881.9623313561724
 42
0.4142135623731
 10
2281.382172231765
 20
880.4623313561723
 42
0.4142135623731
  0
LINE
  5
244
330
1F
100
AcDbEntity
  8
0-B_寸法
  6
Continuous
 62
   120
370
     5
100
AcDbLine
 10
-2279.299376125067
 20
881.9623313561724
 30
0.0
 11
-2279.299376125067
 21
1871.962331356173
 31
0.0
  0
LINE
  5
245
330
1F
100
AcDbEntity
  8
0-B_寸法
  6
Continuous
 62
   120
370
     5
100
AcDbLine
 10
2281.382172231765
 20
881.9623313561724
 30
0.0
 11
2281.382172231765
 21
1871.962331356173
 31
0.0
  0
MTEXT
  5
246
330
1F
100
AcDbEntity
  8
0-B_寸法
  6
Continuous
 62
     7
370
   211
100
AcDbMText
 10
-388.9586019466516
 20
882.6823313561724
 30
0.0
 40
91.43999999999997
 41
780.0
 46
0.0
 71
     7
 72
     1
  1
{\fＭＳ ゴシック|b0|i0|c128|p49;ＲＯＷ＝3,244}
 73
     1
 44
1.0
  0
LINE
  5
247
330
1F
100
AcDbEntity
  8
0-A_文字
  6
Continuous
 62
    92
370
    13
100
AcDbLine
 10
-5659.999495325861
 20
3730.00018145587
 30
0.0
 11
-5659.999495325861
 21
4000.00018145587
 31
0.0
  0
MTEXT
  5
248
330
1F
100
AcDbEntity
  8
0-A_文字
  6
Continuous
 62
    92
370
    13
100
AcDbMText
 10
-5558.749495325862
 20
3758.986262536951
 30
0.0
 40
147.9721621621622
 41
3592.500000000001
 46
0.0
 71
     7
 72
     1
  1
{\fＭＳ ゴシック|b0|i0|c128|p49;引き分け戸　上吊りタイプ　固定枠155巾}
 73
     1
 44
1.0
  0
LINE
  5
249
330
1F
100
AcDbEntity
  8
0-A_文字
  6
Continuous
 62
    92
370
    13
100
AcDbLine
 10
-5659.999495325861
 20
3730.00018145587
 30
0.0
 11
-1878.571428571429
 21
3730.00018145587
 31
0.0
  0
LINE
  5
24A
330
1F
100
AcDbEntity
  8
0-A_文字
  6
Continuous
 62
    92
370
    13
100
AcDbLine
 10
-5659.999495325861
 20
4000.00018145587
 30
0.0
 11
-1878.571428571429
 21
4000.00018145587
 31
0.0
  0
LINE
  5
24B
330
1F
100
AcDbEntity
  8
0-A_文字
  6
Continuous
 62
    92
370
    13
100
AcDbLine
 10
-1878.571428571429
 20
3730.00018145587
 30
0.0
 11
-1878.571428571429
 21
4000.00018145587
 31
0.0
  0
LINE
  5
24C
330
1F
100
AcDbEntity
  8
0-A_文字
  6
JWW_HOJO
 62
   120
370
     5
100
AcDbLine
 10
-6140.081333436773
 20
194.9998020481414
 30
0.0
 11
6159.917676803938
 21
194.9998020481414
 31
0.0
  0
LINE
  5
24D
330
1F
100
AcDbEntity
  8
0-A_文字
  6
JWW_HOJO
 62
   120
370
     5
100
AcDbLine
 10
-6140.081333436773
 20
2438.999683277028
 30
0.0
 11
6159.917676803938
 21
2438.999683277028
 31
0.0
  0
LINE
  5
24E
330
1F
100
AcDbEntity
  8
0-A_文字
  6
JWW_HOJO
 62
   120
370
     5
100
AcDbLine
 10
-6140.081333436773
 20
3730.000181455871
 30
0.0
 11
6159.917676803938
 21
3730.000181455871
 31
0.0
  0
LINE
  5
24F
330
1F
100
AcDbEntity
  8
0-A_文字
  6
JWW_HOJO
 62
   120
370
     5
100
AcDbLine
 10
-6140.081333436773
 20
4000.000181455871
 30
0.0
 11
6159.917676803938
 21
4000.000181455871
 31
0.0
  0
LINE
  5
250
330
1F
100
AcDbEntity
  8
0-A_文字
  6
JWW_HOJO
 62
   120
370
     5
100
AcDbLine
 10
-6140.081333436773
 20
-3159.000197951857
 30
0.0
 11
6159.917676803938
 21
-3159.000197951857
 31
0.0
  0
LINE
  5
251
330
1F
100
AcDbEntity
  8
0-A_文字
  6
JWW_HOJO
 62
   120
370
     5
100
AcDbLine
 10
9.91817168358267
 20
-4455.000000000002
 30
0.0
 11
9.91817168358267
 21
4424.999604096284
 31
0.0
  0
LINE
  5
252
330
1F
100
AcDbEntity
  8
0-A_文字
  6
JWW_HOJO
 62
   120
370
     5
100
AcDbLine
 10
-5659.999495325861
 20
4424.999604096284
 30
0.0
 11
-5659.999495325861
 21
-4455.000000000002
 31
0.0
  0
LINE
  5
253
330
1F
100
AcDbEntity
  8
0-A_文字
  6
JWW_HOJO
 62
   120
370
     5
100
AcDbLine
 10
5679.835838693025
 20
4424.999604096284
 30
0.0
 11
5679.835838693025
 21
-4455.000000000002
 31
0.0
  0
LINE
  5
254
330
1F
100
AcDbEntity
  8
0-0_補助線
  6
JWW_HOJO
 62
   120
370
     5
100
AcDbLine
 10
-3428.717896424554
 20
-2592.000404213938
 30
0.0
 11
-3428.717896424554
 21
-2856.00059167935
 31
0.0
  0
LINE
  5
255
330
1F
100
AcDbEntity
  8
0-0_補助線
  6
JWW_HOJO
 62
   120
370
     5
100
AcDbLine
 10
-3499.217896424571
 20
-2592.000404213938
 30
0.0
 11
-3499.217896424571
 21
-2856.00059167935
 31
0.0
  0
LINE
  5
256
330
1F
100
AcDbEntity
  8
0-0_補助線
  6
JWW_HOJO
 62
   120
370
     5
100
AcDbLine
 10
-3214.217896424574
 20
-2592.000404213938
 30
0.0
 11
-3499.217896424571
 21
-2592.000404213938
 31
0.0
  0
LINE
  5
257
330
1F
100
AcDbEntity
  8
0-B_寸法
  6
Continuous
 62
   120
370
     5
100
AcDbLine
 10
-3619.217896424571
 20
-2781.000404213939
 30
0.0
 11
-3619.217896424571
 21
-2661.000369881661
 31
0.0
  0
LWPOLYLINE
  5
258
330
1F
100
AcDbEntity
  8
0-B_寸法
  6
Continuous
 62
     7
370
     9
100
AcDbPolyline
 90
        4
 70
     1
 43
3.0
 10
-3617.717896424571
 20
-2781.000404213939
 42
0.4142135623731
 10
-3619.217896424571
 20
-2779.500404213939
 42
0.4142135623731
 10
-3620.717896424571
 20
-2781.000404213939
 42
0.4142135623731
 10
-3619.217896424571
 20
-2782.500404213939
 42
0.4142135623731
  0
LWPOLYLINE
  5
259
330
1F
100
AcDbEntity
  8
0-B_寸法
  6
Continuous
 62
     7
370
     9
100
AcDbPolyline
 90
        4
 70
     1
 43
3.0
 10
-3617.717896424571
 20
-2661.000369881661
 42
0.4142135623731
 10
-3619.217896424571
 20
-2659.500369881661
 42
0.4142135623731
 10
-3620.717896424571
 20
-2661.000369881661
 42
0.4142135623731
 10
-3619.217896424571
 20
-2662.500369881661
 42
0.4142135623731
  0
LINE
  5
25A
330
1F
100
AcDbEntity
  8
0-B_寸法
  6
Continuous
 62
   120
370
     5
100
AcDbLine
 10
-3619.217896424571
 20
-2781.000404213939
 30
0.0
 11
-3499.217896424571
 21
-2781.000404213939
 31
0.0
  0
LINE
  5
25B
330
1F
100
AcDbEntity
  8
0-B_寸法
  6
Continuous
 62
   120
370
     5
100
AcDbLine
 10
-3619.217896424571
 20
-2661.000369881661
 30
0.0
 11
-3499.217896424571
 21
-2661.000369881661
 31
0.0
  0
MTEXT
  5
25C
330
1F
100
AcDbEntity
  8
0-B_寸法
  6
Continuous
 62
     7
370
   211
100
AcDbMText
 10
-3634.217896424572
 20
-2784.520741168254
 30
0.0
 40
91.44
 41
120.0
 46
0.0
 71
     7
 72
     1
  1
{\fＭＳ ゴシック|b0|i0|c128|p49;20}
 11
6.123031769111886E-17
 21
1.0
 31
0.0
 73
     1
 44
1.0
  0
LINE
  5
25D
330
1F
100
AcDbEntity
  8
0-B_寸法
  6
Continuous
 62
   120
370
     5
100
AcDbLine
 10
-3424.217895871218
 20
-1119.000324800449
 30
0.0
 11
-3244.217895871218
 21
-1119.000324800449
 31
0.0
  0
LINE
  5
25E
330
1F
100
AcDbEntity
  8
0-C_ハッチ
  6
Continuous
 62
   120
370
     5
100
AcDbLine
 10
-3601.560048947028
 20
-330.0000358378991
 30
0.0
 11
-3424.560048947043
 21
-153.0000358379091
 31
0.0
  0
LINE
  5
25F
330
1F
100
AcDbEntity
  8
0-C_ハッチ
  6
Continuous
 62
   120
370
     5
100
AcDbLine
 10
-3542.163079327329
 20
-330.0000358378991
 30
0.0
 11
-3365.163079327328
 21
-153.000035837901
 31
0.0
  0
LINE
  5
260
330
1F
100
AcDbEntity
  8
0-C_ハッチ
  6
Continuous
 62
   120
370
     5
100
AcDbLine
 10
-3660.957018566677
 20
-330.0000358378991
 30
0.0
 11
-3483.957018566691
 21
-153.0000358379125
 31
0.0
  0
LINE
  5
261
330
1F
100
AcDbEntity
  8
0-C_ハッチ
  6
Continuous
 62
   120
370
     5
100
AcDbLine
 10
-3420.617896424578
 20
-267.8518225547959
 30
0.0
 11
-3482.766109707679
 21
-330.0000358378991
 31
0.0
  0
LINE
  5
262
330
1F
100
AcDbEntity
  8
0-4_枠
  6
Continuous
 62
    92
370
    13
100
AcDbLine
 10
-3889.217896424572
 20
-333.000035837901
 30
0.0
 11
-3420.617896424571
 21
-333.000035837901
 31
0.0
  0
LINE
  5
263
330
1F
100
AcDbEntity
  8
0-4_枠
  6
Continuous
 62
    92
370
    13
100
AcDbLine
 10
-3886.217896424573
 20
-330.0000358378991
 30
0.0
 11
-3420.617896424571
 21
-330.0000358378991
 31
0.0
  0
LINE
  5
264
330
1F
100
AcDbEntity
  8
0-C_ハッチ
  6
Continuous
 62
   120
370
     5
100
AcDbLine
 10
-3720.353988186386
 20
-330.000035837905
 30
0.0
 11
-3543.353988186385
 21
-153.0000358378967
 31
0.0
  0
LWPOLYLINE
  5
265
330
1F
100
AcDbEntity
  8
0-B_寸法
  6
Continuous
 62
     7
370
     9
100
AcDbPolyline
 90
        4
 70
     1
 43
3.0
 10
-1901.717896424572
 20
-2781.000197951856
 42
0.4142135623731
 10
-1903.217896424572
 20
-2779.500197951856
 42
0.4142135623731
 10
-1904.717896424572
 20
-2781.000197951856
 42
0.4142135623731
 10
-1903.217896424572
 20
-2782.500197951856
 42
0.4142135623731
  0
LINE
  5
266
330
1F
100
AcDbEntity
  8
0-B_寸法
  6
Continuous
 62
   120
370
     5
100
AcDbLine
 10
-1903.217896424572
 20
-2781.000197951856
 30
0.0
 11
-2323.217896424572
 21
-2781.000197951856
 31
0.0
  0
LWPOLYLINE
  5
267
330
1F
100
AcDbEntity
  8
0-B_寸法
  6
Continuous
 62
     7
370
     9
100
AcDbPolyline
 90
        4
 70
     1
 43
3.0
 10
-2111.717896424572
 20
-2781.000197951856
 42
0.4142135623731
 10
-2113.217896424572
 20
-2779.500197951856
 42
0.4142135623731
 10
-2114.717896424572
 20
-2781.000197951856
 42
0.4142135623731
 10
-2113.217896424572
 20
-2782.500197951856
 42
0.4142135623731
  0
LINE
  5
268
330
1F
100
AcDbEntity
  8
0-0_補助線
  6
JWW_HOJO
 62
   120
370
     5
100
AcDbLine
 10
-2113.217896424572
 20
-2853.000197951854
 30
0.0
 11
-2113.217896424572
 21
194.9998020481414
 31
0.0
  0
LINE
  5
269
330
1F
100
AcDbEntity
  8
0-B_寸法
  6
Continuous
 62
   120
370
     5
100
AcDbLine
 10
-2113.217896424572
 20
-2781.000197951856
 30
0.0
 11
-2113.217896424572
 21
-333.0001979518802
 31
0.0
  0
LINE
  5
26A
330
1F
100
AcDbEntity
  8
0-7_金物
  6
Continuous
 62
     7
370
     9
100
AcDbLine
 10
-3286.817896736824
 20
-414.0000352054931
 30
0.0
 11
-3381.617896112321
 21
-414.0000352054931
 31
0.0
  0
LINE
  5
26B
330
1F
100
AcDbEntity
  8
0-7_金物
  6
Continuous
 62
     7
370
     9
100
AcDbLine
 10
-3381.617896112321
 20
-623.4000338260552
 30
0.0
 11
-3381.617896112321
 21
-414.0000352054931
 31
0.0
  0
LINE
  5
26C
330
1F
100
AcDbEntity
  8
0-7_金物
  6
Continuous
 62
     7
370
     9
100
AcDbLine
 10
-3286.817896736824
 20
-623.4000338260552
 30
0.0
 11
-3286.817896736824
 21
-414.0000352054931
 31
0.0
  0
ARC
  5
26D
330
1F
100
AcDbEntity
  8
0-7_金物
  6
Continuous
 62
     7
370
     9
100
AcDbCircle
 10
-3334.217896424574
 20
-474.0000348102402
 30
0.0
 40
38.39999974703684
100
AcDbArc
 50
341.7900431357177
 51
12.17573410274985
  0
ARC
  5
26E
330
1F
100
AcDbEntity
  8
0-7_金物
  6
Continuous
 62
     7
370
     9
100
AcDbCircle
 10
-3334.217896424574
 20
-474.0000348102402
 30
0.0
 40
38.39999974703684
100
AcDbArc
 50
167.8242658972536
 51
198.2099568642824
  0
ARC
  5
26F
330
1F
100
AcDbEntity
  8
0-7_金物
  6
Continuous
 62
     7
370
     9
100
AcDbCircle
 10
-3334.217896424574
 20
-558.0000342568821
 30
0.0
 40
38.39999974703684
100
AcDbArc
 50
167.8242658972536
 51
198.2099568642824
  0
ARC
  5
270
330
1F
100
AcDbEntity
  8
0-7_金物
  6
Continuous
 62
     7
370
     9
100
AcDbCircle
 10
-3334.217896424574
 20
-558.0000342568821
 30
0.0
 40
38.39999974703684
100
AcDbArc
 50
341.7900431357177
 51
12.17573410274985
  0
ARC
  5
271
330
1F
100
AcDbEntity
  8
0-7_金物
  6
Continuous
 62
     7
370
     9
100
AcDbCircle
 10
-3334.217896424574
 20
-624.6000338181495
 30
0.0
 40
47.3999996877486
100
AcDbArc
 50
180.0
 51
0.0
  0
LINE
  5
272
330
1F
100
AcDbEntity
  8
0-7_金物
  6
Continuous
 62
     7
370
     9
100
AcDbLine
 10
-3295.817896677537
 20
-474.0000348102402
 30
0.0
 11
-3289.217896721014
 21
-474.0000348102402
 31
0.0
  0
LINE
  5
273
330
1F
100
AcDbEntity
  8
0-7_金物
  6
Continuous
 62
     7
370
     9
100
AcDbLine
 10
-3369.617896191372
 20
-429.0000351066801
 30
0.0
 11
-3298.817896657773
 21
-429.0000351066801
 31
0.0
  0
CIRCLE
  5
274
330
1F
100
AcDbEntity
  8
0-7_金物
  6
Continuous
 62
     7
370
     9
100
AcDbCircle
 10
-3334.217896424574
 20
-558.0000342568821
 30
0.0
 40
29.99999980237253
  0
LINE
  5
275
330
1F
100
AcDbEntity
  8
0-7_金物
  6
Continuous
 62
     7
370
     9
100
AcDbLine
 10
-3375.617896151846
 20
-414.0000352054931
 30
0.0
 11
-3375.617896151846
 21
-423.0000351462064
 31
0.0
  0
LINE
  5
276
330
1F
100
AcDbEntity
  8
0-7_金物
  6
Continuous
 62
     7
370
     9
100
AcDbLine
 10
-3292.817896697299
 20
-414.0000352054931
 30
0.0
 11
-3292.817896697299
 21
-423.0000351462064
 31
0.0
  0
ARC
  5
277
330
1F
100
AcDbEntity
  8
0-7_金物
  6
Continuous
 62
     7
370
     9
100
AcDbCircle
 10
-3369.617896191372
 20
-423.0000351462064
 30
0.0
 40
5.999999960474506
100
AcDbArc
 50
180.0
 51
270.0
  0
ARC
  5
278
330
1F
100
AcDbEntity
  8
0-7_金物
  6
Continuous
 62
     7
370
     9
100
AcDbCircle
 10
-3298.817896657773
 20
-423.0000351462064
 30
0.0
 40
5.999999960474506
100
AcDbArc
 50
270.0
 51
0.0
  0
LINE
  5
279
330
1F
100
AcDbEntity
  8
0-7_金物
  6
Continuous
 62
     7
370
     9
100
AcDbLine
 10
-3360.617896250661
 20
-594.0000340197292
 30
0.0
 11
-3307.817896598485
 21
-594.0000340197292
 31
0.0
  0
LINE
  5
27A
330
1F
100
AcDbEntity
  8
0-7_金物
  6
Continuous
 62
     7
370
     9
100
AcDbLine
 10
-3375.617896151846
 20
-623.4000338260552
 30
0.0
 11
-3375.617896151846
 21
-609.000033920915
 31
0.0
  0
LINE
  5
27B
330
1F
100
AcDbEntity
  8
0-7_金物
  6
Continuous
 62
     7
370
     9
100
AcDbLine
 10
-3292.817896697299
 20
-623.4000338260552
 30
0.0
 11
-3292.817896697299
 21
-609.000033920915
 31
0.0
  0
LINE
  5
27C
330
1F
100
AcDbEntity
  8
0-7_金物
  6
Continuous
 62
     7
370
     9
100
AcDbLine
 10
-3355.217896286234
 20
-659.0785985845838
 30
0.0
 11
-3355.217896286234
 21
-615.0000338813896
 31
0.0
  0
LINE
  5
27D
330
1F
100
AcDbEntity
  8
0-7_金物
  6
Continuous
 62
     7
370
     9
100
AcDbLine
 10
-3313.217896562911
 20
-659.0785985845838
 30
0.0
 11
-3313.217896562911
 21
-615.0000338813896
 31
0.0
  0
ARC
  5
27E
330
1F
100
AcDbEntity
  8
0-7_金物
  6
Continuous
 62
     7
370
     9
100
AcDbCircle
 10
-3307.817896598485
 20
-600.0000339802029
 30
0.0
 40
5.999999960474506
100
AcDbArc
 50
0.0
 51
90.0
  0
ARC
  5
27F
330
1F
100
AcDbEntity
  8
0-7_金物
  6
Continuous
 62
     7
370
     9
100
AcDbCircle
 10
-3295.817896677537
 20
-600.0000339802029
 30
0.0
 40
5.999999960474506
100
AcDbArc
 50
180.0
 51
270.0
  0
ARC
  5
280
330
1F
100
AcDbEntity
  8
0-7_金物
  6
Continuous
 62
     7
370
     9
100
AcDbCircle
 10
-3295.817896677537
 20
-609.000033920915
 30
0.0
 40
2.999999980237253
100
AcDbArc
 50
0.0
 51
90.0
  0
ARC
  5
281
330
1F
100
AcDbEntity
  8
0-7_金物
  6
Continuous
 62
     7
370
     9
100
AcDbCircle
 10
-3360.617896250661
 20
-600.0000339802029
 30
0.0
 40
5.999999960474506
100
AcDbArc
 50
90.0
 51
180.0
  0
ARC
  5
282
330
1F
100
AcDbEntity
  8
0-7_金物
  6
Continuous
 62
     7
370
     9
100
AcDbCircle
 10
-3372.61789617161
 20
-609.000033920915
 30
0.0
 40
2.999999980237253
100
AcDbArc
 50
90.0
 51
180.0
  0
ARC
  5
283
330
1F
100
AcDbEntity
  8
0-7_金物
  6
Continuous
 62
     7
370
     9
100
AcDbCircle
 10
-3372.61789617161
 20
-600.0000339802029
 30
0.0
 40
5.999999960474506
100
AcDbArc
 50
270.0
 51
0.0
  0
LINE
  5
284
330
1F
100
AcDbEntity
  8
0-7_金物
  6
Continuous
 62
     7
370
     9
100
AcDbLine
 10
-3355.217896286234
 20
-615.0000338813896
 30
0.0
 11
-3313.217896562911
 21
-615.0000338813896
 31
0.0
  0
LINE
  5
285
330
1F
100
AcDbEntity
  8
0-7_金物
  6
Continuous
 62
     7
370
     9
100
AcDbLine
 10
-3355.217896286234
 20
-636.0000337430513
 30
0.0
 11
-3313.217896562911
 21
-636.0000337430513
 31
0.0
  0
LINE
  5
286
330
1F
100
AcDbEntity
  8
0-7_金物
  6
Continuous
 62
     7
370
     9
100
AcDbLine
 10
-3372.61789617161
 20
-606.0000339406788
 30
0.0
 11
-3295.817896677537
 21
-606.0000339406788
 31
0.0
  0
LINE
  5
287
330
1F
100
AcDbEntity
  8
0-7_金物
  6
Continuous
 62
     7
370
     9
100
AcDbLine
 10
-3352.387101020553
 20
-660.6000335809966
 30
0.0
 11
-3316.04869182859
 21
-660.6000335809966
 31
0.0
  0
LINE
  5
288
330
1F
100
AcDbEntity
  8
0-7_金物
  6
Continuous
 62
     7
370
     9
100
AcDbLine
 10
-3304.817896618248
 20
-501.0000346323734
 30
0.0
 11
-3292.817896697299
 21
-501.0000346323734
 31
0.0
  0
LINE
  5
289
330
1F
100
AcDbEntity
  8
0-7_金物
  6
Continuous
 62
     7
370
     9
100
AcDbLine
 10
-3304.817896618248
 20
-516.0000345335601
 30
0.0
 11
-3292.817896697299
 21
-516.0000345335601
 31
0.0
  0
LINE
  5
28A
330
1F
100
AcDbEntity
  8
0-7_金物
  6
Continuous
 62
     7
370
     9
100
AcDbLine
 10
-3292.817896697299
 20
-501.0000346323734
 30
0.0
 11
-3292.817896697299
 21
-516.0000345335601
 31
0.0
  0
LINE
  5
28B
330
1F
100
AcDbEntity
  8
0-7_金物
  6
Continuous
 62
     7
370
     9
100
AcDbLine
 10
-3310.817896578722
 20
-507.000034592848
 30
0.0
 11
-3310.817896578722
 21
-510.0000345730876
 31
0.0
  0
ARC
  5
28C
330
1F
100
AcDbEntity
  8
0-7_金物
  6
Continuous
 62
     7
370
     9
100
AcDbCircle
 10
-3304.817896618248
 20
-507.000034592848
 30
0.0
 40
5.999999960474506
100
AcDbArc
 50
90.0
 51
180.0
  0
ARC
  5
28D
330
1F
100
AcDbEntity
  8
0-7_金物
  6
Continuous
 62
     7
370
     9
100
AcDbCircle
 10
-3304.817896618248
 20
-510.0000345730876
 30
0.0
 40
5.999999960474506
100
AcDbArc
 50
180.0
 51
270.0
  0
LINE
  5
28E
330
1F
100
AcDbEntity
  8
0-7_金物
  6
Continuous
 62
     7
370
     9
100
AcDbLine
 10
-3363.617896230897
 20
-501.0000346323734
 30
0.0
 11
-3375.617896151846
 21
-501.0000346323734
 31
0.0
  0
LINE
  5
28F
330
1F
100
AcDbEntity
  8
0-7_金物
  6
Continuous
 62
     7
370
     9
100
AcDbLine
 10
-3363.617896230897
 20
-516.0000345335601
 30
0.0
 11
-3375.617896151846
 21
-516.0000345335601
 31
0.0
  0
ARC
  5
290
330
1F
100
AcDbEntity
  8
0-7_金物
  6
Continuous
 62
     7
370
     9
100
AcDbCircle
 10
-3363.617896230897
 20
-507.000034592848
 30
0.0
 40
5.999999960474506
100
AcDbArc
 50
0.0
 51
90.0
  0
ARC
  5
291
330
1F
100
AcDbEntity
  8
0-7_金物
  6
Continuous
 62
     7
370
     9
100
AcDbCircle
 10
-3363.617896230897
 20
-510.0000345730876
 30
0.0
 40
5.999999960474506
100
AcDbArc
 50
270.0
 51
0.0
  0
LINE
  5
292
330
1F
100
AcDbEntity
  8
0-7_金物
  6
Continuous
 62
     7
370
     9
100
AcDbLine
 10
-3375.617896151846
 20
-501.0000346323734
 30
0.0
 11
-3375.617896151846
 21
-516.0000345335601
 31
0.0
  0
LINE
  5
293
330
1F
100
AcDbEntity
  8
0-7_金物
  6
Continuous
 62
     7
370
     9
100
AcDbLine
 10
-3357.617896270423
 20
-507.000034592848
 30
0.0
 11
-3357.617896270423
 21
-510.0000345730876
 31
0.0
  0
LINE
  5
294
330
1F
100
AcDbEntity
  8
0-7_金物
  6
Continuous
 62
     7
370
     9
100
AcDbLine
 10
-3300.276771151208
 20
-462.000034889291
 30
0.0
 11
-3289.217896721014
 21
-474.0000348102402
 31
0.0
  0
LINE
  5
295
330
1F
100
AcDbEntity
  8
0-7_金物
  6
Continuous
 62
     7
370
     9
100
AcDbLine
 10
-3368.159021697935
 20
-462.000034889291
 30
0.0
 11
-3379.217896128132
 21
-474.0000348102402
 31
0.0
  0
LINE
  5
296
330
1F
100
AcDbEntity
  8
0-7_金物
  6
Continuous
 62
     7
370
     9
100
AcDbLine
 10
-3372.61789617161
 20
-474.0000348102402
 30
0.0
 11
-3379.217896128132
 21
-474.0000348102402
 31
0.0
  0
LINE
  5
297
330
1F
100
AcDbEntity
  8
0-7_金物
  6
Continuous
 62
     7
370
     9
100
AcDbLine
 10
-3368.159021697935
 20
-546.0000343359338
 30
0.0
 11
-3379.217896128132
 21
-558.0000342568821
 31
0.0
  0
LINE
  5
298
330
1F
100
AcDbEntity
  8
0-7_金物
  6
Continuous
 62
     7
370
     9
100
AcDbLine
 10
-3372.61789617161
 20
-558.0000342568821
 30
0.0
 11
-3379.217896128132
 21
-558.0000342568821
 31
0.0
  0
LINE
  5
299
330
1F
100
AcDbEntity
  8
0-7_金物
  6
Continuous
 62
     7
370
     9
100
AcDbLine
 10
-3295.817896677537
 20
-558.0000342568821
 30
0.0
 11
-3289.217896721014
 21
-558.0000342568821
 31
0.0
  0
LINE
  5
29A
330
1F
100
AcDbEntity
  8
0-7_金物
  6
Continuous
 62
     7
370
     9
100
AcDbLine
 10
-3300.276771151208
 20
-546.0000343359338
 30
0.0
 11
-3289.217896721014
 21
-558.0000342568821
 31
0.0
  0
LINE
  5
29B
330
1F
100
AcDbEntity
  8
0-7_金物
  6
Continuous
 62
     7
370
     9
100
AcDbLine
 10
-3331.301714150229
 20
-459.3000349070776
 30
0.0
 11
-3337.134078698916
 21
-459.3000349070776
 31
0.0
  0
LINE
  5
29C
330
1F
100
AcDbEntity
  8
0-7_金物
  6
Continuous
 62
     7
370
     9
100
AcDbLine
 10
-3337.336237309063
 20
-470.8816939257488
 30
0.0
 11
-3337.134078698916
 21
-459.3000349070776
 31
0.0
  0
LINE
  5
29D
330
1F
100
AcDbEntity
  8
0-7_金物
  6
Continuous
 62
     7
370
     9
100
AcDbLine
 10
-3331.099555540082
 20
-470.8816939257488
 30
0.0
 11
-3331.301714150229
 21
-459.3000349070776
 31
0.0
  0
LINE
  5
29E
330
1F
100
AcDbEntity
  8
0-7_金物
  6
Continuous
 62
     7
370
     9
100
AcDbLine
 10
-3319.51789652141
 20
-476.9162170845817
 30
0.0
 11
-3319.51789652141
 21
-471.0838525358969
 31
0.0
  0
LINE
  5
29F
330
1F
100
AcDbEntity
  8
0-7_金物
  6
Continuous
 62
     7
370
     9
100
AcDbLine
 10
-3331.099555540082
 20
-470.8816939257488
 30
0.0
 11
-3319.51789652141
 21
-471.0838525358969
 31
0.0
  0
LINE
  5
2A0
330
1F
100
AcDbEntity
  8
0-7_金物
  6
Continuous
 62
     7
370
     9
100
AcDbLine
 10
-3331.099555540082
 20
-477.1183756947294
 30
0.0
 11
-3319.51789652141
 21
-476.9162170845817
 31
0.0
  0
LINE
  5
2A1
330
1F
100
AcDbEntity
  8
0-7_金物
  6
Continuous
 62
     7
370
     9
100
AcDbLine
 10
-3337.134078698916
 20
-488.7000347134023
 30
0.0
 11
-3331.301714150229
 21
-488.7000347134023
 31
0.0
  0
LINE
  5
2A2
330
1F
100
AcDbEntity
  8
0-7_金物
  6
Continuous
 62
     7
370
     9
100
AcDbLine
 10
-3331.099555540082
 20
-477.1183756947294
 30
0.0
 11
-3331.301714150229
 21
-488.7000347134023
 31
0.0
  0
LINE
  5
2A3
330
1F
100
AcDbEntity
  8
0-7_金物
  6
Continuous
 62
     7
370
     9
100
AcDbLine
 10
-3337.336237309063
 20
-477.1183756947294
 30
0.0
 11
-3337.134078698916
 21
-488.7000347134023
 31
0.0
  0
LINE
  5
2A4
330
1F
100
AcDbEntity
  8
0-7_金物
  6
Continuous
 62
     7
370
     9
100
AcDbLine
 10
-3348.917896327735
 20
-471.0838525358969
 30
0.0
 11
-3348.917896327735
 21
-476.9162170845817
 31
0.0
  0
LINE
  5
2A5
330
1F
100
AcDbEntity
  8
0-7_金物
  6
Continuous
 62
     7
370
     9
100
AcDbLine
 10
-3337.336237309063
 20
-477.1183756947294
 30
0.0
 11
-3348.917896327735
 21
-476.9162170845817
 31
0.0
  0
LINE
  5
2A6
330
1F
100
AcDbEntity
  8
0-7_金物
  6
Continuous
 62
     7
370
     9
100
AcDbLine
 10
-3337.336237309063
 20
-470.8816939257488
 30
0.0
 11
-3348.917896327735
 21
-471.0838525358969
 31
0.0
  0
LINE
  5
2A7
330
1F
100
AcDbEntity
  8
0-7_金物
  6
Continuous
 62
     7
370
     9
100
AcDbLine
 10
-3331.301714150229
 20
-543.3000343537192
 30
0.0
 11
-3337.134078698916
 21
-543.3000343537192
 31
0.0
  0
LINE
  5
2A8
330
1F
100
AcDbEntity
  8
0-7_金物
  6
Continuous
 62
     7
370
     9
100
AcDbLine
 10
-3337.336237309063
 20
-554.8816933723908
 30
0.0
 11
-3337.134078698916
 21
-543.3000343537192
 31
0.0
  0
LINE
  5
2A9
330
1F
100
AcDbEntity
  8
0-7_金物
  6
Continuous
 62
     7
370
     9
100
AcDbLine
 10
-3331.099555540082
 20
-554.8816933723908
 30
0.0
 11
-3331.301714150229
 21
-543.3000343537192
 31
0.0
  0
LINE
  5
2AA
330
1F
100
AcDbEntity
  8
0-7_金物
  6
Continuous
 62
     7
370
     9
100
AcDbLine
 10
-3319.51789652141
 20
-560.9162165312267
 30
0.0
 11
-3319.51789652141
 21
-555.0838519825397
 31
0.0
  0
LINE
  5
2AB
330
1F
100
AcDbEntity
  8
0-7_金物
  6
Continuous
 62
     7
370
     9
100
AcDbLine
 10
-3331.099555540082
 20
-554.8816933723908
 30
0.0
 11
-3319.51789652141
 21
-555.0838519825397
 31
0.0
  0
LINE
  5
2AC
330
1F
100
AcDbEntity
  8
0-7_金物
  6
Continuous
 62
     7
370
     9
100
AcDbLine
 10
-3331.099555540082
 20
-561.1183751413722
 30
0.0
 11
-3319.51789652141
 21
-560.9162165312267
 31
0.0
  0
LINE
  5
2AD
330
1F
100
AcDbEntity
  8
0-7_金物
  6
Continuous
 62
     7
370
     9
100
AcDbLine
 10
-3337.134078698916
 20
-572.7000341600451
 30
0.0
 11
-3331.301714150229
 21
-572.7000341600451
 31
0.0
  0
LINE
  5
2AE
330
1F
100
AcDbEntity
  8
0-7_金物
  6
Continuous
 62
     7
370
     9
100
AcDbLine
 10
-3331.099555540082
 20
-561.1183751413722
 30
0.0
 11
-3331.301714150229
 21
-572.7000341600451
 31
0.0
  0
LINE
  5
2AF
330
1F
100
AcDbEntity
  8
0-7_金物
  6
Continuous
 62
     7
370
     9
100
AcDbLine
 10
-3337.336237309063
 20
-561.1183751413722
 30
0.0
 11
-3337.134078698916
 21
-572.7000341600451
 31
0.0
  0
LINE
  5
2B0
330
1F
100
AcDbEntity
  8
0-7_金物
  6
Continuous
 62
     7
370
     9
100
AcDbLine
 10
-3348.917896327735
 20
-555.0838519825397
 30
0.0
 11
-3348.917896327735
 21
-560.9162165312267
 31
0.0
  0
LINE
  5
2B1
330
1F
100
AcDbEntity
  8
0-7_金物
  6
Continuous
 62
     7
370
     9
100
AcDbLine
 10
-3337.336237309063
 20
-561.1183751413722
 30
0.0
 11
-3348.917896327735
 21
-560.9162165312267
 31
0.0
  0
LINE
  5
2B2
330
1F
100
AcDbEntity
  8
0-7_金物
  6
Continuous
 62
     7
370
     9
100
AcDbLine
 10
-3337.336237309063
 20
-554.8816933723908
 30
0.0
 11
-3348.917896327735
 21
-555.0838519825397
 31
0.0
  0
ARC
  5
2B3
330
1F
100
AcDbEntity
  8
0-7_金物
  6
Continuous
 62
     7
370
     9
100
AcDbCircle
 10
-3334.217896424574
 20
-623.4000338260552
 30
0.0
 40
41.39999972727429
100
AcDbArc
 50
180.0
 51
0.0
  0
CIRCLE
  5
2B4
330
1F
100
AcDbEntity
  8
0-7_金物
  6
Continuous
 62
     7
370
     9
100
AcDbCircle
 10
-3334.217896424574
 20
-474.0000348102402
 30
0.0
 40
29.99999980237253
  0
LINE
  5
2B5
330
1F
100
AcDbEntity
  8
0-7_金物
  6
Continuous
 62
     7
370
     9
100
AcDbLine
 10
-3368.117896201254
 20
-237.0000358379009
 30
0.0
 11
-3300.317896647891
 21
-237.0000358379009
 31
0.0
  0
LINE
  5
2B6
330
1F
100
AcDbEntity
  8
0-7_金物
  6
Continuous
 62
     7
370
     9
100
AcDbLine
 10
-3316.217895871207
 20
-382.8000348774306
 30
0.0
 11
-3316.217895871207
 21
-414.0000352054931
 31
0.0
  0
LINE
  5
2B7
330
1F
100
AcDbEntity
  8
0-7_金物
  6
Continuous
 62
     7
370
     9
100
AcDbLine
 10
-3352.217895871207
 20
-414.0000352054931
 30
0.0
 11
-3352.217895871207
 21
-382.8000348774306
 31
0.0
  0
ARC
  5
2B8
330
1F
100
AcDbEntity
  8
0-7_金物
  6
Continuous
 62
     7
370
     9
100
AcDbCircle
 10
-3262.21789689887
 20
-353.7946286756326
 30
0.0
 40
11.99999992094837
100
AcDbArc
 50
324.0494323803839
 51
0.0000000000013613
  0
LINE
  5
2B9
330
1F
100
AcDbEntity
  8
0-7_金物
  6
Continuous
 62
     7
370
     9
100
AcDbLine
 10
-3250.21789697793
 20
-333.0000352054938
 30
0.0
 11
-3241.817897033264
 21
-333.0000352054938
 31
0.0
  0
LINE
  5
2BA
330
1F
100
AcDbEntity
  8
0-7_金物
  6
Continuous
 62
     7
370
     9
100
AcDbLine
 10
-3250.21789697793
 20
-340.2000351580632
 30
0.0
 11
-3250.21789697793
 21
-353.7946286756326
 31
0.0
  0
LINE
  5
2BB
330
1F
100
AcDbEntity
  8
0-7_金物
  6
Continuous
 62
     7
370
     9
100
AcDbLine
 10
-3241.817897033264
 20
-340.2000351580632
 30
0.0
 11
-3250.21789697793
 21
-340.2000351580632
 31
0.0
  0
ARC
  5
2BC
330
1F
100
AcDbEntity
  8
0-7_金物
  6
Continuous
 62
     7
370
     9
100
AcDbCircle
 10
-3241.817897033264
 20
-336.6000351817779
 30
0.0
 40
3.599999976284494
100
AcDbArc
 50
270.0
 51
90.0
  0
LINE
  5
2BD
330
1F
100
AcDbEntity
  8
0-7_金物
  6
Continuous
 62
     7
370
     9
100
AcDbLine
 10
-3426.617895815878
 20
-340.2000351580632
 30
0.0
 11
-3418.217895871215
 21
-340.2000351580632
 31
0.0
  0
ARC
  5
2BE
330
1F
100
AcDbEntity
  8
0-7_金物
  6
Continuous
 62
     7
370
     9
100
AcDbCircle
 10
-3426.617895815878
 20
-336.6000351817779
 30
0.0
 40
3.599999976284494
100
AcDbArc
 50
90.0
 51
270.0
  0
LINE
  5
2BF
330
1F
100
AcDbEntity
  8
0-7_金物
  6
Continuous
 62
     7
370
     9
100
AcDbLine
 10
-3418.217895871215
 20
-333.0000352054938
 30
0.0
 11
-3426.617895815878
 21
-333.0000352054938
 31
0.0
  0
LINE
  5
2C0
330
1F
100
AcDbEntity
  8
0-7_金物
  6
Continuous
 62
     7
370
     9
100
AcDbLine
 10
-3418.217895871217
 20
-353.7946286756326
 30
0.0
 11
-3418.217895871217
 21
-340.2000351580632
 31
0.0
  0
ARC
  5
2C1
330
1F
100
AcDbEntity
  8
0-7_金物
  6
Continuous
 62
     7
370
     9
100
AcDbCircle
 10
-3406.217895950267
 20
-353.7946286756326
 30
0.0
 40
11.99999992094837
100
AcDbArc
 50
179.9999999999987
 51
215.9505676196161
  0
ARC
  5
2C2
330
1F
100
AcDbEntity
  8
0-7_金物
  6
Continuous
 62
     7
370
     9
100
AcDbCircle
 10
-3385.817896084653
 20
-339.0000351659667
 30
0.0
 40
37.19999975494188
100
AcDbArc
 50
215.9505676196163
 51
293.8188413934565
  0
ARC
  5
2C3
330
1F
100
AcDbEntity
  8
0-7_金物
  6
Continuous
 62
     7
370
     9
100
AcDbCircle
 10
-3373.217896167656
 20
-367.5426347193803
 30
0.0
 40
5.999999960474696
100
AcDbArc
 50
293.8188413934587
 51
0.0000000000009542
  0
LINE
  5
2C4
330
1F
100
AcDbEntity
  8
0-7_金物
  6
Continuous
 62
     7
370
     9
100
AcDbLine
 10
-3367.217896207182
 20
-366.0000349881029
 30
0.0
 11
-3367.217896207182
 21
-367.5426347193803
 31
0.0
  0
ARC
  5
2C5
330
1F
100
AcDbEntity
  8
0-7_金物
  6
Continuous
 62
     7
370
     9
100
AcDbCircle
 10
-3369.017896195323
 20
-366.0000349881029
 30
0.0
 40
1.799999988141737
100
AcDbArc
 50
359.9999999999994
 51
121.8907918018427
  0
ARC
  5
2C6
330
1F
100
AcDbEntity
  8
0-7_金物
  6
Continuous
 62
     7
370
     9
100
AcDbCircle
 10
-3385.817896084653
 20
-339.0000351659667
 30
0.0
 40
29.99999980237392
100
AcDbArc
 50
213.9231120032609
 51
301.8907918018446
  0
ARC
  5
2C7
330
1F
100
AcDbEntity
  8
0-7_金物
  6
Continuous
 62
     7
370
     9
100
AcDbCircle
 10
-3409.217895930501
 20
-354.7378875206192
 30
0.0
 40
1.799999988143631
100
AcDbArc
 50
179.9999999999944
 51
213.923112003254
  0
LINE
  5
2C8
330
1F
100
AcDbEntity
  8
0-7_金物
  6
Continuous
 62
     7
370
     9
100
AcDbLine
 10
-3411.017895918646
 20
-270.0000356205096
 30
0.0
 11
-3411.017895918646
 21
-354.7378875206171
 31
0.0
  0
ARC
  5
2C9
330
1F
100
AcDbEntity
  8
0-7_金物
  6
Continuous
 62
     7
370
     9
100
AcDbCircle
 10
-3399.017895997698
 20
-270.0000356205096
 30
0.0
 40
11.99999992094899
100
AcDbArc
 50
90.0
 51
180.0
  0
LINE
  5
2CA
330
1F
100
AcDbEntity
  8
0-7_金物
  6
Continuous
 62
     7
370
     9
100
AcDbLine
 10
-3363.917896228921
 20
-258.0000356995613
 30
0.0
 11
-3399.017895997698
 21
-258.0000356995613
 31
0.0
  0
ARC
  5
2CB
330
1F
100
AcDbEntity
  8
0-7_金物
  6
Continuous
 62
     7
370
     9
100
AcDbCircle
 10
-3363.917896228919
 20
-256.2000357114204
 30
0.0
 40
1.799999988141394
100
AcDbArc
 50
269.9999999999891
 51
359.9999999999891
  0
LINE
  5
2CC
330
1F
100
AcDbEntity
  8
0-7_金物
  6
Continuous
 62
     7
370
     9
100
AcDbLine
 10
-3362.117896240779
 20
-247.8000357667548
 30
0.0
 11
-3362.117896240779
 21
-256.2000357114204
 31
0.0
  0
ARC
  5
2CD
330
1F
100
AcDbEntity
  8
0-7_金物
  6
Continuous
 62
     7
370
     9
100
AcDbCircle
 10
-3360.317896252636
 20
-247.8000357667548
 30
0.0
 40
1.799999988142416
100
AcDbArc
 50
89.99999999997829
 51
179.9999999999783
  0
LINE
  5
2CE
330
1F
100
AcDbEntity
  8
0-7_金物
  6
Continuous
 62
     7
370
     9
100
AcDbLine
 10
-3336.017896412714
 20
-246.000035778613
 30
0.0
 11
-3360.317896252636
 21
-246.000035778613
 31
0.0
  0
LINE
  5
2CF
330
1F
100
AcDbEntity
  8
0-7_金物
  6
Continuous
 62
     7
370
     9
100
AcDbLine
 10
-3334.217896424571
 20
-244.2000357904699
 30
0.0
 11
-3336.017896412714
 21
-246.000035778613
 31
0.0
  0
LINE
  5
2D0
330
1F
100
AcDbEntity
  8
0-7_金物
  6
Continuous
 62
     7
370
     9
100
AcDbLine
 10
-3332.417896436428
 20
-246.000035778613
 30
0.0
 11
-3334.217896424571
 21
-244.2000357904699
 31
0.0
  0
LINE
  5
2D1
330
1F
100
AcDbEntity
  8
0-7_金物
  6
Continuous
 62
     7
370
     9
100
AcDbLine
 10
-3308.117896596509
 20
-246.000035778613
 30
0.0
 11
-3332.417896436428
 21
-246.000035778613
 31
0.0
  0
ARC
  5
2D2
330
1F
100
AcDbEntity
  8
0-7_金物
  6
Continuous
 62
     7
370
     9
100
AcDbCircle
 10
-3308.117896596507
 20
-247.8000357667548
 30
0.0
 40
1.799999988142416
100
AcDbArc
 50
0.0000000000217168
 51
90.00000000002173
  0
LINE
  5
2D3
330
1F
100
AcDbEntity
  8
0-7_金物
  6
Continuous
 62
     7
370
     9
100
AcDbLine
 10
-3306.317896608366
 20
-256.2000357114204
 30
0.0
 11
-3306.317896608366
 21
-247.8000357667548
 31
0.0
  0
ARC
  5
2D4
330
1F
100
AcDbEntity
  8
0-7_金物
  6
Continuous
 62
     7
370
     9
100
AcDbCircle
 10
-3304.517896620224
 20
-256.2000357114182
 30
0.0
 40
1.799999988142076
100
AcDbArc
 50
180.0000000000326
 51
270.0000000000326
  0
LINE
  5
2D5
330
1F
100
AcDbEntity
  8
0-7_金物
  6
Continuous
 62
     7
370
     9
100
AcDbLine
 10
-3269.417896851446
 20
-258.0000356995613
 30
0.0
 11
-3304.517896620222
 21
-258.0000356995613
 31
0.0
  0
ARC
  5
2D6
330
1F
100
AcDbEntity
  8
0-7_金物
  6
Continuous
 62
     7
370
     9
100
AcDbCircle
 10
-3269.417896851446
 20
-270.0000356205096
 30
0.0
 40
11.99999992094899
100
AcDbArc
 50
0.0
 51
90.00000000000001
  0
LINE
  5
2D7
330
1F
100
AcDbEntity
  8
0-7_金物
  6
Continuous
 62
     7
370
     9
100
AcDbLine
 10
-3257.417896930498
 20
-354.7378875206171
 30
0.0
 11
-3257.417896930498
 21
-270.0000356205096
 31
0.0
  0
ARC
  5
2D8
330
1F
100
AcDbEntity
  8
0-7_金物
  6
Continuous
 62
     7
370
     9
100
AcDbCircle
 10
-3259.217896918642
 20
-354.7378875206167
 30
0.0
 40
1.799999988144312
100
AcDbArc
 50
326.0768879966748
 51
359.9999999999343
  0
ARC
  5
2D9
330
1F
100
AcDbEntity
  8
0-7_金物
  6
Continuous
 62
     7
370
     9
100
AcDbCircle
 10
-3282.617896764491
 20
-339.0000351659688
 30
0.0
 40
29.99999980237201
100
AcDbArc
 50
238.1092081981562
 51
326.07688799674
  0
ARC
  5
2DA
330
1F
100
AcDbEntity
  8
0-7_金物
  6
Continuous
 62
     7
370
     9
100
AcDbCircle
 10
-3299.41789665382
 20
-366.0000349881038
 30
0.0
 40
1.799999988143101
100
AcDbArc
 50
58.10920819813321
 51
179.9999999999765
  0
LINE
  5
2DB
330
1F
100
AcDbEntity
  8
0-7_金物
  6
Continuous
 62
     7
370
     9
100
AcDbLine
 10
-3301.217896641963
 20
-367.5426347193803
 30
0.0
 11
-3301.217896641963
 21
-366.0000349881029
 31
0.0
  0
ARC
  5
2DC
330
1F
100
AcDbEntity
  8
0-7_金物
  6
Continuous
 62
     7
370
     9
100
AcDbCircle
 10
-3295.217896681487
 20
-367.5426347193803
 30
0.0
 40
5.999999960474696
100
AcDbArc
 50
179.9999999999991
 51
246.1811586065413
  0
ARC
  5
2DD
330
1F
100
AcDbEntity
  8
0-7_金物
  6
Continuous
 62
     7
370
     9
100
AcDbCircle
 10
-3282.617896764491
 20
-339.0000351659688
 30
0.0
 40
37.19999975494105
100
AcDbArc
 50
246.1811586065432
 51
324.0494323803861
  0
LINE
  5
2DE
330
1F
100
AcDbEntity
  8
0-7_金物
  6
Continuous
 62
     7
370
     9
100
AcDbLine
 10
-3250.217896977928
 20
-240.0000358181393
 30
0.0
 11
-3250.217896977928
 21
-333.0000352054938
 31
0.0
  0
ARC
  5
2DF
330
1F
100
AcDbEntity
  8
0-7_金物
  6
Continuous
 62
     7
370
     9
100
AcDbCircle
 10
-3253.217896958166
 20
-240.0000358181393
 30
0.0
 40
2.999999980237589
100
AcDbArc
 50
0.0
 51
90.0
  0
LINE
  5
2E0
330
1F
100
AcDbEntity
  8
0-7_金物
  6
Continuous
 62
     7
370
     9
100
AcDbLine
 10
-3254.417896950261
 20
-237.0000358379009
 30
0.0
 11
-3253.217896958166
 21
-237.0000358379009
 31
0.0
  0
ARC
  5
2E1
330
1F
100
AcDbEntity
  8
0-7_金物
  6
Continuous
 62
     7
370
     9
100
AcDbCircle
 10
-3254.417896950259
 20
-240.0000358181371
 30
0.0
 40
2.999999980236907
100
AcDbArc
 50
90.00000000001303
 51
180.000000000013
  0
LINE
  5
2E2
330
1F
100
AcDbEntity
  8
0-7_金物
  6
Continuous
 62
     7
370
     9
100
AcDbLine
 10
-3257.417896930498
 20
-246.000035778613
 30
0.0
 11
-3257.417896930498
 21
-240.0000358181393
 31
0.0
  0
ARC
  5
2E3
330
1F
100
AcDbEntity
  8
0-7_金物
  6
Continuous
 62
     7
370
     9
100
AcDbCircle
 10
-3260.417896910734
 20
-246.000035778613
 30
0.0
 40
2.999999980237248
100
AcDbArc
 50
269.9999999999935
 51
359.9999999999935
  0
LINE
  5
2E4
330
1F
100
AcDbEntity
  8
0-7_金物
  6
Continuous
 62
     7
370
     9
100
AcDbLine
 10
-3294.317896687417
 20
-249.0000357588492
 30
0.0
 11
-3260.417896910735
 21
-249.0000357588492
 31
0.0
  0
ARC
  5
2E5
330
1F
100
AcDbEntity
  8
0-7_金物
  6
Continuous
 62
     7
370
     9
100
AcDbCircle
 10
-3294.317896687415
 20
-246.000035778613
 30
0.0
 40
2.999999980236565
100
AcDbArc
 50
179.9999999999935
 51
269.9999999999935
  0
LINE
  5
2E6
330
1F
100
AcDbEntity
  8
0-7_金物
  6
Continuous
 62
     7
370
     9
100
AcDbLine
 10
-3297.317896667654
 20
-240.0000358181393
 30
0.0
 11
-3297.317896667654
 21
-246.000035778613
 31
0.0
  0
ARC
  5
2E7
330
1F
100
AcDbEntity
  8
0-7_金物
  6
Continuous
 62
     7
370
     9
100
AcDbCircle
 10
-3300.317896647891
 20
-240.0000358181393
 30
0.0
 40
2.999999980237589
100
AcDbArc
 50
0.0
 51
90.0
  0
ARC
  5
2E8
330
1F
100
AcDbEntity
  8
0-7_金物
  6
Continuous
 62
     7
370
     9
100
AcDbCircle
 10
-3368.117896201254
 20
-240.0000358181393
 30
0.0
 40
2.999999980237589
100
AcDbArc
 50
89.99999999999997
 51
180.0
  0
LINE
  5
2E9
330
1F
100
AcDbEntity
  8
0-7_金物
  6
Continuous
 62
     7
370
     9
100
AcDbLine
 10
-3371.117896181491
 20
-246.000035778613
 30
0.0
 11
-3371.117896181491
 21
-240.0000358181393
 31
0.0
  0
ARC
  5
2EA
330
1F
100
AcDbEntity
  8
0-7_金物
  6
Continuous
 62
     7
370
     9
100
AcDbCircle
 10
-3374.117896161727
 20
-246.000035778613
 30
0.0
 40
2.999999980236565
100
AcDbArc
 50
270.0000000000065
 51
0.0000000000065138
  0
LINE
  5
2EB
330
1F
100
AcDbEntity
  8
0-7_金物
  6
Continuous
 62
     7
370
     9
100
AcDbLine
 10
-3408.017895938408
 20
-249.0000357588492
 30
0.0
 11
-3374.117896161727
 21
-249.0000357588492
 31
0.0
  0
ARC
  5
2EC
330
1F
100
AcDbEntity
  8
0-7_金物
  6
Continuous
 62
     7
370
     9
100
AcDbCircle
 10
-3408.017895938408
 20
-246.000035778613
 30
0.0
 40
2.999999980237248
100
AcDbArc
 50
180.0000000000066
 51
270.0000000000065
  0
LINE
  5
2ED
330
1F
100
AcDbEntity
  8
0-7_金物
  6
Continuous
 62
     7
370
     9
100
AcDbLine
 10
-3411.017895918646
 20
-240.0000358181393
 30
0.0
 11
-3411.017895918646
 21
-246.000035778613
 31
0.0
  0
ARC
  5
2EE
330
1F
100
AcDbEntity
  8
0-7_金物
  6
Continuous
 62
     7
370
     9
100
AcDbCircle
 10
-3414.017895898882
 20
-240.0000358181371
 30
0.0
 40
2.999999980236907
100
AcDbArc
 50
359.999999999987
 51
89.99999999998697
  0
LINE
  5
2EF
330
1F
100
AcDbEntity
  8
0-7_金物
  6
Continuous
 62
     7
370
     9
100
AcDbLine
 10
-3415.217895890979
 20
-237.0000358379009
 30
0.0
 11
-3414.017895898882
 21
-237.0000358379009
 31
0.0
  0
ARC
  5
2F0
330
1F
100
AcDbEntity
  8
0-7_金物
  6
Continuous
 62
     7
370
     9
100
AcDbCircle
 10
-3415.217895890979
 20
-240.0000358181393
 30
0.0
 40
2.999999980237589
100
AcDbArc
 50
89.99999999999997
 51
180.0
  0
LINE
  5
2F1
330
1F
100
AcDbEntity
  8
0-7_金物
  6
Continuous
 62
     7
370
     9
100
AcDbLine
 10
-3418.217895871217
 20
-333.0000352054938
 30
0.0
 11
-3418.217895871217
 21
-240.0000358181393
 31
0.0
  0
LINE
  5
2F2
330
1F
100
AcDbEntity
  8
0-7_金物
  6
Continuous
 62
     7
370
     9
100
AcDbLine
 10
-3334.21789642457
 20
-375.0000349288146
 30
0.0
 11
-3355.217896286229
 21
-375.0000349288146
 31
0.0
  0
ARC
  5
2F3
330
1F
100
AcDbEntity
  8
0-7_金物
  6
Continuous
 62
     7
370
     9
100
AcDbCircle
 10
-3355.217896286229
 20
-369.0000349683401
 30
0.0
 40
5.999999960474506
100
AcDbArc
 50
180.0
 51
270.0
  0
ARC
  5
2F4
330
1F
100
AcDbEntity
  8
0-7_金物
  6
Continuous
 62
     7
370
     9
100
AcDbCircle
 10
-3373.217896167653
 20
-369.0000349683422
 30
0.0
 40
11.99999992094901
100
AcDbArc
 50
0.0
 51
63.25631604961301
  0
LINE
  5
2F5
330
1F
100
AcDbEntity
  8
0-7_金物
  6
Continuous
 62
     7
370
     9
100
AcDbLine
 10
-3367.817896203229
 20
-267.0000356402721
 30
0.0
 11
-3367.817896203229
 21
-315.00003532407
 31
0.0
  0
ARC
  5
2F6
330
1F
100
AcDbEntity
  8
0-7_金物
  6
Continuous
 62
     7
370
     9
100
AcDbCircle
 10
-3385.817896084651
 20
-291.000035482173
 30
0.0
 40
29.99999980237253
100
AcDbArc
 50
53.13010235415425
 51
126.8698976458457
  0
ARC
  5
2F7
330
1F
100
AcDbEntity
  8
0-7_金物
  6
Continuous
 62
     7
370
     9
100
AcDbCircle
 10
-3385.817896084651
 20
-339.0000351659688
 30
0.0
 40
29.99999980237253
100
AcDbArc
 50
233.1301023541541
 51
306.8698976458458
  0
LINE
  5
2F8
330
1F
100
AcDbEntity
  8
0-7_金物
  6
Continuous
 62
     7
370
     9
100
AcDbLine
 10
-3364.81789622299
 20
-292.200035474264
 30
0.0
 11
-3366.017896215086
 21
-291.000035482173
 31
0.0
  0
LINE
  5
2F9
330
1F
100
AcDbEntity
  8
0-7_金物
  6
Continuous
 62
     7
370
     9
100
AcDbLine
 10
-3364.81789622299
 20
-337.8000351738731
 30
0.0
 11
-3366.017896215086
 21
-339.0000351659688
 31
0.0
  0
LINE
  5
2FA
330
1F
100
AcDbEntity
  8
0-7_金物
  6
Continuous
 62
     7
370
     9
100
AcDbLine
 10
-3367.817896203229
 20
-300.0000354228821
 30
0.0
 11
-3364.81789622299
 21
-300.0000354228821
 31
0.0
  0
LINE
  5
2FB
330
1F
100
AcDbEntity
  8
0-7_金物
  6
Continuous
 62
     7
370
     9
100
AcDbLine
 10
-3367.817896203229
 20
-330.0000352252555
 30
0.0
 11
-3364.81789622299
 21
-330.0000352252555
 31
0.0
  0
LINE
  5
2FC
330
1F
100
AcDbEntity
  8
0-7_金物
  6
Continuous
 62
     7
370
     9
100
AcDbLine
 10
-3366.017896215087
 20
-300.0000354228821
 30
0.0
 11
-3364.81789622299
 21
-298.8000354307865
 31
0.0
  0
LINE
  5
2FD
330
1F
100
AcDbEntity
  8
0-7_金物
  6
Continuous
 62
     7
370
     9
100
AcDbLine
 10
-3364.81789622299
 20
-331.2000352173507
 30
0.0
 11
-3366.017896215086
 21
-330.0000352252555
 31
0.0
  0
LINE
  5
2FE
330
1F
100
AcDbEntity
  8
0-7_金物
  6
Continuous
 62
     7
370
     9
100
AcDbLine
 10
-3367.81789620323
 20
-291.000035482173
 30
0.0
 11
-3366.017896215086
 21
-291.000035482173
 31
0.0
  0
LINE
  5
2FF
330
1F
100
AcDbEntity
  8
0-7_金物
  6
Continuous
 62
     7
370
     9
100
AcDbLine
 10
-3367.817896203229
 20
-339.0000351659688
 30
0.0
 11
-3366.017896215086
 21
-339.0000351659688
 31
0.0
  0
LINE
  5
300
330
1F
100
AcDbEntity
  8
0-7_金物
  6
Continuous
 62
     7
370
     9
100
AcDbLine
 10
-3367.817896203229
 20
-315.0000353240696
 30
0.0
 11
-3367.817896203229
 21
-363.0000350078667
 31
0.0
  0
LINE
  5
301
330
1F
100
AcDbEntity
  8
0-7_金物
  6
Continuous
 62
     7
370
     9
100
AcDbLine
 10
-3352.217896305994
 20
-375.0000349288146
 30
0.0
 11
-3352.217896305994
 21
-376.8000349169556
 31
0.0
  0
LINE
  5
302
330
1F
100
AcDbEntity
  8
0-7_金物
  6
Continuous
 62
     7
370
     9
100
AcDbLine
 10
-3355.217896286232
 20
-282.0000355414601
 30
0.0
 11
-3334.217896424571
 21
-282.0000355414601
 31
0.0
  0
ARC
  5
303
330
1F
100
AcDbEntity
  8
0-7_金物
  6
Continuous
 62
     7
370
     9
100
AcDbCircle
 10
-3364.217896226944
 20
-342.0000351462063
 30
0.0
 40
2.999999980237253
100
AcDbArc
 50
0.0
 51
90.0
  0
ARC
  5
304
330
1F
100
AcDbEntity
  8
0-7_金物
  6
Continuous
 62
     7
370
     9
100
AcDbCircle
 10
-3364.217896226944
 20
-288.0000355019347
 30
0.0
 40
2.999999980237253
100
AcDbArc
 50
270.0
 51
0.0
  0
LINE
  5
305
330
1F
100
AcDbEntity
  8
0-7_金物
  6
Continuous
 62
     7
370
     9
100
AcDbLine
 10
-3403.817895966075
 20
-363.0000350078667
 30
0.0
 11
-3403.817895966075
 21
-267.0000356402734
 31
0.0
  0
LINE
  5
306
330
1F
100
AcDbEntity
  8
0-7_金物
  6
Continuous
 62
     7
370
     9
100
AcDbLine
 10
-3364.217896226944
 20
-291.000035482173
 30
0.0
 11
-3364.81789622299
 21
-291.000035482173
 31
0.0
  0
LINE
  5
307
330
1F
100
AcDbEntity
  8
0-7_金物
  6
Continuous
 62
     7
370
     9
100
AcDbLine
 10
-3364.217896226944
 20
-339.0000351659688
 30
0.0
 11
-3364.81789622299
 21
-339.0000351659688
 31
0.0
  0
LINE
  5
308
330
1F
100
AcDbEntity
  8
0-7_金物
  6
Continuous
 62
     7
370
     9
100
AcDbLine
 10
-3361.217896246706
 20
-351.000035086918
 30
0.0
 11
-3361.217896246706
 21
-342.0000351462063
 31
0.0
  0
LINE
  5
309
330
1F
100
AcDbEntity
  8
0-7_金物
  6
Continuous
 62
     7
370
     9
100
AcDbLine
 10
-3355.217896286232
 20
-357.0000350473904
 30
0.0
 11
-3334.217896424571
 21
-357.0000350473904
 31
0.0
  0
ARC
  5
30A
330
1F
100
AcDbEntity
  8
0-7_金物
  6
Continuous
 62
     7
370
     9
100
AcDbCircle
 10
-3355.217896286232
 20
-351.000035086918
 30
0.0
 40
5.999999960474506
100
AcDbArc
 50
180.0
 51
270.0
  0
ARC
  5
30B
330
1F
100
AcDbEntity
  8
0-7_金物
  6
Continuous
 62
     7
370
     9
100
AcDbCircle
 10
-3355.217896286232
 20
-288.0000355019347
 30
0.0
 40
5.999999960474506
100
AcDbArc
 50
90.0
 51
180.0
  0
LINE
  5
30C
330
1F
100
AcDbEntity
  8
0-7_金物
  6
Continuous
 62
     7
370
     9
100
AcDbLine
 10
-3364.81789622299
 20
-291.000035482173
 30
0.0
 11
-3364.81789622299
 21
-315.00003532407
 31
0.0
  0
LINE
  5
30D
330
1F
100
AcDbEntity
  8
0-7_金物
  6
Continuous
 62
     7
370
     9
100
AcDbLine
 10
-3364.81789622299
 20
-339.0000351659688
 30
0.0
 11
-3364.81789622299
 21
-315.0000353240696
 31
0.0
  0
LINE
  5
30E
330
1F
100
AcDbEntity
  8
0-7_金物
  6
Continuous
 62
     7
370
     9
100
AcDbLine
 10
-3334.217896424571
 20
-375.0000349288146
 30
0.0
 11
-3313.217896562911
 21
-375.0000349288146
 31
0.0
  0
ARC
  5
30F
330
1F
100
AcDbEntity
  8
0-7_金物
  6
Continuous
 62
     7
370
     9
100
AcDbCircle
 10
-3313.21789656291
 20
-369.0000349683401
 30
0.0
 40
5.999999960474506
100
AcDbArc
 50
270.0
 51
0.0
  0
ARC
  5
310
330
1F
100
AcDbEntity
  8
0-7_金物
  6
Continuous
 62
     7
370
     9
100
AcDbCircle
 10
-3295.217896681487
 20
-369.0000349683422
 30
0.0
 40
11.99999992094901
100
AcDbArc
 50
116.743683950387
 51
180.0
  0
LINE
  5
311
330
1F
100
AcDbEntity
  8
0-7_金物
  6
Continuous
 62
     7
370
     9
100
AcDbLine
 10
-3300.617896645913
 20
-267.0000356402721
 30
0.0
 11
-3300.617896645913
 21
-315.00003532407
 31
0.0
  0
ARC
  5
312
330
1F
100
AcDbEntity
  8
0-7_金物
  6
Continuous
 62
     7
370
     9
100
AcDbCircle
 10
-3282.617896764489
 20
-291.000035482173
 30
0.0
 40
29.99999980237253
100
AcDbArc
 50
53.13010235415425
 51
126.8698976458457
  0
ARC
  5
313
330
1F
100
AcDbEntity
  8
0-7_金物
  6
Continuous
 62
     7
370
     9
100
AcDbCircle
 10
-3282.617896764489
 20
-339.0000351659688
 30
0.0
 40
29.99999980237253
100
AcDbArc
 50
233.1301023541541
 51
306.8698976458458
  0
LINE
  5
314
330
1F
100
AcDbEntity
  8
0-7_金物
  6
Continuous
 62
     7
370
     9
100
AcDbLine
 10
-3303.617896626149
 20
-292.200035474264
 30
0.0
 11
-3302.417896634056
 21
-291.000035482173
 31
0.0
  0
LINE
  5
315
330
1F
100
AcDbEntity
  8
0-7_金物
  6
Continuous
 62
     7
370
     9
100
AcDbLine
 10
-3303.617896626149
 20
-337.8000351738731
 30
0.0
 11
-3302.417896634056
 21
-339.0000351659688
 31
0.0
  0
LINE
  5
316
330
1F
100
AcDbEntity
  8
0-7_金物
  6
Continuous
 62
     7
370
     9
100
AcDbLine
 10
-3300.617896645913
 20
-300.0000354228821
 30
0.0
 11
-3303.617896626149
 21
-300.0000354228821
 31
0.0
  0
LINE
  5
317
330
1F
100
AcDbEntity
  8
0-7_金物
  6
Continuous
 62
     7
370
     9
100
AcDbLine
 10
-3300.617896645913
 20
-330.0000352252555
 30
0.0
 11
-3303.617896626149
 21
-330.0000352252555
 31
0.0
  0
LINE
  5
318
330
1F
100
AcDbEntity
  8
0-7_金物
  6
Continuous
 62
     7
370
     9
100
AcDbLine
 10
-3302.417896634056
 20
-300.0000354228821
 30
0.0
 11
-3303.617896626149
 21
-298.8000354307865
 31
0.0
  0
LINE
  5
319
330
1F
100
AcDbEntity
  8
0-7_金物
  6
Continuous
 62
     7
370
     9
100
AcDbLine
 10
-3303.617896626149
 20
-331.2000352173507
 30
0.0
 11
-3302.417896634056
 21
-330.0000352252555
 31
0.0
  0
LINE
  5
31A
330
1F
100
AcDbEntity
  8
0-7_金物
  6
Continuous
 62
     7
370
     9
100
AcDbLine
 10
-3300.617896645913
 20
-291.000035482173
 30
0.0
 11
-3302.417896634056
 21
-291.000035482173
 31
0.0
  0
LINE
  5
31B
330
1F
100
AcDbEntity
  8
0-7_金物
  6
Continuous
 62
     7
370
     9
100
AcDbLine
 10
-3300.617896645913
 20
-339.0000351659688
 30
0.0
 11
-3302.417896634056
 21
-339.0000351659688
 31
0.0
  0
LINE
  5
31C
330
1F
100
AcDbEntity
  8
0-7_金物
  6
Continuous
 62
     7
370
     9
100
AcDbLine
 10
-3300.617896645913
 20
-315.0000353240696
 30
0.0
 11
-3300.617896645913
 21
-363.0000350078667
 31
0.0
  0
LINE
  5
31D
330
1F
100
AcDbEntity
  8
0-7_金物
  6
Continuous
 62
     7
370
     9
100
AcDbLine
 10
-3316.217896543146
 20
-375.0000349288146
 30
0.0
 11
-3316.217896543146
 21
-376.8000349169556
 31
0.0
  0
LINE
  5
31E
330
1F
100
AcDbEntity
  8
0-7_金物
  6
Continuous
 62
     7
370
     9
100
AcDbLine
 10
-3313.217896562908
 20
-282.0000355414601
 30
0.0
 11
-3334.217896424571
 21
-282.0000355414601
 31
0.0
  0
ARC
  5
31F
330
1F
100
AcDbEntity
  8
0-7_金物
  6
Continuous
 62
     7
370
     9
100
AcDbCircle
 10
-3304.217896622198
 20
-342.0000351462063
 30
0.0
 40
2.999999980237253
100
AcDbArc
 50
90.0
 51
180.0
  0
ARC
  5
320
330
1F
100
AcDbEntity
  8
0-7_金物
  6
Continuous
 62
     7
370
     9
100
AcDbCircle
 10
-3304.217896622198
 20
-288.0000355019347
 30
0.0
 40
2.999999980237253
100
AcDbArc
 50
180.0
 51
270.0
  0
LINE
  5
321
330
1F
100
AcDbEntity
  8
0-7_金物
  6
Continuous
 62
     7
370
     9
100
AcDbLine
 10
-3264.617896883065
 20
-363.0000350078667
 30
0.0
 11
-3264.617896883065
 21
-267.0000356402734
 31
0.0
  0
LINE
  5
322
330
1F
100
AcDbEntity
  8
0-7_金物
  6
Continuous
 62
     7
370
     9
100
AcDbLine
 10
-3304.217896622198
 20
-291.000035482173
 30
0.0
 11
-3303.617896626149
 21
-291.000035482173
 31
0.0
  0
LINE
  5
323
330
1F
100
AcDbEntity
  8
0-7_金物
  6
Continuous
 62
     7
370
     9
100
AcDbLine
 10
-3304.217896622198
 20
-339.0000351659688
 30
0.0
 11
-3303.617896626149
 21
-339.0000351659688
 31
0.0
  0
LINE
  5
324
330
1F
100
AcDbEntity
  8
0-7_金物
  6
Continuous
 62
     7
370
     9
100
AcDbLine
 10
-3307.217896602435
 20
-351.000035086918
 30
0.0
 11
-3307.217896602435
 21
-342.0000351462063
 31
0.0
  0
LINE
  5
325
330
1F
100
AcDbEntity
  8
0-7_金物
  6
Continuous
 62
     7
370
     9
100
AcDbLine
 10
-3313.217896562908
 20
-357.0000350473904
 30
0.0
 11
-3334.21789642457
 21
-357.0000350473904
 31
0.0
  0
ARC
  5
326
330
1F
100
AcDbEntity
  8
0-7_金物
  6
Continuous
 62
     7
370
     9
100
AcDbCircle
 10
-3313.217896562908
 20
-351.000035086918
 30
0.0
 40
5.999999960474506
100
AcDbArc
 50
270.0
 51
0.0
  0
ARC
  5
327
330
1F
100
AcDbEntity
  8
0-7_金物
  6
Continuous
 62
     7
370
     9
100
AcDbCircle
 10
-3313.217896562908
 20
-288.0000355019347
 30
0.0
 40
5.999999960474506
100
AcDbArc
 50
0.0
 51
90.0
  0
LINE
  5
328
330
1F
100
AcDbEntity
  8
0-7_金物
  6
Continuous
 62
     7
370
     9
100
AcDbLine
 10
-3303.617896626149
 20
-291.000035482173
 30
0.0
 11
-3303.617896626149
 21
-315.00003532407
 31
0.0
  0
LINE
  5
329
330
1F
100
AcDbEntity
  8
0-7_金物
  6
Continuous
 62
     7
370
     9
100
AcDbLine
 10
-3303.617896626149
 20
-339.0000351659688
 30
0.0
 11
-3303.617896626149
 21
-315.0000353240696
 31
0.0
  0
LINE
  5
32A
330
1F
100
AcDbEntity
  8
0-7_金物
  6
Continuous
 62
     7
370
     9
100
AcDbLine
 10
-3358.217896266468
 20
-382.8000348774306
 30
0.0
 11
-3310.217896582672
 21
-382.8000348774306
 31
0.0
  0
LINE
  5
32B
330
1F
100
AcDbEntity
  8
0-7_金物
  6
Continuous
 62
     7
370
     9
100
AcDbLine
 10
-3310.217896582672
 20
-376.8000349169556
 30
0.0
 11
-3310.217896582672
 21
-382.8000348774306
 31
0.0
  0
LINE
  5
32C
330
1F
100
AcDbEntity
  8
0-7_金物
  6
Continuous
 62
     7
370
     9
100
AcDbLine
 10
-3310.217896582672
 20
-376.8000349169556
 30
0.0
 11
-3358.217896266468
 21
-376.8000349169556
 31
0.0
  0
LINE
  5
32D
330
1F
100
AcDbEntity
  8
0-7_金物
  6
Continuous
 62
     7
370
     9
100
AcDbLine
 10
-3358.217896266468
 20
-376.8000349169556
 30
0.0
 11
-3358.217896266468
 21
-382.8000348774306
 31
0.0
  0
LINE
  5
32E
330
1F
100
AcDbEntity
  8
0-6_扉
  6
Continuous
 62
   200
370
    20
100
AcDbLine
 10
-3424.217896424571
 20
-414.0000352054931
 30
0.0
 11
-3244.217896424571
 21
-414.0000352054931
 31
0.0
  0
LINE
  5
32F
330
1F
100
AcDbEntity
  8
0-B_寸法
  6
Continuous
 62
   120
370
     5
100
AcDbLine
 10
-2323.217896424572
 20
-414.0001976673041
 30
0.0
 11
-2323.217896424572
 21
-2730.000197951855
 31
0.0
  0
LWPOLYLINE
  5
330
330
1F
100
AcDbEntity
  8
0-B_寸法
  6
Continuous
 62
     7
370
     9
100
AcDbPolyline
 90
        4
 70
     1
 43
3.0
 10
-2321.717896424572
 20
-414.0001976673041
 42
0.4142135623731
 10
-2323.217896424572
 20
-412.5001976673041
 42
0.4142135623731
 10
-2324.717896424572
 20
-414.0001976673041
 42
0.4142135623731
 10
-2323.217896424572
 20
-415.5001976673041
 42
0.4142135623731
  0
LINE
  5
331
330
1F
100
AcDbEntity
  8
0-B_寸法
  6
Continuous
 62
   120
370
     5
100
AcDbLine
 10
-2323.217896424572
 20
-333.0001979518802
 30
0.0
 11
-2323.217896424572
 21
-414.0001976673041
 31
0.0
  0
LINE
  5
332
330
1F
100
AcDbEntity
  8
0-B_寸法
  6
Continuous
 62
   120
370
     5
100
AcDbLine
 10
-2323.217896424572
 20
-414.0001976673041
 30
0.0
 11
-2743.217896424572
 21
-414.0001976673041
 31
0.0
  0
LWPOLYLINE
  5
333
330
1F
100
AcDbEntity
  8
0-B_寸法
  6
Continuous
 62
     7
370
     9
100
AcDbPolyline
 90
        4
 70
     1
 43
3.0
 10
-2531.717896424572
 20
-414.0001976673041
 42
0.4142135623731
 10
-2533.217896424572
 20
-412.5001976673041
 42
0.4142135623731
 10
-2534.717896424572
 20
-414.0001976673041
 42
0.4142135623731
 10
-2533.217896424572
 20
-415.5001976673041
 42
0.4142135623731
  0
LINE
  5
334
330
1F
100
AcDbEntity
  8
0-B_寸法
  6
Continuous
 62
   120
370
     5
100
AcDbLine
 10
-2533.217896424572
 20
-376.200197667295
 30
0.0
 11
-2533.217896424572
 21
-414.0001976673041
 31
0.0
  0
LINE
  5
335
330
1F
100
AcDbEntity
  8
0-6_扉
  6
Continuous
 62
   200
370
    20
100
AcDbLine
 10
-3424.217896424571
 20
-414.0000352054931
 30
0.0
 11
-3424.217896424571
 21
-1479.000197951874
 31
0.0
  0
LINE
  5
336
330
1F
100
AcDbEntity
  8
0-6_扉
  6
Continuous
 62
   200
370
    20
100
AcDbLine
 10
-3244.217896424571
 20
-414.0000352054931
 30
0.0
 11
-3244.217896424571
 21
-1479.000197951874
 31
0.0
  0
LINE
  5
337
330
1F
100
AcDbEntity
  8
0-3_仕上げ
  6
Continuous
 62
     7
370
     9
100
AcDbLine
 10
-2743.217896424572
 20
-2844.000404213939
 30
0.0
 11
-4093.217896424572
 21
-2844.000404213939
 31
0.0
  0
LINE
  5
338
330
1F
100
AcDbEntity
  8
0-3_仕上げ
  6
Continuous
 62
     7
370
     9
100
AcDbLine
 10
-2743.217896424572
 20
-2790.000404213941
 30
0.0
 11
-4093.217896424572
 21
-2790.000404213941
 31
0.0
  0
LINE
  5
339
330
1F
100
AcDbEntity
  8
0-3_仕上げ
  6
Continuous
 62
     7
370
     9
100
AcDbLine
 10
-2743.217896424572
 20
-2799.000404213939
 30
0.0
 11
-4093.217896424572
 21
-2799.000404213939
 31
0.0
  0
LINE
  5
33A
330
1F
100
AcDbEntity
  8
0-3_仕上げ
  6
Continuous
 62
     7
370
     9
100
AcDbLine
 10
-2743.217896424572
 20
-2808.000404213938
 30
0.0
 11
-4093.217896424572
 21
-2808.000404213938
 31
0.0
  0
LINE
  5
33B
330
1F
100
AcDbEntity
  8
0-3_仕上げ
  6
Continuous
 62
     7
370
     9
100
AcDbLine
 10
-2743.217896424572
 20
-2826.000404213939
 30
0.0
 11
-4093.217896424572
 21
-2826.000404213939
 31
0.0
  0
LINE
  5
33C
330
1F
100
AcDbEntity
  8
0-3_仕上げ
  6
Continuous
 62
     7
370
     9
100
AcDbLine
 10
-2743.217896424572
 20
-2835.000404213941
 30
0.0
 11
-4093.217896424572
 21
-2835.000404213941
 31
0.0
  0
LINE
  5
33D
330
1F
100
AcDbEntity
  8
0-3_仕上げ
  6
Continuous
 62
     7
370
     9
100
AcDbLine
 10
-2743.217896424572
 20
-2817.000404213938
 30
0.0
 11
-4093.217896424572
 21
-2817.000404213938
 31
0.0
  0
LINE
  5
33E
330
1F
100
AcDbEntity
  8
0-3_仕上げ
  6
Continuous
 62
    40
370
    15
100
AcDbLine
 10
-2743.217896424572
 20
-2781.000404213939
 30
0.0
 11
-4093.217896424572
 21
-2781.000404213939
 31
0.0
  0
LINE
  5
33F
330
1F
100
AcDbEntity
  8
0-6_扉
  6
Continuous
 62
   200
370
    20
100
AcDbLine
 10
-3424.217896424571
 20
-1599.000197951875
 30
0.0
 11
-3424.217896424571
 21
-2730.000404213939
 31
0.0
  0
LINE
  5
340
330
1F
100
AcDbEntity
  8
0-6_扉
  6
Continuous
 62
   200
370
    20
100
AcDbLine
 10
-3244.217896424571
 20
-1599.000197951875
 30
0.0
 11
-3244.217896424571
 21
-2730.000404213939
 31
0.0
  0
LINE
  5
341
330
1F
100
AcDbEntity
  8
0-B_寸法
  6
Continuous
 62
   120
370
     5
100
AcDbLine
 10
-2323.217896424572
 20
-2730.000197951855
 30
0.0
 11
-2323.217896424572
 21
-2781.000197951856
 31
0.0
  0
LINE
  5
342
330
1F
100
AcDbEntity
  8
0-B_寸法
  6
Continuous
 62
   120
370
     5
100
AcDbLine
 10
-2323.217896424572
 20
-2730.000197951855
 30
0.0
 11
-2743.217896424572
 21
-2730.000197951855
 31
0.0
  0
LWPOLYLINE
  5
343
330
1F
100
AcDbEntity
  8
0-B_寸法
  6
Continuous
 62
     7
370
     9
100
AcDbPolyline
 90
        4
 70
     1
 43
3.0
 10
-2321.717896424572
 20
-2730.000197951855
 42
0.4142135623731
 10
-2323.217896424572
 20
-2728.500197951855
 42
0.4142135623731
 10
-2324.717896424572
 20
-2730.000197951855
 42
0.4142135623731
 10
-2323.217896424572
 20
-2731.500197951855
 42
0.4142135623731
  0
LWPOLYLINE
  5
344
330
1F
100
AcDbEntity
  8
0-B_寸法
  6
Continuous
 62
     7
370
     9
100
AcDbPolyline
 90
        4
 70
     1
 43
3.0
 10
-2321.717896424572
 20
-2781.000197951856
 42
0.4142135623731
 10
-2323.217896424572
 20
-2779.500197951856
 42
0.4142135623731
 10
-2324.717896424572
 20
-2781.000197951856
 42
0.4142135623731
 10
-2323.217896424572
 20
-2782.500197951856
 42
0.4142135623731
  0
LINE
  5
345
330
1F
100
AcDbEntity
  8
0-B_寸法
  6
Continuous
 62
   120
370
     5
100
AcDbLine
 10
-2323.217896424572
 20
-2781.000197951856
 30
0.0
 11
-2743.217896424572
 21
-2781.000197951856
 31
0.0
  0
LINE
  5
346
330
1F
100
AcDbEntity
  8
0-B_寸法
  6
Continuous
 62
   120
370
     5
100
AcDbLine
 10
-2743.217896424572
 20
-423.0001985842916
 30
0.0
 11
-2923.217896424572
 21
-423.0001985842916
 31
0.0
  0
LINE
  5
347
330
1F
100
AcDbEntity
  8
0-B_寸法
  6
Continuous
 62
   120
370
     5
100
AcDbLine
 10
-2743.217896424572
 20
-333.0001979518845
 30
0.0
 11
-2923.217896424572
 21
-333.0001979518845
 31
0.0
  0
LWPOLYLINE
  5
348
330
1F
100
AcDbEntity
  8
0-B_寸法
  6
Continuous
 62
     7
370
     9
100
AcDbPolyline
 90
        4
 70
     1
 43
3.0
 10
-2741.717896424572
 20
-423.0001985842916
 42
0.4142135623731
 10
-2743.217896424572
 20
-421.5001985842916
 42
0.4142135623731
 10
-2744.717896424572
 20
-423.0001985842916
 42
0.4142135623731
 10
-2743.217896424572
 20
-424.5001985842917
 42
0.4142135623731
  0
LWPOLYLINE
  5
349
330
1F
100
AcDbEntity
  8
0-B_寸法
  6
Continuous
 62
     7
370
     9
100
AcDbPolyline
 90
        4
 70
     1
 43
3.0
 10
-2741.717896424572
 20
-333.0001979518845
 42
0.4142135623731
 10
-2743.217896424572
 20
-331.5001979518844
 42
0.4142135623731
 10
-2744.717896424572
 20
-333.0001979518845
 42
0.4142135623731
 10
-2743.217896424572
 20
-334.5001979518845
 42
0.4142135623731
  0
LINE
  5
34A
330
1F
100
AcDbEntity
  8
0-B_寸法
  6
Continuous
 62
   120
370
     5
100
AcDbLine
 10
-2743.217896424572
 20
-333.0001979518845
 30
0.0
 11
-2743.217896424572
 21
-423.0001985842916
 31
0.0
  0
LWPOLYLINE
  5
34B
330
1F
100
AcDbEntity
  8
0-B_寸法
  6
Continuous
 62
     7
370
     9
100
AcDbPolyline
 90
        4
 70
     1
 43
3.0
 10
-1901.717896424572
 20
-2853.000197951856
 42
0.4142135623731
 10
-1903.217896424572
 20
-2851.500197951856
 42
0.4142135623731
 10
-1904.717896424572
 20
-2853.000197951856
 42
0.4142135623731
 10
-1903.217896424572
 20
-2854.500197951856
 42
0.4142135623731
  0
LINE
  5
34C
330
1F
100
AcDbEntity
  8
0-B_寸法
  6
Continuous
 62
   120
370
     5
100
AcDbLine
 10
-1903.217896424572
 20
-2853.000197951856
 30
0.0
 11
-2116.698707276001
 21
-2853.000197951856
 31
0.0
  0
LINE
  5
34D
330
1F
100
AcDbEntity
  8
0-B_寸法
  6
Continuous
 62
   120
370
     5
100
AcDbLine
 10
-2119.586887013616
 20
-2853.000197951856
 30
0.0
 11
-2743.217896424572
 21
-2853.000197951856
 31
0.0
  0
LINE
  5
34E
330
1F
100
AcDbEntity
  8
0-B_寸法
  6
Continuous
 62
   120
370
     5
100
AcDbLine
 10
-1903.217896424572
 20
-153.0001979518802
 30
0.0
 11
-1903.217896424572
 21
-2781.000197951856
 31
0.0
  0
LWPOLYLINE
  5
34F
330
1F
100
AcDbEntity
  8
0-B_寸法
  6
Continuous
 62
     7
370
     9
100
AcDbPolyline
 90
        4
 70
     1
 43
3.0
 10
-1901.717896424572
 20
-153.0001979518802
 42
0.4142135623731
 10
-1903.217896424572
 20
-151.5001979518802
 42
0.4142135623731
 10
-1904.717896424572
 20
-153.0001979518802
 42
0.4142135623731
 10
-1903.217896424572
 20
-154.5001979518802
 42
0.4142135623731
  0
LINE
  5
350
330
1F
100
AcDbEntity
  8
0-0_補助線
  6
JWW_HOJO
 62
   120
370
     5
100
AcDbLine
 10
-1903.217896424572
 20
-2853.000197951856
 30
0.0
 11
-4093.217896424572
 21
-2853.000197951856
 31
0.0
  0
LINE
  5
351
330
1F
100
AcDbEntity
  8
0-0_補助線
  6
JWW_HOJO
 62
   120
370
     5
100
AcDbLine
 10
-4093.217896424572
 20
194.9998020481414
 30
0.0
 11
-1903.217896424572
 21
194.9998020481414
 31
0.0
  0
LINE
  5
352
330
1F
100
AcDbEntity
  8
0-0_補助線
  6
JWW_HOJO
 62
   120
370
     5
100
AcDbLine
 10
-1903.217896424572
 20
-2853.000197951854
 30
0.0
 11
-1903.217896424572
 21
194.9998020481414
 31
0.0
  0
LINE
  5
353
330
1F
100
AcDbEntity
  8
0-B_寸法
  6
Continuous
 62
   120
370
     5
100
AcDbLine
 10
-1903.217896424572
 20
-2853.000197951856
 30
0.0
 11
-1903.217896424572
 21
-2781.000197951856
 31
0.0
  0
LINE
  5
354
330
1F
100
AcDbEntity
  8
0-B_寸法
  6
Continuous
 62
   120
370
     5
100
AcDbLine
 10
-1903.217896424572
 20
-153.0001979518802
 30
0.0
 11
-2743.217896424572
 21
-153.0001979518802
 31
0.0
  0
LWPOLYLINE
  5
355
330
1F
100
AcDbEntity
  8
0-B_寸法
  6
Continuous
 62
     7
370
     9
100
AcDbPolyline
 90
        4
 70
     1
 43
3.0
 10
-2111.717896424572
 20
-153.0001979518802
 42
0.4142135623731
 10
-2113.217896424572
 20
-151.5001979518802
 42
0.4142135623731
 10
-2114.717896424572
 20
-153.0001979518802
 42
0.4142135623731
 10
-2113.217896424572
 20
-154.5001979518802
 42
0.4142135623731
  0
LINE
  5
356
330
1F
100
AcDbEntity
  8
0-B_寸法
  6
Continuous
 62
   120
370
     5
100
AcDbLine
 10
-2113.217896424572
 20
-153.0001979518802
 30
0.0
 11
-2113.217896424572
 21
-333.0001979518802
 31
0.0
  0
LWPOLYLINE
  5
357
330
1F
100
AcDbEntity
  8
0-B_寸法
  6
Continuous
 62
     7
370
     9
100
AcDbPolyline
 90
        4
 70
     1
 43
3.0
 10
-2111.717896424572
 20
-333.0001979518802
 42
0.4142135623731
 10
-2113.217896424572
 20
-331.5001979518802
 42
0.4142135623731
 10
-2114.717896424572
 20
-333.0001979518802
 42
0.4142135623731
 10
-2113.217896424572
 20
-334.5001979518802
 42
0.4142135623731
  0
LINE
  5
358
330
1F
100
AcDbEntity
  8
0-B_寸法
  6
Continuous
 62
   120
370
     5
100
AcDbLine
 10
-2113.217896424572
 20
-333.0001979518802
 30
0.0
 11
-2743.217896424572
 21
-333.0001979518802
 31
0.0
  0
LWPOLYLINE
  5
359
330
1F
100
AcDbEntity
  8
0-B_寸法
  6
Continuous
 62
     7
370
     9
100
AcDbPolyline
 90
        4
 70
     1
 43
3.0
 10
-2321.717896424572
 20
-333.0001979518802
 42
0.4142135623731
 10
-2323.217896424572
 20
-331.5001979518802
 42
0.4142135623731
 10
-2324.717896424572
 20
-333.0001979518802
 42
0.4142135623731
 10
-2323.217896424572
 20
-334.5001979518802
 42
0.4142135623731
  0
LINE
  5
35A
330
1F
100
AcDbEntity
  8
0-B_寸法
  6
Continuous
 62
   120
370
     5
100
AcDbLine
 10
-2533.217896424572
 20
-376.200197667295
 30
0.0
 11
-2743.217896424572
 21
-376.200197667295
 31
0.0
  0
LWPOLYLINE
  5
35B
330
1F
100
AcDbEntity
  8
0-B_寸法
  6
Continuous
 62
     7
370
     9
100
AcDbPolyline
 90
        4
 70
     1
 43
3.0
 10
-2531.717896424572
 20
-376.200197667295
 42
0.4142135623731
 10
-2533.217896424572
 20
-374.700197667295
 42
0.4142135623731
 10
-2534.717896424572
 20
-376.200197667295
 42
0.4142135623731
 10
-2533.217896424572
 20
-377.700197667295
 42
0.4142135623731
  0
LINE
  5
35C
330
1F
100
AcDbEntity
  8
0-0_補助線
  6
JWW_HOJO
 62
   120
370
     5
100
AcDbLine
 10
-2323.217896424572
 20
-2853.000198220288
 30
0.0
 11
-2323.217896424572
 21
194.9998020481414
 31
0.0
  0
LINE
  5
35D
330
1F
100
AcDbEntity
  8
0-0_補助線
  6
JWW_HOJO
 62
   120
370
     5
100
AcDbLine
 10
-2533.217896424572
 20
-2853.000197951854
 30
0.0
 11
-2533.217896424572
 21
194.9998020481414
 31
0.0
  0
LINE
  5
35E
330
1F
100
AcDbEntity
  8
0-0_補助線
  6
JWW_HOJO
 62
   120
370
     5
100
AcDbLine
 10
-2743.217896424572
 20
-2853.000197951856
 30
0.0
 11
-2743.217896424572
 21
194.9998020481414
 31
0.0
  0
LINE
  5
35F
330
1F
100
AcDbEntity
  8
0-1_通り芯
  6
JWW_CENTER1
 62
   120
370
     5
100
AcDbLine
 10
-4093.217896424572
 20
-2853.000198220286
 30
0.0
 11
-1789.21789642457
 21
-2853.000197951856
 31
0.0
  0
LINE
  5
360
330
1F
100
AcDbEntity
  8
0-4_枠
  6
Continuous
 62
    92
370
    13
100
AcDbLine
 10
-3799.217896424572
 20
-156.0000358378996
 30
0.0
 11
-3886.217896424573
 21
-156.0000358378996
 31
0.0
  0
LINE
  5
361
330
1F
100
AcDbEntity
  8
0-4_枠
  6
Continuous
 62
    92
370
    13
100
AcDbLine
 10
-3886.217896424573
 20
-156.0000358378996
 30
0.0
 11
-3886.217896424573
 21
-330.0000358378991
 31
0.0
  0
LINE
  5
362
330
1F
100
AcDbEntity
  8
0-C_ハッチ
  6
Continuous
 62
   120
370
     5
100
AcDbLine
 10
-3886.217896424578
 20
-198.8790959777516
 30
0.0
 11
-3843.338836284723
 21
-156.0000358378961
 31
0.0
  0
LINE
  5
363
330
1F
100
AcDbEntity
  8
0-C_ハッチ
  6
Continuous
 62
   120
370
     5
100
AcDbLine
 10
-3886.217896424571
 20
-258.2760655974466
 30
0.0
 11
-3780.941866665024
 21
-153.0000358378989
 31
0.0
  0
LINE
  5
364
330
1F
100
AcDbEntity
  8
0-C_ハッチ
  6
Continuous
 62
   120
370
     5
100
AcDbLine
 10
-3886.21789642458
 20
-317.6730352171029
 30
0.0
 11
-3721.544897045383
 21
-153.0000358379031
 31
0.0
  0
LINE
  5
365
330
1F
100
AcDbEntity
  8
0-C_ハッチ
  6
Continuous
 62
   120
370
     5
100
AcDbLine
 10
-3839.147927425684
 20
-330.0000358379106
 30
0.0
 11
-3662.147927425676
 21
-153.000035837901
 31
0.0
  0
LINE
  5
366
330
1F
100
AcDbEntity
  8
0-C_ハッチ
  6
Continuous
 62
   120
370
     5
100
AcDbLine
 10
-3779.75095780603
 20
-330.0000358378991
 30
0.0
 11
-3602.750957806035
 21
-153.0000358379078
 31
0.0
  0
LINE
  5
367
330
1F
100
AcDbEntity
  8
0-C_ハッチ
  6
Continuous
 62
   120
370
     5
100
AcDbLine
 10
-3389.766109707676
 20
-237.0000358378941
 30
0.0
 11
-3305.766109707698
 21
-153.0000358379168
 31
0.0
  0
LINE
  5
368
330
1F
100
AcDbEntity
  8
0-C_ハッチ
  6
Continuous
 62
   120
370
     5
100
AcDbLine
 10
-3330.369140087974
 20
-237.000035837895
 30
0.0
 11
-3246.369140087986
 21
-153.0000358379057
 31
0.0
  0
LINE
  5
369
330
1F
100
AcDbEntity
  8
0-C_ハッチ
  6
Continuous
 62
   120
370
     5
100
AcDbLine
 10
-3423.369140087981
 20
-330.0000358378982
 30
0.0
 11
-3420.617896424575
 21
-327.2487921744944
 31
0.0
  0
LINE
  5
36A
330
1F
100
AcDbEntity
  8
0-C_ハッチ
  6
Continuous
 62
   120
370
     5
100
AcDbLine
 10
-3270.972170468331
 20
-237.0000358378975
 30
0.0
 11
-3186.972170468344
 21
-153.0000358379091
 31
0.0
  0
LINE
  5
36B
330
1F
100
AcDbEntity
  8
0-C_ハッチ
  6
Continuous
 62
   120
370
     5
100
AcDbLine
 10
-3247.817896424568
 20
-273.2427314137833
 30
0.0
 11
-3127.575200848698
 21
-153.0000358379147
 31
0.0
  0
LINE
  5
36C
330
1F
100
AcDbEntity
  8
0-C_ハッチ
  6
Continuous
 62
   120
370
     5
100
AcDbLine
 10
-3194.178231861384
 20
-279.000036470298
 30
0.0
 11
-3071.178231228979
 21
-156.0000358378927
 31
0.0
  0
LINE
  5
36D
330
1F
100
AcDbEntity
  8
0-C_ハッチ
  6
Continuous
 62
   120
370
     5
100
AcDbLine
 10
-3151.817896424569
 20
-296.0366706531302
 30
0.0
 11
-3011.781261609347
 21
-156.0000358379098
 31
0.0
  0
LINE
  5
36E
330
1F
100
AcDbEntity
  8
0-C_ハッチ
  6
Continuous
 62
   120
370
     5
100
AcDbLine
 10
-3126.384291989631
 20
-330.0000358378982
 30
0.0
 11
-3010.217896424576
 21
-213.8336402728414
 31
0.0
  0
LINE
  5
36F
330
1F
100
AcDbEntity
  8
0-C_ハッチ
  6
Continuous
 62
   120
370
     5
100
AcDbLine
 10
-3066.987322369976
 20
-330.0000358378879
 30
0.0
 11
-3010.217896424583
 21
-273.2306098924955
 31
0.0
  0
LINE
  5
370
330
1F
100
AcDbEntity
  8
0-4_枠
  6
Continuous
 62
    92
370
    13
100
AcDbLine
 10
-3247.817896424572
 20
-279.0000364703083
 30
0.0
 11
-3247.817896424572
 21
-237.0000358379009
 31
0.0
  0
LINE
  5
371
330
1F
100
AcDbEntity
  8
0-4_枠
  6
Continuous
 62
    92
370
    13
100
AcDbLine
 10
-3151.817896424572
 20
-279.0000364703083
 30
0.0
 11
-3247.817896424572
 21
-279.0000364703083
 31
0.0
  0
LINE
  5
372
330
1F
100
AcDbEntity
  8
0-4_枠
  6
Continuous
 62
    92
370
    13
100
AcDbLine
 10
-3151.817896424572
 20
-333.000035837901
 30
0.0
 11
-3007.217896424572
 21
-333.000035837901
 31
0.0
  0
LINE
  5
373
330
1F
100
AcDbEntity
  8
0-4_枠
  6
Continuous
 62
    92
370
    13
100
AcDbLine
 10
-3151.817896424572
 20
-330.0000358378991
 30
0.0
 11
-3010.217896424575
 21
-330.0000358378991
 31
0.0
  0
LINE
  5
374
330
1F
100
AcDbEntity
  8
0-C_ハッチ
  6
Continuous
 62
   120
370
     5
100
AcDbLine
 10
-3241.817896424572
 20
-282.1912256142793
 30
0.0
 11
-3151.817896424572
 21
-372.1912256142793
 31
0.0
  0
LINE
  5
375
330
1F
100
AcDbEntity
  8
0-C_ハッチ
  6
Continuous
 62
   120
370
     5
100
AcDbLine
 10
-3241.817896424572
 20
-299.1617883627573
 30
0.0
 11
-3207.979648317021
 21
-333.0000364703103
 31
0.0
  0
LINE
  5
376
330
1F
100
AcDbEntity
  8
0-C_ハッチ
  6
Continuous
 62
   120
370
     5
100
AcDbLine
 10
-3241.817896424572
 20
-316.132351111234
 30
0.0
 11
-3224.950211065497
 21
-333.0000364703091
 31
0.0
  0
LINE
  5
377
330
1F
100
AcDbEntity
  8
0-C_ハッチ
  6
Continuous
 62
   120
370
     5
100
AcDbLine
 10
-3160.156271826158
 20
-279.0000364703083
 30
0.0
 11
-3151.817896424572
 21
-287.338411871893
 31
0.0
  0
LINE
  5
378
330
1F
100
AcDbEntity
  8
0-C_ハッチ
  6
Continuous
 62
   120
370
     5
100
AcDbLine
 10
-3211.067960071589
 20
-279.0000364703083
 30
0.0
 11
-3151.817896424572
 21
-338.2501001173243
 31
0.0
  0
LINE
  5
379
330
1F
100
AcDbEntity
  8
0-C_ハッチ
  6
Continuous
 62
   120
370
     5
100
AcDbLine
 10
-3228.038522820065
 20
-279.0000364703083
 30
0.0
 11
-3151.817896424572
 21
-355.2206628658014
 31
0.0
  0
LINE
  5
37A
330
1F
100
AcDbEntity
  8
0-C_ハッチ
  6
Continuous
 62
   120
370
     5
100
AcDbLine
 10
-3199.817896424574
 20
-409.0440393566651
 30
0.0
 11
-3185.861899310933
 21
-423.0000364703069
 31
0.0
  0
LINE
  5
37B
330
1F
100
AcDbEntity
  8
0-C_ハッチ
  6
Continuous
 62
   120
370
     5
100
AcDbLine
 10
-3199.817896424574
 20
-392.0734766081871
 30
0.0
 11
-3168.891336562453
 21
-423.0000364703069
 31
0.0
  0
LINE
  5
37C
330
1F
100
AcDbEntity
  8
0-C_ハッチ
  6
Continuous
 62
   120
370
     5
100
AcDbLine
 10
-3199.817896424574
 20
-375.1029138597113
 30
0.0
 11
-3151.920773813977
 21
-423.0000364703069
 31
0.0
  0
LINE
  5
37D
330
1F
100
AcDbEntity
  8
0-C_ハッチ
  6
Continuous
 62
   120
370
     5
100
AcDbLine
 10
-3199.817896424574
 20
-358.1323511112346
 30
0.0
 11
-3151.817896424572
 21
-406.132351111234
 31
0.0
  0
LINE
  5
37E
330
1F
100
AcDbEntity
  8
0-C_ハッチ
  6
Continuous
 62
   120
370
     5
100
AcDbLine
 10
-3199.817896424574
 20
-341.1617883627566
 30
0.0
 11
-3151.817896424572
 21
-389.1617883627573
 31
0.0
  0
LINE
  5
37F
330
1F
100
AcDbEntity
  8
0-C_ハッチ
  6
Continuous
 62
   120
370
     5
100
AcDbLine
 10
-3177.126834574635
 20
-279.0000364703083
 30
0.0
 11
-3151.817896424572
 21
-304.3089746203709
 31
0.0
  0
LINE
  5
380
330
1F
100
AcDbEntity
  8
0-C_ハッチ
  6
Continuous
 62
   120
370
     5
100
AcDbLine
 10
-3194.097397323114
 20
-279.0000364703083
 30
0.0
 11
-3151.817896424572
 21
-321.2795373688489
 31
0.0
  0
LINE
  5
381
330
1F
100
AcDbEntity
  8
0-4_枠
  6
Continuous
 62
    92
370
    13
100
AcDbLine
 10
-3241.817896424572
 20
-333.0000364703069
 30
0.0
 11
-3199.817896424574
 21
-333.0000364703103
 31
0.0
  0
LINE
  5
382
330
1F
100
AcDbEntity
  8
0-4_枠
  6
Continuous
 62
    92
370
    13
100
AcDbLine
 10
-3241.817896424572
 20
-310.5012808345516
 30
0.0
 11
-3241.817896424572
 21
-333.000035837901
 31
0.0
  0
LINE
  5
383
330
1F
100
AcDbEntity
  8
0-4_枠
  6
Continuous
 62
    92
370
    13
100
AcDbLine
 10
-3241.817896424572
 20
-279.0000364703083
 30
0.0
 11
-3241.817896424572
 21
-310.5012808345516
 31
0.0
  0
LINE
  5
384
330
1F
100
AcDbEntity
  8
0-4_枠
  6
Continuous
 62
    92
370
    13
100
AcDbLine
 10
-3151.817896424572
 20
-423.0000364703069
 30
0.0
 11
-3199.817896424574
 21
-423.0000364703069
 31
0.0
  0
LINE
  5
385
330
1F
100
AcDbEntity
  8
0-4_枠
  6
Continuous
 62
    92
370
    13
100
AcDbLine
 10
-3199.817896424574
 20
-333.0000364703103
 30
0.0
 11
-3199.817896424574
 21
-423.0000364703069
 31
0.0
  0
LINE
  5
386
330
1F
100
AcDbEntity
  8
0-4_枠
  6
Continuous
 62
    92
370
    13
100
AcDbLine
 10
-3151.817896424572
 20
-279.0000364703083
 30
0.0
 11
-3151.817896424572
 21
-423.0000364703069
 31
0.0
  0
LINE
  5
387
330
1F
100
AcDbEntity
  8
0-4_枠
  6
Continuous
 62
    92
370
    13
100
AcDbLine
 10
-3010.217896424575
 20
-156.0000358378996
 30
0.0
 11
-3010.217896424575
 21
-330.0000358378991
 31
0.0
  0
LINE
  5
388
330
1F
100
AcDbEntity
  8
0-4_枠
  6
Continuous
 62
    92
370
    13
100
AcDbLine
 10
-3007.217896424572
 20
-153.000035837901
 30
0.0
 11
-3007.217896424572
 21
-333.000035837901
 31
0.0
  0
LINE
  5
389
330
1F
100
AcDbEntity
  8
0-4_枠
  6
Continuous
 62
    92
370
    13
100
AcDbLine
 10
-3420.617896424571
 20
-237.0000358379009
 30
0.0
 11
-3420.617896424571
 21
-333.000035837901
 31
0.0
  0
LINE
  5
38A
330
1F
100
AcDbEntity
  8
0-4_枠
  6
Continuous
 62
    92
370
    13
100
AcDbLine
 10
-3247.817896424572
 20
-237.0000358379009
 30
0.0
 11
-3420.617896424571
 21
-237.0000358379009
 31
0.0
  0
LINE
  5
38B
330
1F
100
AcDbEntity
  8
0-4_枠
  6
Continuous
 62
    92
370
    13
100
AcDbLine
 10
-3097.217896424572
 20
-156.0000358378996
 30
0.0
 11
-3010.217896424575
 21
-156.0000358378996
 31
0.0
  0
LINE
  5
38C
330
1F
100
AcDbEntity
  8
0-4_枠
  6
Continuous
 62
    92
370
    13
100
AcDbLine
 10
-3097.217896424572
 20
-156.0000358378996
 30
0.0
 11
-3097.217896424572
 21
-153.000035837901
 31
0.0
  0
LINE
  5
38D
330
1F
100
AcDbEntity
  8
0-4_枠
  6
Continuous
 62
    92
370
    13
100
AcDbLine
 10
-3799.217896424572
 20
-153.000035837901
 30
0.0
 11
-3799.217896424572
 21
-156.0000358378996
 31
0.0
  0
LINE
  5
38E
330
1F
100
AcDbEntity
  8
0-4_枠
  6
Continuous
 62
    92
370
    13
100
AcDbLine
 10
-3889.217896424572
 20
-153.000035837901
 30
0.0
 11
-3889.217896424572
 21
-333.000035837901
 31
0.0
  0
LINE
  5
38F
330
1F
100
AcDbEntity
  8
0-4_枠
  6
Continuous
 62
    92
370
    13
100
AcDbLine
 10
-3007.217896424572
 20
-153.000035837901
 30
0.0
 11
-3889.217896424572
 21
-153.000035837901
 31
0.0
  0
LINE
  5
390
330
1F
100
AcDbEntity
  8
0-4_枠
  6
Continuous
 62
   120
370
     5
100
AcDbLine
 10
-2983.217896424572
 20
-1479.000197951874
 30
0.0
 11
-2983.217896424572
 21
-153.0001979518802
 31
0.0
  0
LINE
  5
391
330
1F
100
AcDbEntity
  8
0-4_枠
  6
Continuous
 62
   120
370
     5
100
AcDbLine
 10
-3913.217896424572
 20
-153.0001979518802
 30
0.0
 11
-3913.217896424572
 21
-1479.000197951874
 31
0.0
  0
LINE
  5
392
330
1F
100
AcDbEntity
  8
0-0_補助線
  6
JWW_HOJO
 62
   120
370
     5
100
AcDbLine
 10
-4039.217896424572
 20
-1599.000197951875
 30
0.0
 11
-2857.217896424572
 21
-1599.000197951875
 31
0.0
  0
LINE
  5
393
330
1F
100
AcDbEntity
  8
0-0_補助線
  6
JWW_HOJO
 62
   120
370
     5
100
AcDbLine
 10
-4039.217896424572
 20
-1479.000197951874
 30
0.0
 11
-2857.217896424572
 21
-1479.000197951874
 31
0.0
  0
LINE
  5
394
330
1F
100
AcDbEntity
  8
0-4_枠
  6
Continuous
 62
   120
370
     5
100
AcDbLine
 10
-2983.217896424572
 20
-2781.000404213939
 30
0.0
 11
-2983.217896424572
 21
-1599.000197951875
 31
0.0
  0
LINE
  5
395
330
1F
100
AcDbEntity
  8
0-4_枠
  6
Continuous
 62
   120
370
     5
100
AcDbLine
 10
-3913.217896424572
 20
-1599.000197951875
 30
0.0
 11
-3913.217896424572
 21
-2781.000404213939
 31
0.0
  0
LINE
  5
396
330
1F
100
AcDbEntity
  8
0-C_ハッチ
  6
JWW_DASHED1
 62
   120
370
     5
100
AcDbLine
 10
-3793.009089790477
 20
-153.0001979518802
 30
0.0
 11
-3763.217896424586
 21
-123.2090045859891
 31
0.0
  0
LINE
  5
397
330
1F
100
AcDbEntity
  8
0-C_ハッチ
  6
JWW_DASHED1
 62
   120
370
     5
100
AcDbLine
 10
-3071.760172980248
 20
-153.0001979518802
 30
0.0
 11
-3058.217896424587
 21
-139.4579213962193
 31
0.0
  0
LINE
  5
398
330
1F
100
AcDbEntity
  8
0-C_ハッチ
  6
JWW_DASHED1
 62
   120
370
     5
100
AcDbLine
 10
-3114.186579851467
 20
-153.0001979518802
 30
0.0
 11
-3058.217896424587
 21
-97.03151452500308
 31
0.0
  0
LINE
  5
399
330
1F
100
AcDbEntity
  8
0-C_ハッチ
  6
JWW_DASHED1
 62
   120
370
     5
100
AcDbLine
 10
-3133.217896424574
 20
-129.6051076537954
 30
0.0
 11
-3058.217896424577
 21
-54.60510765379198
 31
0.0
  0
LINE
  5
39A
330
1F
100
AcDbEntity
  8
0-C_ハッチ
  6
JWW_DASHED1
 62
   120
370
     5
100
AcDbLine
 10
-3133.217896424574
 20
-87.1787007825894
 30
0.0
 11
-3058.21789642458
 21
-12.17870078259537
 31
0.0
  0
LINE
  5
39B
330
1F
100
AcDbEntity
  8
0-C_ハッチ
  6
JWW_DASHED1
 62
   120
370
     5
100
AcDbLine
 10
-3835.43549666169
 20
-153.0001979518802
 30
0.0
 11
-3763.217896424586
 21
-80.7825977147759
 31
0.0
  0
LINE
  5
39C
330
1F
100
AcDbEntity
  8
0-3_仕上げ
  6
Continuous
 62
    40
370
    15
100
AcDbLine
 10
-3133.217896424574
 20
-153.0001979518802
 30
0.0
 11
-3133.217896424574
 21
194.9998020481414
 31
0.0
  0
LINE
  5
39D
330
1F
100
AcDbEntity
  8
0-3_仕上げ
  6
Continuous
 62
    40
370
    15
100
AcDbLine
 10
-3763.217896424574
 20
-153.0001979518802
 30
0.0
 11
-3763.217896424574
 21
194.9998020481414
 31
0.0
  0
LINE
  5
39E
330
1F
100
AcDbEntity
  8
0-3_仕上げ
  6
Continuous
 62
    40
370
    15
100
AcDbLine
 10
-3058.217896424574
 20
-153.0001979518802
 30
0.0
 11
-3058.217896424574
 21
194.9998020481414
 31
0.0
  0
LINE
  5
39F
330
1F
100
AcDbEntity
  8
0-3_仕上げ
  6
Continuous
 62
    40
370
    15
100
AcDbLine
 10
-3838.217896424574
 20
-153.0001979518802
 30
0.0
 11
-3838.217896424574
 21
194.9998020481414
 31
0.0
  0
LINE
  5
3A0
330
1F
100
AcDbEntity
  8
0-4_枠
  6
Continuous
 62
   120
370
     5
100
AcDbLine
 10
-3913.217896424572
 20
-153.0001979518802
 30
0.0
 11
-3889.217896424572
 21
-153.0001979518802
 31
0.0
  0
LINE
  5
3A1
330
1F
100
AcDbEntity
  8
0-4_枠
  6
Continuous
 62
   120
370
     5
100
AcDbLine
 10
-2983.217896424572
 20
-153.0001979518802
 30
0.0
 11
-3007.217896424572
 21
-153.0001979518802
 31
0.0
  0
LINE
  5
3A2
330
1F
100
AcDbEntity
  8
0-0_補助線
  6
JWW_HOJO
 62
   120
370
     5
100
AcDbLine
 10
-3562.217896424572
 20
-2853.000197951856
 30
0.0
 11
-3562.217896424572
 21
194.9998020481414
 31
0.0
  0
LINE
  5
3A3
330
1F
100
AcDbEntity
  8
0-0_補助線
  6
JWW_HOJO
 62
   120
370
     5
100
AcDbLine
 10
-4093.217896424572
 20
-2853.000197951856
 30
0.0
 11
-4093.217896424572
 21
194.9998020481414
 31
0.0
  0
LINE
  5
3A4
330
1F
100
AcDbEntity
  8
0-B_寸法
  6
Continuous
 62
   120
370
     5
100
AcDbLine
 10
-3889.217896424572
 20
-868.8251942929762
 30
0.0
 11
-3007.217896424572
 21
-868.8251942929762
 31
0.0
  0
LWPOLYLINE
  5
3A5
330
1F
100
AcDbEntity
  8
0-B_寸法
  6
Continuous
 62
     7
370
     9
100
AcDbPolyline
 90
        4
 70
     1
 43
3.0
 10
-3887.717896424571
 20
-868.8251942929762
 42
0.4142135623731
 10
-3889.217896424572
 20
-867.3251942929761
 42
0.4142135623731
 10
-3890.717896424572
 20
-868.8251942929762
 42
0.4142135623731
 10
-3889.217896424572
 20
-870.3251942929762
 42
0.4142135623731
  0
LINE
  5
3A6
330
1F
100
AcDbEntity
  8
0-B_寸法
  6
Continuous
 62
   120
370
     5
100
AcDbLine
 10
-3889.217896424572
 20
-868.8251942929762
 30
0.0
 11
-3889.217896424572
 21
-724.4757610184996
 31
0.0
  0
LWPOLYLINE
  5
3A7
330
1F
100
AcDbEntity
  8
0-B_寸法
  6
Continuous
 62
     7
370
     9
100
AcDbPolyline
 90
        4
 70
     1
 43
3.0
 10
-3005.717896424572
 20
-868.8251942929762
 42
0.4142135623731
 10
-3007.217896424572
 20
-867.3251942929761
 42
0.4142135623731
 10
-3008.717896424572
 20
-868.8251942929762
 42
0.4142135623731
 10
-3007.217896424572
 20
-870.3251942929762
 42
0.4142135623731
  0
LINE
  5
3A8
330
1F
100
AcDbEntity
  8
0-B_寸法
  6
Continuous
 62
   120
370
     5
100
AcDbLine
 10
-3007.217896424572
 20
-868.8251942929762
 30
0.0
 11
-3007.217896424572
 21
-745.4757610184942
 31
0.0
  0
LINE
  5
3A9
330
1F
100
AcDbEntity
  8
0-C_ハッチ
  6
JWW_DASHED1
 62
   120
370
     5
100
AcDbLine
 10
-3133.217896424563
 20
167.3797404445642
 30
0.0
 11
-3105.597834820988
 21
194.9998020481414
 31
0.0
  0
LINE
  5
3AA
330
1F
100
AcDbEntity
  8
0-C_ハッチ
  6
JWW_DASHED1
 62
   120
370
     5
100
AcDbLine
 10
-3133.217896424577
 20
124.9533335733514
 30
0.0
 11
-3063.171427949788
 21
194.9998020481414
 31
0.0
  0
LINE
  5
3AB
330
1F
100
AcDbEntity
  8
0-C_ハッチ
  6
JWW_DASHED1
 62
   120
370
     5
100
AcDbLine
 10
-3838.217896424572
 20
183.6286572548519
 30
0.0
 11
-3826.846751631281
 21
194.9998020481414
 31
0.0
  0
LINE
  5
3AC
330
1F
100
AcDbEntity
  8
0-C_ハッチ
  6
JWW_DASHED1
 62
   120
370
     5
100
AcDbLine
 10
-3838.217896424567
 20
141.2022503836553
 30
0.0
 11
-3784.420344760081
 21
194.9998020481414
 31
0.0
  0
LINE
  5
3AD
330
1F
100
AcDbEntity
  8
0-C_ハッチ
  6
JWW_DASHED1
 62
   120
370
     5
100
AcDbLine
 10
-3838.386436302113
 20
-113.5247307210916
 30
0.0
 11
-3763.217896424586
 21
-38.35619084356523
 31
0.0
  0
LINE
  5
3AE
330
1F
100
AcDbEntity
  8
0-C_ハッチ
  6
JWW_DASHED1
 62
   120
370
     5
100
AcDbLine
 10
-3133.21789642458
 20
82.52692670215055
 30
0.0
 11
-3058.217896424572
 21
157.5269267021608
 31
0.0
  0
LINE
  5
3AF
330
1F
100
AcDbEntity
  8
0-C_ハッチ
  6
JWW_DASHED1
 62
   120
370
     5
100
AcDbLine
 10
-3133.217896424586
 20
-2.325887040256305
 30
0.0
 11
-3058.217896424587
 21
72.67411295974028
 31
0.0
  0
LINE
  5
3B0
330
1F
100
AcDbEntity
  8
0-C_ハッチ
  6
JWW_DASHED1
 62
   120
370
     5
100
AcDbLine
 10
-3133.217896424586
 20
-44.75229391145334
 30
0.0
 11
-3058.217896424587
 21
30.24770608854325
 31
0.0
  0
LINE
  5
3B1
330
1F
100
AcDbEntity
  8
0-C_ハッチ
  6
JWW_DASHED1
 62
   120
370
     5
100
AcDbLine
 10
-3838.217896424581
 20
98.77584351244167
 30
0.0
 11
-3763.217896424567
 21
173.7758435124536
 31
0.0
  0
LINE
  5
3B2
330
1F
100
AcDbEntity
  8
0-C_ハッチ
  6
JWW_DASHED1
 62
   120
370
     5
100
AcDbLine
 10
-3838.217896424581
 20
56.34943664123995
 30
0.0
 11
-3763.217896424572
 21
131.3494366412493
 31
0.0
  0
LINE
  5
3B3
330
1F
100
AcDbEntity
  8
0-C_ハッチ
  6
JWW_DASHED1
 62
   120
370
     5
100
AcDbLine
 10
-3838.217896424577
 20
13.92302977004164
 30
0.0
 11
-3763.217896424586
 21
88.92302977003823
 31
0.0
  0
LINE
  5
3B4
330
1F
100
AcDbEntity
  8
0-C_ハッチ
  6
JWW_DASHED1
 62
   120
370
     5
100
AcDbLine
 10
-3838.217896424588
 20
-28.50337710116648
 30
0.0
 11
-3763.217896424591
 21
46.49662289882798
 31
0.0
  0
LINE
  5
3B5
330
1F
100
AcDbEntity
  8
0-C_ハッチ
  6
JWW_DASHED1
 62
   120
370
     5
100
AcDbLine
 10
-3836.28831040409
 20
-69.00019795186793
 30
0.0
 11
-3763.217896424588
 21
4.070216027633506
 31
0.0
  0
LINE
  5
3B6
330
1F
100
AcDbEntity
  8
0-C_ハッチ
  6
JWW_DASHED1
 62
   120
370
     5
100
AcDbLine
 10
-3133.217896424587
 20
40.10051983094243
 30
0.0
 11
-3058.21789642459
 21
115.1005198309377
 31
0.0
  0
LWPOLYLINE
  5
3B7
330
1F
100
AcDbEntity
  8
0-B_寸法
  6
Continuous
 62
     7
370
     9
100
AcDbPolyline
 90
        4
 70
     1
 43
3.0
 10
-3422.717895871218
 20
-1119.000324800449
 42
0.4142135623731
 10
-3424.217895871218
 20
-1117.500324800449
 42
0.4142135623731
 10
-3425.717895871217
 20
-1119.000324800449
 42
0.4142135623731
 10
-3424.217895871218
 20
-1120.500324800449
 42
0.4142135623731
  0
LWPOLYLINE
  5
3B8
330
1F
100
AcDbEntity
  8
0-B_寸法
  6
Continuous
 62
     7
370
     9
100
AcDbPolyline
 90
        4
 70
     1
 43
3.0
 10
-3242.717895871218
 20
-1119.000324800449
 42
0.4142135623731
 10
-3244.217895871218
 20
-1117.500324800449
 42
0.4142135623731
 10
-3245.717895871217
 20
-1119.000324800449
 42
0.4142135623731
 10
-3244.217895871218
 20
-1120.500324800449
 42
0.4142135623731
  0
LINE
  5
3B9
330
1F
100
AcDbEntity
  8
0-A_文字
  6
Continuous
 62
     7
370
     9
100
AcDbLine
 10
-3999.83079242416
 20
-2728.118906281352
 30
0.0
 11
-4029.83079242416
 21
-2780.080430508418
 31
0.0
  0
LINE
  5
3BA
330
1F
100
AcDbEntity
  8
0-A_文字
  6
Continuous
 62
     7
370
     9
100
AcDbLine
 10
-4059.83079242416
 20
-2728.118906281352
 30
0.0
 11
-3999.83079242416
 21
-2728.118906281352
 31
0.0
  0
LINE
  5
3BB
330
1F
100
AcDbEntity
  8
0-A_文字
  6
Continuous
 62
     7
370
     9
100
AcDbLine
 10
-4059.83079242416
 20
-2728.118906281352
 30
0.0
 11
-4029.83079242416
 21
-2780.080430508418
 31
0.0
  0
MTEXT
  5
3BC
330
1F
100
AcDbEntity
  8
0-B_寸法
  6
Continuous
 62
     7
370
   211
100
AcDbMText
 10
-1918.217896424572
 20
-3003.922697951856
 30
0.0
 40
97.15499999999999
 41
127.5
 46
0.0
 71
     7
 72
     1
  1
{\fＭＳ ゴシック|b0|i0|c128|p49;12}
 11
6.123031769111886E-17
 21
1.0
 31
0.0
 73
     1
 44
1.0
  0
MTEXT
  5
3BD
330
1F
100
AcDbEntity
  8
0-B_寸法
  6
Continuous
 62
     7
370
   211
100
AcDbMText
 10
-2338.217896424572
 20
-2728.470197951855
 30
0.0
 40
99.06
 41
195.0
 46
0.0
 71
     7
 72
     1
  1
{\fＭＳ ゴシック|b0|i0|c128|p49;8.5}
 11
6.123031769111886E-17
 21
1.0
 31
0.0
 73
     1
 44
1.0
  0
MTEXT
  5
3BE
330
1F
100
AcDbEntity
  8
0-B_寸法
  6
Continuous
 62
     7
370
   211
100
AcDbMText
 10
-1918.217896424572
 20
-1915.584743406425
 30
0.0
 40
101.8309090909091
 41
735.0
 46
0.0
 71
     7
 72
     1
  1
{\fＭＳ ゴシック|b0|i0|c128|p49;枠外＝2,035}
 11
6.123031769111886E-17
 21
1.0
 31
0.0
 73
     1
 44
1.0
  0
MTEXT
  5
3BF
330
1F
100
AcDbEntity
  8
0-B_寸法
  6
Continuous
 62
     7
370
   211
100
AcDbMText
 10
-2128.217896424572
 20
-1915.584743406425
 30
0.0
 40
101.8309090909091
 41
735.0
 46
0.0
 71
     7
 72
     1
  1
{\fＭＳ ゴシック|b0|i0|c128|p49;枠内＝2,005}
 11
6.123031769111886E-17
 21
1.0
 31
0.0
 73
     1
 44
1.0
  0
MTEXT
  5
3C0
330
1F
100
AcDbEntity
  8
0-B_寸法
  6
Continuous
 62
     7
370
   211
100
AcDbMText
 10
-2338.217896424572
 20
-1915.584743406425
 30
0.0
 40
101.8309090909091
 41
735.0
 46
0.0
 71
     7
 72
     1
  1
{\fＭＳ ゴシック|b0|i0|c128|p49;ＤＨ＝1,983}
 11
6.123031769111886E-17
 21
1.0
 31
0.0
 73
     1
 44
1.0
  0
MTEXT
  5
3C1
330
1F
100
AcDbEntity
  8
0-B_寸法
  6
Continuous
 62
     7
370
   211
100
AcDbMText
 10
-3394.217895871218
 20
-1118.280324800449
 30
0.0
 40
91.44
 41
120.0
 46
0.0
 71
     7
 72
     1
  1
{\fＭＳ ゴシック|b0|i0|c128|p49;30}
 73
     1
 44
1.0
  0
MTEXT
  5
3C2
330
1F
100
AcDbEntity
  8
0-B_寸法
  6
Continuous
 62
     7
370
   211
100
AcDbMText
 10
-2338.217896424572
 20
-698.4939476673043
 30
0.0
 40
100.0125
 41
262.5
 46
0.0
 71
     7
 72
     1
  1
{\fＭＳ ゴシック|b0|i0|c128|p49;13.5}
 11
6.123031769111886E-17
 21
1.0
 31
0.0
 73
     1
 44
1.0
  0
MTEXT
  5
3C3
330
1F
100
AcDbEntity
  8
0-B_寸法
  6
Continuous
 62
     7
370
   211
100
AcDbMText
 10
-2548.217896424572
 20
-631.4701976673039
 30
0.0
 40
99.06
 41
195.0
 46
0.0
 71
     7
 72
     1
  1
{\fＭＳ ゴシック|b0|i0|c128|p49;6.3}
 11
6.123031769111886E-17
 21
1.0
 31
0.0
 73
     1
 44
1.0
  0
MTEXT
  5
3C4
330
1F
100
AcDbEntity
  8
0-B_寸法
  6
Continuous
 62
     7
370
   211
100
AcDbMText
 10
-2758.217896424572
 20
-452.280198268089
 30
0.0
 40
91.44
 41
120.0
 46
0.0
 71
     7
 72
     1
  1
{\fＭＳ ゴシック|b0|i0|c128|p49;15}
 11
6.123031769111886E-17
 21
1.0
 31
0.0
 73
     1
 44
1.0
  0
MTEXT
  5
3C5
330
1F
100
AcDbEntity
  8
0-B_寸法
  6
Continuous
 62
     7
370
   211
100
AcDbMText
 10
-2128.217896424572
 20
-318.1726979518802
 30
0.0
 40
97.15499999999999
 41
127.5
 46
0.0
 71
     7
 72
     1
  1
{\fＭＳ ゴシック|b0|i0|c128|p49;30}
 11
6.123031769111886E-17
 21
1.0
 31
0.0
 73
     1
 44
1.0
  0
LINE
  5
3C6
330
1F
100
AcDbEntity
  8
0-6_扉
  6
Continuous
 62
   200
370
    20
100
AcDbLine
 10
-3244.217896424574
 20
-2730.000404213939
 30
0.0
 11
-3320.717896424564
 21
-2730.000404213939
 31
0.0
  0
LINE
  5
3C7
330
1F
100
AcDbEntity
  8
0-6_扉
  6
Continuous
 62
   200
370
    20
100
AcDbLine
 10
-3320.717896424564
 20
-2730.000404213939
 30
0.0
 11
-3320.717896424564
 21
-2622.000404213938
 31
0.0
  0
LINE
  5
3C8
330
1F
100
AcDbEntity
  8
0-6_扉
  6
Continuous
 62
   200
370
    20
100
AcDbLine
 10
-3347.717896424564
 20
-2730.000404213939
 30
0.0
 11
-3347.717896424564
 21
-2622.000404213938
 31
0.0
  0
LINE
  5
3C9
330
1F
100
AcDbEntity
  8
0-6_扉
  6
Continuous
 62
   200
370
    20
100
AcDbLine
 10
-3347.717896424564
 20
-2730.000404213939
 30
0.0
 11
-3424.217896424574
 21
-2730.000404213939
 31
0.0
  0
LINE
  5
3CA
330
1F
100
AcDbEntity
  8
0-6_扉
  6
Continuous
 62
   200
370
    20
100
AcDbLine
 10
-3320.717896424564
 20
-2622.000404213938
 30
0.0
 11
-3347.717896424564
 21
-2622.000404213938
 31
0.0
  0
LINE
  5
3CB
330
1F
100
AcDbEntity
  8
0-B_寸法
  6
Continuous
 62
   120
370
     5
100
AcDbLine
 10
-3064.217896424574
 20
-2622.000404213939
 30
0.0
 11
-3184.217896424574
 21
-2622.000404213939
 31
0.0
  0
LINE
  5
3CC
330
1F
100
AcDbEntity
  8
0-B_寸法
  6
Continuous
 62
   120
370
     5
100
AcDbLine
 10
-3064.217896424574
 20
-2730.000404213939
 30
0.0
 11
-3184.217896424574
 21
-2730.000404213939
 31
0.0
  0
LWPOLYLINE
  5
3CD
330
1F
100
AcDbEntity
  8
0-B_寸法
  6
Continuous
 62
     7
370
     9
100
AcDbPolyline
 90
        4
 70
     1
 43
3.0
 10
-3062.717896424574
 20
-2622.000404213939
 42
0.4142135623731
 10
-3064.217896424574
 20
-2620.500404213939
 42
0.4142135623731
 10
-3065.717896424574
 20
-2622.000404213939
 42
0.4142135623731
 10
-3064.217896424574
 20
-2623.500404213939
 42
0.4142135623731
  0
LWPOLYLINE
  5
3CE
330
1F
100
AcDbEntity
  8
0-B_寸法
  6
Continuous
 62
     7
370
     9
100
AcDbPolyline
 90
        4
 70
     1
 43
3.0
 10
-3062.717896424574
 20
-2730.000404213939
 42
0.4142135623731
 10
-3064.217896424574
 20
-2728.500404213939
 42
0.4142135623731
 10
-3065.717896424574
 20
-2730.000404213939
 42
0.4142135623731
 10
-3064.217896424574
 20
-2731.500404213939
 42
0.4142135623731
  0
LINE
  5
3CF
330
1F
100
AcDbEntity
  8
0-B_寸法
  6
Continuous
 62
   120
370
     5
100
AcDbLine
 10
-3064.217896424574
 20
-2730.000404213939
 30
0.0
 11
-3064.217896424574
 21
-2622.000404213939
 31
0.0
  0
LINE
  5
3D0
330
1F
100
AcDbEntity
  8
0-B_寸法
  6
Continuous
 62
   120
370
     5
100
AcDbLine
 10
-3349.217896424563
 20
-2532.000404213938
 30
0.0
 11
-3319.217896424563
 21
-2532.000404213938
 31
0.0
  0
LINE
  5
3D1
330
1F
100
AcDbEntity
  8
0-B_寸法
  6
Continuous
 62
   120
370
     5
100
AcDbLine
 10
-3319.217896424563
 20
-2532.000404213938
 30
0.0
 11
-3319.217896424563
 21
-2592.000404213938
 31
0.0
  0
LWPOLYLINE
  5
3D2
330
1F
100
AcDbEntity
  8
0-B_寸法
  6
Continuous
 62
     7
370
     9
100
AcDbPolyline
 90
        4
 70
     1
 43
3.0
 10
-3317.717896424564
 20
-2532.000404213938
 42
0.4142135623731
 10
-3319.217896424563
 20
-2530.500404213939
 42
0.4142135623731
 10
-3320.717896424563
 20
-2532.000404213938
 42
0.4142135623731
 10
-3319.217896424563
 20
-2533.500404213938
 42
0.4142135623731
  0
LINE
  5
3D3
330
1F
100
AcDbEntity
  8
0-B_寸法
  6
Continuous
 62
   120
370
     5
100
AcDbLine
 10
-3349.217896424563
 20
-2532.000404213938
 30
0.0
 11
-3349.217896424563
 21
-2592.000404213938
 31
0.0
  0
LWPOLYLINE
  5
3D4
330
1F
100
AcDbEntity
  8
0-B_寸法
  6
Continuous
 62
     7
370
     9
100
AcDbPolyline
 90
        4
 70
     1
 43
3.0
 10
-3347.717896424564
 20
-2532.000404213938
 42
0.4142135623731
 10
-3349.217896424563
 20
-2530.500404213939
 42
0.4142135623731
 10
-3350.717896424563
 20
-2532.000404213938
 42
0.4142135623731
 10
-3349.217896424563
 20
-2533.500404213938
 42
0.4142135623731
  0
LINE
  5
3D5
330
1F
100
AcDbEntity
  8
0-0_補助線
  6
JWW_HOJO
 62
   120
370
     5
100
AcDbLine
 10
-3214.217896424574
 20
-2592.000404213938
 30
0.0
 11
-3214.217896424574
 21
-2856.00059167935
 31
0.0
  0
LINE
  5
3D6
330
1F
100
AcDbEntity
  8
0-0_補助線
  6
JWW_HOJO
 62
   120
370
     5
100
AcDbLine
 10
-3284.717896424574
 20
-2592.000404213938
 30
0.0
 11
-3284.717896424574
 21
-2856.00059167935
 31
0.0
  0
LINE
  5
3D7
330
1F
100
AcDbEntity
  8
0-C_ハッチ
  6
Continuous
 62
   120
370
     5
100
AcDbLine
 10
-3343.217896424565
 20
-2681.894774300665
 30
0.0
 11
-3325.217896424558
 21
-2663.894774300656
 31
0.0
  0
LINE
  5
3D8
330
1F
100
AcDbEntity
  8
0-C_ハッチ
  6
Continuous
 62
   120
370
     5
100
AcDbLine
 10
-3442.323526337828
 20
-2781.000404213925
 30
0.0
 11
-3424.324123425115
 21
-2763.001001301211
 31
0.0
  0
LINE
  5
3D9
330
1F
100
AcDbEntity
  8
0-C_ハッチ
  6
Continuous
 62
   120
370
     5
100
AcDbLine
 10
-3343.217896424559
 20
-2707.350618423409
 30
0.0
 11
-3325.217896424555
 21
-2689.350618423404
 31
0.0
  0
LINE
  5
3DA
330
1F
100
AcDbEntity
  8
0-C_ハッチ
  6
Continuous
 62
   120
370
     5
100
AcDbLine
 10
-3416.867682215089
 20
-2781.00040421394
 30
0.0
 11
-3398.868279302379
 21
-2763.001001301228
 31
0.0
  0
LINE
  5
3DB
330
1F
100
AcDbEntity
  8
0-C_ハッチ
  6
Continuous
 62
   120
370
     5
100
AcDbLine
 10
-3343.217896424569
 20
-2732.806462546116
 30
0.0
 11
-3325.217896424561
 21
-2714.80646254611
 31
0.0
  0
LINE
  5
3DC
330
1F
100
AcDbEntity
  8
0-C_ハッチ
  6
Continuous
 62
   120
370
     5
100
AcDbLine
 10
-3391.411838092387
 20
-2781.000404213937
 30
0.0
 11
-3373.412435179674
 21
-2763.001001301218
 31
0.0
  0
LINE
  5
3DD
330
1F
100
AcDbEntity
  8
0-C_ハッチ
  6
Continuous
 62
   120
370
     5
100
AcDbLine
 10
-3343.217896424579
 20
-2758.262306668821
 30
0.0
 11
-3325.217896424565
 21
-2740.262306668812
 31
0.0
  0
LINE
  5
3DE
330
1F
100
AcDbEntity
  8
0-C_ハッチ
  6
Continuous
 62
   120
370
     5
100
AcDbLine
 10
-3365.955993969686
 20
-2781.000404213929
 30
0.0
 11
-3347.956591056962
 21
-2763.001001301208
 31
0.0
  0
LINE
  5
3DF
330
1F
100
AcDbEntity
  8
0-C_ハッチ
  6
Continuous
 62
   120
370
     5
100
AcDbLine
 10
-3340.255570433152
 20
-2780.755824800153
 30
0.0
 11
-3325.457898897957
 21
-2765.958153264955
 31
0.0
  0
LINE
  5
3E0
330
1F
100
AcDbEntity
  8
0-7_金物
  6
Continuous
 62
    92
370
    13
100
AcDbLine
 10
-3445.217896424568
 20
-2781.000404213938
 30
0.0
 11
-3343.212722396896
 21
-2781.000404213938
 31
0.0
  0
LINE
  5
3E1
330
1F
100
AcDbEntity
  8
0-7_金物
  6
Continuous
 62
    92
370
    13
100
AcDbLine
 10
-3445.217896424568
 20
-2763.001001301215
 30
0.0
 11
-3445.217896424568
 21
-2781.000404213938
 31
0.0
  0
LINE
  5
3E2
330
1F
100
AcDbEntity
  8
0-7_金物
  6
Continuous
 62
    92
370
    13
100
AcDbLine
 10
-3343.478271102951
 20
-2763.001001301215
 30
0.0
 11
-3445.217896424568
 21
-2763.001001301215
 31
0.0
  0
LINE
  5
3E3
330
1F
100
AcDbEntity
  8
0-7_金物
  6
Continuous
 62
    92
370
    13
100
AcDbLine
 10
-3325.217896424565
 20
-2661.004384795775
 30
0.0
 11
-3343.217896424565
 21
-2661.004384795775
 31
0.0
  0
LINE
  5
3E4
330
1F
100
AcDbEntity
  8
0-7_金物
  6
Continuous
 62
    92
370
    13
100
AcDbLine
 10
-3343.217896424565
 20
-2661.004384795775
 30
0.0
 11
-3343.217896424565
 21
-2763.001001301215
 31
0.0
  0
ARC
  5
3E5
330
1F
100
AcDbEntity
  8
0-7_金物
  6
Continuous
 62
    92
370
    13
100
AcDbCircle
 10
-3343.212722396896
 20
-2763.001001301215
 30
0.0
 40
17.99940291272451
100
AcDbArc
 50
270.0
 51
0.0
  0
LINE
  5
3E6
330
1F
100
AcDbEntity
  8
0-7_金物
  6
Continuous
 62
    92
370
    13
100
AcDbLine
 10
-3325.217896424565
 20
-2661.004384795775
 30
0.0
 11
-3325.217896424565
 21
-2763.001001301215
 31
0.0
  0
MTEXT
  5
3E7
330
1F
100
AcDbEntity
  8
0-B_寸法
  6
Continuous
 62
     7
370
   211
100
AcDbMText
 10
-3079.217896424574
 20
-2750.28040421394
 30
0.0
 40
91.44
 41
120.0
 46
0.0
 71
     7
 72
     1
  1
{\fＭＳ ゴシック|b0|i0|c128|p49;18}
 11
6.123031769111886E-17
 21
1.0
 31
0.0
 73
     1
 44
1.0
  0
MTEXT
  5
3E8
330
1F
100
AcDbEntity
  8
0-B_寸法
  6
Continuous
 62
     7
370
   211
100
AcDbMText
 10
-3427.217896424564
 20
-2531.280404213938
 30
0.0
 40
91.44
 41
180.0
 46
0.0
 71
     7
 72
     1
  1
{\fＭＳ ゴシック|b0|i0|c128|p49;4.5}
 73
     1
 44
1.0
  0
LINE
  5
3E9
330
1F
100
AcDbEntity
  8
0-2_柱
  6
Continuous
 62
    92
370
    13
100
AcDbLine
 10
-3763.217896424574
 20
56.99980204812043
 30
0.0
 11
-3133.217896424574
 21
56.99980204812043
 31
0.0
  0
LINE
  5
3EA
330
1F
100
AcDbEntity
  8
0-2_柱
  6
Continuous
 62
     7
370
     9
100
AcDbLine
 10
-3763.217896424574
 20
-105.0001979518802
 30
0.0
 11
-3133.217896424574
 21
56.99980204812043
 31
0.0
  0
LINE
  5
3EB
330
1F
100
AcDbEntity
  8
0-2_柱
  6
Continuous
 62
    92
370
    13
100
AcDbLine
 10
-3763.217896424574
 20
-105.0001979518802
 30
0.0
 11
-3133.217896424574
 21
-105.0001979518802
 31
0.0
  0
LINE
  5
3EC
330
1F
100
AcDbEntity
  8
0-7_金物
  6
Continuous
 62
     7
370
     9
100
AcDbLine
 10
-3358.217599496787
 20
-117.0007076779139
 30
0.0
 11
-3538.217451032893
 21
-117.0007076779139
 31
0.0
  0
LINE
  5
3ED
330
1F
100
AcDbEntity
  8
0-7_金物
  6
Continuous
 62
     7
370
     9
100
AcDbLine
 10
-3538.217451032893
 20
-105.0003711597562
 30
0.0
 11
-3538.217451032893
 21
-117.0007076779139
 31
0.0
  0
LINE
  5
3EE
330
1F
100
AcDbEntity
  8
0-7_金物
  6
Continuous
 62
     7
370
     9
100
AcDbLine
 10
-3358.217599496787
 20
-105.0003711597562
 30
0.0
 11
-3358.217599496787
 21
-117.0007076779139
 31
0.0
  0
LINE
  5
3EF
330
1F
100
AcDbEntity
  8
0-7_金物
  6
Continuous
 62
     7
370
     9
100
AcDbLine
 10
-3388.217698472715
 20
-117.0007076779139
 30
0.0
 11
-3388.217698472715
 21
-129.0003018766062
 31
0.0
  0
LINE
  5
3F0
330
1F
100
AcDbEntity
  8
0-7_金物
  6
Continuous
 62
     7
370
     9
100
AcDbLine
 10
-3508.217352056963
 20
-117.0007076779139
 30
0.0
 11
-3508.217352056963
 21
-129.0003018766062
 31
0.0
  0
LINE
  5
3F1
330
1F
100
AcDbEntity
  8
0-7_金物
  6
Continuous
 62
     7
370
     9
100
AcDbLine
 10
-3388.217698472715
 20
-129.0003018766062
 30
0.0
 11
-3508.217352056963
 21
-129.0003018766062
 31
0.0
  0
LINE
  5
3F2
330
1F
100
AcDbEntity
  8
0-7_金物
  6
Continuous
 62
     7
370
     9
100
AcDbLine
 10
-3502.217926117352
 20
-129.0003018766062
 30
0.0
 11
-3502.217926117352
 21
-153.0001979518802
 31
0.0
  0
LINE
  5
3F3
330
1F
100
AcDbEntity
  8
0-7_金物
  6
Continuous
 62
     7
370
     9
100
AcDbLine
 10
-3394.217866731794
 20
-129.0003018766062
 30
0.0
 11
-3394.217866731794
 21
-153.0001979518802
 31
0.0
  0
LINE
  5
3F4
330
1F
100
AcDbEntity
  8
0-7_金物
  6
Continuous
 62
     7
370
     9
100
AcDbLine
 10
-3358.217599496787
 20
-105.0003711597562
 30
0.0
 11
-3538.217451032893
 21
-105.0003711597562
 31
0.0
  0
LINE
  5
3F5
330
1F
100
AcDbEntity
  8
0-1_通り芯
  6
JWW_CENTER1
 62
   120
370
     5
100
AcDbLine
 10
-4093.217896424572
 20
-105.0003711597562
 30
0.0
 11
-1789.21789642457
 21
-105.0003711597562
 31
0.0
  0
MTEXT
  5
3F6
330
1F
100
AcDbEntity
  8
0-A_文字
  6
Continuous
 62
     7
370
     9
100
AcDbMText
 10
-4305.387860862062
 20
341.6364576378734
 30
0.0
 40
91.44
 41
600.0
 46
0.0
 71
     7
 72
     1
  1
{\fＭＳ ゴシック|b0|i0|c128|p49;■縦断面図}
 73
     1
 44
1.0
  0
LINE
  5
3F7
330
1F
100
AcDbEntity
  8
0-B_寸法
  6
Continuous
 62
   120
370
     5
100
AcDbLine
 10
-1903.217896424572
 20
-153.0001979518802
 30
0.0
 11
-1903.217896424572
 21
-105.0003711597562
 31
0.0
  0
LWPOLYLINE
  5
3F8
330
1F
100
AcDbEntity
  8
0-B_寸法
  6
Continuous
 62
     7
370
     9
100
AcDbPolyline
 90
        4
 70
     1
 43
3.0
 10
-1901.717896424572
 20
-153.0001979518802
 42
0.4142135623731
 10
-1903.217896424572
 20
-151.5001979518802
 42
0.4142135623731
 10
-1904.717896424572
 20
-153.0001979518802
 42
0.4142135623731
 10
-1903.217896424572
 20
-154.5001979518802
 42
0.4142135623731
  0
LWPOLYLINE
  5
3F9
330
1F
100
AcDbEntity
  8
0-B_寸法
  6
Continuous
 62
     7
370
     9
100
AcDbPolyline
 90
        4
 70
     1
 43
3.0
 10
-1901.717896424572
 20
-105.0003711597562
 42
0.4142135623731
 10
-1903.217896424572
 20
-103.5003711597562
 42
0.4142135623731
 10
-1904.717896424572
 20
-105.0003711597562
 42
0.4142135623731
 10
-1903.217896424572
 20
-106.5003711597562
 42
0.4142135623731
  0
LINE
  5
3FA
330
1F
100
AcDbEntity
  8
0-B_寸法
  6
Continuous
 62
   120
370
     5
100
AcDbLine
 10
-1903.217896424572
 20
-153.0001979518802
 30
0.0
 11
-2743.217896424572
 21
-153.0001979518802
 31
0.0
  0
LINE
  5
3FB
330
1F
100
AcDbEntity
  8
0-B_寸法
  6
Continuous
 62
   120
370
     5
100
AcDbLine
 10
-1903.217896424572
 20
-105.0003711597562
 30
0.0
 11
-2743.217896424572
 21
-105.0003711597562
 31
0.0
  0
MTEXT
  5
3FC
330
1F
100
AcDbEntity
  8
0-B_寸法
  6
Continuous
 62
     7
370
   211
100
AcDbMText
 10
-1918.217896424572
 20
-233.2802845558182
 30
0.0
 40
91.44
 41
60.0
 46
0.0
 71
     7
 72
     1
  1
{\fＭＳ ゴシック|b0|i0|c128|p49;8}
 11
6.123031769111886E-17
 21
1.0
 31
0.0
 73
     1
 44
1.0
  0
LINE
  5
3FD
330
1F
100
AcDbEntity
  8
0-B_寸法
  6
Continuous
 62
   120
370
     5
100
AcDbLine
 10
-4303.217896424572
 20
-2853.000198220286
 30
0.0
 11
-4303.217896424572
 21
-105.0003711597562
 31
0.0
  0
LWPOLYLINE
  5
3FE
330
1F
100
AcDbEntity
  8
0-B_寸法
  6
Continuous
 62
     7
370
     9
100
AcDbPolyline
 90
        4
 70
     1
 43
3.0
 10
-4301.717896424572
 20
-2853.000198220286
 42
0.4142135623731
 10
-4303.217896424572
 20
-2851.500198220286
 42
0.4142135623731
 10
-4304.717896424572
 20
-2853.000198220286
 42
0.4142135623731
 10
-4303.217896424572
 20
-2854.500198220286
 42
0.4142135623731
  0
LWPOLYLINE
  5
3FF
330
1F
100
AcDbEntity
  8
0-B_寸法
  6
Continuous
 62
     7
370
     9
100
AcDbPolyline
 90
        4
 70
     1
 43
3.0
 10
-4301.717896424572
 20
-105.0003711597562
 42
0.4142135623731
 10
-4303.217896424572
 20
-103.5003711597562
 42
0.4142135623731
 10
-4304.717896424572
 20
-105.0003711597562
 42
0.4142135623731
 10
-4303.217896424572
 20
-106.5003711597562
 42
0.4142135623731
  0
LINE
  5
400
330
1F
100
AcDbEntity
  8
0-B_寸法
  6
Continuous
 62
   120
370
     5
100
AcDbLine
 10
-4303.217896424572
 20
-2853.000198220286
 30
0.0
 11
-4093.217896424572
 21
-2853.000198220286
 31
0.0
  0
LINE
  5
401
330
1F
100
AcDbEntity
  8
0-B_寸法
  6
Continuous
 62
   120
370
     5
100
AcDbLine
 10
-4303.217896424572
 20
-105.0003711597562
 30
0.0
 11
-4093.217896424572
 21
-105.0003711597562
 31
0.0
  0
MTEXT
  5
402
330
1F
100
AcDbEntity
  8
0-B_寸法
  6
Continuous
 62
     7
370
   211
100
AcDbMText
 10
-4318.217896424572
 20
-1943.280197951874
 30
0.0
 40
91.43999999999997
 41
780.0
 46
0.0
 71
     7
 72
     1
  1
{\fＭＳ ゴシック|b0|i0|c128|p49;ＲＯＨ＝2,055}
 11
6.123031769111886E-17
 21
1.0
 31
0.0
 73
     1
 44
1.0
  0
LINE
  5
403
330
1F
100
AcDbEntity
  8
1-6_扉
  6
JWW_DASHED2
 62
     7
370
     9
100
AcDbLine
 10
519.9181716835622
 20
-435.9103996823004
 30
0.0
 11
519.9181716835622
 21
-2113.155803330841
 31
0.0
  0
LINE
  5
404
330
1F
100
AcDbEntity
  8
1-6_扉
  6
JWW_DASHED2
 62
     7
370
     9
100
AcDbLine
 10
519.9181716835622
 20
-2113.155803330841
 30
0.0
 11
343.6703317558599
 21
-2113.155803330841
 31
0.0
  0
MTEXT
  5
405
330
1F
100
AcDbEntity
  8
1-A_文字
  6
Continuous
 62
     7
370
     9
100
AcDbMText
 10
-909.5352338546161
 20
-2631.252886088517
 30
0.0
 40
91.44
 41
720.0
 46
0.0
 71
     7
 72
     1
  1
{\fＭＳ ゴシック|b0|i0|c128|p49;振れ止め金具}
 73
     1
 44
1.0
  0
LINE
  5
406
330
1F
100
AcDbEntity
  8
1-A_文字
  6
Continuous
 62
     7
370
     9
100
AcDbLine
 10
-114.5352338546161
 20
-2556.972886088517
 30
0.0
 11
-189.5352338546161
 21
-2556.972886088517
 31
0.0
  0
LINE
  5
407
330
1F
100
AcDbEntity
  8
1-A_文字
  6
Continuous
 62
     7
370
     9
100
AcDbLine
 10
79.21578771104976
 20
-2221.386272718411
 30
0.0
 11
-114.5352338546161
 21
-2556.972886088517
 31
0.0
  0
LINE
  5
408
330
1F
100
AcDbEntity
  8
1-B_寸法
  6
Continuous
 62
   120
370
     5
100
AcDbLine
 10
-316.756891482768
 20
-2113.155803330841
 30
0.0
 11
-316.756891482768
 21
-1843.155803330842
 31
0.0
  0
LWPOLYLINE
  5
409
330
1F
100
AcDbEntity
  8
1-B_寸法
  6
Continuous
 62
     7
370
     9
100
AcDbPolyline
 90
        4
 70
     1
 43
3.0
 10
-315.256891482768
 20
-2113.155803330841
 42
0.4142135623731
 10
-316.756891482768
 20
-2111.655803330841
 42
0.4142135623731
 10
-318.256891482768
 20
-2113.155803330841
 42
0.4142135623731
 10
-316.756891482768
 20
-2114.655803330841
 42
0.4142135623731
  0
LWPOLYLINE
  5
40A
330
1F
100
AcDbEntity
  8
1-B_寸法
  6
Continuous
 62
     7
370
     9
100
AcDbPolyline
 90
        4
 70
     1
 43
3.0
 10
-315.256891482768
 20
-1843.155803330842
 42
0.4142135623731
 10
-316.756891482768
 20
-1841.655803330842
 42
0.4142135623731
 10
-318.256891482768
 20
-1843.155803330842
 42
0.4142135623731
 10
-316.756891482768
 20
-1844.655803330842
 42
0.4142135623731
  0
LINE
  5
40B
330
1F
100
AcDbEntity
  8
1-B_寸法
  6
Continuous
 62
   120
370
     5
100
AcDbLine
 10
-316.756891482768
 20
-1843.155803330842
 30
0.0
 11
-65.0818283164395
 21
-1843.155803330842
 31
0.0
  0
LINE
  5
40C
330
1F
100
AcDbEntity
  8
1-B_寸法
  6
Continuous
 62
   120
370
     5
100
AcDbLine
 10
-316.756891482768
 20
-2113.155803330841
 30
0.0
 11
-174.0780229303581
 21
-2113.155803330841
 31
0.0
  0
MTEXT
  5
40D
330
1F
100
AcDbEntity
  8
1-B_寸法
  6
Continuous
 62
     7
370
   211
100
AcDbMText
 10
-331.756891482768
 20
-2052.435803330841
 30
0.0
 40
91.43999999999984
 41
119.9999999999998
 46
0.0
 71
     7
 72
     1
  1
{\fＭＳ ゴシック|b0|i0|c128|p49;18}
 11
6.123031769111886E-17
 21
1.0
 31
0.0
 73
     1
 44
1.0
  0
LINE
  5
40E
330
1F
100
AcDbEntity
  8
1-6_扉
  6
JWW_DASHED2
 62
     7
370
     9
100
AcDbLine
 10
246.1660545265747
 20
-2113.155803330841
 30
0.0
 11
69.9181716835622
 21
-2113.155803330841
 31
0.0
  0
LINE
  5
40F
330
1F
100
AcDbEntity
  8
1-7_金物
  6
Continuous
 62
     7
370
     9
100
AcDbLine
 10
343.6703317558599
 20
-2113.155803330841
 30
0.0
 11
388.6703317558573
 21
-2113.155803330841
 31
0.0
  0
LINE
  5
410
330
1F
100
AcDbEntity
  8
1-7_金物
  6
Continuous
 62
     7
370
     9
100
AcDbLine
 10
388.6703317558573
 20
-2113.155803330841
 30
0.0
 11
388.6703317558573
 21
-2128.155803330838
 31
0.0
  0
LINE
  5
411
330
1F
100
AcDbEntity
  8
1-7_金物
  6
Continuous
 62
     7
370
     9
100
AcDbLine
 10
328.6703317558565
 20
-2128.155803330838
 30
0.0
 11
388.6703317558573
 21
-2128.155803330838
 31
0.0
  0
LINE
  5
412
330
1F
100
AcDbEntity
  8
1-7_金物
  6
Continuous
 62
     7
370
     9
100
AcDbLine
 10
328.6703317558565
 20
-1858.15580333084
 30
0.0
 11
261.1703317558624
 21
-1858.15580333084
 31
0.0
  0
LINE
  5
413
330
1F
100
AcDbEntity
  8
1-7_金物
  6
Continuous
 62
     7
370
     9
100
AcDbLine
 10
246.170331755859
 20
-1843.155803330841
 30
0.0
 11
343.6703317558599
 21
-1843.155803330841
 31
0.0
  0
LINE
  5
414
330
1F
100
AcDbEntity
  8
1-7_金物
  6
Continuous
 62
     7
370
     9
100
AcDbLine
 10
328.6703317558565
 20
-1858.15580333084
 30
0.0
 11
328.6703317558565
 21
-2128.155803330838
 31
0.0
  0
LINE
  5
415
330
1F
100
AcDbEntity
  8
1-7_金物
  6
Continuous
 62
     7
370
     9
100
AcDbLine
 10
343.6703317558599
 20
-1843.155803330841
 30
0.0
 11
343.6703317558599
 21
-2113.155803330841
 31
0.0
  0
LINE
  5
416
330
1F
100
AcDbEntity
  8
1-7_金物
  6
Continuous
 62
     7
370
     9
100
AcDbLine
 10
261.1703317558624
 20
-2128.155803330838
 30
0.0
 11
201.1703317558573
 21
-2128.155803330838
 31
0.0
  0
LINE
  5
417
330
1F
100
AcDbEntity
  8
1-7_金物
  6
Continuous
 62
     7
370
     9
100
AcDbLine
 10
261.1703317558624
 20
-2128.155803330838
 30
0.0
 11
261.1703317558624
 21
-1858.15580333084
 31
0.0
  0
LINE
  5
418
330
1F
100
AcDbEntity
  8
1-7_金物
  6
Continuous
 62
     7
370
     9
100
AcDbLine
 10
201.1703317558573
 20
-2128.155803330838
 30
0.0
 11
201.1703317558573
 21
-2113.155803330841
 31
0.0
  0
LINE
  5
419
330
1F
100
AcDbEntity
  8
1-7_金物
  6
Continuous
 62
     7
370
     9
100
AcDbLine
 10
201.1703317558573
 20
-2113.155803330841
 30
0.0
 11
246.170331755859
 21
-2113.155803330841
 31
0.0
  0
LINE
  5
41A
330
1F
100
AcDbEntity
  8
1-7_金物
  6
Continuous
 62
     7
370
     9
100
AcDbLine
 10
246.170331755859
 20
-2113.155803330841
 30
0.0
 11
246.170331755859
 21
-1843.155803330841
 31
0.0
  0
LINE
  5
41B
330
1F
100
AcDbEntity
  8
1-6_扉
  6
JWW_DASHED2
 62
     7
370
     9
100
AcDbLine
 10
343.6681716835579
 20
-1843.155803330837
 30
0.0
 11
246.1660545265747
 21
-1843.155803330837
 31
0.0
  0
LINE
  5
41C
330
1F
100
AcDbEntity
  8
1-6_扉
  6
JWW_DASHED2
 62
     7
370
     9
100
AcDbLine
 10
343.6681716835579
 20
-1843.155803330837
 30
0.0
 11
343.6681716835579
 21
-2113.155803330837
 31
0.0
  0
LINE
  5
41D
330
1F
100
AcDbEntity
  8
1-6_扉
  6
JWW_DASHED2
 62
     7
370
     9
100
AcDbLine
 10
246.1660545265747
 20
-2113.155803330837
 30
0.0
 11
246.1660545265747
 21
-1843.155803330837
 31
0.0
  0
MTEXT
  5
41E
330
1F
100
AcDbEntity
  8
1-B_寸法
  6
Continuous
 62
     7
370
   211
100
AcDbMText
 10
-20.08074828029152
 20
-1626.284697027082
 30
0.0
 40
91.44
 41
60.0
 46
0.0
 71
     7
 72
     1
  1
{\fＭＳ ゴシック|b0|i0|c128|p49;5}
 73
     1
 44
1.0
  0
LINE
  5
41F
330
1F
100
AcDbEntity
  8
1-B_寸法
  6
Continuous
 62
   120
370
     5
100
AcDbLine
 10
-27.5818283164395
 20
-1627.004697027082
 30
0.0
 11
-27.5818283164395
 21
-1777.004697027082
 31
0.0
  0
LWPOLYLINE
  5
420
330
1F
100
AcDbEntity
  8
1-B_寸法
  6
Continuous
 62
     7
370
     9
100
AcDbPolyline
 90
        4
 70
     1
 43
3.0
 10
-26.0818283164395
 20
-1627.004697027082
 42
0.4142135623731
 10
-27.5818283164395
 20
-1625.504697027082
 42
0.4142135623731
 10
-29.0818283164395
 20
-1627.004697027082
 42
0.4142135623731
 10
-27.5818283164395
 20
-1628.504697027082
 42
0.4142135623731
  0
LINE
  5
421
330
1F
100
AcDbEntity
  8
1-B_寸法
  6
Continuous
 62
   120
370
     5
100
AcDbLine
 10
47.42033175585647
 20
-1627.004697027082
 30
0.0
 11
-27.5818283164395
 21
-1627.004697027082
 31
0.0
  0
MTEXT
  5
422
330
1F
100
AcDbEntity
  8
1-B_寸法
  6
Continuous
 62
     7
370
   211
100
AcDbMText
 10
118.6703317558684
 20
-1623.427197027082
 30
0.0
 40
97.15499999999999
 41
127.5
 46
0.0
 71
     7
 72
     1
  1
{\fＭＳ ゴシック|b0|i0|c128|p49;18}
 73
     1
 44
1.0
  0
LINE
  5
423
330
1F
100
AcDbEntity
  8
1-B_寸法
  6
Continuous
 62
   120
370
     5
100
AcDbLine
 10
47.42033175585647
 20
-1627.004697027082
 30
0.0
 11
47.42033175585647
 21
-1777.004697027082
 31
0.0
  0
LINE
  5
424
330
1F
100
AcDbEntity
  8
1-B_寸法
  6
Continuous
 62
   120
370
     5
100
AcDbLine
 10
317.4203317558803
 20
-1627.004697027082
 30
0.0
 11
317.4203317558803
 21
-1777.004697027082
 31
0.0
  0
LWPOLYLINE
  5
425
330
1F
100
AcDbEntity
  8
1-B_寸法
  6
Continuous
 62
     7
370
     9
100
AcDbPolyline
 90
        4
 70
     1
 43
3.0
 10
48.92033175585647
 20
-1627.004697027082
 42
0.4142135623731
 10
47.42033175585647
 20
-1625.504697027082
 42
0.4142135623731
 10
45.92033175585647
 20
-1627.004697027082
 42
0.4142135623731
 10
47.42033175585647
 20
-1628.504697027082
 42
0.4142135623731
  0
LWPOLYLINE
  5
426
330
1F
100
AcDbEntity
  8
1-B_寸法
  6
Continuous
 62
     7
370
     9
100
AcDbPolyline
 90
        4
 70
     1
 43
3.0
 10
318.9203317558803
 20
-1627.004697027082
 42
0.4142135623731
 10
317.4203317558803
 20
-1625.504697027082
 42
0.4142135623731
 10
315.9203317558803
 20
-1627.004697027082
 42
0.4142135623731
 10
317.4203317558803
 20
-1628.504697027082
 42
0.4142135623731
  0
LINE
  5
427
330
1F
100
AcDbEntity
  8
1-B_寸法
  6
Continuous
 62
   120
370
     5
100
AcDbLine
 10
317.4203317558803
 20
-1627.004697027082
 30
0.0
 11
47.42033175585647
 21
-1627.004697027082
 31
0.0
  0
LINE
  5
428
330
1F
100
AcDbEntity
  8
1-B_寸法
  6
Continuous
 62
   120
370
     5
100
AcDbLine
 10
-158.2598649220975
 20
-1940.655803330841
 30
0.0
 11
-65.0818283164395
 21
-1940.655803330841
 31
0.0
  0
LWPOLYLINE
  5
429
330
1F
100
AcDbEntity
  8
1-B_寸法
  6
Continuous
 62
     7
370
     9
100
AcDbPolyline
 90
        4
 70
     1
 43
3.0
 10
-156.7598649220975
 20
-1940.655803330841
 42
0.4142135623731
 10
-158.2598649220975
 20
-1939.155803330841
 42
0.4142135623731
 10
-159.7598649220975
 20
-1940.655803330841
 42
0.4142135623731
 10
-158.2598649220975
 20
-1942.155803330841
 42
0.4142135623731
  0
LINE
  5
42A
330
1F
100
AcDbEntity
  8
1-B_寸法
  6
Continuous
 62
   120
370
     5
100
AcDbLine
 10
-158.2598649220975
 20
-2240.655803330841
 30
0.0
 11
-158.2598649220975
 21
-1940.655803330841
 31
0.0
  0
MTEXT
  5
42B
330
1F
100
AcDbEntity
  8
1-B_寸法
  6
Continuous
 62
     7
370
   211
100
AcDbMText
 10
-173.2598649220975
 20
-2107.336866719253
 30
0.0
 40
91.44000000000064
 41
120.0000000000009
 46
0.0
 71
     7
 72
     1
  1
{\fＭＳ ゴシック|b0|i0|c128|p49;20}
 11
6.123031769111886E-17
 21
1.0
 31
0.0
 73
     1
 44
1.0
  0
ARC
  5
42C
330
1F
100
AcDbEntity
  8
1-7_金物
  6
Continuous
 62
    92
370
    13
100
AcDbCircle
 10
272.4203317558803
 20
-2195.655803330841
 30
0.0
 40
45.0
100
AcDbArc
 50
270.0
 51
0.0
  0
LINE
  5
42D
330
1F
100
AcDbEntity
  8
1-7_金物
  6
Continuous
 62
    92
370
    13
100
AcDbLine
 10
317.4203317558795
 20
-2195.655803330841
 30
0.0
 11
317.4203317558795
 21
-1940.655803330841
 31
0.0
  0
LINE
  5
42E
330
1F
100
AcDbEntity
  8
1-7_金物
  6
Continuous
 62
    92
370
    13
100
AcDbLine
 10
272.4203317558803
 20
-2240.655803330841
 30
0.0
 11
47.42033175585647
 21
-2240.655803330841
 31
0.0
  0
LINE
  5
42F
330
1F
100
AcDbEntity
  8
1-7_金物
  6
Continuous
 62
    92
370
    13
100
AcDbLine
 10
272.4203317558803
 20
-1940.655803330841
 30
0.0
 11
272.4203317558803
 21
-2195.655803330841
 31
0.0
  0
LINE
  5
430
330
1F
100
AcDbEntity
  8
1-7_金物
  6
Continuous
 62
    92
370
    13
100
AcDbLine
 10
272.4203317558803
 20
-1940.655803330841
 30
0.0
 11
317.4203317558795
 21
-1940.655803330841
 31
0.0
  0
LINE
  5
431
330
1F
100
AcDbEntity
  8
1-7_金物
  6
Continuous
 62
    92
370
    13
100
AcDbLine
 10
47.42033175585647
 20
-2195.655803330841
 30
0.0
 11
272.4203317558803
 21
-2195.655803330841
 31
0.0
  0
LINE
  5
432
330
1F
100
AcDbEntity
  8
1-7_金物
  6
Continuous
 62
    92
370
    13
100
AcDbLine
 10
47.42033175585647
 20
-2195.655803330841
 30
0.0
 11
47.42033175585647
 21
-2240.655803330841
 31
0.0
  0
LINE
  5
433
330
1F
100
AcDbEntity
  8
1-7_金物
  6
Continuous
 62
   120
370
     5
100
AcDbLine
 10
47.42033175585647
 20
-2217.891728547671
 30
0.0
 11
69.65476425450447
 21
-2195.657296049023
 31
0.0
  0
LINE
  5
434
330
1F
100
AcDbEntity
  8
1-7_金物
  6
Continuous
 62
   120
370
     5
100
AcDbLine
 10
272.4203317558778
 20
-1992.891728547658
 30
0.0
 11
317.4203317558965
 21
-1947.891728547635
 31
0.0
  0
LINE
  5
435
330
1F
100
AcDbEntity
  8
1-7_金物
  6
Continuous
 62
   120
370
     5
100
AcDbLine
 10
272.4203317558948
 20
-2056.531338854519
 30
0.0
 11
317.4203317559051
 21
-2011.531338854506
 31
0.0
  0
LINE
  5
436
330
1F
100
AcDbEntity
  8
1-7_金物
  6
Continuous
 62
   120
370
     5
100
AcDbLine
 10
88.29586727956837
 20
-2240.655803330847
 30
0.0
 11
133.2943745613437
 21
-2195.657296049068
 31
0.0
  0
LINE
  5
437
330
1F
100
AcDbEntity
  8
1-7_金物
  6
Continuous
 62
   120
370
     5
100
AcDbLine
 10
272.4203317558693
 20
-2120.170949161286
 30
0.0
 11
317.420331755888
 21
-2075.170949161271
 31
0.0
  0
LINE
  5
438
330
1F
100
AcDbEntity
  8
1-7_金物
  6
Continuous
 62
   120
370
     5
100
AcDbLine
 10
151.9354775863223
 20
-2240.655803330838
 30
0.0
 11
196.9339848681062
 21
-2195.657296049042
 31
0.0
  0
LINE
  5
439
330
1F
100
AcDbEntity
  8
1-7_金物
  6
Continuous
 62
   120
370
     5
100
AcDbLine
 10
272.4203317558437
 20
-2183.810559468048
 30
0.0
 11
317.4203317558795
 21
-2138.810559468025
 31
0.0
  0
LINE
  5
43A
330
1F
100
AcDbEntity
  8
1-7_金物
  6
Continuous
 62
   120
370
     5
100
AcDbLine
 10
215.5750878930763
 20
-2240.655803330817
 30
0.0
 11
260.5735951748858
 21
-2195.657296049016
 31
0.0
  0
LINE
  5
43B
330
1F
100
AcDbEntity
  8
1-7_金物
  6
Continuous
 62
   120
370
     5
100
AcDbLine
 10
279.8261467344122
 20
-2240.044354796379
 30
0.0
 11
316.8203255723984
 21
-2203.050175958384
 31
0.0
  0
LINE
  5
43C
330
1F
100
AcDbEntity
  8
1-B_寸法
  6
Continuous
 62
   120
370
     5
100
AcDbLine
 10
-158.2598649220975
 20
-2240.655803330841
 30
0.0
 11
-65.0818283164395
 21
-2240.655803330841
 31
0.0
  0
LWPOLYLINE
  5
43D
330
1F
100
AcDbEntity
  8
1-B_寸法
  6
Continuous
 62
     7
370
     9
100
AcDbPolyline
 90
        4
 70
     1
 43
3.0
 10
-156.7598649220975
 20
-2240.655803330841
 42
0.4142135623731
 10
-158.2598649220975
 20
-2239.155803330841
 42
0.4142135623731
 10
-159.7598649220975
 20
-2240.655803330841
 42
0.4142135623731
 10
-158.2598649220975
 20
-2242.155803330841
 42
0.4142135623731
  0
MTEXT
  5
43E
330
1F
100
AcDbEntity
  8
1-B_寸法
  6
Continuous
 62
     7
370
   211
100
AcDbMText
 10
879.9181716835622
 20
-2404.935803330841
 30
0.0
 40
91.44
 41
120.0
 46
0.0
 71
     7
 72
     1
  1
{\fＭＳ ゴシック|b0|i0|c128|p49;12}
 11
6.123031769111886E-17
 21
1.0
 31
0.0
 73
     1
 44
1.0
  0
MTEXT
  5
43F
330
1F
100
AcDbEntity
  8
1-B_寸法
  6
Continuous
 62
     7
370
   211
100
AcDbMText
 10
729.9181716835622
 20
-2262.435803330842
 30
0.0
 40
91.44
 41
60.0
 46
0.0
 71
     7
 72
     1
  1
{\fＭＳ ゴシック|b0|i0|c128|p49;3}
 11
6.123031769111886E-17
 21
1.0
 31
0.0
 73
     1
 44
1.0
  0
MTEXT
  5
440
330
1F
100
AcDbEntity
  8
1-B_寸法
  6
Continuous
 62
     7
370
   211
100
AcDbMText
 10
729.9181716835622
 20
-2116.376364289659
 30
0.0
 40
91.44
 41
180.0
 46
0.0
 71
     7
 72
     1
  1
{\fＭＳ ゴシック|b0|i0|c128|p49;5.5}
 11
6.123031769111886E-17
 21
1.0
 31
0.0
 73
     1
 44
1.0
  0
MTEXT
  5
441
330
1F
100
AcDbEntity
  8
1-B_寸法
  6
Continuous
 62
     7
370
   211
100
AcDbMText
 10
879.9181716835622
 20
-2114.224921595812
 30
0.0
 40
91.43999999999988
 41
179.9999999999998
 46
0.0
 71
     7
 72
     1
  1
{\fＭＳ ゴシック|b0|i0|c128|p49;8.5}
 11
6.123031769111886E-17
 21
1.0
 31
0.0
 73
     1
 44
1.0
  0
MTEXT
  5
442
330
1F
100
AcDbEntity
  8
1-B_寸法
  6
Continuous
 62
     7
370
   211
100
AcDbMText
 10
112.0381555523753
 20
-823.9588920769502
 30
0.0
 40
99.06
 41
195.0
 46
0.0
 71
     7
 72
     1
  1
{\fＭＳ ゴシック|b0|i0|c128|p49;6.5}
 73
     1
 44
1.0
  0
MTEXT
  5
443
330
1F
100
AcDbEntity
  8
1-B_寸法
  6
Continuous
 62
     7
370
   211
100
AcDbMText
 10
-653.8318283164174
 20
-824.9113920769502
 30
0.0
 40
97.15499999999999
 41
127.5
 46
0.0
 71
     7
 72
     1
  1
{\fＭＳ ゴシック|b0|i0|c128|p49;75}
 73
     1
 44
1.0
  0
MTEXT
  5
444
330
1F
100
AcDbEntity
  8
1-B_寸法
  6
Continuous
 62
     7
370
   211
100
AcDbMText
 10
-87.58182831642074
 20
-643.9588920769502
 30
0.0
 40
99.06
 41
195.0
 46
0.0
 71
     7
 72
     1
  1
{\fＭＳ ゴシック|b0|i0|c128|p49;155}
 73
     1
 44
1.0
  0
LINE
  5
445
330
1F
100
AcDbEntity
  8
1-4_枠
  6
Continuous
 62
    92
370
    13
100
AcDbLine
 10
-27.58182831641733
 20
-435.9103996823004
 30
0.0
 11
-27.58182831641733
 21
-2240.655803330838
 31
0.0
  0
LINE
  5
446
330
1F
100
AcDbEntity
  8
1-B_寸法
  6
Continuous
 62
   120
370
     5
100
AcDbLine
 10
-1152.581828316417
 20
-648.4888920769502
 30
0.0
 11
1172.418171683583
 21
-648.4888920769502
 31
0.0
  0
LINE
  5
447
330
1F
100
AcDbEntity
  8
0-A_文字
  6
Continuous
 62
    92
370
    13
100
AcDbLine
 10
-1625.081828316416
 20
-2763.000403945531
 30
0.0
 11
-1625.081828316416
 21
56.99980204812043
 31
0.0
  0
LWPOLYLINE
  5
448
330
1F
100
AcDbEntity
  8
1-B_寸法
  6
Continuous
 62
     7
370
     9
100
AcDbPolyline
 90
        4
 70
     1
 43
3.0
 10
-1151.081828316417
 20
-648.4888920769502
 42
0.4142135623731
 10
-1152.581828316417
 20
-646.9888920769502
 42
0.4142135623731
 10
-1154.081828316417
 20
-648.4888920769502
 42
0.4142135623731
 10
-1152.581828316417
 20
-649.9888920769502
 42
0.4142135623731
  0
MTEXT
  5
449
330
1F
100
AcDbEntity
  8
1-A_文字
  6
Continuous
 62
     7
370
     9
100
AcDbMText
 10
-1152.581828316417
 20
-2404.935803330837
 30
0.0
 40
91.44
 41
480.0
 46
0.0
 71
     7
 72
     1
  1
{\fＭＳ ゴシック|b0|i0|c128|p49;フロアー}
 73
     1
 44
1.0
  0
LINE
  5
44A
330
1F
100
AcDbEntity
  8
1-1_通り芯
  6
JWW_CENTER1
 62
   120
370
     5
100
AcDbLine
 10
9.91817168358267
 20
-407.1136554613714
 30
0.0
 11
9.91817168358267
 21
-2554.737142997823
 31
0.0
  0
MTEXT
  5
44B
330
1F
100
AcDbEntity
  8
1-A_文字
  6
Continuous
 62
     7
370
     9
100
AcDbMText
 10
249.9181716835827
 20
-1070.348831483502
 30
0.0
 40
91.44
 41
360.0
 46
0.0
 71
     7
 72
     1
  1
{\f@ＭＳ ゴシック|b0|i0|c128|p49;引き戸}
 11
-1.836909530733566E-16
 21
-1.0
 31
0.0
 73
     1
 44
1.0
  0
LINE
  5
44C
330
1F
100
AcDbEntity
  8
1-6_扉
  6
JWW_DASHED2
 62
     7
370
     9
100
AcDbLine
 10
69.9181716835622
 20
-435.9103996823004
 30
0.0
 11
69.9181716835622
 21
-2113.155803330841
 31
0.0
  0
MTEXT
  5
44D
330
1F
100
AcDbEntity
  8
1-A_文字
  6
Continuous
 62
     7
370
     9
100
AcDbMText
 10
-650.0818283164174
 20
-1070.348831483502
 30
0.0
 40
91.44
 41
360.0
 46
0.0
 71
     7
 72
     1
  1
{\f@ＭＳ ゴシック|b0|i0|c128|p49;中方立}
 11
-1.836909530733566E-16
 21
-1.0
 31
0.0
 73
     1
 44
1.0
  0
MTEXT
  5
44E
330
1F
100
AcDbEntity
  8
1-A_文字
  6
Continuous
 62
     7
370
     9
100
AcDbMText
 10
-230.0818283164173
 20
-421.3936554613714
 30
0.0
 40
91.44
 41
480.0
 46
0.0
 71
     7
 72
     1
  1
{\fＭＳ ゴシック|b0|i0|c128|p49;センター}
 73
     1
 44
1.0
  0
LINE
  5
44F
330
1F
100
AcDbEntity
  8
1-0_補助線
  6
JWW_HOJO
 62
   120
370
     5
100
AcDbLine
 10
294.9181716835878
 20
-435.9103996823004
 30
0.0
 11
294.9181716835878
 21
-2420.655803330836
 31
0.0
  0
LINE
  5
450
330
1F
100
AcDbEntity
  8
1-3_仕上げ
  6
Continuous
 62
    40
370
    15
100
AcDbLine
 10
-1346.119533947855
 20
-2240.655803330838
 30
0.0
 11
1356.844512686858
 21
-2240.655803330838
 31
0.0
  0
LINE
  5
451
330
1F
100
AcDbEntity
  8
1-3_仕上げ
  6
Continuous
 62
    40
370
    15
100
AcDbLine
 10
-1346.119533947855
 20
-2420.655803330836
 30
0.0
 11
1356.844512686858
 21
-2420.655803330836
 31
0.0
  0
LINE
  5
452
330
1F
100
AcDbEntity
  8
0-A_文字
  6
Continuous
 62
    92
370
    13
100
AcDbLine
 10
-1625.081828316416
 20
-123.0001979518796
 30
0.0
 11
1644.918171683585
 21
-123.0001979518796
 31
0.0
  0
LINE
  5
453
330
1F
100
AcDbEntity
  8
0-A_文字
  6
Continuous
 62
    92
370
    13
100
AcDbLine
 10
-1625.081828316416
 20
56.99980204812043
 30
0.0
 11
1644.918171683585
 21
56.99980204812043
 31
0.0
  0
LINE
  5
454
330
1F
100
AcDbEntity
  8
0-A_文字
  6
Continuous
 62
    92
370
    13
100
AcDbLine
 10
-1625.081828316416
 20
-2763.000403945531
 30
0.0
 11
1644.918171683585
 21
-2763.000403945531
 31
0.0
  0
LINE
  5
455
330
1F
100
AcDbEntity
  8
0-A_文字
  6
Continuous
 62
    92
370
    13
100
AcDbLine
 10
1644.918171683585
 20
56.99980204812043
 30
0.0
 11
1644.918171683585
 21
-2763.000403945531
 31
0.0
  0
LINE
  5
456
330
1F
100
AcDbEntity
  8
1-4_枠
  6
Continuous
 62
    92
370
    13
100
AcDbLine
 10
1172.418171683583
 20
-435.9103996823004
 30
0.0
 11
1172.418171683583
 21
-2240.655803330838
 31
0.0
  0
LWPOLYLINE
  5
457
330
1F
100
AcDbEntity
  8
1-B_寸法
  6
Continuous
 62
     7
370
     9
100
AcDbPolyline
 90
        4
 70
     1
 43
3.0
 10
1173.918171683583
 20
-648.4888920769502
 42
0.4142135623731
 10
1172.418171683583
 20
-646.9888920769502
 42
0.4142135623731
 10
1170.918171683583
 20
-648.4888920769502
 42
0.4142135623731
 10
1172.418171683583
 20
-649.9888920769502
 42
0.4142135623731
  0
LINE
  5
458
330
1F
100
AcDbEntity
  8
1-4_枠
  6
Continuous
 62
    92
370
    13
100
AcDbLine
 10
-1152.581828316417
 20
-435.9103996823004
 30
0.0
 11
-1152.581828316417
 21
-2240.655803330838
 31
0.0
  0
LINE
  5
459
330
1F
100
AcDbEntity
  8
1-B_寸法
  6
Continuous
 62
   120
370
     5
100
AcDbLine
 10
744.9181716835622
 20
-2240.655803330842
 30
0.0
 11
744.9181716835622
 21
-2195.655803330842
 31
0.0
  0
LWPOLYLINE
  5
45A
330
1F
100
AcDbEntity
  8
1-B_寸法
  6
Continuous
 62
     7
370
     9
100
AcDbPolyline
 90
        4
 70
     1
 43
3.0
 10
746.4181716835623
 20
-2240.655803330842
 42
0.4142135623731
 10
744.9181716835622
 20
-2239.155803330842
 42
0.4142135623731
 10
743.4181716835622
 20
-2240.655803330842
 42
0.4142135623731
 10
744.9181716835622
 20
-2242.155803330842
 42
0.4142135623731
  0
LWPOLYLINE
  5
45B
330
1F
100
AcDbEntity
  8
1-B_寸法
  6
Continuous
 62
     7
370
     9
100
AcDbPolyline
 90
        4
 70
     1
 43
3.0
 10
746.4181716835623
 20
-2195.655803330842
 42
0.4142135623731
 10
744.9181716835622
 20
-2194.155803330842
 42
0.4142135623731
 10
743.4181716835622
 20
-2195.655803330842
 42
0.4142135623731
 10
744.9181716835622
 20
-2197.155803330842
 42
0.4142135623731
  0
LINE
  5
45C
330
1F
100
AcDbEntity
  8
1-B_寸法
  6
Continuous
 62
   120
370
     5
100
AcDbLine
 10
744.9181716835622
 20
-2195.655803330842
 30
0.0
 11
594.9181716835622
 21
-2195.655803330842
 31
0.0
  0
LWPOLYLINE
  5
45D
330
1F
100
AcDbEntity
  8
1-B_寸法
  6
Continuous
 62
     7
370
     9
100
AcDbPolyline
 90
        4
 70
     1
 43
3.0
 10
746.4181716835623
 20
-2113.155803330841
 42
0.4142135623731
 10
744.9181716835622
 20
-2111.655803330841
 42
0.4142135623731
 10
743.4181716835622
 20
-2113.155803330841
 42
0.4142135623731
 10
744.9181716835622
 20
-2114.655803330841
 42
0.4142135623731
  0
LINE
  5
45E
330
1F
100
AcDbEntity
  8
1-B_寸法
  6
Continuous
 62
   120
370
     5
100
AcDbLine
 10
894.9181716835622
 20
-2420.655803330841
 30
0.0
 11
894.9181716835622
 21
-2240.655803330842
 31
0.0
  0
LWPOLYLINE
  5
45F
330
1F
100
AcDbEntity
  8
1-B_寸法
  6
Continuous
 62
     7
370
     9
100
AcDbPolyline
 90
        4
 70
     1
 43
3.0
 10
896.4181716835623
 20
-2420.655803330841
 42
0.4142135623731
 10
894.9181716835622
 20
-2419.155803330841
 42
0.4142135623731
 10
893.4181716835622
 20
-2420.655803330841
 42
0.4142135623731
 10
894.9181716835622
 20
-2422.155803330841
 42
0.4142135623731
  0
LWPOLYLINE
  5
460
330
1F
100
AcDbEntity
  8
1-B_寸法
  6
Continuous
 62
     7
370
     9
100
AcDbPolyline
 90
        4
 70
     1
 43
3.0
 10
896.4181716835623
 20
-2240.655803330842
 42
0.4142135623731
 10
894.9181716835622
 20
-2239.155803330842
 42
0.4142135623731
 10
893.4181716835622
 20
-2240.655803330842
 42
0.4142135623731
 10
894.9181716835622
 20
-2242.155803330842
 42
0.4142135623731
  0
LINE
  5
461
330
1F
100
AcDbEntity
  8
1-B_寸法
  6
Continuous
 62
   120
370
     5
100
AcDbLine
 10
894.9181716835622
 20
-2420.655803330841
 30
0.0
 11
594.9181716835622
 21
-2420.655803330841
 31
0.0
  0
LINE
  5
462
330
1F
100
AcDbEntity
  8
1-B_寸法
  6
Continuous
 62
   120
370
     5
100
AcDbLine
 10
894.9181716835622
 20
-2240.655803330842
 30
0.0
 11
594.9181716835622
 21
-2240.655803330842
 31
0.0
  0
LWPOLYLINE
  5
463
330
1F
100
AcDbEntity
  8
1-B_寸法
  6
Continuous
 62
     7
370
     9
100
AcDbPolyline
 90
        4
 70
     1
 43
3.0
 10
896.4181716835623
 20
-2113.155803330841
 42
0.4142135623731
 10
894.9181716835622
 20
-2111.655803330841
 42
0.4142135623731
 10
893.4181716835622
 20
-2113.155803330841
 42
0.4142135623731
 10
894.9181716835622
 20
-2114.655803330841
 42
0.4142135623731
  0
LINE
  5
464
330
1F
100
AcDbEntity
  8
1-B_寸法
  6
Continuous
 62
   120
370
     5
100
AcDbLine
 10
894.9181716835622
 20
-2113.155803330841
 30
0.0
 11
594.9181716835622
 21
-2113.155803330841
 31
0.0
  0
LINE
  5
465
330
1F
100
AcDbEntity
  8
1-B_寸法
  6
Continuous
 62
   120
370
     5
100
AcDbLine
 10
744.9181716835622
 20
-2195.655803330842
 30
0.0
 11
744.9181716835622
 21
-1922.096364289659
 31
0.0
  0
LINE
  5
466
330
1F
100
AcDbEntity
  8
1-B_寸法
  6
Continuous
 62
   120
370
     5
100
AcDbLine
 10
894.9181716835622
 20
-2240.655803330842
 30
0.0
 11
894.9181716835622
 21
-1922.096364289659
 31
0.0
  0
LINE
  5
467
330
1F
100
AcDbEntity
  8
1-B_寸法
  6
Continuous
 62
   120
370
     5
100
AcDbLine
 10
-1152.581828316417
 20
-828.4888920769502
 30
0.0
 11
-27.58182831641733
 21
-828.4888920769502
 31
0.0
  0
LWPOLYLINE
  5
468
330
1F
100
AcDbEntity
  8
1-B_寸法
  6
Continuous
 62
     7
370
     9
100
AcDbPolyline
 90
        4
 70
     1
 43
3.0
 10
-1151.081828316417
 20
-828.4888920769502
 42
0.4142135623731
 10
-1152.581828316417
 20
-826.9888920769502
 42
0.4142135623731
 10
-1154.081828316417
 20
-828.4888920769502
 42
0.4142135623731
 10
-1152.581828316417
 20
-829.9888920769502
 42
0.4142135623731
  0
LWPOLYLINE
  5
469
330
1F
100
AcDbEntity
  8
1-B_寸法
  6
Continuous
 62
     7
370
     9
100
AcDbPolyline
 90
        4
 70
     1
 43
3.0
 10
-26.08182831641733
 20
-828.4888920769502
 42
0.4142135623731
 10
-27.58182831641733
 20
-826.9888920769502
 42
0.4142135623731
 10
-29.08182831641733
 20
-828.4888920769502
 42
0.4142135623731
 10
-27.58182831641733
 20
-829.9888920769502
 42
0.4142135623731
  0
LINE
  5
46A
330
1F
100
AcDbEntity
  8
1-B_寸法
  6
Continuous
 62
   120
370
     5
100
AcDbLine
 10
-1152.581828316417
 20
-828.4888920769502
 30
0.0
 11
-1152.581828316417
 21
-978.4888920769502
 31
0.0
  0
LINE
  5
46B
330
1F
100
AcDbEntity
  8
1-B_寸法
  6
Continuous
 62
   120
370
     5
100
AcDbLine
 10
-27.58182831641733
 20
-828.4888920769502
 30
0.0
 11
-27.58182831641733
 21
-978.4888920769502
 31
0.0
  0
LINE
  5
46C
330
1F
100
AcDbEntity
  8
1-B_寸法
  6
Continuous
 62
   120
370
     5
100
AcDbLine
 10
-27.58182831641733
 20
-828.4888920769502
 30
0.0
 11
69.9181716835622
 21
-828.4888920769502
 31
0.0
  0
LWPOLYLINE
  5
46D
330
1F
100
AcDbEntity
  8
1-B_寸法
  6
Continuous
 62
     7
370
     9
100
AcDbPolyline
 90
        4
 70
     1
 43
3.0
 10
71.4181716835622
 20
-828.4888920769502
 42
0.4142135623731
 10
69.9181716835622
 20
-826.9888920769502
 42
0.4142135623731
 10
68.4181716835622
 20
-828.4888920769502
 42
0.4142135623731
 10
69.9181716835622
 20
-829.9888920769502
 42
0.4142135623731
  0
LINE
  5
46E
330
1F
100
AcDbEntity
  8
1-B_寸法
  6
Continuous
 62
   120
370
     5
100
AcDbLine
 10
69.9181716835622
 20
-828.4888920769502
 30
0.0
 11
69.9181716835622
 21
-978.4888920769502
 31
0.0
  0
MTEXT
  5
46F
330
1F
100
AcDbEntity
  8
0-A_文字
  6
Continuous
 62
     7
370
     9
100
AcDbMText
 10
-920.0818283164168
 20
-107.2801979518796
 30
0.0
 40
91.44000000000003
 41
1860.0
 46
0.0
 71
     7
 72
     1
  1
{\fＭＳ ゴシック|b0|i0|c128|p49;振れ止め金具取り付け位置　S=1/2}
 73
     1
 44
1.0
  0
LINE
  5
470
330
1F
100
AcDbEntity
  8
1-4_枠
  6
Continuous
 62
    92
370
    13
100
AcDbLine
 10
3820.503168147978
 20
-3207.675423701161
 30
0.0
 11
3025.503168147978
 21
-3207.675423701161
 31
0.0
  0
LINE
  5
471
330
1F
100
AcDbEntity
  8
1-4_枠
  6
Continuous
 62
    92
370
    13
100
AcDbLine
 10
3820.503168147978
 20
-2757.675423701151
 30
0.0
 11
3025.503168147978
 21
-2757.675423701151
 31
0.0
  0
LINE
  5
472
330
1F
100
AcDbEntity
  8
1-3_仕上げ
  6
Continuous
 62
    40
370
    15
100
AcDbLine
 10
3138.004714260247
 20
-2757.675423701151
 30
0.0
 11
3138.004714260247
 21
-2253.977273196841
 31
0.0
  0
LINE
  5
473
330
1F
100
AcDbEntity
  8
1-4_枠
  6
Continuous
 62
    92
370
    13
100
AcDbLine
 10
3063.003168147978
 20
-2892.675423701141
 30
0.0
 11
3025.503168147978
 21
-2892.675423701141
 31
0.0
  0
LINE
  5
474
330
1F
100
AcDbEntity
  8
1-4_枠
  6
Continuous
 62
    92
370
    13
100
AcDbLine
 10
3063.003168147978
 20
-3072.675423701148
 30
0.0
 11
3063.003168147978
 21
-2892.675423701141
 31
0.0
  0
LINE
  5
475
330
1F
100
AcDbEntity
  8
1-4_枠
  6
Continuous
 62
    92
370
    13
100
AcDbLine
 10
3063.003168147978
 20
-3072.675423701148
 30
0.0
 11
3025.503168147978
 21
-3072.675423701148
 31
0.0
  0
LINE
  5
476
330
1F
100
AcDbEntity
  8
1-4_枠
  6
Continuous
 62
    92
370
    13
100
AcDbLine
 10
3025.503168147978
 20
-2892.675423701141
 30
0.0
 11
3025.503168147978
 21
-2757.675423701151
 31
0.0
  0
LINE
  5
477
330
1F
100
AcDbEntity
  8
1-4_枠
  6
Continuous
 62
    92
370
    13
100
AcDbLine
 10
3025.503168147978
 20
-3072.675423701148
 30
0.0
 11
3025.503168147978
 21
-3207.675423701161
 31
0.0
  0
MTEXT
  5
478
330
1F
100
AcDbEntity
  8
1-B_寸法
  6
Continuous
 62
     7
370
   211
100
AcDbMText
 10
2812.694270977991
 20
-3408.720999593194
 30
0.0
 40
91.44
 41
60.0
 46
0.0
 71
     7
 72
     1
  1
{\fＭＳ ゴシック|b0|i0|c128|p49;5}
 73
     1
 44
1.0
  0
MTEXT
  5
479
330
1F
100
AcDbEntity
  8
1-B_寸法
  6
Continuous
 62
     7
370
   211
100
AcDbMText
 10
2513.205970855313
 20
-3056.955423701162
 30
0.0
 40
91.44
 41
120.0
 46
0.0
 71
     7
 72
     1
  1
{\fＭＳ ゴシック|b0|i0|c128|p49;30}
 11
6.123031769111886E-17
 21
1.0
 31
0.0
 73
     1
 44
1.0
  0
MTEXT
  5
47A
330
1F
100
AcDbEntity
  8
1-B_寸法
  6
Continuous
 62
     7
370
   211
100
AcDbMText
 10
2789.253168147978
 20
-2711.955423701162
 30
0.0
 40
91.44
 41
120.0
 46
0.0
 71
     7
 72
     1
  1
{\fＭＳ ゴシック|b0|i0|c128|p49;15}
 73
     1
 44
1.0
  0
MTEXT
  5
47B
330
1F
100
AcDbEntity
  8
1-B_寸法
  6
Continuous
 62
     7
370
   211
100
AcDbMText
 10
2611.113232462395
 20
-2711.955423701162
 30
0.0
 40
91.44
 41
60.0
 46
0.0
 71
     7
 72
     1
  1
{\fＭＳ ゴシック|b0|i0|c128|p49;3}
 73
     1
 44
1.0
  0
MTEXT
  5
47C
330
1F
100
AcDbEntity
  8
1-B_寸法
  6
Continuous
 62
     7
370
   211
100
AcDbMText
 10
2755.503168147978
 20
-2459.308182171148
 30
0.0
 40
91.44
 41
120.0
 46
0.0
 71
     7
 72
     1
  1
{\fＭＳ ゴシック|b0|i0|c128|p49;18}
 73
     1
 44
1.0
  0
MTEXT
  5
47D
330
1F
100
AcDbEntity
  8
1-A_文字
  6
Continuous
 62
     7
370
     9
100
AcDbMText
 10
3001.715727839912
 20
-2674.759439645288
 30
0.0
 40
68.58000000000004
 41
810.0000000000005
 46
0.0
 71
     7
 72
     1
  1
{\fＭＳ ゴシック|b0|i0|c128|p49;振れ止め金具(床用)}
 73
     1
 44
1.0
  0
MTEXT
  5
47E
330
1F
100
AcDbEntity
  8
0-B_寸法
  6
Continuous
 62
     7
370
     9
100
AcDbMText
 10
3375.592236330563
 20
-2200.30191882
 30
0.0
 40
68.58
 41
540.0
 46
0.0
 71
     7
 72
     1
  1
{\fＭＳ ゴシック|b0|i0|c128|p49;　場合です。}
 73
     1
 44
1.0
  0
MTEXT
  5
47F
330
1F
100
AcDbEntity
  8
0-B_寸法
  6
Continuous
 62
     7
370
     9
100
AcDbMText
 10
3375.592236330563
 20
-2088.815648464792
 30
0.0
 40
68.58000000000001
 41
765.0
 46
0.0
 71
     7
 72
     1
  1
{\fＭＳ ゴシック|b0|i0|c128|p49;※図は左引き(L)の}
 73
     1
 44
1.0
  0
MTEXT
  5
480
330
1F
100
AcDbEntity
  8
0-B_寸法
  6
Continuous
 62
     7
370
   211
100
AcDbMText
 10
2411.187989544053
 20
-1995.509396712656
 30
0.0
 40
91.44
 41
720.0
 46
0.0
 71
     7
 72
     1
  1
{\fＭＳ ゴシック|b0|i0|c128|p49;15(中方立芯)}
 73
     1
 44
1.0
  0
MTEXT
  5
481
330
1F
100
AcDbEntity
  8
0-B_寸法
  6
Continuous
 62
     7
370
   211
100
AcDbMText
 10
3507.652363795844
 20
-1838.23140530424
 30
0.0
 40
91.44
 41
60.0
 46
0.0
 71
     7
 72
     1
  1
{\fＭＳ ゴシック|b0|i0|c128|p49;5}
 73
     1
 44
1.0
  0
MTEXT
  5
482
330
1F
100
AcDbEntity
  8
0-B_寸法
  6
Continuous
 62
     7
370
     9
100
AcDbMText
 10
2319.408699968229
 20
-1144.715119461864
 30
0.0
 40
68.58
 41
450.0
 46
0.0
 71
     7
 72
     1
  1
{\fＭＳ ゴシック|b0|i0|c128|p49;ビス(同梱)}
 73
     1
 44
1.0
  0
MTEXT
  5
483
330
1F
100
AcDbEntity
  8
0-A_文字
  6
Continuous
 62
     7
370
     9
100
AcDbMText
 10
3288.003168147978
 20
-3038.385423701161
 30
0.0
 40
68.57999999999998
 41
270.0
 46
0.0
 71
     7
 72
     1
  1
{\fＭＳ ゴシック|b0|i0|c128|p49;中方立}
 73
     1
 44
1.0
  0
MTEXT
  5
484
330
1F
100
AcDbEntity
  8
0-A_文字
  6
Continuous
 62
     7
370
     9
100
AcDbMText
 10
3468.003168147979
 20
-2399.434382330857
 30
0.0
 40
68.57999999999902
 41
179.9999999999974
 46
0.0
 71
     7
 72
     1
  1
{\fＭＳ ゴシック|b0|i0|c128|p49;小壁}
 73
     1
 44
1.0
  0
MTEXT
  5
485
330
1F
100
AcDbEntity
  8
0-A_文字
  6
Continuous
 62
     7
370
     9
100
AcDbMText
 10
2125.454947628016
 20
-2354.844841928894
 30
0.0
 40
68.58000000000011
 41
270.0000000000005
 46
0.0
 71
     7
 72
     1
  1
{\fＭＳ ゴシック|b0|i0|c128|p49;平面図}
 73
     1
 44
1.0
  0
MTEXT
  5
486
330
1F
100
AcDbEntity
  8
0-A_文字
  6
Continuous
 62
     7
370
     9
100
AcDbMText
 10
3420.179417290001
 20
-996.651059036362
 30
0.0
 40
68.57999999999944
 41
269.9999999999978
 46
0.0
 71
     7
 72
     1
  1
{\fＭＳ ゴシック|b0|i0|c128|p49;中方立}
 73
     1
 44
1.0
  0
MTEXT
  5
487
330
1F
100
AcDbEntity
  8
0-A_文字
  6
Continuous
 62
     7
370
     9
100
AcDbMText
 10
2579.726544445413
 20
-807.965534909905
 30
0.0
 40
68.58
 41
180.0
 46
0.0
 71
     7
 72
     1
  1
{\fＭＳ ゴシック|b0|i0|c128|p49;小壁}
 73
     1
 44
1.0
  0
MTEXT
  5
488
330
1F
100
AcDbEntity
  8
0-A_文字
  6
Continuous
 62
     7
370
     9
100
AcDbMText
 10
2051.072834814706
 20
-415.6819117621961
 30
0.0
 40
68.58
 41
1260.0
 46
0.0
 71
     7
 72
     1
  1
{\fＭＳ ゴシック|b0|i0|c128|p49;下記のように床へ取り付けます}
 73
     1
 44
1.0
  0
MTEXT
  5
489
330
1F
100
AcDbEntity
  8
0-A_文字
  6
Continuous
 62
     7
370
     9
100
AcDbMText
 10
2051.072834814706
 20
-310.4650800606435
 30
0.0
 40
68.58
 41
1080.0
 46
0.0
 71
     7
 72
     1
  1
{\fＭＳ ゴシック|b0|i0|c128|p49;振れ止め金具(床付け用)を}
 73
     1
 44
1.0
  0
MTEXT
  5
48A
330
1F
100
AcDbEntity
  8
0-A_文字
  6
Continuous
 62
     7
370
     9
100
AcDbMText
 10
2155.755887660636
 20
-107.2801979518796
 30
0.0
 40
91.43999999999998
 41
1800.0
 46
0.0
 71
     7
 72
     1
  1
{\fＭＳ ゴシック|b0|i0|c128|p49;振れ止め金具(床付け用)取り付け}
 73
     1
 44
1.0
  0
LINE
  5
48B
330
1F
100
AcDbEntity
  8
0-A_文字
  6
Continuous
 62
    92
370
    13
100
AcDbLine
 10
1937.619448392749
 20
-123.0001979518796
 30
0.0
 11
4173.892326928524
 21
-123.0001979518796
 31
0.0
  0
LINE
  5
48C
330
1F
100
AcDbEntity
  8
0-A_文字
  6
Continuous
 62
    92
370
    13
100
AcDbLine
 10
1937.619448392749
 20
56.99980204812043
 30
0.0
 11
4173.892326928524
 21
56.99980204812043
 31
0.0
  0
LINE
  5
48D
330
1F
100
AcDbEntity
  8
1-4_枠
  6
JWW_CENTER1
 62
   120
370
     5
100
AcDbLine
 10
3262.714948928215
 20
-2982.675423701161
 30
0.0
 11
2625.278852231457
 21
-2982.675423701161
 31
0.0
  0
LINE
  5
48E
330
1F
100
AcDbEntity
  8
1-4_枠
  6
JWW_CENTER1
 62
   120
370
     5
100
AcDbLine
 10
3820.503168147978
 20
-2982.675423701161
 30
0.0
 11
3566.042004797644
 21
-2982.675423701161
 31
0.0
  0
LINE
  5
48F
330
1F
100
AcDbEntity
  8
0-6_扉
  6
Continuous
 62
    40
370
    15
100
AcDbLine
 10
3173.341755449258
 20
-1453.039352286736
 30
0.0
 11
3072.579039130177
 21
-1394.863970895636
 31
0.0
  0
LINE
  5
490
330
1F
100
AcDbEntity
  8
1-4_枠
  6
JWW_CENTER1
 62
   120
370
     5
100
AcDbLine
 10
2838.003168147978
 20
-2757.675423701161
 30
0.0
 11
2838.003168147978
 21
-3207.675423701161
 31
0.0
  0
LINE
  5
491
330
1F
100
AcDbEntity
  8
1-B_寸法
  6
Continuous
 62
   120
370
     5
100
AcDbLine
 10
2611.113232462395
 20
-2562.675423701161
 30
0.0
 11
2725.503168147978
 21
-2562.675423701161
 31
0.0
  0
LINE
  5
492
330
1F
100
AcDbEntity
  8
1-B_寸法
  6
Continuous
 62
   120
370
     5
100
AcDbLine
 10
2950.503168147978
 20
-2562.675423701161
 30
0.0
 11
2950.503168147978
 21
-2682.675423701161
 31
0.0
  0
LWPOLYLINE
  5
493
330
1F
100
AcDbEntity
  8
1-B_寸法
  6
Continuous
 62
     7
370
     9
100
AcDbPolyline
 90
        4
 70
     1
 43
3.0
 10
2952.003168147978
 20
-2562.675423701161
 42
0.4142135623731
 10
2950.503168147978
 20
-2561.175423701162
 42
0.4142135623731
 10
2949.003168147978
 20
-2562.675423701161
 42
0.4142135623731
 10
2950.503168147978
 20
-2564.175423701161
 42
0.4142135623731
  0
LINE
  5
494
330
1F
100
AcDbEntity
  8
1-B_寸法
  6
Continuous
 62
   120
370
     5
100
AcDbLine
 10
2725.503168147978
 20
-2562.675423701161
 30
0.0
 11
2950.503168147978
 21
-2562.675423701161
 31
0.0
  0
LINE
  5
495
330
1F
100
AcDbEntity
  8
1-B_寸法
  6
Continuous
 62
   120
370
     5
100
AcDbLine
 10
2725.503168147978
 20
-2562.675423701161
 30
0.0
 11
2725.503168147978
 21
-2682.675423701161
 31
0.0
  0
LINE
  5
496
330
1F
100
AcDbEntity
  8
1-B_寸法
  6
Continuous
 62
   120
370
     5
100
AcDbLine
 10
2680.503168147978
 20
-2562.675423701161
 30
0.0
 11
2680.503168147978
 21
-2682.675423701161
 31
0.0
  0
LWPOLYLINE
  5
497
330
1F
100
AcDbEntity
  8
1-B_寸法
  6
Continuous
 62
     7
370
     9
100
AcDbPolyline
 90
        4
 70
     1
 43
3.0
 10
2727.003168147978
 20
-2562.675423701161
 42
0.4142135623731
 10
2725.503168147978
 20
-2561.175423701162
 42
0.4142135623731
 10
2724.003168147978
 20
-2562.675423701161
 42
0.4142135623731
 10
2725.503168147978
 20
-2564.175423701161
 42
0.4142135623731
  0
LWPOLYLINE
  5
498
330
1F
100
AcDbEntity
  8
1-B_寸法
  6
Continuous
 62
     7
370
     9
100
AcDbPolyline
 90
        4
 70
     1
 43
3.0
 10
2682.003168147978
 20
-2562.675423701161
 42
0.4142135623731
 10
2680.503168147978
 20
-2561.175423701162
 42
0.4142135623731
 10
2679.003168147978
 20
-2562.675423701161
 42
0.4142135623731
 10
2680.503168147978
 20
-2564.175423701161
 42
0.4142135623731
  0
LINE
  5
499
330
1F
100
AcDbEntity
  8
1-B_寸法
  6
Continuous
 62
   120
370
     5
100
AcDbLine
 10
2680.503168147978
 20
-2460.028182171148
 30
0.0
 11
2680.503168147978
 21
-2562.675423701161
 31
0.0
  0
LWPOLYLINE
  5
49A
330
1F
100
AcDbEntity
  8
1-B_寸法
  6
Continuous
 62
     7
370
     9
100
AcDbPolyline
 90
        4
 70
     1
 43
3.0
 10
2682.003168147978
 20
-2460.028182171148
 42
0.4142135623731
 10
2680.503168147978
 20
-2458.528182171148
 42
0.4142135623731
 10
2679.003168147978
 20
-2460.028182171148
 42
0.4142135623731
 10
2680.503168147978
 20
-2461.528182171148
 42
0.4142135623731
  0
LINE
  5
49B
330
1F
100
AcDbEntity
  8
1-B_寸法
  6
Continuous
 62
   120
370
     5
100
AcDbLine
 10
2680.503168147978
 20
-2460.028182171148
 30
0.0
 11
2950.503168147978
 21
-2460.028182171148
 31
0.0
  0
LINE
  5
49C
330
1F
100
AcDbEntity
  8
1-B_寸法
  6
Continuous
 62
   120
370
     5
100
AcDbLine
 10
2950.503168147978
 20
-2460.028182171148
 30
0.0
 11
2950.503168147978
 21
-2562.675423701161
 31
0.0
  0
LWPOLYLINE
  5
49D
330
1F
100
AcDbEntity
  8
1-B_寸法
  6
Continuous
 62
     7
370
     9
100
AcDbPolyline
 90
        4
 70
     1
 43
3.0
 10
2952.003168147978
 20
-2460.028182171148
 42
0.4142135623731
 10
2950.503168147978
 20
-2458.528182171148
 42
0.4142135623731
 10
2949.003168147978
 20
-2460.028182171148
 42
0.4142135623731
 10
2950.503168147978
 20
-2461.528182171148
 42
0.4142135623731
  0
LINE
  5
49E
330
1F
100
AcDbEntity
  8
1-B_寸法
  6
Continuous
 62
   120
370
     5
100
AcDbLine
 10
2528.205970855313
 20
-3207.675423701161
 30
0.0
 11
2528.205970855313
 21
-2757.675423701161
 31
0.0
  0
LINE
  5
49F
330
1F
100
AcDbEntity
  8
1-B_寸法
  6
Continuous
 62
   120
370
     5
100
AcDbLine
 10
2528.205970855313
 20
-2757.675423701161
 30
0.0
 11
2625.278852231457
 21
-2757.675423701161
 31
0.0
  0
LWPOLYLINE
  5
4A0
330
1F
100
AcDbEntity
  8
1-B_寸法
  6
Continuous
 62
     7
370
     9
100
AcDbPolyline
 90
        4
 70
     1
 43
3.0
 10
2529.705970855313
 20
-2757.675423701161
 42
0.4142135623731
 10
2528.205970855313
 20
-2756.175423701162
 42
0.4142135623731
 10
2526.705970855313
 20
-2757.675423701161
 42
0.4142135623731
 10
2528.205970855313
 20
-2759.175423701161
 42
0.4142135623731
  0
LINE
  5
4A1
330
1F
100
AcDbEntity
  8
1-7_金物
  6
Continuous
 62
     7
370
     9
100
AcDbLine
 10
2815.503168147978
 20
-3057.675423701161
 30
0.0
 11
2860.503168147978
 21
-3057.675423701161
 31
0.0
  0
LINE
  5
4A2
330
1F
100
AcDbEntity
  8
1-7_金物
  6
Continuous
 62
     7
370
     9
100
AcDbLine
 10
2860.503168147978
 20
-3087.675423701161
 30
0.0
 11
2815.503168147978
 21
-3087.675423701161
 31
0.0
  0
LINE
  5
4A3
330
1F
100
AcDbEntity
  8
1-7_金物
  6
Continuous
 62
     7
370
     9
100
AcDbLine
 10
2815.503168147978
 20
-3147.675423701161
 30
0.0
 11
2860.503168147978
 21
-3147.675423701161
 31
0.0
  0
LINE
  5
4A4
330
1F
100
AcDbEntity
  8
1-7_金物
  6
Continuous
 62
     7
370
     9
100
AcDbLine
 10
2815.503168147978
 20
-3177.675423701161
 30
0.0
 11
2860.503168147978
 21
-3177.675423701161
 31
0.0
  0
LINE
  5
4A5
330
1F
100
AcDbEntity
  8
1-7_金物
  6
Continuous
 62
     7
370
     9
100
AcDbLine
 10
2860.503168147978
 20
-2907.675423701161
 30
0.0
 11
2815.503168147978
 21
-2907.675423701161
 31
0.0
  0
LINE
  5
4A6
330
1F
100
AcDbEntity
  8
1-7_金物
  6
Continuous
 62
     7
370
     9
100
AcDbLine
 10
2860.503168147978
 20
-2787.675423701161
 30
0.0
 11
2815.503168147978
 21
-2787.675423701161
 31
0.0
  0
LINE
  5
4A7
330
1F
100
AcDbEntity
  8
1-7_金物
  6
Continuous
 62
     7
370
     9
100
AcDbLine
 10
2860.503168147978
 20
-2817.675423701161
 30
0.0
 11
2815.503168147978
 21
-2817.675423701161
 31
0.0
  0
LINE
  5
4A8
330
1F
100
AcDbEntity
  8
1-7_金物
  6
Continuous
 62
     7
370
     9
100
AcDbLine
 10
2815.503168147978
 20
-2877.675423701161
 30
0.0
 11
2860.503168147978
 21
-2877.675423701161
 31
0.0
  0
ARC
  5
4A9
330
1F
100
AcDbEntity
  8
1-7_金物
  6
Continuous
 62
     7
370
     9
100
AcDbCircle
 10
2815.503168147978
 20
-3117.675423701161
 30
0.0
 40
30.0
100
AcDbArc
 50
90.0
 51
270.0
  0
ARC
  5
4AA
330
1F
100
AcDbEntity
  8
1-7_金物
  6
Continuous
 62
     7
370
     9
100
AcDbCircle
 10
2815.503168147978
 20
-3117.675423701161
 30
0.0
 40
60.0
100
AcDbArc
 50
90.0
 51
270.0
  0
ARC
  5
4AB
330
1F
100
AcDbEntity
  8
1-7_金物
  6
Continuous
 62
     7
370
     9
100
AcDbCircle
 10
2815.503168147978
 20
-2847.675423701161
 30
0.0
 40
30.0
100
AcDbArc
 50
90.0
 51
270.0
  0
ARC
  5
4AC
330
1F
100
AcDbEntity
  8
1-7_金物
  6
Continuous
 62
     7
370
     9
100
AcDbCircle
 10
2815.503168147978
 20
-2847.675423701161
 30
0.0
 40
60.0
100
AcDbArc
 50
90.0
 51
270.0
  0
ARC
  5
4AD
330
1F
100
AcDbEntity
  8
1-7_金物
  6
Continuous
 62
     7
370
     9
100
AcDbCircle
 10
2860.503168147978
 20
-3117.675423701161
 30
0.0
 40
30.0
100
AcDbArc
 50
270.0
 51
90.0
  0
ARC
  5
4AE
330
1F
100
AcDbEntity
  8
1-7_金物
  6
Continuous
 62
     7
370
     9
100
AcDbCircle
 10
2860.503168147978
 20
-2847.675423701161
 30
0.0
 40
30.0
100
AcDbArc
 50
270.0
 51
90.0
  0
ARC
  5
4AF
330
1F
100
AcDbEntity
  8
1-7_金物
  6
Continuous
 62
     7
370
     9
100
AcDbCircle
 10
2860.503168147978
 20
-2847.675423701161
 30
0.0
 40
60.0
100
AcDbArc
 50
270.0
 51
90.0
  0
ARC
  5
4B0
330
1F
100
AcDbEntity
  8
1-7_金物
  6
Continuous
 62
     7
370
     9
100
AcDbCircle
 10
2860.503168147978
 20
-3117.675423701161
 30
0.0
 40
60.0
100
AcDbArc
 50
270.0
 51
90.0
  0
LINE
  5
4B1
330
1F
100
AcDbEntity
  8
1-7_金物
  6
Continuous
 62
     7
370
     9
100
AcDbLine
 10
2755.503168147978
 20
-2757.675423701161
 30
0.0
 11
2920.503168147978
 21
-2757.675423701161
 31
0.0
  0
LINE
  5
4B2
330
1F
100
AcDbEntity
  8
1-7_金物
  6
Continuous
 62
     7
370
     9
100
AcDbLine
 10
2920.503168147978
 20
-3207.675423701161
 30
0.0
 11
2755.503168147978
 21
-3207.675423701161
 31
0.0
  0
ARC
  5
4B3
330
1F
100
AcDbEntity
  8
1-7_金物
  6
Continuous
 62
     7
370
     9
100
AcDbCircle
 10
2920.503168147978
 20
-3177.675423701161
 30
0.0
 40
30.0
100
AcDbArc
 50
270.0
 51
0.0
  0
LINE
  5
4B4
330
1F
100
AcDbEntity
  8
1-7_金物
  6
Continuous
 62
     7
370
     9
100
AcDbLine
 10
2950.503168147978
 20
-3177.675423701161
 30
0.0
 11
2950.503168147978
 21
-2787.675423701161
 31
0.0
  0
ARC
  5
4B5
330
1F
100
AcDbEntity
  8
1-7_金物
  6
Continuous
 62
     7
370
     9
100
AcDbCircle
 10
2920.503168147978
 20
-2787.675423701161
 30
0.0
 40
30.0
100
AcDbArc
 50
0.0
 51
90.0
  0
ARC
  5
4B6
330
1F
100
AcDbEntity
  8
1-7_金物
  6
Continuous
 62
     7
370
     9
100
AcDbCircle
 10
2755.503168147978
 20
-3177.675423701161
 30
0.0
 40
30.0
100
AcDbArc
 50
180.0
 51
270.0
  0
LINE
  5
4B7
330
1F
100
AcDbEntity
  8
1-7_金物
  6
Continuous
 62
     7
370
     9
100
AcDbLine
 10
2725.503168147978
 20
-3177.675423701161
 30
0.0
 11
2725.503168147978
 21
-2787.675423701161
 31
0.0
  0
ARC
  5
4B8
330
1F
100
AcDbEntity
  8
1-7_金物
  6
Continuous
 62
     7
370
     9
100
AcDbCircle
 10
2755.503168147978
 20
-2787.675423701161
 30
0.0
 40
30.0
100
AcDbArc
 50
90.0
 51
180.0
  0
ARC
  5
4B9
330
1F
100
AcDbEntity
  8
1-7_金物
  6
Continuous
 62
     7
370
     9
100
AcDbCircle
 10
2718.003168147978
 20
-2900.175423701161
 30
0.0
 40
7.5
100
AcDbArc
 50
0.0
 51
90.0
  0
LINE
  5
4BA
330
1F
100
AcDbEntity
  8
1-7_金物
  6
Continuous
 62
     7
370
     9
100
AcDbLine
 10
2718.003168147978
 20
-2892.675423701161
 30
0.0
 11
2688.003168147978
 21
-2892.675423701161
 31
0.0
  0
ARC
  5
4BB
330
1F
100
AcDbEntity
  8
1-7_金物
  6
Continuous
 62
     7
370
     9
100
AcDbCircle
 10
2718.003168147978
 20
-3065.175423701161
 30
0.0
 40
7.5
100
AcDbArc
 50
270.0
 51
0.0
  0
LINE
  5
4BC
330
1F
100
AcDbEntity
  8
1-7_金物
  6
Continuous
 62
     7
370
     9
100
AcDbLine
 10
2718.003168147978
 20
-3072.675423701161
 30
0.0
 11
2688.003168147978
 21
-3072.675423701161
 31
0.0
  0
ARC
  5
4BD
330
1F
100
AcDbEntity
  8
1-7_金物
  6
Continuous
 62
     7
370
     9
100
AcDbCircle
 10
2688.003168147978
 20
-3065.175423701161
 30
0.0
 40
7.5
100
AcDbArc
 50
180.0
 51
270.0
  0
LINE
  5
4BE
330
1F
100
AcDbEntity
  8
1-7_金物
  6
Continuous
 62
     7
370
     9
100
AcDbLine
 10
2680.503168147978
 20
-3065.175423701161
 30
0.0
 11
2680.503168147978
 21
-2900.175423701161
 31
0.0
  0
ARC
  5
4BF
330
1F
100
AcDbEntity
  8
1-7_金物
  6
Continuous
 62
     7
370
     9
100
AcDbCircle
 10
2688.003168147978
 20
-2900.175423701161
 30
0.0
 40
7.5
100
AcDbArc
 50
90.0
 51
180.0
  0
LINE
  5
4C0
330
1F
100
AcDbEntity
  8
1-B_寸法
  6
Continuous
 62
   120
370
     5
100
AcDbLine
 10
2528.205970855313
 20
-3207.675423701161
 30
0.0
 11
2625.278852231457
 21
-3207.675423701161
 31
0.0
  0
LWPOLYLINE
  5
4C1
330
1F
100
AcDbEntity
  8
1-B_寸法
  6
Continuous
 62
     7
370
     9
100
AcDbPolyline
 90
        4
 70
     1
 43
3.0
 10
2529.705970855313
 20
-3207.675423701161
 42
0.4142135623731
 10
2528.205970855313
 20
-3206.175423701162
 42
0.4142135623731
 10
2526.705970855313
 20
-3207.675423701161
 42
0.4142135623731
 10
2528.205970855313
 20
-3209.175423701161
 42
0.4142135623731
  0
LINE
  5
4C2
330
1F
100
AcDbEntity
  8
0-7_金物
  6
Continuous
 62
     7
370
     9
100
AcDbLine
 10
4059.955779574771
 20
-3475.984708650165
 30
0.0
 11
2050.804365265287
 21
-3475.984708650165
 31
0.0
  0
LWPOLYLINE
  5
4C3
330
1F
100
AcDbEntity
  8
1-B_寸法
  6
Continuous
 62
     7
370
     9
100
AcDbPolyline
 90
        4
 70
     1
 43
3.0
 10
2952.003168147978
 20
-3402.771559770676
 42
0.4142135623731
 10
2950.503168147978
 20
-3401.271559770676
 42
0.4142135623731
 10
2949.003168147978
 20
-3402.771559770676
 42
0.4142135623731
 10
2950.503168147978
 20
-3404.271559770676
 42
0.4142135623731
  0
LINE
  5
4C4
330
1F
100
AcDbEntity
  8
1-B_寸法
  6
Continuous
 62
   120
370
     5
100
AcDbLine
 10
2950.503168147978
 20
-3282.675423701161
 30
0.0
 11
2950.503168147978
 21
-3402.771559770676
 31
0.0
  0
LINE
  5
4C5
330
1F
100
AcDbEntity
  8
1-B_寸法
  6
Continuous
 62
   120
370
     5
100
AcDbLine
 10
3025.503168147978
 20
-3402.771559770676
 30
0.0
 11
2741.233742229608
 21
-3402.771559770676
 31
0.0
  0
LINE
  5
4C6
330
1F
100
AcDbEntity
  8
0-7_金物
  6
Continuous
 62
     7
370
     9
100
AcDbLine
 10
2050.804365265287
 20
-3475.984708650165
 30
0.0
 11
2050.804365265287
 21
-2215.274608983802
 31
0.0
  0
LINE
  5
4C7
330
1F
100
AcDbEntity
  8
0-7_金物
  6
Continuous
 62
     7
370
     9
100
AcDbLine
 10
4059.955779574771
 20
-2215.274608983802
 30
0.0
 11
4059.955779574771
 21
-3475.984708650165
 31
0.0
  0
LINE
  5
4C8
330
1F
100
AcDbEntity
  8
1-B_寸法
  6
Continuous
 62
   120
370
     5
100
AcDbLine
 10
3025.503168147978
 20
-3402.771559770676
 30
0.0
 11
3025.503168147978
 21
-3282.675423701161
 31
0.0
  0
LWPOLYLINE
  5
4C9
330
1F
100
AcDbEntity
  8
1-B_寸法
  6
Continuous
 62
     7
370
     9
100
AcDbPolyline
 90
        4
 70
     1
 43
3.0
 10
3027.003168147978
 20
-3402.771559770676
 42
0.4142135623731
 10
3025.503168147978
 20
-3401.271559770676
 42
0.4142135623731
 10
3024.003168147978
 20
-3402.771559770676
 42
0.4142135623731
 10
3025.503168147978
 20
-3404.271559770676
 42
0.4142135623731
  0
LINE
  5
4CA
330
1F
100
AcDbEntity
  8
0-7_金物
  6
Continuous
 62
     7
370
     9
100
AcDbLine
 10
2050.804365265287
 20
-2215.274608983802
 30
0.0
 11
4059.955779574771
 21
-2215.274608983802
 31
0.0
  0
LINE
  5
4CB
330
1F
100
AcDbEntity
  8
0-6_扉
  6
Continuous
 62
    40
370
    15
100
AcDbLine
 10
3268.80117090945
 20
-1538.771493284151
 30
0.0
 11
3841.557663670551
 21
-1208.090378008423
 31
0.0
  0
LINE
  5
4CC
330
1F
100
AcDbEntity
  8
0-6_扉
  6
Continuous
 62
    40
370
    15
100
AcDbLine
 10
3173.341755449258
 20
-1483.657974071526
 30
0.0
 11
3268.80117090945
 21
-1538.771493284151
 31
0.0
  0
LINE
  5
4CD
330
1F
100
AcDbEntity
  8
0-6_扉
  6
Continuous
 62
    40
370
    15
100
AcDbLine
 10
3072.579039130177
 20
-1394.863970895636
 30
0.0
 11
3046.062534835682
 21
-1410.173281788031
 31
0.0
  0
LINE
  5
4CE
330
1F
100
AcDbEntity
  8
0-B_寸法
  6
JWW_CENTER1
 62
   120
370
     5
100
AcDbLine
 10
3268.80117090945
 20
-1538.771493284151
 30
0.0
 11
3431.437265001021
 21
-1632.669485987869
 31
0.0
  0
LWPOLYLINE
  5
4CF
330
1F
100
AcDbEntity
  8
0-B_寸法
  6
Continuous
 62
     7
370
     9
100
AcDbPolyline
 90
        4
 70
     1
 43
3.0
 10
3498.525703548975
 20
-1670.536988639257
 42
0.4142135623731
 10
3497.025703548975
 20
-1669.036988639257
 42
0.4142135623731
 10
3495.525703548975
 20
-1670.536988639257
 42
0.4142135623731
 10
3497.025703548975
 20
-1672.036988639257
 42
0.4142135623731
  0
LINE
  5
4D0
330
1F
100
AcDbEntity
  8
0-B_寸法
  6
Continuous
 62
   120
370
     5
100
AcDbLine
 10
3497.025703548975
 20
-1670.536988639257
 30
0.0
 11
3443.199463223979
 21
-1639.460394298156
 31
0.0
  0
LWPOLYLINE
  5
4D1
330
1F
100
AcDbEntity
  8
0-B_寸法
  6
Continuous
 62
     7
370
     9
100
AcDbPolyline
 90
        4
 70
     1
 43
3.0
 10
3412.759628949451
 20
-1720.054054920275
 42
0.4142135623731
 10
3411.259628949451
 20
-1718.554054920275
 42
0.4142135623731
 10
3409.759628949451
 20
-1720.054054920275
 42
0.4142135623731
 10
3411.259628949451
 20
-1721.554054920275
 42
0.4142135623731
  0
LINE
  5
4D2
330
1F
100
AcDbEntity
  8
0-B_寸法
  6
Continuous
 62
   120
370
     5
100
AcDbLine
 10
3497.025703559212
 20
-1670.536988656991
 30
0.0
 11
3411.259628949451
 21
-1720.054054920274
 31
0.0
  0
LINE
  5
4D3
330
1F
100
AcDbEntity
  8
0-B_寸法
  6
Continuous
 62
   120
370
     5
100
AcDbLine
 10
3359.416188162552
 20
-1690.122230426242
 30
0.0
 11
3411.259628949451
 21
-1720.054054920275
 31
0.0
  0
LWPOLYLINE
  5
4D4
330
1F
100
AcDbEntity
  8
0-B_寸法
  6
Continuous
 62
     7
370
     9
100
AcDbPolyline
 90
        4
 70
     1
 43
3.0
 10
2772.687989544053
 20
-1826.068677396816
 42
0.4142135623731
 10
2771.187989544053
 20
-1824.568677396816
 42
0.4142135623731
 10
2769.687989544053
 20
-1826.068677396816
 42
0.4142135623731
 10
2771.187989544053
 20
-1827.568677396816
 42
0.4142135623731
  0
LINE
  5
4D5
330
1F
100
AcDbEntity
  8
0-B_寸法
  6
JWW_CENTER1
 62
   120
370
     5
100
AcDbLine
 10
3268.80117090945
 20
-1538.771493284151
 30
0.0
 11
2852.01329979108
 21
-1779.404082869314
 31
0.0
  0
LINE
  5
4D6
330
1F
100
AcDbEntity
  8
0-B_寸法
  6
Continuous
 62
   120
370
     5
100
AcDbLine
 10
2833.932548837491
 20
-1789.843089198564
 30
0.0
 11
2771.187989544053
 21
-1826.068677396816
 31
0.0
  0
LINE
  5
4D7
330
1F
100
AcDbEntity
  8
0-0_補助線
  6
JWW_HOJO
 62
   120
370
     5
100
AcDbLine
 10
3013.329468804679
 20
-1527.051315983767
 30
0.0
 11
3034.542672240275
 21
-1576.041110839431
 31
0.0
  0
LINE
  5
4D8
330
1F
100
AcDbEntity
  8
0-0_補助線
  6
JWW_HOJO
 62
   120
370
     5
100
AcDbLine
 10
3040.755875675872
 20
-1573.288559553346
 30
0.0
 11
3025.755875675872
 21
-1521.546213411599
 31
0.0
  0
LINE
  5
4D9
330
1F
100
AcDbEntity
  8
0-0_補助線
  6
JWW_HOJO
 62
   120
370
     5
100
AcDbLine
 10
3040.22673296972
 20
-1518.085561262086
 30
0.0
 11
3047.991304322796
 21
-1571.55823347859
 31
0.0
  0
LINE
  5
4DA
330
1F
100
AcDbEntity
  8
0-0_補助線
  6
JWW_HOJO
 62
   120
370
     5
100
AcDbLine
 10
3055.755875675872
 20
-1570.968051477658
 30
0.0
 11
3055.755875675872
 21
-1516.905197260221
 31
0.0
  0
LINE
  5
4DB
330
1F
100
AcDbEntity
  8
0-0_補助線
  6
JWW_HOJO
 62
   120
370
     5
100
AcDbLine
 10
3071.285018382021
 20
-1518.085561262086
 30
0.0
 11
3063.520447028945
 21
-1571.55823347859
 31
0.0
  0
LINE
  5
4DC
330
1F
100
AcDbEntity
  8
0-0_補助線
  6
JWW_HOJO
 62
   120
370
     5
100
AcDbLine
 10
3070.755875675872
 20
-1573.288559553346
 30
0.0
 11
3085.755875675872
 21
-1521.546213411599
 31
0.0
  0
LINE
  5
4DD
330
1F
100
AcDbEntity
  8
0-0_補助線
  6
JWW_HOJO
 62
   120
370
     5
100
AcDbLine
 10
3098.182282547062
 20
-1527.051315983767
 30
0.0
 11
3076.969079111465
 21
-1576.041110839431
 31
0.0
  0
LINE
  5
4DE
330
1F
100
AcDbEntity
  8
0-0_補助線
  6
JWW_HOJO
 62
   120
370
     5
100
AcDbLine
 10
3081.736637789405
 20
-1579.628305515502
 30
0.0
 11
3107.717399902937
 21
-1534.22570533591
 31
0.0
  0
LINE
  5
4DF
330
1F
100
AcDbEntity
  8
0-0_補助線
  6
JWW_HOJO
 62
   120
370
     5
100
AcDbLine
 10
3113.711425253214
 20
-1542.580458689918
 30
0.0
 11
3084.733650464541
 21
-1583.805682192506
 31
0.0
  0
LINE
  5
4E0
330
1F
100
AcDbEntity
  8
0-0_補助線
  6
JWW_HOJO
 62
   120
370
     5
100
AcDbLine
 10
2981.509663651282
 20
-1545.422489054641
 30
0.0
 11
3002.722867086879
 21
-1594.412283910304
 31
0.0
  0
LINE
  5
4E1
330
1F
100
AcDbEntity
  8
0-0_補助線
  6
JWW_HOJO
 62
   120
370
     5
100
AcDbLine
 10
2924.837044755503
 20
-1441.319174986356
 30
0.0
 11
2923.173354203393
 21
-1443.356771457634
 31
0.0
  0
LINE
  5
4E2
330
1F
100
AcDbEntity
  8
0-0_補助線
  6
JWW_HOJO
 62
   120
370
     5
100
AcDbLine
 10
2963.936070522475
 20
-1569.917386482472
 30
0.0
 11
2982.990127878022
 21
-1595.238193347955
 31
0.0
  0
LINE
  5
4E3
330
1F
100
AcDbEntity
  8
0-0_補助線
  6
JWW_HOJO
 62
   120
370
     5
100
AcDbLine
 10
2988.582275848975
 20
-1597.906129470704
 30
0.0
 11
2965.980520945133
 21
-1560.951631760793
 31
0.0
  0
LINE
  5
4E4
330
1F
100
AcDbEntity
  8
0-0_補助線
  6
JWW_HOJO
 62
   120
370
     5
100
AcDbLine
 10
3113.711425253214
 20
-1560.511968133279
 30
0.0
 11
3102.556863453859
 21
-1573.223140799988
 31
0.0
  0
LINE
  5
4E5
330
1F
100
AcDbEntity
  8
0-0_補助線
  6
JWW_HOJO
 62
   120
370
     5
100
AcDbLine
 10
3093.591991924784
 20
-1578.691316365863
 30
0.0
 11
3115.755875675872
 21
-1551.546213411599
 31
0.0
  0
LINE
  5
4E6
330
1F
100
AcDbEntity
  8
0-0_補助線
  6
JWW_HOJO
 62
   120
370
     5
100
AcDbLine
 10
2997.419566227979
 20
-1572.979248660952
 30
0.0
 11
3082.272379970365
 21
-1621.969043516615
 31
0.0
  0
LINE
  5
4E7
330
1F
100
AcDbEntity
  8
0-0_補助線
  6
JWW_HOJO
 62
   120
370
     5
100
AcDbLine
 10
3098.182282547062
 20
-1563.793662125514
 30
0.0
 11
2981.509663651282
 21
-1631.154630052052
 31
0.0
  0
ELLIPSE
  5
4E8
330
1F
100
AcDbEntity
  8
0-7_金物
  6
Continuous
 62
     7
370
     9
100
AcDbEllipse
 10
3039.845973099172
 20
-1217.143822278165
 30
0.0
 11
28.25850499469571
 21
0.0
 31
0.0
210
0.0
220
0.0
230
1.0
 40
0.5
 41
0.0
 42
6.283185307179586
  0
LINE
  5
4E9
330
1F
100
AcDbEntity
  8
0-7_金物
  6
Continuous
 62
     7
370
     9
100
AcDbLine
 10
3015.934930411354
 20
-1224.673847877665
 30
0.0
 11
3026.880197788993
 21
-1243.631607078165
 31
0.0
  0
LINE
  5
4EA
330
1F
100
AcDbEntity
  8
0-7_金物
  6
Continuous
 62
     7
370
     9
100
AcDbLine
 10
3039.845973099172
 20
-1439.343828828165
 30
0.0
 11
3026.880197788993
 21
-1243.631607078165
 31
0.0
  0
LINE
  5
4EB
330
1F
100
AcDbEntity
  8
0-7_金物
  6
Continuous
 62
     7
370
     9
100
AcDbLine
 10
3063.757015786993
 20
-1224.673847877665
 30
0.0
 11
3052.811748409351
 21
-1243.631607078165
 31
0.0
  0
LINE
  5
4EC
330
1F
100
AcDbEntity
  8
0-7_金物
  6
Continuous
 62
     7
370
     9
100
AcDbLine
 10
3039.845973099172
 20
-1439.343828828165
 30
0.0
 11
3052.811748409351
 21
-1243.631607078165
 31
0.0
  0
LINE
  5
4ED
330
1F
100
AcDbEntity
  8
0-7_金物
  6
Continuous
 62
     7
370
     9
100
AcDbLine
 10
3052.185887973415
 20
-1253.078673180441
 30
0.0
 11
3028.398241332579
 21
-1266.545753553826
 31
0.0
  0
LINE
  5
4EE
330
1F
100
AcDbEntity
  8
0-7_金物
  6
Continuous
 62
     7
370
     9
100
AcDbLine
 10
3041.183916964781
 20
-1419.148201474575
 30
0.0
 11
3038.60476336245
 21
-1420.608357217691
 31
0.0
  0
LINE
  5
4EF
330
1F
100
AcDbEntity
  8
0-7_金物
  6
Continuous
 62
     7
370
     9
100
AcDbLine
 10
3051.538713208203
 20
-1262.847468962448
 30
0.0
 11
3028.998624981393
 21
-1275.6082596517
 31
0.0
  0
LINE
  5
4F0
330
1F
100
AcDbEntity
  8
0-7_金物
  6
Continuous
 62
     7
370
     9
100
AcDbLine
 10
3050.891538442988
 20
-1272.616264744458
 30
0.0
 11
3029.59900863021
 21
-1284.670765749575
 31
0.0
  0
LINE
  5
4F1
330
1F
100
AcDbEntity
  8
0-7_金物
  6
Continuous
 62
     7
370
     9
100
AcDbLine
 10
3050.244363677776
 20
-1282.385060526465
 30
0.0
 11
3030.199392279028
 21
-1293.733271847449
 31
0.0
  0
LINE
  5
4F2
330
1F
100
AcDbEntity
  8
0-7_金物
  6
Continuous
 62
     7
370
     9
100
AcDbLine
 10
3049.59718891256
 20
-1292.153856308472
 30
0.0
 11
3030.799775927841
 21
-1302.795777945323
 31
0.0
  0
LINE
  5
4F3
330
1F
100
AcDbEntity
  8
0-7_金物
  6
Continuous
 62
     7
370
     9
100
AcDbLine
 10
3048.950014147345
 20
-1301.92265209048
 30
0.0
 11
3031.400159576659
 21
-1311.858284043198
 31
0.0
  0
LINE
  5
4F4
330
1F
100
AcDbEntity
  8
0-7_金物
  6
Continuous
 62
     7
370
     9
100
AcDbLine
 10
3048.302839382133
 20
-1311.691447872487
 30
0.0
 11
3032.000543225472
 21
-1320.920790141073
 31
0.0
  0
LINE
  5
4F5
330
1F
100
AcDbEntity
  8
0-7_金物
  6
Continuous
 62
     7
370
     9
100
AcDbLine
 10
3047.655664616918
 20
-1321.460243654496
 30
0.0
 11
3032.60092687429
 21
-1329.983296238948
 31
0.0
  0
LINE
  5
4F6
330
1F
100
AcDbEntity
  8
0-7_金物
  6
Continuous
 62
     7
370
     9
100
AcDbLine
 10
3047.008489851706
 20
-1331.229039436503
 30
0.0
 11
3033.201310523107
 21
-1339.045802336821
 31
0.0
  0
LINE
  5
4F7
330
1F
100
AcDbEntity
  8
0-7_金物
  6
Continuous
 62
     7
370
     9
100
AcDbLine
 10
3046.36131508649
 20
-1340.997835218511
 30
0.0
 11
3033.801694171921
 21
-1348.108308434696
 31
0.0
  0
LINE
  5
4F8
330
1F
100
AcDbEntity
  8
0-7_金物
  6
Continuous
 62
     7
370
     9
100
AcDbLine
 10
3045.714140321279
 20
-1350.76663100052
 30
0.0
 11
3034.402077820739
 21
-1357.170814532571
 31
0.0
  0
LINE
  5
4F9
330
1F
100
AcDbEntity
  8
0-7_金物
  6
Continuous
 62
     7
370
     9
100
AcDbLine
 10
3045.066965556063
 20
-1360.535426782527
 30
0.0
 11
3035.002461469556
 21
-1366.233320630445
 31
0.0
  0
LINE
  5
4FA
330
1F
100
AcDbEntity
  8
0-7_金物
  6
Continuous
 62
     7
370
     9
100
AcDbLine
 10
3044.419790790851
 20
-1370.304222564535
 30
0.0
 11
3035.60284511837
 21
-1375.29582672832
 31
0.0
  0
LINE
  5
4FB
330
1F
100
AcDbEntity
  8
0-7_金物
  6
Continuous
 62
     7
370
     9
100
AcDbLine
 10
3043.772616025636
 20
-1380.073018346542
 30
0.0
 11
3036.203228767187
 21
-1384.358332826194
 31
0.0
  0
LINE
  5
4FC
330
1F
100
AcDbEntity
  8
0-7_金物
  6
Continuous
 62
     7
370
     9
100
AcDbLine
 10
3043.12544126042
 20
-1389.84181412855
 30
0.0
 11
3036.803612416001
 21
-1393.420838924068
 31
0.0
  0
LINE
  5
4FD
330
1F
100
AcDbEntity
  8
0-7_金物
  6
Continuous
 62
     7
370
     9
100
AcDbLine
 10
3042.478266495209
 20
-1399.610609910558
 30
0.0
 11
3037.403996064818
 21
-1402.483345021943
 31
0.0
  0
LINE
  5
4FE
330
1F
100
AcDbEntity
  8
0-7_金物
  6
Continuous
 62
     7
370
     9
100
AcDbLine
 10
3041.831091729993
 20
-1409.379405692566
 30
0.0
 11
3038.004379713636
 21
-1411.545851119817
 31
0.0
  0
LINE
  5
4FF
330
1F
100
AcDbEntity
  8
0-7_金物
  6
Continuous
 62
     7
370
     9
100
AcDbLine
 10
3016.566375842049
 20
-1214.042148267165
 30
0.0
 11
3016.566375842049
 21
-1220.245496289164
 31
0.0
  0
LINE
  5
500
330
1F
100
AcDbEntity
  8
0-7_金物
  6
Continuous
 62
     7
370
     9
100
AcDbLine
 10
3063.125570355173
 20
-1220.245496289164
 30
0.0
 11
3063.125570355173
 21
-1214.042148267165
 31
0.0
  0
LINE
  5
501
330
1F
100
AcDbEntity
  8
0-7_金物
  6
Continuous
 62
     7
370
     9
100
AcDbLine
 10
3036.744299088175
 20
-1229.341751808164
 30
0.0
 11
3042.947647110173
 21
-1229.341751808164
 31
0.0
  0
LINE
  5
502
330
1F
100
AcDbEntity
  8
0-7_金物
  6
Continuous
 62
     7
370
     9
100
AcDbLine
 10
3036.744299088175
 20
-1204.945892748164
 30
0.0
 11
3042.947647110173
 21
-1204.945892748164
 31
0.0
  0
LINE
  5
503
330
1F
100
AcDbEntity
  8
0-7_金物
  6
Continuous
 62
     7
370
     9
100
AcDbLine
 10
3016.566375842049
 20
-1214.042148267165
 30
0.0
 11
3036.744299088175
 21
-1214.042148267165
 31
0.0
  0
LINE
  5
504
330
1F
100
AcDbEntity
  8
0-7_金物
  6
Continuous
 62
     7
370
     9
100
AcDbLine
 10
3042.947647110173
 20
-1214.042148267165
 30
0.0
 11
3063.125570355173
 21
-1214.042148267165
 31
0.0
  0
LINE
  5
505
330
1F
100
AcDbEntity
  8
0-7_金物
  6
Continuous
 62
     7
370
     9
100
AcDbLine
 10
3016.566375842049
 20
-1220.245496289164
 30
0.0
 11
3036.744299088175
 21
-1220.245496289164
 31
0.0
  0
LINE
  5
506
330
1F
100
AcDbEntity
  8
0-7_金物
  6
Continuous
 62
     7
370
     9
100
AcDbLine
 10
3042.947647110173
 20
-1220.245496289164
 30
0.0
 11
3063.125570355173
 21
-1220.245496289164
 31
0.0
  0
LINE
  5
507
330
1F
100
AcDbEntity
  8
0-7_金物
  6
Continuous
 62
     7
370
     9
100
AcDbLine
 10
3042.947647110173
 20
-1229.341751808164
 30
0.0
 11
3042.947647110173
 21
-1220.245496289164
 31
0.0
  0
LINE
  5
508
330
1F
100
AcDbEntity
  8
0-7_金物
  6
Continuous
 62
     7
370
     9
100
AcDbLine
 10
3042.947647110173
 20
-1214.042148267165
 30
0.0
 11
3042.947647110173
 21
-1204.945892748164
 31
0.0
  0
LINE
  5
509
330
1F
100
AcDbEntity
  8
0-7_金物
  6
Continuous
 62
     7
370
     9
100
AcDbLine
 10
3036.744299088175
 20
-1229.341751808164
 30
0.0
 11
3036.744299088175
 21
-1220.245496289164
 31
0.0
  0
LINE
  5
50A
330
1F
100
AcDbEntity
  8
0-7_金物
  6
Continuous
 62
     7
370
     9
100
AcDbLine
 10
3036.744299088175
 20
-1214.042148267165
 30
0.0
 11
3036.744299088175
 21
-1204.945892748164
 31
0.0
  0
ELLIPSE
  5
50B
330
1F
100
AcDbEntity
  8
0-7_金物
  6
Continuous
 62
     7
370
     9
100
AcDbEllipse
 10
2848.927142178806
 20
-1106.916783852922
 30
0.0
 11
28.25850499469571
 21
0.0
 31
0.0
210
0.0
220
0.0
230
1.0
 40
0.5
 41
0.0
 42
6.283185307179586
  0
LINE
  5
50C
330
1F
100
AcDbEntity
  8
0-7_金物
  6
Continuous
 62
     7
370
     9
100
AcDbLine
 10
2825.016099490985
 20
-1114.446809452422
 30
0.0
 11
2835.961366868627
 21
-1133.404568652923
 31
0.0
  0
LINE
  5
50D
330
1F
100
AcDbEntity
  8
0-7_金物
  6
Continuous
 62
     7
370
     9
100
AcDbLine
 10
2872.838184866624
 20
-1114.446809452422
 30
0.0
 11
2861.892917488985
 21
-1133.404568652923
 31
0.0
  0
LINE
  5
50E
330
1F
100
AcDbEntity
  8
0-7_金物
  6
Continuous
 62
     7
370
     9
100
AcDbLine
 10
2861.267057053049
 20
-1142.851634755199
 30
0.0
 11
2837.479410412209
 21
-1156.318715128583
 31
0.0
  0
LINE
  5
50F
330
1F
100
AcDbEntity
  8
0-7_金物
  6
Continuous
 62
     7
370
     9
100
AcDbLine
 10
2850.265086044412
 20
-1308.921163049332
 30
0.0
 11
2847.685932442084
 21
-1310.381318792448
 31
0.0
  0
LINE
  5
510
330
1F
100
AcDbEntity
  8
0-7_金物
  6
Continuous
 62
     7
370
     9
100
AcDbLine
 10
2860.619882287834
 20
-1152.620430537205
 30
0.0
 11
2838.079794061027
 21
-1165.381221226456
 31
0.0
  0
LINE
  5
511
330
1F
100
AcDbEntity
  8
0-7_金物
  6
Continuous
 62
     7
370
     9
100
AcDbLine
 10
2859.972707522622
 20
-1162.389226319215
 30
0.0
 11
2838.680177709841
 21
-1174.443727324332
 31
0.0
  0
LINE
  5
512
330
1F
100
AcDbEntity
  8
0-7_金物
  6
Continuous
 62
     7
370
     9
100
AcDbLine
 10
2859.325532757407
 20
-1172.158022101222
 30
0.0
 11
2839.280561358658
 21
-1183.506233422208
 31
0.0
  0
LINE
  5
513
330
1F
100
AcDbEntity
  8
0-7_金物
  6
Continuous
 62
     7
370
     9
100
AcDbLine
 10
2858.678357992194
 20
-1181.926817883229
 30
0.0
 11
2839.880945007475
 21
-1192.568739520081
 31
0.0
  0
LINE
  5
514
330
1F
100
AcDbEntity
  8
0-7_金物
  6
Continuous
 62
     7
370
     9
100
AcDbLine
 10
2858.031183226979
 20
-1191.695613665237
 30
0.0
 11
2840.481328656289
 21
-1201.631245617955
 31
0.0
  0
LINE
  5
515
330
1F
100
AcDbEntity
  8
0-7_金物
  6
Continuous
 62
     7
370
     9
100
AcDbLine
 10
2857.384008461764
 20
-1201.464409447244
 30
0.0
 11
2841.081712305107
 21
-1210.693751715829
 31
0.0
  0
LINE
  5
516
330
1F
100
AcDbEntity
  8
0-7_金物
  6
Continuous
 62
     7
370
     9
100
AcDbLine
 10
2856.736833696552
 20
-1211.233205229254
 30
0.0
 11
2841.682095953924
 21
-1219.756257813705
 31
0.0
  0
LINE
  5
517
330
1F
100
AcDbEntity
  8
0-7_金物
  6
Continuous
 62
     7
370
     9
100
AcDbLine
 10
2856.089658931337
 20
-1221.00200101126
 30
0.0
 11
2842.282479602738
 21
-1228.818763911578
 31
0.0
  0
LINE
  5
518
330
1F
100
AcDbEntity
  8
0-7_金物
  6
Continuous
 62
     7
370
     9
100
AcDbLine
 10
2855.442484166124
 20
-1230.770796793269
 30
0.0
 11
2842.882863251555
 21
-1237.881270009454
 31
0.0
  0
LINE
  5
519
330
1F
100
AcDbEntity
  8
0-7_金物
  6
Continuous
 62
     7
370
     9
100
AcDbLine
 10
2854.795309400909
 20
-1240.539592575277
 30
0.0
 11
2843.483246900369
 21
-1246.943776107328
 31
0.0
  0
LINE
  5
51A
330
1F
100
AcDbEntity
  8
0-7_金物
  6
Continuous
 62
     7
370
     9
100
AcDbLine
 10
2854.148134635697
 20
-1250.308388357284
 30
0.0
 11
2844.083630549187
 21
-1256.006282205202
 31
0.0
  0
LINE
  5
51B
330
1F
100
AcDbEntity
  8
0-7_金物
  6
Continuous
 62
     7
370
     9
100
AcDbLine
 10
2853.500959870482
 20
-1260.077184139292
 30
0.0
 11
2844.684014198004
 21
-1265.068788303078
 31
0.0
  0
LINE
  5
51C
330
1F
100
AcDbEntity
  8
0-7_金物
  6
Continuous
 62
     7
370
     9
100
AcDbLine
 10
2852.85378510527
 20
-1269.845979921299
 30
0.0
 11
2845.284397846818
 21
-1274.131294400951
 31
0.0
  0
LINE
  5
51D
330
1F
100
AcDbEntity
  8
0-7_金物
  6
Continuous
 62
     7
370
     9
100
AcDbLine
 10
2852.206610340054
 20
-1279.614775703307
 30
0.0
 11
2845.884781495635
 21
-1283.193800498825
 31
0.0
  0
LINE
  5
51E
330
1F
100
AcDbEntity
  8
0-7_金物
  6
Continuous
 62
     7
370
     9
100
AcDbLine
 10
2851.559435574839
 20
-1289.383571485315
 30
0.0
 11
2846.485165144452
 21
-1292.256306596701
 31
0.0
  0
LINE
  5
51F
330
1F
100
AcDbEntity
  8
0-7_金物
  6
Continuous
 62
     7
370
     9
100
AcDbLine
 10
2850.912260809627
 20
-1299.152367267324
 30
0.0
 11
2847.085548793266
 21
-1301.318812694574
 31
0.0
  0
LINE
  5
520
330
1F
100
AcDbEntity
  8
0-7_金物
  6
Continuous
 62
     7
370
     9
100
AcDbLine
 10
2825.64754492168
 20
-1103.815109841922
 30
0.0
 11
2825.64754492168
 21
-1110.018457863922
 31
0.0
  0
LINE
  5
521
330
1F
100
AcDbEntity
  8
0-7_金物
  6
Continuous
 62
     7
370
     9
100
AcDbLine
 10
2872.206739434807
 20
-1110.018457863922
 30
0.0
 11
2872.206739434807
 21
-1103.815109841922
 31
0.0
  0
LINE
  5
522
330
1F
100
AcDbEntity
  8
0-7_金物
  6
Continuous
 62
     7
370
     9
100
AcDbLine
 10
2845.825468167805
 20
-1119.114713382921
 30
0.0
 11
2852.028816189807
 21
-1119.114713382921
 31
0.0
  0
LINE
  5
523
330
1F
100
AcDbEntity
  8
0-7_金物
  6
Continuous
 62
     7
370
     9
100
AcDbLine
 10
2845.825468167805
 20
-1094.718854322922
 30
0.0
 11
2852.028816189807
 21
-1094.718854322922
 31
0.0
  0
LINE
  5
524
330
1F
100
AcDbEntity
  8
0-7_金物
  6
Continuous
 62
     7
370
     9
100
AcDbLine
 10
2825.64754492168
 20
-1103.815109841922
 30
0.0
 11
2845.825468167805
 21
-1103.815109841922
 31
0.0
  0
LINE
  5
525
330
1F
100
AcDbEntity
  8
0-7_金物
  6
Continuous
 62
     7
370
     9
100
AcDbLine
 10
2852.028816189807
 20
-1103.815109841922
 30
0.0
 11
2872.206739434807
 21
-1103.815109841922
 31
0.0
  0
LINE
  5
526
330
1F
100
AcDbEntity
  8
0-7_金物
  6
Continuous
 62
     7
370
     9
100
AcDbLine
 10
2825.64754492168
 20
-1110.018457863922
 30
0.0
 11
2845.825468167805
 21
-1110.018457863922
 31
0.0
  0
LINE
  5
527
330
1F
100
AcDbEntity
  8
0-7_金物
  6
Continuous
 62
     7
370
     9
100
AcDbLine
 10
2852.028816189807
 20
-1110.018457863922
 30
0.0
 11
2872.206739434807
 21
-1110.018457863922
 31
0.0
  0
LINE
  5
528
330
1F
100
AcDbEntity
  8
0-7_金物
  6
Continuous
 62
     7
370
     9
100
AcDbLine
 10
2852.028816189807
 20
-1119.114713382921
 30
0.0
 11
2852.028816189807
 21
-1110.018457863922
 31
0.0
  0
LINE
  5
529
330
1F
100
AcDbEntity
  8
0-7_金物
  6
Continuous
 62
     7
370
     9
100
AcDbLine
 10
2852.028816189807
 20
-1103.815109841922
 30
0.0
 11
2852.028816189807
 21
-1094.718854322922
 31
0.0
  0
LINE
  5
52A
330
1F
100
AcDbEntity
  8
0-7_金物
  6
Continuous
 62
     7
370
     9
100
AcDbLine
 10
2845.825468167805
 20
-1119.114713382921
 30
0.0
 11
2845.825468167805
 21
-1110.018457863922
 31
0.0
  0
LINE
  5
52B
330
1F
100
AcDbEntity
  8
0-7_金物
  6
Continuous
 62
     7
370
     9
100
AcDbLine
 10
2845.825468167805
 20
-1103.815109841922
 30
0.0
 11
2845.825468167805
 21
-1094.718854322922
 31
0.0
  0
LINE
  5
52C
330
1F
100
AcDbEntity
  8
0-7_金物
  6
Continuous
 62
     7
370
     9
100
AcDbLine
 10
2848.403932226576
 20
-1321.219184610544
 30
0.0
 11
2835.961366868627
 21
-1133.404568652923
 31
0.0
  0
LINE
  5
52D
330
1F
100
AcDbEntity
  8
0-7_金物
  6
Continuous
 62
     7
370
     9
100
AcDbLine
 10
2849.410612082204
 20
-1321.819041777812
 30
0.0
 11
2861.892917488985
 21
-1133.404568652923
 31
0.0
  0
ELLIPSE
  5
52E
330
1F
100
AcDbEntity
  8
0-7_金物
  6
Continuous
 62
     7
370
     9
100
AcDbEllipse
 10
2748.164425859723
 20
-1459.690348057229
 30
0.0
 11
-30.00000000000005
 21
3.673819061467138E-15
 31
0.0
210
0.0
220
0.0
230
1.0
 40
0.5773502691896267
 41
5.497787143782136
 42
7.068583470577034
  0
LINE
  5
52F
330
1F
100
AcDbEntity
  8
0-7_金物
  6
Continuous
 62
     7
370
     9
100
AcDbLine
 10
2718.164425859723
 20
-1459.690348057229
 30
0.0
 11
2718.164425859723
 21
-1496.432694198977
 31
0.0
  0
LINE
  5
530
330
1F
100
AcDbEntity
  8
0-7_金物
  6
Continuous
 62
     7
370
     9
100
AcDbLine
 10
2719.18665107105
 20
-1464.17322541807
 30
0.0
 11
2719.18665107105
 21
-1500.915571559817
 31
0.0
  0
LINE
  5
531
330
1F
100
AcDbEntity
  8
0-7_金物
  6
Continuous
 62
     7
370
     9
100
AcDbLine
 10
2722.183663746191
 20
-1468.350602095074
 30
0.0
 11
2722.183663746191
 21
-1505.092948236821
 31
0.0
  0
LINE
  5
532
330
1F
100
AcDbEntity
  8
0-7_金物
  6
Continuous
 62
     7
370
     9
100
AcDbLine
 10
2726.951222424127
 20
-1471.937796771145
 30
0.0
 11
2726.951222424127
 21
-1508.680142912894
 31
0.0
  0
ELLIPSE
  5
533
330
1F
100
AcDbEntity
  8
0-7_金物
  6
Continuous
 62
     7
370
     9
100
AcDbEllipse
 10
3023.936070522475
 20
-1618.907181338136
 30
0.0
 11
-29.99999999999994
 21
-4.364184794797269E-14
 31
0.0
210
0.0
220
0.0
230
1.0
 40
0.5773502691896277
 41
0.7853981633974482
 42
2.356194490192345
  0
ELLIPSE
  5
534
330
1F
100
AcDbEntity
  8
0-7_金物
  6
Continuous
 62
     7
370
     9
100
AcDbEllipse
 10
3023.936070522475
 20
-1655.649527479884
 30
0.0
 11
-29.99999999999994
 21
-4.364184794797269E-14
 31
0.0
210
0.0
220
0.0
230
1.0
 40
0.5773502691896277
 41
0.7853981633974488
 42
2.356194490192345
  0
LINE
  5
535
330
1F
100
AcDbEntity
  8
0-7_金物
  6
Continuous
 62
     7
370
     9
100
AcDbLine
 10
3002.722867086879
 20
-1631.154630052052
 30
0.0
 11
3002.722867086879
 21
-1667.896976193799
 31
0.0
  0
LINE
  5
536
330
1F
100
AcDbEntity
  8
0-7_金物
  6
Continuous
 62
     7
370
     9
100
AcDbLine
 10
3008.936070522475
 20
-1633.907181338136
 30
0.0
 11
3008.936070522475
 21
-1670.649527479884
 31
0.0
  0
LINE
  5
537
330
1F
100
AcDbEntity
  8
0-7_金物
  6
Continuous
 62
     7
370
     9
100
AcDbLine
 10
3016.171499169399
 20
-1635.637507412893
 30
0.0
 11
3016.171499169399
 21
-1672.37985355464
 31
0.0
  0
LINE
  5
538
330
1F
100
AcDbEntity
  8
0-7_金物
  6
Continuous
 62
     7
370
     9
100
AcDbLine
 10
3023.936070522475
 20
-1636.227689413825
 30
0.0
 11
3023.936070522475
 21
-1672.970035555573
 31
0.0
  0
LINE
  5
539
330
1F
100
AcDbEntity
  8
0-7_金物
  6
Continuous
 62
     7
370
     9
100
AcDbLine
 10
3031.700641875552
 20
-1635.637507412893
 30
0.0
 11
3031.700641875552
 21
-1672.37985355464
 31
0.0
  0
LINE
  5
53A
330
1F
100
AcDbEntity
  8
0-7_金物
  6
Continuous
 62
     7
370
     9
100
AcDbLine
 10
3038.936070522475
 20
-1633.907181338136
 30
0.0
 11
3038.936070522475
 21
-1670.649527479884
 31
0.0
  0
ELLIPSE
  5
53B
330
1F
100
AcDbEntity
  8
0-7_金物
  6
Continuous
 62
     7
370
     9
100
AcDbEllipse
 10
3140.608689418255
 20
-1551.546213411599
 30
0.0
 11
-30.00000000000001
 21
3.673819061467133E-15
 31
0.0
210
0.0
220
0.0
230
1.0
 40
0.5773502691896252
 41
2.356194490192344
 42
3.92699081698724
  0
LINE
  5
53C
330
1F
100
AcDbEntity
  8
0-7_金物
  6
Continuous
 62
     7
370
     9
100
AcDbLine
 10
3166.589451531788
 20
-1560.206467449443
 30
0.0
 11
3166.589451531788
 21
-1596.948813591191
 31
0.0
  0
LINE
  5
53D
330
1F
100
AcDbEntity
  8
0-7_金物
  6
Continuous
 62
     7
370
     9
100
AcDbLine
 10
3169.586464206928
 20
-1556.029090772439
 30
0.0
 11
3169.586464206928
 21
-1592.771436914187
 31
0.0
  0
LINE
  5
53E
330
1F
100
AcDbEntity
  8
0-7_金物
  6
Continuous
 62
     7
370
     9
100
AcDbLine
 10
3170.608689418255
 20
-1551.546213411599
 30
0.0
 11
3170.608689418255
 21
-1588.288559553346
 31
0.0
  0
LINE
  5
53F
330
1F
100
AcDbEntity
  8
0-7_金物
  6
Continuous
 62
     7
370
     9
100
AcDbLine
 10
3161.821892853852
 20
-1600.536008267262
 30
0.0
 11
3045.149273958072
 21
-1667.896976193799
 31
0.0
  0
LINE
  5
540
330
1F
100
AcDbEntity
  8
0-7_金物
  6
Continuous
 62
     7
370
     9
100
AcDbLine
 10
3161.821892853852
 20
-1563.793662125514
 30
0.0
 11
3045.149273958072
 21
-1631.154630052052
 31
0.0
  0
LINE
  5
541
330
1F
100
AcDbEntity
  8
0-7_金物
  6
Continuous
 62
     7
370
     9
100
AcDbLine
 10
3161.821892853852
 20
-1563.793662125514
 30
0.0
 11
3161.821892853852
 21
-1600.536008267262
 31
0.0
  0
LINE
  5
542
330
1F
100
AcDbEntity
  8
0-7_金物
  6
Continuous
 62
     7
370
     9
100
AcDbLine
 10
3045.149273958072
 20
-1631.154630052052
 30
0.0
 11
3045.149273958072
 21
-1667.896976193799
 31
0.0
  0
ELLIPSE
  5
543
330
1F
100
AcDbEntity
  8
0-7_金物
  6
Continuous
 62
     7
370
     9
100
AcDbEllipse
 10
3055.755875675872
 20
-1551.546213411599
 30
0.0
 11
60.00000000000004
 21
0.0
 31
0.0
210
0.0
220
0.0
230
1.0
 40
0.5773502691896252
 41
5.497787143782138
 42
8.63937979737193
  0
LINE
  5
544
330
1F
100
AcDbEntity
  8
0-7_金物
  6
Continuous
 62
     7
370
     9
100
AcDbLine
 10
2924.837044755503
 20
-1441.319174986356
 30
0.0
 11
2924.837044755503
 21
-1478.061521128103
 31
0.0
  0
ELLIPSE
  5
545
330
1F
100
AcDbEntity
  8
0-7_金物
  6
Continuous
 62
     7
370
     9
100
AcDbEllipse
 10
3023.936070522475
 20
-1569.917386482472
 30
0.0
 11
59.99999999999998
 21
0.0
 31
0.0
210
0.0
220
0.0
230
1.0
 40
0.5773502691896258
 41
2.356194490192344
 42
5.497787143782136
  0
LINE
  5
546
330
1F
100
AcDbEntity
  8
0-7_金物
  6
Continuous
 62
     7
370
     9
100
AcDbLine
 10
3034.542672240275
 20
-1576.041110839431
 30
0.0
 11
3002.722867086879
 21
-1594.412283910304
 31
0.0
  0
ELLIPSE
  5
547
330
1F
100
AcDbEntity
  8
0-7_金物
  6
Continuous
 62
     7
370
     9
100
AcDbEllipse
 10
2748.164425859723
 20
-1496.432694198977
 30
0.0
 11
-30.00000000000001
 21
-1.699649535696902E-14
 31
0.0
210
0.0
220
0.0
230
1.0
 40
0.5773502691896268
 41
0.0
 42
0.7853981633974476
  0
ELLIPSE
  5
548
330
1F
100
AcDbEntity
  8
0-7_金物
  6
Continuous
 62
     7
370
     9
100
AcDbEllipse
 10
3140.608689418255
 20
-1588.288559553346
 30
0.0
 11
-30.00000000000001
 21
3.673819061467133E-15
 31
0.0
210
0.0
220
0.0
230
1.0
 40
0.5773502691896252
 41
2.356194490192344
 42
3.141592653589793
  0
LINE
  5
549
330
1F
100
AcDbEntity
  8
0-7_金物
  6
Continuous
 62
     7
370
     9
100
AcDbLine
 10
2773.621561484111
 20
-1535.625275732347
 30
0.0
 11
2726.951222424127
 21
-1508.680142912894
 31
0.0
  0
LINE
  5
54A
330
1F
100
AcDbEntity
  8
0-7_金物
  6
Continuous
 62
     7
370
     9
100
AcDbLine
 10
3002.722867086879
 20
-1631.154630052052
 30
0.0
 11
2923.173354203393
 21
-1585.226697374868
 31
0.0
  0
LINE
  5
54B
330
1F
100
AcDbEntity
  8
0-7_金物
  6
Continuous
 62
     7
370
     9
100
AcDbLine
 10
2772.999584519462
 20
-1498.523831022629
 30
0.0
 11
2726.951222424127
 21
-1471.937796771145
 31
0.0
  0
ELLIPSE
  5
54C
330
1F
100
AcDbEntity
  8
0-7_金物
  6
Continuous
 62
     7
370
     9
100
AcDbEllipse
 10
2864.837044755503
 20
-1441.319174986356
 30
0.0
 11
60.00000000000006
 21
0.0
 31
0.0
210
0.0
220
0.0
230
1.0
 40
0.5773502691896251
 41
6.047146014440955
 42
6.519224599918218
  0
ELLIPSE
  5
54D
330
1F
100
AcDbEntity
  8
0-7_金物
  6
Continuous
 62
     7
370
     9
100
AcDbEllipse
 10
2864.837044755503
 20
-1478.061521128103
 30
0.0
 11
60.00000000000006
 21
0.0
 31
0.0
210
0.0
220
0.0
230
1.0
 40
0.5773502691896251
 41
6.047146014440955
 42
6.519224599918218
  0
LINE
  5
54E
330
1F
100
AcDbEntity
  8
0-7_金物
  6
Continuous
 62
     7
370
     9
100
AcDbLine
 10
2726.951222424127
 20
-1447.442899343314
 30
0.0
 11
2772.999584519462
 21
-1420.85686509183
 31
0.0
  0
LINE
  5
54F
330
1F
100
AcDbEntity
  8
0-7_金物
  6
Continuous
 62
     7
370
     9
100
AcDbLine
 10
3161.821892853852
 20
-1539.298764697683
 30
0.0
 11
2923.173354203393
 21
-1401.514966666129
 31
0.0
  0
LINE
  5
550
330
1F
100
AcDbEntity
  8
0-7_金物
  6
Continuous
 62
     7
370
     9
100
AcDbLine
 10
2981.509663651282
 20
-1545.422489054641
 30
0.0
 11
3013.329468804679
 21
-1527.051315983767
 31
0.0
  0
LINE
  5
551
330
1F
100
AcDbEntity
  8
0-7_金物
  6
Continuous
 62
     7
370
     9
100
AcDbLine
 10
3066.362477393669
 20
-1594.412283910304
 30
0.0
 11
3098.182282547062
 21
-1576.041110839431
 31
0.0
  0
ELLIPSE
  5
552
330
1F
100
AcDbEntity
  8
0-7_金物
  6
Continuous
 62
     7
370
     9
100
AcDbEllipse
 10
3055.755875675872
 20
-1588.288559553346
 30
0.0
 11
30.00000000000003
 21
7.993605777301137E-14
 31
0.0
210
0.0
220
0.0
230
1.0
 40
0.5773502691896266
 41
0.2617993877991396
 42
2.356194490192344
  0
ELLIPSE
  5
553
330
1F
100
AcDbEntity
  8
0-7_金物
  6
Continuous
 62
     7
370
     9
100
AcDbEllipse
 10
3023.936070522475
 20
-1606.659732624221
 30
0.0
 11
29.99999999999995
 21
6.661338147750928E-14
 31
0.0
210
0.0
220
0.0
230
1.0
 40
0.5773502691896261
 41
2.356194490192344
 42
2.780225529683081
  0
LINE
  5
554
330
1F
100
AcDbEntity
  8
0-7_金物
  6
Continuous
 62
     7
370
     9
100
AcDbLine
 10
3002.722867086879
 20
-1667.896976193799
 30
0.0
 11
2923.173354203393
 21
-1621.969043516615
 31
0.0
  0
LINE
  5
555
330
1F
100
AcDbEntity
  8
0-7_金物
  6
Continuous
 62
     7
370
     9
100
AcDbLine
 10
2889.87595917717
 20
-1607.05429035104
 30
0.0
 11
2774.174189433593
 21
-1538.110290470332
 31
0.0
  0
ELLIPSE
  5
556
330
1F
100
AcDbEntity
  8
0-7_金物
  6
Continuous
 62
     7
370
     9
100
AcDbEllipse
 10
2923.173354203393
 20
-1582.997900346315
 30
0.0
 11
23.03500218845613
 21
38.65732368100281
 31
0.0
210
0.0
220
0.0
230
0.9999999999999998
 40
0.6634139481689386
 41
2.302614718066926
 42
3.873411044861822
  0
LINE
  5
557
330
1F
100
AcDbEntity
  8
0-7_金物
  6
Continuous
 62
     7
370
     9
100
AcDbLine
 10
2893.319726535792
 20
-1615.008555914059
 30
0.0
 11
2777.617956792215
 21
-1546.064556033352
 31
0.0
  0
LINE
  5
558
330
1F
100
AcDbEntity
  8
0-7_金物
  6
Continuous
 62
     7
370
     9
100
AcDbLine
 10
2898.797969284506
 20
-1620.781348200247
 30
0.0
 11
2783.09619954093
 21
-1551.837348319539
 31
0.0
  0
ELLIPSE
  5
559
330
1F
100
AcDbEntity
  8
0-7_金物
  6
Continuous
 62
     7
370
     9
100
AcDbEllipse
 10
2917.42802088
 20
-1371.06706644599
 30
0.0
 11
3.839167031409386
 21
6.442887280167132
 31
0.0
210
0.0
220
0.0
230
1.0
 40
0.6634139481689387
 41
5.444207371656721
 42
7.015003698451618
  0
LINE
  5
55A
330
1F
100
AcDbEntity
  8
0-7_金物
  6
Continuous
 62
     7
370
     9
100
AcDbLine
 10
2921.490585033147
 20
-1364.769825137002
 30
0.0
 11
2805.788815289571
 21
-1295.825825256295
 31
0.0
  0
LINE
  5
55B
330
1F
100
AcDbEntity
  8
0-7_金物
  6
Continuous
 62
     7
370
     9
100
AcDbLine
 10
2920.300687541698
 20
-1364.236839677829
 30
0.0
 11
2804.598917798118
 21
-1295.292839797121
 31
0.0
  0
LINE
  5
55C
330
1F
100
AcDbEntity
  8
0-7_金物
  6
Continuous
 62
     7
370
     9
100
AcDbLine
 10
2918.915022564557
 20
-1364.169322885421
 30
0.0
 11
2803.21325282098
 21
-1295.225323004714
 31
0.0
  0
LINE
  5
55D
330
1F
100
AcDbEntity
  8
0-7_金物
  6
Continuous
 62
     7
370
     9
100
AcDbLine
 10
2778.744917842855
 20
-1305.269690182198
 30
0.0
 11
2801.726251136424
 21
-1295.6278760369
 31
0.0
  0
LINE
  5
55E
330
1F
100
AcDbEntity
  8
0-7_金物
  6
Continuous
 62
     7
370
     9
100
AcDbLine
 10
2894.446687586431
 20
-1374.213690062905
 30
0.0
 11
2917.42802088
 21
-1364.571875917608
 31
0.0
  0
LINE
  5
55F
330
1F
100
AcDbEntity
  8
0-7_金物
  6
Continuous
 62
     7
370
     9
100
AcDbLine
 10
2917.42802088
 20
-1364.571875917608
 30
0.0
 11
2801.726251136424
 21
-1295.6278760369
 31
0.0
  0
LINE
  5
560
330
1F
100
AcDbEntity
  8
0-7_金物
  6
Continuous
 62
     7
370
     9
100
AcDbLine
 10
2772.999584519462
 20
-1314.175334246906
 30
0.0
 11
2772.999584519462
 21
-1528.516621683555
 31
0.0
  0
LINE
  5
561
330
1F
100
AcDbEntity
  8
0-7_金物
  6
Continuous
 62
     7
370
     9
100
AcDbLine
 10
2888.701354263039
 20
-1383.119334127614
 30
0.0
 11
2888.701354263039
 21
-1597.460621564263
 31
0.0
  0
LINE
  5
562
330
1F
100
AcDbEntity
  8
0-7_金物
  6
Continuous
 62
     7
370
     9
100
AcDbLine
 10
2888.701354263039
 20
-1597.460621564263
 30
0.0
 11
2772.999584519462
 21
-1528.516621683555
 31
0.0
  0
ELLIPSE
  5
563
330
1F
100
AcDbEntity
  8
0-7_金物
  6
Continuous
 62
     7
370
     9
100
AcDbEllipse
 10
2894.446687586431
 20
-1380.708880591289
 30
0.0
 11
3.839167031409386
 21
6.442887280167133
 31
0.0
210
0.0
220
0.0
230
1.0
 40
0.6634139481689393
 41
0.7318183912720424
 42
2.302614718066939
  0
ELLIPSE
  5
564
330
1F
100
AcDbEntity
  8
0-7_金物
  6
Continuous
 62
     7
370
     9
100
AcDbEllipse
 10
2778.744917842855
 20
-1311.764880710582
 30
0.0
 11
3.839167031409303
 21
6.442887280167151
 31
0.0
210
0.0
220
0.0
230
0.9999999999999999
 40
0.6634139481689377
 41
0.7318183912720223
 42
2.302614718066919
  0
LINE
  5
565
330
1F
100
AcDbEntity
  8
0-7_金物
  6
Continuous
 62
     7
370
     9
100
AcDbLine
 10
2894.446687586431
 20
-1374.213690062905
 30
0.0
 11
2778.744917842855
 21
-1305.269690182198
 31
0.0
  0
LINE
  5
566
330
1F
100
AcDbEntity
  8
0-7_金物
  6
Continuous
 62
     7
370
     9
100
AcDbLine
 10
2892.959685901874
 20
-1375.058879595791
 30
0.0
 11
2777.257916158298
 21
-1306.114879715084
 31
0.0
  0
LINE
  5
567
330
1F
100
AcDbEntity
  8
0-7_金物
  6
Continuous
 62
     7
370
     9
100
AcDbLine
 10
2891.574020924736
 20
-1376.289107359452
 30
0.0
 11
2775.872251181157
 21
-1307.345107478743
 31
0.0
  0
LINE
  5
568
330
1F
100
AcDbEntity
  8
0-7_金物
  6
Continuous
 62
     7
370
     9
100
AcDbLine
 10
2890.384123433284
 20
-1377.820535364841
 30
0.0
 11
2774.682353689707
 21
-1308.876535484133
 31
0.0
  0
LINE
  5
569
330
1F
100
AcDbEntity
  8
0-7_金物
  6
Continuous
 62
     7
370
     9
100
AcDbLine
 10
2889.471082975164
 20
-1379.548799324197
 30
0.0
 11
2773.769313231588
 21
-1310.604799443489
 31
0.0
  0
LINE
  5
56A
330
1F
100
AcDbEntity
  8
0-7_金物
  6
Continuous
 62
     7
370
     9
100
AcDbLine
 10
2888.897121748727
 20
-1381.35612090478
 30
0.0
 11
2773.195352005151
 21
-1312.412121024072
 31
0.0
  0
LINE
  5
56B
330
1F
100
AcDbEntity
  8
0-7_金物
  6
Continuous
 62
     7
370
     9
100
AcDbLine
 10
2888.701354263039
 20
-1383.119334127614
 30
0.0
 11
2772.999584519462
 21
-1314.175334246906
 31
0.0
  0
LINE
  5
56C
330
1F
100
AcDbEntity
  8
0-7_金物
  6
Continuous
 62
     7
370
     9
100
AcDbLine
 10
2923.173354203393
 20
-1621.969043516615
 30
0.0
 11
2923.173354203393
 21
-1368.656612909667
 31
0.0
  0
ELLIPSE
  5
56D
330
1F
100
AcDbEntity
  8
0-7_金物
  6
Continuous
 62
     7
370
     9
100
AcDbEllipse
 10
2807.471584459816
 20
-1514.053900465608
 30
0.0
 11
23.03500218845609
 21
38.65732368100281
 31
0.0
210
0.0
220
0.0
230
1.0
 40
0.6634139481689381
 41
2.302614718066926
 42
3.088012881464371
  0
ELLIPSE
  5
56E
330
1F
100
AcDbEntity
  8
0-7_金物
  6
Continuous
 62
     7
370
     9
100
AcDbEllipse
 10
2801.726251136424
 20
-1302.123066565283
 30
0.0
 11
3.839167031409308
 21
6.442887280167158
 31
0.0
210
0.0
220
0.0
230
0.9999999999999998
 40
0.6634139481689362
 41
6.22960553505472
 42
7.015003698451609
  0
LINE
  5
56F
330
1F
100
AcDbEntity
  8
0-B_寸法
  6
Continuous
 62
   120
370
     5
100
AcDbLine
 10
2612.088894582469
 20
-1734.21277209292
 30
0.0
 11
2771.187989544053
 21
-1826.068677396815
 31
0.0
  0
LWPOLYLINE
  5
570
330
1F
100
AcDbEntity
  8
0-B_寸法
  6
Continuous
 62
     7
370
     9
100
AcDbPolyline
 90
        4
 70
     1
 43
3.0
 10
2613.588894582469
 20
-1734.21277209292
 42
0.4142135623731
 10
2612.088894582469
 20
-1732.71277209292
 42
0.4142135623731
 10
2610.588894582469
 20
-1734.21277209292
 42
0.4142135623731
 10
2612.088894582469
 20
-1735.71277209292
 42
0.4142135623731
  0
LINE
  5
571
330
1F
100
AcDbEntity
  8
0-B_寸法
  6
Continuous
 62
   120
370
     5
100
AcDbLine
 10
2612.088894582469
 20
-1734.21277209292
 30
0.0
 11
2711.950872041253
 21
-1676.557432525284
 31
0.0
  0
LINE
  5
572
330
1F
100
AcDbEntity
  8
0-B_寸法
  6
JWW_CENTER1
 62
   120
370
     5
100
AcDbLine
 10
3136.218661421738
 20
-1431.606323956795
 30
0.0
 11
2724.792774420323
 21
-1669.143170568642
 31
0.0
  0
LINE
  5
573
330
1F
100
AcDbEntity
  8
0-B_寸法
  6
JWW_CENTER1
 62
   120
370
     5
100
AcDbLine
 10
3183.035096289448
 20
-1588.288559553346
 30
0.0
 11
3359.416188162552
 21
-1690.122230426242
 31
0.0
  0
LINE
  5
574
330
1F
100
AcDbEntity
  8
0-6_扉
  6
Continuous
 62
     7
370
     9
100
AcDbLine
 10
2856.878682278847
 20
-1209.092068233653
 30
0.0
 11
2950.603119375503
 21
-1263.203897221052
 31
0.0
  0
LINE
  5
575
330
1F
100
AcDbEntity
  8
0-6_扉
  6
Continuous
 62
    40
370
    15
100
AcDbLine
 10
3046.062534835682
 20
-1350.76663100052
 30
0.0
 11
3046.062534835682
 21
-1410.173281788031
 31
0.0
  0
LINE
  5
576
330
1F
100
AcDbEntity
  8
0-6_扉
  6
Continuous
 62
    40
370
    15
100
AcDbLine
 10
3037.58935768611
 20
-1405.281290679835
 30
0.0
 11
2950.603119375503
 21
-1355.059762575413
 31
0.0
  0
LINE
  5
577
330
1F
100
AcDbEntity
  8
0-6_扉
  6
Continuous
 62
    40
370
    15
100
AcDbLine
 10
3046.062534835682
 20
-1410.173281788031
 30
0.0
 11
3041.936321555691
 21
-1407.791011440095
 31
0.0
  0
LINE
  5
578
330
1F
100
AcDbEntity
  8
0-6_扉
  6
Continuous
 62
    40
370
    15
100
AcDbLine
 10
2950.603119375503
 20
-528.6282470563286
 30
0.0
 11
2950.603119375503
 21
-1355.059762575413
 31
0.0
  0
LINE
  5
579
330
1F
100
AcDbEntity
  8
0-6_扉
  6
Continuous
 62
    40
370
    15
100
AcDbLine
 10
3841.557663670551
 20
-528.6282470563286
 30
0.0
 11
3841.557663670551
 21
-1208.090378008423
 31
0.0
  0
LINE
  5
57A
330
1F
100
AcDbEntity
  8
0-6_扉
  6
Continuous
 62
    40
370
    15
100
AcDbLine
 10
3268.80117090945
 20
-528.6282470563286
 30
0.0
 11
3268.80117090945
 21
-1538.771493284151
 31
0.0
  0
LINE
  5
57B
330
1F
100
AcDbEntity
  8
0-6_扉
  6
Continuous
 62
    40
370
    15
100
AcDbLine
 10
3173.341755449258
 20
-528.6282470563286
 30
0.0
 11
3173.341755449258
 21
-1483.657974071526
 31
0.0
  0
LINE
  5
57C
330
1F
100
AcDbEntity
  8
0-6_扉
  6
Continuous
 62
    40
370
    15
100
AcDbLine
 10
3072.579039130177
 20
-528.6282470563286
 30
0.0
 11
3072.579039130177
 21
-1394.863970895636
 31
0.0
  0
LINE
  5
57D
330
1F
100
AcDbEntity
  8
0-6_扉
  6
Continuous
 62
    40
370
    15
100
AcDbLine
 10
3046.062534835682
 20
-528.6282470563286
 30
0.0
 11
3046.062534835682
 21
-1203.360703393897
 31
0.0
  0
LINE
  5
57E
330
1F
100
AcDbEntity
  8
0-6_扉
  6
Continuous
 62
     7
370
     9
100
AcDbLine
 10
2750.250710610838
 20
-1147.530380087984
 30
0.0
 11
2840.343134143502
 21
-1199.545265066512
 31
0.0
  0
LINE
  5
57F
330
1F
100
AcDbEntity
  8
0-6_扉
  6
Continuous
 62
     7
370
     9
100
AcDbLine
 10
2322.258362515021
 20
-900.4288827037643
 30
0.0
 11
2528.01927736145
 21
-1019.225002279054
 31
0.0
  0
LINE
  5
580
330
1F
100
AcDbEntity
  8
0-A_文字
  6
Continuous
 62
   120
370
     5
100
AcDbLine
 10
2877.946479865002
 20
-2861.246932576009
 30
0.0
 11
3005.289796559399
 21
-2673.043923200737
 31
0.0
  0
LINE
  5
581
330
1F
100
AcDbEntity
  8
0-A_文字
  6
Continuous
 62
   120
370
     5
100
AcDbLine
 10
3005.289796559399
 20
-2673.043923200737
 30
0.0
 11
3773.216005155498
 21
-2673.043923200737
 31
0.0
  0
LINE
  5
582
330
1F
100
AcDbEntity
  8
0-A_文字
  6
Continuous
 62
    92
370
    13
100
AcDbLine
 10
1937.619448392749
 20
-3567.800350305713
 30
0.0
 11
4173.892326928524
 21
-3567.800350305713
 31
0.0
  0
LINE
  5
583
330
1F
100
AcDbEntity
  8
0-A_文字
  6
Continuous
 62
    92
370
    13
100
AcDbLine
 10
1937.619448392749
 20
-3567.800350305713
 30
0.0
 11
1937.619448392749
 21
56.99980204812043
 31
0.0
  0
LINE
  5
584
330
1F
100
AcDbEntity
  8
0-A_文字
  6
Continuous
 62
    92
370
    13
100
AcDbLine
 10
4173.892326928524
 20
-3567.800350305713
 30
0.0
 11
4173.892326928524
 21
56.99980204812043
 31
0.0
  0
MTEXT
  5
585
330
1F
100
AcDbEntity
  8
F-A_文字
  6
Continuous
 62
     7
370
     0
100
AcDbMText
 10
-5080.081323642279
 20
-4045.073223749623
 30
0.0
 40
79.85342465753419
 41
3825.0
 46
0.0
 71
     7
 72
     1
  1
{\fＭＳ ゴシック|b0|i0|c128|p49;ピノアース　引き分け戸　上吊りタイプ　固定枠155巾　枠外H2,035　枠外W3,234}
 73
     1
 44
1.0
  0
LINE
  5
586
330
1F
100
AcDbEntity
  8
F-0_補助線
  6
JWW_HOJO
 62
     7
370
     9
100
AcDbLine
 10
1349.918584083287
 20
-3795.000003092998
 30
0.0
 11
1349.918584083287
 21
-4195.000008247994
 31
0.0
  0
LINE
  5
587
330
1F
100
AcDbEntity
  8
F-0_補助線
  6
JWW_HOJO
 62
     7
370
     9
100
AcDbLine
 10
4889.917891251784
 20
-3795.000003092998
 30
0.0
 11
4889.917891251784
 21
-4195.000008247994
 31
0.0
  0
MTEXT
  5
588
330
1F
100
AcDbEntity
  8
F-A_文字
  6
Continuous
 62
     7
370
     0
100
AcDbMText
 10
1349.918584083287
 20
-3945.948482732445
 30
0.0
 40
78.105
 41
615.0
 46
0.0
 71
     7
 72
     1
  1
{\fＭＳ ゴシック|b0|i0|c128|p49;建具納まり図}
 73
     1
 44
1.0
  0
MTEXT
  5
589
330
1F
100
AcDbEntity
  8
F-A_文字
  6
Continuous
 62
     7
370
     0
100
AcDbMText
 10
509.9185840832865
 20
-3956.425201962234
 30
0.0
 40
57.15
 41
675.0
 46
0.0
 71
     7
 72
     1
  1
{\fＭＳ ゴシック|b0|i0|c128|p49;ＰＩＮＯＥＡＲＴＨ}
 73
     1
 44
1.0
  0
LINE
  5
58A
330
1F
100
AcDbEntity
  8
0-1_通り芯
  6
JWW_CENTER1
 62
   120
370
     5
100
AcDbLine
 10
-2135.298782269491
 20
2570.962331356171
 30
0.0
 11
2137.381578376201
 21
2570.962331356171
 31
0.0
  0
LINE
  5
58B
330
1F
100
AcDbEntity
  8
0-1_通り芯
  6
JWW_CENTER1
 62
   120
370
     5
100
AcDbLine
 10
-3448.217896424574
 20
-2997.862001943634
 30
0.0
 11
-3448.217896424574
 21
194.9998020481414
 31
0.0
  0
LINE
  5
58C
330
1F
100
AcDbEntity
  8
0-1_通り芯
  6
JWW_CENTER1
 62
   120
370
     5
100
AcDbLine
 10
-3334.217896424571
 20
-2781.000404213939
 30
0.0
 11
-3334.217896424571
 21
-237.0000358379009
 31
0.0
  0
LINE
  5
58D
330
1F
100
AcDbEntity
  8
0-1_通り芯
  6
JWW_CENTER1
 62
   120
370
     5
100
AcDbLine
 10
-104.6373324363695
 20
1871.962331356173
 30
0.0
 11
-104.6373324363695
 21
3041.962331356173
 31
0.0
  0
LWPOLYLINE
  5
58E
330
1F
100
AcDbEntity
  8
0-B_寸法
  6
Continuous
 62
     7
370
     9
100
AcDbPolyline
 90
        4
 70
     1
 43
3.0
 10
-223.1373324363695
 20
2570.962331356171
 42
0.4142135623731
 10
-224.6373324363695
 20
2572.462331356171
 42
0.4142135623731
 10
-226.1373324363695
 20
2570.962331356171
 42
0.4142135623731
 10
-224.6373324363695
 20
2569.462331356171
 42
0.4142135623731
  0
LWPOLYLINE
  5
58F
330
1F
100
AcDbEntity
  8
0-B_寸法
  6
Continuous
 62
     7
370
     9
100
AcDbPolyline
 90
        4
 70
     1
 43
3.0
 10
-223.1373324363695
 20
2456.962331356173
 42
0.4142135623731
 10
-224.6373324363695
 20
2458.462331356173
 42
0.4142135623731
 10
-226.1373324363695
 20
2456.962331356173
 42
0.4142135623731
 10
-224.6373324363695
 20
2455.462331356173
 42
0.4142135623731
  0
LWPOLYLINE
  5
590
330
1F
100
AcDbEntity
  8
0-B_寸法
  6
Continuous
 62
     7
370
     9
100
AcDbPolyline
 90
        4
 70
     1
 43
3.0
 10
-3446.717896424574
 20
-1419.000197951874
 42
0.4142135623731
 10
-3448.217896424574
 20
-1417.500197951874
 42
0.4142135623731
 10
-3449.717896424573
 20
-1419.000197951874
 42
0.4142135623731
 10
-3448.217896424574
 20
-1420.500197951874
 42
0.4142135623731
  0
LWPOLYLINE
  5
591
330
1F
100
AcDbEntity
  8
0-B_寸法
  6
Continuous
 62
     7
370
     9
100
AcDbPolyline
 90
        4
 70
     1
 43
3.0
 10
-3332.717896424571
 20
-1419.000197951874
 42
0.4142135623731
 10
-3334.217896424571
 20
-1417.500197951874
 42
0.4142135623731
 10
-3335.717896424571
 20
-1419.000197951874
 42
0.4142135623731
 10
-3334.217896424571
 20
-1420.500197951874
 42
0.4142135623731
  0
MTEXT
  5
592
330
1F
100
AcDbEntity
  8
F-A_文字
  6
Continuous
 62
     7
370
     0
100
AcDbMText
 10
4889.917891251784
 20
-3945.570773120549
 30
0.0
 40
78.86699999999999
 41
517.5
 46
0.0
 71
     7
 72
     1
  1
{\fＭＳ ゴシック|b0|i0|c128|p49;2022.04.01}
 73
     1
 44
1.0
  0
MTEXT
  5
593
330
1F
100
AcDbEntity
  8
0-B_寸法
  6
Continuous
 62
     7
370
   211
100
AcDbMText
 10
-239.6373324363695
 20
2307.682331356172
 30
0.0
 40
91.44
 41
120.0
 46
0.0
 71
     7
 72
     1
  1
{\fＭＳ ゴシック|b0|i0|c128|p49;19}
 11
6.123031769111886E-17
 21
1.0
 31
0.0
 73
     1
 44
1.0
  0
LINE
  5
594
330
1F
100
AcDbEntity
  8
0-B_寸法
  6
Continuous
 62
   120
370
     5
100
AcDbLine
 10
-224.6373324363695
 20
2570.962331356171
 30
0.0
 11
-224.6373324363695
 21
2324.962331356173
 31
0.0
  0
LINE
  5
595
330
1F
100
AcDbEntity
  8
0-6_扉
  6
Continuous
 62
   200
370
    20
100
AcDbLine
 10
538.3643398052892
 20
2480.962331356171
 30
0.0
 11
1135.211488214778
 21
2480.962331356171
 31
0.0
  0
MTEXT
  5
596
330
1F
100
AcDbEntity
  8
0-B_寸法
  6
Continuous
 62
     7
370
     0
100
AcDbMText
 10
-3642.050921499542
 20
-868.1051942929762
 30
0.0
 40
91.44
 41
180.0
 46
0.0
 71
     7
 72
     1
  1
{\fＭＳ ゴシック|b0|i0|c128|p49;147}
 73
     1
 44
1.0
  0
MTEXT
  5
597
330
1F
100
AcDbEntity
  8
0-B_寸法
  6
Continuous
 62
     7
370
   211
100
AcDbMText
 10
-3583.217896424573
 20
-1418.280197951874
 30
0.0
 40
91.44
 41
120.0
 46
0.0
 71
     7
 72
     1
  1
{\fＭＳ ゴシック|b0|i0|c128|p49;19}
 73
     1
 44
1.0
  0
LINE
  5
598
330
1F
100
AcDbEntity
  8
0-B_寸法
  6
Continuous
 62
   120
370
     5
100
AcDbLine
 10
-3580.217896424574
 20
-1419.000197951874
 30
0.0
 11
-3334.217896424571
 21
-1419.000197951874
 31
0.0
  0
MTEXT
  5
599
330
1F
100
AcDbEntity
  8
0-B_寸法
  6
Continuous
 62
     7
370
     0
100
AcDbMText
 10
-1832.952280991677
 20
2466.682331356171
 30
0.0
 40
91.44
 41
180.0
 46
0.0
 71
     7
 72
     1
  1
{\fＭＳ ゴシック|b0|i0|c128|p49;100}
 11
6.123031769111886E-17
 21
1.0
 31
0.0
 73
     1
 44
1.0
  0
ENDSEC
  0
SECTION
  2
OBJECTS
  0
DICTIONARY
  5
C
330
0
100
AcDbDictionary
281
     1
  3
ACAD_GROUP
350
D
  3
ACAD_LAYOUT
350
1A
  3
ACAD_MATERIAL
350
3B
  3
ACAD_MLEADERSTYLE
350
59B
  3
ACAD_MLINESTYLE
350
17
  3
ACAD_PLOTSETTINGS
350
19
  3
ACAD_PLOTSTYLENAME
350
E
  3
ACAD_TABLESTYLE
350
59A
  3
ACAD_VISUALSTYLE
350
2A
  0
DICTIONARY
  5
D
102
{ACAD_REACTORS
330
C
102
}
330
C
100
AcDbDictionary
281
     1
  0
DICTIONARY
  5
1A
102
{ACAD_REACTORS
330
C
102
}
330
C
100
AcDbDictionary
281
     1
  3
Layout1
350
1E
  3
Layout2
350
26
  3
Model
350
22
  0
DICTIONARY
  5
3B
102
{ACAD_REACTORS
330
C
102
}
330
C
100
AcDbDictionary
281
     1
  3
ByBlock
350
3D
  3
ByLayer
350
3C
  3
Global
350
3E
  0
DICTIONARY
  5
59B
102
{ACAD_REACTORS
330
C
102
}
330
C
100
AcDbDictionary
281
     1
  0
DICTIONARY
  5
17
102
{ACAD_REACTORS
330
C
102
}
330
C
100
AcDbDictionary
281
     1
  3
Standard
350
18
  0
DICTIONARY
  5
19
102
{ACAD_REACTORS
330
C
102
}
330
C
100
AcDbDictionary
281
     1
  0
ACDBDICTIONARYWDFLT
  5
E
102
{ACAD_REACTORS
330
C
102
}
330
C
100
AcDbDictionary
281
     1
  3
Normal
350
F
100
AcDbDictionaryWithDefault
340
F
  0
DICTIONARY
  5
59A
102
{ACAD_REACTORS
330
C
102
}
330
C
100
AcDbDictionary
281
     1
  0
DICTIONARY
  5
2A
102
{ACAD_REACTORS
330
C
102
}
330
C
100
AcDbDictionary
281
     1
  3
2dWireframe
350
2F
  3
3D Hidden
350
31
  3
3dWireframe
350
30
  3
Basic
350
32
  3
Brighten
350
36
  3
ColorChange
350
3A
  3
Conceptual
350
34
  3
Dim
350
35
  3
Facepattern
350
39
  3
Flat
350
2B
  3
FlatWithEdges
350
2C
  3
Gouraud
350
2D
  3
GouraudWithEdges
350
2E
  3
Linepattern
350
38
  3
Realistic
350
33
  3
Thicken
350
37
  0
LAYOUT
  5
1E
102
{ACAD_REACTORS
330
1A
102
}
330
1A
100
AcDbPlotSettings
  1

  2
none_device
  4

  6

 40
0.0
 41
0.0
 42
0.0
 43
0.0
 44
0.0
 45
0.0
 46
0.0
 47
0.0
 48
0.0
 49
0.0
140
0.0
141
0.0
142
1.0
143
1.0
 70
   688
 72
     0
 73
     0
 74
     5
  7

 75
    16
 76
     0
 77
     5
 78
   300
147
1.0
148
0.0
149
0.0
100
AcDbLayout
  1
Layout1
 70
     1
 71
     1
 10
0.0
 20
0.0
 11
420.0
 21
297.0
 12
0.0
 22
0.0
 32
0.0
 14
1.000000000000000E+20
 24
1.000000000000000E+20
 34
1.000000000000000E+20
 15
-1.000000000000000E+20
 25
-1.000000000000000E+20
 35
-1.000000000000000E+20
146
0.0
 13
0.0
 23
0.0
 33
0.0
 16
1.0
 26
0.0
 36
0.0
 17
0.0
 27
1.0
 37
0.0
 76
     0
330
1B
  0
LAYOUT
  5
26
102
{ACAD_REACTORS
330
1A
102
}
330
1A
100
AcDbPlotSettings
  1

  2
none_device
  4

  6

 40
0.0
 41
0.0
 42
0.0
 43
0.0
 44
0.0
 45
0.0
 46
0.0
 47
0.0
 48
0.0
 49
0.0
140
0.0
141
0.0
142
1.0
143
1.0
 70
   688
 72
     0
 73
     0
 74
     5
  7

 75
    16
 76
     0
 77
     5
 78
   300
147
1.0
148
0.0
149
0.0
100
AcDbLayout
  1
Layout2
 70
     1
 71
     2
 10
0.0
 20
0.0
 11
0.0
 21
0.0
 12
0.0
 22
0.0
 32
0.0
 14
0.0
 24
0.0
 34
0.0
 15
0.0
 25
0.0
 35
0.0
146
0.0
 13
0.0
 23
0.0
 33
0.0
 16
1.0
 26
0.0
 36
0.0
 17
0.0
 27
1.0
 37
0.0
 76
     0
330
23
  0
LAYOUT
  5
22
102
{ACAD_REACTORS
330
1A
102
}
330
1A
100
AcDbPlotSettings
  1

  2
none_device
  4

  6

 40
0.0
 41
0.0
 42
0.0
 43
0.0
 44
0.0
 45
0.0
 46
0.0
 47
0.0
 48
0.0
 49
0.0
140
0.0
141
0.0
142
1.0
143
1.0
 70
  1712
 72
     0
 73
     0
 74
     0
  7

 75
     0
 76
     0
 77
     5
 78
   300
147
1.0
148
0.0
149
0.0
100
AcDbLayout
  1
Model
 70
     1
 71
     0
 10
-8910.0
 20
-6300.0
 11
8910.0
 21
6300.0
 12
0.0
 22
0.0
 32
0.0
 14
-8910.0
 24
-6300.0
 34
0.0
 15
8910.0
 25
6300.0
 35
0.0
146
0.0
 13
0.0
 23
0.0
 33
0.0
 16
1.0
 26
0.0
 36
0.0
 17
0.0
 27
1.0
 37
0.0
 76
     0
330
1F
331
29
  0
MATERIAL
  5
3D
102
{ACAD_REACTORS
330
3B
102
}
330
3B
100
AcDbMaterial
  1
ByBlock
 72
     1
 94
      127
  0
MATERIAL
  5
3C
102
{ACAD_REACTORS
330
3B
102
}
330
3B
100
AcDbMaterial
  1
ByLayer
 72
     1
 94
      127
  0
MATERIAL
  5
3E
102
{ACAD_REACTORS
330
3B
102
}
330
3B
100
AcDbMaterial
  1
Global
 72
     1
 94
      127
  0
MLINESTYLE
  5
18
102
{ACAD_REACTORS
330
17
102
}
330
17
100
AcDbMlineStyle
  2
Standard
 70
     0
  3

 62
   256
 51
90.0
 52
90.0
 71
     2
 49
0.5
 62
   256
  6
BYLAYER
 49
-0.5
 62
   256
  6
BYLAYER
  0
ACDBPLACEHOLDER
  5
F
102
{ACAD_REACTORS
330
E
102
}
330
E
  0
VISUALSTYLE
  5
2F
102
{ACAD_REACTORS
330
2A
102
}
330
2A
100
AcDbVisualStyle
  2
2dWireframe
 70
     4
177
     2
291
     0
 71
     0
176
     1
 72
     2
176
     1
 73
     0
176
     1
 90
        0
176
     1
 40
-0.6
176
     1
 41
-30.0
176
     1
 62
     5
 63
     7
421
 16777215
176
     1
 74
     1
176
     1
 91
        4
176
     1
 64
     7
176
     1
 65
   257
176
     1
 75
     1
176
     1
175
     1
176
     1
 42
1.0
176
     1
 92
        0
176
     1
 66
   257
176
     1
 43
1.0
176
     1
 76
     1
176
     1
 77
     6
176
     1
 78
     2
176
     1
 67
     7
176
     1
 79
     5
176
     1
170
     0
176
     1
171
     0
176
     1
290
     0
176
     1
 93
        1
176
     1
 44
0.0
176
     1
173
     0
176
     1
  0
VISUALSTYLE
  5
31
102
{ACAD_REACTORS
330
2A
102
}
330
2A
100
AcDbVisualStyle
  2
3D Hidden
 70
     6
177
     2
291
     0
 71
     1
176
     1
 72
     2
176
     1
 73
     2
176
     1
 90
        0
176
     1
 40
-0.6
176
     1
 41
-30.0
176
     1
 62
     5
 63
     7
421
 16777215
176
     1
 74
     2
176
     1
 91
        2
176
     1
 64
     7
176
     1
 65
   257
176
     1
 75
     2
176
     1
175
     1
176
     1
 42
40.0
176
     1
 92
        0
176
     1
 66
   257
176
     1
 43
1.0
176
     1
 76
     1
176
     1
 77
     6
176
     1
 78
     2
176
     1
 67
     7
176
     1
 79
     3
176
     1
170
     0
176
     1
171
     0
176
     1
290
     0
176
     1
 93
        1
176
     1
 44
0.0
176
     1
173
     0
176
     1
  0
VISUALSTYLE
  5
30
102
{ACAD_REACTORS
330
2A
102
}
330
2A
100
AcDbVisualStyle
  2
3dWireframe
 70
     5
177
     2
291
     0
 71
     0
176
     1
 72
     2
176
     1
 73
     0
176
     1
 90
        0
176
     1
 40
-0.6
176
     1
 41
-30.0
176
     1
 62
     5
 63
     7
421
 16777215
176
     1
 74
     1
176
     1
 91
        4
176
     1
 64
     7
176
     1
 65
   257
176
     1
 75
     1
176
     1
175
     1
176
     1
 42
1.0
176
     1
 92
        0
176
     1
 66
   257
176
     1
 43
1.0
176
     1
 76
     1
176
     1
 77
     6
176
     1
 78
     2
176
     1
 67
     7
176
     1
 79
     5
176
     1
170
     0
176
     1
171
     0
176
     1
290
     0
176
     1
 93
        1
176
     1
 44
0.0
176
     1
173
     0
176
     1
  0
VISUALSTYLE
  5
32
102
{ACAD_REACTORS
330
2A
102
}
330
2A
100
AcDbVisualStyle
  2
Basic
 70
     7
177
     2
291
     1
 71
     1
176
     1
 72
     0
176
     1
 73
     1
176
     1
 90
        0
176
     1
 40
-0.6
176
     1
 41
-30.0
176
     1
 62
     5
 63
     7
421
 16777215
176
     1
 74
     0
176
     1
 91
        4
176
     1
 64
     7
176
     1
 65
   257
176
     1
 75
     1
176
     1
175
     1
176
     1
 42
1.0
176
     1
 92
        8
176
     1
 66
     7
176
     1
 43
1.0
176
     1
 76
     1
176
     1
 77
     6
176
     1
 78
     2
176
     1
 67
     7
176
     1
 79
     5
176
     1
170
     0
176
     1
171
     0
176
     1
290
     0
176
     1
 93
        1
176
     1
 44
0.0
176
     1
173
     0
176
     1
  0
VISUALSTYLE
  5
36
102
{ACAD_REACTORS
330
2A
102
}
330
2A
100
AcDbVisualStyle
  2
Brighten
 70
    12
177
     2
291
     1
 71
     2
176
     1
 72
     2
176
     1
 73
     0
176
     1
 90
        0
176
     1
 40
-0.6
176
     1
 41
-30.0
176
     1
 62
     5
 63
     7
421
 16777215
176
     1
 74
     1
176
     1
 91
        4
176
     1
 64
     7
176
     1
 65
   257
176
     1
 75
     1
176
     1
175
     1
176
     1
 42
1.0
176
     1
 92
        8
176
     1
 66
     7
176
     1
 43
1.0
176
     1
 76
     1
176
     1
 77
     6
176
     1
 78
     2
176
     1
 67
     7
176
     1
 79
     5
176
     1
170
     0
176
     1
171
     0
176
     1
290
     0
176
     1
 93
        1
176
     1
 44
50.0
176
     1
173
     0
176
     1
  0
VISUALSTYLE
  5
3A
102
{ACAD_REACTORS
330
2A
102
}
330
2A
100
AcDbVisualStyle
  2
ColorChange
 70
    16
177
     2
291
     1
 71
     2
176
     1
 72
     2
176
     1
 73
     3
176
     1
 90
        0
176
     1
 40
-0.6
176
     1
 41
-30.0
176
     1
 62
     5
 63
     8
421
  8421504
176
     1
 74
     1
176
     1
 91
        4
176
     1
 64
     7
176
     1
 65
   257
176
     1
 75
     1
176
     1
175
     1
176
     1
 42
1.0
176
     1
 92
        8
176
     1
 66
     8
424
  8421504
176
     1
 43
1.0
176
     1
 76
     1
176
     1
 77
     6
176
     1
 78
     2
176
     1
 67
     7
176
     1
 79
     5
176
     1
170
     0
176
     1
171
     0
176
     1
290
     0
176
     1
 93
        1
176
     1
 44
0.0
176
     1
173
     0
176
     1
  0
VISUALSTYLE
  5
34
102
{ACAD_REACTORS
330
2A
102
}
330
2A
100
AcDbVisualStyle
  2
Conceptual
 70
     9
177
     2
291
     0
 71
     3
176
     1
 72
     2
176
     1
 73
     0
176
     1
 90
        0
176
     1
 40
-0.6
176
     1
 41
-30.0
176
     1
 62
     5
 63
     7
421
 16777215
176
     1
 74
     2
176
     1
 91
        2
176
     1
 64
     7
176
     1
 65
   257
176
     1
 75
     1
176
     1
175
     1
176
     1
 42
40.0
176
     1
 92
        8
176
     1
 66
     7
176
     1
 43
1.0
176
     1
 76
     1
176
     1
 77
     6
176
     1
 78
     2
176
     1
 67
     7
176
     1
 79
     3
176
     1
170
     0
176
     1
171
     0
176
     1
290
     0
176
     1
 93
        1
176
     1
 44
0.0
176
     1
173
     0
176
     1
  0
VISUALSTYLE
  5
35
102
{ACAD_REACTORS
330
2A
102
}
330
2A
100
AcDbVisualStyle
  2
Dim
 70
    11
177
     2
291
     1
 71
     2
176
     1
 72
     2
176
     1
 73
     0
176
     1
 90
        0
176
     1
 40
-0.6
176
     1
 41
-30.0
176
     1
 62
     5
 63
     7
421
 16777215
176
     1
 74
     1
176
     1
 91
        4
176
     1
 64
     7
176
     1
 65
   257
176
     1
 75
     1
176
     1
175
     1
176
     1
 42
1.0
176
     1
 92
        8
176
     1
 66
     7
176
     1
 43
1.0
176
     1
 76
     1
176
     1
 77
     6
176
     1
 78
     2
176
     1
 67
     7
176
     1
 79
     5
176
     1
170
     0
176
     1
171
     0
176
     1
290
     0
176
     1
 93
        1
176
     1
 44
-50.0
176
     1
173
     0
176
     1
  0
VISUALSTYLE
  5
39
102
{ACAD_REACTORS
330
2A
102
}
330
2A
100
AcDbVisualStyle
  2
Facepattern
 70
    15
177
     2
291
     1
 71
     2
176
     1
 72
     2
176
     1
 73
     0
176
     1
 90
        0
176
     1
 40
-0.6
176
     1
 41
-30.0
176
     1
 62
     5
 63
     7
421
 16777215
176
     1
 74
     1
176
     1
 91
        4
176
     1
 64
     7
176
     1
 65
   257
176
     1
 75
     1
176
     1
175
     1
176
     1
 42
1.0
176
     1
 92
        8
176
     1
 66
     7
176
     1
 43
1.0
176
     1
 76
     1
176
     1
 77
     6
176
     1
 78
     2
176
     1
 67
     7
176
     1
 79
     5
176
     1
170
     0
176
     1
171
     0
176
     1
290
     0
176
     1
 93
        1
176
     1
 44
0.0
176
     1
173
     0
176
     1
  0
VISUALSTYLE
  5
2B
102
{ACAD_REACTORS
330
2A
102
}
330
2A
100
AcDbVisualStyle
  2
Flat
 70
     0
177
     2
291
     1
 71
     2
176
     1
 72
     1
176
     1
 73
     1
176
     1
 90
        2
176
     1
 40
-0.6
176
     1
 41
30.0
176
     1
 62
     5
 63
     7
421
 16777215
176
     1
 74
     0
176
     1
 91
        4
176
     1
 64
     7
176
     1
 65
   257
176
     1
 75
     1
176
     1
175
     1
176
     1
 42
1.0
176
     1
 92
        8
176
     1
 66
     7
176
     1
 43
1.0
176
     1
 76
     1
176
     1
 77
     6
176
     1
 78
     2
176
     1
 67
     7
176
     1
 79
     5
176
     1
170
     0
176
     1
171
     0
176
     1
290
     0
176
     1
 93
       13
176
     1
 44
0.0
176
     1
173
     0
176
     1
  0
VISUALSTYLE
  5
2C
102
{ACAD_REACTORS
330
2A
102
}
330
2A
100
AcDbVisualStyle
  2
FlatWithEdges
 70
     1
177
     2
291
     1
 71
     2
176
     1
 72
     1
176
     1
 73
     1
176
     1
 90
        2
176
     1
 40
-0.6
176
     1
 41
30.0
176
     1
 62
     5
 63
     7
421
 16777215
176
     1
 74
     1
176
     1
 91
        4
176
     1
 64
     7
176
     1
 65
   257
176
     1
 75
     1
176
     1
175
     1
176
     1
 42
1.0
176
     1
 92
        0
176
     1
 66
   257
176
     1
 43
1.0
176
     1
 76
     1
176
     1
 77
     6
176
     1
 78
     2
176
     1
 67
     7
176
     1
 79
     5
176
     1
170
     0
176
     1
171
     0
176
     1
290
     0
176
     1
 93
       13
176
     1
 44
0.0
176
     1
173
     0
176
     1
  0
VISUALSTYLE
  5
2D
102
{ACAD_REACTORS
330
2A
102
}
330
2A
100
AcDbVisualStyle
  2
Gouraud
 70
     2
177
     2
291
     1
 71
     2
176
     1
 72
     2
176
     1
 73
     1
176
     1
 90
        2
176
     1
 40
-0.6
176
     1
 41
30.0
176
     1
 62
     5
 63
     7
421
 16777215
176
     1
 74
     0
176
     1
 91
        4
176
     1
 64
     7
176
     1
 65
   257
176
     1
 75
     1
176
     1
175
     1
176
     1
 42
1.0
176
     1
 92
        0
176
     1
 66
     7
176
     1
 43
1.0
176
     1
 76
     1
176
     1
 77
     6
176
     1
 78
     2
176
     1
 67
     7
176
     1
 79
     5
176
     1
170
     0
176
     1
171
     0
176
     1
290
     0
176
     1
 93
       13
176
     1
 44
0.0
176
     1
173
     0
176
     1
  0
VISUALSTYLE
  5
2E
102
{ACAD_REACTORS
330
2A
102
}
330
2A
100
AcDbVisualStyle
  2
GouraudWithEdges
 70
     3
177
     2
291
     1
 71
     2
176
     1
 72
     2
176
     1
 73
     1
176
     1
 90
        2
176
     1
 40
-0.6
176
     1
 41
30.0
176
     1
 62
     5
 63
     7
421
 16777215
176
     1
 74
     1
176
     1
 91
        4
176
     1
 64
     7
176
     1
 65
   257
176
     1
 75
     1
176
     1
175
     1
176
     1
 42
1.0
176
     1
 92
        0
176
     1
 66
   257
176
     1
 43
1.0
176
     1
 76
     1
176
     1
 77
     6
176
     1
 78
     2
176
     1
 67
     7
176
     1
 79
     5
176
     1
170
     0
176
     1
171
     0
176
     1
290
     0
176
     1
 93
       13
176
     1
 44
0.0
176
     1
173
     0
176
     1
  0
VISUALSTYLE
  5
38
102
{ACAD_REACTORS
330
2A
102
}
330
2A
100
AcDbVisualStyle
  2
Linepattern
 70
    14
177
     2
291
     1
 71
     2
176
     1
 72
     2
176
     1
 73
     0
176
     1
 90
        0
176
     1
 40
-0.6
176
     1
 41
-30.0
176
     1
 62
     5
 63
     7
421
 16777215
176
     1
 74
     1
176
     1
 91
        4
176
     1
 64
     7
176
     1
 65
   257
176
     1
 75
     7
176
     1
175
     7
176
     1
 42
1.0
176
     1
 92
        8
176
     1
 66
     7
176
     1
 43
1.0
176
     1
 76
     1
176
     1
 77
     6
176
     1
 78
     2
176
     1
 67
     7
176
     1
 79
     5
176
     1
170
     0
176
     1
171
     0
176
     1
290
     0
176
     1
 93
        1
176
     1
 44
0.0
176
     1
173
     0
176
     1
  0
VISUALSTYLE
  5
33
102
{ACAD_REACTORS
330
2A
102
}
330
2A
100
AcDbVisualStyle
  2
Realistic
 70
     8
177
     2
291
     0
 71
     2
176
     1
 72
     2
176
     1
 73
     0
176
     1
 90
        0
176
     1
 40
-0.6
176
     1
 41
-30.0
176
     1
 62
     5
 63
     7
421
 16777215
176
     1
 74
     1
176
     1
 91
        0
176
     1
 64
     7
176
     1
 65
   257
176
     1
 75
     1
176
     1
175
     1
176
     1
 42
1.0
176
     1
 92
        8
176
     1
 66
     8
424
  7895160
176
     1
 43
1.0
176
     1
 76
     1
176
     1
 77
     6
176
     1
 78
     2
176
     1
 67
     7
176
     1
 79
     5
176
     1
170
     0
176
     1
171
     0
176
     1
290
     0
176
     1
 93
       13
176
     1
 44
0.0
176
     1
173
     0
176
     1
  0
VISUALSTYLE
  5
37
102
{ACAD_REACTORS
330
2A
102
}
330
2A
100
AcDbVisualStyle
  2
Thicken
 70
    13
177
     2
291
     1
 71
     2
176
     1
 72
     2
176
     1
 73
     0
176
     1
 90
        0
176
     1
 40
-0.6
176
     1
 41
-30.0
176
     1
 62
     5
 63
     7
421
 16777215
176
     1
 74
     1
176
     1
 91
        4
176
     1
 64
     7
176
     1
 65
   257
176
     1
 75
     1
176
     1
175
     1
176
     1
 42
1.0
176
     1
 92
       12
176
     1
 66
     7
176
     1
 43
1.0
176
     1
 76
     1
176
     1
 77
     6
176
     1
 78
     2
176
     1
 67
     7
176
     1
 79
     5
176
     1
170
     0
176
     1
171
     0
176
     1
290
     0
176
     1
 93
        1
176
     1
 44
0.0
176
     1
173
     0
176
     1
  0
ENDSEC
  0
EOF
