  0
SECTION
  2
HEADER
  9
$ACADVER
  1
AC1024
  9
$ACADMAINTVER
 70
     6
  9
$DWGCODEPAGE
  3
ANSI_932
  9
$INSBASE
 10
0.0
 20
0.0
 30
0.0
  9
$EXTMIN
 10
-8910.0
 20
-6300.0
 30
0.0
  9
$EXTMAX
 10
8910.0
 20
6300.0
 30
0.0
  9
$LIMMIN
 10
-8910.0
 20
-6300.0
  9
$LIMMAX
 10
8910.0
 20
6300.0
  9
$ORTHOMODE
 70
     0
  9
$REGENMODE
 70
     1
  9
$FILLMODE
 70
     1
  9
$QTEXTMODE
 70
     0
  9
$MIRRTEXT
 70
     1
  9
$LTSCALE
 40
30.0
  9
$ATTMODE
 70
     1
  9
$TEXTSIZE
 40
2.5
  9
$TRACEWID
 40
1.0
  9
$TEXTSTYLE
  7
Standard
  9
$CLAYER
  8
0
  9
$CELTYPE
  6
ByLayer
  9
$CECOLOR
 62
   256
  9
$CELTSCALE
 40
1.0
  9
$DISPSILH
 70
     0
  9
$DIMSCALE
 40
1.0
  9
$DIMASZ
 40
2.5
  9
$DIMEXO
 40
0.625
  9
$DIMDLI
 40
3.75
  9
$DIMRND
 40
0.0
  9
$DIMDLE
 40
0.0
  9
$DIMEXE
 40
1.25
  9
$DIMTP
 40
0.0
  9
$DIMTM
 40
0.0
  9
$DIMTXT
 40
2.5
  9
$DIMCEN
 40
2.5
  9
$DIMTSZ
 40
0.0
  9
$DIMTOL
 70
     0
  9
$DIMLIM
 70
     0
  9
$DIMTIH
 70
     0
  9
$DIMTOH
 70
     0
  9
$DIMSE1
 70
     0
  9
$DIMSE2
 70
     0
  9
$DIMTAD
 70
     1
  9
$DIMZIN
 70
     8
  9
$DIMBLK
  1

  9
$DIMASO
 70
     1
  9
$DIMSHO
 70
     1
  9
$DIMPOST
  1

  9
$DIMAPOST
  1

  9
$DIMALT
 70
     0
  9
$DIMALTD
 70
     3
  9
$DIMALTF
 40
0.03937007874016
  9
$DIMLFAC
 40
1.0
  9
$DIMTOFL
 70
     1
  9
$DIMTVP
 40
0.0
  9
$DIMTIX
 70
     0
  9
$DIMSOXD
 70
     0
  9
$DIMSAH
 70
     0
  9
$DIMBLK1
  1

  9
$DIMBLK2
  1

  9
$DIMSTYLE
  2
ISO-25
  9
$DIMCLRD
 70
     0
  9
$DIMCLRE
 70
     0
  9
$DIMCLRT
 70
     0
  9
$DIMTFAC
 40
1.0
  9
$DIMGAP
 40
0.625
  9
$DIMJUST
 70
     0
  9
$DIMSD1
 70
     0
  9
$DIMSD2
 70
     0
  9
$DIMTOLJ
 70
     0
  9
$DIMTZIN
 70
     8
  9
$DIMALTZ
 70
     0
  9
$DIMALTTZ
 70
     0
  9
$DIMUPT
 70
     0
  9
$DIMDEC
 70
     2
  9
$DIMTDEC
 70
     2
  9
$DIMALTU
 70
     2
  9
$DIMALTTD
 70
     3
  9
$DIMTXSTY
  7
Standard
  9
$DIMAUNIT
 70
     0
  9
$DIMADEC
 70
     0
  9
$DIMALTRND
 40
0.0
  9
$DIMAZIN
 70
     0
  9
$DIMDSEP
 70
    44
  9
$DIMATFIT
 70
     3
  9
$DIMFRAC
 70
     0
  9
$DIMLDRBLK
  1

  9
$DIMLUNIT
 70
     2
  9
$DIMLWD
 70
    -2
  9
$DIMLWE
 70
    -2
  9
$DIMTMOVE
 70
     0
  9
$DIMFXL
 40
1.0
  9
$DIMFXLON
 70
     0
  9
$DIMJOGANG
 40
0.7853981633974483
  9
$DIMTFILL
 70
     0
  9
$DIMTFILLCLR
 70
     0
  9
$DIMARCSYM
 70
     0
  9
$DIMLTYPE
  6

  9
$DIMLTEX1
  6

  9
$DIMLTEX2
  6

  9
$DIMTXTDIRECTION
 70
     0
  9
$LUNITS
 70
     2
  9
$LUPREC
 70
     4
  9
$SKETCHINC
 40
1.0
  9
$FILLETRAD
 40
10.0
  9
$AUNITS
 70
     0
  9
$AUPREC
 70
     0
  9
$MENU
  1
.
  9
$ELEVATION
 40
0.0
  9
$PELEVATION
 40
0.0
  9
$THICKNESS
 40
0.0
  9
$LIMCHECK
 70
     0
  9
$CHAMFERA
 40
10.0
  9
$CHAMFERB
 40
10.0
  9
$CHAMFERC
 40
20.0
  9
$CHAMFERD
 40
0.0
  9
$SKPOLY
 70
     0
  9
$TDCREATE
 40
2459720.607820289
  9
$TDUCREATE
 40
2459720.232820289
  9
$TDUPDATE
 40
2459720.607820301
  9
$TDUUPDATE
 40
2459720.232820301
  9
$TDINDWG
 40
0.0000000116
  9
$TDUSRTIMER
 40
0.0000000116
  9
$USRTIMER
 70
     1
  9
$ANGBASE
 50
0.0
  9
$ANGDIR
 70
     0
  9
$PDMODE
 70
     0
  9
$PDSIZE
 40
0.0
  9
$PLINEWID
 40
0.0
  9
$SPLFRAME
 70
     0
  9
$SPLINETYPE
 70
     6
  9
$SPLINESEGS
 70
     8
  9
$HANDSEED
  5
594
  9
$SURFTAB1
 70
     6
  9
$SURFTAB2
 70
     6
  9
$SURFTYPE
 70
     6
  9
$SURFU
 70
     6
  9
$SURFV
 70
     6
  9
$UCSBASE
  2

  9
$UCSNAME
  2

  9
$UCSORG
 10
0.0
 20
0.0
 30
0.0
  9
$UCSXDIR
 10
1.0
 20
0.0
 30
0.0
  9
$UCSYDIR
 10
0.0
 20
1.0
 30
0.0
  9
$UCSORTHOREF
  2

  9
$UCSORTHOVIEW
 70
     0
  9
$UCSORGTOP
 10
0.0
 20
0.0
 30
0.0
  9
$UCSORGBOTTOM
 10
0.0
 20
0.0
 30
0.0
  9
$UCSORGLEFT
 10
0.0
 20
0.0
 30
0.0
  9
$UCSORGRIGHT
 10
0.0
 20
0.0
 30
0.0
  9
$UCSORGFRONT
 10
0.0
 20
0.0
 30
0.0
  9
$UCSORGBACK
 10
0.0
 20
0.0
 30
0.0
  9
$PUCSBASE
  2

  9
$PUCSNAME
  2

  9
$PUCSORG
 10
0.0
 20
0.0
 30
0.0
  9
$PUCSXDIR
 10
1.0
 20
0.0
 30
0.0
  9
$PUCSYDIR
 10
0.0
 20
1.0
 30
0.0
  9
$PUCSORTHOREF
  2

  9
$PUCSORTHOVIEW
 70
     0
  9
$PUCSORGTOP
 10
0.0
 20
0.0
 30
0.0
  9
$PUCSORGBOTTOM
 10
0.0
 20
0.0
 30
0.0
  9
$PUCSORGLEFT
 10
0.0
 20
0.0
 30
0.0
  9
$PUCSORGRIGHT
 10
0.0
 20
0.0
 30
0.0
  9
$PUCSORGFRONT
 10
0.0
 20
0.0
 30
0.0
  9
$PUCSORGBACK
 10
0.0
 20
0.0
 30
0.0
  9
$USERI1
 70
     0
  9
$USERI2
 70
     0
  9
$USERI3
 70
     0
  9
$USERI4
 70
     0
  9
$USERI5
 70
     0
  9
$USERR1
 40
0.0
  9
$USERR2
 40
0.0
  9
$USERR3
 40
0.0
  9
$USERR4
 40
0.0
  9
$USERR5
 40
0.0
  9
$WORLDVIEW
 70
     1
  9
$SHADEDGE
 70
     3
  9
$SHADEDIF
 70
    70
  9
$TILEMODE
 70
     1
  9
$MAXACTVP
 70
    64
  9
$PINSBASE
 10
0.0
 20
0.0
 30
0.0
  9
$PLIMCHECK
 70
     0
  9
$PEXTMIN
 10
1.000000000000000E+20
 20
1.000000000000000E+20
 30
1.000000000000000E+20
  9
$PEXTMAX
 10
-1.000000000000000E+20
 20
-1.000000000000000E+20
 30
-1.000000000000000E+20
  9
$PLIMMIN
 10
0.0
 20
0.0
  9
$PLIMMAX
 10
420.0
 20
297.0
  9
$UNITMODE
 70
     0
  9
$VISRETAIN
 70
     1
  9
$PLINEGEN
 70
     0
  9
$PSLTSCALE
 70
     1
  9
$TREEDEPTH
 70
  3020
  9
$CMLSTYLE
  2
Standard
  9
$CMLJUST
 70
     0
  9
$CMLSCALE
 40
20.0
  9
$PROXYGRAPHICS
 70
     1
  9
$MEASUREMENT
 70
     1
  9
$CELWEIGHT
370
    -1
  9
$ENDCAPS
280
     0
  9
$JOINSTYLE
280
     0
  9
$LWDISPLAY
290
     0
  9
$INSUNITS
 70
     4
  9
$HYPERLINKBASE
  1

  9
$STYLESHEET
  1

  9
$XEDIT
290
     1
  9
$CEPSNTYPE
380
     0
  9
$PSTYLEMODE
290
     1
  9
$FINGERPRINTGUID
  2
{AC8A2C72-6BB0-47CB-8E30-52DF89F47C03}
  9
$VERSIONGUID
  2
{FAEB1C32-E019-11D5-929B-00C0DF256EC4}
  9
$EXTNAMES
290
     1
  9
$PSVPSCALE
 40
0.0
  9
$OLESTARTUP
290
     0
  9
$SORTENTS
280
   127
  9
$INDEXCTL
280
     0
  9
$HIDETEXT
280
     1
  9
$XCLIPFRAME
280
     2
  9
$HALOGAP
280
     0
  9
$OBSCOLOR
 70
   257
  9
$OBSLTYPE
280
     0
  9
$INTERSECTIONDISPLAY
280
     0
  9
$INTERSECTIONCOLOR
 70
   257
  9
$DIMASSOC
280
     2
  9
$PROJECTNAME
  1

  9
$CAMERADISPLAY
290
     0
  9
$LENSLENGTH
 40
50.0
  9
$CAMERAHEIGHT
 40
0.0
  9
$STEPSPERSEC
 40
2.0
  9
$STEPSIZE
 40
6.0
  9
$3DDWFPREC
 40
2.0
  9
$PSOLWIDTH
 40
5.0
  9
$PSOLHEIGHT
 40
80.0
  9
$LOFTANG1
 40
1.570796326794897
  9
$LOFTANG2
 40
1.570796326794897
  9
$LOFTMAG1
 40
0.0
  9
$LOFTMAG2
 40
0.0
  9
$LOFTPARAM
 70
     7
  9
$LOFTNORMALS
280
     1
  9
$LATITUDE
 40
37.795
  9
$LONGITUDE
 40
-122.394
  9
$NORTHDIRECTION
 40
0.0
  9
$TIMEZONE
 70
 -8000
  9
$LIGHTGLYPHDISPLAY
280
     1
  9
$TILEMODELIGHTSYNCH
280
     1
  9
$SOLIDHIST
280
     1
  9
$SHOWHIST
280
     1
  9
$DWFFRAME
280
     2
  9
$DGNFRAME
280
     2
  9
$REALWORLDSCALE
290
     1
  9
$INTERFERECOLOR
 62
   256
  9
$CSHADOW
280
     0
  9
$SHADOWPLANELOCATION
 40
0.0
  0
ENDSEC
  0
SECTION
  2
CLASSES
  0
CLASS
  1
ACDBDICTIONARYWDFLT
  2
AcDbDictionaryWithDefault
  3
ObjectDBX Classes
 90
        0
 91
        4
280
     0
281
     0
  0
CLASS
  1
VISUALSTYLE
  2
AcDbVisualStyle
  3
ObjectDBX Classes
 90
     4095
 91
        4
280
     0
281
     0
  0
CLASS
  1
MATERIAL
  2
AcDbMaterial
  3
ObjectDBX Classes
 90
     1153
 91
        4
280
     0
281
     0
  0
ENDSEC
  0
SECTION
  2
TABLES
  0
TABLE
  2
VPORT
  5
8
330
0
100
AcDbSymbolTable
 70
     1
  0
VPORT
  5
29
330
8
100
AcDbSymbolTableRecord
100
AcDbViewportTableRecord
  2
*Active
 70
     0
 10
0.0
 20
0.0
 11
1.0
 21
1.0
 12
0.0
 22
0.0
 13
0.0
 23
0.0
 14
10.0
 24
10.0
 15
10.0
 25
10.0
 16
0.0
 26
0.0
 36
1.0
 17
0.0
 27
0.0
 37
0.0
 40
13860.0
 41
1.414285714285714
 42
50.0
 43
0.0
 44
0.0
 50
0.0
 51
0.0
 71
     0
 72
 10000
 73
     1
 74
     3
 75
     0
 76
     0
 77
     0
 78
     0
281
     0
 65
     1
110
0.0
120
0.0
130
0.0
111
1.0
121
0.0
131
0.0
112
0.0
122
1.0
132
0.0
 79
     0
146
0.0
 60
     3
 61
     5
292
     1
282
     1
141
0.0
142
0.0
 63
   250
  0
ENDTAB
  0
TABLE
  2
LTYPE
  5
5
330
0
100
AcDbSymbolTable
 70
     5
  0
LTYPE
  5
14
330
5
100
AcDbSymbolTableRecord
100
AcDbLinetypeTableRecord
  2
ByBlock
 70
     0
  3

 72
    65
 73
     0
 40
0.0
  0
LTYPE
  5
15
330
5
100
AcDbSymbolTableRecord
100
AcDbLinetypeTableRecord
  2
ByLayer
 70
     0
  3

 72
    65
 73
     0
 40
0.0
  0
LTYPE
  5
16
330
5
100
AcDbSymbolTableRecord
100
AcDbLinetypeTableRecord
  2
Continuous
 70
     0
  3
Solid line
 72
    65
 73
     0
 40
0.0
  0
LTYPE
  5
3F
330
5
100
AcDbSymbolTableRecord
100
AcDbLinetypeTableRecord
  2
JWW_HOJO
 70
     0
  3
  -   -   -   -   -   -   -   - 
 72
    65
 73
     2
 40
1.693333333333333
 49
-1.27
 74
     0
 49
0.4233333333333333
 74
     0
  0
LTYPE
  5
40
330
5
100
AcDbSymbolTableRecord
100
AcDbLinetypeTableRecord
  2
JWW_DASHED2
 70
     0
  3
--    ----    ----    ----    --
 72
    65
 73
     2
 40
3.386666666666667
 49
1.693333333333333
 74
     0
 49
-1.693333333333333
 74
     0
  0
LTYPE
  5
41
330
5
100
AcDbSymbolTableRecord
100
AcDbLinetypeTableRecord
  2
JWW_DASHED1
 70
     0
  3
-  --  --  --  --  --  --  --  -
 72
    65
 73
     2
 40
1.693333333333333
 49
0.8466666666666667
 74
     0
 49
-0.8466666666666667
 74
     0
  0
LTYPE
  5
42
330
5
100
AcDbSymbolTableRecord
100
AcDbLinetypeTableRecord
  2
JWW_CENTER1
 70
     0
  3
-----  --  ----------  --  -----
 72
    65
 73
     4
 40
6.773333333333333
 49
4.233333333333333
 74
     0
 49
-0.8466666666666667
 74
     0
 49
0.8466666666666667
 74
     0
 49
-0.8466666666666667
 74
     0
  0
ENDTAB
  0
TABLE
  2
LAYER
  5
2
330
0
100
AcDbSymbolTable
 70
    23
  0
LAYER
  5
10
330
2
100
AcDbSymbolTableRecord
100
AcDbLayerTableRecord
  2
0
 70
     0
 62
     7
  6
Continuous
370
    -3
390
F
347
3E
  0
LAYER
  5
43
330
2
100
AcDbSymbolTableRecord
100
AcDbLayerTableRecord
  2
0-A_文字
 70
     0
 62
     7
  6
Continuous
370
    -3
390
F
347
3E
  0
LAYER
  5
44
330
2
100
AcDbSymbolTableRecord
100
AcDbLayerTableRecord
  2
0-0_補助線
 70
     0
 62
     7
  6
Continuous
370
    -3
390
F
347
3E
  0
LAYER
  5
45
330
2
100
AcDbSymbolTableRecord
100
AcDbLayerTableRecord
  2
戸当り
 70
     0
 62
     7
  6
Continuous
370
    -3
390
F
347
3E
  0
LAYER
  5
46
330
2
100
AcDbSymbolTableRecord
100
AcDbLayerTableRecord
  2
F-0_補助線
 70
     0
 62
     7
  6
Continuous
370
    -3
390
F
347
3E
  0
LAYER
  5
47
330
2
100
AcDbSymbolTableRecord
100
AcDbLayerTableRecord
  2
F-1_枠
 70
     0
 62
     7
  6
Continuous
370
    -3
390
F
347
3E
  0
LAYER
  5
48
330
2
100
AcDbSymbolTableRecord
100
AcDbLayerTableRecord
  2
F-A_文字
 70
     0
 62
     7
  6
Continuous
370
    -3
390
F
347
3E
  0
LAYER
  5
49
330
2
100
AcDbSymbolTableRecord
100
AcDbLayerTableRecord
  2
0-B_寸法
 70
     0
 62
     7
  6
Continuous
370
    -3
390
F
347
3E
  0
LAYER
  5
4A
330
2
100
AcDbSymbolTableRecord
100
AcDbLayerTableRecord
  2
0-3_仕上げ
 70
     0
 62
     7
  6
Continuous
370
    -3
390
F
347
3E
  0
LAYER
  5
4B
330
2
100
AcDbSymbolTableRecord
100
AcDbLayerTableRecord
  2
0-6_扉
 70
     0
 62
     7
  6
Continuous
370
    -3
390
F
347
3E
  0
LAYER
  5
4C
330
2
100
AcDbSymbolTableRecord
100
AcDbLayerTableRecord
  2
0-7_金物
 70
     0
 62
     7
  6
Continuous
370
    -3
390
F
347
3E
  0
LAYER
  5
4D
330
2
100
AcDbSymbolTableRecord
100
AcDbLayerTableRecord
  2
0-2_柱
 70
     0
 62
     7
  6
Continuous
370
    -3
390
F
347
3E
  0
LAYER
  5
4E
330
2
100
AcDbSymbolTableRecord
100
AcDbLayerTableRecord
  2
0-C_ハッチ
 70
     0
 62
     7
  6
Continuous
370
    -3
390
F
347
3E
  0
LAYER
  5
4F
330
2
100
AcDbSymbolTableRecord
100
AcDbLayerTableRecord
  2
0-4_枠
 70
     0
 62
     7
  6
Continuous
370
    -3
390
F
347
3E
  0
LAYER
  5
50
330
2
100
AcDbSymbolTableRecord
100
AcDbLayerTableRecord
  2
0-1_通り芯
 70
     0
 62
     7
  6
Continuous
370
    -3
390
F
347
3E
  0
LAYER
  5
51
330
2
100
AcDbSymbolTableRecord
100
AcDbLayerTableRecord
  2
1-4_枠
 70
     0
 62
     7
  6
Continuous
370
    -3
390
F
347
3E
  0
LAYER
  5
52
330
2
100
AcDbSymbolTableRecord
100
AcDbLayerTableRecord
  2
1-B_寸法
 70
     0
 62
     7
  6
Continuous
370
    -3
390
F
347
3E
  0
LAYER
  5
53
330
2
100
AcDbSymbolTableRecord
100
AcDbLayerTableRecord
  2
1-7_金物
 70
     0
 62
     7
  6
Continuous
370
    -3
390
F
347
3E
  0
LAYER
  5
54
330
2
100
AcDbSymbolTableRecord
100
AcDbLayerTableRecord
  2
1-A_文字
 70
     0
 62
     7
  6
Continuous
370
    -3
390
F
347
3E
  0
LAYER
  5
55
330
2
100
AcDbSymbolTableRecord
100
AcDbLayerTableRecord
  2
1-1_通り芯
 70
     0
 62
     7
  6
Continuous
370
    -3
390
F
347
3E
  0
LAYER
  5
56
330
2
100
AcDbSymbolTableRecord
100
AcDbLayerTableRecord
  2
1-3_仕上げ
 70
     0
 62
     7
  6
Continuous
370
    -3
390
F
347
3E
  0
LAYER
  5
57
330
2
100
AcDbSymbolTableRecord
100
AcDbLayerTableRecord
  2
1-0_補助線
 70
     0
 62
     7
  6
Continuous
370
    -3
390
F
347
3E
  0
LAYER
  5
58
330
2
100
AcDbSymbolTableRecord
100
AcDbLayerTableRecord
  2
1-6_扉
 70
     0
 62
     7
  6
Continuous
370
    -3
390
F
347
3E
  0
ENDTAB
  0
TABLE
  2
STYLE
  5
3
330
0
100
AcDbSymbolTable
 70
     1
  0
STYLE
  5
11
330
3
100
AcDbSymbolTableRecord
100
AcDbTextStyleTableRecord
  2
Standard
 70
     0
 40
0.0
 41
1.0
 50
0.0
 71
     0
 42
2.5
  3
txt
  4

  0
ENDTAB
  0
TABLE
  2
VIEW
  5
6
330
0
100
AcDbSymbolTable
 70
     0
  0
ENDTAB
  0
TABLE
  2
UCS
  5
7
330
0
100
AcDbSymbolTable
 70
     0
  0
ENDTAB
  0
TABLE
  2
APPID
  5
9
330
0
100
AcDbSymbolTable
 70
     1
  0
APPID
  5
12
330
9
100
AcDbSymbolTableRecord
100
AcDbRegAppTableRecord
  2
ACAD
 70
     0
  0
ENDTAB
  0
TABLE
  2
DIMSTYLE
  5
A
330
0
100
AcDbSymbolTable
 70
     1
100
AcDbDimStyleTable
  0
DIMSTYLE
105
27
330
A
100
AcDbSymbolTableRecord
100
AcDbDimStyleTableRecord
  2
ISO-25
 70
     0
 41
2.5
 42
0.625
 43
3.75
 44
1.25
 73
     0
 74
     0
 77
     1
 78
     8
140
2.5
141
2.5
143
0.03937007874016
147
0.625
171
     3
172
     1
178
     0
271
     2
272
     2
274
     3
278
    44
283
     0
284
     8
340
11
  0
ENDTAB
  0
TABLE
  2
BLOCK_RECORD
  5
1
330
0
100
AcDbSymbolTable
 70
     1
  0
BLOCK_RECORD
  5
1F
330
1
100
AcDbSymbolTableRecord
100
AcDbBlockTableRecord
  2
*Model_Space
340
22
 70
     0
280
     1
281
     0
  0
BLOCK_RECORD
  5
1B
330
1
100
AcDbSymbolTableRecord
100
AcDbBlockTableRecord
  2
*Paper_Space
340
1E
 70
     0
280
     1
281
     0
  0
BLOCK_RECORD
  5
23
330
1
100
AcDbSymbolTableRecord
100
AcDbBlockTableRecord
  2
*Paper_Space0
340
26
 70
     0
280
     1
281
     0
  0
ENDTAB
  0
ENDSEC
  0
SECTION
  2
BLOCKS
  0
BLOCK
  5
20
330
1F
100
AcDbEntity
  8
0
100
AcDbBlockBegin
  2
*Model_Space
 70
     0
 10
0.0
 20
0.0
 30
0.0
  3
*Model_Space
  1

  0
ENDBLK
  5
21
330
1F
100
AcDbEntity
  8
0
100
AcDbBlockEnd
  0
BLOCK
  5
1C
330
1B
100
AcDbEntity
 67
     1
  8
0
100
AcDbBlockBegin
  2
*Paper_Space
 70
     0
 10
0.0
 20
0.0
 30
0.0
  3
*Paper_Space
  1

  0
ENDBLK
  5
1D
330
1B
100
AcDbEntity
 67
     1
  8
0
100
AcDbBlockEnd
  0
BLOCK
  5
24
330
23
100
AcDbEntity
  8
0
100
AcDbBlockBegin
  2
*Paper_Space0
 70
     0
 10
0.0
 20
0.0
 30
0.0
  3
*Paper_Space0
  1

  0
ENDBLK
  5
25
330
23
100
AcDbEntity
  8
0
100
AcDbBlockEnd
  0
ENDSEC
  0
SECTION
  2
ENTITIES
  0
LINE
  5
59
330
1F
100
AcDbEntity
  8
0-A_文字
  6
Continuous
 62
    92
370
    13
100
AcDbLine
 10
5359.99947212838
 20
3700.000181455871
 30
0.0
 11
3535.999472128379
 21
3700.000181455871
 31
0.0
  0
LINE
  5
5A
330
1F
100
AcDbEntity
  8
0-A_文字
  6
Continuous
 62
    92
370
    13
100
AcDbLine
 10
3535.999472128379
 20
3556.000181455871
 30
0.0
 11
5359.99947212838
 21
3556.000181455871
 31
0.0
  0
LINE
  5
5B
330
1F
100
AcDbEntity
  8
0-A_文字
  6
Continuous
 62
    92
370
    13
100
AcDbLine
 10
5359.99947212838
 20
2734.000181455871
 30
0.0
 11
3535.999472128379
 21
2734.000181455871
 31
0.0
  0
LINE
  5
5C
330
1F
100
AcDbEntity
  8
0-0_補助線
  6
JWW_HOJO
 62
   120
370
     5
100
AcDbLine
 10
3991.99947212838
 20
3700.000181455871
 30
0.0
 11
3991.99947212838
 21
2734.000181455871
 31
0.0
  0
LINE
  5
5D
330
1F
100
AcDbEntity
  8
0-0_補助線
  6
JWW_HOJO
 62
   120
370
     5
100
AcDbLine
 10
4903.99947212838
 20
3700.000181455871
 30
0.0
 11
4903.99947212838
 21
2734.000181455871
 31
0.0
  0
LINE
  5
5E
330
1F
100
AcDbEntity
  8
0-0_補助線
  6
JWW_HOJO
 62
   120
370
     5
100
AcDbLine
 10
3559.999472128378
 20
3700.000181455871
 30
0.0
 11
3559.999472128378
 21
2734.000181455871
 31
0.0
  0
LINE
  5
5F
330
1F
100
AcDbEntity
  8
0-0_補助線
  6
JWW_HOJO
 62
   120
370
     5
100
AcDbLine
 10
4423.999472128378
 20
3700.000181455871
 30
0.0
 11
4423.999472128378
 21
2734.000181455871
 31
0.0
  0
LINE
  5
60
330
1F
100
AcDbEntity
  8
0-0_補助線
  6
JWW_HOJO
 62
   120
370
     5
100
AcDbLine
 10
4471.99947212838
 20
3700.000181455871
 30
0.0
 11
4471.99947212838
 21
2734.000181455871
 31
0.0
  0
LINE
  5
61
330
1F
100
AcDbEntity
  8
0-0_補助線
  6
JWW_HOJO
 62
   120
370
     5
100
AcDbLine
 10
5335.999472128379
 20
3700.000181455871
 30
0.0
 11
5335.999472128379
 21
2734.000181455871
 31
0.0
  0
LINE
  5
62
330
1F
100
AcDbEntity
  8
0-A_文字
  6
Continuous
 62
    92
370
    13
100
AcDbLine
 10
3535.999472128379
 20
3700.000181455871
 30
0.0
 11
3535.999472128379
 21
2734.000181455871
 31
0.0
  0
LINE
  5
63
330
1F
100
AcDbEntity
  8
0-A_文字
  6
Continuous
 62
    92
370
    13
100
AcDbLine
 10
4447.999472128378
 20
3700.000181455871
 30
0.0
 11
4447.999472128378
 21
2734.000181455871
 31
0.0
  0
LINE
  5
64
330
1F
100
AcDbEntity
  8
0-A_文字
  6
Continuous
 62
    92
370
    13
100
AcDbLine
 10
5359.99947212838
 20
3700.000181455871
 30
0.0
 11
5359.99947212838
 21
2734.000181455871
 31
0.0
  0
LINE
  5
65
330
1F
100
AcDbEntity
  8
戸当り
  6
Continuous
 62
    40
370
    15
100
AcDbLine
 10
3999.19947212838
 20
3314.723723027997
 30
0.0
 11
3999.19947212838
 21
3336.323723027998
 31
0.0
  0
LINE
  5
66
330
1F
100
AcDbEntity
  8
戸当り
  6
Continuous
 62
    40
370
    15
100
AcDbLine
 10
3559.999472128378
 20
3314.723723027997
 30
0.0
 11
3999.19947212838
 21
3314.723723027997
 31
0.0
  0
LINE
  5
67
330
1F
100
AcDbEntity
  8
戸当り
  6
Continuous
 62
    40
370
    15
100
AcDbLine
 10
3631.999472128379
 20
3336.323723027998
 30
0.0
 11
3999.19947212838
 21
3336.323723027998
 31
0.0
  0
LINE
  5
68
330
1F
100
AcDbEntity
  8
戸当り
  6
Continuous
 62
    40
370
    15
100
AcDbLine
 10
3631.999472128379
 20
3336.323723027998
 30
0.0
 11
3631.999472128379
 21
3357.923723027997
 31
0.0
  0
LINE
  5
69
330
1F
100
AcDbEntity
  8
戸当り
  6
JWW_DASHED2
 62
    40
370
    15
100
AcDbLine
 10
3984.79947212838
 20
3347.123723027998
 30
0.0
 11
3631.999472128379
 21
3347.123723027998
 31
0.0
  0
LINE
  5
6A
330
1F
100
AcDbEntity
  8
戸当り
  6
Continuous
 62
    40
370
    15
100
AcDbLine
 10
3631.999472128379
 20
3357.923723027997
 30
0.0
 11
3559.999472128378
 21
3357.923723027997
 31
0.0
  0
LINE
  5
6B
330
1F
100
AcDbEntity
  8
戸当り
  6
Continuous
 62
    40
370
    15
100
AcDbLine
 10
4351.99947212838
 20
3314.723723027997
 30
0.0
 11
4351.99947212838
 21
3357.923723027997
 31
0.0
  0
LINE
  5
6C
330
1F
100
AcDbEntity
  8
戸当り
  6
Continuous
 62
    40
370
    15
100
AcDbLine
 10
3984.79947212838
 20
3347.123723027998
 30
0.0
 11
4351.99947212838
 21
3347.123723027998
 31
0.0
  0
LINE
  5
6D
330
1F
100
AcDbEntity
  8
戸当り
  6
Continuous
 62
    40
370
    15
100
AcDbLine
 10
4351.99947212838
 20
3314.723723027997
 30
0.0
 11
4423.999472128378
 21
3314.723723027997
 31
0.0
  0
LINE
  5
6E
330
1F
100
AcDbEntity
  8
戸当り
  6
Continuous
 62
    40
370
    15
100
AcDbLine
 10
4351.99947212838
 20
3357.923723027997
 30
0.0
 11
4423.999472128378
 21
3357.923723027997
 31
0.0
  0
LINE
  5
6F
330
1F
100
AcDbEntity
  8
戸当り
  6
Continuous
 62
    92
370
    13
100
AcDbLine
 10
4175.59947212838
 20
3275.123723027998
 30
0.0
 11
4175.59947212838
 21
3419.123723027998
 31
0.0
  0
LINE
  5
70
330
1F
100
AcDbEntity
  8
戸当り
  6
Continuous
 62
    40
370
    15
100
AcDbLine
 10
4896.799472128379
 20
3314.723723027997
 30
0.0
 11
4896.799472128379
 21
3336.323723027998
 31
0.0
  0
LINE
  5
71
330
1F
100
AcDbEntity
  8
戸当り
  6
Continuous
 62
    40
370
    15
100
AcDbLine
 10
5335.999472128379
 20
3314.723723027997
 30
0.0
 11
4896.799472128379
 21
3314.723723027997
 31
0.0
  0
LINE
  5
72
330
1F
100
AcDbEntity
  8
戸当り
  6
Continuous
 62
    40
370
    15
100
AcDbLine
 10
5263.99947212838
 20
3336.323723027998
 30
0.0
 11
4896.799472128379
 21
3336.323723027998
 31
0.0
  0
LINE
  5
73
330
1F
100
AcDbEntity
  8
戸当り
  6
Continuous
 62
    40
370
    15
100
AcDbLine
 10
5263.99947212838
 20
3336.323723027998
 30
0.0
 11
5263.99947212838
 21
3357.923723027997
 31
0.0
  0
LINE
  5
74
330
1F
100
AcDbEntity
  8
戸当り
  6
JWW_DASHED2
 62
    40
370
    15
100
AcDbLine
 10
4911.199472128381
 20
3347.123723027998
 30
0.0
 11
5263.99947212838
 21
3347.123723027998
 31
0.0
  0
LINE
  5
75
330
1F
100
AcDbEntity
  8
戸当り
  6
Continuous
 62
    40
370
    15
100
AcDbLine
 10
5263.99947212838
 20
3357.923723027997
 30
0.0
 11
5335.999472128379
 21
3357.923723027997
 31
0.0
  0
LINE
  5
76
330
1F
100
AcDbEntity
  8
戸当り
  6
Continuous
 62
    40
370
    15
100
AcDbLine
 10
4543.999472128378
 20
3314.723723027997
 30
0.0
 11
4543.999472128378
 21
3357.923723027997
 31
0.0
  0
LINE
  5
77
330
1F
100
AcDbEntity
  8
戸当り
  6
Continuous
 62
    40
370
    15
100
AcDbLine
 10
4911.199472128381
 20
3347.123723027998
 30
0.0
 11
4543.999472128378
 21
3347.123723027998
 31
0.0
  0
LINE
  5
78
330
1F
100
AcDbEntity
  8
戸当り
  6
Continuous
 62
    40
370
    15
100
AcDbLine
 10
4543.999472128378
 20
3314.723723027997
 30
0.0
 11
4471.99947212838
 21
3314.723723027997
 31
0.0
  0
LINE
  5
79
330
1F
100
AcDbEntity
  8
戸当り
  6
Continuous
 62
    40
370
    15
100
AcDbLine
 10
4543.999472128378
 20
3357.923723027997
 30
0.0
 11
4471.99947212838
 21
3357.923723027997
 31
0.0
  0
LINE
  5
7A
330
1F
100
AcDbEntity
  8
戸当り
  6
Continuous
 62
    92
370
    13
100
AcDbLine
 10
4720.39947212838
 20
3275.123723027998
 30
0.0
 11
4720.39947212838
 21
3419.123723027998
 31
0.0
  0
ELLIPSE
  5
7B
330
1F
100
AcDbEntity
  8
戸当り
  6
Continuous
 62
    92
370
    13
100
AcDbEllipse
 10
4100.199747261195
 20
2942.884428393055
 30
0.0
 11
-17.7763823922528
 21
100.8148742797557
 31
0.0
210
0.0
220
0.0
230
1.0
 40
0.4000000000000001
 41
1.850633272656679
 42
2.442876790075129
  0
ELLIPSE
  5
7C
330
1F
100
AcDbEntity
  8
戸当り
  6
Continuous
 62
    92
370
    13
100
AcDbEllipse
 10
4100.199747261195
 20
2942.884428393055
 30
0.0
 11
-17.7763823922528
 21
100.8148742797557
 31
0.0
210
0.0
220
0.0
230
1.0
 40
0.4000000000000001
 41
3.840308517104466
 42
4.432552034522944
  0
ELLIPSE
  5
7D
330
1F
100
AcDbEntity
  8
戸当り
  6
Continuous
 62
    92
370
    13
100
AcDbEllipse
 10
4099.780001211294
 20
2945.264926534711
 30
0.0
 11
-14.67024424252691
 21
83.19908946199426
 31
0.0
210
0.0
220
0.0
230
1.0
 40
0.5
 41
4.340591432030095
 42
8.225779182329084
  0
LINE
  5
7E
330
1F
100
AcDbEntity
  8
戸当り
  6
Continuous
 62
    92
370
    13
100
AcDbLine
 10
4139.749631033957
 20
2870.267379069786
 30
0.0
 11
4087.871506944421
 21
2861.119866084258
 31
0.0
  0
LINE
  5
7F
330
1F
100
AcDbEntity
  8
戸当り
  6
Continuous
 62
    92
370
    13
100
AcDbLine
 10
4141.93759807256
 20
2857.858801381832
 30
0.0
 11
4090.059473983024
 21
2848.711288396305
 31
0.0
  0
ELLIPSE
  5
80
330
1F
100
AcDbEntity
  8
戸当り
  6
Continuous
 62
    92
370
    13
100
AcDbEllipse
 10
4115.998536027791
 20
2853.285044889068
 30
0.0
 11
-7.622927487939132
 21
43.23177007461331
 31
0.0
210
0.0
220
0.0
230
1.0
 40
0.6000000000000001
 41
1.570796326794897
 42
4.71238898038469
  0
ELLIPSE
  5
81
330
1F
100
AcDbEntity
  8
戸当り
  6
Continuous
 62
    92
370
    13
100
AcDbEllipse
 10
4254.660516199072
 20
2978.935263882862
 30
0.0
 11
26.49533313827761
 21
98.88192943551533
 31
0.0
210
0.0
220
0.0
230
0.9999999999999999
 40
0.4
 41
1.850633272656679
 42
2.442876790075129
  0
ELLIPSE
  5
82
330
1F
100
AcDbEntity
  8
戸当り
  6
Continuous
 62
    92
370
    13
100
AcDbEllipse
 10
4254.660516199072
 20
2978.935263882862
 30
0.0
 11
26.49533313827761
 21
98.88192943551533
 31
0.0
210
0.0
220
0.0
230
0.9999999999999999
 40
0.4
 41
3.840308517104466
 42
4.432552034522944
  0
ELLIPSE
  5
83
330
1F
100
AcDbEntity
  8
戸当り
  6
Continuous
 62
    92
370
    13
100
AcDbEllipse
 10
4255.286139072174
 20
2981.270120231654
 30
0.0
 11
21.86569797210526
 21
81.6038957748525
 31
0.0
210
0.0
220
0.0
230
1.0
 40
0.5
 41
4.340591432030095
 42
8.225779182329084
  0
LINE
  5
84
330
1F
100
AcDbEntity
  8
戸当り
  6
Continuous
 62
    92
370
    13
100
AcDbLine
 10
4259.815592680982
 20
2896.407363477468
 30
0.0
 11
4208.932138804588
 21
2910.041543851754
 31
0.0
  0
LINE
  5
85
330
1F
100
AcDbEntity
  8
戸当り
  6
Continuous
 62
    92
370
    13
100
AcDbLine
 10
4256.554472712691
 20
2884.236698066226
 30
0.0
 11
4205.671018836297
 21
2897.870878440512
 31
0.0
  0
ELLIPSE
  5
86
330
1F
100
AcDbEntity
  8
戸当り
  6
Continuous
 62
    92
370
    13
100
AcDbEllipse
 10
4231.112745774494
 20
2891.053788253369
 30
0.0
 11
11.36181697857171
 21
42.40287823032828
 31
0.0
210
0.0
220
0.0
230
0.9999999999999999
 40
0.6
 41
1.570796326794897
 42
4.71238898038469
  0
ELLIPSE
  5
87
330
1F
100
AcDbEntity
  8
戸当り
  6
Continuous
 62
    92
370
    13
100
AcDbEllipse
 10
4644.999747261196
 20
2942.884428393055
 30
0.0
 11
-17.7763823922528
 21
100.8148742797557
 31
0.0
210
0.0
220
0.0
230
1.0
 40
0.4000000000000001
 41
1.850633272656679
 42
2.442876790075129
  0
ELLIPSE
  5
88
330
1F
100
AcDbEntity
  8
戸当り
  6
Continuous
 62
    92
370
    13
100
AcDbEllipse
 10
4644.999747261196
 20
2942.884428393055
 30
0.0
 11
-17.7763823922528
 21
100.8148742797557
 31
0.0
210
0.0
220
0.0
230
1.0
 40
0.4000000000000001
 41
3.840308517104466
 42
4.432552034522944
  0
ELLIPSE
  5
89
330
1F
100
AcDbEntity
  8
戸当り
  6
Continuous
 62
    92
370
    13
100
AcDbEllipse
 10
4644.580001211294
 20
2945.264926534711
 30
0.0
 11
-14.67024424252691
 21
83.19908946199426
 31
0.0
210
0.0
220
0.0
230
1.0
 40
0.5
 41
4.340591432030095
 42
8.225779182329084
  0
LINE
  5
8A
330
1F
100
AcDbEntity
  8
戸当り
  6
Continuous
 62
    92
370
    13
100
AcDbLine
 10
4684.549631033959
 20
2870.267379069786
 30
0.0
 11
4632.671506944422
 21
2861.119866084258
 31
0.0
  0
LINE
  5
8B
330
1F
100
AcDbEntity
  8
戸当り
  6
Continuous
 62
    92
370
    13
100
AcDbLine
 10
4686.737598072562
 20
2857.858801381832
 30
0.0
 11
4634.859473983025
 21
2848.711288396305
 31
0.0
  0
ELLIPSE
  5
8C
330
1F
100
AcDbEntity
  8
戸当り
  6
Continuous
 62
    92
370
    13
100
AcDbEllipse
 10
4660.798536027793
 20
2853.285044889068
 30
0.0
 11
-7.622927487939132
 21
43.23177007461331
 31
0.0
210
0.0
220
0.0
230
1.0
 40
0.6000000000000001
 41
1.570796326794897
 42
4.71238898038469
  0
ELLIPSE
  5
8D
330
1F
100
AcDbEntity
  8
戸当り
  6
Continuous
 62
    92
370
    13
100
AcDbEllipse
 10
4799.460516199073
 20
2978.935263882862
 30
0.0
 11
26.49533313827761
 21
98.88192943551533
 31
0.0
210
0.0
220
0.0
230
0.9999999999999999
 40
0.4
 41
1.850633272656679
 42
2.442876790075129
  0
ELLIPSE
  5
8E
330
1F
100
AcDbEntity
  8
戸当り
  6
Continuous
 62
    92
370
    13
100
AcDbEllipse
 10
4799.460516199073
 20
2978.935263882862
 30
0.0
 11
26.49533313827761
 21
98.88192943551533
 31
0.0
210
0.0
220
0.0
230
0.9999999999999999
 40
0.4
 41
3.840308517104466
 42
4.432552034522944
  0
ELLIPSE
  5
8F
330
1F
100
AcDbEntity
  8
戸当り
  6
Continuous
 62
    92
370
    13
100
AcDbEllipse
 10
4800.086139072176
 20
2981.270120231654
 30
0.0
 11
21.86569797210526
 21
81.6038957748525
 31
0.0
210
0.0
220
0.0
230
1.0
 40
0.5
 41
4.340591432030095
 42
8.225779182329084
  0
LINE
  5
90
330
1F
100
AcDbEntity
  8
戸当り
  6
Continuous
 62
    92
370
    13
100
AcDbLine
 10
4804.615592680982
 20
2896.407363477468
 30
0.0
 11
4753.732138804589
 21
2910.041543851754
 31
0.0
  0
LINE
  5
91
330
1F
100
AcDbEntity
  8
戸当り
  6
Continuous
 62
    92
370
    13
100
AcDbLine
 10
4801.354472712692
 20
2884.236698066226
 30
0.0
 11
4750.471018836298
 21
2897.870878440512
 31
0.0
  0
ELLIPSE
  5
92
330
1F
100
AcDbEntity
  8
戸当り
  6
Continuous
 62
    92
370
    13
100
AcDbEllipse
 10
4775.912745774495
 20
2891.053788253369
 30
0.0
 11
11.36181697857171
 21
42.40287823032828
 31
0.0
210
0.0
220
0.0
230
0.9999999999999999
 40
0.6
 41
1.570796326794897
 42
4.71238898038469
  0
LINE
  5
93
330
1F
100
AcDbEntity
  8
F-0_補助線
  6
JWW_HOJO
 62
   120
370
     5
100
AcDbLine
 10
-6140.081333436773
 20
-4455.0
 30
0.0
 11
-6140.081333436773
 21
4424.999604096284
 31
0.0
  0
LINE
  5
94
330
1F
100
AcDbEntity
  8
F-0_補助線
  6
JWW_HOJO
 62
   120
370
     5
100
AcDbLine
 10
-6140.081333436773
 20
4424.999604096284
 30
0.0
 11
6159.917676803936
 21
4424.999604096284
 31
0.0
  0
LINE
  5
95
330
1F
100
AcDbEntity
  8
F-0_補助線
  6
JWW_HOJO
 62
   120
370
     5
100
AcDbLine
 10
6159.917676803936
 20
4424.999604096284
 30
0.0
 11
6159.917676803936
 21
-4455.0
 31
0.0
  0
LINE
  5
96
330
1F
100
AcDbEntity
  8
F-0_補助線
  6
JWW_HOJO
 62
   120
370
     5
100
AcDbLine
 10
6159.917676803936
 20
-4455.0
 30
0.0
 11
-6140.081333436773
 21
-4455.0
 31
0.0
  0
LINE
  5
97
330
1F
100
AcDbEntity
  8
F-0_補助線
  6
JWW_HOJO
 62
     7
370
     9
100
AcDbLine
 10
509.9185840832865
 20
-3795.000003092998
 30
0.0
 11
509.9185840832865
 21
-4195.000008247994
 31
0.0
  0
LINE
  5
98
330
1F
100
AcDbEntity
  8
F-1_枠
  6
Continuous
 62
   200
370
    20
100
AcDbLine
 10
5859.917429364114
 20
4174.999769056166
 30
0.0
 11
5859.917429364114
 21
-4205.000164959882
 31
0.0
  0
LINE
  5
99
330
1F
100
AcDbEntity
  8
F-1_枠
  6
Continuous
 62
   200
370
    20
100
AcDbLine
 10
-5840.081317971782
 20
4174.999769056166
 30
0.0
 11
-5840.081317971782
 21
-4205.000164959882
 31
0.0
  0
LINE
  5
9A
330
1F
100
AcDbEntity
  8
F-1_枠
  6
Continuous
 62
   200
370
    20
100
AcDbLine
 10
5859.917429364114
 20
-4205.000002577498
 30
0.0
 11
-5840.081085996952
 21
-4205.000002577498
 31
0.0
  0
LINE
  5
9B
330
1F
100
AcDbEntity
  8
F-1_枠
  6
Continuous
 62
   200
370
    20
100
AcDbLine
 10
-5830.081323642279
 20
4174.999769056166
 30
0.0
 11
-5830.081323642279
 21
-4205.000164959882
 31
0.0
  0
LINE
  5
9C
330
1F
100
AcDbEntity
  8
F-1_枠
  6
Continuous
 62
   200
370
    20
100
AcDbLine
 10
-5835.081309208291
 20
4174.999769056166
 30
0.0
 11
-5835.081309208291
 21
-4205.000164959882
 31
0.0
  0
LINE
  5
9D
330
1F
100
AcDbEntity
  8
F-1_枠
  6
Continuous
 62
   200
370
    20
100
AcDbLine
 10
5854.917165428304
 20
4174.999769056166
 30
0.0
 11
5854.917165428304
 21
-4205.000164959882
 31
0.0
  0
LINE
  5
9E
330
1F
100
AcDbEntity
  8
F-1_枠
  6
Continuous
 62
   200
370
    20
100
AcDbLine
 10
5849.917643811961
 20
4174.999769056166
 30
0.0
 11
5849.917643811961
 21
-4205.000164959882
 31
0.0
  0
LINE
  5
9F
330
1F
100
AcDbEntity
  8
F-1_枠
  6
Continuous
 62
   200
370
    20
100
AcDbLine
 10
5859.917429364114
 20
-4199.999993814004
 30
0.0
 11
-5840.081085996952
 21
-4199.999993814004
 31
0.0
  0
LINE
  5
A0
330
1F
100
AcDbEntity
  8
F-1_枠
  6
Continuous
 62
   200
370
    20
100
AcDbLine
 10
5859.917429364114
 20
-4195.000008247994
 30
0.0
 11
-5840.081085996952
 21
-4195.000008247994
 31
0.0
  0
LINE
  5
A1
330
1F
100
AcDbEntity
  8
F-1_枠
  6
Continuous
 62
   200
370
    20
100
AcDbLine
 10
4349.917891251784
 20
-3795.000003092998
 30
0.0
 11
4349.917891251784
 21
-4195.000008247994
 31
0.0
  0
LINE
  5
A2
330
1F
100
AcDbEntity
  8
F-1_枠
  6
Continuous
 62
   200
370
    20
100
AcDbLine
 10
2849.917396372139
 20
-3795.000003092998
 30
0.0
 11
2849.917396372139
 21
-4195.000008247994
 31
0.0
  0
LINE
  5
A3
330
1F
100
AcDbEntity
  8
F-1_枠
  6
Continuous
 62
   200
370
    20
100
AcDbLine
 10
9.918542843316231
 20
-3795.000003092998
 30
0.0
 11
9.918542843316231
 21
-4195.000008247994
 31
0.0
  0
LINE
  5
A4
330
1F
100
AcDbEntity
  8
F-1_枠
  6
Continuous
 62
   200
370
    20
100
AcDbLine
 10
9.918542843316231
 20
-3994.999936078046
 30
0.0
 11
5849.917643811961
 21
-3995.005364289155
 31
0.0
  0
LINE
  5
A5
330
1F
100
AcDbEntity
  8
F-1_枠
  6
Continuous
 62
   200
370
    20
100
AcDbLine
 10
-5840.081085996952
 20
4174.999769056166
 30
0.0
 11
5859.917429364114
 21
4174.999769056166
 31
0.0
  0
LINE
  5
A6
330
1F
100
AcDbEntity
  8
F-1_枠
  6
Continuous
 62
   200
370
    20
100
AcDbLine
 10
-5840.081085996952
 20
4164.999983504013
 30
0.0
 11
5859.917429364114
 21
4164.999983504013
 31
0.0
  0
LINE
  5
A7
330
1F
100
AcDbEntity
  8
F-1_枠
  6
Continuous
 62
   200
370
    20
100
AcDbLine
 10
-5840.081085996952
 20
4169.999505120355
 30
0.0
 11
5859.917429364114
 21
4169.999505120355
 31
0.0
  0
LINE
  5
A8
330
1F
100
AcDbEntity
  8
F-0_補助線
  6
JWW_HOJO
 62
     7
370
     9
100
AcDbLine
 10
-5830.081323642279
 20
-3994.99993607839
 30
0.0
 11
9.918542843316231
 21
-3994.99993607839
 31
0.0
  0
LINE
  5
A9
330
1F
100
AcDbEntity
  8
F-0_補助線
  6
JWW_HOJO
 62
     7
370
     9
100
AcDbLine
 10
-5830.081323642279
 20
-3904.99993607839
 30
0.0
 11
9.918542843316231
 21
-3904.99993607839
 31
0.0
  0
LINE
  5
AA
330
1F
100
AcDbEntity
  8
F-0_補助線
  6
JWW_HOJO
 62
     7
370
     9
100
AcDbLine
 10
-5830.081323642279
 20
-4084.99993607839
 30
0.0
 11
9.918542843316231
 21
-4084.99993607839
 31
0.0
  0
LINE
  5
AB
330
1F
100
AcDbEntity
  8
F-0_補助線
  6
JWW_HOJO
 62
     7
370
     9
100
AcDbLine
 10
9.918408067688347
 20
-4139.999739777983
 30
0.0
 11
5849.917509036332
 21
-4140.005167989091
 31
0.0
  0
LINE
  5
AC
330
1F
100
AcDbEntity
  8
F-0_補助線
  6
JWW_HOJO
 62
     7
370
     9
100
AcDbLine
 10
9.918491721639953
 20
-4049.999739778022
 30
0.0
 11
5849.917592690284
 21
-4050.005167989131
 31
0.0
  0
LINE
  5
AD
330
1F
100
AcDbEntity
  8
F-0_補助線
  6
JWW_HOJO
 62
     7
370
     9
100
AcDbLine
 10
9.918593965360003
 20
-3939.99973721807
 30
0.0
 11
5849.917694934004
 21
-3940.005165429179
 31
0.0
  0
LINE
  5
AE
330
1F
100
AcDbEntity
  8
F-0_補助線
  6
JWW_HOJO
 62
     7
370
     9
100
AcDbLine
 10
9.918677619311609
 20
-3849.999737218109
 30
0.0
 11
5849.917778587956
 21
-3850.005165429218
 31
0.0
  0
LINE
  5
AF
330
1F
100
AcDbEntity
  8
F-0_補助線
  6
JWW_HOJO
 62
     7
370
     9
100
AcDbLine
 10
2939.917396372139
 20
-3795.000003092998
 30
0.0
 11
2939.917396372139
 21
-4195.000008247994
 31
0.0
  0
LINE
  5
B0
330
1F
100
AcDbEntity
  8
F-0_補助線
  6
JWW_HOJO
 62
     7
370
     9
100
AcDbLine
 10
99.91854284331623
 20
-3795.000003092998
 30
0.0
 11
99.91854284331623
 21
-4195.000008247994
 31
0.0
  0
LINE
  5
B1
330
1F
100
AcDbEntity
  8
F-0_補助線
  6
JWW_HOJO
 62
     7
370
     9
100
AcDbLine
 10
4439.917891251784
 20
-3795.000003092998
 30
0.0
 11
4439.917891251784
 21
-4195.000008247994
 31
0.0
  0
LINE
  5
B2
330
1F
100
AcDbEntity
  8
F-1_枠
  6
Continuous
 62
   200
370
    20
100
AcDbLine
 10
5859.917429364114
 20
-3795.000003092998
 30
0.0
 11
-5840.081085996952
 21
-3795.000003092998
 31
0.0
  0
LINE
  5
B3
330
1F
100
AcDbEntity
  8
F-1_枠
  6
Continuous
 62
   200
370
    20
100
AcDbLine
 10
5859.917429364114
 20
-3790.000017526987
 30
0.0
 11
-5840.081085996952
 21
-3790.000017526987
 31
0.0
  0
LINE
  5
B4
330
1F
100
AcDbEntity
  8
F-0_補助線
  6
JWW_HOJO
 62
     7
370
     9
100
AcDbLine
 10
-5087.628710189611
 20
-3795.000003092999
 30
0.0
 11
-5087.628710189611
 21
-4205.000164959882
 31
0.0
  0
LINE
  5
B5
330
1F
100
AcDbEntity
  8
F-0_補助線
  6
JWW_HOJO
 62
     7
370
     9
100
AcDbLine
 10
-50.08145715668377
 20
-3795.000003092998
 30
0.0
 11
-50.08145715668377
 21
-4195.000008247994
 31
0.0
  0
MTEXT
  5
B6
330
1F
100
AcDbEntity
  8
0-A_文字
  6
Continuous
 62
     7
370
     9
100
AcDbMText
 10
3535.999472128378
 20
3715.720181455871
 30
0.0
 40
91.44
 41
720.0
 46
0.0
 71
     7
 72
     1
  1
{\fＭＳ ゴシック|b0|i0|c128|p49;■引き手方向}
 73
     1
 44
1.0
  0
MTEXT
  5
B7
330
1F
100
AcDbEntity
  8
0-A_文字
  6
Continuous
 62
     7
370
     9
100
AcDbMText
 10
3789.499472128378
 20
3576.576431455872
 30
0.0
 40
77.15249999999992
 41
404.9999999999995
 46
0.0
 71
     7
 72
     1
  1
{\fＭＳ ゴシック|b0|i0|c128|p49;右引き手}
 73
     1
 44
1.0
  0
MTEXT
  5
B8
330
1F
100
AcDbEntity
  8
0-A_文字
  6
Continuous
 62
     7
370
     9
100
AcDbMText
 10
4701.49947212838
 20
3576.576431455872
 30
0.0
 40
77.15249999999999
 41
405.0
 46
0.0
 71
     7
 72
     1
  1
{\fＭＳ ゴシック|b0|i0|c128|p49;左引き手}
 73
     1
 44
1.0
  0
MTEXT
  5
B9
330
1F
100
AcDbEntity
  8
F-A_文字
  6
Continuous
 62
     7
370
     0
100
AcDbMText
 10
99.91854284331623
 20
-3887.139820871936
 30
0.0
 40
45.72
 41
180.0
 46
0.0
 71
     7
 72
     1
  1
{\fＭＳ ゴシック|b0|i0|c128|p49;図面名}
 73
     1
 44
1.0
  0
MTEXT
  5
BA
330
1F
100
AcDbEntity
  8
F-A_文字
  6
Continuous
 62
     7
370
     0
100
AcDbMText
 10
2939.917396372139
 20
-3887.142460617774
 30
0.0
 40
45.72
 41
300.0
 46
0.0
 71
     7
 72
     1
  1
{\fＭＳ ゴシック|b0|i0|c128|p49;ＳＣＡＬＥ}
 73
     1
 44
1.0
  0
MTEXT
  5
BB
330
1F
100
AcDbEntity
  8
F-A_文字
  6
Continuous
 62
     7
370
     0
100
AcDbMText
 10
4439.917891251784
 20
-3887.143854850754
 30
0.0
 40
45.72
 41
240.0
 46
0.0
 71
     7
 72
     1
  1
{\fＭＳ ゴシック|b0|i0|c128|p49;ＤＡＴＥ}
 73
     1
 44
1.0
  0
MTEXT
  5
BC
330
1F
100
AcDbEntity
  8
F-A_文字
  6
Continuous
 62
     7
370
     0
100
AcDbMText
 10
3569.917643811961
 20
-3946.903115907308
 30
0.0
 40
76.19999999999999
 41
150.0
 46
0.0
 71
     7
 72
     1
  1
{\fＭＳ ゴシック|b0|i0|c128|p49;1/5}
 73
     1
 44
1.0
  0
MTEXT
  5
BD
330
1F
100
AcDbEntity
  8
F-A_文字
  6
Continuous
 62
     7
370
     0
100
AcDbMText
 10
2939.917396372139
 20
-4087.14246317786
 30
0.0
 40
45.72
 41
240.0
 46
0.0
 71
     7
 72
     1
  1
{\fＭＳ ゴシック|b0|i0|c128|p49;ＦＩＬＥ}
 73
     1
 44
1.0
  0
MTEXT
  5
BE
330
1F
100
AcDbEntity
  8
F-A_文字
  6
Continuous
 62
     7
370
     0
100
AcDbMText
 10
4439.917891251784
 20
-4087.143857410839
 30
0.0
 40
45.72
 41
180.0
 46
0.0
 71
     7
 72
     1
  1
{\fＭＳ ゴシック|b0|i0|c128|p49;ＮＯ．}
 73
     1
 44
1.0
  0
MTEXT
  5
BF
330
1F
100
AcDbEntity
  8
F-A_文字
  6
Continuous
 62
     7
370
     0
100
AcDbMText
 10
1394.917396372138
 20
-4096.140669266149
 30
0.0
 40
45.72
 41
120.0
 46
0.0
 71
     7
 72
     1
  1
{\fＭＳ ゴシック|b0|i0|c128|p49;株式}
 73
     1
 44
1.0
  0
MTEXT
  5
C0
330
1F
100
AcDbEntity
  8
F-A_文字
  6
Continuous
 62
     7
370
     0
100
AcDbMText
 10
1604.917396372138
 20
-4164.281754523929
 30
0.0
 40
101.44125
 41
1065.0
 46
0.0
 71
     7
 72
     1
  1
{\fＭＳ ゴシック|b0|i0|c128|p49;ウッドワン・・・}
 73
     1
 44
1.0
  0
MTEXT
  5
C1
330
1F
100
AcDbEntity
  8
F-A_文字
  6
Continuous
 62
     7
370
     0
100
AcDbMText
 10
1394.917396372138
 20
-4168.140669266187
 30
0.0
 40
45.72
 41
120.0
 46
0.0
 71
     7
 72
     1
  1
{\fＭＳ ゴシック|b0|i0|c128|p49;会社}
 73
     1
 44
1.0
  0
MTEXT
  5
C2
330
1F
100
AcDbEntity
  8
F-A_文字
  6
Continuous
 62
     7
370
     0
100
AcDbMText
 10
5768.321977672939
 20
-4314.841419020919
 30
0.0
 40
68.58
 41
90.0
 46
0.0
 71
     7
 72
     1
  1
{\fＭＳ ゴシック|b0|i0|c128|p49;）}
 73
     1
 44
1.0
  0
MTEXT
  5
C3
330
1F
100
AcDbEntity
  8
F-A_文字
  6
Continuous
 62
     7
370
     0
100
AcDbMText
 10
5350.114617405298
 20
-4316.235443869856
 30
0.0
 40
68.58
 41
45.0
 46
0.0
 71
     7
 72
     1
  1
{\fＭＳ ゴシック|b0|i0|c128|p49;,}
 73
     1
 44
1.0
  0
MTEXT
  5
C4
330
1F
100
AcDbEntity
  8
F-A_文字
  6
Continuous
 62
     7
370
     0
100
AcDbMText
 10
5083.855928478601
 20
-4314.771967288282
 30
0.0
 40
74.295
 41
97.5
 46
0.0
 71
     7
 72
     1
  1
{\fＭＳ ゴシック|b0|i0|c128|p49;$y}
 73
     1
 44
1.0
  0
MTEXT
  5
C5
330
1F
100
AcDbEntity
  8
F-A_文字
  6
Continuous
 62
     7
370
     0
100
AcDbMText
 10
5238.592649517422
 20
-4314.771967288282
 30
0.0
 40
74.295
 41
97.5
 46
0.0
 71
     7
 72
     1
  1
{\fＭＳ ゴシック|b0|i0|c128|p49;$m}
 73
     1
 44
1.0
  0
MTEXT
  5
C6
330
1F
100
AcDbEntity
  8
F-A_文字
  6
Continuous
 62
     7
370
     0
100
AcDbMText
 10
5393.32938200033
 20
-4314.771967288282
 30
0.0
 40
74.295
 41
97.5
 46
0.0
 71
     7
 72
     1
  1
{\fＭＳ ゴシック|b0|i0|c128|p49;$d}
 73
     1
 44
1.0
  0
MTEXT
  5
C7
330
1F
100
AcDbEntity
  8
F-A_文字
  6
Continuous
 62
     7
370
     0
100
AcDbMText
 10
5548.066114483239
 20
-4314.771967288282
 30
0.0
 40
74.295
 41
195.0
 46
0.0
 71
     7
 72
     1
  1
{\fＭＳ ゴシック|b0|i0|c128|p49;印刷}
 73
     1
 44
1.0
  0
MTEXT
  5
C8
330
1F
100
AcDbEntity
  8
F-A_文字
  6
Continuous
 62
     7
370
     0
100
AcDbMText
 10
4943.952040816226
 20
-4319.023493567732
 30
0.0
 40
68.58
 41
90.0
 46
0.0
 71
     7
 72
     1
  1
{\fＭＳ ゴシック|b0|i0|c128|p49;（}
 73
     1
 44
1.0
  0
MTEXT
  5
C9
330
1F
100
AcDbEntity
  8
F-A_文字
  6
Continuous
 62
     7
370
     0
100
AcDbMText
 10
5191.195810375571
 20
-4319.023493567732
 30
0.0
 40
68.58
 41
45.0
 46
0.0
 71
     7
 72
     1
  1
{\fＭＳ ゴシック|b0|i0|c128|p49;,}
 73
     1
 44
1.0
  0
LINE
  5
CA
330
1F
100
AcDbEntity
  8
F-0_補助線
  6
JWW_HOJO
 62
   120
370
     5
100
AcDbLine
 10
-6140.081333436773
 20
2438.999683277028
 30
0.0
 11
6159.917676803936
 21
2438.999683277028
 31
0.0
  0
LINE
  5
CB
330
1F
100
AcDbEntity
  8
F-0_補助線
  6
JWW_HOJO
 62
   120
370
     5
100
AcDbLine
 10
-6140.081333436773
 20
3730.000181455871
 30
0.0
 11
6159.917676803936
 21
3730.000181455871
 31
0.0
  0
LINE
  5
CC
330
1F
100
AcDbEntity
  8
F-0_補助線
  6
JWW_HOJO
 62
   120
370
     5
100
AcDbLine
 10
-6140.081333436773
 20
4000.000181455871
 30
0.0
 11
6159.917676803936
 21
4000.000181455871
 31
0.0
  0
LINE
  5
CD
330
1F
100
AcDbEntity
  8
F-0_補助線
  6
JWW_HOJO
 62
   120
370
     5
100
AcDbLine
 10
9.918171683581818
 20
-4455.0
 30
0.0
 11
9.918171683581818
 21
4424.999604096284
 31
0.0
  0
LINE
  5
CE
330
1F
100
AcDbEntity
  8
F-0_補助線
  6
JWW_HOJO
 62
   120
370
     5
100
AcDbLine
 10
-5659.999495325861
 20
4424.999604096284
 30
0.0
 11
-5659.999495325861
 21
-4455.0
 31
0.0
  0
LINE
  5
CF
330
1F
100
AcDbEntity
  8
F-0_補助線
  6
JWW_HOJO
 62
   120
370
     5
100
AcDbLine
 10
-6140.081333436773
 20
194.9998020481422
 30
0.0
 11
6159.917676803936
 21
194.9998020481422
 31
0.0
  0
LINE
  5
D0
330
1F
100
AcDbEntity
  8
F-0_補助線
  6
JWW_HOJO
 62
   120
370
     5
100
AcDbLine
 10
-6140.081333436773
 20
-3159.000197951857
 30
0.0
 11
6159.917676803936
 21
-3159.000197951857
 31
0.0
  0
LINE
  5
D1
330
1F
100
AcDbEntity
  8
F-0_補助線
  6
JWW_HOJO
 62
   120
370
     5
100
AcDbLine
 10
-6140.081333436773
 20
-3610.000577359588
 30
0.0
 11
6159.917676803936
 21
-3610.000577359588
 31
0.0
  0
LINE
  5
D2
330
1F
100
AcDbEntity
  8
F-0_補助線
  6
JWW_HOJO
 62
   120
370
     5
100
AcDbLine
 10
5679.835838693025
 20
4000.000181455871
 30
0.0
 11
5679.835838693025
 21
-4455.0
 31
0.0
  0
LINE
  5
D3
330
1F
100
AcDbEntity
  8
0-B_寸法
  6
Continuous
 62
   120
370
     5
100
AcDbLine
 10
-80.08145715668377
 20
1509.999683277026
 30
0.0
 11
-80.08145715668377
 21
1899.999683277026
 31
0.0
  0
LINE
  5
D4
330
1F
100
AcDbEntity
  8
0-B_寸法
  6
Continuous
 62
   120
370
     5
100
AcDbLine
 10
99.91854284331623
 20
1509.999683277026
 30
0.0
 11
99.91854284331623
 21
1899.999683277026
 31
0.0
  0
LINE
  5
D5
330
1F
100
AcDbEntity
  8
0-B_寸法
  6
Continuous
 62
   120
370
     5
100
AcDbLine
 10
-2426.198112661064
 20
1299.999683277026
 30
0.0
 11
2446.034456028233
 21
1299.999683277026
 31
0.0
  0
LINE
  5
D6
330
1F
100
AcDbEntity
  8
0-B_寸法
  6
Continuous
 62
   120
370
     5
100
AcDbLine
 10
-2426.198112661064
 20
1089.999683277026
 30
0.0
 11
2446.034456028233
 21
1089.999683277026
 31
0.0
  0
LINE
  5
D7
330
1F
100
AcDbEntity
  8
0-B_寸法
  6
Continuous
 62
   120
370
     5
100
AcDbLine
 10
-2246.198112661064
 20
1509.999683277026
 30
0.0
 11
-80.08145715668377
 21
1509.999683277026
 31
0.0
  0
LINE
  5
D8
330
1F
100
AcDbEntity
  8
0-B_寸法
  6
Continuous
 62
   120
370
     5
100
AcDbLine
 10
99.91854284331623
 20
1509.999683277026
 30
0.0
 11
2266.034456028233
 21
1509.999683277026
 31
0.0
  0
MTEXT
  5
D9
330
1F
100
AcDbEntity
  8
0-A_文字
  6
Continuous
 62
     7
370
     9
100
AcDbMText
 10
1860.48356927678
 20
929.9072115561261
 30
0.0
 40
78.58125
 41
825.0
 46
0.0
 71
     7
 72
     1
  1
{\fＭＳ ゴシック|b0|i0|c128|p49;※図示：左引き手}
 73
     1
 44
1.0
  0
LINE
  5
DA
330
1F
100
AcDbEntity
  8
0-3_仕上げ
  6
Continuous
 62
    40
370
    15
100
AcDbLine
 10
3046.034307564338
 20
2303.999683277028
 30
0.0
 11
1161.976499435777
 21
2303.999683277028
 31
0.0
  0
LWPOLYLINE
  5
DB
330
1F
100
AcDbEntity
  8
0-B_寸法
  6
Continuous
 62
     7
370
     9
100
AcDbPolyline
 90
        4
 70
     1
 43
3.0
 10
-2244.698112661065
 20
1509.999683277026
 42
0.4142135623731
 10
-2246.198112661064
 20
1511.499683277026
 42
0.4142135623731
 10
-2247.698112661064
 20
1509.999683277026
 42
0.4142135623731
 10
-2246.198112661064
 20
1508.499683277027
 42
0.4142135623731
  0
LINE
  5
DC
330
1F
100
AcDbEntity
  8
0-B_寸法
  6
Continuous
 62
   120
370
     5
100
AcDbLine
 10
-2246.198112661064
 20
1509.999683277026
 30
0.0
 11
-2246.198112661064
 21
1899.999683277026
 31
0.0
  0
LWPOLYLINE
  5
DD
330
1F
100
AcDbEntity
  8
0-B_寸法
  6
Continuous
 62
     7
370
     9
100
AcDbPolyline
 90
        4
 70
     1
 43
3.0
 10
-2424.698112661065
 20
1299.999683277026
 42
0.4142135623731
 10
-2426.198112661064
 20
1301.499683277026
 42
0.4142135623731
 10
-2427.698112661064
 20
1299.999683277026
 42
0.4142135623731
 10
-2426.198112661064
 20
1298.499683277027
 42
0.4142135623731
  0
LWPOLYLINE
  5
DE
330
1F
100
AcDbEntity
  8
0-B_寸法
  6
Continuous
 62
     7
370
     9
100
AcDbPolyline
 90
        4
 70
     1
 43
3.0
 10
-2244.698261124959
 20
1299.999683277026
 42
0.4142135623731
 10
-2246.198261124959
 20
1301.499683277026
 42
0.4142135623731
 10
-2247.698261124958
 20
1299.999683277026
 42
0.4142135623731
 10
-2246.198261124959
 20
1298.499683277027
 42
0.4142135623731
  0
LWPOLYLINE
  5
DF
330
1F
100
AcDbEntity
  8
0-B_寸法
  6
Continuous
 62
     7
370
     9
100
AcDbPolyline
 90
        4
 70
     1
 43
3.0
 10
-2424.698112661065
 20
1089.999683277026
 42
0.4142135623731
 10
-2426.198112661064
 20
1091.499683277026
 42
0.4142135623731
 10
-2427.698112661064
 20
1089.999683277026
 42
0.4142135623731
 10
-2426.198112661064
 20
1088.499683277027
 42
0.4142135623731
  0
LINE
  5
E0
330
1F
100
AcDbEntity
  8
0-B_寸法
  6
Continuous
 62
   120
370
     5
100
AcDbLine
 10
-2426.198112661064
 20
1089.999683277026
 30
0.0
 11
-2426.198112661064
 21
1899.999683277026
 31
0.0
  0
LINE
  5
E1
330
1F
100
AcDbEntity
  8
0-B_寸法
  6
Continuous
 62
   120
370
     5
100
AcDbLine
 10
-2246.198261124959
 20
1299.999683277026
 30
0.0
 11
-2246.198261124959
 21
1899.999683277026
 31
0.0
  0
LWPOLYLINE
  5
E2
330
1F
100
AcDbEntity
  8
0-6_扉
  6
Continuous
 62
     7
370
     9
100
AcDbPolyline
 90
        4
 70
     1
 43
3.0
 10
-2424.698112661065
 20
1089.999683277026
 42
0.4142135623731
 10
-2426.198112661064
 20
1091.499683277026
 42
0.4142135623731
 10
-2427.698112661064
 20
1089.999683277026
 42
0.4142135623731
 10
-2426.198112661064
 20
1088.499683277027
 42
0.4142135623731
  0
LINE
  5
E3
330
1F
100
AcDbEntity
  8
0-6_扉
  6
Continuous
 62
   120
370
     5
100
AcDbLine
 10
-2426.198112661064
 20
1089.999683277026
 30
0.0
 11
-2426.198112661064
 21
1899.999683277026
 31
0.0
  0
ARC
  5
E4
330
1F
100
AcDbEntity
  8
0-7_金物
  6
Continuous
 62
     7
370
     9
100
AcDbCircle
 10
-2446.905456418604
 20
2552.999683310522
 30
0.0
 40
188.167407989502
100
AcDbArc
 50
346.1637114550782
 51
13.83631887695315
  0
LINE
  5
E5
330
1F
100
AcDbEntity
  8
0-7_金物
  6
Continuous
 62
     7
370
     9
100
AcDbLine
 10
-2282.198112641619
 20
2567.999683053597
 30
0.0
 11
-2312.198112105857
 21
2567.999683291339
 31
0.0
  0
LINE
  5
E6
330
1F
100
AcDbEntity
  8
0-7_金物
  6
Continuous
 62
     7
370
     9
100
AcDbLine
 10
-2312.198112343941
 20
2537.999683712551
 30
0.0
 11
-2312.198112105857
 21
2567.999683291339
 31
0.0
  0
LINE
  5
E7
330
1F
100
AcDbEntity
  8
0-7_金物
  6
Continuous
 62
     7
370
     9
100
AcDbLine
 10
-2282.198112650599
 20
2537.999683474122
 30
0.0
 11
-2312.198112343941
 21
2537.999683712551
 31
0.0
  0
LINE
  5
E8
330
1F
100
AcDbEntity
  8
0-7_金物
  6
Continuous
 62
     7
370
     9
100
AcDbLine
 10
-2264.198111970363
 20
2597.999682201378
 30
0.0
 11
-2282.198112631155
 21
2597.999684063582
 31
0.0
  0
LINE
  5
E9
330
1F
100
AcDbEntity
  8
0-7_金物
  6
Continuous
 62
     7
370
     9
100
AcDbLine
 10
-2282.198112661063
 20
2507.999682464137
 30
0.0
 11
-2282.198112631155
 21
2597.999684063582
 31
0.0
  0
LINE
  5
EA
330
1F
100
AcDbEntity
  8
0-7_金物
  6
Continuous
 62
     7
370
     9
100
AcDbLine
 10
-2264.198112684619
 20
2507.999683465014
 30
0.0
 11
-2282.198112661063
 21
2507.999682464137
 31
0.0
  0
LINE
  5
EB
330
1F
100
AcDbEntity
  8
0-6_扉
  6
Continuous
 62
   200
370
    20
100
AcDbLine
 10
-2264.198112661065
 20
2462.999683277028
 30
0.0
 11
-2264.198112661065
 21
2642.999683277028
 31
0.0
  0
LINE
  5
EC
330
1F
100
AcDbEntity
  8
0-2_柱
  6
Continuous
 62
    92
370
    13
100
AcDbLine
 10
-2426.198112661044
 20
2303.999683277023
 30
0.0
 11
-2426.198112661044
 21
2573.999683277032
 31
0.0
  0
LINE
  5
ED
330
1F
100
AcDbEntity
  8
0-C_ハッチ
  6
JWW_DASHED1
 62
   120
370
     5
100
AcDbLine
 10
-2434.158002484789
 20
2228.999683277038
 30
0.0
 11
-2426.198112661061
 21
2236.959573100764
 31
0.0
  0
LINE
  5
EE
330
1F
100
AcDbEntity
  8
0-C_ハッチ
  6
JWW_DASHED1
 62
   120
370
     5
100
AcDbLine
 10
-2450.406919295084
 20
2573.999683277032
 30
0.0
 11
-2426.198112661061
 21
2598.208489911056
 31
0.0
  0
LINE
  5
EF
330
1F
100
AcDbEntity
  8
0-C_ハッチ
  6
JWW_DASHED1
 62
   120
370
     5
100
AcDbLine
 10
-2519.010816227186
 20
2228.999683277038
 30
0.0
 11
-2444.010816227186
 21
2303.999683277038
 31
0.0
  0
LINE
  5
F0
330
1F
100
AcDbEntity
  8
0-C_ハッチ
  6
JWW_DASHED1
 62
   120
370
     5
100
AcDbLine
 10
-2535.259733037487
 20
2573.999683277023
 30
0.0
 11
-2460.259733037477
 21
2648.999683277032
 31
0.0
  0
LINE
  5
F1
330
1F
100
AcDbEntity
  8
0-3_仕上げ
  6
Continuous
 62
    40
370
    15
100
AcDbLine
 10
-2426.198112661061
 20
2228.999683277038
 30
0.0
 11
-3026.198112661063
 21
2228.999683277038
 31
0.0
  0
LINE
  5
F2
330
1F
100
AcDbEntity
  8
0-C_ハッチ
  6
JWW_DASHED1
 62
   120
370
     5
100
AcDbLine
 10
-2492.833326166277
 20
2573.999683277036
 30
0.0
 11
-2426.198112661061
 21
2640.634896782249
 31
0.0
  0
LINE
  5
F3
330
1F
100
AcDbEntity
  8
0-3_仕上げ
  6
Continuous
 62
    40
370
    15
100
AcDbLine
 10
-2426.198112661061
 20
2303.999683277038
 30
0.0
 11
-3026.198112661063
 21
2303.999683277038
 31
0.0
  0
LINE
  5
F4
330
1F
100
AcDbEntity
  8
0-3_仕上げ
  6
Continuous
 62
    40
370
    15
100
AcDbLine
 10
-2426.198112661061
 20
2573.999683277032
 30
0.0
 11
-3026.198112661063
 21
2573.999683277032
 31
0.0
  0
LINE
  5
F5
330
1F
100
AcDbEntity
  8
0-C_ハッチ
  6
JWW_DASHED1
 62
   120
370
     5
100
AcDbLine
 10
-2476.584409355976
 20
2228.999683277052
 30
0.0
 11
-2426.198112661061
 21
2279.385979971946
 31
0.0
  0
LINE
  5
F6
330
1F
100
AcDbEntity
  8
0-3_仕上げ
  6
Continuous
 62
    40
370
    15
100
AcDbLine
 10
-2426.198112661061
 20
2648.999683277032
 30
0.0
 11
-3026.198112661063
 21
2648.999683277032
 31
0.0
  0
LINE
  5
F7
330
1F
100
AcDbEntity
  8
0-C_ハッチ
  6
JWW_DASHED1
 62
   120
370
     5
100
AcDbLine
 10
-2561.437223098386
 20
2228.999683277043
 30
0.0
 11
-2486.437223098373
 21
2303.999683277052
 31
0.0
  0
LINE
  5
F8
330
1F
100
AcDbEntity
  8
0-C_ハッチ
  6
JWW_DASHED1
 62
   120
370
     5
100
AcDbLine
 10
-2603.863629969596
 20
2228.999683277032
 30
0.0
 11
-2528.8636299696
 21
2303.999683277025
 31
0.0
  0
LINE
  5
F9
330
1F
100
AcDbEntity
  8
0-C_ハッチ
  6
JWW_DASHED1
 62
   120
370
     5
100
AcDbLine
 10
-2646.290036840796
 20
2228.999683277029
 30
0.0
 11
-2571.2900368408
 21
2303.999683277029
 31
0.0
  0
LINE
  5
FA
330
1F
100
AcDbEntity
  8
0-C_ハッチ
  6
JWW_DASHED1
 62
   120
370
     5
100
AcDbLine
 10
-2688.71644371199
 20
2228.999683277032
 30
0.0
 11
-2613.716443711996
 21
2303.999683277032
 31
0.0
  0
LINE
  5
FB
330
1F
100
AcDbEntity
  8
0-C_ハッチ
  6
JWW_DASHED1
 62
   120
370
     5
100
AcDbLine
 10
-2731.14285058319
 20
2228.999683277036
 30
0.0
 11
-2656.14285058319
 21
2303.999683277032
 31
0.0
  0
LINE
  5
FC
330
1F
100
AcDbEntity
  8
0-C_ハッチ
  6
JWW_DASHED1
 62
   120
370
     5
100
AcDbLine
 10
-2773.569257454328
 20
2228.999683277043
 30
0.0
 11
-2698.569257454332
 21
2303.999683277038
 31
0.0
  0
LINE
  5
FD
330
1F
100
AcDbEntity
  8
0-C_ハッチ
  6
JWW_DASHED1
 62
   120
370
     5
100
AcDbLine
 10
-2815.995664325521
 20
2228.999683277045
 30
0.0
 11
-2740.995664325528
 21
2303.999683277043
 31
0.0
  0
LINE
  5
FE
330
1F
100
AcDbEntity
  8
0-C_ハッチ
  6
JWW_DASHED1
 62
   120
370
     5
100
AcDbLine
 10
-2858.422071196737
 20
2228.999683277032
 30
0.0
 11
-2783.422071196725
 21
2303.999683277045
 31
0.0
  0
LINE
  5
FF
330
1F
100
AcDbEntity
  8
0-C_ハッチ
  6
JWW_DASHED1
 62
   120
370
     5
100
AcDbLine
 10
-2900.84847806794
 20
2228.999683277032
 30
0.0
 11
-2825.848478067928
 21
2303.999683277043
 31
0.0
  0
LINE
  5
100
330
1F
100
AcDbEntity
  8
0-C_ハッチ
  6
JWW_DASHED1
 62
   120
370
     5
100
AcDbLine
 10
-2943.274884939137
 20
2228.999683277036
 30
0.0
 11
-2868.274884939144
 21
2303.99968327703
 31
0.0
  0
LINE
  5
101
330
1F
100
AcDbEntity
  8
0-C_ハッチ
  6
JWW_DASHED1
 62
   120
370
     5
100
AcDbLine
 10
-2985.701291810347
 20
2228.999683277025
 30
0.0
 11
-2910.701291810351
 21
2303.999683277022
 31
0.0
  0
LINE
  5
102
330
1F
100
AcDbEntity
  8
0-C_ハッチ
  6
JWW_DASHED1
 62
   120
370
     5
100
AcDbLine
 10
-3026.198112661049
 20
2230.929269297523
 30
0.0
 11
-2953.127698681547
 21
2303.999683277025
 31
0.0
  0
LINE
  5
103
330
1F
100
AcDbEntity
  8
0-C_ハッチ
  6
JWW_DASHED1
 62
   120
370
     5
100
AcDbLine
 10
-3026.198112661049
 20
2273.355676168723
 30
0.0
 11
-2995.554105552747
 21
2303.999683277029
 31
0.0
  0
LINE
  5
104
330
1F
100
AcDbEntity
  8
0-C_ハッチ
  6
JWW_DASHED1
 62
   120
370
     5
100
AcDbLine
 10
-2577.686139908681
 20
2573.999683277025
 30
0.0
 11
-2502.686139908674
 21
2648.999683277037
 31
0.0
  0
LINE
  5
105
330
1F
100
AcDbEntity
  8
0-C_ハッチ
  6
JWW_DASHED1
 62
   120
370
     5
100
AcDbLine
 10
-2620.112546779884
 20
2573.999683277025
 30
0.0
 11
-2545.112546779887
 21
2648.999683277023
 31
0.0
  0
LINE
  5
106
330
1F
100
AcDbEntity
  8
0-C_ハッチ
  6
JWW_DASHED1
 62
   120
370
     5
100
AcDbLine
 10
-2662.538953651081
 20
2573.99968327703
 30
0.0
 11
-2587.538953651084
 21
2648.999683277025
 31
0.0
  0
LINE
  5
107
330
1F
100
AcDbEntity
  8
0-C_ハッチ
  6
JWW_DASHED1
 62
   120
370
     5
100
AcDbLine
 10
-2704.965360522223
 20
2573.999683277037
 30
0.0
 11
-2629.965360522223
 21
2648.999683277032
 31
0.0
  0
LINE
  5
108
330
1F
100
AcDbEntity
  8
0-C_ハッチ
  6
JWW_DASHED1
 62
   120
370
     5
100
AcDbLine
 10
-2747.391767393416
 20
2573.999683277038
 30
0.0
 11
-2672.391767393419
 21
2648.999683277037
 31
0.0
  0
LINE
  5
109
330
1F
100
AcDbEntity
  8
0-C_ハッチ
  6
JWW_DASHED1
 62
   120
370
     5
100
AcDbLine
 10
-2789.818174264612
 20
2573.999683277043
 30
0.0
 11
-2714.818174264619
 21
2648.999683277038
 31
0.0
  0
LINE
  5
10A
330
1F
100
AcDbEntity
  8
0-C_ハッチ
  6
JWW_DASHED1
 62
   120
370
     5
100
AcDbLine
 10
-2832.244581135826
 20
2573.999683277029
 30
0.0
 11
-2757.244581135812
 21
2648.999683277043
 31
0.0
  0
LINE
  5
10B
330
1F
100
AcDbEntity
  8
0-C_ハッチ
  6
JWW_DASHED1
 62
   120
370
     5
100
AcDbLine
 10
-2874.670988007028
 20
2573.999683277025
 30
0.0
 11
-2799.670988007019
 21
2648.999683277037
 31
0.0
  0
LINE
  5
10C
330
1F
100
AcDbEntity
  8
0-C_ハッチ
  6
JWW_DASHED1
 62
   120
370
     5
100
AcDbLine
 10
-2917.097394878242
 20
2573.999683277018
 30
0.0
 11
-2842.097394878242
 21
2648.999683277016
 31
0.0
  0
LINE
  5
10D
330
1F
100
AcDbEntity
  8
0-C_ハッチ
  6
JWW_DASHED1
 62
   120
370
     5
100
AcDbLine
 10
-2959.523801749438
 20
2573.999683277022
 30
0.0
 11
-2884.523801749442
 21
2648.999683277018
 31
0.0
  0
LINE
  5
10E
330
1F
100
AcDbEntity
  8
0-C_ハッチ
  6
JWW_DASHED1
 62
   120
370
     5
100
AcDbLine
 10
-3001.950208620635
 20
2573.999683277023
 30
0.0
 11
-2926.950208620638
 21
2648.999683277018
 31
0.0
  0
LINE
  5
10F
330
1F
100
AcDbEntity
  8
0-C_ハッチ
  6
JWW_DASHED1
 62
   120
370
     5
100
AcDbLine
 10
-3026.198112661056
 20
2592.178186107747
 30
0.0
 11
-2969.376615491773
 21
2648.999683277025
 31
0.0
  0
LINE
  5
110
330
1F
100
AcDbEntity
  8
0-C_ハッチ
  6
JWW_DASHED1
 62
   120
370
     5
100
AcDbLine
 10
-3026.198112661059
 20
2634.604592978946
 30
0.0
 11
-3011.803022362973
 21
2648.99968327703
 31
0.0
  0
LINE
  5
111
330
1F
100
AcDbEntity
  8
0-2_柱
  6
Continuous
 62
     7
370
     9
100
AcDbLine
 10
-2696.198112661051
 20
2303.999683277038
 30
0.0
 11
-2426.198112661044
 21
2573.999683277032
 31
0.0
  0
LINE
  5
112
330
1F
100
AcDbEntity
  8
0-2_柱
  6
Continuous
 62
    92
370
    13
100
AcDbLine
 10
-2696.198112661051
 20
2303.999683277038
 30
0.0
 11
-2696.198112661051
 21
2573.999683277032
 31
0.0
  0
LINE
  5
113
330
1F
100
AcDbEntity
  8
0-C_ハッチ
  6
Continuous
 62
   120
370
     5
100
AcDbLine
 10
-2423.198112661047
 20
2205.727328455028
 30
0.0
 11
-2249.197677785559
 21
2379.72776333052
 31
0.0
  0
LINE
  5
114
330
1F
100
AcDbEntity
  8
0-C_ハッチ
  6
Continuous
 62
   120
370
     5
100
AcDbLine
 10
-2338.132253475242
 20
2171.999248401539
 30
0.0
 11
-2249.197677785559
 21
2260.933824091223
 31
0.0
  0
LINE
  5
115
330
1F
100
AcDbEntity
  8
0-C_ハッチ
  6
Continuous
 62
   120
370
     5
100
AcDbLine
 10
-2278.73528385554
 20
2171.999248401539
 30
0.0
 11
-2249.197677785559
 21
2201.536854471521
 31
0.0
  0
LINE
  5
116
330
1F
100
AcDbEntity
  8
0-C_ハッチ
  6
Continuous
 62
   120
370
     5
100
AcDbLine
 10
-2397.529223094889
 20
2171.999248401539
 30
0.0
 11
-2249.197677785559
 21
2320.33079371087
 31
0.0
  0
LINE
  5
117
330
1F
100
AcDbEntity
  8
0-C_ハッチ
  6
Continuous
 62
   120
370
     5
100
AcDbLine
 10
-2426.198112661048
 20
2262.12429807473
 30
0.0
 11
-2261.322727458752
 21
2426.999683277026
 31
0.0
  0
LINE
  5
118
330
1F
100
AcDbEntity
  8
0-C_ハッチ
  6
Continuous
 62
   120
370
     5
100
AcDbLine
 10
-2426.198112661058
 20
2499.712176553418
 30
0.0
 11
-2285.198112661043
 21
2640.712176553429
 31
0.0
  0
LINE
  5
119
330
1F
100
AcDbEntity
  8
0-4_枠
  6
Continuous
 62
    92
370
    13
100
AcDbLine
 10
-2249.197677785559
 20
2180.484529775777
 30
0.0
 11
-2249.197677785559
 21
2426.999683277026
 31
0.0
  0
LINE
  5
11A
330
1F
100
AcDbEntity
  8
0-4_枠
  6
Continuous
 62
    92
370
    13
100
AcDbLine
 10
-2246.198112661044
 20
2177.484964651265
 30
0.0
 11
-2246.198112661044
 21
2429.999683277026
 31
0.0
  0
LINE
  5
11B
330
1F
100
AcDbEntity
  8
0-4_枠
  6
Continuous
 62
    92
370
    13
100
AcDbLine
 10
-2426.198112661044
 20
2168.999683277028
 30
0.0
 11
-2426.198112661044
 21
2708.999683277028
 31
0.0
  0
LINE
  5
11C
330
1F
100
AcDbEntity
  8
0-4_枠
  6
Continuous
 62
    92
370
    13
100
AcDbLine
 10
-2423.198112661047
 20
2258.999683277025
 30
0.0
 11
-2423.198112661047
 21
2171.999248401539
 31
0.0
  0
LINE
  5
11D
330
1F
100
AcDbEntity
  8
0-4_枠
  6
Continuous
 62
    92
370
    13
100
AcDbLine
 10
-2257.682959159796
 20
2171.999248401539
 30
0.0
 11
-2423.198112661047
 21
2171.999248401539
 31
0.0
  0
LINE
  5
11E
330
1F
100
AcDbEntity
  8
0-4_枠
  6
Continuous
 62
    92
370
    13
100
AcDbLine
 10
-2254.683394035288
 20
2168.999683277028
 30
0.0
 11
-2426.198112661044
 21
2168.999683277028
 31
0.0
  0
LINE
  5
11F
330
1F
100
AcDbEntity
  8
0-4_枠
  6
Continuous
 62
    92
370
    13
100
AcDbLine
 10
-2423.198112661047
 20
2258.999683277025
 30
0.0
 11
-2426.198112661044
 21
2258.999683277025
 31
0.0
  0
LINE
  5
120
330
1F
100
AcDbEntity
  8
0-4_枠
  6
Continuous
 62
    92
370
    13
100
AcDbLine
 10
-2249.197677785559
 20
2180.484529775777
 30
0.0
 11
-2257.682959159796
 21
2171.999248401539
 31
0.0
  0
LINE
  5
121
330
1F
100
AcDbEntity
  8
0-4_枠
  6
Continuous
 62
    92
370
    13
100
AcDbLine
 10
-2254.683394035288
 20
2168.999683277028
 30
0.0
 11
-2246.198112661044
 21
2177.484964651265
 31
0.0
  0
LINE
  5
122
330
1F
100
AcDbEntity
  8
0-4_枠
  6
Continuous
 62
    92
370
    13
100
AcDbLine
 10
-2285.198112661043
 20
2426.999683277026
 30
0.0
 11
-2285.198112661043
 21
2678.999683277028
 31
0.0
  0
LINE
  5
123
330
1F
100
AcDbEntity
  8
0-4_枠
  6
Continuous
 62
    92
370
    13
100
AcDbLine
 10
-2282.198112661045
 20
2429.999683277026
 30
0.0
 11
-2282.198112661045
 21
2675.999683277028
 31
0.0
  0
LINE
  5
124
330
1F
100
AcDbEntity
  8
0-4_枠
  6
Continuous
 62
    92
370
    13
100
AcDbLine
 10
-2285.198112661043
 20
2426.999683277026
 30
0.0
 11
-2249.197677785559
 21
2426.999683277026
 31
0.0
  0
LINE
  5
125
330
1F
100
AcDbEntity
  8
0-4_枠
  6
Continuous
 62
    92
370
    13
100
AcDbLine
 10
-2282.198112661045
 20
2429.999683277026
 30
0.0
 11
-2246.198112661044
 21
2429.999683277026
 31
0.0
  0
LINE
  5
126
330
1F
100
AcDbEntity
  8
0-4_枠
  6
Continuous
 62
    92
370
    13
100
AcDbLine
 10
-2285.198112661043
 20
2678.999683277028
 30
0.0
 11
-2249.197677785559
 21
2678.999683277028
 31
0.0
  0
LINE
  5
127
330
1F
100
AcDbEntity
  8
0-4_枠
  6
Continuous
 62
    92
370
    13
100
AcDbLine
 10
-2282.198112661045
 20
2675.999683277028
 30
0.0
 11
-2246.198112661044
 21
2675.999683277028
 31
0.0
  0
LINE
  5
128
330
1F
100
AcDbEntity
  8
0-4_枠
  6
Continuous
 62
    92
370
    13
100
AcDbLine
 10
-2249.197677785559
 20
2699.271326340181
 30
0.0
 11
-2249.197677785559
 21
2678.999683277028
 31
0.0
  0
LINE
  5
129
330
1F
100
AcDbEntity
  8
0-4_枠
  6
Continuous
 62
    92
370
    13
100
AcDbLine
 10
-2246.198112661044
 20
2700.514401902788
 30
0.0
 11
-2246.198112661044
 21
2675.999683277028
 31
0.0
  0
LINE
  5
12A
330
1F
100
AcDbEntity
  8
0-C_ハッチ
  6
Continuous
 62
   120
370
     5
100
AcDbLine
 10
-2423.198112661047
 20
2680.903085412426
 30
0.0
 11
-2398.101675013734
 21
2705.999523059738
 31
0.0
  0
LINE
  5
12B
330
1F
100
AcDbEntity
  8
0-C_ハッチ
  6
Continuous
 62
   120
370
     5
100
AcDbLine
 10
-2423.198112661057
 20
2621.506115792713
 30
0.0
 11
-2338.704705394021
 21
2705.999523059749
 31
0.0
  0
LINE
  5
12C
330
1F
100
AcDbEntity
  8
0-C_ハッチ
  6
Continuous
 62
   120
370
     5
100
AcDbLine
 10
-2426.198112661048
 20
2559.109146173075
 30
0.0
 11
-2279.307735774395
 21
2705.999523059727
 31
0.0
  0
LINE
  5
12D
330
1F
100
AcDbEntity
  8
0-C_ハッチ
  6
Continuous
 62
   120
370
     5
100
AcDbLine
 10
-2426.198112661041
 20
2440.315206933733
 30
0.0
 11
-2285.198112661064
 21
2581.315206933711
 31
0.0
  0
LINE
  5
12E
330
1F
100
AcDbEntity
  8
0-C_ハッチ
  6
Continuous
 62
   120
370
     5
100
AcDbLine
 10
-2426.198112661054
 20
2380.918237314075
 30
0.0
 11
-2285.198112661043
 21
2521.918237314084
 31
0.0
  0
LINE
  5
12F
330
1F
100
AcDbEntity
  8
0-C_ハッチ
  6
Continuous
 62
   120
370
     5
100
AcDbLine
 10
-2426.198112661037
 20
2321.521267694388
 30
0.0
 11
-2285.198112661056
 21
2462.521267694369
 31
0.0
  0
LINE
  5
130
330
1F
100
AcDbEntity
  8
0-4_枠
  6
Continuous
 62
    92
370
    13
100
AcDbLine
 10
-2423.198112661047
 20
2618.999683277028
 30
0.0
 11
-2423.198112661047
 21
2705.999523059741
 31
0.0
  0
LINE
  5
131
330
1F
100
AcDbEntity
  8
0-4_枠
  6
Continuous
 62
    92
370
    13
100
AcDbLine
 10
-2423.198112661047
 20
2618.999683277028
 30
0.0
 11
-2426.198112661044
 21
2618.999683277028
 31
0.0
  0
LINE
  5
132
330
1F
100
AcDbEntity
  8
0-4_枠
  6
Continuous
 62
    92
370
    13
100
AcDbLine
 10
-2255.92587450512
 20
2705.999523059741
 30
0.0
 11
-2423.198112661047
 21
2705.999523059741
 31
0.0
  0
LINE
  5
133
330
1F
100
AcDbEntity
  8
0-4_枠
  6
Continuous
 62
    92
370
    13
100
AcDbLine
 10
-2254.683394035288
 20
2708.999683277028
 30
0.0
 11
-2426.198112661044
 21
2708.999683277028
 31
0.0
  0
LINE
  5
134
330
1F
100
AcDbEntity
  8
0-4_枠
  6
Continuous
 62
    92
370
    13
100
AcDbLine
 10
-2255.92587450512
 20
2705.999523059741
 30
0.0
 11
-2249.197677785559
 21
2699.271326340181
 31
0.0
  0
LINE
  5
135
330
1F
100
AcDbEntity
  8
0-4_枠
  6
Continuous
 62
    92
370
    13
100
AcDbLine
 10
-2246.198112661044
 20
2700.514401902788
 30
0.0
 11
-2254.683394035288
 21
2708.999683277028
 31
0.0
  0
LINE
  5
136
330
1F
100
AcDbEntity
  8
0-B_寸法
  6
Continuous
 62
   120
370
     5
100
AcDbLine
 10
-1937.668122974968
 20
2708.999683277028
 30
0.0
 11
-2144.800261798572
 21
2708.999683277028
 31
0.0
  0
LWPOLYLINE
  5
137
330
1F
100
AcDbEntity
  8
0-B_寸法
  6
Continuous
 62
     7
370
     9
100
AcDbPolyline
 90
        4
 70
     1
 43
3.0
 10
-1936.168122974968
 20
2708.999683277028
 42
0.4142135623731
 10
-1937.668122974968
 20
2710.499683277027
 42
0.4142135623731
 10
-1939.168122974968
 20
2708.999683277028
 42
0.4142135623731
 10
-1937.668122974968
 20
2707.499683277028
 42
0.4142135623731
  0
LINE
  5
138
330
1F
100
AcDbEntity
  8
0-B_寸法
  6
Continuous
 62
   120
370
     5
100
AcDbLine
 10
-1937.668122974972
 20
2168.999683277028
 30
0.0
 11
-2144.800261798572
 21
2168.999683277028
 31
0.0
  0
LWPOLYLINE
  5
139
330
1F
100
AcDbEntity
  8
0-B_寸法
  6
Continuous
 62
     7
370
     9
100
AcDbPolyline
 90
        4
 70
     1
 43
3.0
 10
-1936.168122974972
 20
2168.999683277028
 42
0.4142135623731
 10
-1937.668122974972
 20
2170.499683277027
 42
0.4142135623731
 10
-1939.168122974972
 20
2168.999683277028
 42
0.4142135623731
 10
-1937.668122974972
 20
2167.499683277028
 42
0.4142135623731
  0
LINE
  5
13A
330
1F
100
AcDbEntity
  8
0-B_寸法
  6
Continuous
 62
   120
370
     5
100
AcDbLine
 10
-1937.668122974972
 20
2168.999683277028
 30
0.0
 11
-1937.668122974968
 21
2708.999683277028
 31
0.0
  0
MTEXT
  5
13B
330
1F
100
AcDbEntity
  8
0-B_寸法
  6
Continuous
 62
     7
370
     0
100
AcDbMText
 10
-2396.198186893012
 20
1300.719732764993
 30
0.0
 40
91.44
 41
120.0
 46
0.0
 71
     7
 72
     1
  1
{\fＭＳ ゴシック|b0|i0|c128|p49;30}
 73
     1
 44
1.0
  0
LINE
  5
13C
330
1F
100
AcDbEntity
  8
0-1_通り芯
  6
JWW_CENTER1
 62
   120
370
     5
100
AcDbLine
 10
-3026.198112661064
 20
2438.999683277028
 30
0.0
 11
3046.034307564338
 21
2438.999683277028
 31
0.0
  0
LWPOLYLINE
  5
13D
330
1F
100
AcDbEntity
  8
0-B_寸法
  6
Continuous
 62
     7
370
     9
100
AcDbPolyline
 90
        4
 70
     1
 43
3.0
 10
2267.534456028233
 20
1509.999683277026
 42
0.4142135623731
 10
2266.034456028233
 20
1511.499683277026
 42
0.4142135623731
 10
2264.534456028233
 20
1509.999683277026
 42
0.4142135623731
 10
2266.034456028233
 20
1508.499683277027
 42
0.4142135623731
  0
LINE
  5
13E
330
1F
100
AcDbEntity
  8
0-B_寸法
  6
Continuous
 62
   120
370
     5
100
AcDbLine
 10
2266.034456028233
 20
1299.999683277026
 30
0.0
 11
2266.034456028233
 21
1899.999683277026
 31
0.0
  0
LINE
  5
13F
330
1F
100
AcDbEntity
  8
0-B_寸法
  6
Continuous
 62
   120
370
     5
100
AcDbLine
 10
2446.034456028233
 20
1089.999683277026
 30
0.0
 11
2446.034456028233
 21
1899.999683277026
 31
0.0
  0
LINE
  5
140
330
1F
100
AcDbEntity
  8
0-6_扉
  6
Continuous
 62
   120
370
     5
100
AcDbLine
 10
2446.034456028233
 20
1089.999683277026
 30
0.0
 11
2446.034456028233
 21
1899.999683277026
 31
0.0
  0
LWPOLYLINE
  5
141
330
1F
100
AcDbEntity
  8
0-B_寸法
  6
Continuous
 62
     7
370
     9
100
AcDbPolyline
 90
        4
 70
     1
 43
3.0
 10
2267.534456028233
 20
1299.999683277026
 42
0.4142135623731
 10
2266.034456028233
 20
1301.499683277026
 42
0.4142135623731
 10
2264.534456028233
 20
1299.999683277026
 42
0.4142135623731
 10
2266.034456028233
 20
1298.499683277027
 42
0.4142135623731
  0
LWPOLYLINE
  5
142
330
1F
100
AcDbEntity
  8
0-B_寸法
  6
Continuous
 62
     7
370
     9
100
AcDbPolyline
 90
        4
 70
     1
 43
3.0
 10
2447.534456028233
 20
1299.999683277026
 42
0.4142135623731
 10
2446.034456028233
 20
1301.499683277026
 42
0.4142135623731
 10
2444.534456028233
 20
1299.999683277026
 42
0.4142135623731
 10
2446.034456028233
 20
1298.499683277027
 42
0.4142135623731
  0
LWPOLYLINE
  5
143
330
1F
100
AcDbEntity
  8
0-B_寸法
  6
Continuous
 62
     7
370
     9
100
AcDbPolyline
 90
        4
 70
     1
 43
3.0
 10
2447.534456028233
 20
1089.999683277026
 42
0.4142135623731
 10
2446.034456028233
 20
1091.499683277026
 42
0.4142135623731
 10
2444.534456028233
 20
1089.999683277026
 42
0.4142135623731
 10
2446.034456028233
 20
1088.499683277027
 42
0.4142135623731
  0
LWPOLYLINE
  5
144
330
1F
100
AcDbEntity
  8
0-6_扉
  6
Continuous
 62
     7
370
     9
100
AcDbPolyline
 90
        4
 70
     1
 43
3.0
 10
2447.534456028233
 20
1089.999683277026
 42
0.4142135623731
 10
2446.034456028233
 20
1091.499683277026
 42
0.4142135623731
 10
2444.534456028233
 20
1089.999683277026
 42
0.4142135623731
 10
2446.034456028233
 20
1088.499683277027
 42
0.4142135623731
  0
LINE
  5
145
330
1F
100
AcDbEntity
  8
0-7_金物
  6
Continuous
 62
     7
370
     9
100
AcDbLine
 10
2284.034456081697
 20
2507.999683240096
 30
0.0
 11
2302.034456058144
 21
2507.999682239217
 31
0.0
  0
LINE
  5
146
330
1F
100
AcDbEntity
  8
0-7_金物
  6
Continuous
 62
     7
370
     9
100
AcDbLine
 10
2302.034456058144
 20
2507.999682239217
 30
0.0
 11
2302.034456028233
 21
2597.999683838666
 31
0.0
  0
LINE
  5
147
330
1F
100
AcDbEntity
  8
0-7_金物
  6
Continuous
 62
     7
370
     9
100
AcDbLine
 10
2284.034455367439
 20
2597.999681976461
 30
0.0
 11
2302.034456028233
 21
2597.999683838666
 31
0.0
  0
LINE
  5
148
330
1F
100
AcDbEntity
  8
0-7_金物
  6
Continuous
 62
     7
370
     9
100
AcDbLine
 10
2302.034456047681
 20
2537.999683249205
 30
0.0
 11
2332.034455741021
 21
2537.999683487633
 31
0.0
  0
LINE
  5
149
330
1F
100
AcDbEntity
  8
0-7_金物
  6
Continuous
 62
     7
370
     9
100
AcDbLine
 10
2332.034455741021
 20
2537.999683487633
 30
0.0
 11
2332.034455502933
 21
2567.999683066423
 31
0.0
  0
LINE
  5
14A
330
1F
100
AcDbEntity
  8
0-7_金物
  6
Continuous
 62
     7
370
     9
100
AcDbLine
 10
2302.034456038697
 20
2567.999682828677
 30
0.0
 11
2332.034455502933
 21
2567.999683066423
 31
0.0
  0
ARC
  5
14B
330
1F
100
AcDbEntity
  8
0-7_金物
  6
Continuous
 62
     7
370
     9
100
AcDbCircle
 10
2466.741799815683
 20
2552.999683085605
 30
0.0
 40
188.167407989502
100
AcDbArc
 50
166.1636811230468
 51
193.8362885449218
  0
LINE
  5
14C
330
1F
100
AcDbEntity
  8
0-0_補助線
  6
JWW_HOJO
 62
   120
370
     5
100
AcDbLine
 10
3046.034307564338
 20
2957.999138909418
 30
0.0
 11
3046.034307564338
 21
1089.999683277026
 31
0.0
  0
LINE
  5
14D
330
1F
100
AcDbEntity
  8
0-B_寸法
  6
Continuous
 62
   120
370
     5
100
AcDbLine
 10
2028.458458574402
 20
2303.999683277028
 30
0.0
 11
2176.034456028233
 21
2303.999683277028
 31
0.0
  0
LWPOLYLINE
  5
14E
330
1F
100
AcDbEntity
  8
0-B_寸法
  6
Continuous
 62
     7
370
     9
100
AcDbPolyline
 90
        4
 70
     1
 43
3.0
 10
2029.958458574402
 20
2303.999683277034
 42
0.4142135623731
 10
2028.458458574402
 20
2305.499683277034
 42
0.4142135623731
 10
2026.958458574402
 20
2303.999683277034
 42
0.4142135623731
 10
2028.458458574402
 20
2302.499683277034
 42
0.4142135623731
  0
LINE
  5
14F
330
1F
100
AcDbEntity
  8
0-6_扉
  6
JWW_DASHED2
 62
    40
370
    15
100
AcDbLine
 10
2284.034456028234
 20
2462.999683277028
 30
0.0
 11
2284.034456028234
 21
2642.999683277028
 31
0.0
  0
LINE
  5
150
330
1F
100
AcDbEntity
  8
0-4_枠
  6
Continuous
 62
    92
370
    13
100
AcDbLine
 10
2274.519737402471
 20
2708.999683277028
 30
0.0
 11
2266.034456028233
 21
2700.514401902788
 31
0.0
  0
LINE
  5
151
330
1F
100
AcDbEntity
  8
0-4_枠
  6
Continuous
 62
    92
370
    13
100
AcDbLine
 10
2269.034021152746
 20
2699.271326340181
 30
0.0
 11
2275.762217872305
 21
2705.999523059741
 31
0.0
  0
LINE
  5
152
330
1F
100
AcDbEntity
  8
0-4_枠
  6
Continuous
 62
    92
370
    13
100
AcDbLine
 10
2443.034456028235
 20
2618.999683277028
 30
0.0
 11
2443.034456028235
 21
2705.999523059741
 31
0.0
  0
LINE
  5
153
330
1F
100
AcDbEntity
  8
0-4_枠
  6
Continuous
 62
    92
370
    13
100
AcDbLine
 10
2275.762217872305
 20
2705.999523059741
 30
0.0
 11
2443.034456028235
 21
2705.999523059741
 31
0.0
  0
LINE
  5
154
330
1F
100
AcDbEntity
  8
0-4_枠
  6
Continuous
 62
    92
370
    13
100
AcDbLine
 10
2274.519737402471
 20
2708.999683277028
 30
0.0
 11
2446.034456028233
 21
2708.999683277028
 31
0.0
  0
LINE
  5
155
330
1F
100
AcDbEntity
  8
0-4_枠
  6
Continuous
 62
    92
370
    13
100
AcDbLine
 10
2443.034456028235
 20
2618.999683277028
 30
0.0
 11
2446.034456028233
 21
2618.999683277028
 31
0.0
  0
LINE
  5
156
330
1F
100
AcDbEntity
  8
0-C_ハッチ
  6
Continuous
 62
   120
370
     5
100
AcDbLine
 10
2276.400297711732
 20
2705.999523059736
 30
0.0
 11
2269.034456028237
 21
2698.633681376243
 31
0.0
  0
LINE
  5
157
330
1F
100
AcDbEntity
  8
0-4_枠
  6
Continuous
 62
    92
370
    13
100
AcDbLine
 10
2269.034021152746
 20
2699.271326340181
 30
0.0
 11
2269.034021152746
 21
2678.999683277029
 31
0.0
  0
LINE
  5
158
330
1F
100
AcDbEntity
  8
0-4_枠
  6
Continuous
 62
    92
370
    13
100
AcDbLine
 10
2266.034456028233
 20
2700.514401902788
 30
0.0
 11
2266.034456028233
 21
2675.999683277026
 31
0.0
  0
LINE
  5
159
330
1F
100
AcDbEntity
  8
0-4_枠
  6
Continuous
 62
    92
370
    13
100
AcDbLine
 10
2266.034456028233
 20
2675.999683277026
 30
0.0
 11
2302.034456028233
 21
2675.999683277026
 31
0.0
  0
LINE
  5
15A
330
1F
100
AcDbEntity
  8
0-4_枠
  6
Continuous
 62
    92
370
    13
100
AcDbLine
 10
2269.034021152746
 20
2678.999683277029
 30
0.0
 11
2305.034456028232
 21
2678.999683277029
 31
0.0
  0
LINE
  5
15B
330
1F
100
AcDbEntity
  8
0-4_枠
  6
Continuous
 62
    92
370
    13
100
AcDbLine
 10
2302.034456028233
 20
2429.999683277026
 30
0.0
 11
2266.034456028233
 21
2429.999683277026
 31
0.0
  0
LINE
  5
15C
330
1F
100
AcDbEntity
  8
0-4_枠
  6
Continuous
 62
    92
370
    13
100
AcDbLine
 10
2305.034456028232
 20
2426.999683277026
 30
0.0
 11
2269.034021152746
 21
2426.999683277026
 31
0.0
  0
LINE
  5
15D
330
1F
100
AcDbEntity
  8
0-4_枠
  6
Continuous
 62
    92
370
    13
100
AcDbLine
 10
2302.034456028233
 20
2675.999683277026
 30
0.0
 11
2302.034456028233
 21
2429.999683277026
 31
0.0
  0
LINE
  5
15E
330
1F
100
AcDbEntity
  8
0-4_枠
  6
Continuous
 62
    92
370
    13
100
AcDbLine
 10
2305.034456028232
 20
2678.999683277029
 30
0.0
 11
2305.034456028232
 21
2426.999683277026
 31
0.0
  0
LINE
  5
15F
330
1F
100
AcDbEntity
  8
0-4_枠
  6
Continuous
 62
    92
370
    13
100
AcDbLine
 10
2446.034456028233
 20
2303.999683277028
 30
0.0
 11
2446.034456028233
 21
2708.999683277028
 31
0.0
  0
LINE
  5
160
330
1F
100
AcDbEntity
  8
0-4_枠
  6
Continuous
 62
    92
370
    13
100
AcDbLine
 10
2446.034456028233
 20
2303.999683277028
 30
0.0
 11
2266.034456028233
 21
2303.999683277028
 31
0.0
  0
LINE
  5
161
330
1F
100
AcDbEntity
  8
0-4_枠
  6
Continuous
 62
    92
370
    13
100
AcDbLine
 10
2269.034021152746
 20
2303.999683277028
 30
0.0
 11
2269.034021152746
 21
2426.999683277026
 31
0.0
  0
LINE
  5
162
330
1F
100
AcDbEntity
  8
0-4_枠
  6
Continuous
 62
    92
370
    13
100
AcDbLine
 10
2266.034456028233
 20
2303.999683277028
 30
0.0
 11
2266.034456028233
 21
2429.999683277026
 31
0.0
  0
LINE
  5
163
330
1F
100
AcDbEntity
  8
0-C_ハッチ
  6
Continuous
 62
   120
370
     5
100
AcDbLine
 10
2446.034456028233
 20
2341.060954799249
 30
0.0
 11
2408.973184506011
 21
2303.999683277028
 31
0.0
  0
LINE
  5
164
330
1F
100
AcDbEntity
  8
0-C_ハッチ
  6
Continuous
 62
   120
370
     5
100
AcDbLine
 10
2446.034456028233
 20
2400.457924418895
 30
0.0
 11
2349.576214886366
 21
2303.999683277028
 31
0.0
  0
LINE
  5
165
330
1F
100
AcDbEntity
  8
0-C_ハッチ
  6
Continuous
 62
   120
370
     5
100
AcDbLine
 10
2446.034456028233
 20
2519.251863658244
 30
0.0
 11
2269.034021152746
 21
2342.251428782759
 31
0.0
  0
LINE
  5
166
330
1F
100
AcDbEntity
  8
0-C_ハッチ
  6
Continuous
 62
   120
370
     5
100
AcDbLine
 10
2446.034456028233
 20
2459.854894038599
 30
0.0
 11
2290.179245266662
 21
2303.999683277028
 31
0.0
  0
LINE
  5
167
330
1F
100
AcDbEntity
  8
0-C_ハッチ
  6
Continuous
 62
   120
370
     5
100
AcDbLine
 10
2294.385306027366
 20
2426.999683277026
 30
0.0
 11
2269.034021152746
 21
2401.648398402403
 31
0.0
  0
LINE
  5
168
330
1F
100
AcDbEntity
  8
0-C_ハッチ
  6
Continuous
 62
   120
370
     5
100
AcDbLine
 10
2446.034456028233
 20
2578.648833277893
 30
0.0
 11
2305.034456028232
 21
2437.648833277892
 31
0.0
  0
LINE
  5
169
330
1F
100
AcDbEntity
  8
0-C_ハッチ
  6
Continuous
 62
   120
370
     5
100
AcDbLine
 10
2335.797267331379
 20
2705.999523059736
 30
0.0
 11
2305.034456028232
 21
2675.236711756589
 31
0.0
  0
LINE
  5
16A
330
1F
100
AcDbEntity
  8
0-C_ハッチ
  6
Continuous
 62
   120
370
     5
100
AcDbLine
 10
2395.194236951025
 20
2705.999523059736
 30
0.0
 11
2305.034456028232
 21
2615.839742136943
 31
0.0
  0
LINE
  5
16B
330
1F
100
AcDbEntity
  8
0-C_ハッチ
  6
Continuous
 62
   120
370
     5
100
AcDbLine
 10
2443.034890903724
 20
2694.443207392733
 30
0.0
 11
2305.034456028232
 21
2556.442772517241
 31
0.0
  0
LINE
  5
16C
330
1F
100
AcDbEntity
  8
0-C_ハッチ
  6
Continuous
 62
   120
370
     5
100
AcDbLine
 10
2443.034890903716
 20
2635.046237773076
 30
0.0
 11
2305.034456028232
 21
2497.045802897594
 31
0.0
  0
LINE
  5
16D
330
1F
100
AcDbEntity
  8
0-B_寸法
  6
Continuous
 62
   120
370
     5
100
AcDbLine
 10
2028.458458574402
 20
2303.999683277034
 30
0.0
 11
2028.458458574402
 21
2708.999683277028
 31
0.0
  0
LWPOLYLINE
  5
16E
330
1F
100
AcDbEntity
  8
0-B_寸法
  6
Continuous
 62
     7
370
     9
100
AcDbPolyline
 90
        4
 70
     1
 43
3.0
 10
2029.958458574402
 20
2708.999683277028
 42
0.4142135623731
 10
2028.458458574402
 20
2710.499683277027
 42
0.4142135623731
 10
2026.958458574402
 20
2708.999683277028
 42
0.4142135623731
 10
2028.458458574402
 20
2707.499683277028
 42
0.4142135623731
  0
LINE
  5
16F
330
1F
100
AcDbEntity
  8
0-B_寸法
  6
Continuous
 62
   120
370
     5
100
AcDbLine
 10
2028.458458574402
 20
2708.999683277028
 30
0.0
 11
2176.034456028233
 21
2708.999683277028
 31
0.0
  0
LINE
  5
170
330
1F
100
AcDbEntity
  8
0-3_仕上げ
  6
Continuous
 62
    40
370
    15
100
AcDbLine
 10
3046.034307564338
 20
2648.999683277032
 30
0.0
 11
2446.0351983477
 21
2648.999683277032
 31
0.0
  0
LINE
  5
171
330
1F
100
AcDbEntity
  8
0-3_仕上げ
  6
Continuous
 62
    40
370
    15
100
AcDbLine
 10
3046.034307564338
 20
2573.999683277032
 30
0.0
 11
2446.0351983477
 21
2573.999683277032
 31
0.0
  0
LINE
  5
172
330
1F
100
AcDbEntity
  8
0-C_ハッチ
  6
JWW_DASHED1
 62
   120
370
     5
100
AcDbLine
 10
2459.553878072322
 20
2648.999683277032
 30
0.0
 11
2446.0351983477
 21
2635.481003552411
 31
0.0
  0
LINE
  5
173
330
1F
100
AcDbEntity
  8
0-C_ハッチ
  6
JWW_DASHED1
 62
   120
370
     5
100
AcDbLine
 10
2501.980284943518
 20
2648.999683277029
 30
0.0
 11
2446.0351983477
 21
2593.054596681213
 31
0.0
  0
LINE
  5
174
330
1F
100
AcDbEntity
  8
0-C_ハッチ
  6
JWW_DASHED1
 62
   120
370
     5
100
AcDbLine
 10
2544.406691814716
 20
2648.999683277028
 30
0.0
 11
2469.40669181472
 21
2573.999683277032
 31
0.0
  0
LINE
  5
175
330
1F
100
AcDbEntity
  8
0-C_ハッチ
  6
JWW_DASHED1
 62
   120
370
     5
100
AcDbLine
 10
2586.833098685929
 20
2648.999683277038
 30
0.0
 11
2511.833098685916
 21
2573.999683277028
 31
0.0
  0
LINE
  5
176
330
1F
100
AcDbEntity
  8
0-C_ハッチ
  6
JWW_DASHED1
 62
   120
370
     5
100
AcDbLine
 10
2629.259505557077
 20
2648.999683277043
 30
0.0
 11
2554.259505557083
 21
2573.999683277048
 31
0.0
  0
LINE
  5
177
330
1F
100
AcDbEntity
  8
0-C_ハッチ
  6
JWW_DASHED1
 62
   120
370
     5
100
AcDbLine
 10
2671.685912428272
 20
2648.999683277038
 30
0.0
 11
2596.685912428279
 21
2573.999683277045
 31
0.0
  0
LINE
  5
178
330
1F
100
AcDbEntity
  8
0-C_ハッチ
  6
JWW_DASHED1
 62
   120
370
     5
100
AcDbLine
 10
2714.112319299469
 20
2648.999683277034
 30
0.0
 11
2639.112319299474
 21
2573.999683277038
 31
0.0
  0
LINE
  5
179
330
1F
100
AcDbEntity
  8
0-C_ハッチ
  6
JWW_DASHED1
 62
   120
370
     5
100
AcDbLine
 10
2756.538726170664
 20
2648.999683277029
 30
0.0
 11
2681.538726170669
 21
2573.999683277037
 31
0.0
  0
LINE
  5
17A
330
1F
100
AcDbEntity
  8
0-C_ハッチ
  6
JWW_DASHED1
 62
   120
370
     5
100
AcDbLine
 10
2798.965133041869
 20
2648.999683277036
 30
0.0
 11
2723.965133041872
 21
2573.999683277038
 31
0.0
  0
LINE
  5
17B
330
1F
100
AcDbEntity
  8
0-C_ハッチ
  6
JWW_DASHED1
 62
   120
370
     5
100
AcDbLine
 10
2841.391539913066
 20
2648.999683277032
 30
0.0
 11
2766.391539913069
 21
2573.999683277037
 31
0.0
  0
LINE
  5
17C
330
1F
100
AcDbEntity
  8
0-C_ハッチ
  6
JWW_DASHED1
 62
   120
370
     5
100
AcDbLine
 10
2883.817946784262
 20
2648.999683277029
 30
0.0
 11
2808.817946784266
 21
2573.999683277032
 31
0.0
  0
LINE
  5
17D
330
1F
100
AcDbEntity
  8
0-C_ハッチ
  6
JWW_DASHED1
 62
   120
370
     5
100
AcDbLine
 10
2926.244353655476
 20
2648.999683277041
 30
0.0
 11
2851.244353655464
 21
2573.999683277029
 31
0.0
  0
LINE
  5
17E
330
1F
100
AcDbEntity
  8
0-C_ハッチ
  6
JWW_DASHED1
 62
   120
370
     5
100
AcDbLine
 10
2968.670760526616
 20
2648.999683277037
 30
0.0
 11
2893.670760526621
 21
2573.999683277041
 31
0.0
  0
LINE
  5
17F
330
1F
100
AcDbEntity
  8
0-C_ハッチ
  6
JWW_DASHED1
 62
   120
370
     5
100
AcDbLine
 10
3011.097167397811
 20
2648.999683277032
 30
0.0
 11
2936.097167397816
 21
2573.999683277038
 31
0.0
  0
LINE
  5
180
330
1F
100
AcDbEntity
  8
0-C_ハッチ
  6
JWW_DASHED1
 62
   120
370
     5
100
AcDbLine
 10
3046.035049883813
 20
2641.511158891831
 30
0.0
 11
2978.523574269015
 21
2573.999683277032
 31
0.0
  0
LINE
  5
181
330
1F
100
AcDbEntity
  8
0-C_ハッチ
  6
JWW_DASHED1
 62
   120
370
     5
100
AcDbLine
 10
3046.035049883813
 20
2599.084752020633
 30
0.0
 11
3020.949981140207
 21
2573.999683277029
 31
0.0
  0
LINE
  5
182
330
1F
100
AcDbEntity
  8
0-C_ハッチ
  6
JWW_DASHED1
 62
   120
370
     5
100
AcDbLine
 10
1629.59635084641
 20
2303.99968327703
 30
0.0
 11
1554.596350846414
 21
2228.999683277036
 31
0.0
  0
LINE
  5
183
330
1F
100
AcDbEntity
  8
0-C_ハッチ
  6
JWW_DASHED1
 62
   120
370
     5
100
AcDbLine
 10
1672.022757717607
 20
2303.999683277028
 30
0.0
 11
1597.02275771761
 21
2228.999683277034
 31
0.0
  0
LINE
  5
184
330
1F
100
AcDbEntity
  8
0-C_ハッチ
  6
JWW_DASHED1
 62
   120
370
     5
100
AcDbLine
 10
1714.449164588804
 20
2303.999683277025
 30
0.0
 11
1639.449164588807
 21
2228.999683277029
 31
0.0
  0
LINE
  5
185
330
1F
100
AcDbEntity
  8
0-C_ハッチ
  6
JWW_DASHED1
 62
   120
370
     5
100
AcDbLine
 10
1756.87557146
 20
2303.999683277021
 30
0.0
 11
1681.875571460004
 21
2228.999683277028
 31
0.0
  0
LINE
  5
186
330
1F
100
AcDbEntity
  8
0-C_ハッチ
  6
JWW_DASHED1
 62
   120
370
     5
100
AcDbLine
 10
1799.301978331195
 20
2303.999683277016
 30
0.0
 11
1724.3019783312
 21
2228.999683277021
 31
0.0
  0
LINE
  5
187
330
1F
100
AcDbEntity
  8
0-C_ハッチ
  6
JWW_DASHED1
 62
   120
370
     5
100
AcDbLine
 10
1841.728385202407
 20
2303.999683277029
 30
0.0
 11
1766.728385202397
 21
2228.999683277016
 31
0.0
  0
LINE
  5
188
330
1F
100
AcDbEntity
  8
0-C_ハッチ
  6
JWW_DASHED1
 62
   120
370
     5
100
AcDbLine
 10
1884.154792073561
 20
2303.999683277038
 30
0.0
 11
1809.154792073566
 21
2228.999683277041
 31
0.0
  0
LINE
  5
189
330
1F
100
AcDbEntity
  8
0-C_ハッチ
  6
JWW_DASHED1
 62
   120
370
     5
100
AcDbLine
 10
1926.581198944756
 20
2303.999683277034
 30
0.0
 11
1851.581198944763
 21
2228.999683277038
 31
0.0
  0
LINE
  5
18A
330
1F
100
AcDbEntity
  8
0-C_ハッチ
  6
JWW_DASHED1
 62
   120
370
     5
100
AcDbLine
 10
1969.007605815953
 20
2303.99968327703
 30
0.0
 11
1894.007605815959
 21
2228.999683277034
 31
0.0
  0
LINE
  5
18B
330
1F
100
AcDbEntity
  8
0-C_ハッチ
  6
JWW_DASHED1
 62
   120
370
     5
100
AcDbLine
 10
2011.434012687149
 20
2303.999683277028
 30
0.0
 11
1936.434012687156
 21
2228.99968327703
 31
0.0
  0
LINE
  5
18C
330
1F
100
AcDbEntity
  8
0-C_ハッチ
  6
JWW_DASHED1
 62
   120
370
     5
100
AcDbLine
 10
2053.860419558346
 20
2303.999683277025
 30
0.0
 11
1978.860419558353
 21
2228.999683277028
 31
0.0
  0
LINE
  5
18D
330
1F
100
AcDbEntity
  8
0-C_ハッチ
  6
JWW_DASHED1
 62
   120
370
     5
100
AcDbLine
 10
2096.286826429542
 20
2303.999683277021
 30
0.0
 11
2021.286826429549
 21
2228.999683277025
 31
0.0
  0
LINE
  5
18E
330
1F
100
AcDbEntity
  8
0-C_ハッチ
  6
JWW_DASHED1
 62
   120
370
     5
100
AcDbLine
 10
2138.713233300739
 20
2303.999683277016
 30
0.0
 11
2063.713233300746
 21
2228.999683277021
 31
0.0
  0
LINE
  5
18F
330
1F
100
AcDbEntity
  8
0-C_ハッチ
  6
JWW_DASHED1
 62
   120
370
     5
100
AcDbLine
 10
2181.139640171953
 20
2303.999683277029
 30
0.0
 11
2106.139640171942
 21
2228.999683277016
 31
0.0
  0
LINE
  5
190
330
1F
100
AcDbEntity
  8
0-C_ハッチ
  6
JWW_DASHED1
 62
   120
370
     5
100
AcDbLine
 10
2223.566047043105
 20
2303.999683277037
 30
0.0
 11
2148.56604704311
 21
2228.999683277041
 31
0.0
  0
LINE
  5
191
330
1F
100
AcDbEntity
  8
0-C_ハッチ
  6
JWW_DASHED1
 62
   120
370
     5
100
AcDbLine
 10
2265.992453914301
 20
2303.999683277034
 30
0.0
 11
2190.992453914307
 21
2228.999683277038
 31
0.0
  0
LINE
  5
192
330
1F
100
AcDbEntity
  8
0-C_ハッチ
  6
JWW_DASHED1
 62
   120
370
     5
100
AcDbLine
 10
2308.418860785498
 20
2303.99968327703
 30
0.0
 11
2233.418860785503
 21
2228.999683277034
 31
0.0
  0
LINE
  5
193
330
1F
100
AcDbEntity
  8
0-C_ハッチ
  6
JWW_DASHED1
 62
   120
370
     5
100
AcDbLine
 10
2350.845267656695
 20
2303.999683277028
 30
0.0
 11
2275.8452676567
 21
2228.99968327703
 31
0.0
  0
LINE
  5
194
330
1F
100
AcDbEntity
  8
0-C_ハッチ
  6
JWW_DASHED1
 62
   120
370
     5
100
AcDbLine
 10
2393.271674527891
 20
2303.999683277022
 30
0.0
 11
2318.271674527895
 21
2228.999683277028
 31
0.0
  0
LINE
  5
195
330
1F
100
AcDbEntity
  8
0-C_ハッチ
  6
JWW_DASHED1
 62
   120
370
     5
100
AcDbLine
 10
2435.698081399088
 20
2303.999683277021
 30
0.0
 11
2360.698081399091
 21
2228.999683277025
 31
0.0
  0
LINE
  5
196
330
1F
100
AcDbEntity
  8
0-C_ハッチ
  6
JWW_DASHED1
 62
   120
370
     5
100
AcDbLine
 10
2478.124488270301
 20
2303.99968327703
 30
0.0
 11
2403.124488270288
 21
2228.999683277021
 31
0.0
  0
LINE
  5
197
330
1F
100
AcDbEntity
  8
0-C_ハッチ
  6
JWW_DASHED1
 62
   120
370
     5
100
AcDbLine
 10
2520.550895141454
 20
2303.999683277041
 30
0.0
 11
2445.550895141444
 21
2228.999683277028
 31
0.0
  0
LINE
  5
198
330
1F
100
AcDbEntity
  8
0-C_ハッチ
  6
JWW_DASHED1
 62
   120
370
     5
100
AcDbLine
 10
2562.97730201265
 20
2303.999683277036
 30
0.0
 11
2487.977302012654
 21
2228.999683277041
 31
0.0
  0
LINE
  5
199
330
1F
100
AcDbEntity
  8
0-C_ハッチ
  6
JWW_DASHED1
 62
   120
370
     5
100
AcDbLine
 10
2605.403708883847
 20
2303.999683277034
 30
0.0
 11
2530.40370888385
 21
2228.999683277038
 31
0.0
  0
LINE
  5
19A
330
1F
100
AcDbEntity
  8
0-C_ハッチ
  6
JWW_DASHED1
 62
   120
370
     5
100
AcDbLine
 10
2647.830115755044
 20
2303.999683277029
 30
0.0
 11
2572.830115755047
 21
2228.999683277034
 31
0.0
  0
LINE
  5
19B
330
1F
100
AcDbEntity
  8
0-C_ハッチ
  6
JWW_DASHED1
 62
   120
370
     5
100
AcDbLine
 10
2690.25652262624
 20
2303.999683277028
 30
0.0
 11
2615.256522626244
 21
2228.99968327703
 31
0.0
  0
LINE
  5
19C
330
1F
100
AcDbEntity
  8
0-C_ハッチ
  6
JWW_DASHED1
 62
   120
370
     5
100
AcDbLine
 10
2732.682929497437
 20
2303.999683277022
 30
0.0
 11
2657.68292949744
 21
2228.999683277028
 31
0.0
  0
LINE
  5
19D
330
1F
100
AcDbEntity
  8
0-C_ハッチ
  6
JWW_DASHED1
 62
   120
370
     5
100
AcDbLine
 10
2775.109336368633
 20
2303.999683277021
 30
0.0
 11
2700.109336368637
 21
2228.999683277023
 31
0.0
  0
LINE
  5
19E
330
1F
100
AcDbEntity
  8
0-C_ハッチ
  6
JWW_DASHED1
 62
   120
370
     5
100
AcDbLine
 10
2817.535743239845
 20
2303.99968327703
 30
0.0
 11
2742.535743239833
 21
2228.999683277021
 31
0.0
  0
LINE
  5
19F
330
1F
100
AcDbEntity
  8
0-C_ハッチ
  6
JWW_DASHED1
 62
   120
370
     5
100
AcDbLine
 10
2859.962150111
 20
2303.999683277041
 30
0.0
 11
2784.962150111003
 21
2228.999683277043
 31
0.0
  0
LINE
  5
1A0
330
1F
100
AcDbEntity
  8
0-C_ハッチ
  6
JWW_DASHED1
 62
   120
370
     5
100
AcDbLine
 10
2902.388556982196
 20
2303.999683277036
 30
0.0
 11
2827.3885569822
 21
2228.999683277041
 31
0.0
  0
LINE
  5
1A1
330
1F
100
AcDbEntity
  8
0-C_ハッチ
  6
JWW_DASHED1
 62
   120
370
     5
100
AcDbLine
 10
2944.814963853392
 20
2303.999683277034
 30
0.0
 11
2869.814963853396
 21
2228.999683277036
 31
0.0
  0
LINE
  5
1A2
330
1F
100
AcDbEntity
  8
0-C_ハッチ
  6
JWW_DASHED1
 62
   120
370
     5
100
AcDbLine
 10
2987.241370724589
 20
2303.999683277029
 30
0.0
 11
2912.241370724592
 21
2228.999683277034
 31
0.0
  0
LINE
  5
1A3
330
1F
100
AcDbEntity
  8
0-C_ハッチ
  6
JWW_DASHED1
 62
   120
370
     5
100
AcDbLine
 10
3029.667777595786
 20
2303.999683277025
 30
0.0
 11
2954.667777595789
 21
2228.999683277029
 31
0.0
  0
LINE
  5
1A4
330
1F
100
AcDbEntity
  8
0-C_ハッチ
  6
JWW_DASHED1
 62
   120
370
     5
100
AcDbLine
 10
3046.034307564341
 20
2277.939806374382
 30
0.0
 11
2997.094184466986
 21
2228.999683277028
 31
0.0
  0
LINE
  5
1A5
330
1F
100
AcDbEntity
  8
0-C_ハッチ
  6
JWW_DASHED1
 62
   120
370
     5
100
AcDbLine
 10
3046.034307564345
 20
2235.513399503184
 30
0.0
 11
3039.520591338182
 21
2228.999683277022
 31
0.0
  0
LINE
  5
1A6
330
1F
100
AcDbEntity
  8
0-2_柱
  6
Continuous
 62
    92
370
    13
100
AcDbLine
 10
2446.034456028233
 20
2303.999683277014
 30
0.0
 11
2446.034456028233
 21
2573.999683277032
 31
0.0
  0
LINE
  5
1A7
330
1F
100
AcDbEntity
  8
0-2_柱
  6
Continuous
 62
    92
370
    13
100
AcDbLine
 10
2716.034456028233
 20
2303.999683277014
 30
0.0
 11
2716.034456028233
 21
2573.999683277032
 31
0.0
  0
LINE
  5
1A8
330
1F
100
AcDbEntity
  8
0-2_柱
  6
Continuous
 62
     7
370
     9
100
AcDbLine
 10
2446.034456028233
 20
2303.999683277014
 30
0.0
 11
2716.034456028233
 21
2573.999683277032
 31
0.0
  0
LINE
  5
1A9
330
1F
100
AcDbEntity
  8
0-C_ハッチ
  6
JWW_DASHED1
 62
   120
370
     5
100
AcDbLine
 10
2263.814765901504
 20
2411.999683277026
 30
0.0
 11
2230.814765901519
 21
2378.999683277038
 31
0.0
  0
LINE
  5
1AA
330
1F
100
AcDbEntity
  8
0-C_ハッチ
  6
JWW_DASHED1
 62
   120
370
     5
100
AcDbLine
 10
2221.388359030304
 20
2411.999683277026
 30
0.0
 11
2188.388359030305
 21
2378.999683277028
 31
0.0
  0
LINE
  5
1AB
330
1F
100
AcDbEntity
  8
0-C_ハッチ
  6
JWW_DASHED1
 62
   120
370
     5
100
AcDbLine
 10
2178.961952159104
 20
2411.999683277026
 30
0.0
 11
2145.961952159107
 21
2378.999683277029
 31
0.0
  0
LINE
  5
1AC
330
1F
100
AcDbEntity
  8
0-C_ハッチ
  6
JWW_DASHED1
 62
   120
370
     5
100
AcDbLine
 10
2136.535545287959
 20
2411.999683277026
 30
0.0
 11
2103.535545287958
 21
2378.999683277023
 31
0.0
  0
LINE
  5
1AD
330
1F
100
AcDbEntity
  8
0-C_ハッチ
  6
JWW_DASHED1
 62
   120
370
     5
100
AcDbLine
 10
2094.109138416759
 20
2411.999683277026
 30
0.0
 11
2061.109138416762
 21
2378.999683277028
 31
0.0
  0
LINE
  5
1AE
330
1F
100
AcDbEntity
  8
0-C_ハッチ
  6
JWW_DASHED1
 62
   120
370
     5
100
AcDbLine
 10
2051.682731545559
 20
2411.999683277026
 30
0.0
 11
2018.68273154556
 21
2378.999683277028
 31
0.0
  0
LINE
  5
1AF
330
1F
100
AcDbEntity
  8
0-C_ハッチ
  6
JWW_DASHED1
 62
   120
370
     5
100
AcDbLine
 10
2009.256324674359
 20
2411.999683277026
 30
0.0
 11
1976.256324674362
 21
2378.999683277029
 31
0.0
  0
LINE
  5
1B0
330
1F
100
AcDbEntity
  8
0-C_ハッチ
  6
JWW_DASHED1
 62
   120
370
     5
100
AcDbLine
 10
1966.829917803162
 20
2411.999683277026
 30
0.0
 11
1933.829917803167
 21
2378.999683277032
 31
0.0
  0
LINE
  5
1B1
330
1F
100
AcDbEntity
  8
0-C_ハッチ
  6
JWW_DASHED1
 62
   120
370
     5
100
AcDbLine
 10
1924.403510931961
 20
2411.999683277026
 30
0.0
 11
1891.403510931968
 21
2378.999683277034
 31
0.0
  0
LINE
  5
1B2
330
1F
100
AcDbEntity
  8
0-C_ハッチ
  6
JWW_DASHED1
 62
   120
370
     5
100
AcDbLine
 10
1881.977104060759
 20
2411.999683277026
 30
0.0
 11
1848.977104060755
 21
2378.999683277022
 31
0.0
  0
LINE
  5
1B3
330
1F
100
AcDbEntity
  8
0-C_ハッチ
  6
JWW_DASHED1
 62
   120
370
     5
100
AcDbLine
 10
1839.550697189562
 20
2411.999683277026
 30
0.0
 11
1806.55069718956
 21
2378.999683277025
 31
0.0
  0
LINE
  5
1B4
330
1F
100
AcDbEntity
  8
0-C_ハッチ
  6
JWW_DASHED1
 62
   120
370
     5
100
AcDbLine
 10
1797.124290318413
 20
2411.999683277026
 30
0.0
 11
1764.124290318416
 21
2378.999683277028
 31
0.0
  0
LINE
  5
1B5
330
1F
100
AcDbEntity
  8
0-C_ハッチ
  6
JWW_DASHED1
 62
   120
370
     5
100
AcDbLine
 10
1754.697883447213
 20
2411.999683277026
 30
0.0
 11
1721.69788344722
 21
2378.99968327703
 31
0.0
  0
LINE
  5
1B6
330
1F
100
AcDbEntity
  8
0-C_ハッチ
  6
JWW_DASHED1
 62
   120
370
     5
100
AcDbLine
 10
1712.271476576013
 20
2411.999683277026
 30
0.0
 11
1679.271476576009
 21
2378.999683277022
 31
0.0
  0
LINE
  5
1B7
330
1F
100
AcDbEntity
  8
0-C_ハッチ
  6
JWW_DASHED1
 62
   120
370
     5
100
AcDbLine
 10
1669.845069704815
 20
2411.999683277026
 30
0.0
 11
1636.845069704814
 21
2378.999683277025
 31
0.0
  0
LINE
  5
1B8
330
1F
100
AcDbEntity
  8
0-C_ハッチ
  6
JWW_DASHED1
 62
   120
370
     5
100
AcDbLine
 10
1627.418662833615
 20
2411.999683277026
 30
0.0
 11
1594.418662833616
 21
2378.999683277028
 31
0.0
  0
LINE
  5
1B9
330
1F
100
AcDbEntity
  8
0-C_ハッチ
  6
JWW_DASHED1
 62
   120
370
     5
100
AcDbLine
 10
1584.992255962413
 20
2411.999683277026
 30
0.0
 11
1551.992255962402
 21
2378.999683277015
 31
0.0
  0
LINE
  5
1BA
330
1F
100
AcDbEntity
  8
0-2_柱
  6
Continuous
 62
    92
370
    13
100
AcDbLine
 10
2086.034456028233
 20
2303.999683277028
 30
0.0
 11
2086.034456028233
 21
2378.999683277028
 31
0.0
  0
LINE
  5
1BB
330
1F
100
AcDbEntity
  8
0-2_柱
  6
Continuous
 62
     7
370
     9
100
AcDbLine
 10
2266.034456028233
 20
2378.999683277028
 30
0.0
 11
2086.034456028233
 21
2303.999683277028
 31
0.0
  0
MTEXT
  5
1BC
330
1F
100
AcDbEntity
  8
0-B_寸法
  6
Continuous
 62
     7
370
     0
100
AcDbMText
 10
2296.035124115754
 20
1300.719732764993
 30
0.0
 40
91.44
 41
120.0
 46
0.0
 71
     7
 72
     1
  1
{\fＭＳ ゴシック|b0|i0|c128|p49;30}
 73
     1
 44
1.0
  0
LINE
  5
1BD
330
1F
100
AcDbEntity
  8
0-B_寸法
  6
Continuous
 62
   120
370
     5
100
AcDbLine
 10
-264.3091892222463
 20
2423.999683277028
 30
0.0
 11
-110.4626879444373
 21
2423.999683277028
 31
0.0
  0
LWPOLYLINE
  5
1BE
330
1F
100
AcDbEntity
  8
0-B_寸法
  6
Continuous
 62
     7
370
     9
100
AcDbPolyline
 90
        4
 70
     1
 43
3.0
 10
-262.8091892222463
 20
2423.999683277028
 42
0.4142135623731
 10
-264.3091892222463
 20
2425.499683277027
 42
0.4142135623731
 10
-265.8091892222463
 20
2423.999683277028
 42
0.4142135623731
 10
-264.3091892222463
 20
2422.499683277028
 42
0.4142135623731
  0
LINE
  5
1BF
330
1F
100
AcDbEntity
  8
0-4_枠
  6
Continuous
 62
    92
370
    13
100
AcDbLine
 10
96.91854284331725
 20
2333.999683277028
 30
0.0
 11
99.91854284331623
 21
2333.999683277028
 31
0.0
  0
LINE
  5
1C0
330
1F
100
AcDbEntity
  8
0-4_枠
  6
Continuous
 62
    92
370
    13
100
AcDbLine
 10
96.91854284331725
 20
2333.999683277028
 30
0.0
 11
96.91854284331725
 21
2420.999683277026
 31
0.0
  0
LINE
  5
1C1
330
1F
100
AcDbEntity
  8
0-4_枠
  6
Continuous
 62
    92
370
    13
100
AcDbLine
 10
99.91854284331623
 20
2423.999683277028
 30
0.0
 11
-80.08145715668377
 21
2423.999683277028
 31
0.0
  0
LINE
  5
1C2
330
1F
100
AcDbEntity
  8
0-4_枠
  6
Continuous
 62
    92
370
    13
100
AcDbLine
 10
96.91854284331725
 20
2420.999683277026
 30
0.0
 11
-77.08145715668138
 21
2420.999683277026
 31
0.0
  0
LINE
  5
1C3
330
1F
100
AcDbEntity
  8
0-B_寸法
  6
Continuous
 62
   120
370
     5
100
AcDbLine
 10
-114.0314380213385
 20
2462.999683277028
 30
0.0
 11
-264.3091892222463
 21
2462.999683277028
 31
0.0
  0
LWPOLYLINE
  5
1C4
330
1F
100
AcDbEntity
  8
0-B_寸法
  6
Continuous
 62
     7
370
     9
100
AcDbPolyline
 90
        4
 70
     1
 43
3.0
 10
-262.8091892222463
 20
2462.999683277028
 42
0.4142135623731
 10
-264.3091892222463
 20
2464.499683277028
 42
0.4142135623731
 10
-265.8091892222463
 20
2462.999683277028
 42
0.4142135623731
 10
-264.3091892222463
 20
2461.499683277028
 42
0.4142135623731
  0
LINE
  5
1C5
330
1F
100
AcDbEntity
  8
0-B_寸法
  6
Continuous
 62
   120
370
     5
100
AcDbLine
 10
-114.0314380213385
 20
2642.999683277028
 30
0.0
 11
-264.3091892222463
 21
2642.999683277028
 31
0.0
  0
LWPOLYLINE
  5
1C6
330
1F
100
AcDbEntity
  8
0-B_寸法
  6
Continuous
 62
     7
370
     9
100
AcDbPolyline
 90
        4
 70
     1
 43
3.0
 10
-262.8091892222463
 20
2642.999683277028
 42
0.4142135623731
 10
-264.3091892222463
 20
2644.499683277028
 42
0.4142135623731
 10
-265.8091892222463
 20
2642.999683277028
 42
0.4142135623731
 10
-264.3091892222463
 20
2641.499683277028
 42
0.4142135623731
  0
LINE
  5
1C7
330
1F
100
AcDbEntity
  8
0-B_寸法
  6
Continuous
 62
   120
370
     5
100
AcDbLine
 10
-264.3091892222463
 20
2642.999683277028
 30
0.0
 11
-264.3091892222463
 21
2462.999683277028
 31
0.0
  0
LINE
  5
1C8
330
1F
100
AcDbEntity
  8
0-C_ハッチ
  6
Continuous
 62
   120
370
     5
100
AcDbLine
 10
-50.04273132562048
 20
2420.999683277025
 30
0.0
 11
-77.08145715668138
 21
2393.960957445966
 31
0.0
  0
LINE
  5
1C9
330
1F
100
AcDbEntity
  8
0-C_ハッチ
  6
Continuous
 62
   120
370
     5
100
AcDbLine
 10
96.91854284332408
 20
2389.770048586972
 30
0.0
 11
-77.08145715668138
 21
2215.77004858697
 31
0.0
  0
LINE
  5
1CA
330
1F
100
AcDbEntity
  8
0-C_ハッチ
  6
Continuous
 62
   120
370
     5
100
AcDbLine
 10
9.35423829402339
 20
2420.999683277023
 30
0.0
 11
-77.08145715668138
 21
2334.563987826319
 31
0.0
  0
LINE
  5
1CB
330
1F
100
AcDbEntity
  8
0-C_ハッチ
  6
Continuous
 62
   120
370
     5
100
AcDbLine
 10
68.75120791372694
 20
2420.999683277026
 30
0.0
 11
-77.08145715668138
 21
2275.167018206617
 31
0.0
  0
LINE
  5
1CC
330
1F
100
AcDbEntity
  8
0-6_扉
  6
Continuous
 62
   120
370
     5
100
AcDbLine
 10
-264.3091892222463
 20
2462.999731672593
 30
0.0
 11
-264.3091892222463
 21
2423.999731672593
 31
0.0
  0
LWPOLYLINE
  5
1CD
330
1F
100
AcDbEntity
  8
0-6_扉
  6
Continuous
 62
     7
370
     9
100
AcDbPolyline
 90
        4
 70
     1
 43
3.0
 10
-262.8091892222463
 20
2423.999731672593
 42
0.4142135623731
 10
-264.3091892222463
 20
2425.499731672593
 42
0.4142135623731
 10
-265.8091892222463
 20
2423.999731672593
 42
0.4142135623731
 10
-264.3091892222463
 20
2422.499731672593
 42
0.4142135623731
  0
LINE
  5
1CE
330
1F
100
AcDbEntity
  8
0-6_扉
  6
Continuous
 62
   200
370
    20
100
AcDbLine
 10
99.91854284331623
 20
2462.999683277028
 30
0.0
 11
99.91854284331623
 21
2642.999683277028
 31
0.0
  0
LINE
  5
1CF
330
1F
100
AcDbEntity
  8
0-6_扉
  6
JWW_DASHED2
 62
    40
370
    15
100
AcDbLine
 10
-80.08145715668377
 20
2462.999683277028
 30
0.0
 11
-80.08145715668377
 21
2642.999683277028
 31
0.0
  0
LWPOLYLINE
  5
1D0
330
1F
100
AcDbEntity
  8
0-6_扉
  6
Continuous
 62
     7
370
     9
100
AcDbPolyline
 90
        4
 70
     1
 43
3.0
 10
-262.8091892222463
 20
2462.999683277028
 42
0.4142135623731
 10
-264.3091892222463
 20
2464.499683277028
 42
0.4142135623731
 10
-265.8091892222463
 20
2462.999683277028
 42
0.4142135623731
 10
-264.3091892222463
 20
2461.499683277028
 42
0.4142135623731
  0
LINE
  5
1D1
330
1F
100
AcDbEntity
  8
0-B_寸法
  6
Continuous
 62
   120
370
     5
100
AcDbLine
 10
-264.3091892222463
 20
2168.999683277028
 30
0.0
 11
-110.4626879444373
 21
2168.999683277028
 31
0.0
  0
LWPOLYLINE
  5
1D2
330
1F
100
AcDbEntity
  8
0-B_寸法
  6
Continuous
 62
     7
370
     9
100
AcDbPolyline
 90
        4
 70
     1
 43
3.0
 10
-262.8091892222463
 20
2168.999683277028
 42
0.4142135623731
 10
-264.3091892222463
 20
2170.499683277027
 42
0.4142135623731
 10
-265.8091892222463
 20
2168.999683277028
 42
0.4142135623731
 10
-264.3091892222463
 20
2167.499683277028
 42
0.4142135623731
  0
LINE
  5
1D3
330
1F
100
AcDbEntity
  8
0-B_寸法
  6
Continuous
 62
   120
370
     5
100
AcDbLine
 10
-264.3091892222463
 20
2423.999683277028
 30
0.0
 11
-264.3091892222463
 21
2168.999683277028
 31
0.0
  0
LINE
  5
1D4
330
1F
100
AcDbEntity
  8
0-4_枠
  6
Continuous
 62
    92
370
    13
100
AcDbLine
 10
96.91854284331725
 20
2258.999683277028
 30
0.0
 11
99.91854284331623
 21
2258.999683277028
 31
0.0
  0
LINE
  5
1D5
330
1F
100
AcDbEntity
  8
0-4_枠
  6
Continuous
 62
    92
370
    13
100
AcDbLine
 10
99.91854284331623
 20
2423.999683277028
 30
0.0
 11
99.91854284331623
 21
2168.999683277028
 31
0.0
  0
LINE
  5
1D6
330
1F
100
AcDbEntity
  8
0-4_枠
  6
Continuous
 62
    92
370
    13
100
AcDbLine
 10
96.91854284331725
 20
2258.999683277028
 30
0.0
 11
96.91854284331725
 21
2171.999683277026
 31
0.0
  0
LINE
  5
1D7
330
1F
100
AcDbEntity
  8
0-4_枠
  6
Continuous
 62
    92
370
    13
100
AcDbLine
 10
-71.59617578244479
 20
2168.999683277028
 30
0.0
 11
99.91854284331623
 21
2168.999683277028
 31
0.0
  0
LINE
  5
1D8
330
1F
100
AcDbEntity
  8
0-4_枠
  6
Continuous
 62
    92
370
    13
100
AcDbLine
 10
-80.08145715668377
 20
2177.484964651265
 30
0.0
 11
-80.08145715668377
 21
2423.999683277028
 31
0.0
  0
LINE
  5
1D9
330
1F
100
AcDbEntity
  8
0-4_枠
  6
Continuous
 62
    92
370
    13
100
AcDbLine
 10
-71.59617578244479
 20
2168.999683277028
 30
0.0
 11
-80.08145715668377
 21
2177.484964651265
 31
0.0
  0
LINE
  5
1DA
330
1F
100
AcDbEntity
  8
0-4_枠
  6
Continuous
 62
    92
370
    13
100
AcDbLine
 10
-77.08145715668138
 20
2420.999683277026
 30
0.0
 11
-77.08145715668138
 21
2178.727605338382
 31
0.0
  0
LINE
  5
1DB
330
1F
100
AcDbEntity
  8
0-4_枠
  6
Continuous
 62
    92
370
    13
100
AcDbLine
 10
-70.35353509532513
 20
2171.999683277026
 30
0.0
 11
-77.08145715668138
 21
2178.727605338382
 31
0.0
  0
LINE
  5
1DC
330
1F
100
AcDbEntity
  8
0-4_枠
  6
Continuous
 62
    92
370
    13
100
AcDbLine
 10
96.91854284331725
 20
2171.999683277026
 30
0.0
 11
-70.35353509532513
 21
2171.999683277026
 31
0.0
  0
LINE
  5
1DD
330
1F
100
AcDbEntity
  8
0-C_ハッチ
  6
Continuous
 62
   120
370
     5
100
AcDbLine
 10
99.91854284331623
 20
2333.373078967266
 30
0.0
 11
-61.45485284692256
 21
2171.999683277026
 31
0.0
  0
LINE
  5
1DE
330
1F
100
AcDbEntity
  8
0-C_ハッチ
  6
Continuous
 62
   120
370
     5
100
AcDbLine
 10
99.91854284331623
 20
2273.976109347619
 30
0.0
 11
-2.057883227275283
 21
2171.999683277026
 31
0.0
  0
LINE
  5
1DF
330
1F
100
AcDbEntity
  8
0-C_ハッチ
  6
Continuous
 62
   120
370
     5
100
AcDbLine
 10
96.91854284331725
 20
2211.579139727914
 30
0.0
 11
57.33908639242827
 21
2171.999683277026
 31
0.0
  0
LINE
  5
1E0
330
1F
100
AcDbEntity
  8
0-C_ハッチ
  6
JWW_DASHED1
 62
   120
370
     5
100
AcDbLine
 10
133.2576403595215
 20
2303.999683277038
 30
0.0
 11
99.91854284330259
 21
2270.660585760821
 31
0.0
  0
LINE
  5
1E1
330
1F
100
AcDbEntity
  8
0-C_ハッチ
  6
JWW_DASHED1
 62
   120
370
     5
100
AcDbLine
 10
175.6840472307198
 20
2303.999683277036
 30
0.0
 11
100.6840472307232
 21
2228.999683277041
 31
0.0
  0
LINE
  5
1E2
330
1F
100
AcDbEntity
  8
0-C_ハッチ
  6
JWW_DASHED1
 62
   120
370
     5
100
AcDbLine
 10
218.1104541019147
 20
2303.999683277032
 30
0.0
 11
143.1104541019198
 21
2228.999683277036
 31
0.0
  0
LINE
  5
1E3
330
1F
100
AcDbEntity
  8
0-C_ハッチ
  6
JWW_DASHED1
 62
   120
370
     5
100
AcDbLine
 10
260.536860973113
 20
2303.999683277029
 30
0.0
 11
185.5368609731164
 21
2228.999683277034
 31
0.0
  0
LINE
  5
1E4
330
1F
100
AcDbEntity
  8
0-C_ハッチ
  6
JWW_DASHED1
 62
   120
370
     5
100
AcDbLine
 10
302.9632678443079
 20
2303.999683277028
 30
0.0
 11
227.963267844313
 21
2228.999683277029
 31
0.0
  0
LINE
  5
1E5
330
1F
100
AcDbEntity
  8
0-C_ハッチ
  6
JWW_DASHED1
 62
   120
370
     5
100
AcDbLine
 10
345.3896747155062
 20
2303.999683277022
 30
0.0
 11
270.3896747155096
 21
2228.999683277028
 31
0.0
  0
LINE
  5
1E6
330
1F
100
AcDbEntity
  8
0-C_ハッチ
  6
JWW_DASHED1
 62
   120
370
     5
100
AcDbLine
 10
387.8160815867182
 20
2303.999683277034
 30
0.0
 11
312.8160815867062
 21
2228.999683277023
 31
0.0
  0
LINE
  5
1E7
330
1F
100
AcDbEntity
  8
0-C_ハッチ
  6
JWW_DASHED1
 62
   120
370
     5
100
AcDbLine
 10
430.242488457867
 20
2303.999683277036
 30
0.0
 11
355.2424884578551
 21
2228.999683277028
 31
0.0
  0
LINE
  5
1E8
330
1F
100
AcDbEntity
  8
0-C_ハッチ
  6
JWW_DASHED1
 62
   120
370
     5
100
AcDbLine
 10
472.6688953290602
 20
2303.999683277032
 30
0.0
 11
397.668895329067
 21
2228.999683277037
 31
0.0
  0
LINE
  5
1E9
330
1F
100
AcDbEntity
  8
0-C_ハッチ
  6
JWW_DASHED1
 62
   120
370
     5
100
AcDbLine
 10
515.0953022002653
 20
2303.999683277036
 30
0.0
 11
440.0953022002705
 21
2228.999683277041
 31
0.0
  0
LINE
  5
1EA
330
1F
100
AcDbEntity
  8
0-C_ハッチ
  6
JWW_DASHED1
 62
   120
370
     5
100
AcDbLine
 10
557.5217090714619
 20
2303.999683277034
 30
0.0
 11
482.5217090714654
 21
2228.999683277037
 31
0.0
  0
LINE
  5
1EB
330
1F
100
AcDbEntity
  8
0-C_ハッチ
  6
JWW_DASHED1
 62
   120
370
     5
100
AcDbLine
 10
599.9481159426585
 20
2303.999683277029
 30
0.0
 11
524.948115942662
 21
2228.999683277034
 31
0.0
  0
LINE
  5
1EC
330
1F
100
AcDbEntity
  8
0-C_ハッチ
  6
JWW_DASHED1
 62
   120
370
     5
100
AcDbLine
 10
642.3745228138552
 20
2303.999683277028
 30
0.0
 11
567.3745228138586
 21
2228.99968327703
 31
0.0
  0
LINE
  5
1ED
330
1F
100
AcDbEntity
  8
0-C_ハッチ
  6
JWW_DASHED1
 62
   120
370
     5
100
AcDbLine
 10
684.8009296850518
 20
2303.999683277022
 30
0.0
 11
609.8009296850552
 21
2228.999683277028
 31
0.0
  0
LINE
  5
1EE
330
1F
100
AcDbEntity
  8
0-C_ハッチ
  6
JWW_DASHED1
 62
   120
370
     5
100
AcDbLine
 10
727.2273365562654
 20
2303.999683277036
 30
0.0
 11
652.2273365562518
 21
2228.999683277023
 31
0.0
  0
LINE
  5
1EF
330
1F
100
AcDbEntity
  8
0-C_ハッチ
  6
JWW_DASHED1
 62
   120
370
     5
100
AcDbLine
 10
769.653743427404
 20
2303.999683277029
 30
0.0
 11
694.6537434274109
 21
2228.999683277034
 31
0.0
  0
LINE
  5
1F0
330
1F
100
AcDbEntity
  8
0-C_ハッチ
  6
JWW_DASHED1
 62
   120
370
     5
100
AcDbLine
 10
812.0801502985989
 20
2303.999683277025
 30
0.0
 11
737.080150298604
 21
2228.99968327703
 31
0.0
  0
LINE
  5
1F1
330
1F
100
AcDbEntity
  8
0-C_ハッチ
  6
JWW_DASHED1
 62
   120
370
     5
100
AcDbLine
 10
854.4186170752539
 20
2303.91174318248
 30
0.0
 11
779.506557169816
 21
2228.999683277041
 31
0.0
  0
LINE
  5
1F2
330
1F
100
AcDbEntity
  8
0-C_ハッチ
  6
JWW_DASHED1
 62
   120
370
     5
100
AcDbLine
 10
104.9780733301992
 20
2411.999683277026
 30
0.0
 11
99.91854284331964
 21
2406.940152790149
 31
0.0
  0
LINE
  5
1F3
330
1F
100
AcDbEntity
  8
0-C_ハッチ
  6
JWW_DASHED1
 62
   120
370
     5
100
AcDbLine
 10
147.4044802013975
 20
2411.999683277026
 30
0.0
 11
114.4044802013985
 21
2378.999683277028
 31
0.0
  0
LINE
  5
1F4
330
1F
100
AcDbEntity
  8
0-C_ハッチ
  6
JWW_DASHED1
 62
   120
370
     5
100
AcDbLine
 10
189.8308870725992
 20
2411.999683277026
 30
0.0
 11
156.8308870725951
 21
2378.999683277022
 31
0.0
  0
LINE
  5
1F5
330
1F
100
AcDbEntity
  8
0-C_ハッチ
  6
JWW_DASHED1
 62
   120
370
     5
100
AcDbLine
 10
232.2572939437447
 20
2411.999683277026
 30
0.0
 11
199.2572939437457
 21
2378.999683277028
 31
0.0
  0
LINE
  5
1F6
330
1F
100
AcDbEntity
  8
0-C_ハッチ
  6
JWW_DASHED1
 62
   120
370
     5
100
AcDbLine
 10
274.6837008149447
 20
2411.999683277026
 30
0.0
 11
241.6837008149611
 21
2378.999683277043
 31
0.0
  0
LINE
  5
1F7
330
1F
100
AcDbEntity
  8
0-C_ハッチ
  6
JWW_DASHED1
 62
   120
370
     5
100
AcDbLine
 10
317.1101076861447
 20
2411.999683277026
 30
0.0
 11
284.1101076861577
 21
2378.999683277041
 31
0.0
  0
LINE
  5
1F8
330
1F
100
AcDbEntity
  8
0-C_ハッチ
  6
JWW_DASHED1
 62
   120
370
     5
100
AcDbLine
 10
359.5365145573447
 20
2411.999683277026
 30
0.0
 11
326.5365145573543
 21
2378.999683277036
 31
0.0
  0
LINE
  5
1F9
330
1F
100
AcDbEntity
  8
0-C_ハッチ
  6
JWW_DASHED1
 62
   120
370
     5
100
AcDbLine
 10
401.9629214285447
 20
2411.999683277026
 30
0.0
 11
368.9629214285526
 21
2378.999683277034
 31
0.0
  0
LINE
  5
1FA
330
1F
100
AcDbEntity
  8
0-C_ハッチ
  6
JWW_DASHED1
 62
   120
370
     5
100
AcDbLine
 10
444.3893282997448
 20
2411.999683277026
 30
0.0
 11
411.3893282997492
 21
2378.999683277029
 31
0.0
  0
LINE
  5
1FB
330
1F
100
AcDbEntity
  8
0-C_ハッチ
  6
JWW_DASHED1
 62
   120
370
     5
100
AcDbLine
 10
486.8157351709448
 20
2411.999683277026
 30
0.0
 11
453.8157351709458
 21
2378.999683277028
 31
0.0
  0
LINE
  5
1FC
330
1F
100
AcDbEntity
  8
0-C_ハッチ
  6
JWW_DASHED1
 62
   120
370
     5
100
AcDbLine
 10
529.2421420420902
 20
2411.999683277026
 30
0.0
 11
496.2421420420895
 21
2378.999683277028
 31
0.0
  0
LINE
  5
1FD
330
1F
100
AcDbEntity
  8
0-C_ハッチ
  6
JWW_DASHED1
 62
   120
370
     5
100
AcDbLine
 10
571.6685489132902
 20
2411.999683277026
 30
0.0
 11
538.6685489132844
 21
2378.999683277021
 31
0.0
  0
LINE
  5
1FE
330
1F
100
AcDbEntity
  8
0-C_ハッチ
  6
JWW_DASHED1
 62
   120
370
     5
100
AcDbLine
 10
614.0949557844903
 20
2411.999683277026
 30
0.0
 11
581.0949557845066
 21
2378.999683277043
 31
0.0
  0
LINE
  5
1FF
330
1F
100
AcDbEntity
  8
0-C_ハッチ
  6
JWW_DASHED1
 62
   120
370
     5
100
AcDbLine
 10
656.5213626556903
 20
2411.999683277026
 30
0.0
 11
623.5213626557032
 21
2378.999683277041
 31
0.0
  0
LINE
  5
200
330
1F
100
AcDbEntity
  8
0-C_ハッチ
  6
JWW_DASHED1
 62
   120
370
     5
100
AcDbLine
 10
698.9477695268903
 20
2411.999683277026
 30
0.0
 11
665.9477695268998
 21
2378.999683277036
 31
0.0
  0
LINE
  5
201
330
1F
100
AcDbEntity
  8
0-C_ハッチ
  6
JWW_DASHED1
 62
   120
370
     5
100
AcDbLine
 10
741.3741763980903
 20
2411.999683277026
 30
0.0
 11
708.3741763980964
 21
2378.999683277034
 31
0.0
  0
LINE
  5
202
330
1F
100
AcDbEntity
  8
0-C_ハッチ
  6
JWW_DASHED1
 62
   120
370
     5
100
AcDbLine
 10
783.8005832692903
 20
2411.999683277026
 30
0.0
 11
750.800583269293
 21
2378.999683277029
 31
0.0
  0
LINE
  5
203
330
1F
100
AcDbEntity
  8
0-C_ハッチ
  6
JWW_DASHED1
 62
   120
370
     5
100
AcDbLine
 10
826.2269901404903
 20
2411.999683277026
 30
0.0
 11
793.2269901404896
 21
2378.999683277028
 31
0.0
  0
LINE
  5
204
330
1F
100
AcDbEntity
  8
0-2_柱
  6
Continuous
 62
    92
370
    13
100
AcDbLine
 10
279.9185428433162
 20
2378.999683277028
 30
0.0
 11
279.9185428433162
 21
2303.999683277028
 31
0.0
  0
LINE
  5
205
330
1F
100
AcDbEntity
  8
0-2_柱
  6
Continuous
 62
     7
370
     9
100
AcDbLine
 10
99.91854284331623
 20
2303.999683277028
 30
0.0
 11
279.9185428433162
 21
2378.999683277028
 31
0.0
  0
MTEXT
  5
206
330
1F
100
AcDbEntity
  8
0-6_扉
  6
Continuous
 62
     7
370
   211
100
AcDbMText
 10
-119.0211199143431
 20
2339.219731672591
 30
0.0
 40
91.44
 41
180.0
 46
0.0
 71
     7
 72
     1
  1
{\fＭＳ ゴシック|b0|i0|c128|p49;6.5}
 11
6.123031769111886E-17
 21
1.0
 31
0.0
 73
     1
 44
1.0
  0
MTEXT
  5
207
330
1F
100
AcDbEntity
  8
0-B_寸法
  6
Continuous
 62
     7
370
     0
100
AcDbMText
 10
-279.3092387102087
 20
2478.719683277027
 30
0.0
 40
91.44
 41
120.0
 46
0.0
 71
     7
 72
     1
  1
{\fＭＳ ゴシック|b0|i0|c128|p49;30}
 11
6.123031769111886E-17
 21
1.0
 31
0.0
 73
     1
 44
1.0
  0
MTEXT
  5
208
330
1F
100
AcDbEntity
  8
0-B_寸法
  6
Continuous
 62
     7
370
     0
100
AcDbMText
 10
-270.9319587462636
 20
2162.219683277027
 30
0.0
 40
91.44
 41
240.0
 46
0.0
 71
     7
 72
     1
  1
{\fＭＳ ゴシック|b0|i0|c128|p49;42.5}
 11
6.123031769111886E-17
 21
1.0
 31
0.0
 73
     1
 44
1.0
  0
LINE
  5
209
330
1F
100
AcDbEntity
  8
0-0_補助線
  6
JWW_HOJO
 62
   120
370
     5
100
AcDbLine
 10
-1192.848406992072
 20
2957.999138909418
 30
0.0
 11
-1192.848406992072
 21
1899.999683277026
 31
0.0
  0
LINE
  5
20A
330
1F
100
AcDbEntity
  8
0-6_扉
  6
Continuous
 62
   200
370
    20
100
AcDbLine
 10
-2264.198112661065
 20
2462.999683277028
 30
0.0
 11
-1192.848406992072
 21
2462.999683277028
 31
0.0
  0
LINE
  5
20B
330
1F
100
AcDbEntity
  8
0-6_扉
  6
Continuous
 62
   200
370
    20
100
AcDbLine
 10
-2264.198112661065
 20
2642.999683277028
 30
0.0
 11
-1192.848406992072
 21
2642.999683277028
 31
0.0
  0
LINE
  5
20C
330
1F
100
AcDbEntity
  8
0-0_補助線
  6
JWW_HOJO
 62
   120
370
     5
100
AcDbLine
 10
-1072.848406992072
 20
2957.999138909418
 30
0.0
 11
-1072.848406992072
 21
1899.999683277026
 31
0.0
  0
LINE
  5
20D
330
1F
100
AcDbEntity
  8
0-6_扉
  6
Continuous
 62
   200
370
    20
100
AcDbLine
 10
-1072.848406992072
 20
2462.999683277028
 30
0.0
 11
99.91854284331623
 21
2462.999683277028
 31
0.0
  0
LINE
  5
20E
330
1F
100
AcDbEntity
  8
0-6_扉
  6
Continuous
 62
   200
370
    20
100
AcDbLine
 10
-1072.848406992072
 20
2642.999683277028
 30
0.0
 11
99.91854284331623
 21
2642.999683277028
 31
0.0
  0
LINE
  5
20F
330
1F
100
AcDbEntity
  8
0-0_補助線
  6
JWW_HOJO
 62
   120
370
     5
100
AcDbLine
 10
1041.976499435777
 20
2957.999138909418
 30
0.0
 11
1041.976499435777
 21
1899.999683277026
 31
0.0
  0
LINE
  5
210
330
1F
100
AcDbEntity
  8
0-3_仕上げ
  6
Continuous
 62
    40
370
    15
100
AcDbLine
 10
1041.976499435777
 20
2303.999683277028
 30
0.0
 11
99.91854284331623
 21
2303.999683277028
 31
0.0
  0
LINE
  5
211
330
1F
100
AcDbEntity
  8
0-6_扉
  6
JWW_DASHED2
 62
    40
370
    15
100
AcDbLine
 10
99.91854284331623
 20
2462.999683277028
 30
0.0
 11
1041.976499435777
 21
2462.999683277028
 31
0.0
  0
LINE
  5
212
330
1F
100
AcDbEntity
  8
0-6_扉
  6
JWW_DASHED2
 62
    40
370
    15
100
AcDbLine
 10
99.91854284331623
 20
2642.999683277028
 30
0.0
 11
1041.976499435777
 21
2642.999683277028
 31
0.0
  0
LINE
  5
213
330
1F
100
AcDbEntity
  8
0-3_仕上げ
  6
Continuous
 62
    40
370
    15
100
AcDbLine
 10
1041.976499435777
 20
2228.999683277028
 30
0.0
 11
99.91854284331623
 21
2228.999683277028
 31
0.0
  0
LINE
  5
214
330
1F
100
AcDbEntity
  8
0-3_仕上げ
  6
Continuous
 62
    40
370
    15
100
AcDbLine
 10
1041.976499435777
 20
2378.999683277028
 30
0.0
 11
99.91854284331623
 21
2378.999683277028
 31
0.0
  0
LINE
  5
215
330
1F
100
AcDbEntity
  8
0-3_仕上げ
  6
Continuous
 62
    40
370
    15
100
AcDbLine
 10
1041.976499435777
 20
2411.999683277026
 30
0.0
 11
99.91854284331623
 21
2411.999683277026
 31
0.0
  0
LINE
  5
216
330
1F
100
AcDbEntity
  8
0-0_補助線
  6
JWW_HOJO
 62
   120
370
     5
100
AcDbLine
 10
1161.976499435777
 20
2957.999138909418
 30
0.0
 11
1161.976499435777
 21
1899.999683277026
 31
0.0
  0
LINE
  5
217
330
1F
100
AcDbEntity
  8
0-6_扉
  6
JWW_DASHED2
 62
    40
370
    15
100
AcDbLine
 10
1161.976499435777
 20
2462.999683277028
 30
0.0
 11
2284.034456028234
 21
2462.999683277028
 31
0.0
  0
LINE
  5
218
330
1F
100
AcDbEntity
  8
0-6_扉
  6
JWW_DASHED2
 62
    40
370
    15
100
AcDbLine
 10
1161.976499435777
 20
2642.999683277028
 30
0.0
 11
2284.034456028234
 21
2642.999683277028
 31
0.0
  0
LINE
  5
219
330
1F
100
AcDbEntity
  8
0-3_仕上げ
  6
Continuous
 62
    40
370
    15
100
AcDbLine
 10
3046.034307564338
 20
2228.999683277028
 30
0.0
 11
1161.976499435777
 21
2228.999683277028
 31
0.0
  0
LINE
  5
21A
330
1F
100
AcDbEntity
  8
0-3_仕上げ
  6
Continuous
 62
    40
370
    15
100
AcDbLine
 10
2266.034456028233
 20
2378.999683277028
 30
0.0
 11
1161.976499435777
 21
2378.999683277028
 31
0.0
  0
LINE
  5
21B
330
1F
100
AcDbEntity
  8
0-3_仕上げ
  6
Continuous
 62
    40
370
    15
100
AcDbLine
 10
2266.034456028233
 20
2411.999683277026
 30
0.0
 11
1161.976499435777
 21
2411.999683277026
 31
0.0
  0
LINE
  5
21C
330
1F
100
AcDbEntity
  8
0-C_ハッチ
  6
JWW_DASHED1
 62
   120
370
     5
100
AcDbLine
 10
1502.317130232821
 20
2303.99968327703
 30
0.0
 11
1427.317130232824
 21
2228.999683277036
 31
0.0
  0
LINE
  5
21D
330
1F
100
AcDbEntity
  8
0-C_ハッチ
  6
JWW_DASHED1
 62
   120
370
     5
100
AcDbLine
 10
1544.743537104017
 20
2303.999683277028
 30
0.0
 11
1469.743537104021
 21
2228.999683277034
 31
0.0
  0
LINE
  5
21E
330
1F
100
AcDbEntity
  8
0-C_ハッチ
  6
JWW_DASHED1
 62
   120
370
     5
100
AcDbLine
 10
1587.169943975214
 20
2303.999683277025
 30
0.0
 11
1512.169943975217
 21
2228.999683277029
 31
0.0
  0
LINE
  5
21F
330
1F
100
AcDbEntity
  8
0-C_ハッチ
  6
JWW_DASHED1
 62
   120
370
     5
100
AcDbLine
 10
1584.992255962425
 20
2411.999683277026
 30
0.0
 11
1551.992255962421
 21
2378.999683277022
 31
0.0
  0
LINE
  5
220
330
1F
100
AcDbEntity
  8
0-C_ハッチ
  6
JWW_DASHED1
 62
   120
370
     5
100
AcDbLine
 10
1542.565849091225
 20
2411.999683277026
 30
0.0
 11
1509.565849091225
 21
2378.999683277025
 31
0.0
  0
LINE
  5
221
330
1F
100
AcDbEntity
  8
0-C_ハッチ
  6
JWW_DASHED1
 62
   120
370
     5
100
AcDbLine
 10
1500.139442220025
 20
2411.999683277026
 30
0.0
 11
1467.139442220026
 21
2378.999683277028
 31
0.0
  0
LINE
  5
222
330
1F
100
AcDbEntity
  8
0-C_ハッチ
  6
JWW_DASHED1
 62
   120
370
     5
100
AcDbLine
 10
1457.713035348825
 20
2411.999683277026
 30
0.0
 11
1424.713035348813
 21
2378.999683277015
 31
0.0
  0
LINE
  5
223
330
1F
100
AcDbEntity
  8
0-C_ハッチ
  6
JWW_DASHED1
 62
   120
370
     5
100
AcDbLine
 10
1375.037909619231
 20
2303.99968327703
 30
0.0
 11
1300.037909619236
 21
2228.999683277036
 31
0.0
  0
LINE
  5
224
330
1F
100
AcDbEntity
  8
0-C_ハッチ
  6
JWW_DASHED1
 62
   120
370
     5
100
AcDbLine
 10
1417.464316490427
 20
2303.999683277028
 30
0.0
 11
1342.464316490431
 21
2228.999683277034
 31
0.0
  0
LINE
  5
225
330
1F
100
AcDbEntity
  8
0-C_ハッチ
  6
JWW_DASHED1
 62
   120
370
     5
100
AcDbLine
 10
1459.890723361624
 20
2303.999683277025
 30
0.0
 11
1384.890723361627
 21
2228.999683277029
 31
0.0
  0
LINE
  5
226
330
1F
100
AcDbEntity
  8
0-C_ハッチ
  6
JWW_DASHED1
 62
   120
370
     5
100
AcDbLine
 10
1457.713035348836
 20
2411.999683277026
 30
0.0
 11
1424.713035348831
 21
2378.999683277022
 31
0.0
  0
LINE
  5
227
330
1F
100
AcDbEntity
  8
0-C_ハッチ
  6
JWW_DASHED1
 62
   120
370
     5
100
AcDbLine
 10
1415.286628477637
 20
2411.999683277026
 30
0.0
 11
1382.286628477635
 21
2378.999683277025
 31
0.0
  0
LINE
  5
228
330
1F
100
AcDbEntity
  8
0-C_ハッチ
  6
JWW_DASHED1
 62
   120
370
     5
100
AcDbLine
 10
1372.860221606437
 20
2411.999683277026
 30
0.0
 11
1339.860221606438
 21
2378.999683277028
 31
0.0
  0
LINE
  5
229
330
1F
100
AcDbEntity
  8
0-C_ハッチ
  6
JWW_DASHED1
 62
   120
370
     5
100
AcDbLine
 10
1330.433814735236
 20
2411.999683277026
 30
0.0
 11
1297.433814735225
 21
2378.999683277015
 31
0.0
  0
LINE
  5
22A
330
1F
100
AcDbEntity
  8
0-C_ハッチ
  6
JWW_DASHED1
 62
   120
370
     5
100
AcDbLine
 10
1247.758689005641
 20
2303.99968327703
 30
0.0
 11
1172.758689005646
 21
2228.999683277036
 31
0.0
  0
LINE
  5
22B
330
1F
100
AcDbEntity
  8
0-C_ハッチ
  6
JWW_DASHED1
 62
   120
370
     5
100
AcDbLine
 10
1290.185095876838
 20
2303.999683277028
 30
0.0
 11
1215.185095876841
 21
2228.999683277034
 31
0.0
  0
LINE
  5
22C
330
1F
100
AcDbEntity
  8
0-C_ハッチ
  6
JWW_DASHED1
 62
   120
370
     5
100
AcDbLine
 10
1332.611502748034
 20
2303.999683277025
 30
0.0
 11
1257.611502748038
 21
2228.999683277029
 31
0.0
  0
LINE
  5
22D
330
1F
100
AcDbEntity
  8
0-C_ハッチ
  6
JWW_DASHED1
 62
   120
370
     5
100
AcDbLine
 10
1330.433814735246
 20
2411.999683277026
 30
0.0
 11
1297.433814735241
 21
2378.999683277022
 31
0.0
  0
LINE
  5
22E
330
1F
100
AcDbEntity
  8
0-C_ハッチ
  6
JWW_DASHED1
 62
   120
370
     5
100
AcDbLine
 10
1288.007407864047
 20
2411.999683277026
 30
0.0
 11
1255.007407864047
 21
2378.999683277025
 31
0.0
  0
LINE
  5
22F
330
1F
100
AcDbEntity
  8
0-C_ハッチ
  6
JWW_DASHED1
 62
   120
370
     5
100
AcDbLine
 10
1245.581000992847
 20
2411.999683277026
 30
0.0
 11
1212.581000992848
 21
2378.999683277028
 31
0.0
  0
LINE
  5
230
330
1F
100
AcDbEntity
  8
0-C_ハッチ
  6
JWW_DASHED1
 62
   120
370
     5
100
AcDbLine
 10
1203.154594121645
 20
2411.999683277026
 30
0.0
 11
1170.154594121635
 21
2378.999683277015
 31
0.0
  0
LINE
  5
231
330
1F
100
AcDbEntity
  8
0-C_ハッチ
  6
JWW_DASHED1
 62
   120
370
     5
100
AcDbLine
 10
1203.154594121656
 20
2411.999683277026
 30
0.0
 11
1170.154594121652
 21
2378.999683277022
 31
0.0
  0
LINE
  5
232
330
1F
100
AcDbEntity
  8
0-C_ハッチ
  6
JWW_DASHED1
 62
   120
370
     5
100
AcDbLine
 10
1205.332282134444
 20
2303.999683277025
 30
0.0
 11
1161.976499435777
 21
2260.643900578356
 31
0.0
  0
LINE
  5
233
330
1F
100
AcDbEntity
  8
0-C_ハッチ
  6
JWW_DASHED1
 62
   120
370
     5
100
AcDbLine
 10
1162.905875263248
 20
2303.999683277028
 30
0.0
 11
1161.976499435777
 21
2303.070307449556
 31
0.0
  0
LINE
  5
234
330
1F
100
AcDbEntity
  8
0-C_ハッチ
  6
JWW_DASHED1
 62
   120
370
     5
100
AcDbLine
 10
896.9329640410041
 20
2303.999683277025
 30
0.0
 11
821.9329640410092
 21
2228.99968327703
 31
0.0
  0
LINE
  5
235
330
1F
100
AcDbEntity
  8
0-C_ハッチ
  6
JWW_DASHED1
 62
   120
370
     5
100
AcDbLine
 10
939.271430817659
 20
2303.91174318248
 30
0.0
 11
864.3593709122212
 21
2228.999683277041
 31
0.0
  0
LINE
  5
236
330
1F
100
AcDbEntity
  8
0-C_ハッチ
  6
JWW_DASHED1
 62
   120
370
     5
100
AcDbLine
 10
868.6533970116955
 20
2411.999683277026
 30
0.0
 11
835.6533970116982
 21
2378.999683277029
 31
0.0
  0
LINE
  5
237
330
1F
100
AcDbEntity
  8
0-C_ハッチ
  6
JWW_DASHED1
 62
   120
370
     5
100
AcDbLine
 10
911.0798038828955
 20
2411.999683277026
 30
0.0
 11
878.0798038828948
 21
2378.999683277028
 31
0.0
  0
LINE
  5
238
330
1F
100
AcDbEntity
  8
0-C_ハッチ
  6
JWW_DASHED1
 62
   120
370
     5
100
AcDbLine
 10
981.7857777834092
 20
2303.999683277025
 30
0.0
 11
906.7857777834143
 21
2228.99968327703
 31
0.0
  0
LINE
  5
239
330
1F
100
AcDbEntity
  8
0-C_ハッチ
  6
JWW_DASHED1
 62
   120
370
     5
100
AcDbLine
 10
1024.124244560064
 20
2303.91174318248
 30
0.0
 11
949.2121846546263
 21
2228.999683277041
 31
0.0
  0
LINE
  5
23A
330
1F
100
AcDbEntity
  8
0-C_ハッチ
  6
JWW_DASHED1
 62
   120
370
     5
100
AcDbLine
 10
953.5062107541006
 20
2411.999683277026
 30
0.0
 11
920.5062107541033
 21
2378.999683277029
 31
0.0
  0
LINE
  5
23B
330
1F
100
AcDbEntity
  8
0-C_ハッチ
  6
JWW_DASHED1
 62
   120
370
     5
100
AcDbLine
 10
995.9326176253006
 20
2411.999683277026
 30
0.0
 11
962.9326176252999
 21
2378.999683277028
 31
0.0
  0
LINE
  5
23C
330
1F
100
AcDbEntity
  8
0-C_ハッチ
  6
JWW_DASHED1
 62
   120
370
     5
100
AcDbLine
 10
1038.359024496506
 20
2411.999683277026
 30
0.0
 11
1005.359024496508
 21
2378.999683277029
 31
0.0
  0
LINE
  5
23D
330
1F
100
AcDbEntity
  8
0-C_ハッチ
  6
JWW_DASHED1
 62
   120
370
     5
100
AcDbLine
 10
1041.976499435777
 20
2236.911184315787
 30
0.0
 11
1034.064998397032
 21
2228.999683277041
 31
0.0
  0
LINE
  5
23E
330
1F
100
AcDbEntity
  8
0-C_ハッチ
  6
JWW_DASHED1
 62
   120
370
     5
100
AcDbLine
 10
1041.976499435777
 20
2279.337591186988
 30
0.0
 11
991.6385915258195
 21
2228.99968327703
 31
0.0
  0
MTEXT
  5
23F
330
1F
100
AcDbEntity
  8
0-A_文字
  6
Continuous
 62
     7
370
     9
100
AcDbMText
 10
-3026.198112661064
 20
3063.719138909417
 30
0.0
 40
91.44
 41
600.0
 46
0.0
 71
     7
 72
     1
  1
{\fＭＳ ゴシック|b0|i0|c128|p49;■横断面図}
 73
     1
 44
1.0
  0
MTEXT
  5
240
330
1F
100
AcDbEntity
  8
0-B_寸法
  6
Continuous
 62
     7
370
   211
100
AcDbMText
 10
-1432.848406992072
 20
2483.799683277027
 30
0.0
 40
101.6
 41
600.0
 46
0.0
 71
     7
 72
     1
  1
{\fＭＳ ゴシック|b0|i0|c128|p49;ＤＷ＝810}
 73
     1
 44
1.0
  0
LINE
  5
241
330
1F
100
AcDbEntity
  8
0-0_補助線
  6
JWW_HOJO
 62
   120
370
     5
100
AcDbLine
 10
-3026.198112661064
 20
2957.999138909418
 30
0.0
 11
3046.034307564338
 21
2957.999138909418
 31
0.0
  0
LINE
  5
242
330
1F
100
AcDbEntity
  8
0-0_補助線
  6
JWW_HOJO
 62
   120
370
     5
100
AcDbLine
 10
-3026.198112661064
 20
1899.999683277026
 30
0.0
 11
3046.034307564338
 21
1899.999683277026
 31
0.0
  0
LINE
  5
243
330
1F
100
AcDbEntity
  8
0-0_補助線
  6
JWW_HOJO
 62
   120
370
     5
100
AcDbLine
 10
-3026.198112661064
 20
1509.999683277026
 30
0.0
 11
3046.034307564338
 21
1509.999683277026
 31
0.0
  0
LINE
  5
244
330
1F
100
AcDbEntity
  8
0-0_補助線
  6
JWW_HOJO
 62
   120
370
     5
100
AcDbLine
 10
-3026.198112661064
 20
1299.999683277026
 30
0.0
 11
3046.034307564338
 21
1299.999683277026
 31
0.0
  0
LINE
  5
245
330
1F
100
AcDbEntity
  8
0-0_補助線
  6
JWW_HOJO
 62
   120
370
     5
100
AcDbLine
 10
-3026.198112661064
 20
2957.999138909418
 30
0.0
 11
-3026.198112661064
 21
1089.999683277026
 31
0.0
  0
LINE
  5
246
330
1F
100
AcDbEntity
  8
0-0_補助線
  6
JWW_HOJO
 62
   120
370
     5
100
AcDbLine
 10
-3026.198112661064
 20
1089.999683277026
 30
0.0
 11
3046.034307564338
 21
1089.999683277026
 31
0.0
  0
LWPOLYLINE
  5
247
330
1F
100
AcDbEntity
  8
0-B_寸法
  6
Continuous
 62
     7
370
     9
100
AcDbPolyline
 90
        4
 70
     1
 43
3.0
 10
-78.58145715668377
 20
1509.999683277026
 42
0.4142135623731
 10
-80.08145715668377
 20
1511.499683277026
 42
0.4142135623731
 10
-81.58145715668377
 20
1509.999683277026
 42
0.4142135623731
 10
-80.08145715668377
 20
1508.499683277027
 42
0.4142135623731
  0
LINE
  5
248
330
1F
100
AcDbEntity
  8
0-B_寸法
  6
Continuous
 62
   120
370
     5
100
AcDbLine
 10
-80.08145715668377
 20
1509.999683277026
 30
0.0
 11
99.91854284331623
 21
1509.999683277026
 31
0.0
  0
LWPOLYLINE
  5
249
330
1F
100
AcDbEntity
  8
0-B_寸法
  6
Continuous
 62
     7
370
     9
100
AcDbPolyline
 90
        4
 70
     1
 43
3.0
 10
101.4185428433162
 20
1509.999683277026
 42
0.4142135623731
 10
99.91854284331623
 20
1511.499683277026
 42
0.4142135623731
 10
98.41854284331623
 20
1509.999683277026
 42
0.4142135623731
 10
99.91854284331623
 20
1508.499683277027
 42
0.4142135623731
  0
MTEXT
  5
24A
330
1F
100
AcDbEntity
  8
0-B_寸法
  6
Continuous
 62
     7
370
   211
100
AcDbMText
 10
-53.83145715668377
 20
1513.577183277027
 30
0.0
 40
97.15499999999999
 41
127.5
 46
0.0
 71
     7
 72
     1
  1
{\fＭＳ ゴシック|b0|i0|c128|p49;30}
 73
     1
 44
1.0
  0
MTEXT
  5
24B
330
1F
100
AcDbEntity
  8
0-B_寸法
  6
Continuous
 62
     7
370
     0
100
AcDbMText
 10
-1070.081457156684
 20
1303.18337432266
 30
0.0
 40
91.44
 41
2160.0
 46
0.0
 71
     7
 72
     1
  1
{\fＭＳ ゴシック|b0|i0|c128|p49;枠内＝1,764（1,584）<1,390>〔1,130〕}
 73
     1
 44
1.0
  0
MTEXT
  5
24C
330
1F
100
AcDbEntity
  8
0-B_寸法
  6
Continuous
 62
     7
370
     0
100
AcDbMText
 10
-1070.081457156684
 20
1084.466280697265
 30
0.0
 40
91.44
 41
2160.0
 46
0.0
 71
     7
 72
     1
  1
{\fＭＳ ゴシック|b0|i0|c128|p49;枠外＝1,824（1,644）<1,450>〔1,190〕}
 73
     1
 44
1.0
  0
MTEXT
  5
24D
330
1F
100
AcDbEntity
  8
0-B_寸法
  6
Continuous
 62
     7
370
   211
100
AcDbMText
 10
447.9764994357748
 20
1515.915137822481
 30
0.0
 40
101.8309090909091
 41
1470.0
 46
0.0
 71
     7
 72
     1
  1
{\fＭＳ ゴシック|b0|i0|c128|p49;867（777）<680>〔550〕}
 73
     1
 44
1.0
  0
MTEXT
  5
24E
330
1F
100
AcDbEntity
  8
0-B_寸法
  6
Continuous
 62
     7
370
   211
100
AcDbMText
 10
-1560.639784908873
 20
1650.482183277026
 30
0.0
 40
100.965
 41
795.0
 46
0.0
 71
     7
 72
     1
  1
{\fＭＳ ゴシック|b0|i0|c128|p49;有効開口寸法}
 73
     1
 44
1.0
  0
MTEXT
  5
24F
330
1F
100
AcDbEntity
  8
0-B_寸法
  6
Continuous
 62
     7
370
   211
100
AcDbMText
 10
-1898.139784908875
 20
1515.915137822481
 30
0.0
 40
101.8309090909091
 41
1470.0
 46
0.0
 71
     7
 72
     1
  1
{\fＭＳ ゴシック|b0|i0|c128|p49;867（777）<680>〔550〕}
 73
     1
 44
1.0
  0
MTEXT
  5
250
330
1F
100
AcDbEntity
  8
0-A_文字
  6
Continuous
 62
     7
370
     9
100
AcDbMText
 10
1860.48356927678
 20
825.417479413269
 30
0.0
 40
79.60178571428573
 41
2925.0
 46
0.0
 71
     7
 72
     1
  1
{\fＭＳ ゴシック|b0|i0|c128|p49;※大型サムターン表示錠使用時は、引戸引き残しストッパーを}
 73
     1
 44
1.0
  0
MTEXT
  5
251
330
1F
100
AcDbEntity
  8
0-A_文字
  6
Continuous
 62
     7
370
     9
100
AcDbMText
 10
1843.789682539682
 20
689.5134683932048
 30
0.0
 40
79.60894736842103
 41
2977.5
 46
0.0
 71
     7
 72
     1
  1
{\fＭＳ ゴシック|b0|i0|c128|p49;　ご使用ください。ただし、有効開口は102ミリ狭くなります。}
 73
     1
 44
1.0
  0
MTEXT
  5
252
330
1F
100
AcDbEntity
  8
F-0_補助線
  6
Continuous
 62
     7
370
     0
100
AcDbMText
 10
509.9185840832865
 20
-3956.425201962234
 30
0.0
 40
57.15
 41
675.0
 46
0.0
 71
     7
 72
     1
  1
{\fＭＳ ゴシック|b0|i0|c128|p49;ＰＩＮＯＥＡＲＴＨ}
 73
     1
 44
1.0
  0
LINE
  5
253
330
1F
100
AcDbEntity
  8
F-0_補助線
  6
JWW_HOJO
 62
     7
370
     9
100
AcDbLine
 10
1349.918584083287
 20
-3795.000003092998
 30
0.0
 11
1349.918584083287
 21
-4195.000008247994
 31
0.0
  0
MTEXT
  5
254
330
1F
100
AcDbEntity
  8
F-0_補助線
  6
Continuous
 62
     7
370
     0
100
AcDbMText
 10
1349.918584083287
 20
-3945.948482732445
 30
0.0
 40
78.105
 41
615.0
 46
0.0
 71
     7
 72
     1
  1
{\fＭＳ ゴシック|b0|i0|c128|p49;建具納まり図}
 73
     1
 44
1.0
  0
LINE
  5
255
330
1F
100
AcDbEntity
  8
F-0_補助線
  6
JWW_HOJO
 62
     7
370
     9
100
AcDbLine
 10
4889.917891251784
 20
-3795.000003092998
 30
0.0
 11
4889.917891251784
 21
-4195.000008247994
 31
0.0
  0
LINE
  5
256
330
1F
100
AcDbEntity
  8
0-4_枠
  6
Continuous
 62
   120
370
     5
100
AcDbLine
 10
-3888.869256865863
 20
-1599.000197951875
 30
0.0
 11
-3888.869256865863
 21
-2781.00040421394
 31
0.0
  0
LINE
  5
257
330
1F
100
AcDbEntity
  8
0-4_枠
  6
Continuous
 62
   120
370
     5
100
AcDbLine
 10
-3348.869256865858
 20
-1599.000197951875
 30
0.0
 11
-3348.869256865858
 21
-2781.00040421394
 31
0.0
  0
LINE
  5
258
330
1F
100
AcDbEntity
  8
0-4_枠
  6
Continuous
 62
   120
370
     5
100
AcDbLine
 10
-3348.869256865858
 20
-1479.000197951875
 30
0.0
 11
-3348.869256865858
 21
-153.0001979518806
 31
0.0
  0
LINE
  5
259
330
1F
100
AcDbEntity
  8
0-4_枠
  6
Continuous
 62
   120
370
     5
100
AcDbLine
 10
-3348.869256865858
 20
-153.0001979518806
 30
0.0
 11
-3372.869256865856
 21
-153.0001979518806
 31
0.0
  0
LINE
  5
25A
330
1F
100
AcDbEntity
  8
0-4_枠
  6
Continuous
 62
   120
370
     5
100
AcDbLine
 10
-3888.869256865863
 20
-153.0001979518806
 30
0.0
 11
-3888.869256865863
 21
-1479.000197951875
 31
0.0
  0
LINE
  5
25B
330
1F
100
AcDbEntity
  8
0-4_枠
  6
Continuous
 62
   120
370
     5
100
AcDbLine
 10
-3888.869256865863
 20
-153.0001979518806
 30
0.0
 11
-3864.869256865859
 21
-153.0001979518806
 31
0.0
  0
LINE
  5
25C
330
1F
100
AcDbEntity
  8
0-B_寸法
  6
Continuous
 62
   120
370
     5
100
AcDbLine
 10
-3864.869256865859
 20
-868.8251942929787
 30
0.0
 11
-3372.869256865856
 21
-868.8251942929787
 31
0.0
  0
LWPOLYLINE
  5
25D
330
1F
100
AcDbEntity
  8
0-B_寸法
  6
Continuous
 62
     7
370
     9
100
AcDbPolyline
 90
        4
 70
     1
 43
3.0
 10
-3371.369256865856
 20
-868.8251942929787
 42
0.4142135623731
 10
-3372.869256865856
 20
-867.3251942929787
 42
0.4142135623731
 10
-3374.369256865856
 20
-868.8251942929787
 42
0.4142135623731
 10
-3372.869256865856
 20
-870.3251942929787
 42
0.4142135623731
  0
LINE
  5
25E
330
1F
100
AcDbEntity
  8
0-B_寸法
  6
Continuous
 62
   120
370
     5
100
AcDbLine
 10
-3372.869256865856
 20
-868.8251942929787
 30
0.0
 11
-3372.869256865856
 21
-745.4757610184959
 31
0.0
  0
LWPOLYLINE
  5
25F
330
1F
100
AcDbEntity
  8
0-B_寸法
  6
Continuous
 62
     7
370
     9
100
AcDbPolyline
 90
        4
 70
     1
 43
3.0
 10
-3863.369256865858
 20
-868.8251942929787
 42
0.4142135623731
 10
-3864.869256865859
 20
-867.3251942929787
 42
0.4142135623731
 10
-3866.369256865859
 20
-868.8251942929787
 42
0.4142135623731
 10
-3864.869256865859
 20
-870.3251942929787
 42
0.4142135623731
  0
LINE
  5
260
330
1F
100
AcDbEntity
  8
0-B_寸法
  6
Continuous
 62
   120
370
     5
100
AcDbLine
 10
-3864.869256865859
 20
-868.8251942929787
 30
0.0
 11
-3864.869256865859
 21
-724.4757610185013
 31
0.0
  0
LINE
  5
261
330
1F
100
AcDbEntity
  8
0-3_仕上げ
  6
Continuous
 62
    40
370
    15
100
AcDbLine
 10
-3483.869256865869
 20
-153.0001979518619
 30
0.0
 11
-3483.869256865869
 21
194.9998020481422
 31
0.0
  0
LINE
  5
262
330
1F
100
AcDbEntity
  8
0-3_仕上げ
  6
Continuous
 62
    40
370
    15
100
AcDbLine
 10
-3753.869256865864
 20
-153.0001979518619
 30
0.0
 11
-3753.869256865864
 21
194.9998020481422
 31
0.0
  0
LINE
  5
263
330
1F
100
AcDbEntity
  8
0-C_ハッチ
  6
JWW_DASHED1
 62
   120
370
     5
100
AcDbLine
 10
-3408.240401659134
 20
194.9998020481422
 30
0.0
 11
-3483.869256865869
 21
119.3709468414067
 31
0.0
  0
LINE
  5
264
330
1F
100
AcDbEntity
  8
0-C_ハッチ
  6
JWW_DASHED1
 62
   120
370
     5
100
AcDbLine
 10
-3450.666808530332
 20
194.9998020481422
 30
0.0
 11
-3483.869256865873
 21
161.7973537126016
 31
0.0
  0
LINE
  5
265
330
1F
100
AcDbEntity
  8
0-C_ハッチ
  6
JWW_DASHED1
 62
   120
370
     5
100
AcDbLine
 10
-3769.48931846942
 20
194.9998020481422
 30
0.0
 11
-3828.869256865869
 21
135.6198636516928
 31
0.0
  0
LINE
  5
266
330
1F
100
AcDbEntity
  8
0-C_ハッチ
  6
JWW_DASHED1
 62
   120
370
     5
100
AcDbLine
 10
-3811.91572534062
 20
194.9998020481422
 30
0.0
 11
-3828.869256865873
 21
178.0462705228894
 31
0.0
  0
LINE
  5
267
330
1F
100
AcDbEntity
  8
0-3_仕上げ
  6
Continuous
 62
    40
370
    15
100
AcDbLine
 10
-3408.869256865869
 20
-153.0001979518619
 30
0.0
 11
-3408.869256865869
 21
194.9998020481422
 31
0.0
  0
LINE
  5
268
330
1F
100
AcDbEntity
  8
0-3_仕上げ
  6
Continuous
 62
    40
370
    15
100
AcDbLine
 10
-3828.869256865864
 20
-153.0001979518619
 30
0.0
 11
-3828.869256865864
 21
194.9998020481422
 31
0.0
  0
LINE
  5
269
330
1F
100
AcDbEntity
  8
0-2_柱
  6
Continuous
 62
    92
370
    13
100
AcDbLine
 10
-3483.869256865854
 20
-153.0001979518806
 30
0.0
 11
-3753.869256865864
 21
-153.0001979518806
 31
0.0
  0
LINE
  5
26A
330
1F
100
AcDbEntity
  8
0-C_ハッチ
  6
JWW_DASHED1
 62
   120
370
     5
100
AcDbLine
 10
-3408.869256865869
 20
-145.0403081281337
 30
0.0
 11
-3416.829146689594
 21
-153.0001979518619
 31
0.0
  0
LINE
  5
26B
330
1F
100
AcDbEntity
  8
0-C_ハッチ
  6
JWW_DASHED1
 62
   120
370
     5
100
AcDbLine
 10
-3753.869256865864
 20
-128.7913913178409
 30
0.0
 11
-3778.078063499889
 21
-153.0001979518619
 31
0.0
  0
LINE
  5
26C
330
1F
100
AcDbEntity
  8
0-C_ハッチ
  6
JWW_DASHED1
 62
   120
370
     5
100
AcDbLine
 10
-3408.869256865869
 20
-60.18749438573877
 30
0.0
 11
-3483.869256865869
 21
-135.1874943857388
 31
0.0
  0
LINE
  5
26D
330
1F
100
AcDbEntity
  8
0-C_ハッチ
  6
JWW_DASHED1
 62
   120
370
     5
100
AcDbLine
 10
-3753.869256865854
 20
-43.93857757543913
 30
0.0
 11
-3828.869256865864
 21
-118.9385775754477
 31
0.0
  0
LINE
  5
26E
330
1F
100
AcDbEntity
  8
0-C_ハッチ
  6
JWW_DASHED1
 62
   120
370
     5
100
AcDbLine
 10
-3753.869256865866
 20
-86.36498444664767
 30
0.0
 11
-3820.504470371082
 21
-153.0001979518619
 31
0.0
  0
LINE
  5
26F
330
1F
100
AcDbEntity
  8
0-C_ハッチ
  6
JWW_DASHED1
 62
   120
370
     5
100
AcDbLine
 10
-3408.869256865883
 20
-102.6139012569473
 30
0.0
 11
-3459.255553560779
 21
-153.0001979518619
 31
0.0
  0
LINE
  5
270
330
1F
100
AcDbEntity
  8
0-C_ハッチ
  6
JWW_DASHED1
 62
   120
370
     5
100
AcDbLine
 10
-3408.869256865873
 20
-17.76108751453876
 30
0.0
 11
-3483.869256865885
 21
-92.7610875145524
 31
0.0
  0
LINE
  5
271
330
1F
100
AcDbEntity
  8
0-C_ハッチ
  6
JWW_DASHED1
 62
   120
370
     5
100
AcDbLine
 10
-3408.869256865863
 20
24.66531935666978
 30
0.0
 11
-3483.869256865858
 21
-50.3346806433251
 31
0.0
  0
LINE
  5
272
330
1F
100
AcDbEntity
  8
0-C_ハッチ
  6
JWW_DASHED1
 62
   120
370
     5
100
AcDbLine
 10
-3408.869256865863
 20
67.0917262278698
 30
0.0
 11
-3483.869256865859
 21
-7.908273772125085
 31
0.0
  0
LINE
  5
273
330
1F
100
AcDbEntity
  8
0-C_ハッチ
  6
JWW_DASHED1
 62
   120
370
     5
100
AcDbLine
 10
-3408.869256865864
 20
109.5181330990664
 30
0.0
 11
-3483.869256865863
 21
34.51813309906981
 31
0.0
  0
LINE
  5
274
330
1F
100
AcDbEntity
  8
0-C_ハッチ
  6
JWW_DASHED1
 62
   120
370
     5
100
AcDbLine
 10
-3408.869256865866
 20
151.9445399702664
 30
0.0
 11
-3483.869256865863
 21
76.94453997026642
 31
0.0
  0
LINE
  5
275
330
1F
100
AcDbEntity
  8
0-C_ハッチ
  6
JWW_DASHED1
 62
   120
370
     5
100
AcDbLine
 10
-3753.869256865858
 20
-1.512170704242521
 30
0.0
 11
-3828.869256865868
 21
-76.51217070425275
 31
0.0
  0
LINE
  5
276
330
1F
100
AcDbEntity
  8
0-C_ハッチ
  6
JWW_DASHED1
 62
   120
370
     5
100
AcDbLine
 10
-3753.869256865858
 20
40.9142361669592
 30
0.0
 11
-3828.869256865854
 21
-34.0857638330391
 31
0.0
  0
LINE
  5
277
330
1F
100
AcDbEntity
  8
0-C_ハッチ
  6
JWW_DASHED1
 62
   120
370
     5
100
AcDbLine
 10
-3753.869256865863
 20
83.34064303815751
 30
0.0
 11
-3828.869256865858
 21
8.340643038159214
 31
0.0
  0
LINE
  5
278
330
1F
100
AcDbEntity
  8
0-C_ハッチ
  6
JWW_DASHED1
 62
   120
370
     5
100
AcDbLine
 10
-3753.869256865868
 20
125.7670499092978
 30
0.0
 11
-3828.869256865864
 21
50.76704990929784
 31
0.0
  0
LINE
  5
279
330
1F
100
AcDbEntity
  8
0-C_ハッチ
  6
JWW_DASHED1
 62
   120
370
     5
100
AcDbLine
 10
-3753.869256865871
 20
168.193456780491
 30
0.0
 11
-3828.869256865868
 21
93.19345678049274
 31
0.0
  0
LINE
  5
27A
330
1F
100
AcDbEntity
  8
0-2_柱
  6
Continuous
 62
     7
370
     9
100
AcDbLine
 10
-3483.869256865869
 20
116.9998020481245
 30
0.0
 11
-3753.869256865864
 21
-153.0001979518806
 31
0.0
  0
LINE
  5
27B
330
1F
100
AcDbEntity
  8
0-2_柱
  6
Continuous
 62
    92
370
    13
100
AcDbLine
 10
-3483.869256865869
 20
116.9998020481245
 30
0.0
 11
-3753.869256865864
 21
116.9998020481245
 31
0.0
  0
LINE
  5
27C
330
1F
100
AcDbEntity
  8
0-C_ハッチ
  6
Continuous
 62
   120
370
     5
100
AcDbLine
 10
-3468.463208942589
 20
-237.000197951881
 30
0.0
 11
-3387.463208942586
 21
-156.0001979518796
 31
0.0
  0
LINE
  5
27D
330
1F
100
AcDbEntity
  8
0-C_ハッチ
  6
Continuous
 62
   120
370
     5
100
AcDbLine
 10
-3418.469256865857
 20
-305.8001851145036
 30
0.0
 11
-3375.869417083143
 21
-263.200345331789
 31
0.0
  0
LINE
  5
27E
330
1F
100
AcDbEntity
  8
0-C_ハッチ
  6
Continuous
 62
   120
370
     5
100
AcDbLine
 10
-3375.869417083143
 20
-322.5973149514942
 30
0.0
 11
-3383.272300083529
 21
-330.0001979518782
 31
0.0
  0
LINE
  5
27F
330
1F
100
AcDbEntity
  8
0-C_ハッチ
  6
Continuous
 62
   120
370
     5
100
AcDbLine
 10
-3418.469256865857
 20
-246.4032154948563
 30
0.0
 11
-3375.869417083143
 21
-203.8033757121383
 31
0.0
  0
LINE
  5
280
330
1F
100
AcDbEntity
  8
0-C_ハッチ
  6
Continuous
 62
   120
370
     5
100
AcDbLine
 10
-3861.869691741348
 20
-214.6278934129504
 30
0.0
 11
-3800.241996280278
 21
-153.0001979518806
 31
0.0
  0
LINE
  5
281
330
1F
100
AcDbEntity
  8
0-4_枠
  6
Continuous
 62
    92
370
    13
100
AcDbLine
 10
-3372.869256865856
 20
-153.0001979518806
 30
0.0
 11
-3864.869256865859
 21
-153.0001979518806
 31
0.0
  0
LINE
  5
282
330
1F
100
AcDbEntity
  8
0-4_枠
  6
Continuous
 62
    92
370
    13
100
AcDbLine
 10
-3804.869256865859
 20
-156.0001979518796
 30
0.0
 11
-3804.869256865859
 21
-153.0001979518806
 31
0.0
  0
LINE
  5
283
330
1F
100
AcDbEntity
  8
0-4_枠
  6
Continuous
 62
    92
370
    13
100
AcDbLine
 10
-3804.869256865859
 20
-156.0001979518796
 30
0.0
 11
-3861.869691741348
 21
-156.0001979518796
 31
0.0
  0
LINE
  5
284
330
1F
100
AcDbEntity
  8
0-4_枠
  6
Continuous
 62
    92
370
    13
100
AcDbLine
 10
-3861.869691741348
 20
-330.0001979518834
 30
0.0
 11
-3861.869691741348
 21
-156.0001979518796
 31
0.0
  0
LINE
  5
285
330
1F
100
AcDbEntity
  8
0-4_枠
  6
Continuous
 62
    92
370
    13
100
AcDbLine
 10
-3864.869256865859
 20
-333.0001979518806
 30
0.0
 11
-3864.869256865859
 21
-153.0001979518806
 31
0.0
  0
LINE
  5
286
330
1F
100
AcDbEntity
  8
0-4_枠
  6
Continuous
 62
    92
370
    13
100
AcDbLine
 10
-3432.869256865856
 20
-156.0001979518796
 30
0.0
 11
-3375.869417083143
 21
-156.0001979518796
 31
0.0
  0
LINE
  5
287
330
1F
100
AcDbEntity
  8
0-4_枠
  6
Continuous
 62
    92
370
    13
100
AcDbLine
 10
-3432.869256865856
 20
-156.0001979518796
 30
0.0
 11
-3432.869256865856
 21
-153.0001979518806
 31
0.0
  0
LINE
  5
288
330
1F
100
AcDbEntity
  8
0-4_枠
  6
Continuous
 62
    92
370
    13
100
AcDbLine
 10
-3375.869417083143
 20
-330.0001979518834
 30
0.0
 11
-3375.869417083143
 21
-156.0001979518796
 31
0.0
  0
LINE
  5
289
330
1F
100
AcDbEntity
  8
0-4_枠
  6
Continuous
 62
    92
370
    13
100
AcDbLine
 10
-3372.869256865856
 20
-333.0001979518806
 30
0.0
 11
-3372.869256865856
 21
-153.0001979518806
 31
0.0
  0
LINE
  5
28A
330
1F
100
AcDbEntity
  8
0-4_枠
  6
Continuous
 62
    92
370
    13
100
AcDbLine
 10
-3372.869256865856
 20
-333.0001979518806
 30
0.0
 11
-3418.469256865857
 21
-333.0001979518806
 31
0.0
  0
LINE
  5
28B
330
1F
100
AcDbEntity
  8
0-4_枠
  6
Continuous
 62
    92
370
    13
100
AcDbLine
 10
-3375.869417083143
 20
-330.0001979518834
 30
0.0
 11
-3418.469256865857
 21
-330.0001979518834
 31
0.0
  0
LINE
  5
28C
330
1F
100
AcDbEntity
  8
0-C_ハッチ
  6
Continuous
 62
   120
370
     5
100
AcDbLine
 10
-3527.860178562236
 20
-237.000197951881
 30
0.0
 11
-3443.860178562231
 21
-153.0001979518806
 31
0.0
  0
LINE
  5
28D
330
1F
100
AcDbEntity
  8
0-C_ハッチ
  6
Continuous
 62
   120
370
     5
100
AcDbLine
 10
-3587.257148181938
 20
-237.000197951881
 30
0.0
 11
-3503.257148181933
 21
-153.0001979518806
 31
0.0
  0
LINE
  5
28E
330
1F
100
AcDbEntity
  8
0-C_ハッチ
  6
Continuous
 62
   120
370
     5
100
AcDbLine
 10
-3620.860178562237
 20
-330.0001979518834
 30
0.0
 11
-3591.269256865857
 21
-300.4092762555018
 31
0.0
  0
LINE
  5
28F
330
1F
100
AcDbEntity
  8
0-4_枠
  6
Continuous
 62
    92
370
    13
100
AcDbLine
 10
-3418.469256865857
 20
-333.0001979518806
 30
0.0
 11
-3418.469256865857
 21
-237.000197951881
 31
0.0
  0
LINE
  5
290
330
1F
100
AcDbEntity
  8
0-4_枠
  6
Continuous
 62
    92
370
    13
100
AcDbLine
 10
-3418.469256865857
 20
-237.000197951881
 30
0.0
 11
-3591.269256865857
 21
-237.000197951881
 31
0.0
  0
LINE
  5
291
330
1F
100
AcDbEntity
  8
0-4_枠
  6
Continuous
 62
    92
370
    13
100
AcDbLine
 10
-3591.269256865857
 20
-333.0001979518806
 30
0.0
 11
-3591.269256865857
 21
-237.000197951881
 31
0.0
  0
LINE
  5
292
330
1F
100
AcDbEntity
  8
0-3_仕上げ
  6
Continuous
 62
     7
370
     9
100
AcDbLine
 10
-2988.869256865857
 20
-2844.00040421394
 30
0.0
 11
-4308.869256865861
 21
-2844.00040421394
 31
0.0
  0
LINE
  5
293
330
1F
100
AcDbEntity
  8
0-3_仕上げ
  6
Continuous
 62
     7
370
     9
100
AcDbLine
 10
-2988.869256865857
 20
-2790.000404213942
 30
0.0
 11
-4308.869256865861
 21
-2790.000404213942
 31
0.0
  0
LINE
  5
294
330
1F
100
AcDbEntity
  8
0-3_仕上げ
  6
Continuous
 62
     7
370
     9
100
AcDbLine
 10
-2988.869256865857
 20
-2799.00040421394
 30
0.0
 11
-4308.869256865861
 21
-2799.00040421394
 31
0.0
  0
LINE
  5
295
330
1F
100
AcDbEntity
  8
0-3_仕上げ
  6
Continuous
 62
     7
370
     9
100
AcDbLine
 10
-2988.869256865857
 20
-2808.000404213939
 30
0.0
 11
-4308.869256865861
 21
-2808.000404213939
 31
0.0
  0
LINE
  5
296
330
1F
100
AcDbEntity
  8
0-3_仕上げ
  6
Continuous
 62
     7
370
     9
100
AcDbLine
 10
-2988.869256865857
 20
-2826.00040421394
 30
0.0
 11
-4308.869256865861
 21
-2826.00040421394
 31
0.0
  0
LINE
  5
297
330
1F
100
AcDbEntity
  8
0-3_仕上げ
  6
Continuous
 62
     7
370
     9
100
AcDbLine
 10
-2988.869256865857
 20
-2835.000404213942
 30
0.0
 11
-4308.869256865861
 21
-2835.000404213942
 31
0.0
  0
LINE
  5
298
330
1F
100
AcDbEntity
  8
0-3_仕上げ
  6
Continuous
 62
     7
370
     9
100
AcDbLine
 10
-2988.869256865857
 20
-2817.000404213939
 30
0.0
 11
-4308.869256865861
 21
-2817.000404213939
 31
0.0
  0
LINE
  5
299
330
1F
100
AcDbEntity
  8
0-3_仕上げ
  6
Continuous
 62
    40
370
    15
100
AcDbLine
 10
-2988.869256865857
 20
-2781.00040421394
 30
0.0
 11
-4308.869256865861
 21
-2781.00040421394
 31
0.0
  0
LINE
  5
29A
330
1F
100
AcDbEntity
  8
0-3_仕上げ
  6
Continuous
 62
    40
370
    15
100
AcDbLine
 10
-2988.869256865857
 20
-2853.000404213941
 30
0.0
 11
-4308.869256865861
 21
-2853.000404213941
 31
0.0
  0
LINE
  5
29B
330
1F
100
AcDbEntity
  8
0-0_補助線
  6
JWW_HOJO
 62
   120
370
     5
100
AcDbLine
 10
-2148.869256865857
 20
-2853.000197951857
 30
0.0
 11
-4308.869256865861
 21
-2853.000197951857
 31
0.0
  0
LINE
  5
29C
330
1F
100
AcDbEntity
  8
0-0_補助線
  6
JWW_HOJO
 62
   120
370
     5
100
AcDbLine
 10
-4308.869256865861
 20
194.9998020481422
 30
0.0
 11
-2148.869256865857
 21
194.9998020481422
 31
0.0
  0
LINE
  5
29D
330
1F
100
AcDbEntity
  8
0-1_通り芯
  6
JWW_CENTER1
 62
   120
370
     5
100
AcDbLine
 10
-4308.869256865861
 20
-2853.000197951857
 30
0.0
 11
-2034.869256865855
 21
-2853.000197951857
 31
0.0
  0
LINE
  5
29E
330
1F
100
AcDbEntity
  8
0-1_通り芯
  6
JWW_CENTER1
 62
   120
370
     5
100
AcDbLine
 10
-4308.869256865861
 20
-153.0001979518806
 30
0.0
 11
-2034.869256865855
 21
-153.0001979518806
 31
0.0
  0
LINE
  5
29F
330
1F
100
AcDbEntity
  8
0-0_補助線
  6
JWW_HOJO
 62
   120
370
     5
100
AcDbLine
 10
-4308.869256865861
 20
-2853.000197951857
 30
0.0
 11
-4308.869256865861
 21
194.9998020481422
 31
0.0
  0
LINE
  5
2A0
330
1F
100
AcDbEntity
  8
0-A_文字
  6
Continuous
 62
     7
370
     9
100
AcDbLine
 10
-4215.482152865447
 20
-2728.118906281353
 30
0.0
 11
-4245.482152865444
 21
-2780.080430508419
 31
0.0
  0
LINE
  5
2A1
330
1F
100
AcDbEntity
  8
0-A_文字
  6
Continuous
 62
     7
370
     9
100
AcDbLine
 10
-4275.482152865447
 20
-2728.118906281353
 30
0.0
 11
-4215.482152865447
 21
-2728.118906281353
 31
0.0
  0
LINE
  5
2A2
330
1F
100
AcDbEntity
  8
0-A_文字
  6
Continuous
 62
     7
370
     9
100
AcDbLine
 10
-4275.482152865447
 20
-2728.118906281353
 30
0.0
 11
-4245.482152865447
 21
-2780.080430508419
 31
0.0
  0
LINE
  5
2A3
330
1F
100
AcDbEntity
  8
0-0_補助線
  6
JWW_HOJO
 62
   120
370
     5
100
AcDbLine
 10
-4083.869256865863
 20
-1599.000197951875
 30
0.0
 11
-3153.869256865858
 21
-1599.000197951875
 31
0.0
  0
LINE
  5
2A4
330
1F
100
AcDbEntity
  8
0-0_補助線
  6
JWW_HOJO
 62
   120
370
     5
100
AcDbLine
 10
-4083.869256865863
 20
-1479.000197951875
 30
0.0
 11
-3153.869256865858
 21
-1479.000197951875
 31
0.0
  0
LINE
  5
2A5
330
1F
100
AcDbEntity
  8
0-0_補助線
  6
JWW_HOJO
 62
   120
370
     5
100
AcDbLine
 10
-2148.869256865857
 20
-2853.000197951855
 30
0.0
 11
-2148.869256865857
 21
194.9998020481422
 31
0.0
  0
LINE
  5
2A6
330
1F
100
AcDbEntity
  8
0-0_補助線
  6
JWW_HOJO
 62
   120
370
     5
100
AcDbLine
 10
-2358.869256865857
 20
-2853.000197951855
 30
0.0
 11
-2358.869256865857
 21
194.9998020481422
 31
0.0
  0
LINE
  5
2A7
330
1F
100
AcDbEntity
  8
0-0_補助線
  6
JWW_HOJO
 62
   120
370
     5
100
AcDbLine
 10
-2568.869256865857
 20
-2853.000198220289
 30
0.0
 11
-2568.869256865857
 21
194.9998020481422
 31
0.0
  0
LINE
  5
2A8
330
1F
100
AcDbEntity
  8
0-0_補助線
  6
JWW_HOJO
 62
   120
370
     5
100
AcDbLine
 10
-2778.869256865857
 20
-2853.000197951855
 30
0.0
 11
-2778.869256865857
 21
194.9998020481422
 31
0.0
  0
LINE
  5
2A9
330
1F
100
AcDbEntity
  8
0-0_補助線
  6
JWW_HOJO
 62
   120
370
     5
100
AcDbLine
 10
-2988.869256865857
 20
-2853.000197951857
 30
0.0
 11
-2988.869256865857
 21
194.9998020481422
 31
0.0
  0
LINE
  5
2AA
330
1F
100
AcDbEntity
  8
0-4_枠
  6
Continuous
 62
    92
370
    13
100
AcDbLine
 10
-3861.869691741348
 20
-330.0001979518834
 30
0.0
 11
-3591.269256865857
 21
-330.0001979518834
 31
0.0
  0
LINE
  5
2AB
330
1F
100
AcDbEntity
  8
0-4_枠
  6
Continuous
 62
    92
370
    13
100
AcDbLine
 10
-3591.269256865857
 20
-333.0001979518806
 30
0.0
 11
-3864.869256865859
 21
-333.0001979518806
 31
0.0
  0
LINE
  5
2AC
330
1F
100
AcDbEntity
  8
0-C_ハッチ
  6
Continuous
 62
   120
370
     5
100
AcDbLine
 10
-3858.448057040933
 20
-330.0001979518868
 30
0.0
 11
-3681.448057040929
 21
-153.0001979518806
 31
0.0
  0
LINE
  5
2AD
330
1F
100
AcDbEntity
  8
0-C_ハッチ
  6
Continuous
 62
   120
370
     5
100
AcDbLine
 10
-3861.869691741348
 20
-274.0248630326522
 30
0.0
 11
-3740.845026660576
 21
-153.0001979518806
 31
0.0
  0
LINE
  5
2AE
330
1F
100
AcDbEntity
  8
0-C_ハッチ
  6
Continuous
 62
   120
370
     5
100
AcDbLine
 10
-3799.051087421223
 20
-330.0001979518834
 30
0.0
 11
-3622.05108742123
 21
-153.0001979518806
 31
0.0
  0
LINE
  5
2AF
330
1F
100
AcDbEntity
  8
0-C_ハッチ
  6
Continuous
 62
   120
370
     5
100
AcDbLine
 10
-3680.257148181947
 20
-330.0001979518834
 30
0.0
 11
-3591.269256865857
 21
-241.0123066358051
 31
0.0
  0
LINE
  5
2B0
330
1F
100
AcDbEntity
  8
0-C_ハッチ
  6
Continuous
 62
   120
370
     5
100
AcDbLine
 10
-3739.65411780159
 20
-330.0001979518834
 30
0.0
 11
-3562.654117801583
 21
-153.0001979518806
 31
0.0
  0
LINE
  5
2B1
330
1F
100
AcDbEntity
  8
0-B_寸法
  6
Continuous
 62
   120
370
     5
100
AcDbLine
 10
-3234.869256865862
 20
-2622.000404213942
 30
0.0
 11
-3354.869256865863
 21
-2622.000404213942
 31
0.0
  0
LINE
  5
2B2
330
1F
100
AcDbEntity
  8
0-B_寸法
  6
Continuous
 62
   120
370
     5
100
AcDbLine
 10
-3234.869256865862
 20
-2730.000404213942
 30
0.0
 11
-3354.869256865863
 21
-2730.000404213942
 31
0.0
  0
LWPOLYLINE
  5
2B3
330
1F
100
AcDbEntity
  8
0-B_寸法
  6
Continuous
 62
     7
370
     9
100
AcDbPolyline
 90
        4
 70
     1
 43
3.0
 10
-3233.369256865862
 20
-2622.000404213942
 42
0.4142135623731
 10
-3234.869256865862
 20
-2620.500404213942
 42
0.4142135623731
 10
-3236.369256865861
 20
-2622.000404213942
 42
0.4142135623731
 10
-3234.869256865862
 20
-2623.500404213942
 42
0.4142135623731
  0
LWPOLYLINE
  5
2B4
330
1F
100
AcDbEntity
  8
0-B_寸法
  6
Continuous
 62
     7
370
     9
100
AcDbPolyline
 90
        4
 70
     1
 43
3.0
 10
-3233.369256865862
 20
-2730.000404213942
 42
0.4142135623731
 10
-3234.869256865862
 20
-2728.500404213942
 42
0.4142135623731
 10
-3236.369256865861
 20
-2730.000404213942
 42
0.4142135623731
 10
-3234.869256865862
 20
-2731.500404213941
 42
0.4142135623731
  0
LINE
  5
2B5
330
1F
100
AcDbEntity
  8
0-B_寸法
  6
Continuous
 62
   120
370
     5
100
AcDbLine
 10
-3234.869256865862
 20
-2730.000404213942
 30
0.0
 11
-3234.869256865862
 21
-2622.000404213942
 31
0.0
  0
LINE
  5
2B6
330
1F
100
AcDbEntity
  8
0-0_補助線
  6
JWW_HOJO
 62
   120
370
     5
100
AcDbLine
 10
-3384.869256865863
 20
-2592.000404213941
 30
0.0
 11
-3384.869256865863
 21
-2856.000591679352
 31
0.0
  0
LINE
  5
2B7
330
1F
100
AcDbEntity
  8
0-B_寸法
  6
Continuous
 62
   120
370
     5
100
AcDbLine
 10
-3518.369256865852
 20
-2532.000404213941
 30
0.0
 11
-3491.369256865853
 21
-2532.000404213941
 31
0.0
  0
LINE
  5
2B8
330
1F
100
AcDbEntity
  8
0-B_寸法
  6
Continuous
 62
   120
370
     5
100
AcDbLine
 10
-3518.369256865852
 20
-2532.000404213941
 30
0.0
 11
-3518.369256865852
 21
-2592.000404213941
 31
0.0
  0
LWPOLYLINE
  5
2B9
330
1F
100
AcDbEntity
  8
0-B_寸法
  6
Continuous
 62
     7
370
     9
100
AcDbPolyline
 90
        4
 70
     1
 43
3.0
 10
-3516.869256865852
 20
-2532.000404213941
 42
0.4142135623731
 10
-3518.369256865852
 20
-2530.500404213941
 42
0.4142135623731
 10
-3519.869256865852
 20
-2532.000404213941
 42
0.4142135623731
 10
-3518.369256865852
 20
-2533.500404213941
 42
0.4142135623731
  0
LINE
  5
2BA
330
1F
100
AcDbEntity
  8
0-B_寸法
  6
Continuous
 62
   120
370
     5
100
AcDbLine
 10
-3491.369256865853
 20
-2532.000404213941
 30
0.0
 11
-3491.369256865853
 21
-2592.000404213941
 31
0.0
  0
LWPOLYLINE
  5
2BB
330
1F
100
AcDbEntity
  8
0-B_寸法
  6
Continuous
 62
     7
370
     9
100
AcDbPolyline
 90
        4
 70
     1
 43
3.0
 10
-3489.869256865853
 20
-2532.000404213941
 42
0.4142135623731
 10
-3491.369256865853
 20
-2530.500404213941
 42
0.4142135623731
 10
-3492.869256865853
 20
-2532.000404213941
 42
0.4142135623731
 10
-3491.369256865853
 20
-2533.500404213941
 42
0.4142135623731
  0
LINE
  5
2BC
330
1F
100
AcDbEntity
  8
0-0_補助線
  6
JWW_HOJO
 62
   120
370
     5
100
AcDbLine
 10
-3455.369256865863
 20
-2592.000404213941
 30
0.0
 11
-3455.369256865863
 21
-2856.000591679352
 31
0.0
  0
LINE
  5
2BD
330
1F
100
AcDbEntity
  8
0-6_扉
  6
Continuous
 62
   200
370
    20
100
AcDbLine
 10
-3414.869256865863
 20
-2730.000404213942
 30
0.0
 11
-3485.369256865861
 21
-2730.000404213942
 31
0.0
  0
LINE
  5
2BE
330
1F
100
AcDbEntity
  8
0-6_扉
  6
Continuous
 62
   200
370
    20
100
AcDbLine
 10
-3524.369256865863
 20
-2730.000404213942
 30
0.0
 11
-3594.869256865863
 21
-2730.000404213942
 31
0.0
  0
LINE
  5
2BF
330
1F
100
AcDbEntity
  8
0-6_扉
  6
Continuous
 62
   200
370
    20
100
AcDbLine
 10
-3485.369256865861
 20
-2622.000404213942
 30
0.0
 11
-3524.369256865863
 21
-2622.000404213942
 31
0.0
  0
LINE
  5
2C0
330
1F
100
AcDbEntity
  8
0-6_扉
  6
Continuous
 62
   200
370
    20
100
AcDbLine
 10
-3524.369256865863
 20
-2622.000404213942
 30
0.0
 11
-3524.369256865863
 21
-2730.000404213942
 31
0.0
  0
LINE
  5
2C1
330
1F
100
AcDbEntity
  8
0-6_扉
  6
Continuous
 62
   200
370
    20
100
AcDbLine
 10
-3485.369256865861
 20
-2622.000404213942
 30
0.0
 11
-3485.369256865861
 21
-2730.000404213942
 31
0.0
  0
ARC
  5
2C2
330
1F
100
AcDbEntity
  8
0-7_金物
  6
Continuous
 62
    92
370
    13
100
AcDbCircle
 10
-3513.869256865854
 20
-2763.00040421394
 30
0.0
 40
18.0
100
AcDbArc
 50
270.0
 51
0.0
  0
LINE
  5
2C3
330
1F
100
AcDbEntity
  8
0-7_金物
  6
Continuous
 62
    92
370
    13
100
AcDbLine
 10
-3495.869256865853
 20
-2763.00040421394
 30
0.0
 11
-3495.869256865853
 21
-2661.00040421394
 31
0.0
  0
LINE
  5
2C4
330
1F
100
AcDbEntity
  8
0-7_金物
  6
Continuous
 62
    92
370
    13
100
AcDbLine
 10
-3513.869256865854
 20
-2781.00040421394
 30
0.0
 11
-3603.869256865863
 21
-2781.00040421394
 31
0.0
  0
LINE
  5
2C5
330
1F
100
AcDbEntity
  8
0-7_金物
  6
Continuous
 62
    92
370
    13
100
AcDbLine
 10
-3513.869256865854
 20
-2661.00040421394
 30
0.0
 11
-3513.869256865854
 21
-2763.00040421394
 31
0.0
  0
LINE
  5
2C6
330
1F
100
AcDbEntity
  8
0-7_金物
  6
Continuous
 62
    92
370
    13
100
AcDbLine
 10
-3513.869256865854
 20
-2661.00040421394
 30
0.0
 11
-3495.869256865853
 21
-2661.00040421394
 31
0.0
  0
LINE
  5
2C7
330
1F
100
AcDbEntity
  8
0-7_金物
  6
Continuous
 62
    92
370
    13
100
AcDbLine
 10
-3603.869256865863
 20
-2763.00040421394
 30
0.0
 11
-3513.869256865854
 21
-2763.00040421394
 31
0.0
  0
LINE
  5
2C8
330
1F
100
AcDbEntity
  8
0-7_金物
  6
Continuous
 62
    92
370
    13
100
AcDbLine
 10
-3603.869256865863
 20
-2763.00040421394
 30
0.0
 11
-3603.869256865863
 21
-2781.00040421394
 31
0.0
  0
LINE
  5
2C9
330
1F
100
AcDbEntity
  8
0-7_金物
  6
Continuous
 62
     7
370
     9
100
AcDbLine
 10
-3485.369256865861
 20
-2730.000404213942
 30
0.0
 11
-3467.369256865863
 21
-2730.000404213942
 31
0.0
  0
LINE
  5
2CA
330
1F
100
AcDbEntity
  8
0-7_金物
  6
Continuous
 62
     7
370
     9
100
AcDbLine
 10
-3467.369256865863
 20
-2730.000404213942
 30
0.0
 11
-3467.369256865863
 21
-2736.00040421394
 31
0.0
  0
LINE
  5
2CB
330
1F
100
AcDbEntity
  8
0-7_金物
  6
Continuous
 62
     7
370
     9
100
AcDbLine
 10
-3491.369256865863
 20
-2736.00040421394
 30
0.0
 11
-3467.369256865863
 21
-2736.00040421394
 31
0.0
  0
LINE
  5
2CC
330
1F
100
AcDbEntity
  8
0-7_金物
  6
Continuous
 62
     7
370
     9
100
AcDbLine
 10
-3491.369256865863
 20
-2628.000404213941
 30
0.0
 11
-3518.36925686586
 21
-2628.000404213941
 31
0.0
  0
LINE
  5
2CD
330
1F
100
AcDbEntity
  8
0-7_金物
  6
Continuous
 62
     7
370
     9
100
AcDbLine
 10
-3524.369256865862
 20
-2622.000404213942
 30
0.0
 11
-3485.369256865861
 21
-2622.000404213942
 31
0.0
  0
LINE
  5
2CE
330
1F
100
AcDbEntity
  8
0-7_金物
  6
Continuous
 62
     7
370
     9
100
AcDbLine
 10
-3491.369256865863
 20
-2628.000404213941
 30
0.0
 11
-3491.369256865863
 21
-2736.00040421394
 31
0.0
  0
LINE
  5
2CF
330
1F
100
AcDbEntity
  8
0-7_金物
  6
Continuous
 62
     7
370
     9
100
AcDbLine
 10
-3485.369256865861
 20
-2622.000404213942
 30
0.0
 11
-3485.369256865861
 21
-2730.000404213942
 31
0.0
  0
LINE
  5
2D0
330
1F
100
AcDbEntity
  8
0-7_金物
  6
Continuous
 62
     7
370
     9
100
AcDbLine
 10
-3518.36925686586
 20
-2736.00040421394
 30
0.0
 11
-3542.369256865863
 21
-2736.00040421394
 31
0.0
  0
LINE
  5
2D1
330
1F
100
AcDbEntity
  8
0-7_金物
  6
Continuous
 62
     7
370
     9
100
AcDbLine
 10
-3518.36925686586
 20
-2736.00040421394
 30
0.0
 11
-3518.36925686586
 21
-2628.000404213941
 31
0.0
  0
LINE
  5
2D2
330
1F
100
AcDbEntity
  8
0-7_金物
  6
Continuous
 62
     7
370
     9
100
AcDbLine
 10
-3542.369256865863
 20
-2736.00040421394
 30
0.0
 11
-3542.369256865863
 21
-2730.000404213942
 31
0.0
  0
LINE
  5
2D3
330
1F
100
AcDbEntity
  8
0-7_金物
  6
Continuous
 62
     7
370
     9
100
AcDbLine
 10
-3542.369256865863
 20
-2730.000404213942
 30
0.0
 11
-3524.369256865862
 21
-2730.000404213942
 31
0.0
  0
LINE
  5
2D4
330
1F
100
AcDbEntity
  8
0-7_金物
  6
Continuous
 62
     7
370
     9
100
AcDbLine
 10
-3524.369256865862
 20
-2730.000404213942
 30
0.0
 11
-3524.369256865862
 21
-2622.000404213942
 31
0.0
  0
LINE
  5
2D5
330
1F
100
AcDbEntity
  8
0-C_ハッチ
  6
Continuous
 62
   120
370
     5
100
AcDbLine
 10
-3603.869256865863
 20
-2771.894774300672
 30
0.0
 11
-3594.975483866403
 21
-2763.001001301213
 31
0.0
  0
LINE
  5
2D6
330
1F
100
AcDbEntity
  8
0-C_ハッチ
  6
Continuous
 62
   120
370
     5
100
AcDbLine
 10
-3513.869256865854
 20
-2681.894774300667
 30
0.0
 11
-3495.869256865847
 21
-2663.894774300658
 31
0.0
  0
LINE
  5
2D7
330
1F
100
AcDbEntity
  8
0-C_ハッチ
  6
Continuous
 62
   120
370
     5
100
AcDbLine
 10
-3513.869256865847
 20
-2707.350618423412
 30
0.0
 11
-3495.869256865843
 21
-2689.350618423407
 31
0.0
  0
LINE
  5
2D8
330
1F
100
AcDbEntity
  8
0-C_ハッチ
  6
Continuous
 62
   120
370
     5
100
AcDbLine
 10
-3587.519042656378
 20
-2781.000404213943
 30
0.0
 11
-3569.519639743668
 21
-2763.001001301231
 31
0.0
  0
LINE
  5
2D9
330
1F
100
AcDbEntity
  8
0-C_ハッチ
  6
Continuous
 62
   120
370
     5
100
AcDbLine
 10
-3513.869256865858
 20
-2732.806462546118
 30
0.0
 11
-3495.86925686585
 21
-2714.806462546112
 31
0.0
  0
LINE
  5
2DA
330
1F
100
AcDbEntity
  8
0-C_ハッチ
  6
Continuous
 62
   120
370
     5
100
AcDbLine
 10
-3562.063198533676
 20
-2781.000404213939
 30
0.0
 11
-3544.063795620963
 21
-2763.001001301221
 31
0.0
  0
LINE
  5
2DB
330
1F
100
AcDbEntity
  8
0-C_ハッチ
  6
Continuous
 62
   120
370
     5
100
AcDbLine
 10
-3513.869256865868
 20
-2758.262306668823
 30
0.0
 11
-3495.869256865853
 21
-2740.262306668814
 31
0.0
  0
LINE
  5
2DC
330
1F
100
AcDbEntity
  8
0-C_ハッチ
  6
Continuous
 62
   120
370
     5
100
AcDbLine
 10
-3536.607354410975
 20
-2781.000404213931
 30
0.0
 11
-3518.607951498251
 21
-2763.001001301211
 31
0.0
  0
LINE
  5
2DD
330
1F
100
AcDbEntity
  8
0-C_ハッチ
  6
Continuous
 62
   120
370
     5
100
AcDbLine
 10
-3510.90693087444
 20
-2780.755824800155
 30
0.0
 11
-3496.109259339246
 21
-2765.958153264957
 31
0.0
  0
LWPOLYLINE
  5
2DE
330
1F
100
AcDbEntity
  8
0-B_寸法
  6
Continuous
 62
     7
370
     9
100
AcDbPolyline
 90
        4
 70
     1
 43
3.0
 10
-3413.369256865863
 20
-1119.00032480045
 42
0.4142135623731
 10
-3414.869256865863
 20
-1117.50032480045
 42
0.4142135623731
 10
-3416.369256865862
 20
-1119.00032480045
 42
0.4142135623731
 10
-3414.869256865863
 20
-1120.50032480045
 42
0.4142135623731
  0
LWPOLYLINE
  5
2DF
330
1F
100
AcDbEntity
  8
0-B_寸法
  6
Continuous
 62
     7
370
     9
100
AcDbPolyline
 90
        4
 70
     1
 43
3.0
 10
-3593.369256865863
 20
-1119.00032480045
 42
0.4142135623731
 10
-3594.869256865863
 20
-1117.50032480045
 42
0.4142135623731
 10
-3596.369256865862
 20
-1119.00032480045
 42
0.4142135623731
 10
-3594.869256865863
 20
-1120.50032480045
 42
0.4142135623731
  0
CIRCLE
  5
2E0
330
1F
100
AcDbEntity
  8
0-7_金物
  6
Continuous
 62
     7
370
     9
100
AcDbCircle
 10
-3504.864381381831
 20
-474.0001969242189
 30
0.0
 40
29.99999980237253
  0
ARC
  5
2E1
330
1F
100
AcDbEntity
  8
0-7_金物
  6
Continuous
 62
     7
370
     9
100
AcDbCircle
 10
-3504.864381381831
 20
-623.400195940036
 30
0.0
 40
41.39999972727429
100
AcDbArc
 50
180.0
 51
0.0
  0
LINE
  5
2E2
330
1F
100
AcDbEntity
  8
0-7_金物
  6
Continuous
 62
     7
370
     9
100
AcDbLine
 10
-3507.982722266321
 20
-554.8818554863717
 30
0.0
 11
-3519.564381284993
 21
-555.0840140965206
 31
0.0
  0
LINE
  5
2E3
330
1F
100
AcDbEntity
  8
0-7_金物
  6
Continuous
 62
     7
370
     9
100
AcDbLine
 10
-3507.982722266321
 20
-561.1185372553531
 30
0.0
 11
-3519.564381284993
 21
-560.9163786452068
 31
0.0
  0
LINE
  5
2E4
330
1F
100
AcDbEntity
  8
0-7_金物
  6
Continuous
 62
     7
370
     9
100
AcDbLine
 10
-3519.564381284993
 20
-555.0840140965206
 30
0.0
 11
-3519.564381284993
 21
-560.9163786452068
 31
0.0
  0
LINE
  5
2E5
330
1F
100
AcDbEntity
  8
0-7_金物
  6
Continuous
 62
     7
370
     9
100
AcDbLine
 10
-3507.982722266321
 20
-561.1185372553531
 30
0.0
 11
-3507.780563656174
 21
-572.7001962740256
 31
0.0
  0
LINE
  5
2E6
330
1F
100
AcDbEntity
  8
0-7_金物
  6
Continuous
 62
     7
370
     9
100
AcDbLine
 10
-3501.74604049734
 20
-561.1185372553531
 30
0.0
 11
-3501.948199107487
 21
-572.7001962740256
 31
0.0
  0
LINE
  5
2E7
330
1F
100
AcDbEntity
  8
0-7_金物
  6
Continuous
 62
     7
370
     9
100
AcDbLine
 10
-3507.780563656174
 20
-572.7001962740256
 30
0.0
 11
-3501.948199107487
 21
-572.7001962740256
 31
0.0
  0
LINE
  5
2E8
330
1F
100
AcDbEntity
  8
0-7_金物
  6
Continuous
 62
     7
370
     9
100
AcDbLine
 10
-3501.74604049734
 20
-561.1185372553531
 30
0.0
 11
-3490.164381478668
 21
-560.9163786452068
 31
0.0
  0
LINE
  5
2E9
330
1F
100
AcDbEntity
  8
0-7_金物
  6
Continuous
 62
     7
370
     9
100
AcDbLine
 10
-3501.74604049734
 20
-554.8818554863717
 30
0.0
 11
-3490.164381478668
 21
-555.0840140965206
 31
0.0
  0
LINE
  5
2EA
330
1F
100
AcDbEntity
  8
0-7_金物
  6
Continuous
 62
     7
370
     9
100
AcDbLine
 10
-3490.164381478668
 20
-560.9163786452068
 30
0.0
 11
-3490.164381478668
 21
-555.0840140965206
 31
0.0
  0
LINE
  5
2EB
330
1F
100
AcDbEntity
  8
0-7_金物
  6
Continuous
 62
     7
370
     9
100
AcDbLine
 10
-3501.74604049734
 20
-554.8818554863717
 30
0.0
 11
-3501.948199107487
 21
-543.3001964677001
 31
0.0
  0
LINE
  5
2EC
330
1F
100
AcDbEntity
  8
0-7_金物
  6
Continuous
 62
     7
370
     9
100
AcDbLine
 10
-3507.982722266321
 20
-554.8818554863717
 30
0.0
 11
-3507.780563656174
 21
-543.3001964677001
 31
0.0
  0
LINE
  5
2ED
330
1F
100
AcDbEntity
  8
0-7_金物
  6
Continuous
 62
     7
370
     9
100
AcDbLine
 10
-3501.948199107487
 20
-543.3001964677001
 30
0.0
 11
-3507.780563656174
 21
-543.3001964677001
 31
0.0
  0
LINE
  5
2EE
330
1F
100
AcDbEntity
  8
0-7_金物
  6
Continuous
 62
     7
370
     9
100
AcDbLine
 10
-3507.982722266321
 20
-470.8818560397276
 30
0.0
 11
-3519.564381284993
 21
-471.0840146498765
 31
0.0
  0
LINE
  5
2EF
330
1F
100
AcDbEntity
  8
0-7_金物
  6
Continuous
 62
     7
370
     9
100
AcDbLine
 10
-3507.982722266321
 20
-477.1185378087102
 30
0.0
 11
-3519.564381284993
 21
-476.9163791985613
 31
0.0
  0
LINE
  5
2F0
330
1F
100
AcDbEntity
  8
0-7_金物
  6
Continuous
 62
     7
370
     9
100
AcDbLine
 10
-3519.564381284993
 20
-471.0840146498765
 30
0.0
 11
-3519.564381284993
 21
-476.9163791985613
 31
0.0
  0
LINE
  5
2F1
330
1F
100
AcDbEntity
  8
0-7_金物
  6
Continuous
 62
     7
370
     9
100
AcDbLine
 10
-3507.982722266321
 20
-477.1185378087102
 30
0.0
 11
-3507.780563656174
 21
-488.7001968273819
 31
0.0
  0
LINE
  5
2F2
330
1F
100
AcDbEntity
  8
0-7_金物
  6
Continuous
 62
     7
370
     9
100
AcDbLine
 10
-3501.74604049734
 20
-477.1185378087102
 30
0.0
 11
-3501.948199107487
 21
-488.7001968273819
 31
0.0
  0
LINE
  5
2F3
330
1F
100
AcDbEntity
  8
0-7_金物
  6
Continuous
 62
     7
370
     9
100
AcDbLine
 10
-3507.780563656174
 20
-488.7001968273819
 30
0.0
 11
-3501.948199107487
 21
-488.7001968273819
 31
0.0
  0
LINE
  5
2F4
330
1F
100
AcDbEntity
  8
0-7_金物
  6
Continuous
 62
     7
370
     9
100
AcDbLine
 10
-3501.74604049734
 20
-477.1185378087102
 30
0.0
 11
-3490.164381478668
 21
-476.9163791985613
 31
0.0
  0
LINE
  5
2F5
330
1F
100
AcDbEntity
  8
0-7_金物
  6
Continuous
 62
     7
370
     9
100
AcDbLine
 10
-3501.74604049734
 20
-470.8818560397276
 30
0.0
 11
-3490.164381478668
 21
-471.0840146498765
 31
0.0
  0
LINE
  5
2F6
330
1F
100
AcDbEntity
  8
0-7_金物
  6
Continuous
 62
     7
370
     9
100
AcDbLine
 10
-3490.164381478668
 20
-476.9163791985613
 30
0.0
 11
-3490.164381478668
 21
-471.0840146498765
 31
0.0
  0
LINE
  5
2F7
330
1F
100
AcDbEntity
  8
0-7_金物
  6
Continuous
 62
     7
370
     9
100
AcDbLine
 10
-3501.74604049734
 20
-470.8818560397276
 30
0.0
 11
-3501.948199107487
 21
-459.3001970210585
 31
0.0
  0
LINE
  5
2F8
330
1F
100
AcDbEntity
  8
0-7_金物
  6
Continuous
 62
     7
370
     9
100
AcDbLine
 10
-3507.982722266321
 20
-470.8818560397276
 30
0.0
 11
-3507.780563656174
 21
-459.3001970210585
 31
0.0
  0
LINE
  5
2F9
330
1F
100
AcDbEntity
  8
0-7_金物
  6
Continuous
 62
     7
370
     9
100
AcDbLine
 10
-3501.948199107487
 20
-459.3001970210585
 30
0.0
 11
-3507.780563656174
 21
-459.3001970210585
 31
0.0
  0
LINE
  5
2FA
330
1F
100
AcDbEntity
  8
0-7_金物
  6
Continuous
 62
     7
370
     9
100
AcDbLine
 10
-3470.923256108466
 20
-546.0001964499147
 30
0.0
 11
-3459.864381678272
 21
-558.000196370863
 31
0.0
  0
LINE
  5
2FB
330
1F
100
AcDbEntity
  8
0-7_金物
  6
Continuous
 62
     7
370
     9
100
AcDbLine
 10
-3466.464381634795
 20
-558.000196370863
 30
0.0
 11
-3459.864381678272
 21
-558.000196370863
 31
0.0
  0
LINE
  5
2FC
330
1F
100
AcDbEntity
  8
0-7_金物
  6
Continuous
 62
     7
370
     9
100
AcDbLine
 10
-3543.264381128868
 20
-558.000196370863
 30
0.0
 11
-3549.86438108539
 21
-558.000196370863
 31
0.0
  0
LINE
  5
2FD
330
1F
100
AcDbEntity
  8
0-7_金物
  6
Continuous
 62
     7
370
     9
100
AcDbLine
 10
-3538.805506655193
 20
-546.0001964499147
 30
0.0
 11
-3549.86438108539
 21
-558.000196370863
 31
0.0
  0
LINE
  5
2FE
330
1F
100
AcDbEntity
  8
0-7_金物
  6
Continuous
 62
     7
370
     9
100
AcDbLine
 10
-3543.264381128868
 20
-474.0001969242189
 30
0.0
 11
-3549.86438108539
 21
-474.0001969242189
 31
0.0
  0
LINE
  5
2FF
330
1F
100
AcDbEntity
  8
0-7_金物
  6
Continuous
 62
     7
370
     9
100
AcDbLine
 10
-3538.805506655193
 20
-462.0001970032706
 30
0.0
 11
-3549.86438108539
 21
-474.0001969242189
 31
0.0
  0
LINE
  5
300
330
1F
100
AcDbEntity
  8
0-7_金物
  6
Continuous
 62
     7
370
     9
100
AcDbLine
 10
-3470.923256108466
 20
-462.0001970032706
 30
0.0
 11
-3459.864381678272
 21
-474.0001969242189
 31
0.0
  0
LINE
  5
301
330
1F
100
AcDbEntity
  8
0-7_金物
  6
Continuous
 62
     7
370
     9
100
AcDbLine
 10
-3528.264381227681
 20
-507.0001967068276
 30
0.0
 11
-3528.264381227681
 21
-510.0001966870673
 31
0.0
  0
LINE
  5
302
330
1F
100
AcDbEntity
  8
0-7_金物
  6
Continuous
 62
     7
370
     9
100
AcDbLine
 10
-3546.264381109104
 20
-501.0001967463543
 30
0.0
 11
-3546.264381109104
 21
-516.0001966475397
 31
0.0
  0
ARC
  5
303
330
1F
100
AcDbEntity
  8
0-7_金物
  6
Continuous
 62
     7
370
     9
100
AcDbCircle
 10
-3534.264381188155
 20
-510.0001966870673
 30
0.0
 40
5.999999960474506
100
AcDbArc
 50
270.0
 51
0.0
  0
ARC
  5
304
330
1F
100
AcDbEntity
  8
0-7_金物
  6
Continuous
 62
     7
370
     9
100
AcDbCircle
 10
-3534.264381188155
 20
-507.0001967068276
 30
0.0
 40
5.999999960474506
100
AcDbArc
 50
0.0
 51
90.0
  0
LINE
  5
305
330
1F
100
AcDbEntity
  8
0-7_金物
  6
Continuous
 62
     7
370
     9
100
AcDbLine
 10
-3534.264381188155
 20
-516.0001966475397
 30
0.0
 11
-3546.264381109104
 21
-516.0001966475397
 31
0.0
  0
LINE
  5
306
330
1F
100
AcDbEntity
  8
0-7_金物
  6
Continuous
 62
     7
370
     9
100
AcDbLine
 10
-3534.264381188155
 20
-501.0001967463543
 30
0.0
 11
-3546.264381109104
 21
-501.0001967463543
 31
0.0
  0
ARC
  5
307
330
1F
100
AcDbEntity
  8
0-7_金物
  6
Continuous
 62
     7
370
     9
100
AcDbCircle
 10
-3475.464381575505
 20
-510.0001966870673
 30
0.0
 40
5.999999960474506
100
AcDbArc
 50
180.0
 51
270.0
  0
ARC
  5
308
330
1F
100
AcDbEntity
  8
0-7_金物
  6
Continuous
 62
     7
370
     9
100
AcDbCircle
 10
-3475.464381575505
 20
-507.0001967068276
 30
0.0
 40
5.999999960474506
100
AcDbArc
 50
90.0
 51
180.0
  0
LINE
  5
309
330
1F
100
AcDbEntity
  8
0-7_金物
  6
Continuous
 62
     7
370
     9
100
AcDbLine
 10
-3481.46438153598
 20
-507.0001967068276
 30
0.0
 11
-3481.46438153598
 21
-510.0001966870673
 31
0.0
  0
LINE
  5
30A
330
1F
100
AcDbEntity
  8
0-7_金物
  6
Continuous
 62
     7
370
     9
100
AcDbLine
 10
-3463.464381654557
 20
-501.0001967463543
 30
0.0
 11
-3463.464381654557
 21
-516.0001966475397
 31
0.0
  0
LINE
  5
30B
330
1F
100
AcDbEntity
  8
0-7_金物
  6
Continuous
 62
     7
370
     9
100
AcDbLine
 10
-3475.464381575505
 20
-516.0001966475397
 30
0.0
 11
-3463.464381654557
 21
-516.0001966475397
 31
0.0
  0
LINE
  5
30C
330
1F
100
AcDbEntity
  8
0-7_金物
  6
Continuous
 62
     7
370
     9
100
AcDbLine
 10
-3475.464381575505
 20
-501.0001967463543
 30
0.0
 11
-3463.464381654557
 21
-501.0001967463543
 31
0.0
  0
LINE
  5
30D
330
1F
100
AcDbEntity
  8
0-7_金物
  6
Continuous
 62
     7
370
     9
100
AcDbLine
 10
-3523.033585977811
 20
-660.6001956949775
 30
0.0
 11
-3486.695176785848
 21
-660.6001956949775
 31
0.0
  0
LINE
  5
30E
330
1F
100
AcDbEntity
  8
0-7_金物
  6
Continuous
 62
     7
370
     9
100
AcDbLine
 10
-3543.264381128868
 20
-606.0001960546593
 30
0.0
 11
-3466.464381634795
 21
-606.0001960546593
 31
0.0
  0
LINE
  5
30F
330
1F
100
AcDbEntity
  8
0-7_金物
  6
Continuous
 62
     7
370
     9
100
AcDbLine
 10
-3525.864381243492
 20
-636.0001958570322
 30
0.0
 11
-3483.864381520169
 21
-636.0001958570322
 31
0.0
  0
LINE
  5
310
330
1F
100
AcDbEntity
  8
0-7_金物
  6
Continuous
 62
     7
370
     9
100
AcDbLine
 10
-3525.864381243492
 20
-615.0001959953705
 30
0.0
 11
-3483.864381520169
 21
-615.0001959953705
 31
0.0
  0
ARC
  5
311
330
1F
100
AcDbEntity
  8
0-7_金物
  6
Continuous
 62
     7
370
     9
100
AcDbCircle
 10
-3543.264381128868
 20
-600.0001960941838
 30
0.0
 40
5.999999960474506
100
AcDbArc
 50
270.0
 51
0.0
  0
ARC
  5
312
330
1F
100
AcDbEntity
  8
0-7_金物
  6
Continuous
 62
     7
370
     9
100
AcDbCircle
 10
-3543.264381128868
 20
-609.0001960348956
 30
0.0
 40
2.999999980237253
100
AcDbArc
 50
90.0
 51
180.0
  0
ARC
  5
313
330
1F
100
AcDbEntity
  8
0-7_金物
  6
Continuous
 62
     7
370
     9
100
AcDbCircle
 10
-3531.26438120792
 20
-600.0001960941838
 30
0.0
 40
5.999999960474506
100
AcDbArc
 50
90.0
 51
180.0
  0
ARC
  5
314
330
1F
100
AcDbEntity
  8
0-7_金物
  6
Continuous
 62
     7
370
     9
100
AcDbCircle
 10
-3466.464381634795
 20
-609.0001960348956
 30
0.0
 40
2.999999980237253
100
AcDbArc
 50
0.0
 51
90.0
  0
ARC
  5
315
330
1F
100
AcDbEntity
  8
0-7_金物
  6
Continuous
 62
     7
370
     9
100
AcDbCircle
 10
-3466.464381634795
 20
-600.0001960941838
 30
0.0
 40
5.999999960474506
100
AcDbArc
 50
180.0
 51
270.0
  0
ARC
  5
316
330
1F
100
AcDbEntity
  8
0-7_金物
  6
Continuous
 62
     7
370
     9
100
AcDbCircle
 10
-3478.464381555743
 20
-600.0001960941838
 30
0.0
 40
5.999999960474506
100
AcDbArc
 50
0.0
 51
90.0
  0
LINE
  5
317
330
1F
100
AcDbEntity
  8
0-7_金物
  6
Continuous
 62
     7
370
     9
100
AcDbLine
 10
-3483.864381520169
 20
-659.0787606985639
 30
0.0
 11
-3483.864381520169
 21
-615.0001959953705
 31
0.0
  0
LINE
  5
318
330
1F
100
AcDbEntity
  8
0-7_金物
  6
Continuous
 62
     7
370
     9
100
AcDbLine
 10
-3525.864381243492
 20
-659.0787606985639
 30
0.0
 11
-3525.864381243492
 21
-615.0001959953705
 31
0.0
  0
LINE
  5
319
330
1F
100
AcDbEntity
  8
0-7_金物
  6
Continuous
 62
     7
370
     9
100
AcDbLine
 10
-3463.464381654557
 20
-623.400195940036
 30
0.0
 11
-3463.464381654557
 21
-609.0001960348956
 31
0.0
  0
LINE
  5
31A
330
1F
100
AcDbEntity
  8
0-7_金物
  6
Continuous
 62
     7
370
     9
100
AcDbLine
 10
-3546.264381109104
 20
-623.400195940036
 30
0.0
 11
-3546.264381109104
 21
-609.0001960348956
 31
0.0
  0
LINE
  5
31B
330
1F
100
AcDbEntity
  8
0-7_金物
  6
Continuous
 62
     7
370
     9
100
AcDbLine
 10
-3531.26438120792
 20
-594.0001961337101
 30
0.0
 11
-3478.464381555743
 21
-594.0001961337101
 31
0.0
  0
ARC
  5
31C
330
1F
100
AcDbEntity
  8
0-7_金物
  6
Continuous
 62
     7
370
     9
100
AcDbCircle
 10
-3469.464381615031
 20
-423.000197260186
 30
0.0
 40
5.999999960474506
100
AcDbArc
 50
270.0
 51
0.0
  0
ARC
  5
31D
330
1F
100
AcDbEntity
  8
0-7_金物
  6
Continuous
 62
     7
370
     9
100
AcDbCircle
 10
-3540.26438114863
 20
-423.000197260186
 30
0.0
 40
5.999999960474506
100
AcDbArc
 50
180.0
 51
270.0
  0
LINE
  5
31E
330
1F
100
AcDbEntity
  8
0-7_金物
  6
Continuous
 62
     7
370
     9
100
AcDbLine
 10
-3463.464381654557
 20
-414.000197319474
 30
0.0
 11
-3463.464381654557
 21
-423.000197260186
 31
0.0
  0
LINE
  5
31F
330
1F
100
AcDbEntity
  8
0-7_金物
  6
Continuous
 62
     7
370
     9
100
AcDbLine
 10
-3546.264381109104
 20
-414.000197319474
 30
0.0
 11
-3546.264381109104
 21
-423.000197260186
 31
0.0
  0
CIRCLE
  5
320
330
1F
100
AcDbEntity
  8
0-7_金物
  6
Continuous
 62
     7
370
     9
100
AcDbCircle
 10
-3504.864381381831
 20
-558.000196370863
 30
0.0
 40
29.99999980237253
  0
LINE
  5
321
330
1F
100
AcDbEntity
  8
0-7_金物
  6
Continuous
 62
     7
370
     9
100
AcDbLine
 10
-3540.26438114863
 20
-429.0001972206611
 30
0.0
 11
-3469.464381615031
 21
-429.0001972206611
 31
0.0
  0
LINE
  5
322
330
1F
100
AcDbEntity
  8
0-7_金物
  6
Continuous
 62
     7
370
     9
100
AcDbLine
 10
-3466.464381634795
 20
-474.0001969242189
 30
0.0
 11
-3459.864381678272
 21
-474.0001969242189
 31
0.0
  0
LINE
  5
323
330
1F
100
AcDbEntity
  8
0-7_金物
  6
Continuous
 62
     7
370
     9
100
AcDbLine
 10
-3552.26438106958
 20
-414.000197319474
 30
0.0
 11
-3552.26438106958
 21
-623.400195940036
 31
0.0
  0
LINE
  5
324
330
1F
100
AcDbEntity
  8
0-7_金物
  6
Continuous
 62
     7
370
     9
100
AcDbLine
 10
-3457.464381694081
 20
-414.000197319474
 30
0.0
 11
-3457.464381694081
 21
-623.400195940036
 31
0.0
  0
ARC
  5
325
330
1F
100
AcDbEntity
  8
0-7_金物
  6
Continuous
 62
     7
370
     9
100
AcDbCircle
 10
-3504.864381381831
 20
-624.6001959321304
 30
0.0
 40
47.3999996877486
100
AcDbArc
 50
180.0
 51
0.0
  0
ARC
  5
326
330
1F
100
AcDbEntity
  8
0-7_金物
  6
Continuous
 62
     7
370
     9
100
AcDbCircle
 10
-3504.864381381831
 20
-558.000196370863
 30
0.0
 40
38.39999974703684
100
AcDbArc
 50
341.7900431357177
 51
12.17573410274985
  0
ARC
  5
327
330
1F
100
AcDbEntity
  8
0-7_金物
  6
Continuous
 62
     7
370
     9
100
AcDbCircle
 10
-3504.864381381831
 20
-558.000196370863
 30
0.0
 40
38.39999974703684
100
AcDbArc
 50
167.8242658972536
 51
198.2099568642824
  0
ARC
  5
328
330
1F
100
AcDbEntity
  8
0-7_金物
  6
Continuous
 62
     7
370
     9
100
AcDbCircle
 10
-3504.864381381831
 20
-474.0001969242189
 30
0.0
 40
38.39999974703684
100
AcDbArc
 50
167.8242658972536
 51
198.2099568642824
  0
ARC
  5
329
330
1F
100
AcDbEntity
  8
0-7_金物
  6
Continuous
 62
     7
370
     9
100
AcDbCircle
 10
-3504.864381381831
 20
-474.0001969242189
 30
0.0
 40
38.39999974703684
100
AcDbArc
 50
341.7900431357177
 51
12.17573410274985
  0
LINE
  5
32A
330
1F
100
AcDbEntity
  8
0-7_金物
  6
Continuous
 62
     7
370
     9
100
AcDbLine
 10
-3552.008582778219
 20
-414.000197319474
 30
0.0
 11
-3457.208583402721
 21
-414.000197319474
 31
0.0
  0
LINE
  5
32B
330
1F
100
AcDbEntity
  8
0-7_金物
  6
Continuous
 62
     7
370
     9
100
AcDbLine
 10
-3528.869256707757
 20
-376.8001970309365
 30
0.0
 11
-3528.869256707757
 21
-382.8001969914115
 31
0.0
  0
LINE
  5
32C
330
1F
100
AcDbEntity
  8
0-7_金物
  6
Continuous
 62
     7
370
     9
100
AcDbLine
 10
-3480.869257023962
 20
-376.8001970309365
 30
0.0
 11
-3528.869256707757
 21
-376.8001970309365
 31
0.0
  0
LINE
  5
32D
330
1F
100
AcDbEntity
  8
0-7_金物
  6
Continuous
 62
     7
370
     9
100
AcDbLine
 10
-3480.869257023962
 20
-376.8001970309365
 30
0.0
 11
-3480.869257023962
 21
-382.8001969914115
 31
0.0
  0
LINE
  5
32E
330
1F
100
AcDbEntity
  8
0-7_金物
  6
Continuous
 62
     7
370
     9
100
AcDbLine
 10
-3528.869256707757
 20
-382.8001969914115
 30
0.0
 11
-3480.869257023962
 21
-382.8001969914115
 31
0.0
  0
LINE
  5
32F
330
1F
100
AcDbEntity
  8
0-7_金物
  6
Continuous
 62
     7
370
     9
100
AcDbLine
 10
-3474.26925706744
 20
-339.0001972799485
 30
0.0
 11
-3474.26925706744
 21
-315.0001974380484
 31
0.0
  0
LINE
  5
330
330
1F
100
AcDbEntity
  8
0-7_金物
  6
Continuous
 62
     7
370
     9
100
AcDbLine
 10
-3474.26925706744
 20
-291.0001975961518
 30
0.0
 11
-3474.26925706744
 21
-315.000197438051
 31
0.0
  0
ARC
  5
331
330
1F
100
AcDbEntity
  8
0-7_金物
  6
Continuous
 62
     7
370
     9
100
AcDbCircle
 10
-3483.869257004199
 20
-288.0001976159156
 30
0.0
 40
5.999999960474506
100
AcDbArc
 50
0.0
 51
90.0
  0
ARC
  5
332
330
1F
100
AcDbEntity
  8
0-7_金物
  6
Continuous
 62
     7
370
     9
100
AcDbCircle
 10
-3483.869257004199
 20
-351.0001972008968
 30
0.0
 40
5.999999960474506
100
AcDbArc
 50
270.0
 51
0.0
  0
LINE
  5
333
330
1F
100
AcDbEntity
  8
0-7_金物
  6
Continuous
 62
     7
370
     9
100
AcDbLine
 10
-3483.869257004199
 20
-357.0001971613692
 30
0.0
 11
-3504.869256865861
 21
-357.0001971613692
 31
0.0
  0
LINE
  5
334
330
1F
100
AcDbEntity
  8
0-7_金物
  6
Continuous
 62
     7
370
     9
100
AcDbLine
 10
-3477.869257043724
 20
-351.0001972008968
 30
0.0
 11
-3477.869257043724
 21
-342.0001972601847
 31
0.0
  0
LINE
  5
335
330
1F
100
AcDbEntity
  8
0-7_金物
  6
Continuous
 62
     7
370
     9
100
AcDbLine
 10
-3474.869257063487
 20
-339.0001972799485
 30
0.0
 11
-3474.26925706744
 21
-339.0001972799485
 31
0.0
  0
LINE
  5
336
330
1F
100
AcDbEntity
  8
0-7_金物
  6
Continuous
 62
     7
370
     9
100
AcDbLine
 10
-3474.869257063487
 20
-291.0001975961518
 30
0.0
 11
-3474.26925706744
 21
-291.0001975961518
 31
0.0
  0
LINE
  5
337
330
1F
100
AcDbEntity
  8
0-7_金物
  6
Continuous
 62
     7
370
     9
100
AcDbLine
 10
-3435.269257324353
 20
-363.0001971218451
 30
0.0
 11
-3435.269257324353
 21
-267.0001977542518
 31
0.0
  0
ARC
  5
338
330
1F
100
AcDbEntity
  8
0-7_金物
  6
Continuous
 62
     7
370
     9
100
AcDbCircle
 10
-3474.869257063487
 20
-288.0001976159156
 30
0.0
 40
2.999999980237253
100
AcDbArc
 50
180.0
 51
270.0
  0
ARC
  5
339
330
1F
100
AcDbEntity
  8
0-7_金物
  6
Continuous
 62
     7
370
     9
100
AcDbCircle
 10
-3474.869257063487
 20
-342.0001972601847
 30
0.0
 40
2.999999980237253
100
AcDbArc
 50
90.0
 51
180.0
  0
LINE
  5
33A
330
1F
100
AcDbEntity
  8
0-7_金物
  6
Continuous
 62
     7
370
     9
100
AcDbLine
 10
-3483.869257004199
 20
-282.0001976554397
 30
0.0
 11
-3504.869256865861
 21
-282.0001976554397
 31
0.0
  0
LINE
  5
33B
330
1F
100
AcDbEntity
  8
0-7_金物
  6
Continuous
 62
     7
370
     9
100
AcDbLine
 10
-3486.869256984437
 20
-375.0001970427934
 30
0.0
 11
-3486.869256984437
 21
-376.8001970309365
 31
0.0
  0
LINE
  5
33C
330
1F
100
AcDbEntity
  8
0-7_金物
  6
Continuous
 62
     7
370
     9
100
AcDbLine
 10
-3471.269257087202
 20
-315.0001974380484
 30
0.0
 11
-3471.269257087202
 21
-363.0001971218451
 31
0.0
  0
LINE
  5
33D
330
1F
100
AcDbEntity
  8
0-7_金物
  6
Continuous
 62
     7
370
     9
100
AcDbLine
 10
-3471.269257087202
 20
-339.0001972799485
 30
0.0
 11
-3473.069257075345
 21
-339.0001972799485
 31
0.0
  0
LINE
  5
33E
330
1F
100
AcDbEntity
  8
0-7_金物
  6
Continuous
 62
     7
370
     9
100
AcDbLine
 10
-3471.269257087202
 20
-291.0001975961518
 30
0.0
 11
-3473.069257075345
 21
-291.0001975961518
 31
0.0
  0
LINE
  5
33F
330
1F
100
AcDbEntity
  8
0-7_金物
  6
Continuous
 62
     7
370
     9
100
AcDbLine
 10
-3474.269257067438
 20
-331.2001973313295
 30
0.0
 11
-3473.069257075345
 21
-330.0001973392364
 31
0.0
  0
LINE
  5
340
330
1F
100
AcDbEntity
  8
0-7_金物
  6
Continuous
 62
     7
370
     9
100
AcDbLine
 10
-3473.069257075345
 20
-300.000197536863
 30
0.0
 11
-3474.269257067438
 21
-298.8001975447673
 31
0.0
  0
LINE
  5
341
330
1F
100
AcDbEntity
  8
0-7_金物
  6
Continuous
 62
     7
370
     9
100
AcDbLine
 10
-3471.269257087202
 20
-330.0001973392364
 30
0.0
 11
-3474.26925706744
 21
-330.0001973392364
 31
0.0
  0
LINE
  5
342
330
1F
100
AcDbEntity
  8
0-7_金物
  6
Continuous
 62
     7
370
     9
100
AcDbLine
 10
-3471.269257087202
 20
-300.000197536863
 30
0.0
 11
-3474.269257067438
 21
-300.000197536863
 31
0.0
  0
LINE
  5
343
330
1F
100
AcDbEntity
  8
0-7_金物
  6
Continuous
 62
     7
370
     9
100
AcDbLine
 10
-3474.269257067438
 20
-337.8001972878519
 30
0.0
 11
-3473.069257075345
 21
-339.0001972799485
 31
0.0
  0
LINE
  5
344
330
1F
100
AcDbEntity
  8
0-7_金物
  6
Continuous
 62
     7
370
     9
100
AcDbLine
 10
-3474.269257067438
 20
-292.2001975882449
 30
0.0
 11
-3473.069257075345
 21
-291.0001975961518
 31
0.0
  0
ARC
  5
345
330
1F
100
AcDbEntity
  8
0-7_金物
  6
Continuous
 62
     7
370
     9
100
AcDbCircle
 10
-3453.269257205778
 20
-339.0001972799485
 30
0.0
 40
29.99999980237253
100
AcDbArc
 50
233.1301023541541
 51
306.8698976458458
  0
ARC
  5
346
330
1F
100
AcDbEntity
  8
0-7_金物
  6
Continuous
 62
     7
370
     9
100
AcDbCircle
 10
-3453.269257205778
 20
-291.0001975961518
 30
0.0
 40
29.99999980237253
100
AcDbArc
 50
53.13010235415425
 51
126.8698976458457
  0
LINE
  5
347
330
1F
100
AcDbEntity
  8
0-7_金物
  6
Continuous
 62
     7
370
     9
100
AcDbLine
 10
-3471.269257087202
 20
-267.0001977542518
 30
0.0
 11
-3471.269257087202
 21
-315.000197438051
 31
0.0
  0
ARC
  5
348
330
1F
100
AcDbEntity
  8
0-7_金物
  6
Continuous
 62
     7
370
     9
100
AcDbCircle
 10
-3465.869257122776
 20
-369.0001970823209
 30
0.0
 40
11.99999992094901
100
AcDbArc
 50
116.743683950387
 51
180.0
  0
ARC
  5
349
330
1F
100
AcDbEntity
  8
0-7_金物
  6
Continuous
 62
     7
370
     9
100
AcDbCircle
 10
-3483.8692570042
 20
-369.0001970823209
 30
0.0
 40
5.999999960474506
100
AcDbArc
 50
270.0
 51
0.0
  0
LINE
  5
34A
330
1F
100
AcDbEntity
  8
0-7_金物
  6
Continuous
 62
     7
370
     9
100
AcDbLine
 10
-3504.869256865861
 20
-375.0001970427934
 30
0.0
 11
-3483.8692570042
 21
-375.0001970427934
 31
0.0
  0
LINE
  5
34B
330
1F
100
AcDbEntity
  8
0-7_金物
  6
Continuous
 62
     7
370
     9
100
AcDbLine
 10
-3535.46925666428
 20
-339.0001972799485
 30
0.0
 11
-3535.46925666428
 21
-315.0001974380484
 31
0.0
  0
LINE
  5
34C
330
1F
100
AcDbEntity
  8
0-7_金物
  6
Continuous
 62
     7
370
     9
100
AcDbLine
 10
-3535.46925666428
 20
-291.0001975961518
 30
0.0
 11
-3535.46925666428
 21
-315.000197438051
 31
0.0
  0
ARC
  5
34D
330
1F
100
AcDbEntity
  8
0-7_金物
  6
Continuous
 62
     7
370
     9
100
AcDbCircle
 10
-3525.869256727521
 20
-288.0001976159156
 30
0.0
 40
5.999999960474506
100
AcDbArc
 50
90.0
 51
180.0
  0
ARC
  5
34E
330
1F
100
AcDbEntity
  8
0-7_金物
  6
Continuous
 62
     7
370
     9
100
AcDbCircle
 10
-3525.869256727521
 20
-351.0001972008968
 30
0.0
 40
5.999999960474506
100
AcDbArc
 50
180.0
 51
270.0
  0
LINE
  5
34F
330
1F
100
AcDbEntity
  8
0-7_金物
  6
Continuous
 62
     7
370
     9
100
AcDbLine
 10
-3525.869256727521
 20
-357.0001971613692
 30
0.0
 11
-3504.869256865861
 21
-357.0001971613692
 31
0.0
  0
LINE
  5
350
330
1F
100
AcDbEntity
  8
0-7_金物
  6
Continuous
 62
     7
370
     9
100
AcDbLine
 10
-3531.869256687995
 20
-351.0001972008968
 30
0.0
 11
-3531.869256687995
 21
-342.0001972601847
 31
0.0
  0
LINE
  5
351
330
1F
100
AcDbEntity
  8
0-7_金物
  6
Continuous
 62
     7
370
     9
100
AcDbLine
 10
-3534.869256668233
 20
-339.0001972799485
 30
0.0
 11
-3535.46925666428
 21
-339.0001972799485
 31
0.0
  0
LINE
  5
352
330
1F
100
AcDbEntity
  8
0-7_金物
  6
Continuous
 62
     7
370
     9
100
AcDbLine
 10
-3534.869256668233
 20
-291.0001975961518
 30
0.0
 11
-3535.46925666428
 21
-291.0001975961518
 31
0.0
  0
LINE
  5
353
330
1F
100
AcDbEntity
  8
0-7_金物
  6
Continuous
 62
     7
370
     9
100
AcDbLine
 10
-3574.469256407364
 20
-363.0001971218451
 30
0.0
 11
-3574.469256407364
 21
-267.0001977542518
 31
0.0
  0
ARC
  5
354
330
1F
100
AcDbEntity
  8
0-7_金物
  6
Continuous
 62
     7
370
     9
100
AcDbCircle
 10
-3534.869256668233
 20
-288.0001976159156
 30
0.0
 40
2.999999980237253
100
AcDbArc
 50
270.0
 51
0.0
  0
ARC
  5
355
330
1F
100
AcDbEntity
  8
0-7_金物
  6
Continuous
 62
     7
370
     9
100
AcDbCircle
 10
-3534.869256668233
 20
-342.0001972601847
 30
0.0
 40
2.999999980237253
100
AcDbArc
 50
0.0
 51
90.0
  0
LINE
  5
356
330
1F
100
AcDbEntity
  8
0-7_金物
  6
Continuous
 62
     7
370
     9
100
AcDbLine
 10
-3525.869256727521
 20
-282.0001976554397
 30
0.0
 11
-3504.869256865861
 21
-282.0001976554397
 31
0.0
  0
LINE
  5
357
330
1F
100
AcDbEntity
  8
0-7_金物
  6
Continuous
 62
     7
370
     9
100
AcDbLine
 10
-3522.869256747285
 20
-375.0001970427934
 30
0.0
 11
-3522.869256747285
 21
-376.8001970309365
 31
0.0
  0
LINE
  5
358
330
1F
100
AcDbEntity
  8
0-7_金物
  6
Continuous
 62
     7
370
     9
100
AcDbLine
 10
-3538.469256644517
 20
-315.0001974380484
 30
0.0
 11
-3538.469256644517
 21
-363.0001971218451
 31
0.0
  0
LINE
  5
359
330
1F
100
AcDbEntity
  8
0-7_金物
  6
Continuous
 62
     7
370
     9
100
AcDbLine
 10
-3538.469256644517
 20
-339.0001972799485
 30
0.0
 11
-3536.669256656374
 21
-339.0001972799485
 31
0.0
  0
LINE
  5
35A
330
1F
100
AcDbEntity
  8
0-7_金物
  6
Continuous
 62
     7
370
     9
100
AcDbLine
 10
-3538.469256644519
 20
-291.0001975961518
 30
0.0
 11
-3536.669256656374
 21
-291.0001975961518
 31
0.0
  0
LINE
  5
35B
330
1F
100
AcDbEntity
  8
0-7_金物
  6
Continuous
 62
     7
370
     9
100
AcDbLine
 10
-3535.46925666428
 20
-331.2001973313295
 30
0.0
 11
-3536.669256656374
 21
-330.0001973392364
 31
0.0
  0
LINE
  5
35C
330
1F
100
AcDbEntity
  8
0-7_金物
  6
Continuous
 62
     7
370
     9
100
AcDbLine
 10
-3536.669256656376
 20
-300.000197536863
 30
0.0
 11
-3535.46925666428
 21
-298.8001975447673
 31
0.0
  0
LINE
  5
35D
330
1F
100
AcDbEntity
  8
0-7_金物
  6
Continuous
 62
     7
370
     9
100
AcDbLine
 10
-3538.469256644517
 20
-330.0001973392364
 30
0.0
 11
-3535.46925666428
 21
-330.0001973392364
 31
0.0
  0
LINE
  5
35E
330
1F
100
AcDbEntity
  8
0-7_金物
  6
Continuous
 62
     7
370
     9
100
AcDbLine
 10
-3538.469256644517
 20
-300.000197536863
 30
0.0
 11
-3535.46925666428
 21
-300.000197536863
 31
0.0
  0
LINE
  5
35F
330
1F
100
AcDbEntity
  8
0-7_金物
  6
Continuous
 62
     7
370
     9
100
AcDbLine
 10
-3535.46925666428
 20
-337.8001972878519
 30
0.0
 11
-3536.669256656374
 21
-339.0001972799485
 31
0.0
  0
LINE
  5
360
330
1F
100
AcDbEntity
  8
0-7_金物
  6
Continuous
 62
     7
370
     9
100
AcDbLine
 10
-3535.46925666428
 20
-292.2001975882449
 30
0.0
 11
-3536.669256656374
 21
-291.0001975961518
 31
0.0
  0
ARC
  5
361
330
1F
100
AcDbEntity
  8
0-7_金物
  6
Continuous
 62
     7
370
     9
100
AcDbCircle
 10
-3556.46925652594
 20
-339.0001972799485
 30
0.0
 40
29.99999980237253
100
AcDbArc
 50
233.1301023541541
 51
306.8698976458458
  0
ARC
  5
362
330
1F
100
AcDbEntity
  8
0-7_金物
  6
Continuous
 62
     7
370
     9
100
AcDbCircle
 10
-3556.46925652594
 20
-291.0001975961518
 30
0.0
 40
29.99999980237253
100
AcDbArc
 50
53.13010235415425
 51
126.8698976458457
  0
LINE
  5
363
330
1F
100
AcDbEntity
  8
0-7_金物
  6
Continuous
 62
     7
370
     9
100
AcDbLine
 10
-3538.469256644517
 20
-267.0001977542518
 30
0.0
 11
-3538.469256644517
 21
-315.000197438051
 31
0.0
  0
ARC
  5
364
330
1F
100
AcDbEntity
  8
0-7_金物
  6
Continuous
 62
     7
370
     9
100
AcDbCircle
 10
-3543.869256608942
 20
-369.0001970823209
 30
0.0
 40
11.99999992094901
100
AcDbArc
 50
0.0
 51
63.25631604961301
  0
ARC
  5
365
330
1F
100
AcDbEntity
  8
0-7_金物
  6
Continuous
 62
     7
370
     9
100
AcDbCircle
 10
-3525.869256727519
 20
-369.0001970823209
 30
0.0
 40
5.999999960474506
100
AcDbArc
 50
180.0
 51
270.0
  0
LINE
  5
366
330
1F
100
AcDbEntity
  8
0-7_金物
  6
Continuous
 62
     7
370
     9
100
AcDbLine
 10
-3504.869256865861
 20
-375.0001970427934
 30
0.0
 11
-3525.869256727519
 21
-375.0001970427934
 31
0.0
  0
LINE
  5
367
330
1F
100
AcDbEntity
  8
0-7_金物
  6
Continuous
 62
     7
370
     9
100
AcDbLine
 10
-3588.869256312506
 20
-333.0001973194726
 30
0.0
 11
-3588.869256312506
 21
-240.0001979321189
 31
0.0
  0
ARC
  5
368
330
1F
100
AcDbEntity
  8
0-7_金物
  6
Continuous
 62
     7
370
     9
100
AcDbCircle
 10
-3585.869256332267
 20
-240.0001979321189
 30
0.0
 40
2.999999980237589
100
AcDbArc
 50
89.99999999999997
 51
180.0
  0
LINE
  5
369
330
1F
100
AcDbEntity
  8
0-7_金物
  6
Continuous
 62
     7
370
     9
100
AcDbLine
 10
-3585.869256332267
 20
-237.0001979518818
 30
0.0
 11
-3584.669256340173
 21
-237.0001979518818
 31
0.0
  0
ARC
  5
36A
330
1F
100
AcDbEntity
  8
0-7_金物
  6
Continuous
 62
     7
370
     9
100
AcDbCircle
 10
-3584.669256340173
 20
-240.0001979321181
 30
0.0
 40
2.999999980236907
100
AcDbArc
 50
359.999999999987
 51
89.99999999998697
  0
LINE
  5
36B
330
1F
100
AcDbEntity
  8
0-7_金物
  6
Continuous
 62
     7
370
     9
100
AcDbLine
 10
-3581.669256359937
 20
-240.0001979321189
 30
0.0
 11
-3581.669256359937
 21
-246.0001978925914
 31
0.0
  0
ARC
  5
36C
330
1F
100
AcDbEntity
  8
0-7_金物
  6
Continuous
 62
     7
370
     9
100
AcDbCircle
 10
-3578.669256379699
 20
-246.0001978925914
 30
0.0
 40
2.999999980237248
100
AcDbArc
 50
180.0000000000066
 51
270.0000000000065
  0
LINE
  5
36D
330
1F
100
AcDbEntity
  8
0-7_金物
  6
Continuous
 62
     7
370
     9
100
AcDbLine
 10
-3578.669256379699
 20
-249.0001978728276
 30
0.0
 11
-3544.769256603017
 21
-249.0001978728276
 31
0.0
  0
ARC
  5
36E
330
1F
100
AcDbEntity
  8
0-7_金物
  6
Continuous
 62
     7
370
     9
100
AcDbCircle
 10
-3544.769256603017
 20
-246.0001978925914
 30
0.0
 40
2.999999980236565
100
AcDbArc
 50
270.0000000000065
 51
0.0000000000065138
  0
LINE
  5
36F
330
1F
100
AcDbEntity
  8
0-7_金物
  6
Continuous
 62
     7
370
     9
100
AcDbLine
 10
-3541.769256622781
 20
-246.0001978925914
 30
0.0
 11
-3541.769256622781
 21
-240.0001979321189
 31
0.0
  0
ARC
  5
370
330
1F
100
AcDbEntity
  8
0-7_金物
  6
Continuous
 62
     7
370
     9
100
AcDbCircle
 10
-3538.769256642544
 20
-240.0001979321189
 30
0.0
 40
2.999999980237589
100
AcDbArc
 50
89.99999999999997
 51
180.0
  0
LINE
  5
371
330
1F
100
AcDbEntity
  8
0-7_金物
  6
Continuous
 62
     7
370
     9
100
AcDbLine
 10
-3538.769256642544
 20
-237.0001979518818
 30
0.0
 11
-3470.96925708918
 21
-237.0001979518818
 31
0.0
  0
ARC
  5
372
330
1F
100
AcDbEntity
  8
0-7_金物
  6
Continuous
 62
     7
370
     9
100
AcDbCircle
 10
-3470.96925708918
 20
-240.0001979321189
 30
0.0
 40
2.999999980237589
100
AcDbArc
 50
0.0
 51
90.0
  0
LINE
  5
373
330
1F
100
AcDbEntity
  8
0-7_金物
  6
Continuous
 62
     7
370
     9
100
AcDbLine
 10
-3467.969257108943
 20
-240.0001979321189
 30
0.0
 11
-3467.969257108943
 21
-246.0001978925914
 31
0.0
  0
ARC
  5
374
330
1F
100
AcDbEntity
  8
0-7_金物
  6
Continuous
 62
     7
370
     9
100
AcDbCircle
 10
-3464.969257128706
 20
-246.0001978925914
 30
0.0
 40
2.999999980236565
100
AcDbArc
 50
179.9999999999935
 51
269.9999999999935
  0
LINE
  5
375
330
1F
100
AcDbEntity
  8
0-7_金物
  6
Continuous
 62
     7
370
     9
100
AcDbLine
 10
-3464.969257128706
 20
-249.0001978728276
 30
0.0
 11
-3431.069257352024
 21
-249.0001978728276
 31
0.0
  0
ARC
  5
376
330
1F
100
AcDbEntity
  8
0-7_金物
  6
Continuous
 62
     7
370
     9
100
AcDbCircle
 10
-3431.069257352024
 20
-246.0001978925914
 30
0.0
 40
2.999999980237248
100
AcDbArc
 50
269.9999999999935
 51
359.9999999999935
  0
LINE
  5
377
330
1F
100
AcDbEntity
  8
0-7_金物
  6
Continuous
 62
     7
370
     9
100
AcDbLine
 10
-3428.069257371786
 20
-246.0001978925914
 30
0.0
 11
-3428.069257371786
 21
-240.0001979321189
 31
0.0
  0
ARC
  5
378
330
1F
100
AcDbEntity
  8
0-7_金物
  6
Continuous
 62
     7
370
     9
100
AcDbCircle
 10
-3425.069257391548
 20
-240.0001979321181
 30
0.0
 40
2.999999980236907
100
AcDbArc
 50
90.00000000001303
 51
180.000000000013
  0
LINE
  5
379
330
1F
100
AcDbEntity
  8
0-7_金物
  6
Continuous
 62
     7
370
     9
100
AcDbLine
 10
-3425.06925739155
 20
-237.0001979518818
 30
0.0
 11
-3423.869257399455
 21
-237.0001979518818
 31
0.0
  0
ARC
  5
37A
330
1F
100
AcDbEntity
  8
0-7_金物
  6
Continuous
 62
     7
370
     9
100
AcDbCircle
 10
-3423.869257399455
 20
-240.0001979321189
 30
0.0
 40
2.999999980237589
100
AcDbArc
 50
0.0
 51
90.0
  0
LINE
  5
37B
330
1F
100
AcDbEntity
  8
0-7_金物
  6
Continuous
 62
     7
370
     9
100
AcDbLine
 10
-3420.869257419219
 20
-240.0001979321189
 30
0.0
 11
-3420.869257419219
 21
-333.0001973194726
 31
0.0
  0
LINE
  5
37C
330
1F
100
AcDbEntity
  8
0-7_金物
  6
Continuous
 62
     7
370
     9
100
AcDbLine
 10
-3420.869257419219
 20
-333.0001973194726
 30
0.0
 11
-3412.469257474554
 21
-333.0001973194726
 31
0.0
  0
ARC
  5
37D
330
1F
100
AcDbEntity
  8
0-7_金物
  6
Continuous
 62
     7
370
     9
100
AcDbCircle
 10
-3412.469257474554
 20
-336.6001972957588
 30
0.0
 40
3.599999976284494
100
AcDbArc
 50
270.0
 51
90.0
  0
LINE
  5
37E
330
1F
100
AcDbEntity
  8
0-7_金物
  6
Continuous
 62
     7
370
     9
100
AcDbLine
 10
-3412.469257474554
 20
-340.2001972720416
 30
0.0
 11
-3420.869257419219
 21
-340.2001972720416
 31
0.0
  0
LINE
  5
37F
330
1F
100
AcDbEntity
  8
0-7_金物
  6
Continuous
 62
     7
370
     9
100
AcDbLine
 10
-3420.869257419219
 20
-340.2001972720416
 30
0.0
 11
-3420.869257419219
 21
-353.7947907896114
 31
0.0
  0
ARC
  5
380
330
1F
100
AcDbEntity
  8
0-7_金物
  6
Continuous
 62
     7
370
     9
100
AcDbCircle
 10
-3432.869257340164
 20
-353.7947907896114
 30
0.0
 40
11.99999992094679
100
AcDbArc
 50
324.0494323803814
 51
359.9999999999989
  0
ARC
  5
381
330
1F
100
AcDbEntity
  8
0-7_金物
  6
Continuous
 62
     7
370
     9
100
AcDbCircle
 10
-3453.269257205781
 20
-339.0001972799485
 30
0.0
 40
37.19999975494105
100
AcDbArc
 50
246.1811586065432
 51
324.0494323803861
  0
ARC
  5
382
330
1F
100
AcDbEntity
  8
0-7_金物
  6
Continuous
 62
     7
370
     9
100
AcDbCircle
 10
-3465.869257122776
 20
-367.5427968333599
 30
0.0
 40
5.999999960474696
100
AcDbArc
 50
179.9999999999991
 51
246.1811586065413
  0
LINE
  5
383
330
1F
100
AcDbEntity
  8
0-7_金物
  6
Continuous
 62
     7
370
     9
100
AcDbLine
 10
-3471.869257083252
 20
-367.5427968333599
 30
0.0
 11
-3471.869257083252
 21
-366.0001971020813
 31
0.0
  0
ARC
  5
384
330
1F
100
AcDbEntity
  8
0-7_金物
  6
Continuous
 62
     7
370
     9
100
AcDbCircle
 10
-3470.069257095109
 20
-366.0001971020847
 30
0.0
 40
1.799999988143101
100
AcDbArc
 50
58.10920819813321
 51
179.9999999999765
  0
ARC
  5
385
330
1F
100
AcDbEntity
  8
0-7_金物
  6
Continuous
 62
     7
370
     9
100
AcDbCircle
 10
-3453.269257205781
 20
-339.0001972799485
 30
0.0
 40
29.99999980237201
100
AcDbArc
 50
238.1092081981562
 51
326.07688799674
  0
ARC
  5
386
330
1F
100
AcDbEntity
  8
0-7_金物
  6
Continuous
 62
     7
370
     9
100
AcDbCircle
 10
-3429.869257359931
 20
-354.7380496345954
 30
0.0
 40
1.799999988144312
100
AcDbArc
 50
326.0768879966748
 51
359.9999999999343
  0
LINE
  5
387
330
1F
100
AcDbEntity
  8
0-7_金物
  6
Continuous
 62
     7
370
     9
100
AcDbLine
 10
-3428.069257371786
 20
-354.738049634598
 30
0.0
 11
-3428.069257371786
 21
-270.000197734488
 31
0.0
  0
ARC
  5
388
330
1F
100
AcDbEntity
  8
0-7_金物
  6
Continuous
 62
     7
370
     9
100
AcDbCircle
 10
-3440.069257292736
 20
-270.000197734488
 30
0.0
 40
11.99999992094899
100
AcDbArc
 50
0.0
 51
90.00000000000001
  0
LINE
  5
389
330
1F
100
AcDbEntity
  8
0-7_金物
  6
Continuous
 62
     7
370
     9
100
AcDbLine
 10
-3440.069257292736
 20
-258.0001978135422
 30
0.0
 11
-3475.169257061513
 21
-258.0001978135422
 31
0.0
  0
ARC
  5
38A
330
1F
100
AcDbEntity
  8
0-7_金物
  6
Continuous
 62
     7
370
     9
100
AcDbCircle
 10
-3475.169257061513
 20
-256.2001978253991
 30
0.0
 40
1.799999988142076
100
AcDbArc
 50
180.0000000000326
 51
270.0000000000326
  0
LINE
  5
38B
330
1F
100
AcDbEntity
  8
0-7_金物
  6
Continuous
 62
     7
370
     9
100
AcDbLine
 10
-3476.969257049656
 20
-256.2001978254
 30
0.0
 11
-3476.969257049656
 21
-247.8001978807345
 31
0.0
  0
ARC
  5
38C
330
1F
100
AcDbEntity
  8
0-7_金物
  6
Continuous
 62
     7
370
     9
100
AcDbCircle
 10
-3478.769257037798
 20
-247.8001978807345
 30
0.0
 40
1.799999988142416
100
AcDbArc
 50
0.0000000000217168
 51
90.00000000002173
  0
LINE
  5
38D
330
1F
100
AcDbEntity
  8
0-7_金物
  6
Continuous
 62
     7
370
     9
100
AcDbLine
 10
-3478.769257037799
 20
-246.0001978925914
 30
0.0
 11
-3503.069256877718
 21
-246.0001978925914
 31
0.0
  0
LINE
  5
38E
330
1F
100
AcDbEntity
  8
0-7_金物
  6
Continuous
 62
     7
370
     9
100
AcDbLine
 10
-3503.069256877718
 20
-246.0001978925914
 30
0.0
 11
-3504.869256865861
 21
-244.2001979044483
 31
0.0
  0
LINE
  5
38F
330
1F
100
AcDbEntity
  8
0-7_金物
  6
Continuous
 62
     7
370
     9
100
AcDbLine
 10
-3504.869256865861
 20
-244.2001979044483
 30
0.0
 11
-3506.669256854004
 21
-246.0001978925914
 31
0.0
  0
LINE
  5
390
330
1F
100
AcDbEntity
  8
0-7_金物
  6
Continuous
 62
     7
370
     9
100
AcDbLine
 10
-3506.669256854004
 20
-246.0001978925914
 30
0.0
 11
-3530.969256693925
 21
-246.0001978925914
 31
0.0
  0
ARC
  5
391
330
1F
100
AcDbEntity
  8
0-7_金物
  6
Continuous
 62
     7
370
     9
100
AcDbCircle
 10
-3530.969256693925
 20
-247.8001978807345
 30
0.0
 40
1.799999988142416
100
AcDbArc
 50
89.99999999997829
 51
179.9999999999783
  0
LINE
  5
392
330
1F
100
AcDbEntity
  8
0-7_金物
  6
Continuous
 62
     7
370
     9
100
AcDbLine
 10
-3532.769256682068
 20
-247.8001978807345
 30
0.0
 11
-3532.769256682068
 21
-256.2001978254
 31
0.0
  0
ARC
  5
393
330
1F
100
AcDbEntity
  8
0-7_金物
  6
Continuous
 62
     7
370
     9
100
AcDbCircle
 10
-3534.56925667021
 20
-256.2001978254
 30
0.0
 40
1.799999988141394
100
AcDbArc
 50
269.9999999999891
 51
359.9999999999891
  0
LINE
  5
394
330
1F
100
AcDbEntity
  8
0-7_金物
  6
Continuous
 62
     7
370
     9
100
AcDbLine
 10
-3534.56925667021
 20
-258.0001978135422
 30
0.0
 11
-3569.669256438987
 21
-258.0001978135422
 31
0.0
  0
ARC
  5
395
330
1F
100
AcDbEntity
  8
0-7_金物
  6
Continuous
 62
     7
370
     9
100
AcDbCircle
 10
-3569.669256438987
 20
-270.000197734488
 30
0.0
 40
11.99999992094899
100
AcDbArc
 50
90.0
 51
180.0
  0
LINE
  5
396
330
1F
100
AcDbEntity
  8
0-7_金物
  6
Continuous
 62
     7
370
     9
100
AcDbLine
 10
-3581.669256359937
 20
-270.000197734488
 30
0.0
 11
-3581.669256359937
 21
-354.738049634598
 31
0.0
  0
ARC
  5
397
330
1F
100
AcDbEntity
  8
0-7_金物
  6
Continuous
 62
     7
370
     9
100
AcDbCircle
 10
-3579.869256371792
 20
-354.7380496345988
 30
0.0
 40
1.799999988143631
100
AcDbArc
 50
179.9999999999944
 51
213.923112003254
  0
ARC
  5
398
330
1F
100
AcDbEntity
  8
0-7_金物
  6
Continuous
 62
     7
370
     9
100
AcDbCircle
 10
-3556.469256525942
 20
-339.0001972799476
 30
0.0
 40
29.99999980237392
100
AcDbArc
 50
213.9231120032609
 51
301.8907918018446
  0
ARC
  5
399
330
1F
100
AcDbEntity
  8
0-7_金物
  6
Continuous
 62
     7
370
     9
100
AcDbCircle
 10
-3539.669256636614
 20
-366.0001971020813
 30
0.0
 40
1.799999988141737
100
AcDbArc
 50
359.9999999999994
 51
121.8907918018427
  0
LINE
  5
39A
330
1F
100
AcDbEntity
  8
0-7_金物
  6
Continuous
 62
     7
370
     9
100
AcDbLine
 10
-3537.869256648473
 20
-366.0001971020813
 30
0.0
 11
-3537.869256648473
 21
-367.5427968333599
 31
0.0
  0
ARC
  5
39B
330
1F
100
AcDbEntity
  8
0-7_金物
  6
Continuous
 62
     7
370
     9
100
AcDbCircle
 10
-3543.869256608947
 20
-367.5427968333599
 30
0.0
 40
5.999999960474696
100
AcDbArc
 50
293.8188413934587
 51
0.0000000000009542
  0
ARC
  5
39C
330
1F
100
AcDbEntity
  8
0-7_金物
  6
Continuous
 62
     7
370
     9
100
AcDbCircle
 10
-3556.469256525943
 20
-339.0001972799476
 30
0.0
 40
37.19999975494188
100
AcDbArc
 50
215.9505676196163
 51
293.8188413934565
  0
ARC
  5
39D
330
1F
100
AcDbEntity
  8
0-7_金物
  6
Continuous
 62
     7
370
     9
100
AcDbCircle
 10
-3576.869256391557
 20
-353.7947907896114
 30
0.0
 40
11.99999992094837
100
AcDbArc
 50
179.9999999999987
 51
215.9505676196161
  0
LINE
  5
39E
330
1F
100
AcDbEntity
  8
0-7_金物
  6
Continuous
 62
     7
370
     9
100
AcDbLine
 10
-3588.869256312506
 20
-353.7947907896114
 30
0.0
 11
-3588.869256312506
 21
-340.2001972720416
 31
0.0
  0
LINE
  5
39F
330
1F
100
AcDbEntity
  8
0-7_金物
  6
Continuous
 62
     7
370
     9
100
AcDbLine
 10
-3621.269256099068
 20
-333.0001973194726
 30
0.0
 11
-3588.869256312506
 21
-333.0001973194726
 31
0.0
  0
LINE
  5
3A0
330
1F
100
AcDbEntity
  8
0-7_金物
  6
Continuous
 62
     7
370
     9
100
AcDbLine
 10
-3588.869256312506
 20
-340.2001972720416
 30
0.0
 11
-3614.069256146497
 21
-340.2001972720416
 31
0.0
  0
ARC
  5
3A1
330
1F
100
AcDbEntity
  8
0-7_金物
  6
Continuous
 62
     7
370
     9
100
AcDbCircle
 10
-3621.269256099068
 20
-334.2001973115683
 30
0.0
 40
1.199999992094489
100
AcDbArc
 50
89.99999999999997
 51
180.0
  0
ARC
  5
3A2
330
1F
100
AcDbEntity
  8
0-7_金物
  6
Continuous
 62
     7
370
     9
100
AcDbCircle
 10
-3614.069256146499
 20
-341.4001972641381
 30
0.0
 40
1.199999992095854
100
AcDbArc
 50
89.99999999993486
 51
179.9999999999349
  0
LINE
  5
3A3
330
1F
100
AcDbEntity
  8
0-7_金物
  6
Continuous
 62
     7
370
     9
100
AcDbLine
 10
-3622.469256091163
 20
-443.4001965922039
 30
0.0
 11
-3622.469256091163
 21
-334.2001973115683
 31
0.0
  0
LINE
  5
3A4
330
1F
100
AcDbEntity
  8
0-7_金物
  6
Continuous
 62
     7
370
     9
100
AcDbLine
 10
-3615.269256138594
 20
-341.4001972641381
 30
0.0
 11
-3615.269256138592
 21
-443.4001965922039
 31
0.0
  0
ARC
  5
3A5
330
1F
100
AcDbEntity
  8
0-7_金物
  6
Continuous
 62
     7
370
     9
100
AcDbCircle
 10
-3618.869256114878
 20
-443.4001965922039
 30
0.0
 40
3.599999976284835
100
AcDbArc
 50
180.0
 51
0.0
  0
LINE
  5
3A6
330
1F
100
AcDbEntity
  8
0-7_金物
  6
Continuous
 62
     7
370
     9
100
AcDbLine
 10
-3486.869256312498
 20
-382.8001969914115
 30
0.0
 11
-3486.869256312498
 21
-414.000197319474
 31
0.0
  0
LINE
  5
3A7
330
1F
100
AcDbEntity
  8
0-7_金物
  6
Continuous
 62
     7
370
     9
100
AcDbLine
 10
-3522.869256312497
 20
-414.000197319474
 30
0.0
 11
-3522.869256312497
 21
-382.8001969914115
 31
0.0
  0
LINE
  5
3A8
330
1F
100
AcDbEntity
  8
0-6_扉
  6
Continuous
 62
   200
370
    20
100
AcDbLine
 10
-3414.869256865863
 20
-414.000197319474
 30
0.0
 11
-3594.869256865863
 21
-414.000197319474
 31
0.0
  0
LINE
  5
3A9
330
1F
100
AcDbEntity
  8
0-6_扉
  6
Continuous
 62
   200
370
    20
100
AcDbLine
 10
-3414.869256865863
 20
-414.000197319474
 30
0.0
 11
-3414.869256865863
 21
-1479.000197951875
 31
0.0
  0
LINE
  5
3AA
330
1F
100
AcDbEntity
  8
0-B_寸法
  6
Continuous
 62
   120
370
     5
100
AcDbLine
 10
-3594.869256865863
 20
-1119.00032480045
 30
0.0
 11
-3414.869256865863
 21
-1119.00032480045
 31
0.0
  0
LINE
  5
3AB
330
1F
100
AcDbEntity
  8
0-6_扉
  6
Continuous
 62
   200
370
    20
100
AcDbLine
 10
-3594.869256865863
 20
-1599.000197951875
 30
0.0
 11
-3594.869256865863
 21
-2730.000404213942
 31
0.0
  0
LINE
  5
3AC
330
1F
100
AcDbEntity
  8
0-6_扉
  6
Continuous
 62
   200
370
    20
100
AcDbLine
 10
-3414.869256865863
 20
-1599.000197951875
 30
0.0
 11
-3414.869256865863
 21
-2730.000404213942
 31
0.0
  0
LINE
  5
3AD
330
1F
100
AcDbEntity
  8
0-B_寸法
  6
Continuous
 62
   120
370
     5
100
AcDbLine
 10
-3744.869256865861
 20
-2781.000404213941
 30
0.0
 11
-3744.869256865861
 21
-2661.00040421394
 31
0.0
  0
LWPOLYLINE
  5
3AE
330
1F
100
AcDbEntity
  8
0-B_寸法
  6
Continuous
 62
     7
370
     9
100
AcDbPolyline
 90
        4
 70
     1
 43
3.0
 10
-3743.369256865861
 20
-2661.00040421394
 42
0.4142135623731
 10
-3744.869256865861
 20
-2659.50040421394
 42
0.4142135623731
 10
-3746.369256865861
 20
-2661.00040421394
 42
0.4142135623731
 10
-3744.869256865861
 20
-2662.50040421394
 42
0.4142135623731
  0
LINE
  5
3AF
330
1F
100
AcDbEntity
  8
0-B_寸法
  6
Continuous
 62
   120
370
     5
100
AcDbLine
 10
-3744.869256865861
 20
-2661.00040421394
 30
0.0
 11
-3624.869256865861
 21
-2661.00040421394
 31
0.0
  0
LINE
  5
3B0
330
1F
100
AcDbEntity
  8
0-0_補助線
  6
JWW_HOJO
 62
   120
370
     5
100
AcDbLine
 10
-3624.869256865861
 20
-2592.000404213941
 30
0.0
 11
-3624.869256865861
 21
-2856.000591679352
 31
0.0
  0
LINE
  5
3B1
330
1F
100
AcDbEntity
  8
0-0_補助線
  6
JWW_HOJO
 62
   120
370
     5
100
AcDbLine
 10
-3384.869256865863
 20
-2592.000404213941
 30
0.0
 11
-3624.869256865861
 21
-2592.000404213941
 31
0.0
  0
LWPOLYLINE
  5
3B2
330
1F
100
AcDbEntity
  8
0-B_寸法
  6
Continuous
 62
     7
370
     9
100
AcDbPolyline
 90
        4
 70
     1
 43
3.0
 10
-3743.369256865861
 20
-2781.000404213941
 42
0.4142135623731
 10
-3744.869256865861
 20
-2779.500404213941
 42
0.4142135623731
 10
-3746.369256865861
 20
-2781.000404213941
 42
0.4142135623731
 10
-3744.869256865861
 20
-2782.500404213941
 42
0.4142135623731
  0
LINE
  5
3B3
330
1F
100
AcDbEntity
  8
0-B_寸法
  6
Continuous
 62
   120
370
     5
100
AcDbLine
 10
-3744.869256865861
 20
-2781.000404213941
 30
0.0
 11
-3624.869256865861
 21
-2781.000404213941
 31
0.0
  0
LINE
  5
3B4
330
1F
100
AcDbEntity
  8
0-0_補助線
  6
JWW_HOJO
 62
   120
370
     5
100
AcDbLine
 10
-3554.369256865843
 20
-2592.000404213941
 30
0.0
 11
-3554.369256865843
 21
-2856.000591679352
 31
0.0
  0
MTEXT
  5
3B5
330
1F
100
AcDbEntity
  8
0-B_寸法
  6
Continuous
 62
     7
370
   211
100
AcDbMText
 10
-3564.869256865863
 20
-1118.28032480045
 30
0.0
 40
91.44
 41
120.0
 46
0.0
 71
     7
 72
     1
  1
{\fＭＳ ゴシック|b0|i0|c128|p49;30}
 73
     1
 44
1.0
  0
MTEXT
  5
3B6
330
1F
100
AcDbEntity
  8
0-B_寸法
  6
Continuous
 62
     7
370
   211
100
AcDbMText
 10
-3582.869256865853
 20
-2523.900404213941
 30
0.0
 40
76.19999999999999
 41
150.0
 46
0.0
 71
     7
 72
     1
  1
{\fＭＳ ゴシック|b0|i0|c128|p49;4.5}
 73
     1
 44
1.0
  0
MTEXT
  5
3B7
330
1F
100
AcDbEntity
  8
0-B_寸法
  6
Continuous
 62
     7
370
   211
100
AcDbMText
 10
-3249.869256865862
 20
-2750.280404213942
 30
0.0
 40
91.44
 41
120.0
 46
0.0
 71
     7
 72
     1
  1
{\fＭＳ ゴシック|b0|i0|c128|p49;18}
 11
6.123031769111886E-17
 21
1.0
 31
0.0
 73
     1
 44
1.0
  0
MTEXT
  5
3B8
330
1F
100
AcDbEntity
  8
0-B_寸法
  6
Continuous
 62
     7
370
   211
100
AcDbMText
 10
-3759.869256865861
 20
-2784.520741168255
 30
0.0
 40
91.44
 41
120.0
 46
0.0
 71
     7
 72
     1
  1
{\fＭＳ ゴシック|b0|i0|c128|p49;20}
 11
6.123031769111886E-17
 21
1.0
 31
0.0
 73
     1
 44
1.0
  0
MTEXT
  5
3B9
330
1F
100
AcDbEntity
  8
0-A_文字
  6
Continuous
 62
     7
370
     9
100
AcDbMText
 10
-4311.039221303347
 20
341.6364576378734
 30
0.0
 40
91.44
 41
600.0
 46
0.0
 71
     7
 72
     1
  1
{\fＭＳ ゴシック|b0|i0|c128|p49;■縦断面図}
 73
     1
 44
1.0
  0
LINE
  5
3BA
330
1F
100
AcDbEntity
  8
0-B_寸法
  6
Continuous
 62
   120
370
     5
100
AcDbLine
 10
-2358.869256865857
 20
-2763.000404213941
 30
0.0
 11
-2358.869256865857
 21
-333.0004042139652
 31
0.0
  0
LINE
  5
3BB
330
1F
100
AcDbEntity
  8
0-B_寸法
  6
Continuous
 62
   120
370
     5
100
AcDbLine
 10
-2358.869256865857
 20
-2781.000404213941
 30
0.0
 11
-2358.869256865857
 21
-2763.000404213941
 31
0.0
  0
LWPOLYLINE
  5
3BC
330
1F
100
AcDbEntity
  8
0-B_寸法
  6
Continuous
 62
     7
370
     9
100
AcDbPolyline
 90
        4
 70
     1
 43
3.0
 10
-2567.369256865857
 20
-333.0004042139652
 42
0.4142135623731
 10
-2568.869256865857
 20
-331.5004042139652
 42
0.4142135623731
 10
-2570.369256865857
 20
-333.0004042139652
 42
0.4142135623731
 10
-2568.869256865857
 20
-334.5004042139652
 42
0.4142135623731
  0
LINE
  5
3BD
330
1F
100
AcDbEntity
  8
0-B_寸法
  6
Continuous
 62
   120
370
     5
100
AcDbLine
 10
-2358.869256865857
 20
-333.0004042139652
 30
0.0
 11
-2988.869256865857
 21
-333.0004042139652
 31
0.0
  0
LWPOLYLINE
  5
3BE
330
1F
100
AcDbEntity
  8
0-B_寸法
  6
Continuous
 62
     7
370
     9
100
AcDbPolyline
 90
        4
 70
     1
 43
3.0
 10
-2357.369256865857
 20
-2781.000404213941
 42
0.4142135623731
 10
-2358.869256865857
 20
-2779.500404213941
 42
0.4142135623731
 10
-2360.369256865857
 20
-2781.000404213941
 42
0.4142135623731
 10
-2358.869256865857
 20
-2782.500404213941
 42
0.4142135623731
  0
LINE
  5
3BF
330
1F
100
AcDbEntity
  8
0-B_寸法
  6
Continuous
 62
   120
370
     5
100
AcDbLine
 10
-2148.869256865857
 20
-2781.000404213941
 30
0.0
 11
-2988.869256865857
 21
-2781.000404213941
 31
0.0
  0
LWPOLYLINE
  5
3C0
330
1F
100
AcDbEntity
  8
0-B_寸法
  6
Continuous
 62
     7
370
     9
100
AcDbPolyline
 90
        4
 70
     1
 43
3.0
 10
-2357.369256865857
 20
-333.0004042139652
 42
0.4142135623731
 10
-2358.869256865857
 20
-331.5004042139652
 42
0.4142135623731
 10
-2360.369256865857
 20
-333.0004042139652
 42
0.4142135623731
 10
-2358.869256865857
 20
-334.5004042139652
 42
0.4142135623731
  0
LINE
  5
3C1
330
1F
100
AcDbEntity
  8
0-B_寸法
  6
Continuous
 62
   120
370
     5
100
AcDbLine
 10
-2358.869256865857
 20
-153.0004042139652
 30
0.0
 11
-2358.869256865857
 21
-333.0004042139652
 31
0.0
  0
LWPOLYLINE
  5
3C2
330
1F
100
AcDbEntity
  8
0-B_寸法
  6
Continuous
 62
     7
370
     9
100
AcDbPolyline
 90
        4
 70
     1
 43
3.0
 10
-2357.369256865857
 20
-153.0004042139652
 42
0.4142135623731
 10
-2358.869256865857
 20
-151.5004042139652
 42
0.4142135623731
 10
-2360.369256865857
 20
-153.0004042139652
 42
0.4142135623731
 10
-2358.869256865857
 20
-154.5004042139652
 42
0.4142135623731
  0
LINE
  5
3C3
330
1F
100
AcDbEntity
  8
0-B_寸法
  6
Continuous
 62
   120
370
     5
100
AcDbLine
 10
-2148.869256865857
 20
-153.0004042139652
 30
0.0
 11
-2988.869256865857
 21
-153.0004042139652
 31
0.0
  0
LINE
  5
3C4
330
1F
100
AcDbEntity
  8
0-B_寸法
  6
Continuous
 62
   120
370
     5
100
AcDbLine
 10
-2148.869256865857
 20
-2853.000404213941
 30
0.0
 11
-2148.869256865857
 21
-2781.000404213941
 31
0.0
  0
LWPOLYLINE
  5
3C5
330
1F
100
AcDbEntity
  8
0-B_寸法
  6
Continuous
 62
     7
370
     9
100
AcDbPolyline
 90
        4
 70
     1
 43
3.0
 10
-2147.369256865857
 20
-2853.000404213941
 42
0.4142135623731
 10
-2148.869256865857
 20
-2851.500404213941
 42
0.4142135623731
 10
-2150.369256865857
 20
-2853.000404213941
 42
0.4142135623731
 10
-2148.869256865857
 20
-2854.500404213941
 42
0.4142135623731
  0
LWPOLYLINE
  5
3C6
330
1F
100
AcDbEntity
  8
0-B_寸法
  6
Continuous
 62
     7
370
     9
100
AcDbPolyline
 90
        4
 70
     1
 43
3.0
 10
-2147.369256865857
 20
-2781.000404213941
 42
0.4142135623731
 10
-2148.869256865857
 20
-2779.500404213941
 42
0.4142135623731
 10
-2150.369256865857
 20
-2781.000404213941
 42
0.4142135623731
 10
-2148.869256865857
 20
-2782.500404213941
 42
0.4142135623731
  0
LINE
  5
3C7
330
1F
100
AcDbEntity
  8
0-B_寸法
  6
Continuous
 62
   120
370
     5
100
AcDbLine
 10
-2148.869256865857
 20
-2853.000404213941
 30
0.0
 11
-2988.869256865857
 21
-2853.000404213941
 31
0.0
  0
LINE
  5
3C8
330
1F
100
AcDbEntity
  8
0-B_寸法
  6
Continuous
 62
   120
370
     5
100
AcDbLine
 10
-2148.869256865857
 20
-2781.000404213941
 30
0.0
 11
-2148.869256865857
 21
-153.0004042139652
 31
0.0
  0
LWPOLYLINE
  5
3C9
330
1F
100
AcDbEntity
  8
0-B_寸法
  6
Continuous
 62
     7
370
     9
100
AcDbPolyline
 90
        4
 70
     1
 43
3.0
 10
-2147.369256865857
 20
-153.0004042139652
 42
0.4142135623731
 10
-2148.869256865857
 20
-151.5004042139652
 42
0.4142135623731
 10
-2150.369256865857
 20
-153.0004042139652
 42
0.4142135623731
 10
-2148.869256865857
 20
-154.5004042139652
 42
0.4142135623731
  0
LWPOLYLINE
  5
3CA
330
1F
100
AcDbEntity
  8
0-B_寸法
  6
Continuous
 62
     7
370
     9
100
AcDbPolyline
 90
        4
 70
     1
 43
3.0
 10
-2777.369256865857
 20
-376.2004039293817
 42
0.4142135623731
 10
-2778.869256865857
 20
-374.7004039293817
 42
0.4142135623731
 10
-2780.369256865857
 20
-376.2004039293817
 42
0.4142135623731
 10
-2778.869256865857
 20
-377.7004039293817
 42
0.4142135623731
  0
LINE
  5
3CB
330
1F
100
AcDbEntity
  8
0-B_寸法
  6
Continuous
 62
   120
370
     5
100
AcDbLine
 10
-2778.869256865857
 20
-376.2004039293817
 30
0.0
 11
-2988.869256865857
 21
-376.2004039293817
 31
0.0
  0
LINE
  5
3CC
330
1F
100
AcDbEntity
  8
0-B_寸法
  6
Continuous
 62
   120
370
     5
100
AcDbLine
 10
-2778.869256865857
 20
-376.2004039293817
 30
0.0
 11
-2778.869256865857
 21
-414.0004035815585
 31
0.0
  0
LWPOLYLINE
  5
3CD
330
1F
100
AcDbEntity
  8
0-B_寸法
  6
Continuous
 62
     7
370
     9
100
AcDbPolyline
 90
        4
 70
     1
 43
3.0
 10
-2777.369256865857
 20
-414.0004035815585
 42
0.4142135623731
 10
-2778.869256865857
 20
-412.5004035815585
 42
0.4142135623731
 10
-2780.369256865857
 20
-414.0004035815585
 42
0.4142135623731
 10
-2778.869256865857
 20
-415.5004035815585
 42
0.4142135623731
  0
LINE
  5
3CE
330
1F
100
AcDbEntity
  8
0-B_寸法
  6
Continuous
 62
   120
370
     5
100
AcDbLine
 10
-2568.869256865857
 20
-414.0004035815585
 30
0.0
 11
-2988.869256865857
 21
-414.0004035815585
 31
0.0
  0
LINE
  5
3CF
330
1F
100
AcDbEntity
  8
0-B_寸法
  6
Continuous
 62
   120
370
     5
100
AcDbLine
 10
-2568.869256865857
 20
-333.0004042139652
 30
0.0
 11
-2568.869256865857
 21
-414.0004035815585
 31
0.0
  0
LWPOLYLINE
  5
3D0
330
1F
100
AcDbEntity
  8
0-B_寸法
  6
Continuous
 62
     7
370
     9
100
AcDbPolyline
 90
        4
 70
     1
 43
3.0
 10
-2567.369256865857
 20
-414.0004035815585
 42
0.4142135623731
 10
-2568.869256865857
 20
-412.5004035815585
 42
0.4142135623731
 10
-2570.369256865857
 20
-414.0004035815585
 42
0.4142135623731
 10
-2568.869256865857
 20
-415.5004035815585
 42
0.4142135623731
  0
LINE
  5
3D1
330
1F
100
AcDbEntity
  8
0-B_寸法
  6
Continuous
 62
   120
370
     5
100
AcDbLine
 10
-2568.869256865857
 20
-414.0004035815585
 30
0.0
 11
-2568.869256865857
 21
-2730.000404213942
 31
0.0
  0
LINE
  5
3D2
330
1F
100
AcDbEntity
  8
0-B_寸法
  6
Continuous
 62
   120
370
     5
100
AcDbLine
 10
-2568.869256865857
 20
-2730.000404213942
 30
0.0
 11
-2988.869256865857
 21
-2730.000404213942
 31
0.0
  0
LWPOLYLINE
  5
3D3
330
1F
100
AcDbEntity
  8
0-B_寸法
  6
Continuous
 62
     7
370
     9
100
AcDbPolyline
 90
        4
 70
     1
 43
3.0
 10
-2567.369256865857
 20
-2730.000404213942
 42
0.4142135623731
 10
-2568.869256865857
 20
-2728.500404213942
 42
0.4142135623731
 10
-2570.369256865857
 20
-2730.000404213942
 42
0.4142135623731
 10
-2568.869256865857
 20
-2731.500404213941
 42
0.4142135623731
  0
LWPOLYLINE
  5
3D4
330
1F
100
AcDbEntity
  8
0-B_寸法
  6
Continuous
 62
     7
370
     9
100
AcDbPolyline
 90
        4
 70
     1
 43
3.0
 10
-2567.369256865857
 20
-2781.000404213941
 42
0.4142135623731
 10
-2568.869256865857
 20
-2779.500404213941
 42
0.4142135623731
 10
-2570.369256865857
 20
-2781.000404213941
 42
0.4142135623731
 10
-2568.869256865857
 20
-2782.500404213941
 42
0.4142135623731
  0
LINE
  5
3D5
330
1F
100
AcDbEntity
  8
0-B_寸法
  6
Continuous
 62
   120
370
     5
100
AcDbLine
 10
-2568.869256865857
 20
-2730.000404213942
 30
0.0
 11
-2568.869256865857
 21
-2781.000404213941
 31
0.0
  0
MTEXT
  5
3D6
330
1F
100
AcDbEntity
  8
0-B_寸法
  6
Continuous
 62
     7
370
   211
100
AcDbMText
 10
-2373.869256865857
 20
-318.1729042139652
 30
0.0
 40
97.15499999999999
 41
127.5
 46
0.0
 71
     7
 72
     1
  1
{\fＭＳ ゴシック|b0|i0|c128|p49;30}
 11
6.123031769111886E-17
 21
1.0
 31
0.0
 73
     1
 44
1.0
  0
MTEXT
  5
3D7
330
1F
100
AcDbEntity
  8
0-B_寸法
  6
Continuous
 62
     7
370
   211
100
AcDbMText
 10
-2793.869256865857
 20
-637.4704035815583
 30
0.0
 40
99.06
 41
195.0
 46
0.0
 71
     7
 72
     1
  1
{\fＭＳ ゴシック|b0|i0|c128|p49;6.3}
 11
6.123031769111886E-17
 21
1.0
 31
0.0
 73
     1
 44
1.0
  0
MTEXT
  5
3D8
330
1F
100
AcDbEntity
  8
0-B_寸法
  6
Continuous
 62
     7
370
   211
100
AcDbMText
 10
-2583.869256865857
 20
-704.4941535815583
 30
0.0
 40
100.0125
 41
262.5
 46
0.0
 71
     7
 72
     1
  1
{\fＭＳ ゴシック|b0|i0|c128|p49;13.5}
 11
6.123031769111886E-17
 21
1.0
 31
0.0
 73
     1
 44
1.0
  0
MTEXT
  5
3D9
330
1F
100
AcDbEntity
  8
0-B_寸法
  6
Continuous
 62
     7
370
   211
100
AcDbMText
 10
-2583.869256865857
 20
-1915.584949668506
 30
0.0
 40
101.8309090909091
 41
735.0
 46
0.0
 71
     7
 72
     1
  1
{\fＭＳ ゴシック|b0|i0|c128|p49;ＤＨ＝1,983}
 11
6.123031769111886E-17
 21
1.0
 31
0.0
 73
     1
 44
1.0
  0
MTEXT
  5
3DA
330
1F
100
AcDbEntity
  8
0-B_寸法
  6
Continuous
 62
     7
370
   211
100
AcDbMText
 10
-2373.869256865857
 20
-1915.584949668506
 30
0.0
 40
101.8309090909091
 41
735.0
 46
0.0
 71
     7
 72
     1
  1
{\fＭＳ ゴシック|b0|i0|c128|p49;枠内＝2,005}
 11
6.123031769111886E-17
 21
1.0
 31
0.0
 73
     1
 44
1.0
  0
MTEXT
  5
3DB
330
1F
100
AcDbEntity
  8
0-B_寸法
  6
Continuous
 62
     7
370
   211
100
AcDbMText
 10
-2163.869256865857
 20
-1915.584949668506
 30
0.0
 40
101.8309090909091
 41
735.0
 46
0.0
 71
     7
 72
     1
  1
{\fＭＳ ゴシック|b0|i0|c128|p49;枠外＝2,035}
 11
6.123031769111886E-17
 21
1.0
 31
0.0
 73
     1
 44
1.0
  0
MTEXT
  5
3DC
330
1F
100
AcDbEntity
  8
0-B_寸法
  6
Continuous
 62
     7
370
   211
100
AcDbMText
 10
-2583.869256865857
 20
-2728.470404213941
 30
0.0
 40
99.06
 41
195.0
 46
0.0
 71
     7
 72
     1
  1
{\fＭＳ ゴシック|b0|i0|c128|p49;8.5}
 11
6.123031769111886E-17
 21
1.0
 31
0.0
 73
     1
 44
1.0
  0
MTEXT
  5
3DD
330
1F
100
AcDbEntity
  8
0-B_寸法
  6
Continuous
 62
     7
370
   211
100
AcDbMText
 10
-2163.869256865857
 20
-3003.922904213942
 30
0.0
 40
97.15499999999999
 41
127.5
 46
0.0
 71
     7
 72
     1
  1
{\fＭＳ ゴシック|b0|i0|c128|p49;12}
 11
6.123031769111886E-17
 21
1.0
 31
0.0
 73
     1
 44
1.0
  0
LINE
  5
3DE
330
1F
100
AcDbEntity
  8
0-A_文字
  6
Continuous
 62
    92
370
    13
100
AcDbLine
 10
-5659.999495325861
 20
3730.00018145587
 30
0.0
 11
-5659.999495325861
 21
4000.00018145587
 31
0.0
  0
MTEXT
  5
3DF
330
1F
100
AcDbEntity
  8
0-A_文字
  6
Continuous
 62
    92
370
    13
100
AcDbMText
 10
-5509.999495325862
 20
3758.959004985282
 30
0.0
 40
147.9176470588236
 41
3300.000000000001
 46
0.0
 71
     7
 72
     1
  1
{\fＭＳ ゴシック|b0|i0|c128|p49;片引き戸　上吊りタイプ　固定枠90巾}
 73
     1
 44
1.0
  0
LINE
  5
3E0
330
1F
100
AcDbEntity
  8
0-A_文字
  6
Continuous
 62
    92
370
    13
100
AcDbLine
 10
-5659.999495325861
 20
3730.00018145587
 30
0.0
 11
-2100.0
 21
3730.00018145587
 31
0.0
  0
LINE
  5
3E1
330
1F
100
AcDbEntity
  8
0-A_文字
  6
Continuous
 62
    92
370
    13
100
AcDbLine
 10
-5659.999495325861
 20
4000.00018145587
 30
0.0
 11
-2100.0
 21
4000.00018145587
 31
0.0
  0
LINE
  5
3E2
330
1F
100
AcDbEntity
  8
0-A_文字
  6
Continuous
 62
    92
370
    13
100
AcDbLine
 10
-2100.0
 20
3730.00018145587
 30
0.0
 11
-2100.0
 21
4000.00018145587
 31
0.0
  0
MTEXT
  5
3E3
330
1F
100
AcDbEntity
  8
F-A_文字
  6
Continuous
 62
     7
370
     9
100
AcDbMText
 10
5096.167700144058
 20
-4147.857012699985
 30
0.0
 40
74.295
 41
97.5
 46
0.0
 71
     7
 72
     1
  1
{\fＭＳ ゴシック|b0|i0|c128|p49;01}
 73
     1
 44
1.0
  0
LINE
  5
3E4
330
1F
100
AcDbEntity
  8
1-4_枠
  6
JWW_CENTER1
 62
   120
370
     5
100
AcDbLine
 10
3790.301891438811
 20
-2832.675423701151
 30
0.0
 11
3790.301891438811
 21
-3282.675423701151
 31
0.0
  0
LINE
  5
3E5
330
1F
100
AcDbEntity
  8
1-B_寸法
  6
Continuous
 62
   120
370
     5
100
AcDbLine
 10
3563.411955753229
 20
-2637.675423701151
 30
0.0
 11
3677.801891438811
 21
-2637.675423701151
 31
0.0
  0
LINE
  5
3E6
330
1F
100
AcDbEntity
  8
1-B_寸法
  6
Continuous
 62
   120
370
     5
100
AcDbLine
 10
3902.801891438811
 20
-2637.675423701151
 30
0.0
 11
3902.801891438811
 21
-2757.675423701151
 31
0.0
  0
LWPOLYLINE
  5
3E7
330
1F
100
AcDbEntity
  8
1-B_寸法
  6
Continuous
 62
     7
370
     9
100
AcDbPolyline
 90
        4
 70
     1
 43
3.0
 10
3904.301891438811
 20
-2637.675423701151
 42
0.4142135623731
 10
3902.801891438811
 20
-2636.175423701151
 42
0.4142135623731
 10
3901.301891438811
 20
-2637.675423701151
 42
0.4142135623731
 10
3902.801891438811
 20
-2639.175423701151
 42
0.4142135623731
  0
LINE
  5
3E8
330
1F
100
AcDbEntity
  8
1-B_寸法
  6
Continuous
 62
   120
370
     5
100
AcDbLine
 10
3677.801891438811
 20
-2637.675423701151
 30
0.0
 11
3902.801891438811
 21
-2637.675423701151
 31
0.0
  0
LINE
  5
3E9
330
1F
100
AcDbEntity
  8
1-B_寸法
  6
Continuous
 62
   120
370
     5
100
AcDbLine
 10
3677.801891438811
 20
-2637.675423701151
 30
0.0
 11
3677.801891438811
 21
-2757.675423701151
 31
0.0
  0
LINE
  5
3EA
330
1F
100
AcDbEntity
  8
1-B_寸法
  6
Continuous
 62
   120
370
     5
100
AcDbLine
 10
3632.801891438811
 20
-2637.675423701151
 30
0.0
 11
3632.801891438811
 21
-2757.675423701151
 31
0.0
  0
LWPOLYLINE
  5
3EB
330
1F
100
AcDbEntity
  8
1-B_寸法
  6
Continuous
 62
     7
370
     9
100
AcDbPolyline
 90
        4
 70
     1
 43
3.0
 10
3679.301891438811
 20
-2637.675423701151
 42
0.4142135623731
 10
3677.801891438811
 20
-2636.175423701151
 42
0.4142135623731
 10
3676.301891438811
 20
-2637.675423701151
 42
0.4142135623731
 10
3677.801891438811
 20
-2639.175423701151
 42
0.4142135623731
  0
LWPOLYLINE
  5
3EC
330
1F
100
AcDbEntity
  8
1-B_寸法
  6
Continuous
 62
     7
370
     9
100
AcDbPolyline
 90
        4
 70
     1
 43
3.0
 10
3634.301891438811
 20
-2637.675423701151
 42
0.4142135623731
 10
3632.801891438811
 20
-2636.175423701151
 42
0.4142135623731
 10
3631.301891438811
 20
-2637.675423701151
 42
0.4142135623731
 10
3632.801891438811
 20
-2639.175423701151
 42
0.4142135623731
  0
LINE
  5
3ED
330
1F
100
AcDbEntity
  8
1-B_寸法
  6
Continuous
 62
   120
370
     5
100
AcDbLine
 10
3632.801891438811
 20
-2535.028182171137
 30
0.0
 11
3632.801891438811
 21
-2637.675423701151
 31
0.0
  0
LWPOLYLINE
  5
3EE
330
1F
100
AcDbEntity
  8
1-B_寸法
  6
Continuous
 62
     7
370
     9
100
AcDbPolyline
 90
        4
 70
     1
 43
3.0
 10
3634.301891438811
 20
-2535.028182171137
 42
0.4142135623731
 10
3632.801891438811
 20
-2533.528182171138
 42
0.4142135623731
 10
3631.301891438811
 20
-2535.028182171137
 42
0.4142135623731
 10
3632.801891438811
 20
-2536.528182171137
 42
0.4142135623731
  0
LINE
  5
3EF
330
1F
100
AcDbEntity
  8
1-B_寸法
  6
Continuous
 62
   120
370
     5
100
AcDbLine
 10
3632.801891438811
 20
-2535.028182171137
 30
0.0
 11
3902.801891438811
 21
-2535.028182171137
 31
0.0
  0
LINE
  5
3F0
330
1F
100
AcDbEntity
  8
1-B_寸法
  6
Continuous
 62
   120
370
     5
100
AcDbLine
 10
3902.801891438811
 20
-2535.028182171137
 30
0.0
 11
3902.801891438811
 21
-2637.675423701151
 31
0.0
  0
LWPOLYLINE
  5
3F1
330
1F
100
AcDbEntity
  8
1-B_寸法
  6
Continuous
 62
     7
370
     9
100
AcDbPolyline
 90
        4
 70
     1
 43
3.0
 10
3904.301891438811
 20
-2535.028182171137
 42
0.4142135623731
 10
3902.801891438811
 20
-2533.528182171138
 42
0.4142135623731
 10
3901.301891438811
 20
-2535.028182171137
 42
0.4142135623731
 10
3902.801891438811
 20
-2536.528182171137
 42
0.4142135623731
  0
LINE
  5
3F2
330
1F
100
AcDbEntity
  8
1-B_寸法
  6
Continuous
 62
   120
370
     5
100
AcDbLine
 10
3480.504694146146
 20
-3282.675423701151
 30
0.0
 11
3480.504694146146
 21
-2832.675423701151
 31
0.0
  0
LINE
  5
3F3
330
1F
100
AcDbEntity
  8
1-B_寸法
  6
Continuous
 62
   120
370
     5
100
AcDbLine
 10
3480.504694146146
 20
-2832.675423701151
 30
0.0
 11
3577.57757552229
 21
-2832.675423701151
 31
0.0
  0
LWPOLYLINE
  5
3F4
330
1F
100
AcDbEntity
  8
1-B_寸法
  6
Continuous
 62
     7
370
     9
100
AcDbPolyline
 90
        4
 70
     1
 43
3.0
 10
3482.004694146146
 20
-2832.675423701151
 42
0.4142135623731
 10
3480.504694146146
 20
-2831.175423701151
 42
0.4142135623731
 10
3479.004694146146
 20
-2832.675423701151
 42
0.4142135623731
 10
3480.504694146146
 20
-2834.175423701151
 42
0.4142135623731
  0
LINE
  5
3F5
330
1F
100
AcDbEntity
  8
1-7_金物
  6
Continuous
 62
     7
370
     9
100
AcDbLine
 10
3767.801891438811
 20
-3132.675423701151
 30
0.0
 11
3812.801891438811
 21
-3132.675423701151
 31
0.0
  0
LINE
  5
3F6
330
1F
100
AcDbEntity
  8
1-7_金物
  6
Continuous
 62
     7
370
     9
100
AcDbLine
 10
3812.801891438811
 20
-3162.675423701151
 30
0.0
 11
3767.801891438811
 21
-3162.675423701151
 31
0.0
  0
LINE
  5
3F7
330
1F
100
AcDbEntity
  8
1-7_金物
  6
Continuous
 62
     7
370
     9
100
AcDbLine
 10
3767.801891438811
 20
-3222.675423701151
 30
0.0
 11
3812.801891438811
 21
-3222.675423701151
 31
0.0
  0
LINE
  5
3F8
330
1F
100
AcDbEntity
  8
1-7_金物
  6
Continuous
 62
     7
370
     9
100
AcDbLine
 10
3767.801891438811
 20
-3252.675423701151
 30
0.0
 11
3812.801891438811
 21
-3252.675423701151
 31
0.0
  0
LINE
  5
3F9
330
1F
100
AcDbEntity
  8
1-7_金物
  6
Continuous
 62
     7
370
     9
100
AcDbLine
 10
3812.801891438811
 20
-2982.675423701151
 30
0.0
 11
3767.801891438811
 21
-2982.675423701151
 31
0.0
  0
LINE
  5
3FA
330
1F
100
AcDbEntity
  8
1-7_金物
  6
Continuous
 62
     7
370
     9
100
AcDbLine
 10
3812.801891438811
 20
-2862.675423701151
 30
0.0
 11
3767.801891438811
 21
-2862.675423701151
 31
0.0
  0
LINE
  5
3FB
330
1F
100
AcDbEntity
  8
1-7_金物
  6
Continuous
 62
     7
370
     9
100
AcDbLine
 10
3812.801891438811
 20
-2892.675423701151
 30
0.0
 11
3767.801891438811
 21
-2892.675423701151
 31
0.0
  0
LINE
  5
3FC
330
1F
100
AcDbEntity
  8
1-7_金物
  6
Continuous
 62
     7
370
     9
100
AcDbLine
 10
3767.801891438811
 20
-2952.675423701151
 30
0.0
 11
3812.801891438811
 21
-2952.675423701151
 31
0.0
  0
ARC
  5
3FD
330
1F
100
AcDbEntity
  8
1-7_金物
  6
Continuous
 62
     7
370
     9
100
AcDbCircle
 10
3767.801891438811
 20
-3192.675423701151
 30
0.0
 40
30.0
100
AcDbArc
 50
90.0
 51
270.0
  0
ARC
  5
3FE
330
1F
100
AcDbEntity
  8
1-7_金物
  6
Continuous
 62
     7
370
     9
100
AcDbCircle
 10
3767.801891438811
 20
-3192.675423701151
 30
0.0
 40
60.0
100
AcDbArc
 50
90.0
 51
270.0
  0
ARC
  5
3FF
330
1F
100
AcDbEntity
  8
1-7_金物
  6
Continuous
 62
     7
370
     9
100
AcDbCircle
 10
3767.801891438811
 20
-2922.675423701151
 30
0.0
 40
30.0
100
AcDbArc
 50
90.0
 51
270.0
  0
ARC
  5
400
330
1F
100
AcDbEntity
  8
1-7_金物
  6
Continuous
 62
     7
370
     9
100
AcDbCircle
 10
3767.801891438811
 20
-2922.675423701151
 30
0.0
 40
60.0
100
AcDbArc
 50
90.0
 51
270.0
  0
ARC
  5
401
330
1F
100
AcDbEntity
  8
1-7_金物
  6
Continuous
 62
     7
370
     9
100
AcDbCircle
 10
3812.801891438811
 20
-3192.675423701151
 30
0.0
 40
30.0
100
AcDbArc
 50
270.0
 51
90.0
  0
ARC
  5
402
330
1F
100
AcDbEntity
  8
1-7_金物
  6
Continuous
 62
     7
370
     9
100
AcDbCircle
 10
3812.801891438811
 20
-2922.675423701151
 30
0.0
 40
30.0
100
AcDbArc
 50
270.0
 51
90.0
  0
ARC
  5
403
330
1F
100
AcDbEntity
  8
1-7_金物
  6
Continuous
 62
     7
370
     9
100
AcDbCircle
 10
3812.801891438811
 20
-2922.675423701151
 30
0.0
 40
60.0
100
AcDbArc
 50
270.0
 51
90.0
  0
ARC
  5
404
330
1F
100
AcDbEntity
  8
1-7_金物
  6
Continuous
 62
     7
370
     9
100
AcDbCircle
 10
3812.801891438811
 20
-3192.675423701151
 30
0.0
 40
60.0
100
AcDbArc
 50
270.0
 51
90.0
  0
LINE
  5
405
330
1F
100
AcDbEntity
  8
1-7_金物
  6
Continuous
 62
     7
370
     9
100
AcDbLine
 10
3707.801891438811
 20
-2832.675423701151
 30
0.0
 11
3872.801891438811
 21
-2832.675423701151
 31
0.0
  0
LINE
  5
406
330
1F
100
AcDbEntity
  8
1-7_金物
  6
Continuous
 62
     7
370
     9
100
AcDbLine
 10
3872.801891438811
 20
-3282.675423701151
 30
0.0
 11
3707.801891438811
 21
-3282.675423701151
 31
0.0
  0
ARC
  5
407
330
1F
100
AcDbEntity
  8
1-7_金物
  6
Continuous
 62
     7
370
     9
100
AcDbCircle
 10
3872.801891438811
 20
-3252.675423701151
 30
0.0
 40
30.0
100
AcDbArc
 50
270.0
 51
0.0
  0
LINE
  5
408
330
1F
100
AcDbEntity
  8
1-7_金物
  6
Continuous
 62
     7
370
     9
100
AcDbLine
 10
3902.801891438811
 20
-3252.675423701151
 30
0.0
 11
3902.801891438811
 21
-2862.675423701151
 31
0.0
  0
ARC
  5
409
330
1F
100
AcDbEntity
  8
1-7_金物
  6
Continuous
 62
     7
370
     9
100
AcDbCircle
 10
3872.801891438811
 20
-2862.675423701151
 30
0.0
 40
30.0
100
AcDbArc
 50
0.0
 51
90.0
  0
ARC
  5
40A
330
1F
100
AcDbEntity
  8
1-7_金物
  6
Continuous
 62
     7
370
     9
100
AcDbCircle
 10
3707.801891438811
 20
-3252.675423701151
 30
0.0
 40
30.0
100
AcDbArc
 50
180.0
 51
270.0
  0
LINE
  5
40B
330
1F
100
AcDbEntity
  8
1-7_金物
  6
Continuous
 62
     7
370
     9
100
AcDbLine
 10
3677.801891438811
 20
-3252.675423701151
 30
0.0
 11
3677.801891438811
 21
-2862.675423701151
 31
0.0
  0
ARC
  5
40C
330
1F
100
AcDbEntity
  8
1-7_金物
  6
Continuous
 62
     7
370
     9
100
AcDbCircle
 10
3707.801891438811
 20
-2862.675423701151
 30
0.0
 40
30.0
100
AcDbArc
 50
90.0
 51
180.0
  0
ARC
  5
40D
330
1F
100
AcDbEntity
  8
1-7_金物
  6
Continuous
 62
     7
370
     9
100
AcDbCircle
 10
3670.301891438811
 20
-2975.175423701151
 30
0.0
 40
7.5
100
AcDbArc
 50
0.0
 51
90.0
  0
LINE
  5
40E
330
1F
100
AcDbEntity
  8
1-7_金物
  6
Continuous
 62
     7
370
     9
100
AcDbLine
 10
3670.301891438811
 20
-2967.675423701151
 30
0.0
 11
3640.301891438811
 21
-2967.675423701151
 31
0.0
  0
ARC
  5
40F
330
1F
100
AcDbEntity
  8
1-7_金物
  6
Continuous
 62
     7
370
     9
100
AcDbCircle
 10
3670.301891438811
 20
-3140.175423701151
 30
0.0
 40
7.5
100
AcDbArc
 50
270.0
 51
0.0
  0
LINE
  5
410
330
1F
100
AcDbEntity
  8
1-7_金物
  6
Continuous
 62
     7
370
     9
100
AcDbLine
 10
3670.301891438811
 20
-3147.675423701151
 30
0.0
 11
3640.301891438811
 21
-3147.675423701151
 31
0.0
  0
ARC
  5
411
330
1F
100
AcDbEntity
  8
1-7_金物
  6
Continuous
 62
     7
370
     9
100
AcDbCircle
 10
3640.301891438811
 20
-3140.175423701151
 30
0.0
 40
7.5
100
AcDbArc
 50
180.0
 51
270.0
  0
LINE
  5
412
330
1F
100
AcDbEntity
  8
1-7_金物
  6
Continuous
 62
     7
370
     9
100
AcDbLine
 10
3632.801891438811
 20
-3140.175423701151
 30
0.0
 11
3632.801891438811
 21
-2975.175423701151
 31
0.0
  0
ARC
  5
413
330
1F
100
AcDbEntity
  8
1-7_金物
  6
Continuous
 62
     7
370
     9
100
AcDbCircle
 10
3640.301891438811
 20
-2975.175423701151
 30
0.0
 40
7.5
100
AcDbArc
 50
90.0
 51
180.0
  0
LINE
  5
414
330
1F
100
AcDbEntity
  8
1-B_寸法
  6
Continuous
 62
   120
370
     5
100
AcDbLine
 10
3480.504694146146
 20
-3282.675423701151
 30
0.0
 11
3577.57757552229
 21
-3282.675423701151
 31
0.0
  0
LWPOLYLINE
  5
415
330
1F
100
AcDbEntity
  8
1-B_寸法
  6
Continuous
 62
     7
370
     9
100
AcDbPolyline
 90
        4
 70
     1
 43
3.0
 10
3482.004694146146
 20
-3282.675423701151
 42
0.4142135623731
 10
3480.504694146146
 20
-3281.175423701151
 42
0.4142135623731
 10
3479.004694146146
 20
-3282.675423701151
 42
0.4142135623731
 10
3480.504694146146
 20
-3284.175423701151
 42
0.4142135623731
  0
LWPOLYLINE
  5
416
330
1F
100
AcDbEntity
  8
1-B_寸法
  6
Continuous
 62
     7
370
     9
100
AcDbPolyline
 90
        4
 70
     1
 43
3.0
 10
3904.301891438811
 20
-3477.771559770665
 42
0.4142135623731
 10
3902.801891438811
 20
-3476.271559770665
 42
0.4142135623731
 10
3901.301891438811
 20
-3477.771559770665
 42
0.4142135623731
 10
3902.801891438811
 20
-3479.271559770665
 42
0.4142135623731
  0
LINE
  5
417
330
1F
100
AcDbEntity
  8
1-B_寸法
  6
Continuous
 62
   120
370
     5
100
AcDbLine
 10
3902.801891438811
 20
-3357.675423701151
 30
0.0
 11
3902.801891438811
 21
-3477.771559770665
 31
0.0
  0
LINE
  5
418
330
1F
100
AcDbEntity
  8
0-A_文字
  6
Continuous
 62
   120
370
     5
100
AcDbLine
 10
3830.245203155835
 20
-2936.246932575998
 30
0.0
 11
3957.588519850232
 21
-2748.043923200726
 31
0.0
  0
MTEXT
  5
419
330
1F
100
AcDbEntity
  8
1-A_文字
  6
Continuous
 62
     7
370
     9
100
AcDbMText
 10
3954.014451130745
 20
-2749.759439645277
 30
0.0
 40
68.58
 41
810.0
 46
0.0
 71
     7
 72
     1
  1
{\fＭＳ ゴシック|b0|i0|c128|p49;振れ止め金具(床用)}
 73
     1
 44
1.0
  0
MTEXT
  5
41A
330
1F
100
AcDbEntity
  8
1-B_寸法
  6
Continuous
 62
     7
370
   211
100
AcDbMText
 10
3707.801891438811
 20
-2534.308182171138
 30
0.0
 40
91.44
 41
120.0
 46
0.0
 71
     7
 72
     1
  1
{\fＭＳ ゴシック|b0|i0|c128|p49;18}
 73
     1
 44
1.0
  0
MTEXT
  5
41B
330
1F
100
AcDbEntity
  8
1-B_寸法
  6
Continuous
 62
     7
370
   211
100
AcDbMText
 10
3563.411955753229
 20
-2786.955423701151
 30
0.0
 40
91.44
 41
60.0
 46
0.0
 71
     7
 72
     1
  1
{\fＭＳ ゴシック|b0|i0|c128|p49;3}
 73
     1
 44
1.0
  0
MTEXT
  5
41C
330
1F
100
AcDbEntity
  8
1-B_寸法
  6
Continuous
 62
     7
370
   211
100
AcDbMText
 10
3741.551891438811
 20
-2786.955423701151
 30
0.0
 40
91.44
 41
120.0
 46
0.0
 71
     7
 72
     1
  1
{\fＭＳ ゴシック|b0|i0|c128|p49;15}
 73
     1
 44
1.0
  0
MTEXT
  5
41D
330
1F
100
AcDbEntity
  8
1-B_寸法
  6
Continuous
 62
     7
370
   211
100
AcDbMText
 10
3465.504694146146
 20
-3131.955423701151
 30
0.0
 40
91.44
 41
120.0
 46
0.0
 71
     7
 72
     1
  1
{\fＭＳ ゴシック|b0|i0|c128|p49;30}
 11
6.123031769111886E-17
 21
1.0
 31
0.0
 73
     1
 44
1.0
  0
LINE
  5
41E
330
1F
100
AcDbEntity
  8
0-A_文字
  6
Continuous
 62
    92
370
    13
100
AcDbLine
 10
2889.918171683582
 20
-198.0001979518687
 30
0.0
 11
5126.191050219357
 21
-198.0001979518687
 31
0.0
  0
LINE
  5
41F
330
1F
100
AcDbEntity
  8
0-A_文字
  6
Continuous
 62
    92
370
    13
100
AcDbLine
 10
2889.918171683582
 20
-18.0001979518687
 30
0.0
 11
5126.191050219357
 21
-18.0001979518687
 31
0.0
  0
LINE
  5
420
330
1F
100
AcDbEntity
  8
0-7_金物
  6
Continuous
 62
     7
370
     9
100
AcDbLine
 10
5012.254502865604
 20
-3550.984708650154
 30
0.0
 11
3003.103088556122
 21
-3550.984708650154
 31
0.0
  0
LINE
  5
421
330
1F
100
AcDbEntity
  8
0-7_金物
  6
Continuous
 62
     7
370
     9
100
AcDbLine
 10
3003.103088556122
 20
-3550.984708650154
 30
0.0
 11
3003.103088556122
 21
-2290.274608983791
 31
0.0
  0
LINE
  5
422
330
1F
100
AcDbEntity
  8
0-7_金物
  6
Continuous
 62
     7
370
     9
100
AcDbLine
 10
5012.254502865604
 20
-2290.274608983791
 30
0.0
 11
5012.254502865604
 21
-3550.984708650154
 31
0.0
  0
LINE
  5
423
330
1F
100
AcDbEntity
  8
0-7_金物
  6
Continuous
 62
     7
370
     9
100
AcDbLine
 10
3003.103088556122
 20
-2290.274608983791
 30
0.0
 11
5012.254502865604
 21
-2290.274608983791
 31
0.0
  0
LINE
  5
424
330
1F
100
AcDbEntity
  8
0-6_扉
  6
Continuous
 62
    40
370
    15
100
AcDbLine
 10
4221.099894200283
 20
-1613.77149328414
 30
0.0
 11
4793.856386961384
 21
-1283.090378008412
 31
0.0
  0
LINE
  5
425
330
1F
100
AcDbEntity
  8
0-B_寸法
  6
JWW_CENTER1
 62
   120
370
     5
100
AcDbLine
 10
4221.099894200283
 20
-1613.77149328414
 30
0.0
 11
4383.735988291855
 21
-1707.669485987858
 31
0.0
  0
LWPOLYLINE
  5
426
330
1F
100
AcDbEntity
  8
0-B_寸法
  6
Continuous
 62
     7
370
     9
100
AcDbPolyline
 90
        4
 70
     1
 43
3.0
 10
4450.824426839808
 20
-1745.536988639246
 42
0.4142135623731
 10
4449.324426839808
 20
-1744.036988639246
 42
0.4142135623731
 10
4447.824426839808
 20
-1745.536988639246
 42
0.4142135623731
 10
4449.324426839808
 20
-1747.036988639246
 42
0.4142135623731
  0
LINE
  5
427
330
1F
100
AcDbEntity
  8
0-B_寸法
  6
Continuous
 62
   120
370
     5
100
AcDbLine
 10
4449.324426839808
 20
-1745.536988639246
 30
0.0
 11
4395.498186514815
 21
-1714.460394298145
 31
0.0
  0
LWPOLYLINE
  5
428
330
1F
100
AcDbEntity
  8
0-B_寸法
  6
Continuous
 62
     7
370
     9
100
AcDbPolyline
 90
        4
 70
     1
 43
3.0
 10
4365.058352240287
 20
-1795.054054920264
 42
0.4142135623731
 10
4363.558352240287
 20
-1793.554054920264
 42
0.4142135623731
 10
4362.058352240286
 20
-1795.054054920264
 42
0.4142135623731
 10
4363.558352240287
 20
-1796.554054920264
 42
0.4142135623731
  0
LINE
  5
429
330
1F
100
AcDbEntity
  8
0-B_寸法
  6
Continuous
 62
   120
370
     5
100
AcDbLine
 10
4449.324426850045
 20
-1745.536988656981
 30
0.0
 11
4363.558352240287
 21
-1795.054054920263
 31
0.0
  0
LINE
  5
42A
330
1F
100
AcDbEntity
  8
0-B_寸法
  6
Continuous
 62
   120
370
     5
100
AcDbLine
 10
4311.714911453388
 20
-1765.122230426231
 30
0.0
 11
4363.558352240287
 21
-1795.054054920264
 31
0.0
  0
LWPOLYLINE
  5
42B
330
1F
100
AcDbEntity
  8
0-B_寸法
  6
Continuous
 62
     7
370
     9
100
AcDbPolyline
 90
        4
 70
     1
 43
3.0
 10
3724.986712834886
 20
-1901.068677396805
 42
0.4142135623731
 10
3723.486712834886
 20
-1899.568677396805
 42
0.4142135623731
 10
3721.986712834886
 20
-1901.068677396805
 42
0.4142135623731
 10
3723.486712834886
 20
-1902.568677396805
 42
0.4142135623731
  0
LINE
  5
42C
330
1F
100
AcDbEntity
  8
0-B_寸法
  6
JWW_CENTER1
 62
   120
370
     5
100
AcDbLine
 10
4221.099894200283
 20
-1613.77149328414
 30
0.0
 11
3804.312023081915
 21
-1854.404082869303
 31
0.0
  0
LINE
  5
42D
330
1F
100
AcDbEntity
  8
0-B_寸法
  6
Continuous
 62
   120
370
     5
100
AcDbLine
 10
3786.231272128324
 20
-1864.843089198553
 30
0.0
 11
3723.486712834886
 21
-1901.068677396805
 31
0.0
  0
LINE
  5
42E
330
1F
100
AcDbEntity
  8
0-0_補助線
  6
JWW_HOJO
 62
   120
370
     5
100
AcDbLine
 10
3965.62819209551
 20
-1602.051315983756
 30
0.0
 11
3986.841395531107
 21
-1651.04111083942
 31
0.0
  0
LINE
  5
42F
330
1F
100
AcDbEntity
  8
0-0_補助線
  6
JWW_HOJO
 62
   120
370
     5
100
AcDbLine
 10
3993.054598966703
 20
-1648.288559553335
 30
0.0
 11
3978.054598966703
 21
-1596.546213411588
 31
0.0
  0
LINE
  5
430
330
1F
100
AcDbEntity
  8
0-0_補助線
  6
JWW_HOJO
 62
   120
370
     5
100
AcDbLine
 10
3992.525456260551
 20
-1593.085561262075
 30
0.0
 11
4000.290027613627
 21
-1646.558233478579
 31
0.0
  0
LINE
  5
431
330
1F
100
AcDbEntity
  8
0-0_補助線
  6
JWW_HOJO
 62
   120
370
     5
100
AcDbLine
 10
4008.054598966703
 20
-1645.968051477647
 30
0.0
 11
4008.054598966703
 21
-1591.90519726021
 31
0.0
  0
LINE
  5
432
330
1F
100
AcDbEntity
  8
0-0_補助線
  6
JWW_HOJO
 62
   120
370
     5
100
AcDbLine
 10
4023.583741672855
 20
-1593.085561262075
 30
0.0
 11
4015.81917031978
 21
-1646.558233478579
 31
0.0
  0
LINE
  5
433
330
1F
100
AcDbEntity
  8
0-0_補助線
  6
JWW_HOJO
 62
   120
370
     5
100
AcDbLine
 10
4023.054598966703
 20
-1648.288559553335
 30
0.0
 11
4038.054598966703
 21
-1596.546213411588
 31
0.0
  0
LINE
  5
434
330
1F
100
AcDbEntity
  8
0-0_補助線
  6
JWW_HOJO
 62
   120
370
     5
100
AcDbLine
 10
4050.481005837897
 20
-1602.051315983756
 30
0.0
 11
4029.2678024023
 21
-1651.04111083942
 31
0.0
  0
LINE
  5
435
330
1F
100
AcDbEntity
  8
0-0_補助線
  6
JWW_HOJO
 62
   120
370
     5
100
AcDbLine
 10
4034.035361080236
 20
-1654.628305515492
 30
0.0
 11
4060.016123193772
 21
-1609.225705335899
 31
0.0
  0
LINE
  5
436
330
1F
100
AcDbEntity
  8
0-0_補助線
  6
JWW_HOJO
 62
   120
370
     5
100
AcDbLine
 10
4066.010148544049
 20
-1617.580458689907
 30
0.0
 11
4037.032373755374
 21
-1658.805682192495
 31
0.0
  0
LINE
  5
437
330
1F
100
AcDbEntity
  8
0-0_補助線
  6
JWW_HOJO
 62
   120
370
     5
100
AcDbLine
 10
3933.808386942115
 20
-1620.42248905463
 30
0.0
 11
3955.021590377714
 21
-1669.412283910293
 31
0.0
  0
LINE
  5
438
330
1F
100
AcDbEntity
  8
0-0_補助線
  6
JWW_HOJO
 62
   120
370
     5
100
AcDbLine
 10
3877.135768046336
 20
-1516.319174986345
 30
0.0
 11
3875.472077494228
 21
-1518.356771457623
 31
0.0
  0
LINE
  5
439
330
1F
100
AcDbEntity
  8
0-0_補助線
  6
JWW_HOJO
 62
   120
370
     5
100
AcDbLine
 10
3916.234793813309
 20
-1644.917386482462
 30
0.0
 11
3935.288851168857
 21
-1670.238193347944
 31
0.0
  0
LINE
  5
43A
330
1F
100
AcDbEntity
  8
0-0_補助線
  6
JWW_HOJO
 62
   120
370
     5
100
AcDbLine
 10
3940.880999139807
 20
-1672.906129470694
 30
0.0
 11
3918.279244235965
 21
-1635.951631760782
 31
0.0
  0
LINE
  5
43B
330
1F
100
AcDbEntity
  8
0-0_補助線
  6
JWW_HOJO
 62
   120
370
     5
100
AcDbLine
 10
4066.010148544049
 20
-1635.511968133268
 30
0.0
 11
4054.855586744693
 21
-1648.223140799977
 31
0.0
  0
LINE
  5
43C
330
1F
100
AcDbEntity
  8
0-0_補助線
  6
JWW_HOJO
 62
   120
370
     5
100
AcDbLine
 10
4045.890715215615
 20
-1653.691316365852
 30
0.0
 11
4068.054598966707
 21
-1626.546213411588
 31
0.0
  0
LINE
  5
43D
330
1F
100
AcDbEntity
  8
0-0_補助線
  6
JWW_HOJO
 62
   120
370
     5
100
AcDbLine
 10
3949.718289518814
 20
-1647.979248660941
 30
0.0
 11
4034.5711032612
 21
-1696.969043516604
 31
0.0
  0
LINE
  5
43E
330
1F
100
AcDbEntity
  8
0-0_補助線
  6
JWW_HOJO
 62
   120
370
     5
100
AcDbLine
 10
4050.481005837897
 20
-1638.793662125503
 30
0.0
 11
3933.808386942115
 21
-1706.154630052042
 31
0.0
  0
ELLIPSE
  5
43F
330
1F
100
AcDbEntity
  8
0-7_金物
  6
Continuous
 62
     7
370
     9
100
AcDbEllipse
 10
3992.144696390007
 20
-1292.143822278154
 30
0.0
 11
28.25850499469571
 21
0.0
 31
0.0
210
0.0
220
0.0
230
1.0
 40
0.5
 41
0.0
 42
6.283185307179586
  0
LINE
  5
440
330
1F
100
AcDbEntity
  8
0-7_金物
  6
Continuous
 62
     7
370
     9
100
AcDbLine
 10
3968.233653702186
 20
-1299.673847877654
 30
0.0
 11
3979.178921079828
 21
-1318.631607078155
 31
0.0
  0
LINE
  5
441
330
1F
100
AcDbEntity
  8
0-7_金物
  6
Continuous
 62
     7
370
     9
100
AcDbLine
 10
3992.144696390007
 20
-1514.343828828154
 30
0.0
 11
3979.178921079828
 21
-1318.631607078155
 31
0.0
  0
LINE
  5
442
330
1F
100
AcDbEntity
  8
0-7_金物
  6
Continuous
 62
     7
370
     9
100
AcDbLine
 10
4016.055739077824
 20
-1299.673847877654
 30
0.0
 11
4005.110471700186
 21
-1318.631607078155
 31
0.0
  0
LINE
  5
443
330
1F
100
AcDbEntity
  8
0-7_金物
  6
Continuous
 62
     7
370
     9
100
AcDbLine
 10
3992.144696390007
 20
-1514.343828828154
 30
0.0
 11
4005.110471700186
 21
-1318.631607078155
 31
0.0
  0
LINE
  5
444
330
1F
100
AcDbEntity
  8
0-7_金物
  6
Continuous
 62
     7
370
     9
100
AcDbLine
 10
4004.484611264248
 20
-1328.07867318043
 30
0.0
 11
3980.69696462341
 21
-1341.545753553815
 31
0.0
  0
LINE
  5
445
330
1F
100
AcDbEntity
  8
0-7_金物
  6
Continuous
 62
     7
370
     9
100
AcDbLine
 10
3993.482640255613
 20
-1494.148201474564
 30
0.0
 11
3990.903486653285
 21
-1495.608357217681
 31
0.0
  0
LINE
  5
446
330
1F
100
AcDbEntity
  8
0-7_金物
  6
Continuous
 62
     7
370
     9
100
AcDbLine
 10
4003.837436499035
 20
-1337.847468962438
 30
0.0
 11
3981.297348272228
 21
-1350.608259651689
 31
0.0
  0
LINE
  5
447
330
1F
100
AcDbEntity
  8
0-7_金物
  6
Continuous
 62
     7
370
     9
100
AcDbLine
 10
4003.190261733823
 20
-1347.616264744447
 30
0.0
 11
3981.897731921042
 21
-1359.670765749564
 31
0.0
  0
LINE
  5
448
330
1F
100
AcDbEntity
  8
0-7_金物
  6
Continuous
 62
     7
370
     9
100
AcDbLine
 10
4002.543086968607
 20
-1357.385060526454
 30
0.0
 11
3982.498115569859
 21
-1368.733271847439
 31
0.0
  0
LINE
  5
449
330
1F
100
AcDbEntity
  8
0-7_金物
  6
Continuous
 62
     7
370
     9
100
AcDbLine
 10
4001.895912203394
 20
-1367.153856308461
 30
0.0
 11
3983.098499218676
 21
-1377.795777945312
 31
0.0
  0
LINE
  5
44A
330
1F
100
AcDbEntity
  8
0-7_金物
  6
Continuous
 62
     7
370
     9
100
AcDbLine
 10
4001.248737438178
 20
-1376.922652090469
 30
0.0
 11
3983.69888286749
 21
-1386.858284043187
 31
0.0
  0
LINE
  5
44B
330
1F
100
AcDbEntity
  8
0-7_金物
  6
Continuous
 62
     7
370
     9
100
AcDbLine
 10
4000.601562672965
 20
-1386.691447872476
 30
0.0
 11
3984.299266516306
 21
-1395.920790141062
 31
0.0
  0
LINE
  5
44C
330
1F
100
AcDbEntity
  8
0-7_金物
  6
Continuous
 62
     7
370
     9
100
AcDbLine
 10
3999.954387907753
 20
-1396.460243654485
 30
0.0
 11
3984.899650165125
 21
-1404.983296238937
 31
0.0
  0
LINE
  5
44D
330
1F
100
AcDbEntity
  8
0-7_金物
  6
Continuous
 62
     7
370
     9
100
AcDbLine
 10
3999.307213142537
 20
-1406.229039436493
 30
0.0
 11
3985.500033813939
 21
-1414.04580233681
 31
0.0
  0
LINE
  5
44E
330
1F
100
AcDbEntity
  8
0-7_金物
  6
Continuous
 62
     7
370
     9
100
AcDbLine
 10
3998.660038377324
 20
-1415.9978352185
 30
0.0
 11
3986.100417462754
 21
-1423.108308434685
 31
0.0
  0
LINE
  5
44F
330
1F
100
AcDbEntity
  8
0-7_金物
  6
Continuous
 62
     7
370
     9
100
AcDbLine
 10
3998.01286361211
 20
-1425.766631000509
 30
0.0
 11
3986.70080111157
 21
-1432.17081453256
 31
0.0
  0
LINE
  5
450
330
1F
100
AcDbEntity
  8
0-7_金物
  6
Continuous
 62
     7
370
     9
100
AcDbLine
 10
3997.365688846898
 20
-1435.535426782516
 30
0.0
 11
3987.301184760388
 21
-1441.233320630434
 31
0.0
  0
LINE
  5
451
330
1F
100
AcDbEntity
  8
0-7_金物
  6
Continuous
 62
     7
370
     9
100
AcDbLine
 10
3996.718514081683
 20
-1445.304222564524
 30
0.0
 11
3987.901568409203
 21
-1450.29582672831
 31
0.0
  0
LINE
  5
452
330
1F
100
AcDbEntity
  8
0-7_金物
  6
Continuous
 62
     7
370
     9
100
AcDbLine
 10
3996.071339316469
 20
-1455.073018346531
 30
0.0
 11
3988.501952058019
 21
-1459.358332826183
 31
0.0
  0
LINE
  5
453
330
1F
100
AcDbEntity
  8
0-7_金物
  6
Continuous
 62
     7
370
     9
100
AcDbLine
 10
3995.424164551254
 20
-1464.841814128539
 30
0.0
 11
3989.102335706836
 21
-1468.420838924057
 31
0.0
  0
LINE
  5
454
330
1F
100
AcDbEntity
  8
0-7_金物
  6
Continuous
 62
     7
370
     9
100
AcDbLine
 10
3994.77698978604
 20
-1474.610609910548
 30
0.0
 11
3989.702719355651
 21
-1477.483345021933
 31
0.0
  0
LINE
  5
455
330
1F
100
AcDbEntity
  8
0-7_金物
  6
Continuous
 62
     7
370
     9
100
AcDbLine
 10
3994.129815020828
 20
-1484.379405692555
 30
0.0
 11
3990.303103004467
 21
-1486.545851119806
 31
0.0
  0
LINE
  5
456
330
1F
100
AcDbEntity
  8
0-7_金物
  6
Continuous
 62
     7
370
     9
100
AcDbLine
 10
3968.865099132881
 20
-1289.042148267154
 30
0.0
 11
3968.865099132881
 21
-1295.245496289154
 31
0.0
  0
LINE
  5
457
330
1F
100
AcDbEntity
  8
0-7_金物
  6
Continuous
 62
     7
370
     9
100
AcDbLine
 10
4015.424293646008
 20
-1295.245496289154
 30
0.0
 11
4015.424293646008
 21
-1289.042148267154
 31
0.0
  0
LINE
  5
458
330
1F
100
AcDbEntity
  8
0-7_金物
  6
Continuous
 62
     7
370
     9
100
AcDbLine
 10
3989.043022379006
 20
-1304.341751808153
 30
0.0
 11
3995.246370401006
 21
-1304.341751808153
 31
0.0
  0
LINE
  5
459
330
1F
100
AcDbEntity
  8
0-7_金物
  6
Continuous
 62
     7
370
     9
100
AcDbLine
 10
3989.043022379006
 20
-1279.945892748153
 30
0.0
 11
3995.246370401006
 21
-1279.945892748153
 31
0.0
  0
LINE
  5
45A
330
1F
100
AcDbEntity
  8
0-7_金物
  6
Continuous
 62
     7
370
     9
100
AcDbLine
 10
3968.865099132881
 20
-1289.042148267154
 30
0.0
 11
3989.043022379006
 21
-1289.042148267154
 31
0.0
  0
LINE
  5
45B
330
1F
100
AcDbEntity
  8
0-7_金物
  6
Continuous
 62
     7
370
     9
100
AcDbLine
 10
3995.246370401006
 20
-1289.042148267154
 30
0.0
 11
4015.424293646008
 21
-1289.042148267154
 31
0.0
  0
LINE
  5
45C
330
1F
100
AcDbEntity
  8
0-7_金物
  6
Continuous
 62
     7
370
     9
100
AcDbLine
 10
3968.865099132881
 20
-1295.245496289154
 30
0.0
 11
3989.043022379006
 21
-1295.245496289154
 31
0.0
  0
LINE
  5
45D
330
1F
100
AcDbEntity
  8
0-7_金物
  6
Continuous
 62
     7
370
     9
100
AcDbLine
 10
3995.246370401006
 20
-1295.245496289154
 30
0.0
 11
4015.424293646008
 21
-1295.245496289154
 31
0.0
  0
LINE
  5
45E
330
1F
100
AcDbEntity
  8
0-7_金物
  6
Continuous
 62
     7
370
     9
100
AcDbLine
 10
3995.246370401006
 20
-1304.341751808153
 30
0.0
 11
3995.246370401006
 21
-1295.245496289154
 31
0.0
  0
LINE
  5
45F
330
1F
100
AcDbEntity
  8
0-7_金物
  6
Continuous
 62
     7
370
     9
100
AcDbLine
 10
3995.246370401006
 20
-1289.042148267154
 30
0.0
 11
3995.246370401006
 21
-1279.945892748153
 31
0.0
  0
LINE
  5
460
330
1F
100
AcDbEntity
  8
0-7_金物
  6
Continuous
 62
     7
370
     9
100
AcDbLine
 10
3989.043022379006
 20
-1304.341751808153
 30
0.0
 11
3989.043022379006
 21
-1295.245496289154
 31
0.0
  0
LINE
  5
461
330
1F
100
AcDbEntity
  8
0-7_金物
  6
Continuous
 62
     7
370
     9
100
AcDbLine
 10
3989.043022379006
 20
-1289.042148267154
 30
0.0
 11
3989.043022379006
 21
-1279.945892748153
 31
0.0
  0
ELLIPSE
  5
462
330
1F
100
AcDbEntity
  8
0-7_金物
  6
Continuous
 62
     7
370
     9
100
AcDbEllipse
 10
3801.225865469637
 20
-1181.916783852911
 30
0.0
 11
28.25850499469571
 21
0.0
 31
0.0
210
0.0
220
0.0
230
1.0
 40
0.5
 41
0.0
 42
6.283185307179586
  0
LINE
  5
463
330
1F
100
AcDbEntity
  8
0-7_金物
  6
Continuous
 62
     7
370
     9
100
AcDbLine
 10
3777.31482278182
 20
-1189.446809452411
 30
0.0
 11
3788.260090159459
 21
-1208.404568652912
 31
0.0
  0
LINE
  5
464
330
1F
100
AcDbEntity
  8
0-7_金物
  6
Continuous
 62
     7
370
     9
100
AcDbLine
 10
3825.136908157457
 20
-1189.446809452411
 30
0.0
 11
3814.191640779816
 21
-1208.404568652912
 31
0.0
  0
LINE
  5
465
330
1F
100
AcDbEntity
  8
0-7_金物
  6
Continuous
 62
     7
370
     9
100
AcDbLine
 10
3813.565780343881
 20
-1217.851634755188
 30
0.0
 11
3789.778133703043
 21
-1231.318715128572
 31
0.0
  0
LINE
  5
466
330
1F
100
AcDbEntity
  8
0-7_金物
  6
Continuous
 62
     7
370
     9
100
AcDbLine
 10
3802.563809335247
 20
-1383.921163049321
 30
0.0
 11
3799.984655732915
 21
-1385.381318792437
 31
0.0
  0
LINE
  5
467
330
1F
100
AcDbEntity
  8
0-7_金物
  6
Continuous
 62
     7
370
     9
100
AcDbLine
 10
3812.918605578667
 20
-1227.620430537194
 30
0.0
 11
3790.378517351858
 21
-1240.381221226445
 31
0.0
  0
LINE
  5
468
330
1F
100
AcDbEntity
  8
0-7_金物
  6
Continuous
 62
     7
370
     9
100
AcDbLine
 10
3812.271430813453
 20
-1237.389226319204
 30
0.0
 11
3790.978901000676
 21
-1249.443727324321
 31
0.0
  0
LINE
  5
469
330
1F
100
AcDbEntity
  8
0-7_金物
  6
Continuous
 62
     7
370
     9
100
AcDbLine
 10
3811.624256048241
 20
-1247.158022101211
 30
0.0
 11
3791.579284649491
 21
-1258.506233422197
 31
0.0
  0
LINE
  5
46A
330
1F
100
AcDbEntity
  8
0-7_金物
  6
Continuous
 62
     7
370
     9
100
AcDbLine
 10
3810.977081283026
 20
-1256.926817883219
 30
0.0
 11
3792.179668298307
 21
-1267.56873952007
 31
0.0
  0
LINE
  5
46B
330
1F
100
AcDbEntity
  8
0-7_金物
  6
Continuous
 62
     7
370
     9
100
AcDbLine
 10
3810.329906517811
 20
-1266.695613665226
 30
0.0
 11
3792.780051947124
 21
-1276.631245617944
 31
0.0
  0
LINE
  5
46C
330
1F
100
AcDbEntity
  8
0-7_金物
  6
Continuous
 62
     7
370
     9
100
AcDbLine
 10
3809.682731752597
 20
-1276.464409447233
 30
0.0
 11
3793.380435595938
 21
-1285.693751715818
 31
0.0
  0
LINE
  5
46D
330
1F
100
AcDbEntity
  8
0-7_金物
  6
Continuous
 62
     7
370
     9
100
AcDbLine
 10
3809.035556987383
 20
-1286.233205229243
 30
0.0
 11
3793.980819244755
 21
-1294.756257813694
 31
0.0
  0
LINE
  5
46E
330
1F
100
AcDbEntity
  8
0-7_金物
  6
Continuous
 62
     7
370
     9
100
AcDbLine
 10
3808.388382222171
 20
-1296.002001011249
 30
0.0
 11
3794.581202893573
 21
-1303.818763911567
 31
0.0
  0
LINE
  5
46F
330
1F
100
AcDbEntity
  8
0-7_金物
  6
Continuous
 62
     7
370
     9
100
AcDbLine
 10
3807.741207456956
 20
-1305.770796793258
 30
0.0
 11
3795.181586542387
 21
-1312.881270009443
 31
0.0
  0
LINE
  5
470
330
1F
100
AcDbEntity
  8
0-7_金物
  6
Continuous
 62
     7
370
     9
100
AcDbLine
 10
3807.094032691743
 20
-1315.539592575266
 30
0.0
 11
3795.781970191202
 21
-1321.943776107317
 31
0.0
  0
LINE
  5
471
330
1F
100
AcDbEntity
  8
0-7_金物
  6
Continuous
 62
     7
370
     9
100
AcDbLine
 10
3806.446857926529
 20
-1325.308388357274
 30
0.0
 11
3796.382353840022
 21
-1331.006282205191
 31
0.0
  0
LINE
  5
472
330
1F
100
AcDbEntity
  8
0-7_金物
  6
Continuous
 62
     7
370
     9
100
AcDbLine
 10
3805.799683161317
 20
-1335.077184139281
 30
0.0
 11
3796.982737488835
 21
-1340.068788303067
 31
0.0
  0
LINE
  5
473
330
1F
100
AcDbEntity
  8
0-7_金物
  6
Continuous
 62
     7
370
     9
100
AcDbLine
 10
3805.152508396101
 20
-1344.845979921288
 30
0.0
 11
3797.583121137651
 21
-1349.13129440094
 31
0.0
  0
LINE
  5
474
330
1F
100
AcDbEntity
  8
0-7_金物
  6
Continuous
 62
     7
370
     9
100
AcDbLine
 10
3804.505333630886
 20
-1354.614775703297
 30
0.0
 11
3798.183504786467
 21
-1358.193800498814
 31
0.0
  0
LINE
  5
475
330
1F
100
AcDbEntity
  8
0-7_金物
  6
Continuous
 62
     7
370
     9
100
AcDbLine
 10
3803.858158865673
 20
-1364.383571485304
 30
0.0
 11
3798.783888435284
 21
-1367.25630659669
 31
0.0
  0
LINE
  5
476
330
1F
100
AcDbEntity
  8
0-7_金物
  6
Continuous
 62
     7
370
     9
100
AcDbLine
 10
3803.210984100459
 20
-1374.152367267313
 30
0.0
 11
3799.384272084099
 21
-1376.318812694563
 31
0.0
  0
LINE
  5
477
330
1F
100
AcDbEntity
  8
0-7_金物
  6
Continuous
 62
     7
370
     9
100
AcDbLine
 10
3777.946268212515
 20
-1178.815109841911
 30
0.0
 11
3777.946268212515
 21
-1185.018457863911
 31
0.0
  0
LINE
  5
478
330
1F
100
AcDbEntity
  8
0-7_金物
  6
Continuous
 62
     7
370
     9
100
AcDbLine
 10
3824.505462725638
 20
-1185.018457863911
 30
0.0
 11
3824.505462725638
 21
-1178.815109841911
 31
0.0
  0
LINE
  5
479
330
1F
100
AcDbEntity
  8
0-7_金物
  6
Continuous
 62
     7
370
     9
100
AcDbLine
 10
3798.124191458638
 20
-1194.11471338291
 30
0.0
 11
3804.327539480639
 21
-1194.11471338291
 31
0.0
  0
LINE
  5
47A
330
1F
100
AcDbEntity
  8
0-7_金物
  6
Continuous
 62
     7
370
     9
100
AcDbLine
 10
3798.124191458638
 20
-1169.718854322911
 30
0.0
 11
3804.327539480639
 21
-1169.718854322911
 31
0.0
  0
LINE
  5
47B
330
1F
100
AcDbEntity
  8
0-7_金物
  6
Continuous
 62
     7
370
     9
100
AcDbLine
 10
3777.946268212515
 20
-1178.815109841911
 30
0.0
 11
3798.124191458638
 21
-1178.815109841911
 31
0.0
  0
LINE
  5
47C
330
1F
100
AcDbEntity
  8
0-7_金物
  6
Continuous
 62
     7
370
     9
100
AcDbLine
 10
3804.327539480639
 20
-1178.815109841911
 30
0.0
 11
3824.505462725638
 21
-1178.815109841911
 31
0.0
  0
LINE
  5
47D
330
1F
100
AcDbEntity
  8
0-7_金物
  6
Continuous
 62
     7
370
     9
100
AcDbLine
 10
3777.946268212515
 20
-1185.018457863911
 30
0.0
 11
3798.124191458638
 21
-1185.018457863911
 31
0.0
  0
LINE
  5
47E
330
1F
100
AcDbEntity
  8
0-7_金物
  6
Continuous
 62
     7
370
     9
100
AcDbLine
 10
3804.327539480639
 20
-1185.018457863911
 30
0.0
 11
3824.505462725638
 21
-1185.018457863911
 31
0.0
  0
LINE
  5
47F
330
1F
100
AcDbEntity
  8
0-7_金物
  6
Continuous
 62
     7
370
     9
100
AcDbLine
 10
3804.327539480639
 20
-1194.11471338291
 30
0.0
 11
3804.327539480639
 21
-1185.018457863911
 31
0.0
  0
LINE
  5
480
330
1F
100
AcDbEntity
  8
0-7_金物
  6
Continuous
 62
     7
370
     9
100
AcDbLine
 10
3804.327539480639
 20
-1178.815109841911
 30
0.0
 11
3804.327539480639
 21
-1169.718854322911
 31
0.0
  0
LINE
  5
481
330
1F
100
AcDbEntity
  8
0-7_金物
  6
Continuous
 62
     7
370
     9
100
AcDbLine
 10
3798.124191458638
 20
-1194.11471338291
 30
0.0
 11
3798.124191458638
 21
-1185.018457863911
 31
0.0
  0
LINE
  5
482
330
1F
100
AcDbEntity
  8
0-7_金物
  6
Continuous
 62
     7
370
     9
100
AcDbLine
 10
3798.124191458638
 20
-1178.815109841911
 30
0.0
 11
3798.124191458638
 21
-1169.718854322911
 31
0.0
  0
LINE
  5
483
330
1F
100
AcDbEntity
  8
0-7_金物
  6
Continuous
 62
     7
370
     9
100
AcDbLine
 10
3800.702655517411
 20
-1396.219184610533
 30
0.0
 11
3788.260090159459
 21
-1208.404568652912
 31
0.0
  0
LINE
  5
484
330
1F
100
AcDbEntity
  8
0-7_金物
  6
Continuous
 62
     7
370
     9
100
AcDbLine
 10
3801.709335373036
 20
-1396.819041777801
 30
0.0
 11
3814.191640779816
 21
-1208.404568652912
 31
0.0
  0
ELLIPSE
  5
485
330
1F
100
AcDbEntity
  8
0-7_金物
  6
Continuous
 62
     7
370
     9
100
AcDbEllipse
 10
3700.463149150555
 20
-1534.690348057218
 30
0.0
 11
-30.00000000000005
 21
3.673819061467138E-15
 31
0.0
210
0.0
220
0.0
230
1.0
 40
0.5773502691896267
 41
5.497787143782136
 42
7.068583470577034
  0
LINE
  5
486
330
1F
100
AcDbEntity
  8
0-7_金物
  6
Continuous
 62
     7
370
     9
100
AcDbLine
 10
3670.463149150555
 20
-1534.690348057218
 30
0.0
 11
3670.463149150555
 21
-1571.432694198966
 31
0.0
  0
LINE
  5
487
330
1F
100
AcDbEntity
  8
0-7_金物
  6
Continuous
 62
     7
370
     9
100
AcDbLine
 10
3671.485374361883
 20
-1539.173225418059
 30
0.0
 11
3671.485374361883
 21
-1575.915571559806
 31
0.0
  0
LINE
  5
488
330
1F
100
AcDbEntity
  8
0-7_金物
  6
Continuous
 62
     7
370
     9
100
AcDbLine
 10
3674.482387037022
 20
-1543.350602095064
 30
0.0
 11
3674.482387037022
 21
-1580.092948236811
 31
0.0
  0
LINE
  5
489
330
1F
100
AcDbEntity
  8
0-7_金物
  6
Continuous
 62
     7
370
     9
100
AcDbLine
 10
3679.249945714958
 20
-1546.937796771135
 30
0.0
 11
3679.249945714958
 21
-1583.680142912883
 31
0.0
  0
ELLIPSE
  5
48A
330
1F
100
AcDbEntity
  8
0-7_金物
  6
Continuous
 62
     7
370
     9
100
AcDbEllipse
 10
3976.234793813309
 20
-1693.907181338125
 30
0.0
 11
-29.99999999999994
 21
-4.364184794797269E-14
 31
0.0
210
0.0
220
0.0
230
1.0
 40
0.5773502691896277
 41
0.7853981633974482
 42
2.356194490192345
  0
ELLIPSE
  5
48B
330
1F
100
AcDbEntity
  8
0-7_金物
  6
Continuous
 62
     7
370
     9
100
AcDbEllipse
 10
3976.234793813309
 20
-1730.649527479873
 30
0.0
 11
-29.99999999999994
 21
-4.364184794797269E-14
 31
0.0
210
0.0
220
0.0
230
1.0
 40
0.5773502691896277
 41
0.7853981633974488
 42
2.356194490192345
  0
LINE
  5
48C
330
1F
100
AcDbEntity
  8
0-7_金物
  6
Continuous
 62
     7
370
     9
100
AcDbLine
 10
3955.021590377714
 20
-1706.154630052042
 30
0.0
 11
3955.021590377714
 21
-1742.896976193788
 31
0.0
  0
LINE
  5
48D
330
1F
100
AcDbEntity
  8
0-7_金物
  6
Continuous
 62
     7
370
     9
100
AcDbLine
 10
3961.234793813309
 20
-1708.907181338125
 30
0.0
 11
3961.234793813309
 21
-1745.649527479873
 31
0.0
  0
LINE
  5
48E
330
1F
100
AcDbEntity
  8
0-7_金物
  6
Continuous
 62
     7
370
     9
100
AcDbLine
 10
3968.470222460234
 20
-1710.637507412882
 30
0.0
 11
3968.470222460234
 21
-1747.379853554629
 31
0.0
  0
LINE
  5
48F
330
1F
100
AcDbEntity
  8
0-7_金物
  6
Continuous
 62
     7
370
     9
100
AcDbLine
 10
3976.234793813309
 20
-1711.227689413814
 30
0.0
 11
3976.234793813309
 21
-1747.970035555562
 31
0.0
  0
LINE
  5
490
330
1F
100
AcDbEntity
  8
0-7_金物
  6
Continuous
 62
     7
370
     9
100
AcDbLine
 10
3983.999365166383
 20
-1710.637507412882
 30
0.0
 11
3983.999365166383
 21
-1747.379853554629
 31
0.0
  0
LINE
  5
491
330
1F
100
AcDbEntity
  8
0-7_金物
  6
Continuous
 62
     7
370
     9
100
AcDbLine
 10
3991.234793813309
 20
-1708.907181338125
 30
0.0
 11
3991.234793813309
 21
-1745.649527479873
 31
0.0
  0
ELLIPSE
  5
492
330
1F
100
AcDbEntity
  8
0-7_金物
  6
Continuous
 62
     7
370
     9
100
AcDbEllipse
 10
4092.90741270909
 20
-1626.546213411588
 30
0.0
 11
-30.00000000000001
 21
3.673819061467133E-15
 31
0.0
210
0.0
220
0.0
230
1.0
 40
0.5773502691896252
 41
2.356194490192344
 42
3.92699081698724
  0
LINE
  5
493
330
1F
100
AcDbEntity
  8
0-7_金物
  6
Continuous
 62
     7
370
     9
100
AcDbLine
 10
4118.888174822622
 20
-1635.206467449432
 30
0.0
 11
4118.888174822622
 21
-1671.94881359118
 31
0.0
  0
LINE
  5
494
330
1F
100
AcDbEntity
  8
0-7_金物
  6
Continuous
 62
     7
370
     9
100
AcDbLine
 10
4121.885187497763
 20
-1631.029090772428
 30
0.0
 11
4121.885187497763
 21
-1667.771436914176
 31
0.0
  0
LINE
  5
495
330
1F
100
AcDbEntity
  8
0-7_金物
  6
Continuous
 62
     7
370
     9
100
AcDbLine
 10
4122.90741270909
 20
-1626.546213411588
 30
0.0
 11
4122.90741270909
 21
-1663.288559553335
 31
0.0
  0
LINE
  5
496
330
1F
100
AcDbEntity
  8
0-7_金物
  6
Continuous
 62
     7
370
     9
100
AcDbLine
 10
4114.120616144686
 20
-1675.536008267251
 30
0.0
 11
3997.447997248907
 21
-1742.896976193788
 31
0.0
  0
LINE
  5
497
330
1F
100
AcDbEntity
  8
0-7_金物
  6
Continuous
 62
     7
370
     9
100
AcDbLine
 10
4114.120616144686
 20
-1638.793662125503
 30
0.0
 11
3997.447997248907
 21
-1706.154630052042
 31
0.0
  0
LINE
  5
498
330
1F
100
AcDbEntity
  8
0-7_金物
  6
Continuous
 62
     7
370
     9
100
AcDbLine
 10
4114.120616144686
 20
-1638.793662125503
 30
0.0
 11
4114.120616144686
 21
-1675.536008267251
 31
0.0
  0
LINE
  5
499
330
1F
100
AcDbEntity
  8
0-7_金物
  6
Continuous
 62
     7
370
     9
100
AcDbLine
 10
3997.447997248907
 20
-1706.154630052042
 30
0.0
 11
3997.447997248907
 21
-1742.896976193788
 31
0.0
  0
ELLIPSE
  5
49A
330
1F
100
AcDbEntity
  8
0-7_金物
  6
Continuous
 62
     7
370
     9
100
AcDbEllipse
 10
4008.054598966703
 20
-1626.546213411588
 30
0.0
 11
60.00000000000004
 21
0.0
 31
0.0
210
0.0
220
0.0
230
1.0
 40
0.5773502691896252
 41
5.497787143782138
 42
8.63937979737193
  0
LINE
  5
49B
330
1F
100
AcDbEntity
  8
0-7_金物
  6
Continuous
 62
     7
370
     9
100
AcDbLine
 10
3877.135768046336
 20
-1516.319174986345
 30
0.0
 11
3877.135768046336
 21
-1553.061521128092
 31
0.0
  0
ELLIPSE
  5
49C
330
1F
100
AcDbEntity
  8
0-7_金物
  6
Continuous
 62
     7
370
     9
100
AcDbEllipse
 10
3976.234793813309
 20
-1644.917386482462
 30
0.0
 11
59.99999999999998
 21
0.0
 31
0.0
210
0.0
220
0.0
230
1.0
 40
0.5773502691896258
 41
2.356194490192344
 42
5.497787143782136
  0
LINE
  5
49D
330
1F
100
AcDbEntity
  8
0-7_金物
  6
Continuous
 62
     7
370
     9
100
AcDbLine
 10
3986.841395531107
 20
-1651.04111083942
 30
0.0
 11
3955.021590377714
 21
-1669.412283910293
 31
0.0
  0
ELLIPSE
  5
49E
330
1F
100
AcDbEntity
  8
0-7_金物
  6
Continuous
 62
     7
370
     9
100
AcDbEllipse
 10
3700.463149150555
 20
-1571.432694198966
 30
0.0
 11
-30.00000000000001
 21
-1.699649535696902E-14
 31
0.0
210
0.0
220
0.0
230
1.0
 40
0.5773502691896268
 41
0.0
 42
0.7853981633974476
  0
ELLIPSE
  5
49F
330
1F
100
AcDbEntity
  8
0-7_金物
  6
Continuous
 62
     7
370
     9
100
AcDbEllipse
 10
4092.90741270909
 20
-1663.288559553335
 30
0.0
 11
-30.00000000000001
 21
3.673819061467133E-15
 31
0.0
210
0.0
220
0.0
230
1.0
 40
0.5773502691896252
 41
2.356194490192344
 42
3.141592653589793
  0
LINE
  5
4A0
330
1F
100
AcDbEntity
  8
0-7_金物
  6
Continuous
 62
     7
370
     9
100
AcDbLine
 10
3725.920284774943
 20
-1610.625275732336
 30
0.0
 11
3679.249945714958
 21
-1583.680142912883
 31
0.0
  0
LINE
  5
4A1
330
1F
100
AcDbEntity
  8
0-7_金物
  6
Continuous
 62
     7
370
     9
100
AcDbLine
 10
3955.021590377714
 20
-1706.154630052042
 30
0.0
 11
3875.472077494228
 21
-1660.226697374857
 31
0.0
  0
LINE
  5
4A2
330
1F
100
AcDbEntity
  8
0-7_金物
  6
Continuous
 62
     7
370
     9
100
AcDbLine
 10
3725.298307810294
 20
-1573.523831022618
 30
0.0
 11
3679.249945714958
 21
-1546.937796771135
 31
0.0
  0
ELLIPSE
  5
4A3
330
1F
100
AcDbEntity
  8
0-7_金物
  6
Continuous
 62
     7
370
     9
100
AcDbEllipse
 10
3817.135768046336
 20
-1516.319174986345
 30
0.0
 11
60.00000000000006
 21
0.0
 31
0.0
210
0.0
220
0.0
230
1.0
 40
0.5773502691896251
 41
6.047146014440955
 42
6.519224599918218
  0
ELLIPSE
  5
4A4
330
1F
100
AcDbEntity
  8
0-7_金物
  6
Continuous
 62
     7
370
     9
100
AcDbEllipse
 10
3817.135768046336
 20
-1553.061521128092
 30
0.0
 11
60.00000000000006
 21
0.0
 31
0.0
210
0.0
220
0.0
230
1.0
 40
0.5773502691896251
 41
6.047146014440955
 42
6.519224599918218
  0
LINE
  5
4A5
330
1F
100
AcDbEntity
  8
0-7_金物
  6
Continuous
 62
     7
370
     9
100
AcDbLine
 10
3679.249945714958
 20
-1522.442899343303
 30
0.0
 11
3725.298307810294
 21
-1495.856865091819
 31
0.0
  0
LINE
  5
4A6
330
1F
100
AcDbEntity
  8
0-7_金物
  6
Continuous
 62
     7
370
     9
100
AcDbLine
 10
4114.120616144686
 20
-1614.298764697672
 30
0.0
 11
3875.472077494228
 21
-1476.514966666118
 31
0.0
  0
LINE
  5
4A7
330
1F
100
AcDbEntity
  8
0-7_金物
  6
Continuous
 62
     7
370
     9
100
AcDbLine
 10
3933.808386942115
 20
-1620.42248905463
 30
0.0
 11
3965.62819209551
 21
-1602.051315983756
 31
0.0
  0
LINE
  5
4A8
330
1F
100
AcDbEntity
  8
0-7_金物
  6
Continuous
 62
     7
370
     9
100
AcDbLine
 10
4018.661200684502
 20
-1669.412283910293
 30
0.0
 11
4050.481005837897
 21
-1651.04111083942
 31
0.0
  0
ELLIPSE
  5
4A9
330
1F
100
AcDbEntity
  8
0-7_金物
  6
Continuous
 62
     7
370
     9
100
AcDbEllipse
 10
4008.054598966703
 20
-1663.288559553335
 30
0.0
 11
30.00000000000003
 21
7.993605777301137E-14
 31
0.0
210
0.0
220
0.0
230
1.0
 40
0.5773502691896266
 41
0.2617993877991396
 42
2.356194490192344
  0
ELLIPSE
  5
4AA
330
1F
100
AcDbEntity
  8
0-7_金物
  6
Continuous
 62
     7
370
     9
100
AcDbEllipse
 10
3976.234793813309
 20
-1681.65973262421
 30
0.0
 11
29.99999999999995
 21
6.661338147750928E-14
 31
0.0
210
0.0
220
0.0
230
1.0
 40
0.5773502691896261
 41
2.356194490192344
 42
2.780225529683081
  0
LINE
  5
4AB
330
1F
100
AcDbEntity
  8
0-7_金物
  6
Continuous
 62
     7
370
     9
100
AcDbLine
 10
3955.021590377714
 20
-1742.896976193788
 30
0.0
 11
3875.472077494228
 21
-1696.969043516604
 31
0.0
  0
LINE
  5
4AC
330
1F
100
AcDbEntity
  8
0-7_金物
  6
Continuous
 62
     7
370
     9
100
AcDbLine
 10
3842.174682468005
 20
-1682.054290351029
 30
0.0
 11
3726.472912724425
 21
-1613.110290470321
 31
0.0
  0
ELLIPSE
  5
4AD
330
1F
100
AcDbEntity
  8
0-7_金物
  6
Continuous
 62
     7
370
     9
100
AcDbEllipse
 10
3875.472077494228
 20
-1657.997900346305
 30
0.0
 11
23.03500218845613
 21
38.65732368100281
 31
0.0
210
0.0
220
0.0
230
0.9999999999999998
 40
0.6634139481689386
 41
2.302614718066926
 42
3.873411044861822
  0
LINE
  5
4AE
330
1F
100
AcDbEntity
  8
0-7_金物
  6
Continuous
 62
     7
370
     9
100
AcDbLine
 10
3845.618449826623
 20
-1690.008555914049
 30
0.0
 11
3729.916680083047
 21
-1621.064556033341
 31
0.0
  0
LINE
  5
4AF
330
1F
100
AcDbEntity
  8
0-7_金物
  6
Continuous
 62
     7
370
     9
100
AcDbLine
 10
3851.096692575339
 20
-1695.781348200236
 30
0.0
 11
3735.394922831761
 21
-1626.837348319528
 31
0.0
  0
ELLIPSE
  5
4B0
330
1F
100
AcDbEntity
  8
0-7_金物
  6
Continuous
 62
     7
370
     9
100
AcDbEllipse
 10
3869.726744170834
 20
-1446.067066445979
 30
0.0
 11
3.839167031409386
 21
6.442887280167132
 31
0.0
210
0.0
220
0.0
230
1.0
 40
0.6634139481689387
 41
5.444207371656721
 42
7.015003698451618
  0
LINE
  5
4B1
330
1F
100
AcDbEntity
  8
0-7_金物
  6
Continuous
 62
     7
370
     9
100
AcDbLine
 10
3873.789308323982
 20
-1439.769825136991
 30
0.0
 11
3758.087538580404
 21
-1370.825825256284
 31
0.0
  0
LINE
  5
4B2
330
1F
100
AcDbEntity
  8
0-7_金物
  6
Continuous
 62
     7
370
     9
100
AcDbLine
 10
3872.599410832529
 20
-1439.236839677818
 30
0.0
 11
3756.897641088953
 21
-1370.29283979711
 31
0.0
  0
LINE
  5
4B3
330
1F
100
AcDbEntity
  8
0-7_金物
  6
Continuous
 62
     7
370
     9
100
AcDbLine
 10
3871.21374585539
 20
-1439.169322885411
 30
0.0
 11
3755.511976111812
 21
-1370.225323004703
 31
0.0
  0
LINE
  5
4B4
330
1F
100
AcDbEntity
  8
0-7_金物
  6
Continuous
 62
     7
370
     9
100
AcDbLine
 10
3731.043641133686
 20
-1380.269690182187
 30
0.0
 11
3754.024974427255
 21
-1370.62787603689
 31
0.0
  0
LINE
  5
4B5
330
1F
100
AcDbEntity
  8
0-7_金物
  6
Continuous
 62
     7
370
     9
100
AcDbLine
 10
3846.745410877264
 20
-1449.213690062894
 30
0.0
 11
3869.726744170834
 21
-1439.571875917597
 31
0.0
  0
LINE
  5
4B6
330
1F
100
AcDbEntity
  8
0-7_金物
  6
Continuous
 62
     7
370
     9
100
AcDbLine
 10
3869.726744170834
 20
-1439.571875917597
 30
0.0
 11
3754.024974427255
 21
-1370.62787603689
 31
0.0
  0
LINE
  5
4B7
330
1F
100
AcDbEntity
  8
0-7_金物
  6
Continuous
 62
     7
370
     9
100
AcDbLine
 10
3725.298307810294
 20
-1389.175334246896
 30
0.0
 11
3725.298307810294
 21
-1603.516621683544
 31
0.0
  0
LINE
  5
4B8
330
1F
100
AcDbEntity
  8
0-7_金物
  6
Continuous
 62
     7
370
     9
100
AcDbLine
 10
3841.000077553874
 20
-1458.119334127603
 30
0.0
 11
3841.000077553874
 21
-1672.460621564252
 31
0.0
  0
LINE
  5
4B9
330
1F
100
AcDbEntity
  8
0-7_金物
  6
Continuous
 62
     7
370
     9
100
AcDbLine
 10
3841.000077553874
 20
-1672.460621564252
 30
0.0
 11
3725.298307810294
 21
-1603.516621683544
 31
0.0
  0
ELLIPSE
  5
4BA
330
1F
100
AcDbEntity
  8
0-7_金物
  6
Continuous
 62
     7
370
     9
100
AcDbEllipse
 10
3846.745410877264
 20
-1455.708880591278
 30
0.0
 11
3.839167031409386
 21
6.442887280167133
 31
0.0
210
0.0
220
0.0
230
1.0
 40
0.6634139481689393
 41
0.7318183912720424
 42
2.302614718066939
  0
ELLIPSE
  5
4BB
330
1F
100
AcDbEntity
  8
0-7_金物
  6
Continuous
 62
     7
370
     9
100
AcDbEllipse
 10
3731.043641133686
 20
-1386.764880710571
 30
0.0
 11
3.839167031409303
 21
6.442887280167151
 31
0.0
210
0.0
220
0.0
230
0.9999999999999999
 40
0.6634139481689377
 41
0.7318183912720223
 42
2.302614718066919
  0
LINE
  5
4BC
330
1F
100
AcDbEntity
  8
0-7_金物
  6
Continuous
 62
     7
370
     9
100
AcDbLine
 10
3846.745410877264
 20
-1449.213690062894
 30
0.0
 11
3731.043641133686
 21
-1380.269690182187
 31
0.0
  0
LINE
  5
4BD
330
1F
100
AcDbEntity
  8
0-7_金物
  6
Continuous
 62
     7
370
     9
100
AcDbLine
 10
3845.258409192707
 20
-1450.058879595781
 30
0.0
 11
3729.556639449133
 21
-1381.114879715073
 31
0.0
  0
LINE
  5
4BE
330
1F
100
AcDbEntity
  8
0-7_金物
  6
Continuous
 62
     7
370
     9
100
AcDbLine
 10
3843.872744215568
 20
-1451.289107359441
 30
0.0
 11
3728.17097447199
 21
-1382.345107478732
 31
0.0
  0
LINE
  5
4BF
330
1F
100
AcDbEntity
  8
0-7_金物
  6
Continuous
 62
     7
370
     9
100
AcDbLine
 10
3842.682846724115
 20
-1452.82053536483
 30
0.0
 11
3726.981076980539
 21
-1383.876535484123
 31
0.0
  0
LINE
  5
4C0
330
1F
100
AcDbEntity
  8
0-7_金物
  6
Continuous
 62
     7
370
     9
100
AcDbLine
 10
3841.769806265999
 20
-1454.548799324187
 30
0.0
 11
3726.068036522419
 21
-1385.604799443478
 31
0.0
  0
LINE
  5
4C1
330
1F
100
AcDbEntity
  8
0-7_金物
  6
Continuous
 62
     7
370
     9
100
AcDbLine
 10
3841.195845039562
 20
-1456.35612090477
 30
0.0
 11
3725.494075295982
 21
-1387.412121024061
 31
0.0
  0
LINE
  5
4C2
330
1F
100
AcDbEntity
  8
0-7_金物
  6
Continuous
 62
     7
370
     9
100
AcDbLine
 10
3841.000077553874
 20
-1458.119334127603
 30
0.0
 11
3725.298307810294
 21
-1389.175334246896
 31
0.0
  0
LINE
  5
4C3
330
1F
100
AcDbEntity
  8
0-7_金物
  6
Continuous
 62
     7
370
     9
100
AcDbLine
 10
3875.472077494228
 20
-1696.969043516604
 30
0.0
 11
3875.472077494228
 21
-1443.656612909656
 31
0.0
  0
ELLIPSE
  5
4C4
330
1F
100
AcDbEntity
  8
0-7_金物
  6
Continuous
 62
     7
370
     9
100
AcDbEllipse
 10
3759.770307750648
 20
-1589.053900465597
 30
0.0
 11
23.03500218845609
 21
38.65732368100281
 31
0.0
210
0.0
220
0.0
230
1.0
 40
0.6634139481689381
 41
2.302614718066926
 42
3.088012881464371
  0
ELLIPSE
  5
4C5
330
1F
100
AcDbEntity
  8
0-7_金物
  6
Continuous
 62
     7
370
     9
100
AcDbEllipse
 10
3754.024974427255
 20
-1377.123066565272
 30
0.0
 11
3.839167031409308
 21
6.442887280167158
 31
0.0
210
0.0
220
0.0
230
0.9999999999999998
 40
0.6634139481689362
 41
6.22960553505472
 42
7.015003698451609
  0
LINE
  5
4C6
330
1F
100
AcDbEntity
  8
0-B_寸法
  6
Continuous
 62
   120
370
     5
100
AcDbLine
 10
3564.387617873303
 20
-1809.212772092909
 30
0.0
 11
3723.486712834886
 21
-1901.068677396804
 31
0.0
  0
LWPOLYLINE
  5
4C7
330
1F
100
AcDbEntity
  8
0-B_寸法
  6
Continuous
 62
     7
370
     9
100
AcDbPolyline
 90
        4
 70
     1
 43
3.0
 10
3565.887617873302
 20
-1809.212772092909
 42
0.4142135623731
 10
3564.387617873303
 20
-1807.712772092909
 42
0.4142135623731
 10
3562.887617873303
 20
-1809.212772092909
 42
0.4142135623731
 10
3564.387617873303
 20
-1810.712772092909
 42
0.4142135623731
  0
LINE
  5
4C8
330
1F
100
AcDbEntity
  8
0-B_寸法
  6
Continuous
 62
   120
370
     5
100
AcDbLine
 10
3564.387617873303
 20
-1809.212772092909
 30
0.0
 11
3664.249595332086
 21
-1751.557432525273
 31
0.0
  0
LINE
  5
4C9
330
1F
100
AcDbEntity
  8
0-B_寸法
  6
JWW_CENTER1
 62
   120
370
     5
100
AcDbLine
 10
4088.517384712571
 20
-1506.606323956784
 30
0.0
 11
3677.091497711154
 21
-1744.143170568631
 31
0.0
  0
LINE
  5
4CA
330
1F
100
AcDbEntity
  8
0-B_寸法
  6
JWW_CENTER1
 62
   120
370
     5
100
AcDbLine
 10
4135.333819580283
 20
-1663.288559553335
 30
0.0
 11
4311.714911453388
 21
-1765.122230426231
 31
0.0
  0
LINE
  5
4CB
330
1F
100
AcDbEntity
  8
0-6_扉
  6
Continuous
 62
     7
370
     9
100
AcDbLine
 10
3809.17740556968
 20
-1284.092068233642
 30
0.0
 11
3902.901842666337
 21
-1338.203897221041
 31
0.0
  0
LINE
  5
4CC
330
1F
100
AcDbEntity
  8
0-6_扉
  6
Continuous
 62
    40
370
    15
100
AcDbLine
 10
3989.888080976945
 20
-1480.281290679824
 30
0.0
 11
3902.901842666337
 21
-1430.059762575402
 31
0.0
  0
LINE
  5
4CD
330
1F
100
AcDbEntity
  8
0-6_扉
  6
Continuous
 62
    40
370
    15
100
AcDbLine
 10
3902.901842666337
 20
-603.6282470563178
 30
0.0
 11
3902.901842666337
 21
-1430.059762575402
 31
0.0
  0
LINE
  5
4CE
330
1F
100
AcDbEntity
  8
0-6_扉
  6
Continuous
 62
    40
370
    15
100
AcDbLine
 10
4793.856386961384
 20
-603.6282470563178
 30
0.0
 11
4793.856386961384
 21
-1283.090378008412
 31
0.0
  0
LINE
  5
4CF
330
1F
100
AcDbEntity
  8
0-6_扉
  6
Continuous
 62
    40
370
    15
100
AcDbLine
 10
4221.099894200283
 20
-603.6282470563178
 30
0.0
 11
4221.099894200283
 21
-1613.77149328414
 31
0.0
  0
LINE
  5
4D0
330
1F
100
AcDbEntity
  8
0-6_扉
  6
Continuous
 62
     7
370
     9
100
AcDbLine
 10
3702.549433901671
 20
-1222.530380087973
 30
0.0
 11
3792.641857434335
 21
-1274.545265066502
 31
0.0
  0
LINE
  5
4D1
330
1F
100
AcDbEntity
  8
0-6_扉
  6
Continuous
 62
     7
370
     9
100
AcDbLine
 10
3274.557085805856
 20
-975.4288827037534
 30
0.0
 11
3480.318000652283
 21
-1094.225002279042
 31
0.0
  0
MTEXT
  5
4D2
330
1F
100
AcDbEntity
  8
0-A_文字
  6
Continuous
 62
     7
370
     9
100
AcDbMText
 10
3108.054610951471
 20
-182.2801979518687
 30
0.0
 40
91.43999999999996
 41
1800.0
 46
0.0
 71
     7
 72
     1
  1
{\fＭＳ ゴシック|b0|i0|c128|p49;振れ止め金具(床付け用)取り付け}
 73
     1
 44
1.0
  0
MTEXT
  5
4D3
330
1F
100
AcDbEntity
  8
0-A_文字
  6
Continuous
 62
     7
370
     9
100
AcDbMText
 10
3003.371558105537
 20
-385.4650800606326
 30
0.0
 40
68.58
 41
1080.0
 46
0.0
 71
     7
 72
     1
  1
{\fＭＳ ゴシック|b0|i0|c128|p49;振れ止め金具(床付け用)を}
 73
     1
 44
1.0
  0
MTEXT
  5
4D4
330
1F
100
AcDbEntity
  8
0-A_文字
  6
Continuous
 62
     7
370
     9
100
AcDbMText
 10
3003.37155810554
 20
-490.6819117621852
 30
0.0
 40
68.57999999999996
 41
1259.999999999999
 46
0.0
 71
     7
 72
     1
  1
{\fＭＳ ゴシック|b0|i0|c128|p49;下記のように床へ取り付けます}
 73
     1
 44
1.0
  0
MTEXT
  5
4D5
330
1F
100
AcDbEntity
  8
0-A_文字
  6
Continuous
 62
     7
370
     9
100
AcDbMText
 10
3532.025267736245
 20
-882.9655349098941
 30
0.0
 40
68.58
 41
180.0
 46
0.0
 71
     7
 72
     1
  1
{\fＭＳ ゴシック|b0|i0|c128|p49;小壁}
 73
     1
 44
1.0
  0
MTEXT
  5
4D6
330
1F
100
AcDbEntity
  8
0-A_文字
  6
Continuous
 62
     7
370
     9
100
AcDbMText
 10
4372.478140580836
 20
-1071.651059036351
 30
0.0
 40
68.57999999999977
 41
269.9999999999991
 46
0.0
 71
     7
 72
     1
  1
{\fＭＳ ゴシック|b0|i0|c128|p49;中方立}
 73
     1
 44
1.0
  0
MTEXT
  5
4D7
330
1F
100
AcDbEntity
  8
0-A_文字
  6
Continuous
 62
     7
370
     9
100
AcDbMText
 10
3077.753670918848
 20
-2429.844841928883
 30
0.0
 40
68.57999999999998
 41
270.0
 46
0.0
 71
     7
 72
     1
  1
{\fＭＳ ゴシック|b0|i0|c128|p49;平面図}
 73
     1
 44
1.0
  0
MTEXT
  5
4D8
330
1F
100
AcDbEntity
  8
0-B_寸法
  6
Continuous
 62
     7
370
     9
100
AcDbMText
 10
3271.707423259062
 20
-1219.715119461853
 30
0.0
 40
68.58
 41
450.0
 46
0.0
 71
     7
 72
     1
  1
{\fＭＳ ゴシック|b0|i0|c128|p49;ビス(同梱)}
 73
     1
 44
1.0
  0
MTEXT
  5
4D9
330
1F
100
AcDbEntity
  8
0-B_寸法
  6
Continuous
 62
     7
370
   211
100
AcDbMText
 10
4459.951087086678
 20
-1913.231405304229
 30
0.0
 40
91.44
 41
60.0
 46
0.0
 71
     7
 72
     1
  1
{\fＭＳ ゴシック|b0|i0|c128|p49;5}
 73
     1
 44
1.0
  0
MTEXT
  5
4DA
330
1F
100
AcDbEntity
  8
0-B_寸法
  6
Continuous
 62
     7
370
   211
100
AcDbMText
 10
3363.486712834886
 20
-2070.509396712645
 30
0.0
 40
91.44
 41
720.0
 46
0.0
 71
     7
 72
     1
  1
{\fＭＳ ゴシック|b0|i0|c128|p49;15(中方立芯)}
 73
     1
 44
1.0
  0
MTEXT
  5
4DB
330
1F
100
AcDbEntity
  8
0-B_寸法
  6
Continuous
 62
     7
370
     9
100
AcDbMText
 10
4327.890959621396
 20
-2163.815648464781
 30
0.0
 40
68.58000000000001
 41
765.0
 46
0.0
 71
     7
 72
     1
  1
{\fＭＳ ゴシック|b0|i0|c128|p49;※図は左引き(L)の}
 73
     1
 44
1.0
  0
MTEXT
  5
4DC
330
1F
100
AcDbEntity
  8
0-B_寸法
  6
Continuous
 62
     7
370
     9
100
AcDbMText
 10
4327.890959621396
 20
-2275.301918819989
 30
0.0
 40
68.58
 41
540.0
 46
0.0
 71
     7
 72
     1
  1
{\fＭＳ ゴシック|b0|i0|c128|p49;　場合です。}
 73
     1
 44
1.0
  0
LINE
  5
4DD
330
1F
100
AcDbEntity
  8
0-6_扉
  6
Continuous
 62
    40
370
    15
100
AcDbLine
 10
4221.099894200313
 20
-1613.771493284086
 30
0.0
 11
3994.235044846524
 21
-1482.791011440084
 31
0.0
  0
LINE
  5
4DE
330
1F
100
AcDbEntity
  8
1-4_枠
  6
Continuous
 62
    92
370
    13
100
AcDbLine
 10
3977.801891438811
 20
-2832.675423701151
 30
0.0
 11
3977.801891438811
 21
-3282.675423701151
 31
0.0
  0
LINE
  5
4DF
330
1F
100
AcDbEntity
  8
1-4_枠
  6
Continuous
 62
    92
370
    13
100
AcDbLine
 10
3977.801891438811
 20
-2832.675423701151
 30
0.0
 11
4615.301891438809
 21
-2832.675423701151
 31
0.0
  0
LINE
  5
4E0
330
1F
100
AcDbEntity
  8
1-4_枠
  6
Continuous
 62
    92
370
    13
100
AcDbLine
 10
4615.301891438809
 20
-3261.462220265555
 30
0.0
 11
4615.301891438809
 21
-2832.675423701151
 31
0.0
  0
LINE
  5
4E1
330
1F
100
AcDbEntity
  8
1-4_枠
  6
Continuous
 62
    92
370
    13
100
AcDbLine
 10
4594.088688003216
 20
-3282.675423701151
 30
0.0
 11
3977.801891438811
 21
-3282.675423701151
 31
0.0
  0
LINE
  5
4E2
330
1F
100
AcDbEntity
  8
1-4_枠
  6
Continuous
 62
    92
370
    13
100
AcDbLine
 10
4615.301891438809
 20
-3261.462220265555
 30
0.0
 11
4594.088688003216
 21
-3282.675423701151
 31
0.0
  0
MTEXT
  5
4E3
330
1F
100
AcDbEntity
  8
0-A_文字
  6
Continuous
 62
     7
370
     9
100
AcDbMText
 10
4146.551891438809
 20
-2474.434382330846
 30
0.0
 40
68.58
 41
180.0
 46
0.0
 71
     7
 72
     1
  1
{\fＭＳ ゴシック|b0|i0|c128|p49;小壁}
 73
     1
 44
1.0
  0
MTEXT
  5
4E4
330
1F
100
AcDbEntity
  8
0-A_文字
  6
Continuous
 62
     7
370
     9
100
AcDbMText
 10
4101.551891438809
 20
-3113.385423701151
 30
0.0
 40
68.58000000000021
 41
270.0000000000009
 46
0.0
 71
     7
 72
     1
  1
{\fＭＳ ゴシック|b0|i0|c128|p49;中方立}
 73
     1
 44
1.0
  0
LINE
  5
4E5
330
1F
100
AcDbEntity
  8
1-4_枠
  6
JWW_CENTER1
 62
   120
370
     5
100
AcDbLine
 10
4093.895556055317
 20
-3057.675423701151
 30
0.0
 11
3577.57757552229
 21
-3057.675423701151
 31
0.0
  0
LINE
  5
4E6
330
1F
100
AcDbEntity
  8
1-4_枠
  6
JWW_CENTER1
 62
   120
370
     5
100
AcDbLine
 10
4900.302510038371
 20
-3057.675423701151
 30
0.0
 11
4374.247901054127
 21
-3057.675423701151
 31
0.0
  0
LINE
  5
4E7
330
1F
100
AcDbEntity
  8
1-B_寸法
  6
Continuous
 62
   120
370
     5
100
AcDbLine
 10
3977.801891438811
 20
-3477.771559770665
 30
0.0
 11
3693.532465520441
 21
-3477.771559770665
 31
0.0
  0
LINE
  5
4E8
330
1F
100
AcDbEntity
  8
1-B_寸法
  6
Continuous
 62
   120
370
     5
100
AcDbLine
 10
3977.801891438811
 20
-3477.771559770665
 30
0.0
 11
3977.801891438811
 21
-3357.675423701151
 31
0.0
  0
LWPOLYLINE
  5
4E9
330
1F
100
AcDbEntity
  8
1-B_寸法
  6
Continuous
 62
     7
370
     9
100
AcDbPolyline
 90
        4
 70
     1
 43
3.0
 10
3979.301891438811
 20
-3477.771559770665
 42
0.4142135623731
 10
3977.801891438811
 20
-3476.271559770665
 42
0.4142135623731
 10
3976.301891438811
 20
-3477.771559770665
 42
0.4142135623731
 10
3977.801891438811
 20
-3479.271559770665
 42
0.4142135623731
  0
MTEXT
  5
4EA
330
1F
100
AcDbEntity
  8
1-B_寸法
  6
Continuous
 62
     7
370
   211
100
AcDbMText
 10
3760.301891438811
 20
-3483.720999593183
 30
0.0
 40
91.44
 41
60.0
 46
0.0
 71
     7
 72
     1
  1
{\fＭＳ ゴシック|b0|i0|c128|p49;5}
 73
     1
 44
1.0
  0
LINE
  5
4EB
330
1F
100
AcDbEntity
  8
1-4_枠
  6
Continuous
 62
     7
370
     9
100
AcDbLine
 10
4007.801891438813
 20
-2770.222453951809
 30
0.0
 11
4007.801891438813
 21
-2832.675423701151
 31
0.0
  0
LINE
  5
4EC
330
1F
100
AcDbEntity
  8
1-4_枠
  6
Continuous
 62
     7
370
     9
100
AcDbLine
 10
4465.301891438809
 20
-2770.222453951809
 30
0.0
 11
4465.301891438809
 21
-2832.675423701151
 31
0.0
  0
LINE
  5
4ED
330
1F
100
AcDbEntity
  8
0-A_文字
  6
Continuous
 62
   120
370
     5
100
AcDbLine
 10
3957.588519850232
 20
-2748.043923200726
 30
0.0
 11
4725.514728446331
 21
-2748.043923200726
 31
0.0
  0
LINE
  5
4EE
330
1F
100
AcDbEntity
  8
1-4_枠
  6
Continuous
 62
     7
370
     9
100
AcDbLine
 10
4007.801891438813
 20
-2328.977273196831
 30
0.0
 11
4007.801891438813
 21
-2632.414847687827
 31
0.0
  0
LINE
  5
4EF
330
1F
100
AcDbEntity
  8
1-4_枠
  6
Continuous
 62
     7
370
     9
100
AcDbLine
 10
4465.301891438809
 20
-2328.977273196831
 30
0.0
 11
4465.301891438809
 21
-2632.414847687827
 31
0.0
  0
LINE
  5
4F0
330
1F
100
AcDbEntity
  8
1-1_通り芯
  6
JWW_CENTER1
 62
   120
370
     5
100
AcDbLine
 10
1329.918171683583
 20
-482.1136554613605
 30
0.0
 11
1329.918171683583
 21
-2629.737142997812
 31
0.0
  0
LINE
  5
4F1
330
1F
100
AcDbEntity
  8
1-3_仕上げ
  6
Continuous
 62
    40
370
    15
100
AcDbLine
 10
288.8804660521407
 20
-2315.655803330827
 30
0.0
 11
2361.844512686855
 21
-2315.655803330827
 31
0.0
  0
LINE
  5
4F2
330
1F
100
AcDbEntity
  8
0-A_文字
  6
Continuous
 62
    92
370
    13
100
AcDbLine
 10
9.918171683581871
 20
-2838.00040394552
 30
0.0
 11
9.918171683581871
 21
-18.0001979518687
 31
0.0
  0
LINE
  5
4F3
330
1F
100
AcDbEntity
  8
1-3_仕上げ
  6
Continuous
 62
    40
370
    15
100
AcDbLine
 10
288.8804660521407
 20
-2495.655803330825
 30
0.0
 11
2361.844512686855
 21
-2495.655803330825
 31
0.0
  0
LINE
  5
4F4
330
1F
100
AcDbEntity
  8
0-A_文字
  6
Continuous
 62
    92
370
    13
100
AcDbLine
 10
9.918171683581871
 20
-198.0001979518687
 30
0.0
 11
2649.918171683582
 21
-198.0001979518687
 31
0.0
  0
LINE
  5
4F5
330
1F
100
AcDbEntity
  8
0-A_文字
  6
Continuous
 62
    92
370
    13
100
AcDbLine
 10
9.918171683581871
 20
-18.0001979518687
 30
0.0
 11
2649.918171683582
 21
-18.0001979518687
 31
0.0
  0
LINE
  5
4F6
330
1F
100
AcDbEntity
  8
0-A_文字
  6
Continuous
 62
    92
370
    13
100
AcDbLine
 10
9.918171683581871
 20
-2838.00040394552
 30
0.0
 11
2649.918171683582
 21
-2838.00040394552
 31
0.0
  0
LINE
  5
4F7
330
1F
100
AcDbEntity
  8
0-A_文字
  6
Continuous
 62
    92
370
    13
100
AcDbLine
 10
2649.918171683582
 20
-18.0001979518687
 30
0.0
 11
2649.918171683582
 21
-2838.00040394552
 31
0.0
  0
LINE
  5
4F8
330
1F
100
AcDbEntity
  8
1-0_補助線
  6
JWW_HOJO
 62
   120
370
     5
100
AcDbLine
 10
1738.668171683561
 20
-1843.155803330828
 30
0.0
 11
1738.668171683561
 21
-2495.655287649519
 31
0.0
  0
LINE
  5
4F9
330
1F
100
AcDbEntity
  8
1-0_補助線
  6
JWW_HOJO
 62
   120
370
     5
100
AcDbLine
 10
1914.918171683563
 20
-1843.155803330828
 30
0.0
 11
1914.918171683563
 21
-2495.655287649519
 31
0.0
  0
LINE
  5
4FA
330
1F
100
AcDbEntity
  8
1-6_扉
  6
JWW_DASHED2
 62
     7
370
     9
100
AcDbLine
 10
1839.918171683563
 20
-510.9103996822896
 30
0.0
 11
1839.918171683563
 21
-1982.096364289648
 31
0.0
  0
LINE
  5
4FB
330
1F
100
AcDbEntity
  8
1-0_補助線
  6
JWW_HOJO
 62
   120
370
     5
100
AcDbLine
 10
1614.918171683589
 20
-510.9103996822896
 30
0.0
 11
1614.918171683589
 21
-2495.655803330825
 31
0.0
  0
LWPOLYLINE
  5
4FC
330
1F
100
AcDbEntity
  8
1-B_寸法
  6
Continuous
 62
     7
370
     9
100
AcDbPolyline
 90
        4
 70
     1
 43
3.0
 10
1391.418171683563
 20
-903.4888920769392
 42
0.4142135623731
 10
1389.918171683563
 20
-901.9888920769392
 42
0.4142135623731
 10
1388.418171683563
 20
-903.4888920769392
 42
0.4142135623731
 10
1389.918171683563
 20
-904.9888920769394
 42
0.4142135623731
  0
LWPOLYLINE
  5
4FD
330
1F
100
AcDbEntity
  8
1-B_寸法
  6
Continuous
 62
     7
370
     9
100
AcDbPolyline
 90
        4
 70
     1
 43
3.0
 10
1293.918171683578
 20
-903.4888920769392
 42
0.4142135623731
 10
1292.418171683578
 20
-901.9888920769392
 42
0.4142135623731
 10
1290.918171683578
 20
-903.4888920769392
 42
0.4142135623731
 10
1292.418171683578
 20
-904.9888920769394
 42
0.4142135623731
  0
LINE
  5
4FE
330
1F
100
AcDbEntity
  8
1-B_寸法
  6
Continuous
 62
   120
370
     5
100
AcDbLine
 10
1389.918171683563
 20
-903.4888920769392
 30
0.0
 11
1389.918171683563
 21
-1053.488892076939
 31
0.0
  0
LINE
  5
4FF
330
1F
100
AcDbEntity
  8
1-B_寸法
  6
Continuous
 62
   120
370
     5
100
AcDbLine
 10
1292.418171683578
 20
-903.4888920769392
 30
0.0
 11
1292.418171683578
 21
-1053.488892076939
 31
0.0
  0
LINE
  5
500
330
1F
100
AcDbEntity
  8
1-B_寸法
  6
Continuous
 62
   120
370
     5
100
AcDbLine
 10
1629.918171683563
 20
-903.4888920769392
 30
0.0
 11
1292.418171683578
 21
-903.4888920769392
 31
0.0
  0
LINE
  5
501
330
1F
100
AcDbEntity
  8
1-0_補助線
  6
JWW_HOJO
 62
   120
370
     5
100
AcDbLine
 10
1914.918171683563
 20
-1843.155803330828
 30
0.0
 11
1041.168171683534
 21
-1843.155803330828
 31
0.0
  0
LINE
  5
502
330
1F
100
AcDbEntity
  8
1-0_補助線
  6
JWW_HOJO
 62
   120
370
     5
100
AcDbLine
 10
1041.168171683534
 20
-1843.155803330828
 30
0.0
 11
1041.168171683534
 21
-2495.655287649519
 31
0.0
  0
LINE
  5
503
330
1F
100
AcDbEntity
  8
1-0_補助線
  6
JWW_HOJO
 62
   120
370
     5
100
AcDbLine
 10
1217.418171683578
 20
-1843.155803330828
 30
0.0
 11
1217.418171683578
 21
-2495.655287649519
 31
0.0
  0
LWPOLYLINE
  5
504
330
1F
100
AcDbEntity
  8
1-B_寸法
  6
Continuous
 62
     7
370
     9
100
AcDbPolyline
 90
        4
 70
     1
 43
3.0
 10
1163.240135077903
 20
-2315.65580333083
 42
0.4142135623731
 10
1161.740135077903
 20
-2314.15580333083
 42
0.4142135623731
 10
1160.240135077903
 20
-2315.65580333083
 42
0.4142135623731
 10
1161.740135077903
 20
-2317.15580333083
 42
0.4142135623731
  0
LINE
  5
505
330
1F
100
AcDbEntity
  8
1-B_寸法
  6
Continuous
 62
   120
370
     5
100
AcDbLine
 10
1161.740135077903
 20
-2315.65580333083
 30
0.0
 11
1254.918171683561
 21
-2315.65580333083
 31
0.0
  0
LINE
  5
506
330
1F
100
AcDbEntity
  8
1-A_文字
  6
Continuous
 62
     7
370
     9
100
AcDbLine
 10
1205.464766145384
 20
-2631.972886088506
 30
0.0
 11
1130.464766145384
 21
-2631.972886088506
 31
0.0
  0
LINE
  5
507
330
1F
100
AcDbEntity
  8
1-A_文字
  6
Continuous
 62
     7
370
     9
100
AcDbLine
 10
1399.21578771105
 20
-2296.3862727184
 30
0.0
 11
1205.464766145384
 21
-2631.972886088506
 31
0.0
  0
LINE
  5
508
330
1F
100
AcDbEntity
  8
1-7_金物
  6
Continuous
 62
   120
370
     5
100
AcDbLine
 10
1599.826146734412
 20
-2315.044354796368
 30
0.0
 11
1636.820325572398
 21
-2278.050175958373
 31
0.0
  0
LINE
  5
509
330
1F
100
AcDbEntity
  8
1-7_金物
  6
Continuous
 62
   120
370
     5
100
AcDbLine
 10
1535.575087893076
 20
-2315.655803330807
 30
0.0
 11
1580.573595174886
 21
-2270.657296049006
 31
0.0
  0
LINE
  5
50A
330
1F
100
AcDbEntity
  8
1-7_金物
  6
Continuous
 62
   120
370
     5
100
AcDbLine
 10
1592.420331755844
 20
-2258.810559468037
 30
0.0
 11
1637.420331755879
 21
-2213.810559468014
 31
0.0
  0
LINE
  5
50B
330
1F
100
AcDbEntity
  8
1-7_金物
  6
Continuous
 62
   120
370
     5
100
AcDbLine
 10
1471.935477586322
 20
-2315.655803330828
 30
0.0
 11
1516.933984868106
 21
-2270.657296049031
 31
0.0
  0
LINE
  5
50C
330
1F
100
AcDbEntity
  8
1-7_金物
  6
Continuous
 62
   120
370
     5
100
AcDbLine
 10
1592.420331755869
 20
-2195.170949161275
 30
0.0
 11
1637.420331755888
 21
-2150.17094916126
 31
0.0
  0
LINE
  5
50D
330
1F
100
AcDbEntity
  8
1-7_金物
  6
Continuous
 62
   120
370
     5
100
AcDbLine
 10
1408.295867279568
 20
-2315.655803330837
 30
0.0
 11
1453.294374561344
 21
-2270.657296049057
 31
0.0
  0
LINE
  5
50E
330
1F
100
AcDbEntity
  8
1-7_金物
  6
Continuous
 62
   120
370
     5
100
AcDbLine
 10
1592.420331755895
 20
-2131.531338854508
 30
0.0
 11
1637.420331755905
 21
-2086.531338854496
 31
0.0
  0
LINE
  5
50F
330
1F
100
AcDbEntity
  8
1-7_金物
  6
Continuous
 62
   120
370
     5
100
AcDbLine
 10
1592.420331755878
 20
-2067.891728547647
 30
0.0
 11
1637.420331755896
 21
-2022.891728547624
 31
0.0
  0
LINE
  5
510
330
1F
100
AcDbEntity
  8
1-7_金物
  6
Continuous
 62
   120
370
     5
100
AcDbLine
 10
1367.420331755857
 20
-2292.89172854766
 30
0.0
 11
1389.654764254504
 21
-2270.657296049012
 31
0.0
  0
LINE
  5
511
330
1F
100
AcDbEntity
  8
1-7_金物
  6
Continuous
 62
    92
370
    13
100
AcDbLine
 10
1367.420331755857
 20
-2270.65580333083
 30
0.0
 11
1367.420331755857
 21
-2315.65580333083
 31
0.0
  0
LINE
  5
512
330
1F
100
AcDbEntity
  8
1-7_金物
  6
Continuous
 62
    92
370
    13
100
AcDbLine
 10
1367.420331755857
 20
-2270.65580333083
 30
0.0
 11
1592.420331755881
 21
-2270.65580333083
 31
0.0
  0
LINE
  5
513
330
1F
100
AcDbEntity
  8
1-7_金物
  6
Continuous
 62
    92
370
    13
100
AcDbLine
 10
1592.420331755881
 20
-2015.65580333083
 30
0.0
 11
1637.420331755879
 21
-2015.65580333083
 31
0.0
  0
LINE
  5
514
330
1F
100
AcDbEntity
  8
1-7_金物
  6
Continuous
 62
    92
370
    13
100
AcDbLine
 10
1592.420331755881
 20
-2015.65580333083
 30
0.0
 11
1592.420331755881
 21
-2270.65580333083
 31
0.0
  0
LINE
  5
515
330
1F
100
AcDbEntity
  8
1-7_金物
  6
Continuous
 62
    92
370
    13
100
AcDbLine
 10
1592.420331755881
 20
-2315.65580333083
 30
0.0
 11
1367.420331755857
 21
-2315.65580333083
 31
0.0
  0
LINE
  5
516
330
1F
100
AcDbEntity
  8
1-7_金物
  6
Continuous
 62
    92
370
    13
100
AcDbLine
 10
1637.420331755879
 20
-2270.65580333083
 30
0.0
 11
1637.420331755879
 21
-2015.65580333083
 31
0.0
  0
ARC
  5
517
330
1F
100
AcDbEntity
  8
1-7_金物
  6
Continuous
 62
    92
370
    13
100
AcDbCircle
 10
1592.420331755881
 20
-2270.65580333083
 30
0.0
 40
45.0
100
AcDbArc
 50
270.0
 51
0.0
  0
LINE
  5
518
330
1F
100
AcDbEntity
  8
1-B_寸法
  6
Continuous
 62
   120
370
     5
100
AcDbLine
 10
1161.740135077903
 20
-2315.65580333083
 30
0.0
 11
1161.740135077903
 21
-2015.65580333083
 31
0.0
  0
LWPOLYLINE
  5
519
330
1F
100
AcDbEntity
  8
1-B_寸法
  6
Continuous
 62
     7
370
     9
100
AcDbPolyline
 90
        4
 70
     1
 43
3.0
 10
1163.240135077903
 20
-2015.65580333083
 42
0.4142135623731
 10
1161.740135077903
 20
-2014.15580333083
 42
0.4142135623731
 10
1160.240135077903
 20
-2015.65580333083
 42
0.4142135623731
 10
1161.740135077903
 20
-2017.15580333083
 42
0.4142135623731
  0
LINE
  5
51A
330
1F
100
AcDbEntity
  8
1-B_寸法
  6
Continuous
 62
   120
370
     5
100
AcDbLine
 10
1161.740135077903
 20
-2015.65580333083
 30
0.0
 11
1254.918171683561
 21
-2015.65580333083
 31
0.0
  0
LINE
  5
51B
330
1F
100
AcDbEntity
  8
1-B_寸法
  6
Continuous
 62
   120
370
     5
100
AcDbLine
 10
1637.420331755881
 20
-1702.004697027071
 30
0.0
 11
1367.420331755857
 21
-1702.004697027071
 31
0.0
  0
LWPOLYLINE
  5
51C
330
1F
100
AcDbEntity
  8
1-B_寸法
  6
Continuous
 62
     7
370
     9
100
AcDbPolyline
 90
        4
 70
     1
 43
3.0
 10
1638.920331755881
 20
-1702.004697027071
 42
0.4142135623731
 10
1637.420331755881
 20
-1700.504697027071
 42
0.4142135623731
 10
1635.920331755881
 20
-1702.004697027071
 42
0.4142135623731
 10
1637.420331755881
 20
-1703.504697027071
 42
0.4142135623731
  0
LWPOLYLINE
  5
51D
330
1F
100
AcDbEntity
  8
1-B_寸法
  6
Continuous
 62
     7
370
     9
100
AcDbPolyline
 90
        4
 70
     1
 43
3.0
 10
1368.920331755857
 20
-1702.004697027071
 42
0.4142135623731
 10
1367.420331755857
 20
-1700.504697027071
 42
0.4142135623731
 10
1365.920331755857
 20
-1702.004697027071
 42
0.4142135623731
 10
1367.420331755857
 20
-1703.504697027071
 42
0.4142135623731
  0
LINE
  5
51E
330
1F
100
AcDbEntity
  8
1-B_寸法
  6
Continuous
 62
   120
370
     5
100
AcDbLine
 10
1637.420331755881
 20
-1702.004697027071
 30
0.0
 11
1637.420331755881
 21
-1852.004697027071
 31
0.0
  0
LINE
  5
51F
330
1F
100
AcDbEntity
  8
1-B_寸法
  6
Continuous
 62
   120
370
     5
100
AcDbLine
 10
1367.420331755857
 20
-1702.004697027071
 30
0.0
 11
1367.420331755857
 21
-1852.004697027071
 31
0.0
  0
LINE
  5
520
330
1F
100
AcDbEntity
  8
1-B_寸法
  6
Continuous
 62
   120
370
     5
100
AcDbLine
 10
1367.420331755857
 20
-1702.004697027071
 30
0.0
 11
1292.418171683561
 21
-1702.004697027071
 31
0.0
  0
LWPOLYLINE
  5
521
330
1F
100
AcDbEntity
  8
1-B_寸法
  6
Continuous
 62
     7
370
     9
100
AcDbPolyline
 90
        4
 70
     1
 43
3.0
 10
1293.918171683561
 20
-1702.004697027071
 42
0.4142135623731
 10
1292.418171683561
 20
-1700.504697027071
 42
0.4142135623731
 10
1290.918171683561
 20
-1702.004697027071
 42
0.4142135623731
 10
1292.418171683561
 20
-1703.504697027071
 42
0.4142135623731
  0
LINE
  5
522
330
1F
100
AcDbEntity
  8
1-B_寸法
  6
Continuous
 62
   120
370
     5
100
AcDbLine
 10
1292.418171683561
 20
-1702.004697027071
 30
0.0
 11
1292.418171683561
 21
-1852.004697027071
 31
0.0
  0
LINE
  5
523
330
1F
100
AcDbEntity
  8
1-6_扉
  6
JWW_DASHED2
 62
     7
370
     9
100
AcDbLine
 10
1566.166054526575
 20
-2188.155803330826
 30
0.0
 11
1566.166054526575
 21
-1918.155803330827
 31
0.0
  0
LINE
  5
524
330
1F
100
AcDbEntity
  8
1-6_扉
  6
JWW_DASHED2
 62
     7
370
     9
100
AcDbLine
 10
1663.668171683558
 20
-1918.155803330827
 30
0.0
 11
1663.668171683558
 21
-2188.155803330826
 31
0.0
  0
LINE
  5
525
330
1F
100
AcDbEntity
  8
1-6_扉
  6
JWW_DASHED2
 62
     7
370
     9
100
AcDbLine
 10
1663.668171683558
 20
-1918.155803330827
 30
0.0
 11
1566.166054526575
 21
-1918.155803330827
 31
0.0
  0
LINE
  5
526
330
1F
100
AcDbEntity
  8
1-7_金物
  6
Continuous
 62
     7
370
     9
100
AcDbLine
 10
1566.170331755859
 20
-2188.15580333083
 30
0.0
 11
1566.170331755859
 21
-1918.15580333083
 31
0.0
  0
LINE
  5
527
330
1F
100
AcDbEntity
  8
1-7_金物
  6
Continuous
 62
     7
370
     9
100
AcDbLine
 10
1521.170331755857
 20
-2188.15580333083
 30
0.0
 11
1566.170331755859
 21
-2188.15580333083
 31
0.0
  0
LINE
  5
528
330
1F
100
AcDbEntity
  8
1-7_金物
  6
Continuous
 62
     7
370
     9
100
AcDbLine
 10
1521.170331755857
 20
-2203.155803330827
 30
0.0
 11
1521.170331755857
 21
-2188.15580333083
 31
0.0
  0
LINE
  5
529
330
1F
100
AcDbEntity
  8
1-7_金物
  6
Continuous
 62
     7
370
     9
100
AcDbLine
 10
1581.170331755862
 20
-2203.155803330827
 30
0.0
 11
1581.170331755862
 21
-1933.15580333083
 31
0.0
  0
LINE
  5
52A
330
1F
100
AcDbEntity
  8
1-7_金物
  6
Continuous
 62
     7
370
     9
100
AcDbLine
 10
1581.170331755862
 20
-2203.155803330827
 30
0.0
 11
1521.170331755857
 21
-2203.155803330827
 31
0.0
  0
LINE
  5
52B
330
1F
100
AcDbEntity
  8
1-7_金物
  6
Continuous
 62
     7
370
     9
100
AcDbLine
 10
1663.670331755861
 20
-1918.15580333083
 30
0.0
 11
1663.670331755861
 21
-2188.15580333083
 31
0.0
  0
LINE
  5
52C
330
1F
100
AcDbEntity
  8
1-7_金物
  6
Continuous
 62
     7
370
     9
100
AcDbLine
 10
1648.670331755857
 20
-1933.15580333083
 30
0.0
 11
1648.670331755857
 21
-2203.155803330827
 31
0.0
  0
LINE
  5
52D
330
1F
100
AcDbEntity
  8
1-7_金物
  6
Continuous
 62
     7
370
     9
100
AcDbLine
 10
1566.170331755859
 20
-1918.15580333083
 30
0.0
 11
1663.670331755861
 21
-1918.15580333083
 31
0.0
  0
LINE
  5
52E
330
1F
100
AcDbEntity
  8
1-7_金物
  6
Continuous
 62
     7
370
     9
100
AcDbLine
 10
1648.670331755857
 20
-1933.15580333083
 30
0.0
 11
1581.170331755862
 21
-1933.15580333083
 31
0.0
  0
LINE
  5
52F
330
1F
100
AcDbEntity
  8
1-7_金物
  6
Continuous
 62
     7
370
     9
100
AcDbLine
 10
1648.670331755857
 20
-2203.155803330827
 30
0.0
 11
1708.670331755857
 21
-2203.155803330827
 31
0.0
  0
LINE
  5
530
330
1F
100
AcDbEntity
  8
1-7_金物
  6
Continuous
 62
     7
370
     9
100
AcDbLine
 10
1708.670331755857
 20
-2188.15580333083
 30
0.0
 11
1708.670331755857
 21
-2203.155803330827
 31
0.0
  0
LINE
  5
531
330
1F
100
AcDbEntity
  8
1-7_金物
  6
Continuous
 62
     7
370
     9
100
AcDbLine
 10
1663.670331755861
 20
-2188.15580333083
 30
0.0
 11
1708.670331755857
 21
-2188.15580333083
 31
0.0
  0
LINE
  5
532
330
1F
100
AcDbEntity
  8
1-6_扉
  6
JWW_DASHED2
 62
     7
370
     9
100
AcDbLine
 10
1783.670331755857
 20
-2188.15580333083
 30
0.0
 11
1663.670331755861
 21
-2188.15580333083
 31
0.0
  0
LINE
  5
533
330
1F
100
AcDbEntity
  8
1-6_扉
  6
JWW_DASHED2
 62
     7
370
     9
100
AcDbLine
 10
1566.166054526575
 20
-2188.15580333083
 30
0.0
 11
1389.918171683563
 21
-2188.15580333083
 31
0.0
  0
LINE
  5
534
330
1F
100
AcDbEntity
  8
1-B_寸法
  6
Continuous
 62
   120
370
     5
100
AcDbLine
 10
2083.670331755857
 20
-2315.65580333083
 30
0.0
 11
1783.670331755857
 21
-2315.65580333083
 31
0.0
  0
LINE
  5
535
330
1F
100
AcDbEntity
  8
1-B_寸法
  6
Continuous
 62
   120
370
     5
100
AcDbLine
 10
1783.670331755857
 20
-2270.65580333083
 30
0.0
 11
1933.670331755857
 21
-2270.65580333083
 31
0.0
  0
LINE
  5
536
330
1F
100
AcDbEntity
  8
1-B_寸法
  6
Continuous
 62
   120
370
     5
100
AcDbLine
 10
1933.670331755857
 20
-2270.65580333083
 30
0.0
 11
1933.670331755857
 21
-2315.65580333083
 31
0.0
  0
LINE
  5
537
330
1F
100
AcDbEntity
  8
1-B_寸法
  6
Continuous
 62
   120
370
     5
100
AcDbLine
 10
2083.670331755857
 20
-2315.65580333083
 30
0.0
 11
2083.670331755857
 21
-2495.655803330829
 31
0.0
  0
LINE
  5
538
330
1F
100
AcDbEntity
  8
1-B_寸法
  6
Continuous
 62
   120
370
     5
100
AcDbLine
 10
2083.670331755857
 20
-2495.655803330829
 30
0.0
 11
1783.670331755857
 21
-2495.655803330829
 31
0.0
  0
LWPOLYLINE
  5
539
330
1F
100
AcDbEntity
  8
1-B_寸法
  6
Continuous
 62
     7
370
     9
100
AcDbPolyline
 90
        4
 70
     1
 43
3.0
 10
1935.170331755857
 20
-2315.65580333083
 42
0.4142135623731
 10
1933.670331755857
 20
-2314.15580333083
 42
0.4142135623731
 10
1932.170331755857
 20
-2315.65580333083
 42
0.4142135623731
 10
1933.670331755857
 20
-2317.15580333083
 42
0.4142135623731
  0
LWPOLYLINE
  5
53A
330
1F
100
AcDbEntity
  8
1-B_寸法
  6
Continuous
 62
     7
370
     9
100
AcDbPolyline
 90
        4
 70
     1
 43
3.0
 10
1935.170331755857
 20
-2270.65580333083
 42
0.4142135623731
 10
1933.670331755857
 20
-2269.15580333083
 42
0.4142135623731
 10
1932.170331755857
 20
-2270.65580333083
 42
0.4142135623731
 10
1933.670331755857
 20
-2272.15580333083
 42
0.4142135623731
  0
LWPOLYLINE
  5
53B
330
1F
100
AcDbEntity
  8
1-B_寸法
  6
Continuous
 62
     7
370
     9
100
AcDbPolyline
 90
        4
 70
     1
 43
3.0
 10
2085.170331755857
 20
-2495.655803330829
 42
0.4142135623731
 10
2083.670331755857
 20
-2494.155803330829
 42
0.4142135623731
 10
2082.170331755857
 20
-2495.655803330829
 42
0.4142135623731
 10
2083.670331755857
 20
-2497.155803330829
 42
0.4142135623731
  0
LWPOLYLINE
  5
53C
330
1F
100
AcDbEntity
  8
1-B_寸法
  6
Continuous
 62
     7
370
     9
100
AcDbPolyline
 90
        4
 70
     1
 43
3.0
 10
2085.170331755857
 20
-2315.65580333083
 42
0.4142135623731
 10
2083.670331755857
 20
-2314.15580333083
 42
0.4142135623731
 10
2082.170331755857
 20
-2315.65580333083
 42
0.4142135623731
 10
2083.670331755857
 20
-2317.15580333083
 42
0.4142135623731
  0
LINE
  5
53D
330
1F
100
AcDbEntity
  8
1-B_寸法
  6
Continuous
 62
   120
370
     5
100
AcDbLine
 10
1783.670331755857
 20
-2188.15580333083
 30
0.0
 11
2083.670331755857
 21
-2188.15580333083
 31
0.0
  0
LINE
  5
53E
330
1F
100
AcDbEntity
  8
1-B_寸法
  6
Continuous
 62
   120
370
     5
100
AcDbLine
 10
1933.670331755857
 20
-2270.65580333083
 30
0.0
 11
1933.670331755857
 21
-1997.096364289648
 31
0.0
  0
LINE
  5
53F
330
1F
100
AcDbEntity
  8
1-B_寸法
  6
Continuous
 62
   120
370
     5
100
AcDbLine
 10
2083.670331755857
 20
-1997.096364289648
 30
0.0
 11
2083.670331755857
 21
-2315.65580333083
 31
0.0
  0
LWPOLYLINE
  5
540
330
1F
100
AcDbEntity
  8
1-B_寸法
  6
Continuous
 62
     7
370
     9
100
AcDbPolyline
 90
        4
 70
     1
 43
3.0
 10
1935.170331755857
 20
-2188.15580333083
 42
0.4142135623731
 10
1933.670331755857
 20
-2186.65580333083
 42
0.4142135623731
 10
1932.170331755857
 20
-2188.15580333083
 42
0.4142135623731
 10
1933.670331755857
 20
-2189.65580333083
 42
0.4142135623731
  0
LWPOLYLINE
  5
541
330
1F
100
AcDbEntity
  8
1-B_寸法
  6
Continuous
 62
     7
370
     9
100
AcDbPolyline
 90
        4
 70
     1
 43
3.0
 10
2085.170331755857
 20
-2188.15580333083
 42
0.4142135623731
 10
2083.670331755857
 20
-2186.65580333083
 42
0.4142135623731
 10
2082.170331755857
 20
-2188.15580333083
 42
0.4142135623731
 10
2083.670331755857
 20
-2189.65580333083
 42
0.4142135623731
  0
LINE
  5
542
330
1F
100
AcDbEntity
  8
1-B_寸法
  6
Continuous
 62
   120
370
     5
100
AcDbLine
 10
1003.243108517233
 20
-2188.15580333083
 30
0.0
 11
1145.921977069642
 21
-2188.15580333083
 31
0.0
  0
LINE
  5
543
330
1F
100
AcDbEntity
  8
1-B_寸法
  6
Continuous
 62
   120
370
     5
100
AcDbLine
 10
1003.243108517233
 20
-1918.155803330831
 30
0.0
 11
1254.918171683561
 21
-1918.155803330831
 31
0.0
  0
LWPOLYLINE
  5
544
330
1F
100
AcDbEntity
  8
1-B_寸法
  6
Continuous
 62
     7
370
     9
100
AcDbPolyline
 90
        4
 70
     1
 43
3.0
 10
1004.743108517232
 20
-1918.155803330831
 42
0.4142135623731
 10
1003.243108517233
 20
-1916.655803330831
 42
0.4142135623731
 10
1001.743108517233
 20
-1918.155803330831
 42
0.4142135623731
 10
1003.243108517233
 20
-1919.655803330831
 42
0.4142135623731
  0
LWPOLYLINE
  5
545
330
1F
100
AcDbEntity
  8
1-B_寸法
  6
Continuous
 62
     7
370
     9
100
AcDbPolyline
 90
        4
 70
     1
 43
3.0
 10
1004.743108517232
 20
-2188.15580333083
 42
0.4142135623731
 10
1003.243108517233
 20
-2186.65580333083
 42
0.4142135623731
 10
1001.743108517233
 20
-2188.15580333083
 42
0.4142135623731
 10
1003.243108517233
 20
-2189.65580333083
 42
0.4142135623731
  0
LINE
  5
546
330
1F
100
AcDbEntity
  8
1-B_寸法
  6
Continuous
 62
   120
370
     5
100
AcDbLine
 10
1003.243108517233
 20
-2188.15580333083
 30
0.0
 11
1003.243108517233
 21
-1918.155803330831
 31
0.0
  0
MTEXT
  5
547
330
1F
100
AcDbEntity
  8
0-A_文字
  6
Continuous
 62
     7
370
     9
100
AcDbMText
 10
399.9181716835818
 20
-182.2801979518687
 30
0.0
 40
91.43999999999998
 41
1860.0
 46
0.0
 71
     7
 72
     1
  1
{\fＭＳ ゴシック|b0|i0|c128|p49;振れ止め金具取り付け位置　S=1/2}
 73
     1
 44
1.0
  0
MTEXT
  5
548
330
1F
100
AcDbEntity
  8
1-A_文字
  6
Continuous
 62
     7
370
     9
100
AcDbMText
 10
1089.918171683583
 20
-496.3936554613605
 30
0.0
 40
91.44
 41
480.0
 46
0.0
 71
     7
 72
     1
  1
{\fＭＳ ゴシック|b0|i0|c128|p49;センター}
 73
     1
 44
1.0
  0
MTEXT
  5
549
330
1F
100
AcDbEntity
  8
1-A_文字
  6
Continuous
 62
     7
370
     9
100
AcDbMText
 10
1569.918171683583
 20
-1145.348831483491
 30
0.0
 40
91.44
 41
360.0
 46
0.0
 71
     7
 72
     1
  1
{\f@ＭＳ ゴシック|b0|i0|c128|p49;引き戸}
 11
-1.836909530733566E-16
 21
-1.0
 31
0.0
 73
     1
 44
1.0
  0
MTEXT
  5
54A
330
1F
100
AcDbEntity
  8
1-A_文字
  6
Continuous
 62
     7
370
     9
100
AcDbMText
 10
354.9576850096594
 20
-2479.935803330826
 30
0.0
 40
91.43999999999994
 41
479.9999999999998
 46
0.0
 71
     7
 72
     1
  1
{\fＭＳ ゴシック|b0|i0|c128|p49;フロアー}
 73
     1
 44
1.0
  0
MTEXT
  5
54B
330
1F
100
AcDbEntity
  8
1-A_文字
  6
Continuous
 62
     7
370
     9
100
AcDbMText
 10
410.4647661453839
 20
-2706.252886088506
 30
0.0
 40
91.43999999999997
 41
719.9999999999998
 46
0.0
 71
     7
 72
     1
  1
{\fＭＳ ゴシック|b0|i0|c128|p49;振れ止め金具}
 73
     1
 44
1.0
  0
MTEXT
  5
54C
330
1F
100
AcDbEntity
  8
1-B_寸法
  6
Continuous
 62
     7
370
   211
100
AcDbMText
 10
1434.918171683563
 20
-898.9588920769393
 30
0.0
 40
99.06
 41
195.0
 46
0.0
 71
     7
 72
     1
  1
{\fＭＳ ゴシック|b0|i0|c128|p49;6.5}
 73
     1
 44
1.0
  0
MTEXT
  5
54D
330
1F
100
AcDbEntity
  8
1-B_寸法
  6
Continuous
 62
     7
370
   211
100
AcDbMText
 10
1299.919251719709
 20
-1701.284697027071
 30
0.0
 40
91.44
 41
60.0
 46
0.0
 71
     7
 72
     1
  1
{\fＭＳ ゴシック|b0|i0|c128|p49;5}
 73
     1
 44
1.0
  0
MTEXT
  5
54E
330
1F
100
AcDbEntity
  8
1-B_寸法
  6
Continuous
 62
     7
370
   211
100
AcDbMText
 10
1438.670331755869
 20
-1698.427197027071
 30
0.0
 40
97.15499999999999
 41
127.5
 46
0.0
 71
     7
 72
     1
  1
{\fＭＳ ゴシック|b0|i0|c128|p49;18}
 73
     1
 44
1.0
  0
MTEXT
  5
54F
330
1F
100
AcDbEntity
  8
1-B_寸法
  6
Continuous
 62
     7
370
   211
100
AcDbMText
 10
988.2431085172326
 20
-2127.435803330831
 30
0.0
 40
91.44
 41
120.0
 46
0.0
 71
     7
 72
     1
  1
{\fＭＳ ゴシック|b0|i0|c128|p49;18}
 11
6.123031769111886E-17
 21
1.0
 31
0.0
 73
     1
 44
1.0
  0
MTEXT
  5
550
330
1F
100
AcDbEntity
  8
1-B_寸法
  6
Continuous
 62
     7
370
   211
100
AcDbMText
 10
1146.740135077903
 20
-2182.336866719242
 30
0.0
 40
91.44
 41
120.0
 46
0.0
 71
     7
 72
     1
  1
{\fＭＳ ゴシック|b0|i0|c128|p49;20}
 11
6.123031769111886E-17
 21
1.0
 31
0.0
 73
     1
 44
1.0
  0
MTEXT
  5
551
330
1F
100
AcDbEntity
  8
1-B_寸法
  6
Continuous
 62
     7
370
   211
100
AcDbMText
 10
2068.670331755857
 20
-2189.224921595801
 30
0.0
 40
91.44
 41
180.0
 46
0.0
 71
     7
 72
     1
  1
{\fＭＳ ゴシック|b0|i0|c128|p49;8.5}
 11
6.123031769111886E-17
 21
1.0
 31
0.0
 73
     1
 44
1.0
  0
MTEXT
  5
552
330
1F
100
AcDbEntity
  8
1-B_寸法
  6
Continuous
 62
     7
370
   211
100
AcDbMText
 10
1918.670331755857
 20
-2191.376364289648
 30
0.0
 40
91.44
 41
180.0
 46
0.0
 71
     7
 72
     1
  1
{\fＭＳ ゴシック|b0|i0|c128|p49;5.5}
 11
6.123031769111886E-17
 21
1.0
 31
0.0
 73
     1
 44
1.0
  0
MTEXT
  5
553
330
1F
100
AcDbEntity
  8
1-B_寸法
  6
Continuous
 62
     7
370
   211
100
AcDbMText
 10
1918.670331755857
 20
-2337.43580333083
 30
0.0
 40
91.44
 41
60.0
 46
0.0
 71
     7
 72
     1
  1
{\fＭＳ ゴシック|b0|i0|c128|p49;3}
 11
6.123031769111886E-17
 21
1.0
 31
0.0
 73
     1
 44
1.0
  0
MTEXT
  5
554
330
1F
100
AcDbEntity
  8
1-B_寸法
  6
Continuous
 62
     7
370
   211
100
AcDbMText
 10
2068.670331755857
 20
-2479.935803330829
 30
0.0
 40
91.44
 41
120.0
 46
0.0
 71
     7
 72
     1
  1
{\fＭＳ ゴシック|b0|i0|c128|p49;12}
 11
6.123031769111886E-17
 21
1.0
 31
0.0
 73
     1
 44
1.0
  0
LWPOLYLINE
  5
555
330
1F
100
AcDbEntity
  8
1-B_寸法
  6
Continuous
 62
     7
370
     9
100
AcDbPolyline
 90
        4
 70
     1
 43
3.0
 10
656.4181716835782
 20
-723.4888920769392
 42
0.4142135623731
 10
654.9181716835782
 20
-721.9888920769392
 42
0.4142135623731
 10
653.4181716835782
 20
-723.4888920769392
 42
0.4142135623731
 10
654.9181716835782
 20
-724.9888920769394
 42
0.4142135623731
  0
LINE
  5
556
330
1F
100
AcDbEntity
  8
1-B_寸法
  6
Continuous
 62
   120
370
     5
100
AcDbLine
 10
1292.418171683578
 20
-903.4888920769392
 30
0.0
 11
654.9181716835782
 21
-903.4888920769392
 31
0.0
  0
LWPOLYLINE
  5
557
330
1F
100
AcDbEntity
  8
1-B_寸法
  6
Continuous
 62
     7
370
     9
100
AcDbPolyline
 90
        4
 70
     1
 43
3.0
 10
656.4181716835782
 20
-903.4888920769392
 42
0.4142135623731
 10
654.9181716835782
 20
-901.9888920769392
 42
0.4142135623731
 10
653.4181716835782
 20
-903.4888920769392
 42
0.4142135623731
 10
654.9181716835782
 20
-904.9888920769394
 42
0.4142135623731
  0
LINE
  5
558
330
1F
100
AcDbEntity
  8
1-B_寸法
  6
Continuous
 62
   120
370
     5
100
AcDbLine
 10
654.9181716835782
 20
-903.4888920769392
 30
0.0
 11
654.9181716835782
 21
-1053.488892076939
 31
0.0
  0
LINE
  5
559
330
1F
100
AcDbEntity
  8
1-4_枠
  6
Continuous
 62
    92
370
    13
100
AcDbLine
 10
654.9181716835782
 20
-510.9103996822896
 30
0.0
 11
654.9181716835782
 21
-2315.655803330827
 31
0.0
  0
MTEXT
  5
55A
330
1F
100
AcDbEntity
  8
1-B_寸法
  6
Continuous
 62
     7
370
   211
100
AcDbMText
 10
842.4181716835782
 20
-898.4826420769392
 30
0.0
 40
100.0125
 41
262.5
 46
0.0
 71
     7
 72
     1
  1
{\fＭＳ ゴシック|b0|i0|c128|p49;42.5}
 73
     1
 44
1.0
  0
MTEXT
  5
55B
330
1F
100
AcDbEntity
  8
1-A_文字
  6
Continuous
 62
     7
370
     9
100
AcDbMText
 10
913.6681716835782
 20
-1145.348831483491
 30
0.0
 40
91.44
 41
360.0
 46
0.0
 71
     7
 72
     1
  1
{\f@ＭＳ ゴシック|b0|i0|c128|p49;中方立}
 11
-1.836909530733566E-16
 21
-1.0
 31
0.0
 73
     1
 44
1.0
  0
LWPOLYLINE
  5
55C
330
1F
100
AcDbEntity
  8
1-B_寸法
  6
Continuous
 62
     7
370
     9
100
AcDbPolyline
 90
        4
 70
     1
 43
3.0
 10
2006.418171683578
 20
-723.4888920769392
 42
0.4142135623731
 10
2004.918171683578
 20
-721.9888920769392
 42
0.4142135623731
 10
2003.418171683578
 20
-723.4888920769392
 42
0.4142135623731
 10
2004.918171683578
 20
-724.9888920769394
 42
0.4142135623731
  0
LINE
  5
55D
330
1F
100
AcDbEntity
  8
1-B_寸法
  6
Continuous
 62
   120
370
     5
100
AcDbLine
 10
654.9181716835782
 20
-723.4888920769392
 30
0.0
 11
2004.918171683578
 21
-723.4888920769392
 31
0.0
  0
LINE
  5
55E
330
1F
100
AcDbEntity
  8
1-4_枠
  6
Continuous
 62
    92
370
    13
100
AcDbLine
 10
2004.918171683578
 20
-510.9103996822896
 30
0.0
 11
2004.918171683578
 21
-1982.096364289648
 31
0.0
  0
MTEXT
  5
55F
330
1F
100
AcDbEntity
  8
1-B_寸法
  6
Continuous
 62
     7
370
   211
100
AcDbMText
 10
1266.168171683578
 20
-719.9113920769393
 30
0.0
 40
97.15499999999999
 41
127.5
 46
0.0
 71
     7
 72
     1
  1
{\fＭＳ ゴシック|b0|i0|c128|p49;90}
 73
     1
 44
1.0
  0
LINE
  5
560
330
1F
100
AcDbEntity
  8
1-4_枠
  6
Continuous
 62
    92
370
    13
100
AcDbLine
 10
1292.418171683578
 20
-709.9017091799884
 30
0.0
 11
1292.418171683578
 21
-2315.655803330827
 31
0.0
  0
LINE
  5
561
330
1F
100
AcDbEntity
  8
1-4_枠
  6
Continuous
 62
    92
370
    13
100
AcDbLine
 10
1292.418171683578
 20
-510.9103996822896
 30
0.0
 11
1292.418171683578
 21
-586.7873942685073
 31
0.0
  0
LINE
  5
562
330
1F
100
AcDbEntity
  8
1-6_扉
  6
JWW_DASHED2
 62
     7
370
     9
100
AcDbLine
 10
1389.918171683563
 20
-510.9103996822896
 30
0.0
 11
1389.918171683563
 21
-586.7873942685073
 31
0.0
  0
LINE
  5
563
330
1F
100
AcDbEntity
  8
1-6_扉
  6
JWW_DASHED2
 62
     7
370
     9
100
AcDbLine
 10
1389.918171683563
 20
-709.9017091799884
 30
0.0
 11
1389.918171683563
 21
-2188.15580333083
 31
0.0
  0
MTEXT
  5
564
330
1F
100
AcDbEntity
  8
0-0_補助線
  6
Continuous
 62
     7
370
     9
100
AcDbMText
 10
-1670.870002095597
 20
-362.2801979518686
 30
0.0
 40
91.43999999999996
 41
599.9999999999998
 46
0.0
 71
     7
 72
     1
  1
{\fＭＳ ゴシック|b0|i0|c128|p49;［戸先側］}
 73
     1
 44
1.0
  0
MTEXT
  5
565
330
1F
100
AcDbEntity
  8
0-0_補助線
  6
Continuous
 62
     7
370
   211
100
AcDbMText
 10
-1419.620002095597
 20
-516.1033715534347
 30
0.0
 40
74.295
 41
97.5
 46
0.0
 71
     7
 72
     1
  1
{\fＭＳ ゴシック|b0|i0|c128|p49;90}
 73
     1
 44
1.0
  0
LINE
  5
566
330
1F
100
AcDbEntity
  8
0-0_補助線
  6
Continuous
 62
   120
370
     5
100
AcDbLine
 10
-1100.870002095597
 20
-523.2508715534348
 30
0.0
 11
-1100.870002095597
 21
-674.8126770485799
 31
0.0
  0
LINE
  5
567
330
1F
100
AcDbEntity
  8
0-0_補助線
  6
Continuous
 62
   120
370
     5
100
AcDbLine
 10
-1640.870002095597
 20
-523.2508715534348
 30
0.0
 11
-1640.870002095597
 21
-674.8126770485799
 31
0.0
  0
LWPOLYLINE
  5
568
330
1F
100
AcDbEntity
  8
0-0_補助線
  6
Continuous
 62
     7
370
     9
100
AcDbPolyline
 90
        4
 70
     1
 43
3.0
 10
-1099.370002095597
 20
-523.2508715534348
 42
0.4142135623731
 10
-1100.870002095597
 20
-521.7508715534348
 42
0.4142135623731
 10
-1102.370002095597
 20
-523.2508715534348
 42
0.4142135623731
 10
-1100.870002095597
 20
-524.7508715534348
 42
0.4142135623731
  0
LWPOLYLINE
  5
569
330
1F
100
AcDbEntity
  8
0-0_補助線
  6
Continuous
 62
     7
370
     9
100
AcDbPolyline
 90
        4
 70
     1
 43
3.0
 10
-1639.370002095597
 20
-523.2508715534348
 42
0.4142135623731
 10
-1640.870002095597
 20
-521.7508715534348
 42
0.4142135623731
 10
-1642.370002095597
 20
-523.2508715534348
 42
0.4142135623731
 10
-1640.870002095597
 20
-524.7508715534348
 42
0.4142135623731
  0
LINE
  5
56A
330
1F
100
AcDbEntity
  8
0-0_補助線
  6
Continuous
 62
   120
370
     5
100
AcDbLine
 10
-1640.870002095597
 20
-523.2508715534348
 30
0.0
 11
-1100.870002095597
 21
-523.2508715534348
 31
0.0
  0
LINE
  5
56B
330
1F
100
AcDbEntity
  8
0-0_補助線
  6
Continuous
 62
    92
370
    13
100
AcDbLine
 10
-1938.869256865857
 20
-18.0001979518687
 30
0.0
 11
-1938.869256865857
 21
-1737.041754831455
 31
0.0
  0
MTEXT
  5
56C
330
1F
100
AcDbEntity
  8
0-0_補助線
  6
Continuous
 62
     7
370
     9
100
AcDbMText
 10
-949.5769137224197
 20
-362.2801979518687
 30
0.0
 40
91.43999999999986
 41
599.9999999999991
 46
0.0
 71
     7
 72
     1
  1
{\fＭＳ ゴシック|b0|i0|c128|p49;［小壁側］}
 73
     1
 44
1.0
  0
MTEXT
  5
56D
330
1F
100
AcDbEntity
  8
0-0_補助線
  6
Continuous
 62
     7
370
   211
100
AcDbMText
 10
-750.8269137224205
 20
-514.6746215534348
 30
0.0
 40
77.15249999999999
 41
202.5
 46
0.0
 71
     7
 72
     1
  1
{\fＭＳ ゴシック|b0|i0|c128|p49;67.5}
 73
     1
 44
1.0
  0
LINE
  5
56E
330
1F
100
AcDbEntity
  8
0-0_補助線
  6
Continuous
 62
   120
370
     5
100
AcDbLine
 10
-447.0769137224205
 20
-523.2508715534348
 30
0.0
 11
-447.0769137224205
 21
-674.8126770485799
 31
0.0
  0
LINE
  5
56F
330
1F
100
AcDbEntity
  8
0-0_補助線
  6
Continuous
 62
   120
370
     5
100
AcDbLine
 10
-852.0769137224197
 20
-523.2508715534348
 30
0.0
 11
-852.0769137224197
 21
-674.8126770485799
 31
0.0
  0
LWPOLYLINE
  5
570
330
1F
100
AcDbEntity
  8
0-0_補助線
  6
Continuous
 62
     7
370
     9
100
AcDbPolyline
 90
        4
 70
     1
 43
3.0
 10
-445.5769137224205
 20
-523.2508715534348
 42
0.4142135623731
 10
-447.0769137224205
 20
-521.7508715534348
 42
0.4142135623731
 10
-448.5769137224206
 20
-523.2508715534348
 42
0.4142135623731
 10
-447.0769137224205
 20
-524.7508715534348
 42
0.4142135623731
  0
LWPOLYLINE
  5
571
330
1F
100
AcDbEntity
  8
0-0_補助線
  6
Continuous
 62
     7
370
     9
100
AcDbPolyline
 90
        4
 70
     1
 43
3.0
 10
-850.5769137224197
 20
-523.2508715534348
 42
0.4142135623731
 10
-852.0769137224197
 20
-521.7508715534348
 42
0.4142135623731
 10
-853.5769137224197
 20
-523.2508715534348
 42
0.4142135623731
 10
-852.0769137224197
 20
-524.7508715534348
 42
0.4142135623731
  0
LINE
  5
572
330
1F
100
AcDbEntity
  8
0-0_補助線
  6
Continuous
 62
   120
370
     5
100
AcDbLine
 10
-852.0769137224197
 20
-523.2508715534348
 30
0.0
 11
-447.0769137224205
 21
-523.2508715534348
 31
0.0
  0
LINE
  5
573
330
1F
100
AcDbEntity
  8
0-0_補助線
  6
Continuous
 62
    92
370
    13
100
AcDbLine
 10
-447.0769137224205
 20
-723.0591829293533
 30
0.0
 11
-447.0769137224205
 21
-1227.152606137004
 31
0.0
  0
MTEXT
  5
574
330
1F
100
AcDbEntity
  8
0-0_補助線
  6
Continuous
 62
     7
370
     0
100
AcDbMText
 10
-1488.869256865858
 20
-182.2801979518686
 30
0.0
 40
91.4399999999999
 41
839.999999999999
 46
0.0
 71
     7
 72
     1
  1
{\fＭＳ ゴシック|b0|i0|c128|p49;竪枠下端形状図}
 73
     1
 44
1.0
  0
LINE
  5
575
330
1F
100
AcDbEntity
  8
0-0_補助線
  6
Continuous
 62
    92
370
    13
100
AcDbLine
 10
-198.8692568658588
 20
-198.0001979518686
 30
0.0
 11
-1938.869256865857
 21
-198.0001979518686
 31
0.0
  0
LINE
  5
576
330
1F
100
AcDbEntity
  8
0-0_補助線
  6
Continuous
 62
    92
370
    13
100
AcDbLine
 10
-198.8692568658588
 20
-18.0001979518687
 30
0.0
 11
-1938.869256865857
 21
-18.0001979518687
 31
0.0
  0
LINE
  5
577
330
1F
100
AcDbEntity
  8
0-0_補助線
  6
Continuous
 62
    92
370
    13
100
AcDbLine
 10
-198.8692568658588
 20
-18.0001979518687
 30
0.0
 11
-198.8692568658588
 21
-1737.041754831455
 31
0.0
  0
LINE
  5
578
330
1F
100
AcDbEntity
  8
0-0_補助線
  6
Continuous
 62
    92
370
    13
100
AcDbLine
 10
-198.8692568658588
 20
-1737.041754831455
 30
0.0
 11
-1938.869256865857
 21
-1737.041754831455
 31
0.0
  0
LINE
  5
579
330
1F
100
AcDbEntity
  8
0-0_補助線
  6
Continuous
 62
    92
370
    13
100
AcDbLine
 10
-1640.870002095597
 20
-723.0591829293533
 30
0.0
 11
-1640.870002095597
 21
-1227.152606137004
 31
0.0
  0
LINE
  5
57A
330
1F
100
AcDbEntity
  8
0-0_補助線
  6
Continuous
 62
    92
370
    13
100
AcDbLine
 10
-1640.870002095597
 20
-1227.152606137004
 30
0.0
 11
-1100.870002095597
 21
-1227.152606137004
 31
0.0
  0
LINE
  5
57B
330
1F
100
AcDbEntity
  8
0-0_補助線
  6
Continuous
 62
    92
370
    13
100
AcDbLine
 10
-1100.870002095597
 20
-723.0591829293533
 30
0.0
 11
-1100.870002095597
 21
-1227.152606137004
 31
0.0
  0
LINE
  5
57C
330
1F
100
AcDbEntity
  8
0-0_補助線
  6
Continuous
 62
    92
370
    13
100
AcDbLine
 10
-852.0769137224197
 20
-723.0591829293533
 30
0.0
 11
-852.0769137224197
 21
-1227.152606137004
 31
0.0
  0
LINE
  5
57D
330
1F
100
AcDbEntity
  8
0-0_補助線
  6
Continuous
 62
    92
370
    13
100
AcDbLine
 10
-852.0769137224197
 20
-1227.152606137004
 30
0.0
 11
-447.0769137224205
 21
-1227.152606137004
 31
0.0
  0
LINE
  5
57E
330
1F
100
AcDbEntity
  8
0-A_文字
  6
Continuous
 62
    92
370
    13
100
AcDbLine
 10
2889.918171683582
 20
-3642.800350305702
 30
0.0
 11
5126.191050219357
 21
-3642.800350305702
 31
0.0
  0
LINE
  5
57F
330
1F
100
AcDbEntity
  8
0-A_文字
  6
Continuous
 62
    92
370
    13
100
AcDbLine
 10
2889.918171683582
 20
-3642.800350305702
 30
0.0
 11
2889.918171683582
 21
-18.0001979518687
 31
0.0
  0
LINE
  5
580
330
1F
100
AcDbEntity
  8
0-A_文字
  6
Continuous
 62
    92
370
    13
100
AcDbLine
 10
5126.191050219357
 20
-3642.800350305702
 30
0.0
 11
5126.191050219357
 21
-18.0001979518687
 31
0.0
  0
MTEXT
  5
581
330
1F
100
AcDbEntity
  8
F-A_文字
  6
Continuous
 62
     7
370
     0
100
AcDbMText
 10
-5080.081323642279
 20
-4045.093470561148
 30
0.0
 40
79.81293103448272
 41
3037.5
 46
0.0
 71
     7
 72
     1
  1
{\fＭＳ ゴシック|b0|i0|c128|p49;ピノアース　片引き戸　上吊りタイプ　固定枠90巾　枠外H2,035}
 73
     1
 44
1.0
  0
LINE
  5
582
330
1F
100
AcDbEntity
  8
0-1_通り芯
  6
JWW_CENTER1
 62
   120
370
     5
100
AcDbLine
 10
-2312.198112224899
 20
2552.999683277028
 30
0.0
 11
2332.034455621977
 21
2552.999683277028
 31
0.0
  0
LWPOLYLINE
  5
583
330
1F
100
AcDbEntity
  8
0-B_寸法
  6
Continuous
 62
     7
370
     9
100
AcDbPolyline
 90
        4
 70
     1
 43
3.0
 10
-1636.168122974969
 20
2552.999683277028
 42
0.4142135623731
 10
-1637.668122974969
 20
2554.499683277028
 42
0.4142135623731
 10
-1639.168122974969
 20
2552.999683277028
 42
0.4142135623731
 10
-1637.668122974969
 20
2551.499683277028
 42
0.4142135623731
  0
LWPOLYLINE
  5
584
330
1F
100
AcDbEntity
  8
0-B_寸法
  6
Continuous
 62
     7
370
     9
100
AcDbPolyline
 90
        4
 70
     1
 43
3.0
 10
-1636.168122974969
 20
2438.999683277028
 42
0.4142135623731
 10
-1637.668122974969
 20
2440.499683277027
 42
0.4142135623731
 10
-1639.168122974969
 20
2438.999683277028
 42
0.4142135623731
 10
-1637.668122974969
 20
2437.499683277028
 42
0.4142135623731
  0
LWPOLYLINE
  5
585
330
1F
100
AcDbEntity
  8
0-B_寸法
  6
Continuous
 62
     7
370
     9
100
AcDbPolyline
 90
        4
 70
     1
 43
3.0
 10
-3617.369256865858
 20
-1419.00032480045
 42
0.4142135623731
 10
-3618.869256865858
 20
-1417.50032480045
 42
0.4142135623731
 10
-3620.369256865858
 20
-1419.00032480045
 42
0.4142135623731
 10
-3618.869256865858
 20
-1420.50032480045
 42
0.4142135623731
  0
LWPOLYLINE
  5
586
330
1F
100
AcDbEntity
  8
0-B_寸法
  6
Continuous
 62
     7
370
     9
100
AcDbPolyline
 90
        4
 70
     1
 43
3.0
 10
-3503.369256865857
 20
-1419.00032480045
 42
0.4142135623731
 10
-3504.869256865857
 20
-1417.50032480045
 42
0.4142135623731
 10
-3506.369256865857
 20
-1419.00032480045
 42
0.4142135623731
 10
-3504.869256865857
 20
-1420.50032480045
 42
0.4142135623731
  0
LINE
  5
587
330
1F
100
AcDbEntity
  8
0-1_通り芯
  6
JWW_CENTER1
 62
   120
370
     5
100
AcDbLine
 10
-3504.869256865857
 20
-2781.00040421394
 30
0.0
 11
-3504.869256865857
 21
-237.000197951881
 31
0.0
  0
LINE
  5
588
330
1F
100
AcDbEntity
  8
0-1_通り芯
  6
JWW_CENTER1
 62
   120
370
     5
100
AcDbLine
 10
-3618.869256865858
 20
-2978.93377759267
 30
0.0
 11
-3618.869256865858
 21
194.9998020481422
 31
0.0
  0
MTEXT
  5
589
330
1F
100
AcDbEntity
  8
F-A_文字
  6
Continuous
 62
     7
370
     0
100
AcDbMText
 10
4889.917891251784
 20
-3945.570773120548
 30
0.0
 40
78.86699999999999
 41
517.5
 46
0.0
 71
     7
 72
     1
  1
{\fＭＳ ゴシック|b0|i0|c128|p49;2022.04.01}
 73
     1
 44
1.0
  0
MTEXT
  5
58A
330
1F
100
AcDbEntity
  8
0-B_寸法
  6
Continuous
 62
     7
370
     0
100
AcDbMText
 10
-1952.668122974972
 20
2292.964897959183
 30
0.0
 40
91.44
 41
120.0
 46
0.0
 71
     7
 72
     1
  1
{\fＭＳ ゴシック|b0|i0|c128|p49;90}
 11
6.123031769111886E-17
 21
1.0
 31
0.0
 73
     1
 44
1.0
  0
MTEXT
  5
58B
330
1F
100
AcDbEntity
  8
0-B_寸法
  6
Continuous
 62
     7
370
   211
100
AcDbMText
 10
-1652.668122974969
 20
2288.827183277027
 30
0.0
 40
97.15499999999999
 41
127.5
 46
0.0
 71
     7
 72
     1
  1
{\fＭＳ ゴシック|b0|i0|c128|p49;19}
 11
6.123031769111886E-17
 21
1.0
 31
0.0
 73
     1
 44
1.0
  0
LINE
  5
58C
330
1F
100
AcDbEntity
  8
0-B_寸法
  6
Continuous
 62
   120
370
     5
100
AcDbLine
 10
-1637.668122974969
 20
2552.999683277028
 30
0.0
 11
-1637.668122974969
 21
2306.999683277027
 31
0.0
  0
LINE
  5
58D
330
1F
100
AcDbEntity
  8
0-6_扉
  6
Continuous
 62
   200
370
    20
100
AcDbLine
 10
-3594.869256865863
 20
-414.000197319474
 30
0.0
 11
-3594.869256865863
 21
-1479.000197951875
 31
0.0
  0
MTEXT
  5
58E
330
1F
100
AcDbEntity
  8
0-B_寸法
  6
Continuous
 62
     7
370
     0
100
AcDbMText
 10
-3747.005426121726
 20
-868.1051942929787
 30
0.0
 40
91.44
 41
120.0
 46
0.0
 71
     7
 72
     1
  1
{\fＭＳ ゴシック|b0|i0|c128|p49;82}
 73
     1
 44
1.0
  0
MTEXT
  5
58F
330
1F
100
AcDbEntity
  8
0-B_寸法
  6
Continuous
 62
     7
370
   211
100
AcDbMText
 10
-3757.619256865858
 20
-1415.42282480045
 30
0.0
 40
97.15499999999999
 41
127.5
 46
0.0
 71
     7
 72
     1
  1
{\fＭＳ ゴシック|b0|i0|c128|p49;19}
 73
     1
 44
1.0
  0
LINE
  5
590
330
1F
100
AcDbEntity
  8
0-B_寸法
  6
Continuous
 62
   120
370
     5
100
AcDbLine
 10
-3750.869256865858
 20
-1419.00032480045
 30
0.0
 11
-3504.869256865857
 21
-1419.00032480045
 31
0.0
  0
MTEXT
  5
591
330
1F
100
AcDbEntity
  8
0-B_寸法
  6
Continuous
 62
     7
370
   211
100
AcDbMText
 10
2013.458458574402
 20
2429.437568664895
 30
0.0
 40
100.0125
 41
262.5
 46
0.0
 71
     7
 72
     1
  1
{\fＭＳ ゴシック|b0|i0|c128|p49;67.5}
 11
6.123031769111886E-17
 21
1.0
 31
0.0
 73
     1
 44
1.0
  0
ENDSEC
  0
SECTION
  2
OBJECTS
  0
DICTIONARY
  5
C
330
0
100
AcDbDictionary
281
     1
  3
ACAD_GROUP
350
D
  3
ACAD_LAYOUT
350
1A
  3
ACAD_MATERIAL
350
3B
  3
ACAD_MLEADERSTYLE
350
593
  3
ACAD_MLINESTYLE
350
17
  3
ACAD_PLOTSETTINGS
350
19
  3
ACAD_PLOTSTYLENAME
350
E
  3
ACAD_TABLESTYLE
350
592
  3
ACAD_VISUALSTYLE
350
2A
  0
DICTIONARY
  5
D
102
{ACAD_REACTORS
330
C
102
}
330
C
100
AcDbDictionary
281
     1
  0
DICTIONARY
  5
1A
102
{ACAD_REACTORS
330
C
102
}
330
C
100
AcDbDictionary
281
     1
  3
Layout1
350
1E
  3
Layout2
350
26
  3
Model
350
22
  0
DICTIONARY
  5
3B
102
{ACAD_REACTORS
330
C
102
}
330
C
100
AcDbDictionary
281
     1
  3
ByBlock
350
3D
  3
ByLayer
350
3C
  3
Global
350
3E
  0
DICTIONARY
  5
593
102
{ACAD_REACTORS
330
C
102
}
330
C
100
AcDbDictionary
281
     1
  0
DICTIONARY
  5
17
102
{ACAD_REACTORS
330
C
102
}
330
C
100
AcDbDictionary
281
     1
  3
Standard
350
18
  0
DICTIONARY
  5
19
102
{ACAD_REACTORS
330
C
102
}
330
C
100
AcDbDictionary
281
     1
  0
ACDBDICTIONARYWDFLT
  5
E
102
{ACAD_REACTORS
330
C
102
}
330
C
100
AcDbDictionary
281
     1
  3
Normal
350
F
100
AcDbDictionaryWithDefault
340
F
  0
DICTIONARY
  5
592
102
{ACAD_REACTORS
330
C
102
}
330
C
100
AcDbDictionary
281
     1
  0
DICTIONARY
  5
2A
102
{ACAD_REACTORS
330
C
102
}
330
C
100
AcDbDictionary
281
     1
  3
2dWireframe
350
2F
  3
3D Hidden
350
31
  3
3dWireframe
350
30
  3
Basic
350
32
  3
Brighten
350
36
  3
ColorChange
350
3A
  3
Conceptual
350
34
  3
Dim
350
35
  3
Facepattern
350
39
  3
Flat
350
2B
  3
FlatWithEdges
350
2C
  3
Gouraud
350
2D
  3
GouraudWithEdges
350
2E
  3
Linepattern
350
38
  3
Realistic
350
33
  3
Thicken
350
37
  0
LAYOUT
  5
1E
102
{ACAD_REACTORS
330
1A
102
}
330
1A
100
AcDbPlotSettings
  1

  2
none_device
  4

  6

 40
0.0
 41
0.0
 42
0.0
 43
0.0
 44
0.0
 45
0.0
 46
0.0
 47
0.0
 48
0.0
 49
0.0
140
0.0
141
0.0
142
1.0
143
1.0
 70
   688
 72
     0
 73
     0
 74
     5
  7

 75
    16
 76
     0
 77
     5
 78
   300
147
1.0
148
0.0
149
0.0
100
AcDbLayout
  1
Layout1
 70
     1
 71
     1
 10
0.0
 20
0.0
 11
420.0
 21
297.0
 12
0.0
 22
0.0
 32
0.0
 14
1.000000000000000E+20
 24
1.000000000000000E+20
 34
1.000000000000000E+20
 15
-1.000000000000000E+20
 25
-1.000000000000000E+20
 35
-1.000000000000000E+20
146
0.0
 13
0.0
 23
0.0
 33
0.0
 16
1.0
 26
0.0
 36
0.0
 17
0.0
 27
1.0
 37
0.0
 76
     0
330
1B
  0
LAYOUT
  5
26
102
{ACAD_REACTORS
330
1A
102
}
330
1A
100
AcDbPlotSettings
  1

  2
none_device
  4

  6

 40
0.0
 41
0.0
 42
0.0
 43
0.0
 44
0.0
 45
0.0
 46
0.0
 47
0.0
 48
0.0
 49
0.0
140
0.0
141
0.0
142
1.0
143
1.0
 70
   688
 72
     0
 73
     0
 74
     5
  7

 75
    16
 76
     0
 77
     5
 78
   300
147
1.0
148
0.0
149
0.0
100
AcDbLayout
  1
Layout2
 70
     1
 71
     2
 10
0.0
 20
0.0
 11
0.0
 21
0.0
 12
0.0
 22
0.0
 32
0.0
 14
0.0
 24
0.0
 34
0.0
 15
0.0
 25
0.0
 35
0.0
146
0.0
 13
0.0
 23
0.0
 33
0.0
 16
1.0
 26
0.0
 36
0.0
 17
0.0
 27
1.0
 37
0.0
 76
     0
330
23
  0
LAYOUT
  5
22
102
{ACAD_REACTORS
330
1A
102
}
330
1A
100
AcDbPlotSettings
  1

  2
none_device
  4

  6

 40
0.0
 41
0.0
 42
0.0
 43
0.0
 44
0.0
 45
0.0
 46
0.0
 47
0.0
 48
0.0
 49
0.0
140
0.0
141
0.0
142
1.0
143
1.0
 70
  1712
 72
     0
 73
     0
 74
     0
  7

 75
     0
 76
     0
 77
     5
 78
   300
147
1.0
148
0.0
149
0.0
100
AcDbLayout
  1
Model
 70
     1
 71
     0
 10
-8910.0
 20
-6300.0
 11
8910.0
 21
6300.0
 12
0.0
 22
0.0
 32
0.0
 14
-8910.0
 24
-6300.0
 34
0.0
 15
8910.0
 25
6300.0
 35
0.0
146
0.0
 13
0.0
 23
0.0
 33
0.0
 16
1.0
 26
0.0
 36
0.0
 17
0.0
 27
1.0
 37
0.0
 76
     0
330
1F
331
29
  0
MATERIAL
  5
3D
102
{ACAD_REACTORS
330
3B
102
}
330
3B
100
AcDbMaterial
  1
ByBlock
 72
     1
 94
      127
  0
MATERIAL
  5
3C
102
{ACAD_REACTORS
330
3B
102
}
330
3B
100
AcDbMaterial
  1
ByLayer
 72
     1
 94
      127
  0
MATERIAL
  5
3E
102
{ACAD_REACTORS
330
3B
102
}
330
3B
100
AcDbMaterial
  1
Global
 72
     1
 94
      127
  0
MLINESTYLE
  5
18
102
{ACAD_REACTORS
330
17
102
}
330
17
100
AcDbMlineStyle
  2
Standard
 70
     0
  3

 62
   256
 51
90.0
 52
90.0
 71
     2
 49
0.5
 62
   256
  6
BYLAYER
 49
-0.5
 62
   256
  6
BYLAYER
  0
ACDBPLACEHOLDER
  5
F
102
{ACAD_REACTORS
330
E
102
}
330
E
  0
VISUALSTYLE
  5
2F
102
{ACAD_REACTORS
330
2A
102
}
330
2A
100
AcDbVisualStyle
  2
2dWireframe
 70
     4
177
     2
291
     0
 71
     0
176
     1
 72
     2
176
     1
 73
     0
176
     1
 90
        0
176
     1
 40
-0.6
176
     1
 41
-30.0
176
     1
 62
     5
 63
     7
421
 16777215
176
     1
 74
     1
176
     1
 91
        4
176
     1
 64
     7
176
     1
 65
   257
176
     1
 75
     1
176
     1
175
     1
176
     1
 42
1.0
176
     1
 92
        0
176
     1
 66
   257
176
     1
 43
1.0
176
     1
 76
     1
176
     1
 77
     6
176
     1
 78
     2
176
     1
 67
     7
176
     1
 79
     5
176
     1
170
     0
176
     1
171
     0
176
     1
290
     0
176
     1
 93
        1
176
     1
 44
0.0
176
     1
173
     0
176
     1
  0
VISUALSTYLE
  5
31
102
{ACAD_REACTORS
330
2A
102
}
330
2A
100
AcDbVisualStyle
  2
3D Hidden
 70
     6
177
     2
291
     0
 71
     1
176
     1
 72
     2
176
     1
 73
     2
176
     1
 90
        0
176
     1
 40
-0.6
176
     1
 41
-30.0
176
     1
 62
     5
 63
     7
421
 16777215
176
     1
 74
     2
176
     1
 91
        2
176
     1
 64
     7
176
     1
 65
   257
176
     1
 75
     2
176
     1
175
     1
176
     1
 42
40.0
176
     1
 92
        0
176
     1
 66
   257
176
     1
 43
1.0
176
     1
 76
     1
176
     1
 77
     6
176
     1
 78
     2
176
     1
 67
     7
176
     1
 79
     3
176
     1
170
     0
176
     1
171
     0
176
     1
290
     0
176
     1
 93
        1
176
     1
 44
0.0
176
     1
173
     0
176
     1
  0
VISUALSTYLE
  5
30
102
{ACAD_REACTORS
330
2A
102
}
330
2A
100
AcDbVisualStyle
  2
3dWireframe
 70
     5
177
     2
291
     0
 71
     0
176
     1
 72
     2
176
     1
 73
     0
176
     1
 90
        0
176
     1
 40
-0.6
176
     1
 41
-30.0
176
     1
 62
     5
 63
     7
421
 16777215
176
     1
 74
     1
176
     1
 91
        4
176
     1
 64
     7
176
     1
 65
   257
176
     1
 75
     1
176
     1
175
     1
176
     1
 42
1.0
176
     1
 92
        0
176
     1
 66
   257
176
     1
 43
1.0
176
     1
 76
     1
176
     1
 77
     6
176
     1
 78
     2
176
     1
 67
     7
176
     1
 79
     5
176
     1
170
     0
176
     1
171
     0
176
     1
290
     0
176
     1
 93
        1
176
     1
 44
0.0
176
     1
173
     0
176
     1
  0
VISUALSTYLE
  5
32
102
{ACAD_REACTORS
330
2A
102
}
330
2A
100
AcDbVisualStyle
  2
Basic
 70
     7
177
     2
291
     1
 71
     1
176
     1
 72
     0
176
     1
 73
     1
176
     1
 90
        0
176
     1
 40
-0.6
176
     1
 41
-30.0
176
     1
 62
     5
 63
     7
421
 16777215
176
     1
 74
     0
176
     1
 91
        4
176
     1
 64
     7
176
     1
 65
   257
176
     1
 75
     1
176
     1
175
     1
176
     1
 42
1.0
176
     1
 92
        8
176
     1
 66
     7
176
     1
 43
1.0
176
     1
 76
     1
176
     1
 77
     6
176
     1
 78
     2
176
     1
 67
     7
176
     1
 79
     5
176
     1
170
     0
176
     1
171
     0
176
     1
290
     0
176
     1
 93
        1
176
     1
 44
0.0
176
     1
173
     0
176
     1
  0
VISUALSTYLE
  5
36
102
{ACAD_REACTORS
330
2A
102
}
330
2A
100
AcDbVisualStyle
  2
Brighten
 70
    12
177
     2
291
     1
 71
     2
176
     1
 72
     2
176
     1
 73
     0
176
     1
 90
        0
176
     1
 40
-0.6
176
     1
 41
-30.0
176
     1
 62
     5
 63
     7
421
 16777215
176
     1
 74
     1
176
     1
 91
        4
176
     1
 64
     7
176
     1
 65
   257
176
     1
 75
     1
176
     1
175
     1
176
     1
 42
1.0
176
     1
 92
        8
176
     1
 66
     7
176
     1
 43
1.0
176
     1
 76
     1
176
     1
 77
     6
176
     1
 78
     2
176
     1
 67
     7
176
     1
 79
     5
176
     1
170
     0
176
     1
171
     0
176
     1
290
     0
176
     1
 93
        1
176
     1
 44
50.0
176
     1
173
     0
176
     1
  0
VISUALSTYLE
  5
3A
102
{ACAD_REACTORS
330
2A
102
}
330
2A
100
AcDbVisualStyle
  2
ColorChange
 70
    16
177
     2
291
     1
 71
     2
176
     1
 72
     2
176
     1
 73
     3
176
     1
 90
        0
176
     1
 40
-0.6
176
     1
 41
-30.0
176
     1
 62
     5
 63
     8
421
  8421504
176
     1
 74
     1
176
     1
 91
        4
176
     1
 64
     7
176
     1
 65
   257
176
     1
 75
     1
176
     1
175
     1
176
     1
 42
1.0
176
     1
 92
        8
176
     1
 66
     8
424
  8421504
176
     1
 43
1.0
176
     1
 76
     1
176
     1
 77
     6
176
     1
 78
     2
176
     1
 67
     7
176
     1
 79
     5
176
     1
170
     0
176
     1
171
     0
176
     1
290
     0
176
     1
 93
        1
176
     1
 44
0.0
176
     1
173
     0
176
     1
  0
VISUALSTYLE
  5
34
102
{ACAD_REACTORS
330
2A
102
}
330
2A
100
AcDbVisualStyle
  2
Conceptual
 70
     9
177
     2
291
     0
 71
     3
176
     1
 72
     2
176
     1
 73
     0
176
     1
 90
        0
176
     1
 40
-0.6
176
     1
 41
-30.0
176
     1
 62
     5
 63
     7
421
 16777215
176
     1
 74
     2
176
     1
 91
        2
176
     1
 64
     7
176
     1
 65
   257
176
     1
 75
     1
176
     1
175
     1
176
     1
 42
40.0
176
     1
 92
        8
176
     1
 66
     7
176
     1
 43
1.0
176
     1
 76
     1
176
     1
 77
     6
176
     1
 78
     2
176
     1
 67
     7
176
     1
 79
     3
176
     1
170
     0
176
     1
171
     0
176
     1
290
     0
176
     1
 93
        1
176
     1
 44
0.0
176
     1
173
     0
176
     1
  0
VISUALSTYLE
  5
35
102
{ACAD_REACTORS
330
2A
102
}
330
2A
100
AcDbVisualStyle
  2
Dim
 70
    11
177
     2
291
     1
 71
     2
176
     1
 72
     2
176
     1
 73
     0
176
     1
 90
        0
176
     1
 40
-0.6
176
     1
 41
-30.0
176
     1
 62
     5
 63
     7
421
 16777215
176
     1
 74
     1
176
     1
 91
        4
176
     1
 64
     7
176
     1
 65
   257
176
     1
 75
     1
176
     1
175
     1
176
     1
 42
1.0
176
     1
 92
        8
176
     1
 66
     7
176
     1
 43
1.0
176
     1
 76
     1
176
     1
 77
     6
176
     1
 78
     2
176
     1
 67
     7
176
     1
 79
     5
176
     1
170
     0
176
     1
171
     0
176
     1
290
     0
176
     1
 93
        1
176
     1
 44
-50.0
176
     1
173
     0
176
     1
  0
VISUALSTYLE
  5
39
102
{ACAD_REACTORS
330
2A
102
}
330
2A
100
AcDbVisualStyle
  2
Facepattern
 70
    15
177
     2
291
     1
 71
     2
176
     1
 72
     2
176
     1
 73
     0
176
     1
 90
        0
176
     1
 40
-0.6
176
     1
 41
-30.0
176
     1
 62
     5
 63
     7
421
 16777215
176
     1
 74
     1
176
     1
 91
        4
176
     1
 64
     7
176
     1
 65
   257
176
     1
 75
     1
176
     1
175
     1
176
     1
 42
1.0
176
     1
 92
        8
176
     1
 66
     7
176
     1
 43
1.0
176
     1
 76
     1
176
     1
 77
     6
176
     1
 78
     2
176
     1
 67
     7
176
     1
 79
     5
176
     1
170
     0
176
     1
171
     0
176
     1
290
     0
176
     1
 93
        1
176
     1
 44
0.0
176
     1
173
     0
176
     1
  0
VISUALSTYLE
  5
2B
102
{ACAD_REACTORS
330
2A
102
}
330
2A
100
AcDbVisualStyle
  2
Flat
 70
     0
177
     2
291
     1
 71
     2
176
     1
 72
     1
176
     1
 73
     1
176
     1
 90
        2
176
     1
 40
-0.6
176
     1
 41
30.0
176
     1
 62
     5
 63
     7
421
 16777215
176
     1
 74
     0
176
     1
 91
        4
176
     1
 64
     7
176
     1
 65
   257
176
     1
 75
     1
176
     1
175
     1
176
     1
 42
1.0
176
     1
 92
        8
176
     1
 66
     7
176
     1
 43
1.0
176
     1
 76
     1
176
     1
 77
     6
176
     1
 78
     2
176
     1
 67
     7
176
     1
 79
     5
176
     1
170
     0
176
     1
171
     0
176
     1
290
     0
176
     1
 93
       13
176
     1
 44
0.0
176
     1
173
     0
176
     1
  0
VISUALSTYLE
  5
2C
102
{ACAD_REACTORS
330
2A
102
}
330
2A
100
AcDbVisualStyle
  2
FlatWithEdges
 70
     1
177
     2
291
     1
 71
     2
176
     1
 72
     1
176
     1
 73
     1
176
     1
 90
        2
176
     1
 40
-0.6
176
     1
 41
30.0
176
     1
 62
     5
 63
     7
421
 16777215
176
     1
 74
     1
176
     1
 91
        4
176
     1
 64
     7
176
     1
 65
   257
176
     1
 75
     1
176
     1
175
     1
176
     1
 42
1.0
176
     1
 92
        0
176
     1
 66
   257
176
     1
 43
1.0
176
     1
 76
     1
176
     1
 77
     6
176
     1
 78
     2
176
     1
 67
     7
176
     1
 79
     5
176
     1
170
     0
176
     1
171
     0
176
     1
290
     0
176
     1
 93
       13
176
     1
 44
0.0
176
     1
173
     0
176
     1
  0
VISUALSTYLE
  5
2D
102
{ACAD_REACTORS
330
2A
102
}
330
2A
100
AcDbVisualStyle
  2
Gouraud
 70
     2
177
     2
291
     1
 71
     2
176
     1
 72
     2
176
     1
 73
     1
176
     1
 90
        2
176
     1
 40
-0.6
176
     1
 41
30.0
176
     1
 62
     5
 63
     7
421
 16777215
176
     1
 74
     0
176
     1
 91
        4
176
     1
 64
     7
176
     1
 65
   257
176
     1
 75
     1
176
     1
175
     1
176
     1
 42
1.0
176
     1
 92
        0
176
     1
 66
     7
176
     1
 43
1.0
176
     1
 76
     1
176
     1
 77
     6
176
     1
 78
     2
176
     1
 67
     7
176
     1
 79
     5
176
     1
170
     0
176
     1
171
     0
176
     1
290
     0
176
     1
 93
       13
176
     1
 44
0.0
176
     1
173
     0
176
     1
  0
VISUALSTYLE
  5
2E
102
{ACAD_REACTORS
330
2A
102
}
330
2A
100
AcDbVisualStyle
  2
GouraudWithEdges
 70
     3
177
     2
291
     1
 71
     2
176
     1
 72
     2
176
     1
 73
     1
176
     1
 90
        2
176
     1
 40
-0.6
176
     1
 41
30.0
176
     1
 62
     5
 63
     7
421
 16777215
176
     1
 74
     1
176
     1
 91
        4
176
     1
 64
     7
176
     1
 65
   257
176
     1
 75
     1
176
     1
175
     1
176
     1
 42
1.0
176
     1
 92
        0
176
     1
 66
   257
176
     1
 43
1.0
176
     1
 76
     1
176
     1
 77
     6
176
     1
 78
     2
176
     1
 67
     7
176
     1
 79
     5
176
     1
170
     0
176
     1
171
     0
176
     1
290
     0
176
     1
 93
       13
176
     1
 44
0.0
176
     1
173
     0
176
     1
  0
VISUALSTYLE
  5
38
102
{ACAD_REACTORS
330
2A
102
}
330
2A
100
AcDbVisualStyle
  2
Linepattern
 70
    14
177
     2
291
     1
 71
     2
176
     1
 72
     2
176
     1
 73
     0
176
     1
 90
        0
176
     1
 40
-0.6
176
     1
 41
-30.0
176
     1
 62
     5
 63
     7
421
 16777215
176
     1
 74
     1
176
     1
 91
        4
176
     1
 64
     7
176
     1
 65
   257
176
     1
 75
     7
176
     1
175
     7
176
     1
 42
1.0
176
     1
 92
        8
176
     1
 66
     7
176
     1
 43
1.0
176
     1
 76
     1
176
     1
 77
     6
176
     1
 78
     2
176
     1
 67
     7
176
     1
 79
     5
176
     1
170
     0
176
     1
171
     0
176
     1
290
     0
176
     1
 93
        1
176
     1
 44
0.0
176
     1
173
     0
176
     1
  0
VISUALSTYLE
  5
33
102
{ACAD_REACTORS
330
2A
102
}
330
2A
100
AcDbVisualStyle
  2
Realistic
 70
     8
177
     2
291
     0
 71
     2
176
     1
 72
     2
176
     1
 73
     0
176
     1
 90
        0
176
     1
 40
-0.6
176
     1
 41
-30.0
176
     1
 62
     5
 63
     7
421
 16777215
176
     1
 74
     1
176
     1
 91
        0
176
     1
 64
     7
176
     1
 65
   257
176
     1
 75
     1
176
     1
175
     1
176
     1
 42
1.0
176
     1
 92
        8
176
     1
 66
     8
424
  7895160
176
     1
 43
1.0
176
     1
 76
     1
176
     1
 77
     6
176
     1
 78
     2
176
     1
 67
     7
176
     1
 79
     5
176
     1
170
     0
176
     1
171
     0
176
     1
290
     0
176
     1
 93
       13
176
     1
 44
0.0
176
     1
173
     0
176
     1
  0
VISUALSTYLE
  5
37
102
{ACAD_REACTORS
330
2A
102
}
330
2A
100
AcDbVisualStyle
  2
Thicken
 70
    13
177
     2
291
     1
 71
     2
176
     1
 72
     2
176
     1
 73
     0
176
     1
 90
        0
176
     1
 40
-0.6
176
     1
 41
-30.0
176
     1
 62
     5
 63
     7
421
 16777215
176
     1
 74
     1
176
     1
 91
        4
176
     1
 64
     7
176
     1
 65
   257
176
     1
 75
     1
176
     1
175
     1
176
     1
 42
1.0
176
     1
 92
       12
176
     1
 66
     7
176
     1
 43
1.0
176
     1
 76
     1
176
     1
 77
     6
176
     1
 78
     2
176
     1
 67
     7
176
     1
 79
     5
176
     1
170
     0
176
     1
171
     0
176
     1
290
     0
176
     1
 93
        1
176
     1
 44
0.0
176
     1
173
     0
176
     1
  0
ENDSEC
  0
EOF
