  0
SECTION
  2
HEADER
  9
$ACADVER
  1
AC1024
  9
$ACADMAINTVER
 70
     6
  9
$DWGCODEPAGE
  3
ANSI_932
  9
$INSBASE
 10
0.0
 20
0.0
 30
0.0
  9
$EXTMIN
 10
-8910.0
 20
-6300.0
 30
0.0
  9
$EXTMAX
 10
8910.0
 20
6300.0
 30
0.0
  9
$LIMMIN
 10
-8910.0
 20
-6300.0
  9
$LIMMAX
 10
8910.0
 20
6300.0
  9
$ORTHOMODE
 70
     0
  9
$REGENMODE
 70
     1
  9
$FILLMODE
 70
     1
  9
$QTEXTMODE
 70
     0
  9
$MIRRTEXT
 70
     1
  9
$LTSCALE
 40
30.0
  9
$ATTMODE
 70
     1
  9
$TEXTSIZE
 40
2.5
  9
$TRACEWID
 40
1.0
  9
$TEXTSTYLE
  7
Standard
  9
$CLAYER
  8
0
  9
$CELTYPE
  6
ByLayer
  9
$CECOLOR
 62
   256
  9
$CELTSCALE
 40
1.0
  9
$DISPSILH
 70
     0
  9
$DIMSCALE
 40
1.0
  9
$DIMASZ
 40
2.5
  9
$DIMEXO
 40
0.625
  9
$DIMDLI
 40
3.75
  9
$DIMRND
 40
0.0
  9
$DIMDLE
 40
0.0
  9
$DIMEXE
 40
1.25
  9
$DIMTP
 40
0.0
  9
$DIMTM
 40
0.0
  9
$DIMTXT
 40
2.5
  9
$DIMCEN
 40
2.5
  9
$DIMTSZ
 40
0.0
  9
$DIMTOL
 70
     0
  9
$DIMLIM
 70
     0
  9
$DIMTIH
 70
     0
  9
$DIMTOH
 70
     0
  9
$DIMSE1
 70
     0
  9
$DIMSE2
 70
     0
  9
$DIMTAD
 70
     1
  9
$DIMZIN
 70
     8
  9
$DIMBLK
  1

  9
$DIMASO
 70
     1
  9
$DIMSHO
 70
     1
  9
$DIMPOST
  1

  9
$DIMAPOST
  1

  9
$DIMALT
 70
     0
  9
$DIMALTD
 70
     3
  9
$DIMALTF
 40
0.03937007874016
  9
$DIMLFAC
 40
1.0
  9
$DIMTOFL
 70
     1
  9
$DIMTVP
 40
0.0
  9
$DIMTIX
 70
     0
  9
$DIMSOXD
 70
     0
  9
$DIMSAH
 70
     0
  9
$DIMBLK1
  1

  9
$DIMBLK2
  1

  9
$DIMSTYLE
  2
ISO-25
  9
$DIMCLRD
 70
     0
  9
$DIMCLRE
 70
     0
  9
$DIMCLRT
 70
     0
  9
$DIMTFAC
 40
1.0
  9
$DIMGAP
 40
0.625
  9
$DIMJUST
 70
     0
  9
$DIMSD1
 70
     0
  9
$DIMSD2
 70
     0
  9
$DIMTOLJ
 70
     0
  9
$DIMTZIN
 70
     8
  9
$DIMALTZ
 70
     0
  9
$DIMALTTZ
 70
     0
  9
$DIMUPT
 70
     0
  9
$DIMDEC
 70
     2
  9
$DIMTDEC
 70
     2
  9
$DIMALTU
 70
     2
  9
$DIMALTTD
 70
     3
  9
$DIMTXSTY
  7
Standard
  9
$DIMAUNIT
 70
     0
  9
$DIMADEC
 70
     0
  9
$DIMALTRND
 40
0.0
  9
$DIMAZIN
 70
     0
  9
$DIMDSEP
 70
    44
  9
$DIMATFIT
 70
     3
  9
$DIMFRAC
 70
     0
  9
$DIMLDRBLK
  1

  9
$DIMLUNIT
 70
     2
  9
$DIMLWD
 70
    -2
  9
$DIMLWE
 70
    -2
  9
$DIMTMOVE
 70
     0
  9
$DIMFXL
 40
1.0
  9
$DIMFXLON
 70
     0
  9
$DIMJOGANG
 40
0.7853981633974483
  9
$DIMTFILL
 70
     0
  9
$DIMTFILLCLR
 70
     0
  9
$DIMARCSYM
 70
     0
  9
$DIMLTYPE
  6

  9
$DIMLTEX1
  6

  9
$DIMLTEX2
  6

  9
$DIMTXTDIRECTION
 70
     0
  9
$LUNITS
 70
     2
  9
$LUPREC
 70
     4
  9
$SKETCHINC
 40
1.0
  9
$FILLETRAD
 40
10.0
  9
$AUNITS
 70
     0
  9
$AUPREC
 70
     0
  9
$MENU
  1
.
  9
$ELEVATION
 40
0.0
  9
$PELEVATION
 40
0.0
  9
$THICKNESS
 40
0.0
  9
$LIMCHECK
 70
     0
  9
$CHAMFERA
 40
10.0
  9
$CHAMFERB
 40
10.0
  9
$CHAMFERC
 40
20.0
  9
$CHAMFERD
 40
0.0
  9
$SKPOLY
 70
     0
  9
$TDCREATE
 40
2459720.734230208
  9
$TDUCREATE
 40
2459720.359230208
  9
$TDUPDATE
 40
2459720.73423022
  9
$TDUUPDATE
 40
2459720.35923022
  9
$TDINDWG
 40
0.0000000116
  9
$TDUSRTIMER
 40
0.0000000116
  9
$USRTIMER
 70
     1
  9
$ANGBASE
 50
0.0
  9
$ANGDIR
 70
     0
  9
$PDMODE
 70
     0
  9
$PDSIZE
 40
0.0
  9
$PLINEWID
 40
0.0
  9
$SPLFRAME
 70
     0
  9
$SPLINETYPE
 70
     6
  9
$SPLINESEGS
 70
     8
  9
$HANDSEED
  5
5FC
  9
$SURFTAB1
 70
     6
  9
$SURFTAB2
 70
     6
  9
$SURFTYPE
 70
     6
  9
$SURFU
 70
     6
  9
$SURFV
 70
     6
  9
$UCSBASE
  2

  9
$UCSNAME
  2

  9
$UCSORG
 10
0.0
 20
0.0
 30
0.0
  9
$UCSXDIR
 10
1.0
 20
0.0
 30
0.0
  9
$UCSYDIR
 10
0.0
 20
1.0
 30
0.0
  9
$UCSORTHOREF
  2

  9
$UCSORTHOVIEW
 70
     0
  9
$UCSORGTOP
 10
0.0
 20
0.0
 30
0.0
  9
$UCSORGBOTTOM
 10
0.0
 20
0.0
 30
0.0
  9
$UCSORGLEFT
 10
0.0
 20
0.0
 30
0.0
  9
$UCSORGRIGHT
 10
0.0
 20
0.0
 30
0.0
  9
$UCSORGFRONT
 10
0.0
 20
0.0
 30
0.0
  9
$UCSORGBACK
 10
0.0
 20
0.0
 30
0.0
  9
$PUCSBASE
  2

  9
$PUCSNAME
  2

  9
$PUCSORG
 10
0.0
 20
0.0
 30
0.0
  9
$PUCSXDIR
 10
1.0
 20
0.0
 30
0.0
  9
$PUCSYDIR
 10
0.0
 20
1.0
 30
0.0
  9
$PUCSORTHOREF
  2

  9
$PUCSORTHOVIEW
 70
     0
  9
$PUCSORGTOP
 10
0.0
 20
0.0
 30
0.0
  9
$PUCSORGBOTTOM
 10
0.0
 20
0.0
 30
0.0
  9
$PUCSORGLEFT
 10
0.0
 20
0.0
 30
0.0
  9
$PUCSORGRIGHT
 10
0.0
 20
0.0
 30
0.0
  9
$PUCSORGFRONT
 10
0.0
 20
0.0
 30
0.0
  9
$PUCSORGBACK
 10
0.0
 20
0.0
 30
0.0
  9
$USERI1
 70
     0
  9
$USERI2
 70
     0
  9
$USERI3
 70
     0
  9
$USERI4
 70
     0
  9
$USERI5
 70
     0
  9
$USERR1
 40
0.0
  9
$USERR2
 40
0.0
  9
$USERR3
 40
0.0
  9
$USERR4
 40
0.0
  9
$USERR5
 40
0.0
  9
$WORLDVIEW
 70
     1
  9
$SHADEDGE
 70
     3
  9
$SHADEDIF
 70
    70
  9
$TILEMODE
 70
     1
  9
$MAXACTVP
 70
    64
  9
$PINSBASE
 10
0.0
 20
0.0
 30
0.0
  9
$PLIMCHECK
 70
     0
  9
$PEXTMIN
 10
1.000000000000000E+20
 20
1.000000000000000E+20
 30
1.000000000000000E+20
  9
$PEXTMAX
 10
-1.000000000000000E+20
 20
-1.000000000000000E+20
 30
-1.000000000000000E+20
  9
$PLIMMIN
 10
0.0
 20
0.0
  9
$PLIMMAX
 10
420.0
 20
297.0
  9
$UNITMODE
 70
     0
  9
$VISRETAIN
 70
     1
  9
$PLINEGEN
 70
     0
  9
$PSLTSCALE
 70
     1
  9
$TREEDEPTH
 70
  3020
  9
$CMLSTYLE
  2
Standard
  9
$CMLJUST
 70
     0
  9
$CMLSCALE
 40
20.0
  9
$PROXYGRAPHICS
 70
     1
  9
$MEASUREMENT
 70
     1
  9
$CELWEIGHT
370
    -1
  9
$ENDCAPS
280
     0
  9
$JOINSTYLE
280
     0
  9
$LWDISPLAY
290
     0
  9
$INSUNITS
 70
     4
  9
$HYPERLINKBASE
  1

  9
$STYLESHEET
  1

  9
$XEDIT
290
     1
  9
$CEPSNTYPE
380
     0
  9
$PSTYLEMODE
290
     1
  9
$FINGERPRINTGUID
  2
{2E78084A-F306-441C-A14C-A63BCEA650E6}
  9
$VERSIONGUID
  2
{FAEB1C32-E019-11D5-929B-00C0DF256EC4}
  9
$EXTNAMES
290
     1
  9
$PSVPSCALE
 40
0.0
  9
$OLESTARTUP
290
     0
  9
$SORTENTS
280
   127
  9
$INDEXCTL
280
     0
  9
$HIDETEXT
280
     1
  9
$XCLIPFRAME
280
     2
  9
$HALOGAP
280
     0
  9
$OBSCOLOR
 70
   257
  9
$OBSLTYPE
280
     0
  9
$INTERSECTIONDISPLAY
280
     0
  9
$INTERSECTIONCOLOR
 70
   257
  9
$DIMASSOC
280
     2
  9
$PROJECTNAME
  1

  9
$CAMERADISPLAY
290
     0
  9
$LENSLENGTH
 40
50.0
  9
$CAMERAHEIGHT
 40
0.0
  9
$STEPSPERSEC
 40
2.0
  9
$STEPSIZE
 40
6.0
  9
$3DDWFPREC
 40
2.0
  9
$PSOLWIDTH
 40
5.0
  9
$PSOLHEIGHT
 40
80.0
  9
$LOFTANG1
 40
1.570796326794897
  9
$LOFTANG2
 40
1.570796326794897
  9
$LOFTMAG1
 40
0.0
  9
$LOFTMAG2
 40
0.0
  9
$LOFTPARAM
 70
     7
  9
$LOFTNORMALS
280
     1
  9
$LATITUDE
 40
37.795
  9
$LONGITUDE
 40
-122.394
  9
$NORTHDIRECTION
 40
0.0
  9
$TIMEZONE
 70
 -8000
  9
$LIGHTGLYPHDISPLAY
280
     1
  9
$TILEMODELIGHTSYNCH
280
     1
  9
$SOLIDHIST
280
     1
  9
$SHOWHIST
280
     1
  9
$DWFFRAME
280
     2
  9
$DGNFRAME
280
     2
  9
$REALWORLDSCALE
290
     1
  9
$INTERFERECOLOR
 62
   256
  9
$CSHADOW
280
     0
  9
$SHADOWPLANELOCATION
 40
0.0
  0
ENDSEC
  0
SECTION
  2
CLASSES
  0
CLASS
  1
ACDBDICTIONARYWDFLT
  2
AcDbDictionaryWithDefault
  3
ObjectDBX Classes
 90
        0
 91
        4
280
     0
281
     0
  0
CLASS
  1
VISUALSTYLE
  2
AcDbVisualStyle
  3
ObjectDBX Classes
 90
     4095
 91
        4
280
     0
281
     0
  0
CLASS
  1
MATERIAL
  2
AcDbMaterial
  3
ObjectDBX Classes
 90
     1153
 91
        4
280
     0
281
     0
  0
ENDSEC
  0
SECTION
  2
TABLES
  0
TABLE
  2
VPORT
  5
8
330
0
100
AcDbSymbolTable
 70
     1
  0
VPORT
  5
29
330
8
100
AcDbSymbolTableRecord
100
AcDbViewportTableRecord
  2
*Active
 70
     0
 10
0.0
 20
0.0
 11
1.0
 21
1.0
 12
0.0
 22
0.0
 13
0.0
 23
0.0
 14
10.0
 24
10.0
 15
10.0
 25
10.0
 16
0.0
 26
0.0
 36
1.0
 17
0.0
 27
0.0
 37
0.0
 40
13860.0
 41
1.414285714285714
 42
50.0
 43
0.0
 44
0.0
 50
0.0
 51
0.0
 71
     0
 72
 10000
 73
     1
 74
     3
 75
     0
 76
     0
 77
     0
 78
     0
281
     0
 65
     1
110
0.0
120
0.0
130
0.0
111
1.0
121
0.0
131
0.0
112
0.0
122
1.0
132
0.0
 79
     0
146
0.0
 60
     3
 61
     5
292
     1
282
     1
141
0.0
142
0.0
 63
   250
  0
ENDTAB
  0
TABLE
  2
LTYPE
  5
5
330
0
100
AcDbSymbolTable
 70
     5
  0
LTYPE
  5
14
330
5
100
AcDbSymbolTableRecord
100
AcDbLinetypeTableRecord
  2
ByBlock
 70
     0
  3

 72
    65
 73
     0
 40
0.0
  0
LTYPE
  5
15
330
5
100
AcDbSymbolTableRecord
100
AcDbLinetypeTableRecord
  2
ByLayer
 70
     0
  3

 72
    65
 73
     0
 40
0.0
  0
LTYPE
  5
16
330
5
100
AcDbSymbolTableRecord
100
AcDbLinetypeTableRecord
  2
Continuous
 70
     0
  3
Solid line
 72
    65
 73
     0
 40
0.0
  0
LTYPE
  5
3F
330
5
100
AcDbSymbolTableRecord
100
AcDbLinetypeTableRecord
  2
JWW_HOJO
 70
     0
  3
  -   -   -   -   -   -   -   - 
 72
    65
 73
     2
 40
1.693333333333333
 49
-1.27
 74
     0
 49
0.4233333333333333
 74
     0
  0
LTYPE
  5
40
330
5
100
AcDbSymbolTableRecord
100
AcDbLinetypeTableRecord
  2
JWW_CENTER1
 70
     0
  3
-----  --  ----------  --  -----
 72
    65
 73
     4
 40
6.773333333333333
 49
4.233333333333333
 74
     0
 49
-0.8466666666666667
 74
     0
 49
0.8466666666666667
 74
     0
 49
-0.8466666666666667
 74
     0
  0
LTYPE
  5
41
330
5
100
AcDbSymbolTableRecord
100
AcDbLinetypeTableRecord
  2
JWW_DASHED1
 70
     0
  3
-  --  --  --  --  --  --  --  -
 72
    65
 73
     2
 40
1.693333333333333
 49
0.8466666666666667
 74
     0
 49
-0.8466666666666667
 74
     0
  0
LTYPE
  5
42
330
5
100
AcDbSymbolTableRecord
100
AcDbLinetypeTableRecord
  2
JWW_DASHED2
 70
     0
  3
--    ----    ----    ----    --
 72
    65
 73
     2
 40
3.386666666666667
 49
1.693333333333333
 74
     0
 49
-1.693333333333333
 74
     0
  0
ENDTAB
  0
TABLE
  2
LAYER
  5
2
330
0
100
AcDbSymbolTable
 70
    17
  0
LAYER
  5
10
330
2
100
AcDbSymbolTableRecord
100
AcDbLayerTableRecord
  2
0
 70
     0
 62
     7
  6
Continuous
370
    -3
390
F
347
3E
  0
LAYER
  5
43
330
2
100
AcDbSymbolTableRecord
100
AcDbLayerTableRecord
  2
F-0_補助線
 70
     0
 62
     7
  6
Continuous
370
    -3
390
F
347
3E
  0
LAYER
  5
44
330
2
100
AcDbSymbolTableRecord
100
AcDbLayerTableRecord
  2
F-1_枠
 70
     0
 62
     7
  6
Continuous
370
    -3
390
F
347
3E
  0
LAYER
  5
45
330
2
100
AcDbSymbolTableRecord
100
AcDbLayerTableRecord
  2
F-A_文字
 70
     0
 62
     7
  6
Continuous
370
    -3
390
F
347
3E
  0
LAYER
  5
46
330
2
100
AcDbSymbolTableRecord
100
AcDbLayerTableRecord
  2
0-6_扉
 70
     0
 62
     7
  6
Continuous
370
    -3
390
F
347
3E
  0
LAYER
  5
47
330
2
100
AcDbSymbolTableRecord
100
AcDbLayerTableRecord
  2
0-B_寸法
 70
     0
 62
     7
  6
Continuous
370
    -3
390
F
347
3E
  0
LAYER
  5
48
330
2
100
AcDbSymbolTableRecord
100
AcDbLayerTableRecord
  2
ハッチ
 70
     0
 62
     7
  6
Continuous
370
    -3
390
F
347
3E
  0
LAYER
  5
49
330
2
100
AcDbSymbolTableRecord
100
AcDbLayerTableRecord
  2
0-4_枠
 70
     0
 62
     7
  6
Continuous
370
    -3
390
F
347
3E
  0
LAYER
  5
4A
330
2
100
AcDbSymbolTableRecord
100
AcDbLayerTableRecord
  2
0-7_金物
 70
     0
 62
     7
  6
Continuous
370
    -3
390
F
347
3E
  0
LAYER
  5
4B
330
2
100
AcDbSymbolTableRecord
100
AcDbLayerTableRecord
  2
0-1_通り芯
 70
     0
 62
     7
  6
Continuous
370
    -3
390
F
347
3E
  0
LAYER
  5
4C
330
2
100
AcDbSymbolTableRecord
100
AcDbLayerTableRecord
  2
0-2_柱
 70
     0
 62
     7
  6
Continuous
370
    -3
390
F
347
3E
  0
LAYER
  5
4D
330
2
100
AcDbSymbolTableRecord
100
AcDbLayerTableRecord
  2
仕上げ
 70
     0
 62
     7
  6
Continuous
370
    -3
390
F
347
3E
  0
LAYER
  5
4E
330
2
100
AcDbSymbolTableRecord
100
AcDbLayerTableRecord
  2
0-A_文字
 70
     0
 62
     7
  6
Continuous
370
    -3
390
F
347
3E
  0
LAYER
  5
4F
330
2
100
AcDbSymbolTableRecord
100
AcDbLayerTableRecord
  2
0-0_補助線
 70
     0
 62
     7
  6
Continuous
370
    -3
390
F
347
3E
  0
LAYER
  5
50
330
2
100
AcDbSymbolTableRecord
100
AcDbLayerTableRecord
  2
1-B_ﾊｯﾁ
 70
     0
 62
     7
  6
Continuous
370
    -3
390
F
347
3E
  0
LAYER
  5
51
330
2
100
AcDbSymbolTableRecord
100
AcDbLayerTableRecord
  2
1-4_枠
 70
     0
 62
     7
  6
Continuous
370
    -3
390
F
347
3E
  0
LAYER
  5
52
330
2
100
AcDbSymbolTableRecord
100
AcDbLayerTableRecord
  2
1-0_補助線
 70
     0
 62
     7
  6
Continuous
370
    -3
390
F
347
3E
  0
ENDTAB
  0
TABLE
  2
STYLE
  5
3
330
0
100
AcDbSymbolTable
 70
     1
  0
STYLE
  5
11
330
3
100
AcDbSymbolTableRecord
100
AcDbTextStyleTableRecord
  2
Standard
 70
     0
 40
0.0
 41
1.0
 50
0.0
 71
     0
 42
2.5
  3
txt
  4

  0
ENDTAB
  0
TABLE
  2
VIEW
  5
6
330
0
100
AcDbSymbolTable
 70
     0
  0
ENDTAB
  0
TABLE
  2
UCS
  5
7
330
0
100
AcDbSymbolTable
 70
     0
  0
ENDTAB
  0
TABLE
  2
APPID
  5
9
330
0
100
AcDbSymbolTable
 70
     1
  0
APPID
  5
12
330
9
100
AcDbSymbolTableRecord
100
AcDbRegAppTableRecord
  2
ACAD
 70
     0
  0
ENDTAB
  0
TABLE
  2
DIMSTYLE
  5
A
330
0
100
AcDbSymbolTable
 70
     1
100
AcDbDimStyleTable
  0
DIMSTYLE
105
27
330
A
100
AcDbSymbolTableRecord
100
AcDbDimStyleTableRecord
  2
ISO-25
 70
     0
 41
2.5
 42
0.625
 43
3.75
 44
1.25
 73
     0
 74
     0
 77
     1
 78
     8
140
2.5
141
2.5
143
0.03937007874016
147
0.625
171
     3
172
     1
178
     0
271
     2
272
     2
274
     3
278
    44
283
     0
284
     8
340
11
  0
ENDTAB
  0
TABLE
  2
BLOCK_RECORD
  5
1
330
0
100
AcDbSymbolTable
 70
     1
  0
BLOCK_RECORD
  5
1F
330
1
100
AcDbSymbolTableRecord
100
AcDbBlockTableRecord
  2
*Model_Space
340
22
 70
     0
280
     1
281
     0
  0
BLOCK_RECORD
  5
1B
330
1
100
AcDbSymbolTableRecord
100
AcDbBlockTableRecord
  2
*Paper_Space
340
1E
 70
     0
280
     1
281
     0
  0
BLOCK_RECORD
  5
23
330
1
100
AcDbSymbolTableRecord
100
AcDbBlockTableRecord
  2
*Paper_Space0
340
26
 70
     0
280
     1
281
     0
  0
ENDTAB
  0
ENDSEC
  0
SECTION
  2
BLOCKS
  0
BLOCK
  5
20
330
1F
100
AcDbEntity
  8
0
100
AcDbBlockBegin
  2
*Model_Space
 70
     0
 10
0.0
 20
0.0
 30
0.0
  3
*Model_Space
  1

  0
ENDBLK
  5
21
330
1F
100
AcDbEntity
  8
0
100
AcDbBlockEnd
  0
BLOCK
  5
1C
330
1B
100
AcDbEntity
 67
     1
  8
0
100
AcDbBlockBegin
  2
*Paper_Space
 70
     0
 10
0.0
 20
0.0
 30
0.0
  3
*Paper_Space
  1

  0
ENDBLK
  5
1D
330
1B
100
AcDbEntity
 67
     1
  8
0
100
AcDbBlockEnd
  0
BLOCK
  5
24
330
23
100
AcDbEntity
  8
0
100
AcDbBlockBegin
  2
*Paper_Space0
 70
     0
 10
0.0
 20
0.0
 30
0.0
  3
*Paper_Space0
  1

  0
ENDBLK
  5
25
330
23
100
AcDbEntity
  8
0
100
AcDbBlockEnd
  0
ENDSEC
  0
SECTION
  2
ENTITIES
  0
LINE
  5
53
330
1F
100
AcDbEntity
  8
F-0_補助線
  6
JWW_HOJO
 62
   120
370
     5
100
AcDbLine
 10
-6140.081333436773
 20
-4455.0
 30
0.0
 11
-6140.081333436773
 21
4424.999604096284
 31
0.0
  0
LINE
  5
54
330
1F
100
AcDbEntity
  8
F-0_補助線
  6
JWW_HOJO
 62
   120
370
     5
100
AcDbLine
 10
-6140.081333436773
 20
4424.999604096284
 30
0.0
 11
6159.917676803936
 21
4424.999604096284
 31
0.0
  0
LINE
  5
55
330
1F
100
AcDbEntity
  8
F-0_補助線
  6
JWW_HOJO
 62
   120
370
     5
100
AcDbLine
 10
6159.917676803936
 20
4424.999604096284
 30
0.0
 11
6159.917676803936
 21
-4455.0
 31
0.0
  0
LINE
  5
56
330
1F
100
AcDbEntity
  8
F-0_補助線
  6
JWW_HOJO
 62
   120
370
     5
100
AcDbLine
 10
6159.917676803936
 20
-4455.0
 30
0.0
 11
-6140.081333436773
 21
-4455.0
 31
0.0
  0
LINE
  5
57
330
1F
100
AcDbEntity
  8
F-0_補助線
  6
JWW_HOJO
 62
     7
370
     5
100
AcDbLine
 10
509.9185840832865
 20
-3795.000003092998
 30
0.0
 11
509.9185840832865
 21
-4195.000008247994
 31
0.0
  0
LINE
  5
58
330
1F
100
AcDbEntity
  8
F-1_枠
  6
Continuous
 62
   200
370
     5
100
AcDbLine
 10
5859.917429364114
 20
4174.999769056166
 30
0.0
 11
5859.917429364114
 21
-4205.000164959882
 31
0.0
  0
LINE
  5
59
330
1F
100
AcDbEntity
  8
F-1_枠
  6
Continuous
 62
   200
370
     5
100
AcDbLine
 10
-5840.081317971782
 20
4174.999769056166
 30
0.0
 11
-5840.081317971782
 21
-4205.000164959882
 31
0.0
  0
LINE
  5
5A
330
1F
100
AcDbEntity
  8
F-1_枠
  6
Continuous
 62
   200
370
     5
100
AcDbLine
 10
5859.917429364114
 20
-4205.000002577498
 30
0.0
 11
-5840.081085996952
 21
-4205.000002577498
 31
0.0
  0
LINE
  5
5B
330
1F
100
AcDbEntity
  8
F-1_枠
  6
Continuous
 62
   200
370
     5
100
AcDbLine
 10
-5830.081323642279
 20
4174.999769056166
 30
0.0
 11
-5830.081323642279
 21
-4205.000164959882
 31
0.0
  0
LINE
  5
5C
330
1F
100
AcDbEntity
  8
F-1_枠
  6
Continuous
 62
   200
370
     5
100
AcDbLine
 10
-5835.081309208291
 20
4174.999769056166
 30
0.0
 11
-5835.081309208291
 21
-4205.000164959882
 31
0.0
  0
LINE
  5
5D
330
1F
100
AcDbEntity
  8
F-1_枠
  6
Continuous
 62
   200
370
     5
100
AcDbLine
 10
5854.917165428304
 20
4174.999769056166
 30
0.0
 11
5854.917165428304
 21
-4205.000164959882
 31
0.0
  0
LINE
  5
5E
330
1F
100
AcDbEntity
  8
F-1_枠
  6
Continuous
 62
   200
370
     5
100
AcDbLine
 10
5849.917643811961
 20
4174.999769056166
 30
0.0
 11
5849.917643811961
 21
-4205.000164959882
 31
0.0
  0
LINE
  5
5F
330
1F
100
AcDbEntity
  8
F-1_枠
  6
Continuous
 62
   200
370
     5
100
AcDbLine
 10
5859.917429364114
 20
-4199.999993814004
 30
0.0
 11
-5840.081085996952
 21
-4199.999993814004
 31
0.0
  0
LINE
  5
60
330
1F
100
AcDbEntity
  8
F-1_枠
  6
Continuous
 62
   200
370
     5
100
AcDbLine
 10
5859.917429364114
 20
-4195.000008247994
 30
0.0
 11
-5840.081085996952
 21
-4195.000008247994
 31
0.0
  0
LINE
  5
61
330
1F
100
AcDbEntity
  8
F-1_枠
  6
Continuous
 62
   200
370
     5
100
AcDbLine
 10
4349.917891251784
 20
-3795.000003092998
 30
0.0
 11
4349.917891251784
 21
-4195.000008247994
 31
0.0
  0
LINE
  5
62
330
1F
100
AcDbEntity
  8
F-1_枠
  6
Continuous
 62
   200
370
     5
100
AcDbLine
 10
2849.917396372139
 20
-3795.000003092998
 30
0.0
 11
2849.917396372139
 21
-4195.000008247994
 31
0.0
  0
LINE
  5
63
330
1F
100
AcDbEntity
  8
F-1_枠
  6
Continuous
 62
   200
370
     5
100
AcDbLine
 10
9.918542843316231
 20
-3795.000003092998
 30
0.0
 11
9.918542843316231
 21
-4195.000008247994
 31
0.0
  0
LINE
  5
64
330
1F
100
AcDbEntity
  8
F-1_枠
  6
Continuous
 62
   200
370
     5
100
AcDbLine
 10
9.918542843316231
 20
-3994.999936078046
 30
0.0
 11
5849.917643811961
 21
-3995.005364289155
 31
0.0
  0
LINE
  5
65
330
1F
100
AcDbEntity
  8
F-1_枠
  6
Continuous
 62
   200
370
     5
100
AcDbLine
 10
-5840.081085996952
 20
4174.999769056166
 30
0.0
 11
5859.917429364114
 21
4174.999769056166
 31
0.0
  0
LINE
  5
66
330
1F
100
AcDbEntity
  8
F-1_枠
  6
Continuous
 62
   200
370
     5
100
AcDbLine
 10
-5840.081085996952
 20
4164.999983504013
 30
0.0
 11
5859.917429364114
 21
4164.999983504013
 31
0.0
  0
LINE
  5
67
330
1F
100
AcDbEntity
  8
F-1_枠
  6
Continuous
 62
   200
370
     5
100
AcDbLine
 10
-5840.081085996952
 20
4169.999505120355
 30
0.0
 11
5859.917429364114
 21
4169.999505120355
 31
0.0
  0
LINE
  5
68
330
1F
100
AcDbEntity
  8
F-0_補助線
  6
JWW_HOJO
 62
     7
370
     5
100
AcDbLine
 10
-5830.081323642279
 20
-3994.99993607839
 30
0.0
 11
9.918542843316231
 21
-3994.99993607839
 31
0.0
  0
LINE
  5
69
330
1F
100
AcDbEntity
  8
F-0_補助線
  6
JWW_HOJO
 62
     7
370
     5
100
AcDbLine
 10
-5830.081323642279
 20
-3904.99993607839
 30
0.0
 11
9.918542843316231
 21
-3904.99993607839
 31
0.0
  0
LINE
  5
6A
330
1F
100
AcDbEntity
  8
F-0_補助線
  6
JWW_HOJO
 62
     7
370
     5
100
AcDbLine
 10
-5830.081323642279
 20
-4084.99993607839
 30
0.0
 11
9.918542843316231
 21
-4084.99993607839
 31
0.0
  0
LINE
  5
6B
330
1F
100
AcDbEntity
  8
F-0_補助線
  6
JWW_HOJO
 62
     7
370
     5
100
AcDbLine
 10
9.918408067688347
 20
-4139.999739777983
 30
0.0
 11
5849.917509036332
 21
-4140.005167989091
 31
0.0
  0
LINE
  5
6C
330
1F
100
AcDbEntity
  8
F-0_補助線
  6
JWW_HOJO
 62
     7
370
     5
100
AcDbLine
 10
9.918491721639953
 20
-4049.999739778022
 30
0.0
 11
5849.917592690284
 21
-4050.005167989131
 31
0.0
  0
LINE
  5
6D
330
1F
100
AcDbEntity
  8
F-0_補助線
  6
JWW_HOJO
 62
     7
370
     5
100
AcDbLine
 10
9.918593965360003
 20
-3939.99973721807
 30
0.0
 11
5849.917694934004
 21
-3940.005165429179
 31
0.0
  0
LINE
  5
6E
330
1F
100
AcDbEntity
  8
F-0_補助線
  6
JWW_HOJO
 62
     7
370
     5
100
AcDbLine
 10
9.918677619311609
 20
-3849.999737218109
 30
0.0
 11
5849.917778587956
 21
-3850.005165429218
 31
0.0
  0
LINE
  5
6F
330
1F
100
AcDbEntity
  8
F-0_補助線
  6
JWW_HOJO
 62
     7
370
     5
100
AcDbLine
 10
2939.917396372139
 20
-3795.000003092998
 30
0.0
 11
2939.917396372139
 21
-4195.000008247994
 31
0.0
  0
LINE
  5
70
330
1F
100
AcDbEntity
  8
F-0_補助線
  6
JWW_HOJO
 62
     7
370
     5
100
AcDbLine
 10
99.91854284331623
 20
-3795.000003092998
 30
0.0
 11
99.91854284331623
 21
-4195.000008247994
 31
0.0
  0
LINE
  5
71
330
1F
100
AcDbEntity
  8
F-0_補助線
  6
JWW_HOJO
 62
     7
370
     5
100
AcDbLine
 10
4439.917891251784
 20
-3795.000003092998
 30
0.0
 11
4439.917891251784
 21
-4195.000008247994
 31
0.0
  0
MTEXT
  5
72
330
1F
100
AcDbEntity
  8
F-A_文字
  6
Continuous
 62
     7
370
     0
100
AcDbMText
 10
4439.917891251784
 20
-3887.143854850754
 30
0.0
 40
45.72
 41
240.0
 46
0.0
 71
     7
 72
     1
  1
{\fＭＳ ゴシック|b0|i0|c128|p49;ＤＡＴＥ}
 73
     1
 44
1.0
  0
MTEXT
  5
73
330
1F
100
AcDbEntity
  8
F-A_文字
  6
Continuous
 62
     7
370
     0
100
AcDbMText
 10
4439.917891251784
 20
-4087.143857410839
 30
0.0
 40
45.72
 41
180.0
 46
0.0
 71
     7
 72
     1
  1
{\fＭＳ ゴシック|b0|i0|c128|p49;ＮＯ．}
 73
     1
 44
1.0
  0
MTEXT
  5
74
330
1F
100
AcDbEntity
  8
F-A_文字
  6
Continuous
 62
     7
370
     0
100
AcDbMText
 10
2939.917396372139
 20
-3887.142460617774
 30
0.0
 40
45.72
 41
300.0
 46
0.0
 71
     7
 72
     1
  1
{\fＭＳ ゴシック|b0|i0|c128|p49;ＳＣＡＬＥ}
 73
     1
 44
1.0
  0
MTEXT
  5
75
330
1F
100
AcDbEntity
  8
F-A_文字
  6
Continuous
 62
     7
370
     0
100
AcDbMText
 10
2939.917396372139
 20
-4087.14246317786
 30
0.0
 40
45.72
 41
240.0
 46
0.0
 71
     7
 72
     1
  1
{\fＭＳ ゴシック|b0|i0|c128|p49;ＦＩＬＥ}
 73
     1
 44
1.0
  0
MTEXT
  5
76
330
1F
100
AcDbEntity
  8
F-A_文字
  6
Continuous
 62
     7
370
     0
100
AcDbMText
 10
99.91854284331623
 20
-3887.139820871936
 30
0.0
 40
45.72
 41
180.0
 46
0.0
 71
     7
 72
     1
  1
{\fＭＳ ゴシック|b0|i0|c128|p49;図面名}
 73
     1
 44
1.0
  0
MTEXT
  5
77
330
1F
100
AcDbEntity
  8
F-A_文字
  6
Continuous
 62
     7
370
     0
100
AcDbMText
 10
1604.917396372138
 20
-4164.281754523929
 30
0.0
 40
101.44125
 41
1065.0
 46
0.0
 71
     7
 72
     1
  1
{\fＭＳ ゴシック|b0|i0|c128|p49;ウッドワン・・・}
 73
     1
 44
1.0
  0
MTEXT
  5
78
330
1F
100
AcDbEntity
  8
F-A_文字
  6
Continuous
 62
     7
370
     0
100
AcDbMText
 10
1394.917396372138
 20
-4096.140669266149
 30
0.0
 40
45.72
 41
120.0
 46
0.0
 71
     7
 72
     1
  1
{\fＭＳ ゴシック|b0|i0|c128|p49;株式}
 73
     1
 44
1.0
  0
MTEXT
  5
79
330
1F
100
AcDbEntity
  8
F-A_文字
  6
Continuous
 62
     7
370
     0
100
AcDbMText
 10
1394.917396372138
 20
-4168.140669266187
 30
0.0
 40
45.72
 41
120.0
 46
0.0
 71
     7
 72
     1
  1
{\fＭＳ ゴシック|b0|i0|c128|p49;会社}
 73
     1
 44
1.0
  0
LINE
  5
7A
330
1F
100
AcDbEntity
  8
F-1_枠
  6
Continuous
 62
   200
370
     5
100
AcDbLine
 10
5859.917429364114
 20
-3795.000003092998
 30
0.0
 11
-5840.081085996952
 21
-3795.000003092998
 31
0.0
  0
LINE
  5
7B
330
1F
100
AcDbEntity
  8
F-1_枠
  6
Continuous
 62
   200
370
     5
100
AcDbLine
 10
5859.917429364114
 20
-3790.000017526987
 30
0.0
 11
-5840.081085996952
 21
-3790.000017526987
 31
0.0
  0
LINE
  5
7C
330
1F
100
AcDbEntity
  8
F-0_補助線
  6
JWW_HOJO
 62
     7
370
     5
100
AcDbLine
 10
-5087.628710189611
 20
-3795.000003092999
 30
0.0
 11
-5087.628710189611
 21
-4205.000164959882
 31
0.0
  0
LINE
  5
7D
330
1F
100
AcDbEntity
  8
F-0_補助線
  6
JWW_HOJO
 62
     7
370
     5
100
AcDbLine
 10
-50.08145715668377
 20
-3795.000003092998
 30
0.0
 11
-50.08145715668377
 21
-4195.000008247994
 31
0.0
  0
LINE
  5
7E
330
1F
100
AcDbEntity
  8
0-6_扉
  6
Continuous
 62
   200
370
     5
100
AcDbLine
 10
9.918542843314526
 20
2147.962168973791
 30
0.0
 11
9.918542843314526
 21
1967.962168973791
 31
0.0
  0
LINE
  5
7F
330
1F
100
AcDbEntity
  8
0-6_扉
  6
Continuous
 62
   200
370
     5
100
AcDbLine
 10
1186.394886806318
 20
2147.962168973791
 30
0.0
 11
1186.394886806318
 21
1967.962168973791
 31
0.0
  0
LINE
  5
80
330
1F
100
AcDbEntity
  8
0-6_扉
  6
Continuous
 62
   200
370
     5
100
AcDbLine
 10
1186.394886806318
 20
2147.962168973791
 30
0.0
 11
658.1567148248168
 21
2147.962168973791
 31
0.0
  0
LINE
  5
81
330
1F
100
AcDbEntity
  8
0-6_扉
  6
Continuous
 62
   200
370
     5
100
AcDbLine
 10
1186.394886806318
 20
1967.962168973791
 30
0.0
 11
658.1567148248168
 21
1967.962168973791
 31
0.0
  0
LINE
  5
82
330
1F
100
AcDbEntity
  8
0-6_扉
  6
Continuous
 62
   200
370
     5
100
AcDbLine
 10
538.1567148248168
 20
2147.962168973791
 30
0.0
 11
9.918542843314473
 21
2147.962168973791
 31
0.0
  0
LINE
  5
83
330
1F
100
AcDbEntity
  8
0-6_扉
  6
Continuous
 62
   200
370
     5
100
AcDbLine
 10
538.1567148248168
 20
1967.962168973791
 30
0.0
 11
9.918542843314473
 21
1967.962168973791
 31
0.0
  0
LINE
  5
84
330
1F
100
AcDbEntity
  8
0-6_扉
  6
Continuous
 62
   200
370
     5
100
AcDbLine
 10
-986.5578011196894
 20
2375.962168973791
 30
0.0
 11
-1514.795973101191
 21
2375.962168973791
 31
0.0
  0
MTEXT
  5
85
330
1F
100
AcDbEntity
  8
0-B_寸法
  6
Continuous
 62
     7
370
   211
100
AcDbMText
 10
283.1567148248178
 20
1983.681688940532
 30
0.0
 40
91.43999999999998
 41
540.0
 46
0.0
 71
     7
 72
     1
  1
{\fＭＳ ゴシック|b0|i0|c128|p49;ＤＷ＝810}
 73
     1
 44
1.0
  0
MTEXT
  5
86
330
1F
100
AcDbEntity
  8
0-B_寸法
  6
Continuous
 62
     7
370
   211
100
AcDbMText
 10
-803.319629138187
 20
1983.681688940532
 30
0.0
 40
91.43999999999998
 41
540.0
 46
0.0
 71
     7
 72
     1
  1
{\fＭＳ ゴシック|b0|i0|c128|p49;ＤＷ＝810}
 73
     1
 44
1.0
  0
LINE
  5
87
330
1F
100
AcDbEntity
  8
ハッチ
  6
Continuous
 62
   120
370
     5
100
AcDbLine
 10
-2171.210770725927
 20
1709.9617340983
 30
0.0
 11
-2148.033710207202
 21
1733.139110205124
 31
0.0
  0
LINE
  5
88
330
1F
100
AcDbEntity
  8
ハッチ
  6
Continuous
 62
   120
370
     5
100
AcDbLine
 10
-2239.09228508383
 20
1709.9617340983
 30
0.0
 11
-2148.033710207202
 21
1801.021548864793
 31
0.0
  0
LINE
  5
89
330
1F
100
AcDbEntity
  8
ハッチ
  6
Continuous
 62
   120
370
     5
100
AcDbLine
 10
-2306.974342203346
 20
1709.9617340983
 30
0.0
 11
-2148.033710207202
 21
1868.903987524462
 31
0.0
  0
LINE
  5
8A
330
1F
100
AcDbEntity
  8
ハッチ
  6
Continuous
 62
   120
370
     5
100
AcDbLine
 10
-2325.033996618797
 20
2302.843886504401
 30
0.0
 11
-2148.033710207202
 21
2479.843612310838
 31
0.0
  0
LINE
  5
8B
330
1F
100
AcDbEntity
  8
ハッチ
  6
Continuous
 62
   120
370
     5
100
AcDbLine
 10
-2325.033996618797
 20
2099.196787337545
 30
0.0
 11
-2184.034145082693
 21
2240.196260525255
 31
0.0
  0
LINE
  5
8C
330
1F
100
AcDbEntity
  8
ハッチ
  6
Continuous
 62
   120
370
     5
100
AcDbLine
 10
-2325.033996618797
 20
2167.07896651906
 30
0.0
 11
-2184.034145082693
 21
2308.077803035188
 31
0.0
  0
LINE
  5
8D
330
1F
100
AcDbEntity
  8
ハッチ
  6
Continuous
 62
   120
370
     5
100
AcDbLine
 10
-2325.033996618797
 20
2031.314434914998
 30
0.0
 11
-2184.034145082693
 21
2172.314110761322
 31
0.0
  0
LINE
  5
8E
330
1F
100
AcDbEntity
  8
ハッチ
  6
Continuous
 62
   120
370
     5
100
AcDbLine
 10
-2325.033996618797
 20
2234.964736739885
 30
0.0
 11
-2184.034145082693
 21
2375.96151261663
 31
0.0
  0
LINE
  5
8F
330
1F
100
AcDbEntity
  8
ハッチ
  6
Continuous
 62
   120
370
     5
100
AcDbLine
 10
-2322.033996618797
 20
2563.853631335272
 30
0.0
 11
-2251.925537569888
 21
2633.962008756503
 31
0.0
  0
LINE
  5
90
330
1F
100
AcDbEntity
  8
ハッチ
  6
Continuous
 62
   120
370
     5
100
AcDbLine
 10
-2325.033996618797
 20
2506.490071750712
 30
0.0
 11
-2197.56191119653
 21
2633.962008756503
 31
0.0
  0
LINE
  5
91
330
1F
100
AcDbEntity
  8
ハッチ
  6
Continuous
 62
   120
370
     5
100
AcDbLine
 10
-2322.033996618797
 20
2618.21719441275
 30
0.0
 11
-2306.289163943246
 21
2633.962008756503
 31
0.0
  0
LINE
  5
92
330
1F
100
AcDbEntity
  8
0-4_枠
  6
Continuous
 62
    92
370
     5
100
AcDbLine
 10
-2325.033996618797
 20
2636.962168973789
 30
0.0
 11
-2325.033996618797
 21
1706.96216897379
 31
0.0
  0
LINE
  5
93
330
1F
100
AcDbEntity
  8
0-4_枠
  6
Continuous
 62
    92
370
     5
100
AcDbLine
 10
-2322.033996618797
 20
1796.96216897379
 30
0.0
 11
-2322.033996618797
 21
1709.9617340983
 31
0.0
  0
LINE
  5
94
330
1F
100
AcDbEntity
  8
0-4_枠
  6
Continuous
 62
    92
370
     5
100
AcDbLine
 10
-2322.033996618797
 20
1796.96216897379
 30
0.0
 11
-2325.033996618797
 21
1796.96216897379
 31
0.0
  0
LINE
  5
95
330
1F
100
AcDbEntity
  8
0-4_枠
  6
Continuous
 62
    92
370
     5
100
AcDbLine
 10
-2184.034145082693
 20
2159.96216897379
 30
0.0
 11
-2148.033710207202
 21
2159.96216897379
 31
0.0
  0
LINE
  5
96
330
1F
100
AcDbEntity
  8
0-4_枠
  6
Continuous
 62
    92
370
     5
100
AcDbLine
 10
-2184.034145082693
 20
2411.96216897379
 30
0.0
 11
-2184.034145082693
 21
2159.96216897379
 31
0.0
  0
LINE
  5
97
330
1F
100
AcDbEntity
  8
0-4_枠
  6
Continuous
 62
    92
370
     5
100
AcDbLine
 10
-2184.034145082693
 20
2411.96216897379
 30
0.0
 11
-2148.033710207202
 21
2411.96216897379
 31
0.0
  0
LINE
  5
98
330
1F
100
AcDbEntity
  8
0-4_枠
  6
Continuous
 62
    92
370
     5
100
AcDbLine
 10
-2322.033996618797
 20
2546.962168973789
 30
0.0
 11
-2322.033996618797
 21
2633.962008756503
 31
0.0
  0
LINE
  5
99
330
1F
100
AcDbEntity
  8
0-4_枠
  6
Continuous
 62
    92
370
     5
100
AcDbLine
 10
-2322.033996618797
 20
2546.962168973789
 30
0.0
 11
-2325.033996618797
 21
2546.962168973789
 31
0.0
  0
LINE
  5
9A
330
1F
100
AcDbEntity
  8
ハッチ
  6
Continuous
 62
   120
370
     5
100
AcDbLine
 10
-2322.033996618797
 20
1762.78318686657
 30
0.0
 11
-2148.033710207202
 21
1936.785842535449
 31
0.0
  0
LINE
  5
9B
330
1F
100
AcDbEntity
  8
0-4_枠
  6
Continuous
 62
    92
370
     5
100
AcDbLine
 10
-2181.034145082689
 20
2162.962168973791
 30
0.0
 11
-2145.034145082691
 21
2162.962168973791
 31
0.0
  0
LINE
  5
9C
330
1F
100
AcDbEntity
  8
0-4_枠
  6
Continuous
 62
    92
370
     5
100
AcDbLine
 10
-2181.034145082689
 20
2408.96216897379
 30
0.0
 11
-2145.034145082691
 21
2408.96216897379
 31
0.0
  0
LINE
  5
9D
330
1F
100
AcDbEntity
  8
ハッチ
  6
Continuous
 62
   120
370
     5
100
AcDbLine
 10
-2325.033996618797
 20
1963.431802552569
 30
0.0
 11
-2148.033710207202
 21
2140.432574865771
 31
0.0
  0
LINE
  5
9E
330
1F
100
AcDbEntity
  8
0-4_枠
  6
Continuous
 62
    92
370
     5
100
AcDbLine
 10
-2181.034145082689
 20
2408.96216897379
 30
0.0
 11
-2181.034145082689
 21
2162.962168973791
 31
0.0
  0
LINE
  5
9F
330
1F
100
AcDbEntity
  8
ハッチ
  6
Continuous
 62
   120
370
     5
100
AcDbLine
 10
-2325.033996618797
 20
2438.60791592304
 30
0.0
 11
-2148.033710207202
 21
2615.60799625219
 31
0.0
  0
LINE
  5
A0
330
1F
100
AcDbEntity
  8
ハッチ
  6
Continuous
 62
   120
370
     5
100
AcDbLine
 10
-2325.033996618797
 20
1827.666189118262
 30
0.0
 11
-2148.033710207202
 21
2004.668281195117
 31
0.0
  0
LINE
  5
A1
330
1F
100
AcDbEntity
  8
ハッチ
  6
Continuous
 62
   120
370
     5
100
AcDbLine
 10
-2325.033996618797
 20
1895.549278468641
 30
0.0
 11
-2148.033710207202
 21
2072.550136206105
 31
0.0
  0
LINE
  5
A2
330
1F
100
AcDbEntity
  8
ハッチ
  6
Continuous
 62
   120
370
     5
100
AcDbLine
 10
-2325.033996618797
 20
2370.726042332311
 30
0.0
 11
-2148.033710207202
 21
2547.726050970509
 31
0.0
  0
LINE
  5
A3
330
1F
100
AcDbEntity
  8
0-4_枠
  6
Continuous
 62
    92
370
     5
100
AcDbLine
 10
2344.871082305429
 20
2630.962119485824
 30
0.0
 11
2344.871082305429
 21
1700.962119485824
 31
0.0
  0
LINE
  5
A4
330
1F
100
AcDbEntity
  8
0-4_枠
  6
Continuous
 62
    92
370
     5
100
AcDbLine
 10
2341.87108230543
 20
1790.962119485824
 30
0.0
 11
2341.87108230543
 21
1703.961684610334
 31
0.0
  0
LINE
  5
A5
330
1F
100
AcDbEntity
  8
0-4_枠
  6
Continuous
 62
    92
370
     5
100
AcDbLine
 10
2341.87108230543
 20
1790.962119485824
 30
0.0
 11
2344.871082305429
 21
1790.962119485824
 31
0.0
  0
LINE
  5
A6
330
1F
100
AcDbEntity
  8
0-4_枠
  6
Continuous
 62
    92
370
     5
100
AcDbLine
 10
2203.871230769324
 20
2153.962119485824
 30
0.0
 11
2167.870795893833
 21
2153.962119485824
 31
0.0
  0
LINE
  5
A7
330
1F
100
AcDbEntity
  8
0-4_枠
  6
Continuous
 62
    92
370
     5
100
AcDbLine
 10
2203.871230769324
 20
2405.962119485824
 30
0.0
 11
2203.871230769324
 21
2153.962119485824
 31
0.0
  0
LINE
  5
A8
330
1F
100
AcDbEntity
  8
0-4_枠
  6
Continuous
 62
    92
370
     5
100
AcDbLine
 10
2203.871230769324
 20
2405.962119485824
 30
0.0
 11
2167.870795893833
 21
2405.962119485824
 31
0.0
  0
LINE
  5
A9
330
1F
100
AcDbEntity
  8
0-4_枠
  6
Continuous
 62
    92
370
     5
100
AcDbLine
 10
2341.87108230543
 20
2540.962119485824
 30
0.0
 11
2341.87108230543
 21
2627.961959268537
 31
0.0
  0
LINE
  5
AA
330
1F
100
AcDbEntity
  8
0-4_枠
  6
Continuous
 62
    92
370
     5
100
AcDbLine
 10
2341.87108230543
 20
2540.962119485824
 30
0.0
 11
2344.871082305429
 21
2540.962119485824
 31
0.0
  0
LINE
  5
AB
330
1F
100
AcDbEntity
  8
0-4_枠
  6
Continuous
 62
    92
370
     5
100
AcDbLine
 10
2200.871230769323
 20
2156.962119485823
 30
0.0
 11
2164.871230769323
 21
2156.962119485823
 31
0.0
  0
LINE
  5
AC
330
1F
100
AcDbEntity
  8
0-4_枠
  6
Continuous
 62
    92
370
     5
100
AcDbLine
 10
2200.871230769323
 20
2402.962119485822
 30
0.0
 11
2164.871230769323
 21
2402.962119485822
 31
0.0
  0
LINE
  5
AD
330
1F
100
AcDbEntity
  8
0-4_枠
  6
Continuous
 62
    92
370
     5
100
AcDbLine
 10
2200.871230769323
 20
2402.962119485822
 30
0.0
 11
2200.871230769323
 21
2156.962119485823
 31
0.0
  0
LINE
  5
AE
330
1F
100
AcDbEntity
  8
ハッチ
  6
Continuous
 62
   120
370
     5
100
AcDbLine
 10
2250.81294230429
 20
1703.961684610334
 30
0.0
 11
2344.871082305429
 21
1798.021105344612
 31
0.0
  0
LINE
  5
AF
330
1F
100
AcDbEntity
  8
ハッチ
  6
Continuous
 62
   120
370
     5
100
AcDbLine
 10
2182.930885184776
 20
1703.961684610334
 30
0.0
 11
2344.871082305429
 21
1865.903533761017
 31
0.0
  0
LINE
  5
B0
330
1F
100
AcDbEntity
  8
ハッチ
  6
Continuous
 62
   120
370
     5
100
AcDbLine
 10
2167.870795893833
 20
2096.196294925283
 30
0.0
 11
2344.871082305429
 21
2273.196106387625
 31
0.0
  0
LINE
  5
B1
330
1F
100
AcDbEntity
  8
ハッチ
  6
Continuous
 62
   120
370
     5
100
AcDbLine
 10
2167.870795893833
 20
1756.782702497194
 30
0.0
 11
2344.871082305429
 21
1933.785399015267
 31
0.0
  0
LINE
  5
B2
330
1F
100
AcDbEntity
  8
ハッチ
  6
Continuous
 62
   120
370
     5
100
AcDbLine
 10
2167.870795893833
 20
2028.313946813999
 30
0.0
 11
2344.871082305429
 21
2205.314012678261
 31
0.0
  0
LINE
  5
B3
330
1F
100
AcDbEntity
  8
ハッチ
  6
Continuous
 62
   120
370
     5
100
AcDbLine
 10
2167.870795893833
 20
1960.431326423528
 30
0.0
 11
2344.871082305429
 21
2137.432098736729
 31
0.0
  0
LINE
  5
B4
330
1F
100
AcDbEntity
  8
ハッチ
  6
Continuous
 62
   120
370
     5
100
AcDbLine
 10
2167.870795893833
 20
1824.665735354816
 30
0.0
 11
2344.871082305429
 21
2001.667827431671
 31
0.0
  0
LINE
  5
B5
330
1F
100
AcDbEntity
  8
ハッチ
  6
Continuous
 62
   120
370
     5
100
AcDbLine
 10
2167.870795893833
 20
1892.548803787254
 30
0.0
 11
2344.871082305429
 21
2069.549661524718
 31
0.0
  0
LINE
  5
B6
330
1F
100
AcDbEntity
  8
ハッチ
  6
Continuous
 62
   120
370
     5
100
AcDbLine
 10
2203.871230769324
 20
2403.725931640138
 30
0.0
 11
2341.871517180918
 21
2541.726001482542
 31
0.0
  0
LINE
  5
B7
330
1F
100
AcDbEntity
  8
ハッチ
  6
Continuous
 62
   120
370
     5
100
AcDbLine
 10
2203.871230769324
 20
2200.078636280594
 30
0.0
 11
2344.871082305429
 21
2341.077472796721
 31
0.0
  0
LINE
  5
B8
330
1F
100
AcDbEntity
  8
ハッチ
  6
Continuous
 62
   120
370
     5
100
AcDbLine
 10
2203.871230769324
 20
2335.843713493465
 30
0.0
 11
2344.871082305429
 21
2476.843118446993
 31
0.0
  0
LINE
  5
B9
330
1F
100
AcDbEntity
  8
ハッチ
  6
Continuous
 62
   120
370
     5
100
AcDbLine
 10
2203.871230769324
 20
2267.963836536733
 30
0.0
 11
2344.871082305429
 21
2408.960612413481
 31
0.0
  0
LINE
  5
BA
330
1F
100
AcDbEntity
  8
ハッチ
  6
Continuous
 62
   120
370
     5
100
AcDbLine
 10
2167.870795893833
 20
2612.216710049802
 30
0.0
 11
2183.616063444872
 21
2627.961959268537
 31
0.0
  0
LINE
  5
BB
330
1F
100
AcDbEntity
  8
ハッチ
  6
Continuous
 62
   120
370
     5
100
AcDbLine
 10
2167.870795893833
 20
2435.607428067174
 30
0.0
 11
2341.871517180918
 21
2609.607946764223
 31
0.0
  0
LINE
  5
BC
330
1F
100
AcDbEntity
  8
ハッチ
  6
Continuous
 62
   120
370
     5
100
AcDbLine
 10
2167.870795893833
 20
2557.853146972325
 30
0.0
 11
2237.979689818232
 21
2627.961959268537
 31
0.0
  0
LINE
  5
BD
330
1F
100
AcDbEntity
  8
ハッチ
  6
Continuous
 62
   120
370
     5
100
AcDbLine
 10
2167.870795893833
 20
2503.489583894847
 30
0.0
 11
2292.343316191589
 21
2627.961959268537
 31
0.0
  0
LINE
  5
BE
330
1F
100
AcDbEntity
  8
0-6_扉
  6
Continuous
 62
   200
370
     5
100
AcDbLine
 10
-2163.034145082693
 20
2195.962168973791
 30
0.0
 11
-2163.034145082693
 21
2375.962168973791
 31
0.0
  0
LINE
  5
BF
330
1F
100
AcDbEntity
  8
0-6_扉
  6
Continuous
 62
   200
370
     5
100
AcDbLine
 10
-986.5578011196894
 20
2375.962168973791
 30
0.0
 11
-986.5578011196894
 21
2195.962168973791
 31
0.0
  0
LINE
  5
C0
330
1F
100
AcDbEntity
  8
0-6_扉
  6
Continuous
 62
   200
370
     5
100
AcDbLine
 10
-986.5578011196894
 20
2195.962168973791
 30
0.0
 11
-1514.795973101191
 21
2195.962168973791
 31
0.0
  0
LINE
  5
C1
330
1F
100
AcDbEntity
  8
0-6_扉
  6
Continuous
 62
   200
370
     5
100
AcDbLine
 10
-1634.795973101191
 20
2375.962168973791
 30
0.0
 11
-2163.034145082693
 21
2375.962168973791
 31
0.0
  0
LINE
  5
C2
330
1F
100
AcDbEntity
  8
0-6_扉
  6
Continuous
 62
   200
370
     5
100
AcDbLine
 10
-1634.795973101191
 20
2195.962168973791
 30
0.0
 11
-2163.034145082693
 21
2195.962168973791
 31
0.0
  0
LINE
  5
C3
330
1F
100
AcDbEntity
  8
0-6_扉
  6
Continuous
 62
   200
370
     5
100
AcDbLine
 10
-1166.557801119689
 20
1967.962168973791
 30
0.0
 11
-1166.557801119689
 21
2147.962168973791
 31
0.0
  0
LINE
  5
C4
330
1F
100
AcDbEntity
  8
0-6_扉
  6
Continuous
 62
   200
370
     5
100
AcDbLine
 10
9.918542843314526
 20
2147.962168973791
 30
0.0
 11
-518.319629138187
 21
2147.962168973791
 31
0.0
  0
LINE
  5
C5
330
1F
100
AcDbEntity
  8
0-6_扉
  6
Continuous
 62
   200
370
     5
100
AcDbLine
 10
9.918542843314526
 20
1967.962168973791
 30
0.0
 11
-518.319629138187
 21
1967.962168973791
 31
0.0
  0
LINE
  5
C6
330
1F
100
AcDbEntity
  8
0-6_扉
  6
Continuous
 62
   200
370
     5
100
AcDbLine
 10
-638.319629138187
 20
2147.962168973791
 30
0.0
 11
-1166.557801119689
 21
2147.962168973791
 31
0.0
  0
LINE
  5
C7
330
1F
100
AcDbEntity
  8
0-6_扉
  6
Continuous
 62
   200
370
     5
100
AcDbLine
 10
-638.319629138187
 20
1967.962168973791
 30
0.0
 11
-1166.557801119689
 21
1967.962168973791
 31
0.0
  0
LINE
  5
C8
330
1F
100
AcDbEntity
  8
0-6_扉
  6
Continuous
 62
   200
370
     5
100
AcDbLine
 10
1006.39488680632
 20
2195.962168973791
 30
0.0
 11
1006.39488680632
 21
2375.962168973791
 31
0.0
  0
LINE
  5
C9
330
1F
100
AcDbEntity
  8
0-6_扉
  6
Continuous
 62
   200
370
     5
100
AcDbLine
 10
2182.871230769324
 20
2375.962168973791
 30
0.0
 11
2182.871230769324
 21
2195.962168973791
 31
0.0
  0
LINE
  5
CA
330
1F
100
AcDbEntity
  8
0-6_扉
  6
Continuous
 62
   200
370
     5
100
AcDbLine
 10
2182.871230769324
 20
2375.962168973791
 30
0.0
 11
1654.633058787822
 21
2375.962168973791
 31
0.0
  0
LINE
  5
CB
330
1F
100
AcDbEntity
  8
0-6_扉
  6
Continuous
 62
   200
370
     5
100
AcDbLine
 10
2182.871230769324
 20
2195.962168973791
 30
0.0
 11
1654.633058787822
 21
2195.962168973791
 31
0.0
  0
LINE
  5
CC
330
1F
100
AcDbEntity
  8
0-6_扉
  6
Continuous
 62
   200
370
     5
100
AcDbLine
 10
1534.633058787822
 20
2375.962168973791
 30
0.0
 11
1006.39488680632
 21
2375.962168973791
 31
0.0
  0
LINE
  5
CD
330
1F
100
AcDbEntity
  8
0-6_扉
  6
Continuous
 62
   200
370
     5
100
AcDbLine
 10
1534.633058787822
 20
2195.962168973791
 30
0.0
 11
1006.39488680632
 21
2195.962168973791
 31
0.0
  0
LINE
  5
CE
330
1F
100
AcDbEntity
  8
0-6_扉
  6
Continuous
 62
    92
370
     5
100
AcDbLine
 10
-1076.557801119689
 20
2525.962119485824
 30
0.0
 11
-1076.557801119689
 21
1805.962119485824
 31
0.0
  0
LINE
  5
CF
330
1F
100
AcDbEntity
  8
0-6_扉
  6
Continuous
 62
    92
370
     5
100
AcDbLine
 10
1096.39488680632
 20
2525.962119485824
 30
0.0
 11
1096.39488680632
 21
1805.962119485824
 31
0.0
  0
ARC
  5
D0
330
1F
100
AcDbEntity
  8
0-7_金物
  6
Continuous
 62
     7
370
     5
100
AcDbCircle
 10
-2345.741488840231
 20
2285.962169007285
 30
0.0
 40
188.167407989502
100
AcDbArc
 50
346.1637114550782
 51
13.83631887695315
  0
LINE
  5
D1
330
1F
100
AcDbEntity
  8
0-7_金物
  6
Continuous
 62
     7
370
     5
100
AcDbLine
 10
-2181.034145063247
 20
2300.962168750359
 30
0.0
 11
-2211.034144527482
 21
2300.962168988102
 31
0.0
  0
LINE
  5
D2
330
1F
100
AcDbEntity
  8
0-7_金物
  6
Continuous
 62
     7
370
     5
100
AcDbLine
 10
-2211.034144765569
 20
2270.962169409313
 30
0.0
 11
-2211.034144527482
 21
2300.962168988102
 31
0.0
  0
LINE
  5
D3
330
1F
100
AcDbEntity
  8
0-7_金物
  6
Continuous
 62
     7
370
     5
100
AcDbLine
 10
-2181.034145072227
 20
2270.962169170885
 30
0.0
 11
-2211.034144765569
 21
2270.962169409313
 31
0.0
  0
LINE
  5
D4
330
1F
100
AcDbEntity
  8
0-7_金物
  6
Continuous
 62
     7
370
     5
100
AcDbLine
 10
-2163.034144391988
 20
2330.962167898141
 30
0.0
 11
-2181.034145052783
 21
2330.962169760345
 31
0.0
  0
LINE
  5
D5
330
1F
100
AcDbEntity
  8
0-7_金物
  6
Continuous
 62
     7
370
     5
100
AcDbLine
 10
-2181.034145082692
 20
2240.9621681609
 30
0.0
 11
-2181.034145052783
 21
2330.962169760345
 31
0.0
  0
LINE
  5
D6
330
1F
100
AcDbEntity
  8
0-7_金物
  6
Continuous
 62
     7
370
     5
100
AcDbLine
 10
-2163.034145106245
 20
2240.962169161777
 30
0.0
 11
-2181.034145082692
 21
2240.9621681609
 31
0.0
  0
ARC
  5
D7
330
1F
100
AcDbEntity
  8
0-7_金物
  6
Continuous
 62
     7
370
     5
100
AcDbCircle
 10
2365.578574526861
 20
2285.962169007285
 30
0.0
 40
188.167407989502
100
AcDbArc
 50
166.1636811230469
 51
193.8362885449218
  0
LINE
  5
D8
330
1F
100
AcDbEntity
  8
0-7_金物
  6
Continuous
 62
     7
370
     5
100
AcDbLine
 10
2200.871230749877
 20
2300.962168750359
 30
0.0
 11
2230.871230214113
 21
2300.962168988102
 31
0.0
  0
LINE
  5
D9
330
1F
100
AcDbEntity
  8
0-7_金物
  6
Continuous
 62
     7
370
     5
100
AcDbLine
 10
2230.871230452199
 20
2270.962169409313
 30
0.0
 11
2230.871230214113
 21
2300.962168988102
 31
0.0
  0
LINE
  5
DA
330
1F
100
AcDbEntity
  8
0-7_金物
  6
Continuous
 62
     7
370
     5
100
AcDbLine
 10
2200.871230758859
 20
2270.962169170885
 30
0.0
 11
2230.871230452199
 21
2270.962169409313
 31
0.0
  0
LINE
  5
DB
330
1F
100
AcDbEntity
  8
0-7_金物
  6
Continuous
 62
     7
370
     5
100
AcDbLine
 10
2182.871230078619
 20
2330.962167898141
 30
0.0
 11
2200.871230739413
 21
2330.962169760345
 31
0.0
  0
LINE
  5
DC
330
1F
100
AcDbEntity
  8
0-7_金物
  6
Continuous
 62
     7
370
     5
100
AcDbLine
 10
2200.871230769323
 20
2240.9621681609
 30
0.0
 11
2200.871230739413
 21
2330.962169760345
 31
0.0
  0
LINE
  5
DD
330
1F
100
AcDbEntity
  8
0-7_金物
  6
Continuous
 62
     7
370
     5
100
AcDbLine
 10
2182.871230792877
 20
2240.962169161777
 30
0.0
 11
2200.871230769323
 21
2240.9621681609
 31
0.0
  0
LINE
  5
DE
330
1F
100
AcDbEntity
  8
0-1_通り芯
  6
JWW_CENTER1
 62
   120
370
     5
100
AcDbLine
 10
-3525.033996618797
 20
2171.962168973789
 30
0.0
 11
3544.87108230543
 21
2171.962168973789
 31
0.0
  0
LINE
  5
DF
330
1F
100
AcDbEntity
  8
0-2_柱
  6
Continuous
 62
     7
370
     5
100
AcDbLine
 10
-2505.033996618797
 20
2486.962168973782
 30
0.0
 11
-3135.0339966188
 21
1856.962168973796
 31
0.0
  0
LINE
  5
E0
330
1F
100
AcDbEntity
  8
0-2_柱
  6
Continuous
 62
     7
370
     5
100
AcDbLine
 10
-3135.0339966188
 20
2486.962168973799
 30
0.0
 11
-2505.033996618797
 21
1856.962168973776
 31
0.0
  0
LINE
  5
E1
330
1F
100
AcDbEntity
  8
0-2_柱
  6
Continuous
 62
    92
370
     5
100
AcDbLine
 10
-3135.0339966188
 20
2486.962168973789
 30
0.0
 11
-3135.0339966188
 21
1856.962168973789
 31
0.0
  0
LINE
  5
E2
330
1F
100
AcDbEntity
  8
0-2_柱
  6
Continuous
 62
    92
370
     5
100
AcDbLine
 10
-2505.033996618797
 20
1856.962168973776
 30
0.0
 11
-2505.033996618797
 21
2486.962168973782
 31
0.0
  0
LINE
  5
E3
330
1F
100
AcDbEntity
  8
0-2_柱
  6
Continuous
 62
     7
370
     5
100
AcDbLine
 10
-2505.033996618797
 20
1856.962168973776
 30
0.0
 11
-2325.033996618797
 21
2486.962168973789
 31
0.0
  0
LINE
  5
E4
330
1F
100
AcDbEntity
  8
0-2_柱
  6
Continuous
 62
    92
370
     5
100
AcDbLine
 10
-2325.033996618797
 20
1856.962020509895
 30
0.0
 11
-2325.033996618797
 21
2486.962317437681
 31
0.0
  0
LINE
  5
E5
330
1F
100
AcDbEntity
  8
ハッチ
  6
JWW_DASHED1
 62
   120
370
     5
100
AcDbLine
 10
-3525.033996618797
 20
1809.759876631349
 30
0.0
 11
-3477.831704276361
 21
1856.962168973785
 31
0.0
  0
LINE
  5
E6
330
1F
100
AcDbEntity
  8
ハッチ
  6
JWW_DASHED1
 62
   120
370
     5
100
AcDbLine
 10
-3525.033996618797
 20
1852.186283502549
 30
0.0
 11
-3520.258111147574
 21
1856.962168973772
 31
0.0
  0
LINE
  5
E7
330
1F
100
AcDbEntity
  8
ハッチ
  6
JWW_DASHED1
 62
   120
370
     5
100
AcDbLine
 10
-3510.405297405174
 20
1781.962168973772
 30
0.0
 11
-3435.405297405166
 21
1856.962168973781
 31
0.0
  0
LINE
  5
E8
330
1F
100
AcDbEntity
  8
ハッチ
  6
JWW_DASHED1
 62
   120
370
     5
100
AcDbLine
 10
-3467.978890533961
 20
1781.962168973786
 30
0.0
 11
-3392.978890533961
 21
1856.962168973785
 31
0.0
  0
LINE
  5
E9
330
1F
100
AcDbEntity
  8
ハッチ
  6
JWW_DASHED1
 62
   120
370
     5
100
AcDbLine
 10
-3425.552483662766
 20
1781.962168973782
 30
0.0
 11
-3350.552483662766
 21
1856.962168973782
 31
0.0
  0
LINE
  5
EA
330
1F
100
AcDbEntity
  8
ハッチ
  6
JWW_DASHED1
 62
   120
370
     5
100
AcDbLine
 10
-3383.126076791567
 20
1781.96216897378
 30
0.0
 11
-3308.126076791566
 21
1856.96216897378
 31
0.0
  0
LINE
  5
EB
330
1F
100
AcDbEntity
  8
ハッチ
  6
JWW_DASHED1
 62
   120
370
     5
100
AcDbLine
 10
-3340.699669920423
 20
1781.962168973779
 30
0.0
 11
-3265.699669920423
 21
1856.962168973778
 31
0.0
  0
LINE
  5
EC
330
1F
100
AcDbEntity
  8
ハッチ
  6
JWW_DASHED1
 62
   120
370
     5
100
AcDbLine
 10
-3255.846856178015
 20
1781.962168973785
 30
0.0
 11
-3180.846856178015
 21
1856.962168973786
 31
0.0
  0
LINE
  5
ED
330
1F
100
AcDbEntity
  8
ハッチ
  6
JWW_DASHED1
 62
   120
370
     5
100
AcDbLine
 10
-3298.273263049225
 20
1781.962168973774
 30
0.0
 11
-3223.273263049227
 21
1856.962168973773
 31
0.0
  0
LINE
  5
EE
330
1F
100
AcDbEntity
  8
ハッチ
  6
JWW_DASHED1
 62
   120
370
     5
100
AcDbLine
 10
-3213.420449306878
 20
1781.962168973776
 30
0.0
 11
-3138.42044930682
 21
1856.962168973782
 31
0.0
  0
LINE
  5
EF
330
1F
100
AcDbEntity
  8
ハッチ
  6
JWW_DASHED1
 62
   120
370
     5
100
AcDbLine
 10
-3170.99404243568
 20
1781.962168973776
 30
0.0
 11
-3095.99404243561
 21
1856.962168973782
 31
0.0
  0
LINE
  5
F0
330
1F
100
AcDbEntity
  8
ハッチ
  6
JWW_DASHED1
 62
   120
370
     5
100
AcDbLine
 10
-3128.56763556448
 20
1781.962168973772
 30
0.0
 11
-3053.567635564475
 21
1856.962168973781
 31
0.0
  0
LINE
  5
F1
330
1F
100
AcDbEntity
  8
ハッチ
  6
JWW_DASHED1
 62
   120
370
     5
100
AcDbLine
 10
-3086.141228693268
 20
1781.962168973786
 30
0.0
 11
-3011.141228693269
 21
1856.962168973785
 31
0.0
  0
LINE
  5
F2
330
1F
100
AcDbEntity
  8
ハッチ
  6
JWW_DASHED1
 62
   120
370
     5
100
AcDbLine
 10
-3043.714821822069
 20
1781.962168973782
 30
0.0
 11
-2968.714821822075
 21
1856.962168973782
 31
0.0
  0
LINE
  5
F3
330
1F
100
AcDbEntity
  8
ハッチ
  6
JWW_DASHED1
 62
   120
370
     5
100
AcDbLine
 10
-3001.288414950875
 20
1781.96216897378
 30
0.0
 11
-2926.288414950875
 21
1856.96216897378
 31
0.0
  0
LINE
  5
F4
330
1F
100
AcDbEntity
  8
ハッチ
  6
JWW_DASHED1
 62
   120
370
     5
100
AcDbLine
 10
-2958.862008079729
 20
1781.962168973779
 30
0.0
 11
-2883.862008079732
 21
1856.962168973778
 31
0.0
  0
LINE
  5
F5
330
1F
100
AcDbEntity
  8
ハッチ
  6
JWW_DASHED1
 62
   120
370
     5
100
AcDbLine
 10
-2916.435601208534
 20
1781.962168973774
 30
0.0
 11
-2841.435601208534
 21
1856.962168973773
 31
0.0
  0
LINE
  5
F6
330
1F
100
AcDbEntity
  8
ハッチ
  6
JWW_DASHED1
 62
   120
370
     5
100
AcDbLine
 10
-2874.009194337324
 20
1781.962168973785
 30
0.0
 11
-2799.00919433732
 21
1856.962168973786
 31
0.0
  0
LINE
  5
F7
330
1F
100
AcDbEntity
  8
ハッチ
  6
JWW_DASHED1
 62
   120
370
     5
100
AcDbLine
 10
-2831.582787466137
 20
1781.962168973758
 30
0.0
 11
-2756.582787466129
 21
1856.962168973782
 31
0.0
  0
LINE
  5
F8
330
1F
100
AcDbEntity
  8
仕上げ
  6
Continuous
 62
    40
370
     5
100
AcDbLine
 10
-3525.033996618797
 20
1781.962168973776
 30
0.0
 11
-2325.033996618797
 21
1781.962168973776
 31
0.0
  0
LINE
  5
F9
330
1F
100
AcDbEntity
  8
仕上げ
  6
Continuous
 62
    40
370
     5
100
AcDbLine
 10
-3525.033996618797
 20
1856.962168973776
 30
0.0
 11
-2325.033996618797
 21
1856.962168973776
 31
0.0
  0
LINE
  5
FA
330
1F
100
AcDbEntity
  8
ハッチ
  6
JWW_DASHED1
 62
   120
370
     5
100
AcDbLine
 10
-2789.156380594929
 20
1781.96216897377
 30
0.0
 11
-2714.156380594915
 21
1856.962168973782
 31
0.0
  0
LINE
  5
FB
330
1F
100
AcDbEntity
  8
ハッチ
  6
JWW_DASHED1
 62
   120
370
     5
100
AcDbLine
 10
-2746.729973723775
 20
1781.962168973779
 30
0.0
 11
-2671.729973723778
 21
1856.962168973774
 31
0.0
  0
LINE
  5
FC
330
1F
100
AcDbEntity
  8
ハッチ
  6
JWW_DASHED1
 62
   120
370
     5
100
AcDbLine
 10
-2704.303566852575
 20
1781.962168973776
 30
0.0
 11
-2629.303566852584
 21
1856.96216897377
 31
0.0
  0
LINE
  5
FD
330
1F
100
AcDbEntity
  8
ハッチ
  6
JWW_DASHED1
 62
   120
370
     5
100
AcDbLine
 10
-2661.877159981384
 20
1781.962168973772
 30
0.0
 11
-2586.877159981387
 21
1856.962168973766
 31
0.0
  0
LINE
  5
FE
330
1F
100
AcDbEntity
  8
ハッチ
  6
JWW_DASHED1
 62
   120
370
     5
100
AcDbLine
 10
-2619.450753110184
 20
1781.962168973767
 30
0.0
 11
-2544.450753110189
 21
1856.962168973763
 31
0.0
  0
LINE
  5
FF
330
1F
100
AcDbEntity
  8
ハッチ
  6
JWW_DASHED1
 62
   120
370
     5
100
AcDbLine
 10
-2577.024346238989
 20
1781.962168973764
 30
0.0
 11
-2502.024346238992
 21
1856.962168973759
 31
0.0
  0
LINE
  5
100
330
1F
100
AcDbEntity
  8
ハッチ
  6
JWW_DASHED1
 62
   120
370
     5
100
AcDbLine
 10
-2534.597939367792
 20
1781.962168973759
 30
0.0
 11
-2459.597939367797
 21
1856.962168973755
 31
0.0
  0
LINE
  5
101
330
1F
100
AcDbEntity
  8
ハッチ
  6
JWW_DASHED1
 62
   120
370
     5
100
AcDbLine
 10
-2492.171532496578
 20
1781.962168973772
 30
0.0
 11
-2417.17153249657
 21
1856.962168973783
 31
0.0
  0
LINE
  5
102
330
1F
100
AcDbEntity
  8
ハッチ
  6
JWW_DASHED1
 62
   120
370
     5
100
AcDbLine
 10
-2449.745125625428
 20
1781.96216897378
 30
0.0
 11
-2374.745125625429
 21
1856.962168973776
 31
0.0
  0
LINE
  5
103
330
1F
100
AcDbEntity
  8
ハッチ
  6
JWW_DASHED1
 62
   120
370
     5
100
AcDbLine
 10
-2407.318718754229
 20
1781.962168973776
 30
0.0
 11
-2332.318718754233
 21
1856.962168973772
 31
0.0
  0
LINE
  5
104
330
1F
100
AcDbEntity
  8
ハッチ
  6
JWW_DASHED1
 62
   120
370
     5
100
AcDbLine
 10
-2364.892311883033
 20
1781.962168973773
 30
0.0
 11
-2325.033996618792
 21
1821.820484238015
 31
0.0
  0
LINE
  5
105
330
1F
100
AcDbEntity
  8
ハッチ
  6
JWW_DASHED1
 62
   120
370
     5
100
AcDbLine
 10
-3525.033996618797
 20
2531.008793441671
 30
0.0
 11
-3494.080621086687
 21
2561.962168973781
 31
0.0
  0
LINE
  5
106
330
1F
100
AcDbEntity
  8
ハッチ
  6
JWW_DASHED1
 62
   120
370
     5
100
AcDbLine
 10
-3229.669366117143
 20
2486.962168973781
 30
0.0
 11
-3154.669366117143
 21
2561.962168973781
 31
0.0
  0
LINE
  5
107
330
1F
100
AcDbEntity
  8
ハッチ
  6
JWW_DASHED1
 62
   120
370
     5
100
AcDbLine
 10
-3526.654214215489
 20
2486.962168973781
 30
0.0
 11
-3451.654214215489
 21
2561.962168973778
 31
0.0
  0
LINE
  5
108
330
1F
100
AcDbEntity
  8
ハッチ
  6
JWW_DASHED1
 62
   120
370
     5
100
AcDbLine
 10
-3484.227807344293
 20
2486.962168973776
 30
0.0
 11
-3409.227807344279
 21
2561.96216897379
 31
0.0
  0
LINE
  5
109
330
1F
100
AcDbEntity
  8
ハッチ
  6
JWW_DASHED1
 62
   120
370
     5
100
AcDbLine
 10
-3441.801400473089
 20
2486.962168973778
 30
0.0
 11
-3366.801400473084
 21
2561.962168973787
 31
0.0
  0
LINE
  5
10A
330
1F
100
AcDbEntity
  8
ハッチ
  6
JWW_DASHED1
 62
   120
370
     5
100
AcDbLine
 10
-3399.374993601875
 20
2486.962168973792
 30
0.0
 11
-3324.374993601887
 21
2561.962168973783
 31
0.0
  0
LINE
  5
10B
330
1F
100
AcDbEntity
  8
ハッチ
  6
JWW_DASHED1
 62
   120
370
     5
100
AcDbLine
 10
-3356.948586730678
 20
2486.962168973789
 30
0.0
 11
-3281.948586730678
 21
2561.962168973789
 31
0.0
  0
LINE
  5
10C
330
1F
100
AcDbEntity
  8
ハッチ
  6
JWW_DASHED1
 62
   120
370
     5
100
AcDbLine
 10
-3314.522179859484
 20
2486.962168973787
 30
0.0
 11
-3239.522179859484
 21
2561.962168973787
 31
0.0
  0
LINE
  5
10D
330
1F
100
AcDbEntity
  8
ハッチ
  6
JWW_DASHED1
 62
   120
370
     5
100
AcDbLine
 10
-3272.095772988338
 20
2486.962168973785
 30
0.0
 11
-3197.095772988338
 21
2561.962168973785
 31
0.0
  0
LINE
  5
10E
330
1F
100
AcDbEntity
  8
ハッチ
  6
JWW_DASHED1
 62
   120
370
     5
100
AcDbLine
 10
-3187.242959245945
 20
2486.962168973776
 30
0.0
 11
-3112.24295924593
 21
2561.962168973792
 31
0.0
  0
LINE
  5
10F
330
1F
100
AcDbEntity
  8
ハッチ
  6
JWW_DASHED1
 62
   120
370
     5
100
AcDbLine
 10
-3144.816552374742
 20
2486.962168973781
 30
0.0
 11
-3069.816552374743
 21
2561.962168973778
 31
0.0
  0
LINE
  5
110
330
1F
100
AcDbEntity
  8
ハッチ
  6
JWW_DASHED1
 62
   120
370
     5
100
AcDbLine
 10
-3102.390145503545
 20
2486.962168973776
 30
0.0
 11
-3027.390145503532
 21
2561.96216897379
 31
0.0
  0
LINE
  5
111
330
1F
100
AcDbEntity
  8
ハッチ
  6
JWW_DASHED1
 62
   120
370
     5
100
AcDbLine
 10
-3059.963738632343
 20
2486.962168973778
 30
0.0
 11
-2984.963738632338
 21
2561.962168973787
 31
0.0
  0
LINE
  5
112
330
1F
100
AcDbEntity
  8
ハッチ
  6
JWW_DASHED1
 62
   120
370
     5
100
AcDbLine
 10
-3017.53733176113
 20
2486.962168973792
 30
0.0
 11
-2942.537331761138
 21
2561.962168973783
 31
0.0
  0
LINE
  5
113
330
1F
100
AcDbEntity
  8
ハッチ
  6
JWW_DASHED1
 62
   120
370
     5
100
AcDbLine
 10
-2975.110924889933
 20
2486.962168973789
 30
0.0
 11
-2900.110924889933
 21
2561.962168973789
 31
0.0
  0
LINE
  5
114
330
1F
100
AcDbEntity
  8
ハッチ
  6
JWW_DASHED1
 62
   120
370
     5
100
AcDbLine
 10
-2932.684518018738
 20
2486.962168973787
 30
0.0
 11
-2857.684518018738
 21
2561.962168973787
 31
0.0
  0
LINE
  5
115
330
1F
100
AcDbEntity
  8
ハッチ
  6
JWW_DASHED1
 62
   120
370
     5
100
AcDbLine
 10
-2890.258111147593
 20
2486.962168973785
 30
0.0
 11
-2815.258111147593
 21
2561.962168973785
 31
0.0
  0
LINE
  5
116
330
1F
100
AcDbEntity
  8
ハッチ
  6
JWW_DASHED1
 62
   120
370
     5
100
AcDbLine
 10
-2847.831704276396
 20
2486.962168973781
 30
0.0
 11
-2772.831704276396
 21
2561.962168973781
 31
0.0
  0
LINE
  5
117
330
1F
100
AcDbEntity
  8
ハッチ
  6
JWW_DASHED1
 62
   120
370
     5
100
AcDbLine
 10
-2805.4052974052
 20
2486.962168973776
 30
0.0
 11
-2730.405297405184
 21
2561.962168973792
 31
0.0
  0
LINE
  5
118
330
1F
100
AcDbEntity
  8
仕上げ
  6
Continuous
 62
    40
370
     5
100
AcDbLine
 10
-3525.033996618797
 20
2561.962168973782
 30
0.0
 11
-2325.033996618797
 21
2561.962168973782
 31
0.0
  0
LINE
  5
119
330
1F
100
AcDbEntity
  8
仕上げ
  6
Continuous
 62
    40
370
     5
100
AcDbLine
 10
-3525.033996618797
 20
2486.962168973782
 30
0.0
 11
-2325.033996618797
 21
2486.962168973782
 31
0.0
  0
LINE
  5
11A
330
1F
100
AcDbEntity
  8
ハッチ
  6
JWW_DASHED1
 62
   120
370
     5
100
AcDbLine
 10
-2762.97889053402
 20
2486.962168973776
 30
0.0
 11
-2687.978890534006
 21
2561.962168973787
 31
0.0
  0
LINE
  5
11B
330
1F
100
AcDbEntity
  8
ハッチ
  6
JWW_DASHED1
 62
   120
370
     5
100
AcDbLine
 10
-2720.552483662864
 20
2486.962168973785
 30
0.0
 11
-2645.552483662866
 21
2561.962168973781
 31
0.0
  0
LINE
  5
11C
330
1F
100
AcDbEntity
  8
ハッチ
  6
JWW_DASHED1
 62
   120
370
     5
100
AcDbLine
 10
-2678.126076791666
 20
2486.962168973781
 30
0.0
 11
-2603.126076791675
 21
2561.962168973776
 31
0.0
  0
LINE
  5
11D
330
1F
100
AcDbEntity
  8
ハッチ
  6
JWW_DASHED1
 62
   120
370
     5
100
AcDbLine
 10
-2635.699669920469
 20
2486.962168973778
 30
0.0
 11
-2560.699669920475
 21
2561.962168973772
 31
0.0
  0
LINE
  5
11E
330
1F
100
AcDbEntity
  8
ハッチ
  6
JWW_DASHED1
 62
   120
370
     5
100
AcDbLine
 10
-2593.273263049275
 20
2486.962168973774
 30
0.0
 11
-2518.27326304928
 21
2561.96216897377
 31
0.0
  0
LINE
  5
11F
330
1F
100
AcDbEntity
  8
ハッチ
  6
JWW_DASHED1
 62
   120
370
     5
100
AcDbLine
 10
-2550.84685617808
 20
2486.96216897377
 30
0.0
 11
-2475.846856178083
 21
2561.962168973765
 31
0.0
  0
LINE
  5
120
330
1F
100
AcDbEntity
  8
ハッチ
  6
JWW_DASHED1
 62
   120
370
     5
100
AcDbLine
 10
-2508.42044930688
 20
2486.962168973767
 30
0.0
 11
-2433.420449306888
 21
2561.962168973762
 31
0.0
  0
LINE
  5
121
330
1F
100
AcDbEntity
  8
ハッチ
  6
JWW_DASHED1
 62
   120
370
     5
100
AcDbLine
 10
-2465.994042435683
 20
2486.962168973762
 30
0.0
 11
-2390.994042435675
 21
2561.962168973774
 31
0.0
  0
LINE
  5
122
330
1F
100
AcDbEntity
  8
ハッチ
  6
JWW_DASHED1
 62
   120
370
     5
100
AcDbLine
 10
-2423.567635564475
 20
2486.962168973776
 30
0.0
 11
-2348.567635564464
 21
2561.962168973786
 31
0.0
  0
LINE
  5
123
330
1F
100
AcDbEntity
  8
ハッチ
  6
JWW_DASHED1
 62
   120
370
     5
100
AcDbLine
 10
-2381.14122869332
 20
2486.962168973783
 30
0.0
 11
-2325.033996618795
 21
2543.069401048307
 31
0.0
  0
LINE
  5
124
330
1F
100
AcDbEntity
  8
ハッチ
  6
JWW_DASHED1
 62
   120
370
     5
100
AcDbLine
 10
-2338.714821822124
 20
2486.962168973779
 30
0.0
 11
-2325.033996618795
 21
2500.642994177108
 31
0.0
  0
LINE
  5
125
330
1F
100
AcDbEntity
  8
ハッチ
  6
JWW_DASHED1
 62
   120
370
     5
100
AcDbLine
 10
3424.517383973444
 20
1775.962119485825
 30
0.0
 11
3499.517383973438
 21
1850.962119485821
 31
0.0
  0
LINE
  5
126
330
1F
100
AcDbEntity
  8
ハッチ
  6
JWW_DASHED1
 62
   120
370
     5
100
AcDbLine
 10
3382.090977102247
 20
1775.962119485829
 30
0.0
 11
3457.090977102241
 21
1850.962119485825
 31
0.0
  0
LINE
  5
127
330
1F
100
AcDbEntity
  8
ハッチ
  6
JWW_DASHED1
 62
   120
370
     5
100
AcDbLine
 10
3339.664570231051
 20
1775.962119485832
 30
0.0
 11
3414.664570231047
 21
1850.962119485829
 31
0.0
  0
LINE
  5
128
330
1F
100
AcDbEntity
  8
ハッチ
  6
JWW_DASHED1
 62
   120
370
     5
100
AcDbLine
 10
3297.238163359838
 20
1775.962119485821
 30
0.0
 11
3372.238163359834
 21
1850.962119485816
 31
0.0
  0
LINE
  5
129
330
1F
100
AcDbEntity
  8
ハッチ
  6
JWW_DASHED1
 62
   120
370
     5
100
AcDbLine
 10
3254.811756488642
 20
1775.962119485824
 30
0.0
 11
3329.811756488638
 21
1850.96211948582
 31
0.0
  0
LINE
  5
12A
330
1F
100
AcDbEntity
  8
ハッチ
  6
JWW_DASHED1
 62
   120
370
     5
100
AcDbLine
 10
3212.385349617447
 20
1775.962119485828
 30
0.0
 11
3287.385349617441
 21
1850.962119485823
 31
0.0
  0
LINE
  5
12B
330
1F
100
AcDbEntity
  8
ハッチ
  6
JWW_DASHED1
 62
   120
370
     5
100
AcDbLine
 10
3169.958942746293
 20
1775.962119485821
 30
0.0
 11
3244.958942746305
 21
1850.962119485832
 31
0.0
  0
LINE
  5
12C
330
1F
100
AcDbEntity
  8
ハッチ
  6
JWW_DASHED1
 62
   120
370
     5
100
AcDbLine
 10
3127.532535875096
 20
1775.962119485824
 30
0.0
 11
3202.532535875092
 21
1850.962119485819
 31
0.0
  0
LINE
  5
12D
330
1F
100
AcDbEntity
  8
ハッチ
  6
JWW_DASHED1
 62
   120
370
     5
100
AcDbLine
 10
3085.1061290039
 20
1775.962119485828
 30
0.0
 11
3160.106129003896
 21
1850.962119485823
 31
0.0
  0
LINE
  5
12E
330
1F
100
AcDbEntity
  8
ハッチ
  6
JWW_DASHED1
 62
   120
370
     5
100
AcDbLine
 10
3042.679722132705
 20
1775.96211948583
 30
0.0
 11
3117.679722132699
 21
1850.962119485826
 31
0.0
  0
LINE
  5
12F
330
1F
100
AcDbEntity
  8
ハッチ
  6
JWW_DASHED1
 62
   120
370
     5
100
AcDbLine
 10
3000.253315261508
 20
1775.962119485835
 30
0.0
 11
3075.253315261502
 21
1850.96211948583
 31
0.0
  0
LINE
  5
130
330
1F
100
AcDbEntity
  8
ハッチ
  6
JWW_DASHED1
 62
   120
370
     5
100
AcDbLine
 10
2957.826908390296
 20
1775.962119485823
 30
0.0
 11
3032.826908390289
 21
1850.962119485817
 31
0.0
  0
LINE
  5
131
330
1F
100
AcDbEntity
  8
ハッチ
  6
JWW_DASHED1
 62
   120
370
     5
100
AcDbLine
 10
2915.400501519099
 20
1775.962119485826
 30
0.0
 11
2990.400501519094
 21
1850.962119485822
 31
0.0
  0
LINE
  5
132
330
1F
100
AcDbEntity
  8
ハッチ
  6
JWW_DASHED1
 62
   120
370
     5
100
AcDbLine
 10
2872.974094647946
 20
1775.962119485819
 30
0.0
 11
2947.974094647957
 21
1850.96211948583
 31
0.0
  0
LINE
  5
133
330
1F
100
AcDbEntity
  8
ハッチ
  6
JWW_DASHED1
 62
   120
370
     5
100
AcDbLine
 10
2830.547687776749
 20
1775.962119485822
 30
0.0
 11
2905.547687776761
 21
1850.962119485833
 31
0.0
  0
LINE
  5
134
330
1F
100
AcDbEntity
  8
ハッチ
  6
JWW_DASHED1
 62
   120
370
     5
100
AcDbLine
 10
2788.121280905553
 20
1775.962119485825
 30
0.0
 11
2863.121280905549
 21
1850.962119485822
 31
0.0
  0
LINE
  5
135
330
1F
100
AcDbEntity
  8
ハッチ
  6
JWW_DASHED1
 62
   120
370
     5
100
AcDbLine
 10
2745.694874034356
 20
1775.962119485829
 30
0.0
 11
2820.694874034352
 21
1850.962119485825
 31
0.0
  0
LINE
  5
136
330
1F
100
AcDbEntity
  8
ハッチ
  6
JWW_DASHED1
 62
   120
370
     5
100
AcDbLine
 10
3450.694874034354
 20
2480.962119485826
 30
0.0
 11
3525.694874034347
 21
2555.962119485821
 31
0.0
  0
LINE
  5
137
330
1F
100
AcDbEntity
  8
ハッチ
  6
JWW_DASHED1
 62
   120
370
     5
100
AcDbLine
 10
2703.26846716316
 20
1775.962119485832
 30
0.0
 11
2778.268467163155
 21
1850.962119485829
 31
0.0
  0
LINE
  5
138
330
1F
100
AcDbEntity
  8
ハッチ
  6
JWW_DASHED1
 62
   120
370
     5
100
AcDbLine
 10
3408.268467163157
 20
2480.96211948583
 30
0.0
 11
3483.268467163153
 21
2555.962119485826
 31
0.0
  0
LINE
  5
139
330
1F
100
AcDbEntity
  8
ハッチ
  6
JWW_DASHED1
 62
   120
370
     5
100
AcDbLine
 10
2660.842060291947
 20
1775.962119485821
 30
0.0
 11
2735.842060291944
 21
1850.962119485817
 31
0.0
  0
LINE
  5
13A
330
1F
100
AcDbEntity
  8
ハッチ
  6
JWW_DASHED1
 62
   120
370
     5
100
AcDbLine
 10
3365.842060291945
 20
2480.962119485819
 30
0.0
 11
3440.84206029194
 21
2555.962119485815
 31
0.0
  0
LINE
  5
13B
330
1F
100
AcDbEntity
  8
ハッチ
  6
JWW_DASHED1
 62
   120
370
     5
100
AcDbLine
 10
2618.41565342075
 20
1775.962119485824
 30
0.0
 11
2693.415653420747
 21
1850.962119485821
 31
0.0
  0
LINE
  5
13C
330
1F
100
AcDbEntity
  8
ハッチ
  6
JWW_DASHED1
 62
   120
370
     5
100
AcDbLine
 10
3323.415653420749
 20
2480.962119485821
 30
0.0
 11
3398.415653420743
 21
2555.962119485817
 31
0.0
  0
LINE
  5
13D
330
1F
100
AcDbEntity
  8
ハッチ
  6
JWW_DASHED1
 62
   120
370
     5
100
AcDbLine
 10
2575.989246549554
 20
1775.962119485828
 30
0.0
 11
2650.98924654955
 21
1850.962119485824
 31
0.0
  0
LINE
  5
13E
330
1F
100
AcDbEntity
  8
ハッチ
  6
JWW_DASHED1
 62
   120
370
     5
100
AcDbLine
 10
3280.989246549552
 20
2480.962119485826
 30
0.0
 11
3355.989246549547
 21
2555.962119485821
 31
0.0
  0
LINE
  5
13F
330
1F
100
AcDbEntity
  8
ハッチ
  6
JWW_DASHED1
 62
   120
370
     5
100
AcDbLine
 10
2533.562839678402
 20
1775.962119485821
 30
0.0
 11
2608.562839678412
 21
1850.96211948583
 31
0.0
  0
LINE
  5
140
330
1F
100
AcDbEntity
  8
ハッチ
  6
JWW_DASHED1
 62
   120
370
     5
100
AcDbLine
 10
3238.562839678398
 20
2480.962119485817
 30
0.0
 11
3313.56283967841
 21
2555.962119485829
 31
0.0
  0
LINE
  5
141
330
1F
100
AcDbEntity
  8
ハッチ
  6
JWW_DASHED1
 62
   120
370
     5
100
AcDbLine
 10
2491.136432807205
 20
1775.962119485824
 30
0.0
 11
2566.1364328072
 21
1850.962119485819
 31
0.0
  0
LINE
  5
142
330
1F
100
AcDbEntity
  8
ハッチ
  6
JWW_DASHED1
 62
   120
370
     5
100
AcDbLine
 10
3196.136432807202
 20
2480.962119485821
 30
0.0
 11
3271.136432807214
 21
2555.962119485832
 31
0.0
  0
LINE
  5
143
330
1F
100
AcDbEntity
  8
ハッチ
  6
JWW_DASHED1
 62
   120
370
     5
100
AcDbLine
 10
2448.71002593601
 20
1775.962119485828
 30
0.0
 11
2523.710025936004
 21
1850.962119485822
 31
0.0
  0
LINE
  5
144
330
1F
100
AcDbEntity
  8
ハッチ
  6
JWW_DASHED1
 62
   120
370
     5
100
AcDbLine
 10
3153.710025936007
 20
2480.962119485825
 30
0.0
 11
3228.710025936001
 21
2555.962119485821
 31
0.0
  0
LINE
  5
145
330
1F
100
AcDbEntity
  8
ハッチ
  6
JWW_DASHED1
 62
   120
370
     5
100
AcDbLine
 10
2406.283619064813
 20
1775.96211948583
 30
0.0
 11
2481.283619064809
 21
1850.962119485826
 31
0.0
  0
LINE
  5
146
330
1F
100
AcDbEntity
  8
ハッチ
  6
JWW_DASHED1
 62
   120
370
     5
100
AcDbLine
 10
3111.28361906481
 20
2480.962119485828
 30
0.0
 11
3186.283619064804
 21
2555.962119485824
 31
0.0
  0
LINE
  5
147
330
1F
100
AcDbEntity
  8
ハッチ
  6
JWW_DASHED1
 62
   120
370
     5
100
AcDbLine
 10
2363.857212193616
 20
1775.962119485835
 30
0.0
 11
2438.857212193612
 21
1850.96211948583
 31
0.0
  0
LINE
  5
148
330
1F
100
AcDbEntity
  8
ハッチ
  6
JWW_DASHED1
 62
   120
370
     5
100
AcDbLine
 10
3068.857212193614
 20
2480.962119485832
 30
0.0
 11
3143.857212193609
 21
2555.962119485828
 31
0.0
  0
LINE
  5
149
330
1F
100
AcDbEntity
  8
ハッチ
  6
JWW_DASHED1
 62
   120
370
     5
100
AcDbLine
 10
2344.871082305431
 20
1799.402396468849
 30
0.0
 11
2396.430805322399
 21
1850.962119485819
 31
0.0
  0
LINE
  5
14A
330
1F
100
AcDbEntity
  8
ハッチ
  6
JWW_DASHED1
 62
   120
370
     5
100
AcDbLine
 10
3026.430805322401
 20
2480.962119485821
 30
0.0
 11
3101.430805322397
 21
2555.962119485815
 31
0.0
  0
LINE
  5
14B
330
1F
100
AcDbEntity
  8
ハッチ
  6
JWW_DASHED1
 62
   120
370
     5
100
AcDbLine
 10
2344.87108230543
 20
1841.828803340048
 30
0.0
 11
2354.004398451203
 21
1850.962119485822
 31
0.0
  0
LINE
  5
14C
330
1F
100
AcDbEntity
  8
ハッチ
  6
JWW_DASHED1
 62
   120
370
     5
100
AcDbLine
 10
2984.004398451204
 20
2480.962119485824
 30
0.0
 11
3059.0043984512
 21
2555.962119485819
 31
0.0
  0
LINE
  5
14D
330
1F
100
AcDbEntity
  8
ハッチ
  6
JWW_DASHED1
 62
   120
370
     5
100
AcDbLine
 10
2941.577991580009
 20
2480.962119485828
 30
0.0
 11
3016.577991580003
 21
2555.962119485822
 31
0.0
  0
LINE
  5
14E
330
1F
100
AcDbEntity
  8
ハッチ
  6
JWW_DASHED1
 62
   120
370
     5
100
AcDbLine
 10
2899.151584708856
 20
2480.96211948582
 30
0.0
 11
2974.151584708866
 21
2555.96211948583
 31
0.0
  0
LINE
  5
14F
330
1F
100
AcDbEntity
  8
ハッチ
  6
JWW_DASHED1
 62
   120
370
     5
100
AcDbLine
 10
2856.725177837659
 20
2480.962119485824
 30
0.0
 11
2931.72517783767
 21
2555.962119485835
 31
0.0
  0
LINE
  5
150
330
1F
100
AcDbEntity
  8
ハッチ
  6
JWW_DASHED1
 62
   120
370
     5
100
AcDbLine
 10
2814.298770966463
 20
2480.962119485828
 30
0.0
 11
2889.298770966458
 21
2555.962119485821
 31
0.0
  0
LINE
  5
151
330
1F
100
AcDbEntity
  8
ハッチ
  6
JWW_DASHED1
 62
   120
370
     5
100
AcDbLine
 10
2771.872364095266
 20
2480.96211948583
 30
0.0
 11
2846.872364095261
 21
2555.962119485825
 31
0.0
  0
LINE
  5
152
330
1F
100
AcDbEntity
  8
ハッチ
  6
JWW_DASHED1
 62
   120
370
     5
100
AcDbLine
 10
2729.44595722407
 20
2480.962119485835
 30
0.0
 11
2804.445957224065
 21
2555.962119485829
 31
0.0
  0
LINE
  5
153
330
1F
100
AcDbEntity
  8
ハッチ
  6
JWW_DASHED1
 62
   120
370
     5
100
AcDbLine
 10
2687.019550352857
 20
2480.962119485822
 30
0.0
 11
2762.019550352853
 21
2555.962119485817
 31
0.0
  0
LINE
  5
154
330
1F
100
AcDbEntity
  8
ハッチ
  6
JWW_DASHED1
 62
   120
370
     5
100
AcDbLine
 10
2644.593143481662
 20
2480.962119485826
 30
0.0
 11
2719.593143481657
 21
2555.962119485821
 31
0.0
  0
LINE
  5
155
330
1F
100
AcDbEntity
  8
ハッチ
  6
JWW_DASHED1
 62
   120
370
     5
100
AcDbLine
 10
2602.166736610507
 20
2480.962119485817
 30
0.0
 11
2677.166736610519
 21
2555.962119485829
 31
0.0
  0
LINE
  5
156
330
1F
100
AcDbEntity
  8
ハッチ
  6
JWW_DASHED1
 62
   120
370
     5
100
AcDbLine
 10
2559.740329739311
 20
2480.962119485821
 30
0.0
 11
2634.740329739323
 21
2555.962119485832
 31
0.0
  0
LINE
  5
157
330
1F
100
AcDbEntity
  8
ハッチ
  6
JWW_DASHED1
 62
   120
370
     5
100
AcDbLine
 10
2517.313922868115
 20
2480.962119485825
 30
0.0
 11
2592.313922868126
 21
2555.962119485836
 31
0.0
  0
LINE
  5
158
330
1F
100
AcDbEntity
  8
ハッチ
  6
JWW_DASHED1
 62
   120
370
     5
100
AcDbLine
 10
2474.887515996918
 20
2480.962119485828
 30
0.0
 11
2549.887515996914
 21
2555.962119485824
 31
0.0
  0
LINE
  5
159
330
1F
100
AcDbEntity
  8
ハッチ
  6
JWW_DASHED1
 62
   120
370
     5
100
AcDbLine
 10
2432.461109125722
 20
2480.962119485832
 30
0.0
 11
2507.461109125717
 21
2555.962119485828
 31
0.0
  0
LINE
  5
15A
330
1F
100
AcDbEntity
  8
ハッチ
  6
JWW_DASHED1
 62
   120
370
     5
100
AcDbLine
 10
2390.034702254511
 20
2480.96211948582
 30
0.0
 11
2465.034702254506
 21
2555.962119485815
 31
0.0
  0
LINE
  5
15B
330
1F
100
AcDbEntity
  8
ハッチ
  6
JWW_DASHED1
 62
   120
370
     5
100
AcDbLine
 10
2347.608295383314
 20
2480.962119485824
 30
0.0
 11
2422.608295383309
 21
2555.962119485819
 31
0.0
  0
LINE
  5
15C
330
1F
100
AcDbEntity
  8
ハッチ
  6
JWW_DASHED1
 62
   120
370
     5
100
AcDbLine
 10
2344.871082305425
 20
2520.651313279137
 30
0.0
 11
2380.181888512112
 21
2555.962119485822
 31
0.0
  0
LINE
  5
15D
330
1F
100
AcDbEntity
  8
仕上げ
  6
Continuous
 62
    40
370
     5
100
AcDbLine
 10
2344.871082305429
 20
2555.962119485824
 30
0.0
 11
3544.87108230543
 21
2555.962119485824
 31
0.0
  0
LINE
  5
15E
330
1F
100
AcDbEntity
  8
仕上げ
  6
Continuous
 62
    40
370
     5
100
AcDbLine
 10
2344.871082305429
 20
1775.962119485824
 30
0.0
 11
3544.87108230543
 21
1775.962119485824
 31
0.0
  0
LINE
  5
15F
330
1F
100
AcDbEntity
  8
ハッチ
  6
JWW_DASHED1
 62
   120
370
     5
100
AcDbLine
 10
3509.370197715834
 20
1775.962119485817
 30
0.0
 11
3544.87108230543
 21
1811.463004075412
 31
0.0
  0
LINE
  5
160
330
1F
100
AcDbEntity
  8
ハッチ
  6
JWW_DASHED1
 62
   120
370
     5
100
AcDbLine
 10
3466.94379084464
 20
1775.962119485822
 30
0.0
 11
3544.87108230543
 21
1853.889410946612
 31
0.0
  0
LINE
  5
161
330
1F
100
AcDbEntity
  8
ハッチ
  6
JWW_DASHED1
 62
   120
370
     5
100
AcDbLine
 10
3493.121280905549
 20
2480.962119485822
 30
0.0
 11
3544.87108230543
 21
2532.711920885703
 31
0.0
  0
LINE
  5
162
330
1F
100
AcDbEntity
  8
仕上げ
  6
Continuous
 62
    40
370
     5
100
AcDbLine
 10
2344.871082305429
 20
2480.962119485824
 30
0.0
 11
3544.87108230543
 21
2480.962119485824
 31
0.0
  0
LINE
  5
163
330
1F
100
AcDbEntity
  8
仕上げ
  6
Continuous
 62
    40
370
     5
100
AcDbLine
 10
2344.871082305429
 20
1850.962119485824
 30
0.0
 11
3544.87108230543
 21
1850.962119485824
 31
0.0
  0
LINE
  5
164
330
1F
100
AcDbEntity
  8
ハッチ
  6
JWW_DASHED1
 62
   120
370
     5
100
AcDbLine
 10
3535.547687776746
 20
2480.962119485819
 30
0.0
 11
3544.87108230543
 21
2490.285514014502
 31
0.0
  0
LINE
  5
165
330
1F
100
AcDbEntity
  8
0-2_柱
  6
Continuous
 62
    92
370
     5
100
AcDbLine
 10
3308.739630297127
 20
2480.962119485824
 30
0.0
 11
3308.739630297127
 21
1850.962119485824
 31
0.0
  0
LINE
  5
166
330
1F
100
AcDbEntity
  8
0-2_柱
  6
Continuous
 62
     7
370
     5
100
AcDbLine
 10
3308.739630297127
 20
2480.962119485824
 30
0.0
 11
3544.87108230543
 21
2244.830667477523
 31
0.0
  0
LINE
  5
167
330
1F
100
AcDbEntity
  8
0-2_柱
  6
Continuous
 62
     7
370
     5
100
AcDbLine
 10
3308.739630297127
 20
1850.962119485824
 30
0.0
 11
3544.87108230543
 21
2087.093571494125
 31
0.0
  0
LINE
  5
168
330
1F
100
AcDbEntity
  8
0-2_柱
  6
Continuous
 62
    92
370
     5
100
AcDbLine
 10
2344.871082305429
 20
2480.962119485824
 30
0.0
 11
2344.871082305429
 21
1850.962119485824
 31
0.0
  0
LINE
  5
169
330
1F
100
AcDbEntity
  8
0-2_柱
  6
Continuous
 62
    92
370
     5
100
AcDbLine
 10
2524.871082305429
 20
2480.962119485824
 30
0.0
 11
2524.871082305429
 21
1850.962119485824
 31
0.0
  0
LINE
  5
16A
330
1F
100
AcDbEntity
  8
0-2_柱
  6
Continuous
 62
     7
370
     5
100
AcDbLine
 10
2524.871082305429
 20
2480.962119485824
 30
0.0
 11
2344.871082305429
 21
1850.962119485824
 31
0.0
  0
LINE
  5
16B
330
1F
100
AcDbEntity
  8
ハッチ
  6
Continuous
 62
   120
370
     5
100
AcDbLine
 10
2318.694456662193
 20
1703.961684610334
 30
0.0
 11
2341.87108230543
 21
1727.138625835747
 31
0.0
  0
LINE
  5
16C
330
1F
100
AcDbEntity
  8
0-6_扉
  6
JWW_DASHED2
 62
    40
370
     5
100
AcDbLine
 10
988.3948868063186
 20
1967.962168973791
 30
0.0
 11
988.3948868063186
 21
2147.962168973791
 31
0.0
  0
LINE
  5
16D
330
1F
100
AcDbEntity
  8
0-6_扉
  6
JWW_DASHED2
 62
    40
370
     5
100
AcDbLine
 10
2164.871230769323
 20
2147.962168973791
 30
0.0
 11
2164.871230769323
 21
1967.962168973791
 31
0.0
  0
LINE
  5
16E
330
1F
100
AcDbEntity
  8
0-6_扉
  6
JWW_DASHED2
 62
    40
370
     5
100
AcDbLine
 10
-968.5578011196869
 20
1967.962168973791
 30
0.0
 11
-968.5578011196869
 21
2147.962168973791
 31
0.0
  0
LINE
  5
16F
330
1F
100
AcDbEntity
  8
0-6_扉
  6
JWW_DASHED2
 62
    40
370
     5
100
AcDbLine
 10
-2145.034145082691
 20
2147.962168973791
 30
0.0
 11
-2145.034145082691
 21
1967.962168973791
 31
0.0
  0
LINE
  5
170
330
1F
100
AcDbEntity
  8
0-4_枠
  6
Continuous
 62
    92
370
     5
100
AcDbLine
 10
2177.599152830681
 20
2630.962119485824
 30
0.0
 11
2344.871082305429
 21
2630.962119485824
 31
0.0
  0
LINE
  5
171
330
1F
100
AcDbEntity
  8
0-4_枠
  6
Continuous
 62
    92
370
     5
100
AcDbLine
 10
2164.871230769323
 20
2618.234197424466
 30
0.0
 11
2164.871230769323
 21
2402.962119485822
 31
0.0
  0
LINE
  5
172
330
1F
100
AcDbEntity
  8
0-4_枠
  6
Continuous
 62
    92
370
     5
100
AcDbLine
 10
2177.599152830681
 20
2630.962119485824
 30
0.0
 11
2164.871230769323
 21
2618.234197424466
 31
0.0
  0
LINE
  5
173
330
1F
100
AcDbEntity
  8
0-4_枠
  6
Continuous
 62
    92
370
     5
100
AcDbLine
 10
2177.599152830681
 20
1700.962119485824
 30
0.0
 11
2344.871082305429
 21
1700.962119485824
 31
0.0
  0
LINE
  5
174
330
1F
100
AcDbEntity
  8
0-4_枠
  6
Continuous
 62
    92
370
     5
100
AcDbLine
 10
2164.871230769323
 20
1713.690041547181
 30
0.0
 11
2164.871230769323
 21
2156.962119485823
 31
0.0
  0
LINE
  5
175
330
1F
100
AcDbEntity
  8
0-4_枠
  6
Continuous
 62
    92
370
     5
100
AcDbLine
 10
2177.599152830681
 20
1700.962119485824
 30
0.0
 11
2164.871230769323
 21
1713.690041547181
 31
0.0
  0
LINE
  5
176
330
1F
100
AcDbEntity
  8
0-4_枠
  6
Continuous
 62
    92
370
     5
100
AcDbLine
 10
-2157.762067144049
 20
2636.962168973789
 30
0.0
 11
-2325.033996618797
 21
2636.962168973789
 31
0.0
  0
LINE
  5
177
330
1F
100
AcDbEntity
  8
0-4_枠
  6
Continuous
 62
    92
370
     5
100
AcDbLine
 10
-2145.034145082691
 20
2624.23424691243
 30
0.0
 11
-2145.034145082691
 21
2408.96216897379
 31
0.0
  0
LINE
  5
178
330
1F
100
AcDbEntity
  8
0-4_枠
  6
Continuous
 62
    92
370
     5
100
AcDbLine
 10
-2157.762067144049
 20
2636.962168973789
 30
0.0
 11
-2145.034145082691
 21
2624.23424691243
 31
0.0
  0
LINE
  5
179
330
1F
100
AcDbEntity
  8
0-4_枠
  6
Continuous
 62
    92
370
     5
100
AcDbLine
 10
-2157.762067144049
 20
1706.96216897379
 30
0.0
 11
-2325.033996618797
 21
1706.96216897379
 31
0.0
  0
LINE
  5
17A
330
1F
100
AcDbEntity
  8
0-4_枠
  6
Continuous
 62
    92
370
     5
100
AcDbLine
 10
-2145.034145082691
 20
1719.690091035148
 30
0.0
 11
-2145.034145082691
 21
2162.962168973791
 31
0.0
  0
LINE
  5
17B
330
1F
100
AcDbEntity
  8
0-4_枠
  6
Continuous
 62
    92
370
     5
100
AcDbLine
 10
-2157.762067144049
 20
1706.96216897379
 30
0.0
 11
-2145.034145082691
 21
1719.690091035148
 31
0.0
  0
LINE
  5
17C
330
1F
100
AcDbEntity
  8
0-4_枠
  6
Continuous
 62
    92
370
     5
100
AcDbLine
 10
2178.84222839329
 20
1703.961684610334
 30
0.0
 11
2341.87108230543
 21
1703.961684610334
 31
0.0
  0
LINE
  5
17D
330
1F
100
AcDbEntity
  8
0-4_枠
  6
Continuous
 62
    92
370
     5
100
AcDbLine
 10
2167.870795893833
 20
1714.933117109791
 30
0.0
 11
2167.870795893833
 21
2153.962119485824
 31
0.0
  0
LINE
  5
17E
330
1F
100
AcDbEntity
  8
0-4_枠
  6
Continuous
 62
    92
370
     5
100
AcDbLine
 10
2178.84222839329
 20
1703.961684610334
 30
0.0
 11
2167.870795893833
 21
1714.933117109791
 31
0.0
  0
LINE
  5
17F
330
1F
100
AcDbEntity
  8
0-4_枠
  6
Continuous
 62
    92
370
     5
100
AcDbLine
 10
2167.870795893833
 20
2616.991121861857
 30
0.0
 11
2167.870795893833
 21
2405.962119485824
 31
0.0
  0
LINE
  5
180
330
1F
100
AcDbEntity
  8
0-4_枠
  6
Continuous
 62
    92
370
     5
100
AcDbLine
 10
2178.841633300513
 20
2627.961959268537
 30
0.0
 11
2167.870795893833
 21
2616.991121861857
 31
0.0
  0
LINE
  5
181
330
1F
100
AcDbEntity
  8
0-4_枠
  6
Continuous
 62
    92
370
     5
100
AcDbLine
 10
2178.841633300513
 20
2627.961959268537
 30
0.0
 11
2341.87108230543
 21
2627.961959268537
 31
0.0
  0
LINE
  5
182
330
1F
100
AcDbEntity
  8
0-4_枠
  6
Continuous
 62
    92
370
     5
100
AcDbLine
 10
-2159.004547613882
 20
2633.962008756503
 30
0.0
 11
-2322.033996618797
 21
2633.962008756503
 31
0.0
  0
LINE
  5
183
330
1F
100
AcDbEntity
  8
0-4_枠
  6
Continuous
 62
    92
370
     5
100
AcDbLine
 10
-2159.004547613882
 20
2633.962008756503
 30
0.0
 11
-2148.033710207202
 21
2622.991171349823
 31
0.0
  0
LINE
  5
184
330
1F
100
AcDbEntity
  8
0-4_枠
  6
Continuous
 62
    92
370
     5
100
AcDbLine
 10
-2148.033710207202
 20
2622.991171349823
 30
0.0
 11
-2148.033710207202
 21
2411.96216897379
 31
0.0
  0
LINE
  5
185
330
1F
100
AcDbEntity
  8
0-4_枠
  6
Continuous
 62
    92
370
     5
100
AcDbLine
 10
-2148.033710207202
 20
1720.933166597756
 30
0.0
 11
-2148.033710207202
 21
2159.96216897379
 31
0.0
  0
LINE
  5
186
330
1F
100
AcDbEntity
  8
0-4_枠
  6
Continuous
 62
    92
370
     5
100
AcDbLine
 10
-2159.005142706658
 20
1709.9617340983
 30
0.0
 11
-2148.033710207202
 21
1720.933166597756
 31
0.0
  0
LINE
  5
187
330
1F
100
AcDbEntity
  8
0-4_枠
  6
Continuous
 62
    92
370
     5
100
AcDbLine
 10
-2159.005142706658
 20
1709.9617340983
 30
0.0
 11
-2322.033996618797
 21
1709.9617340983
 31
0.0
  0
LINE
  5
188
330
1F
100
AcDbEntity
  8
0-6_扉
  6
JWW_DASHED2
 62
    40
370
     5
100
AcDbLine
 10
2164.871230769323
 20
2147.962168973791
 30
0.0
 11
1654.633058787822
 21
2147.962168973791
 31
0.0
  0
LINE
  5
189
330
1F
100
AcDbEntity
  8
0-6_扉
  6
JWW_DASHED2
 62
    40
370
     5
100
AcDbLine
 10
2164.871230769323
 20
1967.962168973791
 30
0.0
 11
1654.633058787822
 21
1967.962168973791
 31
0.0
  0
LINE
  5
18A
330
1F
100
AcDbEntity
  8
0-6_扉
  6
JWW_DASHED2
 62
    40
370
     5
100
AcDbLine
 10
1534.633058787822
 20
2147.962168973791
 30
0.0
 11
988.3948868063186
 21
2147.962168973791
 31
0.0
  0
LINE
  5
18B
330
1F
100
AcDbEntity
  8
0-6_扉
  6
JWW_DASHED2
 62
    40
370
     5
100
AcDbLine
 10
1534.633058787822
 20
1967.962168973791
 30
0.0
 11
988.3948868063186
 21
1967.962168973791
 31
0.0
  0
LINE
  5
18C
330
1F
100
AcDbEntity
  8
0-6_扉
  6
JWW_DASHED2
 62
    40
370
     5
100
AcDbLine
 10
-2145.034145082691
 20
2147.962168973791
 30
0.0
 11
-1634.795973101191
 21
2147.962168973791
 31
0.0
  0
LINE
  5
18D
330
1F
100
AcDbEntity
  8
0-6_扉
  6
JWW_DASHED2
 62
    40
370
     5
100
AcDbLine
 10
-2145.034145082691
 20
1967.962168973791
 30
0.0
 11
-1634.795973101191
 21
1967.962168973791
 31
0.0
  0
LINE
  5
18E
330
1F
100
AcDbEntity
  8
0-6_扉
  6
JWW_DASHED2
 62
    40
370
     5
100
AcDbLine
 10
-1514.795973101191
 20
2147.962168973791
 30
0.0
 11
-968.5578011196869
 21
2147.962168973791
 31
0.0
  0
LINE
  5
18F
330
1F
100
AcDbEntity
  8
0-6_扉
  6
JWW_DASHED2
 62
    40
370
     5
100
AcDbLine
 10
-1514.795973101191
 20
1967.962168973791
 30
0.0
 11
-968.5578011196869
 21
1967.962168973791
 31
0.0
  0
LINE
  5
190
330
1F
100
AcDbEntity
  8
0-4_枠
  6
Continuous
 62
   120
370
     5
100
AcDbLine
 10
-2145.034145082691
 20
1781.962168973789
 30
0.0
 11
-1634.795973101191
 21
1781.962168973789
 31
0.0
  0
LINE
  5
191
330
1F
100
AcDbEntity
  8
0-4_枠
  6
Continuous
 62
   120
370
     5
100
AcDbLine
 10
-2145.034145082691
 20
2561.962168973789
 30
0.0
 11
-1634.795973101191
 21
2561.962168973789
 31
0.0
  0
LINE
  5
192
330
1F
100
AcDbEntity
  8
0-4_枠
  6
Continuous
 62
   120
370
     5
100
AcDbLine
 10
-1514.795973101191
 20
1781.962168973789
 30
0.0
 11
-638.319629138187
 21
1781.962168973789
 31
0.0
  0
LINE
  5
193
330
1F
100
AcDbEntity
  8
0-4_枠
  6
Continuous
 62
   120
370
     5
100
AcDbLine
 10
-1514.795973101191
 20
2561.962168973789
 30
0.0
 11
-638.319629138187
 21
2561.962168973789
 31
0.0
  0
LINE
  5
194
330
1F
100
AcDbEntity
  8
0-4_枠
  6
Continuous
 62
   120
370
     5
100
AcDbLine
 10
-518.319629138187
 20
1781.962168973789
 30
0.0
 11
538.1567148248168
 21
1781.962168973789
 31
0.0
  0
LINE
  5
195
330
1F
100
AcDbEntity
  8
0-4_枠
  6
Continuous
 62
   120
370
     5
100
AcDbLine
 10
-518.319629138187
 20
2561.962168973789
 30
0.0
 11
538.1567148248168
 21
2561.962168973789
 31
0.0
  0
LINE
  5
196
330
1F
100
AcDbEntity
  8
0-4_枠
  6
Continuous
 62
   120
370
     5
100
AcDbLine
 10
658.1567148248178
 20
1781.962168973789
 30
0.0
 11
1534.633058787822
 21
1781.962168973789
 31
0.0
  0
LINE
  5
197
330
1F
100
AcDbEntity
  8
0-4_枠
  6
Continuous
 62
   120
370
     5
100
AcDbLine
 10
658.1567148248178
 20
2561.962168973789
 30
0.0
 11
1534.633058787822
 21
2561.962168973789
 31
0.0
  0
LINE
  5
198
330
1F
100
AcDbEntity
  8
0-4_枠
  6
Continuous
 62
   120
370
     5
100
AcDbLine
 10
1654.633058787822
 20
1781.962168973789
 30
0.0
 11
2164.871230769323
 21
1781.962168973789
 31
0.0
  0
LINE
  5
199
330
1F
100
AcDbEntity
  8
0-4_枠
  6
Continuous
 62
   120
370
     5
100
AcDbLine
 10
1654.633058787822
 20
2561.962168973789
 30
0.0
 11
2164.871230769323
 21
2561.962168973789
 31
0.0
  0
MTEXT
  5
19A
330
1F
100
AcDbEntity
  8
0-A_文字
  6
Continuous
 62
     7
370
     5
100
AcDbMText
 10
-230.0814571566795
 20
1464.682168973789
 30
0.0
 40
91.44
 41
480.0
 46
0.0
 71
     7
 72
     1
  1
{\fＭＳ ゴシック|b0|i0|c128|p49;洋室側・}
 73
     1
 44
1.0
  0
LINE
  5
19B
330
1F
100
AcDbEntity
  8
0-A_文字
  6
Continuous
 62
     7
370
     5
100
AcDbLine
 10
-290.0814571566812
 20
1658.962168973789
 30
0.0
 11
-290.0814571566812
 21
1418.962168973789
 31
0.0
  0
LINE
  5
19C
330
1F
100
AcDbEntity
  8
0-A_文字
  6
Continuous
 62
     7
370
     5
100
AcDbLine
 10
309.9185428433188
 20
1418.962168973789
 30
0.0
 11
309.9185428433188
 21
1658.962168973789
 31
0.0
  0
LINE
  5
19D
330
1F
100
AcDbEntity
  8
0-A_文字
  6
Continuous
 62
     7
370
     5
100
AcDbLine
 10
-290.0814571566812
 20
1418.962168973789
 30
0.0
 11
309.9185428433188
 21
1418.962168973789
 31
0.0
  0
LINE
  5
19E
330
1F
100
AcDbEntity
  8
0-A_文字
  6
Continuous
 62
     7
370
     5
100
AcDbLine
 10
309.9185428433188
 20
1658.962168973789
 30
0.0
 11
-290.0814571566812
 21
1658.962168973789
 31
0.0
  0
LINE
  5
19F
330
1F
100
AcDbEntity
  8
0-0_補助線
  6
JWW_HOJO
 62
   120
370
     5
100
AcDbLine
 10
3544.87108230543
 20
515.9621689737893
 30
0.0
 11
-3525.033996618797
 21
515.9621689737893
 31
0.0
  0
LINE
  5
1A0
330
1F
100
AcDbEntity
  8
0-0_補助線
  6
JWW_HOJO
 62
   120
370
     5
100
AcDbLine
 10
3544.87108230543
 20
725.9621689737893
 30
0.0
 11
-3525.033996618797
 21
725.9621689737893
 31
0.0
  0
MTEXT
  5
1A1
330
1F
100
AcDbEntity
  8
0-B_寸法
  6
Continuous
 62
     7
370
   211
100
AcDbMText
 10
1479.133058787821
 20
940.4921689737888
 30
0.0
 40
99.05999999999914
 41
194.9999999999983
 46
0.0
 71
     7
 72
     1
  1
{\fＭＳ ゴシック|b0|i0|c128|p49;810}
 73
     1
 44
1.0
  0
MTEXT
  5
1A2
330
1F
100
AcDbEntity
  8
0-B_寸法
  6
Continuous
 62
     7
370
   211
100
AcDbMText
 10
-1654.295973101189
 20
940.4921689737893
 30
0.0
 40
99.06
 41
195.0
 46
0.0
 71
     7
 72
     1
  1
{\fＭＳ ゴシック|b0|i0|c128|p49;810}
 73
     1
 44
1.0
  0
MTEXT
  5
1A3
330
1F
100
AcDbEntity
  8
0-B_寸法
  6
Continuous
 62
     7
370
   211
100
AcDbMText
 10
-627.581457156684
 20
942.0963795001051
 30
0.0
 40
102.2684210526316
 41
1275.0
 46
0.0
 71
     7
 72
     1
  1
{\fＭＳ ゴシック|b0|i0|c128|p49;有効開口寸法＝1,554}
 73
     1
 44
1.0
  0
LINE
  5
1A4
330
1F
100
AcDbEntity
  8
0-B_寸法
  6
Continuous
 62
   120
370
     5
100
AcDbLine
 10
2164.871230769323
 20
725.9621689737893
 30
0.0
 11
2164.871230769323
 21
1295.962168973789
 31
0.0
  0
LWPOLYLINE
  5
1A5
330
1F
100
AcDbEntity
  8
0-B_寸法
  6
Continuous
 62
     7
370
     5
100
AcDbPolyline
 90
        4
 70
     1
 43
3.0
 10
2166.371230769322
 20
935.9621689737893
 42
0.4142135623731
 10
2164.871230769323
 20
937.4621689737893
 42
0.4142135623731
 10
2163.371230769323
 20
935.9621689737893
 42
0.4142135623731
 10
2164.871230769323
 20
934.4621689737893
 42
0.4142135623731
  0
LINE
  5
1A6
330
1F
100
AcDbEntity
  8
0-B_寸法
  6
Continuous
 62
   120
370
     5
100
AcDbLine
 10
988.3948868063186
 20
935.9621689737893
 30
0.0
 11
2164.871230769323
 21
935.9621689737893
 31
0.0
  0
LINE
  5
1A7
330
1F
100
AcDbEntity
  8
0-B_寸法
  6
Continuous
 62
   120
370
     5
100
AcDbLine
 10
988.3948868063186
 20
935.9621689737893
 30
0.0
 11
988.3948868063186
 21
1295.962168973789
 31
0.0
  0
LWPOLYLINE
  5
1A8
330
1F
100
AcDbEntity
  8
0-B_寸法
  6
Continuous
 62
     7
370
     5
100
AcDbPolyline
 90
        4
 70
     1
 43
3.0
 10
989.8948868063185
 20
935.9621689737893
 42
0.4142135623731
 10
988.3948868063186
 20
937.4621689737893
 42
0.4142135623731
 10
986.8948868063187
 20
935.9621689737893
 42
0.4142135623731
 10
988.3948868063186
 20
934.4621689737893
 42
0.4142135623731
  0
LINE
  5
1A9
330
1F
100
AcDbEntity
  8
0-B_寸法
  6
Continuous
 62
   120
370
     5
100
AcDbLine
 10
-968.5578011196869
 20
935.9621689737893
 30
0.0
 11
988.3948868063186
 21
935.9621689737893
 31
0.0
  0
LINE
  5
1AA
330
1F
100
AcDbEntity
  8
0-B_寸法
  6
Continuous
 62
   120
370
     5
100
AcDbLine
 10
-968.5578011196869
 20
935.9621689737893
 30
0.0
 11
-968.5578011196869
 21
1295.962168973789
 31
0.0
  0
LINE
  5
1AB
330
1F
100
AcDbEntity
  8
0-B_寸法
  6
Continuous
 62
   120
370
     5
100
AcDbLine
 10
-2145.034145082693
 20
725.9621689737893
 30
0.0
 11
-2145.034145082691
 21
1295.962168973789
 31
0.0
  0
LWPOLYLINE
  5
1AC
330
1F
100
AcDbEntity
  8
0-B_寸法
  6
Continuous
 62
     7
370
     5
100
AcDbPolyline
 90
        4
 70
     1
 43
3.0
 10
-967.057801119687
 20
935.9621689737893
 42
0.4142135623731
 10
-968.5578011196869
 20
937.4621689737893
 42
0.4142135623731
 10
-970.0578011196869
 20
935.9621689737893
 42
0.4142135623731
 10
-968.5578011196869
 20
934.4621689737893
 42
0.4142135623731
  0
LWPOLYLINE
  5
1AD
330
1F
100
AcDbEntity
  8
0-B_寸法
  6
Continuous
 62
     7
370
     5
100
AcDbPolyline
 90
        4
 70
     1
 43
3.0
 10
-2143.534145082691
 20
935.9621689737893
 42
0.4142135623731
 10
-2145.034145082691
 20
937.4621689737893
 42
0.4142135623731
 10
-2146.534145082691
 20
935.9621689737893
 42
0.4142135623731
 10
-2145.034145082691
 20
934.4621689737893
 42
0.4142135623731
  0
LINE
  5
1AE
330
1F
100
AcDbEntity
  8
0-B_寸法
  6
Continuous
 62
   120
370
     5
100
AcDbLine
 10
-2145.034145082691
 20
935.9621689737893
 30
0.0
 11
-968.5578011196869
 21
935.9621689737893
 31
0.0
  0
MTEXT
  5
1AF
330
1F
100
AcDbEntity
  8
0-B_寸法
  6
Continuous
 62
     7
370
   211
100
AcDbMText
 10
-320.0814571566838
 20
726.6821689737893
 30
0.0
 40
91.43999999999997
 41
660.0
 46
0.0
 71
     7
 72
     1
  1
{\fＭＳ ゴシック|b0|i0|c128|p49;枠内＝3,174}
 73
     1
 44
1.0
  0
LINE
  5
1B0
330
1F
100
AcDbEntity
  8
0-B_寸法
  6
Continuous
 62
   120
370
     5
100
AcDbLine
 10
-2325.033996618797
 20
515.9621689737893
 30
0.0
 11
2344.871082305429
 21
515.9621689737893
 31
0.0
  0
LINE
  5
1B1
330
1F
100
AcDbEntity
  8
0-0_補助線
  6
JWW_HOJO
 62
   120
370
     5
100
AcDbLine
 10
3544.87108230543
 20
1295.962168973789
 30
0.0
 11
-3525.033996618797
 21
1295.962168973789
 31
0.0
  0
LINE
  5
1B2
330
1F
100
AcDbEntity
  8
0-0_補助線
  6
JWW_HOJO
 62
   120
370
     5
100
AcDbLine
 10
3544.87108230543
 20
935.9621689737893
 30
0.0
 11
-3525.033996618797
 21
935.9621689737893
 31
0.0
  0
MTEXT
  5
1B3
330
1F
100
AcDbEntity
  8
0-B_寸法
  6
Continuous
 62
     7
370
   211
100
AcDbMText
 10
-320.0814571566838
 20
516.6821689737893
 30
0.0
 40
91.43999999999997
 41
660.0
 46
0.0
 71
     7
 72
     1
  1
{\fＭＳ ゴシック|b0|i0|c128|p49;枠外＝3,234}
 73
     1
 44
1.0
  0
LWPOLYLINE
  5
1B4
330
1F
100
AcDbEntity
  8
0-B_寸法
  6
Continuous
 62
     7
370
     5
100
AcDbPolyline
 90
        4
 70
     1
 43
3.0
 10
2346.371082305428
 20
515.9621689737893
 42
0.4142135623731
 10
2344.871082305429
 20
517.4621689737893
 42
0.4142135623731
 10
2343.371082305429
 20
515.9621689737893
 42
0.4142135623731
 10
2344.871082305429
 20
514.4621689737893
 42
0.4142135623731
  0
LWPOLYLINE
  5
1B5
330
1F
100
AcDbEntity
  8
0-B_寸法
  6
Continuous
 62
     7
370
     5
100
AcDbPolyline
 90
        4
 70
     1
 43
3.0
 10
-2323.533996618797
 20
515.9621689737893
 42
0.4142135623731
 10
-2325.033996618797
 20
517.4621689737893
 42
0.4142135623731
 10
-2326.533996618797
 20
515.9621689737893
 42
0.4142135623731
 10
-2325.033996618797
 20
514.4621689737893
 42
0.4142135623731
  0
LINE
  5
1B6
330
1F
100
AcDbEntity
  8
0-B_寸法
  6
Continuous
 62
   120
370
     5
100
AcDbLine
 10
-2325.033996618797
 20
515.9621689737893
 30
0.0
 11
-2325.033996618797
 21
1295.962168973789
 31
0.0
  0
MTEXT
  5
1B7
330
1F
100
AcDbEntity
  8
0-B_寸法
  6
Continuous
 62
     7
370
   211
100
AcDbMText
 10
2194.871156537376
 20
726.6821689737893
 30
0.0
 40
91.44
 41
120.0
 46
0.0
 71
     7
 72
     1
  1
{\fＭＳ ゴシック|b0|i0|c128|p49;30}
 73
     1
 44
1.0
  0
LWPOLYLINE
  5
1B8
330
1F
100
AcDbEntity
  8
0-B_寸法
  6
Continuous
 62
     7
370
     5
100
AcDbPolyline
 90
        4
 70
     1
 43
3.0
 10
2346.371082305428
 20
725.9621689737893
 42
0.4142135623731
 10
2344.871082305429
 20
727.4621689737893
 42
0.4142135623731
 10
2343.371082305429
 20
725.9621689737893
 42
0.4142135623731
 10
2344.871082305429
 20
724.4621689737893
 42
0.4142135623731
  0
LWPOLYLINE
  5
1B9
330
1F
100
AcDbEntity
  8
0-B_寸法
  6
Continuous
 62
     7
370
     5
100
AcDbPolyline
 90
        4
 70
     1
 43
3.0
 10
2166.371230769322
 20
725.9621689737893
 42
0.4142135623731
 10
2164.871230769323
 20
727.4621689737893
 42
0.4142135623731
 10
2163.371230769323
 20
725.9621689737893
 42
0.4142135623731
 10
2164.871230769323
 20
724.4621689737893
 42
0.4142135623731
  0
LINE
  5
1BA
330
1F
100
AcDbEntity
  8
0-B_寸法
  6
Continuous
 62
   120
370
     5
100
AcDbLine
 10
-2325.033996618797
 20
725.9621689737893
 30
0.0
 11
2344.871082305429
 21
725.9621689737893
 31
0.0
  0
MTEXT
  5
1BB
330
1F
100
AcDbEntity
  8
0-B_寸法
  6
Continuous
 62
     7
370
   211
100
AcDbMText
 10
-2295.034070850744
 20
726.6821689737893
 30
0.0
 40
91.44
 41
120.0
 46
0.0
 71
     7
 72
     1
  1
{\fＭＳ ゴシック|b0|i0|c128|p49;30}
 73
     1
 44
1.0
  0
LWPOLYLINE
  5
1BC
330
1F
100
AcDbEntity
  8
0-B_寸法
  6
Continuous
 62
     7
370
     5
100
AcDbPolyline
 90
        4
 70
     1
 43
3.0
 10
-2143.534145082693
 20
725.9621689737893
 42
0.4142135623731
 10
-2145.034145082693
 20
727.4621689737893
 42
0.4142135623731
 10
-2146.534145082693
 20
725.9621689737893
 42
0.4142135623731
 10
-2145.034145082693
 20
724.4621689737893
 42
0.4142135623731
  0
LWPOLYLINE
  5
1BD
330
1F
100
AcDbEntity
  8
0-B_寸法
  6
Continuous
 62
     7
370
     5
100
AcDbPolyline
 90
        4
 70
     1
 43
3.0
 10
-2323.533996618797
 20
725.9621689737893
 42
0.4142135623731
 10
-2325.033996618797
 20
727.4621689737893
 42
0.4142135623731
 10
-2326.533996618797
 20
725.9621689737893
 42
0.4142135623731
 10
-2325.033996618797
 20
724.4621689737893
 42
0.4142135623731
  0
LINE
  5
1BE
330
1F
100
AcDbEntity
  8
0-B_寸法
  6
Continuous
 62
   120
370
     5
100
AcDbLine
 10
2344.871082305429
 20
515.9621689737893
 30
0.0
 11
2344.871082305429
 21
1295.962168973789
 31
0.0
  0
MTEXT
  5
1BF
330
1F
100
AcDbEntity
  8
0-B_寸法
  6
Continuous
 62
     7
370
   211
100
AcDbMText
 10
-1136.557801119689
 20
2892.682168973789
 30
0.0
 40
91.44
 41
120.0
 46
0.0
 71
     7
 72
     1
  1
{\fＭＳ ゴシック|b0|i0|c128|p49;30}
 73
     1
 44
1.0
  0
LINE
  5
1C0
330
1F
100
AcDbEntity
  8
0-B_寸法
  6
Continuous
 62
   120
370
     5
100
AcDbLine
 10
-986.5578011196885
 20
2891.962168973789
 30
0.0
 11
-986.5578011196885
 21
2711.962168973789
 31
0.0
  0
LINE
  5
1C1
330
1F
100
AcDbEntity
  8
0-B_寸法
  6
Continuous
 62
   120
370
     5
100
AcDbLine
 10
-1166.557801119687
 20
2891.962168973789
 30
0.0
 11
-1166.557801119687
 21
2711.962168973789
 31
0.0
  0
LWPOLYLINE
  5
1C2
330
1F
100
AcDbEntity
  8
0-B_寸法
  6
Continuous
 62
     7
370
     5
100
AcDbPolyline
 90
        4
 70
     1
 43
3.0
 10
-985.0578011196886
 20
2891.962168973789
 42
0.4142135623731
 10
-986.5578011196885
 20
2893.462168973789
 42
0.4142135623731
 10
-988.0578011196884
 20
2891.962168973789
 42
0.4142135623731
 10
-986.5578011196885
 20
2890.462168973789
 42
0.4142135623731
  0
LWPOLYLINE
  5
1C3
330
1F
100
AcDbEntity
  8
0-B_寸法
  6
Continuous
 62
     7
370
     5
100
AcDbPolyline
 90
        4
 70
     1
 43
3.0
 10
-1165.057801119687
 20
2891.962168973789
 42
0.4142135623731
 10
-1166.557801119687
 20
2893.462168973789
 42
0.4142135623731
 10
-1168.057801119687
 20
2891.962168973789
 42
0.4142135623731
 10
-1166.557801119687
 20
2890.462168973789
 42
0.4142135623731
  0
LINE
  5
1C4
330
1F
100
AcDbEntity
  8
0-B_寸法
  6
Continuous
 62
   120
370
     5
100
AcDbLine
 10
-1166.557801119687
 20
2891.962168973789
 30
0.0
 11
-986.5578011196885
 21
2891.962168973789
 31
0.0
  0
MTEXT
  5
1C5
330
1F
100
AcDbEntity
  8
0-B_寸法
  6
Continuous
 62
     7
370
   211
100
AcDbMText
 10
1036.394886806321
 20
2892.682168973789
 30
0.0
 40
91.44
 41
120.0
 46
0.0
 71
     7
 72
     1
  1
{\fＭＳ ゴシック|b0|i0|c128|p49;30}
 73
     1
 44
1.0
  0
LINE
  5
1C6
330
1F
100
AcDbEntity
  8
0-B_寸法
  6
Continuous
 62
   120
370
     5
100
AcDbLine
 10
1186.394886806321
 20
2891.962168973789
 30
0.0
 11
1186.394886806321
 21
2711.962168973789
 31
0.0
  0
LINE
  5
1C7
330
1F
100
AcDbEntity
  8
0-B_寸法
  6
Continuous
 62
   120
370
     5
100
AcDbLine
 10
1006.394886806323
 20
2891.962168973789
 30
0.0
 11
1006.394886806323
 21
2711.962168973789
 31
0.0
  0
LWPOLYLINE
  5
1C8
330
1F
100
AcDbEntity
  8
0-B_寸法
  6
Continuous
 62
     7
370
     5
100
AcDbPolyline
 90
        4
 70
     1
 43
3.0
 10
1187.894886806321
 20
2891.962168973789
 42
0.4142135623731
 10
1186.394886806321
 20
2893.462168973789
 42
0.4142135623731
 10
1184.894886806321
 20
2891.962168973789
 42
0.4142135623731
 10
1186.394886806321
 20
2890.462168973789
 42
0.4142135623731
  0
LWPOLYLINE
  5
1C9
330
1F
100
AcDbEntity
  8
0-B_寸法
  6
Continuous
 62
     7
370
     5
100
AcDbPolyline
 90
        4
 70
     1
 43
3.0
 10
1007.894886806323
 20
2891.962168973789
 42
0.4142135623731
 10
1006.394886806323
 20
2893.462168973789
 42
0.4142135623731
 10
1004.894886806323
 20
2891.962168973789
 42
0.4142135623731
 10
1006.394886806323
 20
2890.462168973789
 42
0.4142135623731
  0
LINE
  5
1CA
330
1F
100
AcDbEntity
  8
0-B_寸法
  6
Continuous
 62
   120
370
     5
100
AcDbLine
 10
1006.394886806323
 20
2891.962168973789
 30
0.0
 11
1186.394886806321
 21
2891.962168973789
 31
0.0
  0
LINE
  5
1CB
330
1F
100
AcDbEntity
  8
0-0_補助線
  6
JWW_HOJO
 62
   120
370
     5
100
AcDbLine
 10
3544.87108230543
 20
2891.962168973789
 30
0.0
 11
-3525.033996618797
 21
2891.962168973789
 31
0.0
  0
MTEXT
  5
1CC
330
1F
100
AcDbEntity
  8
0-A_文字
  6
Continuous
 62
     7
370
     5
100
AcDbMText
 10
-3527.203961056287
 20
2974.478507796292
 30
0.0
 40
91.44
 41
600.0
 46
0.0
 71
     7
 72
     1
  1
{\fＭＳ ゴシック|b0|i0|c128|p49;■横断面図}
 73
     1
 44
1.0
  0
LINE
  5
1CD
330
1F
100
AcDbEntity
  8
0-A_文字
  6
Continuous
 62
     7
370
     5
100
AcDbLine
 10
309.9185428433188
 20
2966.96268859742
 30
0.0
 11
-290.0814571566812
 21
2966.96268859742
 31
0.0
  0
LINE
  5
1CE
330
1F
100
AcDbEntity
  8
0-A_文字
  6
Continuous
 62
     7
370
     5
100
AcDbLine
 10
-290.0814571566812
 20
2726.96268859742
 30
0.0
 11
309.9185428433188
 21
2726.96268859742
 31
0.0
  0
LINE
  5
1CF
330
1F
100
AcDbEntity
  8
0-A_文字
  6
Continuous
 62
     7
370
     5
100
AcDbLine
 10
-290.0814571566812
 20
2966.96268859742
 30
0.0
 11
-290.0814571566812
 21
2726.96268859742
 31
0.0
  0
LINE
  5
1D0
330
1F
100
AcDbEntity
  8
0-A_文字
  6
Continuous
 62
     7
370
     5
100
AcDbLine
 10
309.9185428433188
 20
2726.96268859742
 30
0.0
 11
309.9185428433188
 21
2966.96268859742
 31
0.0
  0
MTEXT
  5
1D1
330
1F
100
AcDbEntity
  8
0-A_文字
  6
Continuous
 62
     7
370
     5
100
AcDbMText
 10
-230.0814571566795
 20
2772.68268859742
 30
0.0
 40
91.44
 41
480.0
 46
0.0
 71
     7
 72
     1
  1
{\fＭＳ ゴシック|b0|i0|c128|p49;和室側・}
 73
     1
 44
1.0
  0
LINE
  5
1D2
330
1F
100
AcDbEntity
  8
0-0_補助線
  6
JWW_HOJO
 62
   120
370
     5
100
AcDbLine
 10
3544.87108230543
 20
2891.962168973789
 30
0.0
 11
3544.87108230543
 21
515.9621689737893
 31
0.0
  0
LINE
  5
1D3
330
1F
100
AcDbEntity
  8
0-0_補助線
  6
JWW_HOJO
 62
   120
370
     5
100
AcDbLine
 10
-3525.033996618797
 20
515.9621689737893
 30
0.0
 11
-3525.033996618797
 21
2891.962168973789
 31
0.0
  0
LINE
  5
1D4
330
1F
100
AcDbEntity
  8
0-0_補助線
  6
JWW_HOJO
 62
   120
370
     5
100
AcDbLine
 10
1654.633058787822
 20
2891.962168973789
 30
0.0
 11
1654.633058787822
 21
1295.962168973789
 31
0.0
  0
LINE
  5
1D5
330
1F
100
AcDbEntity
  8
0-0_補助線
  6
JWW_HOJO
 62
   120
370
     5
100
AcDbLine
 10
1534.633058787822
 20
2891.962168973789
 30
0.0
 11
1534.633058787822
 21
1295.962168973789
 31
0.0
  0
LINE
  5
1D6
330
1F
100
AcDbEntity
  8
0-0_補助線
  6
JWW_HOJO
 62
   120
370
     5
100
AcDbLine
 10
658.1567148248178
 20
2891.962168973789
 30
0.0
 11
658.1567148248178
 21
1295.962168973789
 31
0.0
  0
LINE
  5
1D7
330
1F
100
AcDbEntity
  8
0-0_補助線
  6
JWW_HOJO
 62
   120
370
     5
100
AcDbLine
 10
538.1567148248178
 20
2891.962168973789
 30
0.0
 11
538.1567148248178
 21
1295.962168973789
 31
0.0
  0
LINE
  5
1D8
330
1F
100
AcDbEntity
  8
0-0_補助線
  6
JWW_HOJO
 62
   120
370
     5
100
AcDbLine
 10
-518.319629138187
 20
2891.962168973789
 30
0.0
 11
-518.319629138187
 21
1295.962168973789
 31
0.0
  0
LINE
  5
1D9
330
1F
100
AcDbEntity
  8
0-0_補助線
  6
JWW_HOJO
 62
   120
370
     5
100
AcDbLine
 10
-638.319629138187
 20
2891.962168973789
 30
0.0
 11
-638.319629138187
 21
1295.962168973789
 31
0.0
  0
LINE
  5
1DA
330
1F
100
AcDbEntity
  8
0-0_補助線
  6
JWW_HOJO
 62
   120
370
     5
100
AcDbLine
 10
-1514.795973101191
 20
2891.962168973789
 30
0.0
 11
-1514.795973101191
 21
1295.962168973789
 31
0.0
  0
LINE
  5
1DB
330
1F
100
AcDbEntity
  8
0-0_補助線
  6
JWW_HOJO
 62
   120
370
     5
100
AcDbLine
 10
-1634.795973101191
 20
2891.962168973789
 30
0.0
 11
-1634.795973101191
 21
1295.962168973789
 31
0.0
  0
LINE
  5
1DC
330
1F
100
AcDbEntity
  8
仕上げ
  6
Continuous
 62
    40
370
     5
100
AcDbLine
 10
1654.633058787822
 20
2651.962168973789
 30
0.0
 11
3544.87108230543
 21
2651.962168973789
 31
0.0
  0
LINE
  5
1DD
330
1F
100
AcDbEntity
  8
仕上げ
  6
Continuous
 62
    40
370
     5
100
AcDbLine
 10
1654.633058787822
 20
2561.962168973789
 30
0.0
 11
2164.871230769323
 21
2561.962168973789
 31
0.0
  0
LINE
  5
1DE
330
1F
100
AcDbEntity
  8
仕上げ
  6
Continuous
 62
    40
370
     5
100
AcDbLine
 10
658.1567148248178
 20
2651.962168973789
 30
0.0
 11
1534.633058787822
 21
2651.962168973789
 31
0.0
  0
LINE
  5
1DF
330
1F
100
AcDbEntity
  8
仕上げ
  6
Continuous
 62
    40
370
     5
100
AcDbLine
 10
658.1567148248178
 20
2561.962168973789
 30
0.0
 11
1534.633058787822
 21
2561.962168973789
 31
0.0
  0
LINE
  5
1E0
330
1F
100
AcDbEntity
  8
仕上げ
  6
Continuous
 62
    40
370
     5
100
AcDbLine
 10
-518.319629138187
 20
2651.962168973789
 30
0.0
 11
538.1567148248178
 21
2651.962168973789
 31
0.0
  0
LINE
  5
1E1
330
1F
100
AcDbEntity
  8
仕上げ
  6
Continuous
 62
    40
370
     5
100
AcDbLine
 10
-518.319629138187
 20
2561.962168973789
 30
0.0
 11
538.1567148248178
 21
2561.962168973789
 31
0.0
  0
LINE
  5
1E2
330
1F
100
AcDbEntity
  8
仕上げ
  6
Continuous
 62
    40
370
     5
100
AcDbLine
 10
-1514.795973101191
 20
2651.962168973789
 30
0.0
 11
-638.319629138187
 21
2651.962168973789
 31
0.0
  0
LINE
  5
1E3
330
1F
100
AcDbEntity
  8
仕上げ
  6
Continuous
 62
    40
370
     5
100
AcDbLine
 10
-1514.795973101191
 20
2561.962168973789
 30
0.0
 11
-638.319629138187
 21
2561.962168973789
 31
0.0
  0
LINE
  5
1E4
330
1F
100
AcDbEntity
  8
仕上げ
  6
Continuous
 62
    40
370
     5
100
AcDbLine
 10
-3525.033996618797
 20
2651.962168973789
 30
0.0
 11
-1634.795973101191
 21
2651.962168973789
 31
0.0
  0
LINE
  5
1E5
330
1F
100
AcDbEntity
  8
仕上げ
  6
Continuous
 62
    40
370
     5
100
AcDbLine
 10
-2145.034145082691
 20
2561.962168973789
 30
0.0
 11
-1634.795973101191
 21
2561.962168973789
 31
0.0
  0
MTEXT
  5
1E6
330
1F
100
AcDbEntity
  8
0-A_文字
  6
Continuous
 62
     7
370
     0
100
AcDbMText
 10
3304.871082305433
 20
2674.909823263771
 30
0.0
 40
91.44
 41
240.0
 46
0.0
 71
     7
 72
     1
  1
{\fＭＳ ゴシック|b0|i0|c128|p49;畳寄}
 73
     1
 44
1.0
  0
LINE
  5
1E7
330
1F
100
AcDbEntity
  8
0-A_文字
  6
Continuous
 62
     7
370
     5
100
AcDbLine
 10
3314.431715138908
 20
2749.189823263771
 30
0.0
 11
3274.871082305433
 21
2749.189823263771
 31
0.0
  0
LINE
  5
1E8
330
1F
100
AcDbEntity
  8
0-A_文字
  6
Continuous
 62
     7
370
     5
100
AcDbLine
 10
3215.092944627045
 20
2606.860045039867
 30
0.0
 11
3274.871082305433
 21
2749.189823263771
 31
0.0
  0
MTEXT
  5
1E9
330
1F
100
AcDbEntity
  8
F-A_文字
  6
Continuous
 62
     7
370
     5
100
AcDbMText
 10
5096.167700144058
 20
-4147.857012699985
 30
0.0
 40
74.295
 41
97.5
 46
0.0
 71
     7
 72
     1
  1
{\fＭＳ ゴシック|b0|i0|c128|p49;01}
 73
     1
 44
1.0
  0
LINE
  5
1EA
330
1F
100
AcDbEntity
  8
ハッチ
  6
JWW_DASHED1
 62
   120
370
     5
100
AcDbLine
 10
-2068.533996618814
 20
-365.7479952201476
 30
0.0
 11
-1993.533996618818
 21
-290.7479952201518
 31
0.0
  0
LINE
  5
1EB
330
1F
100
AcDbEntity
  8
ハッチ
  6
JWW_DASHED1
 62
   120
370
     5
100
AcDbLine
 10
-2771.604410598317
 20
-474.8487130029575
 30
0.0
 11
-2698.533996618814
 21
-401.7782990234565
 31
0.0
  0
LINE
  5
1EC
330
1F
100
AcDbEntity
  8
ハッチ
  6
JWW_DASHED1
 62
   120
370
     5
100
AcDbLine
 10
-2773.533996618814
 20
-434.3518921522565
 30
0.0
 11
-2698.533996618818
 21
-359.3518921522616
 31
0.0
  0
LINE
  5
1ED
330
1F
100
AcDbEntity
  8
ハッチ
  6
JWW_DASHED1
 62
   120
370
     5
100
AcDbLine
 10
-2773.533996618804
 20
-391.9254852810479
 30
0.0
 11
-2698.533996618811
 21
-316.9254852810514
 31
0.0
  0
LINE
  5
1EE
330
1F
100
AcDbEntity
  8
ハッチ
  6
JWW_DASHED1
 62
   120
370
     5
100
AcDbLine
 10
-2773.533996618808
 20
-349.4990784098496
 30
0.0
 11
-2698.533996618798
 21
-274.4990784098403
 31
0.0
  0
LINE
  5
1EF
330
1F
100
AcDbEntity
  8
ハッチ
  6
JWW_DASHED1
 62
   120
370
     5
100
AcDbLine
 10
-2773.533996618808
 20
-307.0726715386479
 30
0.0
 11
-2698.533996618795
 21
-232.072671538636
 31
0.0
  0
LINE
  5
1F0
330
1F
100
AcDbEntity
  8
ハッチ
  6
JWW_DASHED1
 62
   120
370
     5
100
AcDbLine
 10
-2068.533996618811
 20
-450.6008089625429
 30
0.0
 11
-1993.533996618814
 21
-375.6008089625464
 31
0.0
  0
LINE
  5
1F1
330
1F
100
AcDbEntity
  8
ハッチ
  6
JWW_DASHED1
 62
   120
370
     5
100
AcDbLine
 10
-2068.533996618811
 20
-408.1744020913459
 30
0.0
 11
-1993.533996618814
 21
-333.1744020913493
 31
0.0
  0
LINE
  5
1F2
330
1F
100
AcDbEntity
  8
ハッチ
  6
JWW_DASHED1
 62
   120
370
     5
100
AcDbLine
 10
-2068.533996618808
 20
-323.321588348939
 30
0.0
 11
-1993.533996618798
 21
-248.3215883489288
 31
0.0
  0
LINE
  5
1F3
330
1F
100
AcDbEntity
  8
ハッチ
  6
JWW_DASHED1
 62
   120
370
     5
100
AcDbLine
 10
-2773.702536496341
 20
-519.3732457721812
 30
0.0
 11
-2698.533996618811
 21
-444.2047058946548
 31
0.0
  0
LINE
  5
1F4
330
1F
100
AcDbEntity
  8
ハッチ
  6
Continuous
 62
   120
370
     5
100
AcDbLine
 10
-1969.746130977488
 20
-735.848713002976
 30
0.0
 11
-1945.534156836083
 21
-711.6367388615708
 31
0.0
  0
LINE
  5
1F5
330
1F
100
AcDbEntity
  8
ハッチ
  6
Continuous
 62
   120
370
     5
100
AcDbLine
 10
-2029.143100597182
 20
-735.8487130029721
 30
0.0
 11
-1945.53415683608
 21
-652.239769241869
 31
0.0
  0
LINE
  5
1F6
330
1F
100
AcDbEntity
  8
ハッチ
  6
Continuous
 62
   120
370
     5
100
AcDbLine
 10
-2088.540070216837
 20
-735.8487130029789
 30
0.0
 11
-1945.534156836069
 21
-592.8427996222085
 31
0.0
  0
LINE
  5
1F7
330
1F
100
AcDbEntity
  8
0-4_枠
  6
Continuous
 62
    92
370
     5
100
AcDbLine
 10
-2355.9339966188
 20
-735.8487130029721
 30
0.0
 11
-2411.133996618801
 21
-735.8487130029721
 31
0.0
  0
LINE
  5
1F8
330
1F
100
AcDbEntity
  8
0-4_枠
  6
Continuous
 62
    92
370
     5
100
AcDbLine
 10
-2355.9339966188
 20
-738.8487130029698
 30
0.0
 11
-2411.133996618801
 21
-738.8487130029698
 31
0.0
  0
LINE
  5
1F9
330
1F
100
AcDbEntity
  8
0-4_枠
  6
Continuous
 62
    92
370
     5
100
AcDbLine
 10
-2583.9339966188
 20
-738.8487130029698
 30
0.0
 11
-2824.5339966188
 21
-738.8487130029698
 31
0.0
  0
LINE
  5
1FA
330
1F
100
AcDbEntity
  8
0-4_枠
  6
Continuous
 62
    92
370
     5
100
AcDbLine
 10
-2821.534431494289
 20
-735.8487130029721
 30
0.0
 11
-2583.9339966188
 21
-735.8487130029721
 31
0.0
  0
LINE
  5
1FB
330
1F
100
AcDbEntity
  8
0-4_枠
  6
Continuous
 62
    92
370
     5
100
AcDbLine
 10
-1945.534156836084
 20
-735.8487130029721
 30
0.0
 11
-2183.1339966188
 21
-735.8487130029721
 31
0.0
  0
LINE
  5
1FC
330
1F
100
AcDbEntity
  8
0-4_枠
  6
Continuous
 62
    92
370
     5
100
AcDbLine
 10
-1942.533996618801
 20
-738.8487130029698
 30
0.0
 11
-2183.1339966188
 21
-738.8487130029698
 31
0.0
  0
LINE
  5
1FD
330
1F
100
AcDbEntity
  8
0-4_枠
  6
Continuous
 62
    92
370
     5
100
AcDbLine
 10
-2583.9339966188
 20
-738.8487130029698
 30
0.0
 11
-2583.9339966188
 21
-642.8487130029705
 31
0.0
  0
LINE
  5
1FE
330
1F
100
AcDbEntity
  8
0-4_枠
  6
Continuous
 62
    92
370
     5
100
AcDbLine
 10
-2411.133996618801
 20
-642.8487130029705
 30
0.0
 11
-2583.9339966188
 21
-642.8487130029705
 31
0.0
  0
LINE
  5
1FF
330
1F
100
AcDbEntity
  8
0-4_枠
  6
Continuous
 62
    92
370
     5
100
AcDbLine
 10
-2411.133996618801
 20
-738.8487130029698
 30
0.0
 11
-2411.133996618801
 21
-642.8487130029705
 31
0.0
  0
LINE
  5
200
330
1F
100
AcDbEntity
  8
0-4_枠
  6
Continuous
 62
    92
370
     5
100
AcDbLine
 10
-2355.9339966188
 20
-738.8487130029698
 30
0.0
 11
-2355.9339966188
 21
-642.8487130029705
 31
0.0
  0
LINE
  5
201
330
1F
100
AcDbEntity
  8
0-4_枠
  6
Continuous
 62
    92
370
     5
100
AcDbLine
 10
-2183.1339966188
 20
-642.8487130029705
 30
0.0
 11
-2355.9339966188
 21
-642.8487130029705
 31
0.0
  0
LINE
  5
202
330
1F
100
AcDbEntity
  8
0-4_枠
  6
Continuous
 62
    92
370
     5
100
AcDbLine
 10
-2183.1339966188
 20
-738.8487130029698
 30
0.0
 11
-2183.1339966188
 21
-642.8487130029705
 31
0.0
  0
LINE
  5
203
330
1F
100
AcDbEntity
  8
ハッチ
  6
Continuous
 62
   120
370
     5
100
AcDbLine
 10
-2411.133996618801
 20
-702.0608216868914
 30
0.0
 11
-2355.9339966188
 21
-646.8608216868938
 31
0.0
  0
LINE
  5
204
330
1F
100
AcDbEntity
  8
ハッチ
  6
Continuous
 62
   120
370
     5
100
AcDbLine
 10
-2385.52491831518
 20
-735.8487130029721
 30
0.0
 11
-2355.9339966188
 21
-706.2577913065927
 31
0.0
  0
LINE
  5
205
330
1F
100
AcDbEntity
  8
ハッチ
  6
Continuous
 62
   120
370
     5
100
AcDbLine
 10
-2583.9339966188
 20
-696.6699128278947
 30
0.0
 11
-2623.112796793878
 21
-735.8487130029755
 31
0.0
  0
LINE
  5
206
330
1F
100
AcDbEntity
  8
ハッチ
  6
JWW_DASHED1
 62
   120
370
     5
100
AcDbLine
 10
-2773.533996618795
 20
-264.6462646674343
 30
0.0
 11
-2719.736444954307
 21
-210.8487130029482
 31
0.0
  0
LINE
  5
207
330
1F
100
AcDbEntity
  8
ハッチ
  6
JWW_DASHED1
 62
   120
370
     5
100
AcDbLine
 10
-2773.533996618798
 20
-222.2198577962376
 30
0.0
 11
-2762.162851825507
 21
-210.8487130029482
 31
0.0
  0
LINE
  5
208
330
1F
100
AcDbEntity
  8
ハッチ
  6
JWW_DASHED1
 62
   120
370
     5
100
AcDbLine
 10
-2068.533996618804
 20
-280.8951814777382
 30
0.0
 11
-1998.487528144014
 21
-210.8487130029482
 31
0.0
  0
LINE
  5
209
330
1F
100
AcDbEntity
  8
ハッチ
  6
JWW_DASHED1
 62
   120
370
     5
100
AcDbLine
 10
-2068.533996618791
 20
-238.4687746065254
 30
0.0
 11
-2040.913935015215
 21
-210.8487130029482
 31
0.0
  0
LINE
  5
20A
330
1F
100
AcDbEntity
  8
0-B_寸法
  6
Continuous
 62
   120
370
     5
100
AcDbLine
 10
-1942.533996618801
 20
-1274.673709344067
 30
0.0
 11
-1942.533996618801
 21
-1151.324276069584
 31
0.0
  0
LWPOLYLINE
  5
20B
330
1F
100
AcDbEntity
  8
0-B_寸法
  6
Continuous
 62
     7
370
     5
100
AcDbPolyline
 90
        4
 70
     1
 43
3.0
 10
-1941.033996618801
 20
-1274.673709344067
 42
0.4142135623731
 10
-1942.533996618801
 20
-1273.173709344067
 42
0.4142135623731
 10
-1944.033996618801
 20
-1274.673709344067
 42
0.4142135623731
 10
-1942.533996618801
 20
-1276.173709344067
 42
0.4142135623731
  0
LINE
  5
20C
330
1F
100
AcDbEntity
  8
0-B_寸法
  6
Continuous
 62
   120
370
     5
100
AcDbLine
 10
-2824.5339966188
 20
-1274.673709344067
 30
0.0
 11
-2824.5339966188
 21
-1130.324276069589
 31
0.0
  0
LWPOLYLINE
  5
20D
330
1F
100
AcDbEntity
  8
0-B_寸法
  6
Continuous
 62
     7
370
     5
100
AcDbPolyline
 90
        4
 70
     1
 43
3.0
 10
-2823.0339966188
 20
-1274.673709344067
 42
0.4142135623731
 10
-2824.5339966188
 20
-1273.173709344067
 42
0.4142135623731
 10
-2826.0339966188
 20
-1274.673709344067
 42
0.4142135623731
 10
-2824.5339966188
 20
-1276.173709344067
 42
0.4142135623731
  0
LINE
  5
20E
330
1F
100
AcDbEntity
  8
0-B_寸法
  6
Continuous
 62
   120
370
     5
100
AcDbLine
 10
-2824.5339966188
 20
-1274.673709344067
 30
0.0
 11
-1942.533996618801
 21
-1274.673709344067
 31
0.0
  0
LINE
  5
20F
330
1F
100
AcDbEntity
  8
0-6_扉
  6
Continuous
 62
   200
370
     5
100
AcDbLine
 10
-2179.533996065446
 20
-822.8487127183854
 30
0.0
 11
-2359.533996065446
 21
-822.8487127183854
 31
0.0
  0
LINE
  5
210
330
1F
100
AcDbEntity
  8
0-6_扉
  6
Continuous
 62
   200
370
     5
100
AcDbLine
 10
-2407.533996065444
 20
-822.8487127183854
 30
0.0
 11
-2587.533996065444
 21
-822.8487127183854
 31
0.0
  0
LINE
  5
211
330
1F
100
AcDbEntity
  8
0-6_扉
  6
Continuous
 62
   200
370
     5
100
AcDbLine
 10
-2179.533996065446
 20
-822.8487127183854
 30
0.0
 11
-2179.533996065446
 21
-1884.848713002964
 31
0.0
  0
LINE
  5
212
330
1F
100
AcDbEntity
  8
0-6_扉
  6
Continuous
 62
   200
370
     5
100
AcDbLine
 10
-2587.533996065444
 20
-822.8487127183854
 30
0.0
 11
-2587.533996065444
 21
-1884.848713002964
 31
0.0
  0
LINE
  5
213
330
1F
100
AcDbEntity
  8
0-4_枠
  6
Continuous
 62
    92
370
     5
100
AcDbLine
 10
-2734.5339966188
 20
-558.8487130029698
 30
0.0
 11
-2734.5339966188
 21
-561.8487130029691
 31
0.0
  0
LINE
  5
214
330
1F
100
AcDbEntity
  8
0-4_枠
  6
Continuous
 62
    92
370
     5
100
AcDbLine
 10
-2032.533996618801
 20
-561.8487130029691
 30
0.0
 11
-2032.533996618801
 21
-558.8487130029698
 31
0.0
  0
LINE
  5
215
330
1F
100
AcDbEntity
  8
0-4_枠
  6
Continuous
 62
    92
370
     5
100
AcDbLine
 10
-1942.533996618801
 20
-738.8487130029698
 30
0.0
 11
-1942.533996618801
 21
-558.8487130029698
 31
0.0
  0
LINE
  5
216
330
1F
100
AcDbEntity
  8
0-4_枠
  6
Continuous
 62
    92
370
     5
100
AcDbLine
 10
-1945.534156836084
 20
-735.8487130029721
 30
0.0
 11
-1945.534156836084
 21
-561.8487130029691
 31
0.0
  0
LINE
  5
217
330
1F
100
AcDbEntity
  8
0-4_枠
  6
Continuous
 62
    92
370
     5
100
AcDbLine
 10
-2032.533996618801
 20
-561.8487130029691
 30
0.0
 11
-1945.534156836084
 21
-561.8487130029691
 31
0.0
  0
LINE
  5
218
330
1F
100
AcDbEntity
  8
0-4_枠
  6
Continuous
 62
   120
370
     5
100
AcDbLine
 10
-1918.533996618798
 20
-558.8487130029698
 30
0.0
 11
-1942.533996618801
 21
-558.8487130029698
 31
0.0
  0
LINE
  5
219
330
1F
100
AcDbEntity
  8
0-4_枠
  6
Continuous
 62
    92
370
     5
100
AcDbLine
 10
-2824.5339966188
 20
-738.8487130029698
 30
0.0
 11
-2824.5339966188
 21
-558.8487130029698
 31
0.0
  0
LINE
  5
21A
330
1F
100
AcDbEntity
  8
0-4_枠
  6
Continuous
 62
    92
370
     5
100
AcDbLine
 10
-2821.534431494289
 20
-735.8487130029721
 30
0.0
 11
-2821.534431494289
 21
-561.8487130029691
 31
0.0
  0
LINE
  5
21B
330
1F
100
AcDbEntity
  8
0-4_枠
  6
Continuous
 62
    92
370
     5
100
AcDbLine
 10
-2734.5339966188
 20
-561.8487130029691
 30
0.0
 11
-2821.534431494289
 21
-561.8487130029691
 31
0.0
  0
LINE
  5
21C
330
1F
100
AcDbEntity
  8
0-4_枠
  6
Continuous
 62
    92
370
     5
100
AcDbLine
 10
-1942.533996618801
 20
-558.8487130029698
 30
0.0
 11
-2824.5339966188
 21
-558.8487130029698
 31
0.0
  0
LINE
  5
21D
330
1F
100
AcDbEntity
  8
0-4_枠
  6
Continuous
 62
   120
370
     5
100
AcDbLine
 10
-2848.533996618798
 20
-558.8487130029698
 30
0.0
 11
-2824.5339966188
 21
-558.8487130029698
 31
0.0
  0
LINE
  5
21E
330
1F
100
AcDbEntity
  8
ハッチ
  6
Continuous
 62
   120
370
     5
100
AcDbLine
 10
-2821.534431494289
 20
-577.8885299853937
 30
0.0
 11
-2805.494614511865
 21
-561.8487130029691
 31
0.0
  0
LINE
  5
21F
330
1F
100
AcDbEntity
  8
ハッチ
  6
Continuous
 62
   120
370
     5
100
AcDbLine
 10
-2821.534431494284
 20
-637.2854996050341
 30
0.0
 11
-2746.097644892219
 21
-561.8487130029691
 31
0.0
  0
LINE
  5
220
330
1F
100
AcDbEntity
  8
ハッチ
  6
Continuous
 62
   120
370
     5
100
AcDbLine
 10
-2821.534431494298
 20
-696.682469224753
 30
0.0
 11
-2683.700675272519
 21
-558.8487130029698
 31
0.0
  0
LINE
  5
221
330
1F
100
AcDbEntity
  8
ハッチ
  6
Continuous
 62
   120
370
     5
100
AcDbLine
 10
-2183.1339966188
 20
-652.2517305459442
 30
0.0
 11
-2089.730979075828
 21
-558.8487130029698
 31
0.0
  0
LINE
  5
222
330
1F
100
AcDbEntity
  8
ハッチ
  6
Continuous
 62
   120
370
     5
100
AcDbLine
 10
-2682.509766413538
 20
-735.8487130029862
 30
0.0
 11
-2505.50976641352
 21
-558.8487130029698
 31
0.0
  0
LINE
  5
223
330
1F
100
AcDbEntity
  8
ハッチ
  6
Continuous
 62
   120
370
     5
100
AcDbLine
 10
-2741.906736033222
 20
-735.8487130029721
 30
0.0
 11
-2564.906736033221
 21
-558.8487130029698
 31
0.0
  0
LINE
  5
224
330
1F
100
AcDbEntity
  8
ハッチ
  6
Continuous
 62
   120
370
     5
100
AcDbLine
 10
-2801.303705652881
 20
-735.8487130029823
 30
0.0
 11
-2624.303705652871
 21
-558.8487130029698
 31
0.0
  0
LINE
  5
225
330
1F
100
AcDbEntity
  8
ハッチ
  6
Continuous
 62
   120
370
     5
100
AcDbLine
 10
-2233.127948695528
 20
-642.8487130029705
 30
0.0
 11
-2149.12794869553
 21
-558.8487130029698
 31
0.0
  0
LINE
  5
226
330
1F
100
AcDbEntity
  8
ハッチ
  6
Continuous
 62
   120
370
     5
100
AcDbLine
 10
-2351.921887934877
 20
-642.8487130029705
 30
0.0
 11
-2267.921887934875
 21
-558.8487130029698
 31
0.0
  0
LINE
  5
227
330
1F
100
AcDbEntity
  8
ハッチ
  6
Continuous
 62
   120
370
     5
100
AcDbLine
 10
-2292.524918315175
 20
-642.8487130029705
 30
0.0
 11
-2208.524918315176
 21
-558.8487130029698
 31
0.0
  0
LINE
  5
228
330
1F
100
AcDbEntity
  8
ハッチ
  6
Continuous
 62
   120
370
     5
100
AcDbLine
 10
-2411.318857554525
 20
-642.8487130029705
 30
0.0
 11
-2327.318857554526
 21
-558.8487130029698
 31
0.0
  0
LINE
  5
229
330
1F
100
AcDbEntity
  8
ハッチ
  6
Continuous
 62
   120
370
     5
100
AcDbLine
 10
-2530.11279679387
 20
-642.8487130029705
 30
0.0
 11
-2446.112796793872
 21
-558.8487130029698
 31
0.0
  0
LINE
  5
22A
330
1F
100
AcDbEntity
  8
ハッチ
  6
Continuous
 62
   120
370
     5
100
AcDbLine
 10
-2470.715827174171
 20
-642.8487130029705
 30
0.0
 11
-2386.715827174173
 21
-558.8487130029698
 31
0.0
  0
LINE
  5
22B
330
1F
100
AcDbEntity
  8
ハッチ
  6
Continuous
 62
   120
370
     5
100
AcDbLine
 10
-2183.1339966188
 20
-711.6487001655923
 30
0.0
 11
-2032.533996618801
 21
-561.0487001655895
 31
0.0
  0
LINE
  5
22C
330
1F
100
AcDbEntity
  8
ハッチ
  6
Continuous
 62
   120
370
     5
100
AcDbLine
 10
-1973.937039836472
 20
-561.8487130029691
 30
0.0
 11
-2147.937039836474
 21
-735.8487130029687
 31
0.0
  0
LINE
  5
22D
330
1F
100
AcDbEntity
  8
仕上げ
  6
Continuous
 62
    40
370
     5
100
AcDbLine
 10
-2773.5339966188
 20
-558.8487130029698
 30
0.0
 11
-2773.5339966188
 21
-210.8487130029482
 31
0.0
  0
LINE
  5
22E
330
1F
100
AcDbEntity
  8
仕上げ
  6
Continuous
 62
    40
370
     5
100
AcDbLine
 10
-1993.5339966188
 20
-558.8487130029698
 30
0.0
 11
-1993.5339966188
 21
-210.8487130029482
 31
0.0
  0
LINE
  5
22F
330
1F
100
AcDbEntity
  8
仕上げ
  6
Continuous
 62
    40
370
     5
100
AcDbLine
 10
-2698.5339966188
 20
-558.8487130029698
 30
0.0
 11
-2698.5339966188
 21
-210.8487130029482
 31
0.0
  0
LINE
  5
230
330
1F
100
AcDbEntity
  8
仕上げ
  6
Continuous
 62
    40
370
     5
100
AcDbLine
 10
-2068.5339966188
 20
-558.8487130029698
 30
0.0
 11
-2068.5339966188
 21
-210.8487130029482
 31
0.0
  0
LINE
  5
231
330
1F
100
AcDbEntity
  8
ハッチ
  6
JWW_DASHED1
 62
   120
370
     5
100
AcDbLine
 10
-2770.751596855916
 20
-558.8487130029698
 30
0.0
 11
-2698.533996618811
 21
-486.6311127658655
 31
0.0
  0
LINE
  5
232
330
1F
100
AcDbEntity
  8
ハッチ
  6
JWW_DASHED1
 62
   120
370
     5
100
AcDbLine
 10
-2068.5339966188
 20
-493.0272158336794
 30
0.0
 11
-1993.533996618809
 21
-418.027215833685
 31
0.0
  0
LINE
  5
233
330
1F
100
AcDbEntity
  8
ハッチ
  6
JWW_DASHED1
 62
   120
370
     5
100
AcDbLine
 10
-2068.5339966188
 20
-535.4536227048862
 30
0.0
 11
-1993.533996618804
 21
-460.4536227048816
 31
0.0
  0
LINE
  5
234
330
1F
100
AcDbEntity
  8
ハッチ
  6
JWW_DASHED1
 62
   120
370
     5
100
AcDbLine
 10
-2049.502680045693
 20
-558.8487130029698
 30
0.0
 11
-1993.533996618814
 21
-502.8800295760939
 31
0.0
  0
LINE
  5
235
330
1F
100
AcDbEntity
  8
ハッチ
  6
JWW_DASHED1
 62
   120
370
     5
100
AcDbLine
 10
-2007.076273174476
 20
-558.8487130029698
 30
0.0
 11
-1993.533996618814
 21
-545.3064364473089
 31
0.0
  0
LINE
  5
236
330
1F
100
AcDbEntity
  8
ハッチ
  6
JWW_DASHED1
 62
   120
370
     5
100
AcDbLine
 10
-2728.325189984703
 20
-558.8487130029698
 30
0.0
 11
-2698.533996618811
 21
-529.0575196370787
 31
0.0
  0
LINE
  5
237
330
1F
100
AcDbEntity
  8
0-4_枠
  6
Continuous
 62
   120
370
     5
100
AcDbLine
 10
-2848.533996618798
 20
-558.8487130029698
 30
0.0
 11
-2848.533996618798
 21
-1884.848713002964
 31
0.0
  0
LINE
  5
238
330
1F
100
AcDbEntity
  8
0-4_枠
  6
Continuous
 62
   120
370
     5
100
AcDbLine
 10
-1918.533996618798
 20
-1884.848713002964
 30
0.0
 11
-1918.533996618798
 21
-558.8487130029698
 31
0.0
  0
LINE
  5
239
330
1F
100
AcDbEntity
  8
0-2_柱
  6
Continuous
 62
    92
370
     5
100
AcDbLine
 10
-2698.5339966188
 20
-558.8487130029698
 30
0.0
 11
-2068.5339966188
 21
-558.8487130029698
 31
0.0
  0
LINE
  5
23A
330
1F
100
AcDbEntity
  8
0-2_柱
  6
Continuous
 62
     7
370
     5
100
AcDbLine
 10
-2698.5339966188
 20
-558.8487130029698
 30
0.0
 11
-2068.5339966188
 21
-396.8487130029692
 31
0.0
  0
LINE
  5
23B
330
1F
100
AcDbEntity
  8
0-2_柱
  6
Continuous
 62
    92
370
     5
100
AcDbLine
 10
-2698.5339966188
 20
-396.8487130029692
 30
0.0
 11
-2068.5339966188
 21
-396.8487130029692
 31
0.0
  0
LINE
  5
23C
330
1F
100
AcDbEntity
  8
0-7_金物
  6
Continuous
 62
     7
370
     5
100
AcDbLine
 10
-2450.133996065446
 20
-1033.448712718385
 30
0.0
 11
-2450.133996065446
 21
-963.2487127183856
 31
0.0
  0
ARC
  5
23D
330
1F
100
AcDbEntity
  8
0-7_金物
  6
Continuous
 62
     7
370
     5
100
AcDbCircle
 10
-2497.533996065447
 20
-1033.448712718385
 30
0.0
 40
47.40000000000003
100
AcDbArc
 50
180.0
 51
0.0
  0
LINE
  5
23E
330
1F
100
AcDbEntity
  8
0-7_金物
  6
Continuous
 62
     7
370
     5
100
AcDbLine
 10
-2544.933996065446
 20
-963.2487127183856
 30
0.0
 11
-2544.933996065446
 21
-1033.448712718385
 31
0.0
  0
ARC
  5
23F
330
1F
100
AcDbEntity
  8
0-7_金物
  6
Continuous
 62
     7
370
     5
100
AcDbCircle
 10
-2497.533996065447
 20
-1033.448712718385
 30
0.0
 40
41.40000000000003
100
AcDbArc
 50
180.0
 51
0.0
  0
LINE
  5
240
330
1F
100
AcDbEntity
  8
0-7_金物
  6
Continuous
 62
     7
370
     5
100
AcDbLine
 10
-2538.933996065447
 20
-1033.448712718385
 30
0.0
 11
-2538.933996065447
 21
-963.2487127183856
 31
0.0
  0
LINE
  5
241
330
1F
100
AcDbEntity
  8
0-7_金物
  6
Continuous
 62
     7
370
     5
100
AcDbLine
 10
-2450.133996065446
 20
-963.2487127183856
 30
0.0
 11
-2456.133996065445
 21
-963.2487127183856
 31
0.0
  0
LINE
  5
242
330
1F
100
AcDbEntity
  8
0-7_金物
  6
Continuous
 62
     7
370
     5
100
AcDbLine
 10
-2456.133996065445
 20
-963.2487127183856
 30
0.0
 11
-2456.133996065445
 21
-1033.448712718385
 31
0.0
  0
LINE
  5
243
330
1F
100
AcDbEntity
  8
0-7_金物
  6
Continuous
 62
     7
370
     5
100
AcDbLine
 10
-2538.933996065447
 20
-963.2487127183856
 30
0.0
 11
-2544.933996065446
 21
-963.2487127183856
 31
0.0
  0
LINE
  5
244
330
1F
100
AcDbEntity
  8
0-7_金物
  6
Continuous
 62
     7
370
     5
100
AcDbLine
 10
-2522.733996065445
 20
-963.2487127183856
 30
0.0
 11
-2522.733996065445
 21
-969.2487127183836
 31
0.0
  0
LINE
  5
245
330
1F
100
AcDbEntity
  8
0-7_金物
  6
Continuous
 62
     7
370
     5
100
AcDbLine
 10
-2534.133996065445
 20
-969.2487127183836
 30
0.0
 11
-2522.733996065445
 21
-969.2487127183836
 31
0.0
  0
LINE
  5
246
330
1F
100
AcDbEntity
  8
0-7_金物
  6
Continuous
 62
     7
370
     5
100
AcDbLine
 10
-2534.133996065445
 20
-969.2487127183836
 30
0.0
 11
-2534.133996065445
 21
-997.4487127183835
 31
0.0
  0
LINE
  5
247
330
1F
100
AcDbEntity
  8
0-7_金物
  6
Continuous
 62
     7
370
     5
100
AcDbLine
 10
-2522.733996065445
 20
-997.4487127183835
 30
0.0
 11
-2534.133996065445
 21
-997.4487127183835
 31
0.0
  0
LINE
  5
248
330
1F
100
AcDbEntity
  8
0-7_金物
  6
Continuous
 62
     7
370
     5
100
AcDbLine
 10
-2522.733996065445
 20
-997.4487127183835
 30
0.0
 11
-2522.733996065445
 21
-1008.848712718385
 31
0.0
  0
LINE
  5
249
330
1F
100
AcDbEntity
  8
0-7_金物
  6
Continuous
 62
     7
370
     5
100
AcDbLine
 10
-2472.333996065446
 20
-1008.848712718385
 30
0.0
 11
-2472.333996065446
 21
-997.4487127183835
 31
0.0
  0
LINE
  5
24A
330
1F
100
AcDbEntity
  8
0-7_金物
  6
Continuous
 62
     7
370
     5
100
AcDbLine
 10
-2460.933996065446
 20
-997.4487127183835
 30
0.0
 11
-2472.333996065446
 21
-997.4487127183835
 31
0.0
  0
LINE
  5
24B
330
1F
100
AcDbEntity
  8
0-7_金物
  6
Continuous
 62
     7
370
     5
100
AcDbLine
 10
-2460.933996065446
 20
-997.4487127183835
 30
0.0
 11
-2460.933996065446
 21
-969.2487127183836
 31
0.0
  0
LINE
  5
24C
330
1F
100
AcDbEntity
  8
0-7_金物
  6
Continuous
 62
     7
370
     5
100
AcDbLine
 10
-2472.333996065446
 20
-969.2487127183836
 30
0.0
 11
-2460.933996065446
 21
-969.2487127183836
 31
0.0
  0
LINE
  5
24D
330
1F
100
AcDbEntity
  8
0-7_金物
  6
Continuous
 62
     7
370
     5
100
AcDbLine
 10
-2472.333996065446
 20
-969.2487127183836
 30
0.0
 11
-2472.333996065446
 21
-963.2487127183856
 31
0.0
  0
LINE
  5
24E
330
1F
100
AcDbEntity
  8
0-7_金物
  6
Continuous
 62
     7
370
     5
100
AcDbLine
 10
-2456.133996065445
 20
-963.2487127183856
 30
0.0
 11
-2472.333996065446
 21
-963.2487127183856
 31
0.0
  0
LINE
  5
24F
330
1F
100
AcDbEntity
  8
0-7_金物
  6
Continuous
 62
     7
370
     5
100
AcDbLine
 10
-2522.733996065445
 20
-963.2487127183856
 30
0.0
 11
-2538.933996065447
 21
-963.2487127183856
 31
0.0
  0
LINE
  5
250
330
1F
100
AcDbEntity
  8
0-7_金物
  6
Continuous
 62
     7
370
     5
100
AcDbLine
 10
-2460.933996065446
 20
-975.2487127183849
 30
0.0
 11
-2472.333996065446
 21
-975.2487127183849
 31
0.0
  0
LINE
  5
251
330
1F
100
AcDbEntity
  8
0-7_金物
  6
Continuous
 62
     7
370
     5
100
AcDbLine
 10
-2472.333996065446
 20
-975.2487127183849
 30
0.0
 11
-2472.333996065446
 21
-969.2487127183836
 31
0.0
  0
LINE
  5
252
330
1F
100
AcDbEntity
  8
0-7_金物
  6
Continuous
 62
     7
370
     5
100
AcDbLine
 10
-2522.733996065445
 20
-975.2487127183849
 30
0.0
 11
-2534.133996065445
 21
-975.2487127183849
 31
0.0
  0
LINE
  5
253
330
1F
100
AcDbEntity
  8
0-7_金物
  6
Continuous
 62
     7
370
     5
100
AcDbLine
 10
-2522.733996065445
 20
-969.2487127183836
 30
0.0
 11
-2522.733996065445
 21
-975.2487127183849
 31
0.0
  0
LINE
  5
254
330
1F
100
AcDbEntity
  8
0-7_金物
  6
Continuous
 62
     7
370
     5
100
AcDbLine
 10
-2472.333996065446
 20
-991.4487127183838
 30
0.0
 11
-2460.933996065446
 21
-991.4487127183838
 31
0.0
  0
LINE
  5
255
330
1F
100
AcDbEntity
  8
0-7_金物
  6
Continuous
 62
     7
370
     5
100
AcDbLine
 10
-2472.333996065446
 20
-997.4487127183835
 30
0.0
 11
-2472.333996065446
 21
-991.4487127183838
 31
0.0
  0
LINE
  5
256
330
1F
100
AcDbEntity
  8
0-7_金物
  6
Continuous
 62
     7
370
     5
100
AcDbLine
 10
-2534.133996065445
 20
-991.4487127183838
 30
0.0
 11
-2522.733996065445
 21
-991.4487127183838
 31
0.0
  0
LINE
  5
257
330
1F
100
AcDbEntity
  8
0-7_金物
  6
Continuous
 62
     7
370
     5
100
AcDbLine
 10
-2522.733996065445
 20
-991.4487127183838
 30
0.0
 11
-2522.733996065445
 21
-997.4487127183835
 31
0.0
  0
LINE
  5
258
330
1F
100
AcDbEntity
  8
0-7_金物
  6
Continuous
 62
     7
370
     5
100
AcDbLine
 10
-2468.133996065446
 20
-962.648712718384
 30
0.0
 11
-2468.133996065446
 21
-963.2487127183856
 31
0.0
  0
LINE
  5
259
330
1F
100
AcDbEntity
  8
0-7_金物
  6
Continuous
 62
     7
370
     5
100
AcDbLine
 10
-2450.133996065446
 20
-962.648712718384
 30
0.0
 11
-2450.133996065446
 21
-963.2487127183856
 31
0.0
  0
LINE
  5
25A
330
1F
100
AcDbEntity
  8
0-7_金物
  6
Continuous
 62
     7
370
     5
100
AcDbLine
 10
-2526.933996065445
 20
-963.2487127183856
 30
0.0
 11
-2526.933996065445
 21
-962.648712718384
 31
0.0
  0
LINE
  5
25B
330
1F
100
AcDbEntity
  8
0-7_金物
  6
Continuous
 62
     7
370
     5
100
AcDbLine
 10
-2544.933996065446
 20
-962.648712718384
 30
0.0
 11
-2544.933996065446
 21
-963.2487127183856
 31
0.0
  0
ARC
  5
25C
330
1F
100
AcDbEntity
  8
0-7_金物
  6
Continuous
 62
     7
370
     5
100
AcDbCircle
 10
-2506.533996065446
 20
-873.8487127183851
 30
0.0
 40
6.0
100
AcDbArc
 50
270.0
 51
0.0
  0
LINE
  5
25D
330
1F
100
AcDbEntity
  8
0-7_金物
  6
Continuous
 62
     7
370
     5
100
AcDbLine
 10
-2512.533996065447
 20
-885.8487127183844
 30
0.0
 11
-2506.533996065446
 21
-885.8487127183844
 31
0.0
  0
ARC
  5
25E
330
1F
100
AcDbEntity
  8
0-7_金物
  6
Continuous
 62
     7
370
     5
100
AcDbCircle
 10
-2506.533996065446
 20
-891.848712718384
 30
0.0
 40
6.0
100
AcDbArc
 50
0.0
 51
90.0
  0
LINE
  5
25F
330
1F
100
AcDbEntity
  8
0-7_金物
  6
Continuous
 62
     7
370
     5
100
AcDbLine
 10
-2500.533996065445
 20
-891.848712718384
 30
0.0
 11
-2500.533996065445
 21
-897.8487127183854
 31
0.0
  0
ARC
  5
260
330
1F
100
AcDbEntity
  8
0-7_金物
  6
Continuous
 62
     7
370
     5
100
AcDbCircle
 10
-2482.533996065447
 20
-882.8487127183854
 30
0.0
 40
3.0
100
AcDbArc
 50
0.0
 51
90.0
  0
LINE
  5
261
330
1F
100
AcDbEntity
  8
0-7_金物
  6
Continuous
 62
     7
370
     5
100
AcDbLine
 10
-2494.533996065446
 20
-873.8487127183851
 30
0.0
 11
-2494.533996065446
 21
-867.8487127183854
 31
0.0
  0
ARC
  5
262
330
1F
100
AcDbEntity
  8
0-7_金物
  6
Continuous
 62
     7
370
     5
100
AcDbCircle
 10
-2497.533996065447
 20
-867.8487127183854
 30
0.0
 40
3.0
100
AcDbArc
 50
0.0
 51
90.0
  0
ARC
  5
263
330
1F
100
AcDbEntity
  8
0-7_金物
  6
Continuous
 62
     7
370
     5
100
AcDbCircle
 10
-2488.533996065446
 20
-891.848712718384
 30
0.0
 40
6.0
100
AcDbArc
 50
90.0
 51
180.0
  0
LINE
  5
264
330
1F
100
AcDbEntity
  8
0-7_金物
  6
Continuous
 62
     7
370
     5
100
AcDbLine
 10
-2488.533996065446
 20
-885.8487127183844
 30
0.0
 11
-2482.533996065447
 21
-885.8487127183844
 31
0.0
  0
LINE
  5
265
330
1F
100
AcDbEntity
  8
0-7_金物
  6
Continuous
 62
     7
370
     5
100
AcDbLine
 10
-2482.533996065447
 20
-879.8487127183843
 30
0.0
 11
-2488.533996065446
 21
-879.8487127183843
 31
0.0
  0
ARC
  5
266
330
1F
100
AcDbEntity
  8
0-7_金物
  6
Continuous
 62
     7
370
     5
100
AcDbCircle
 10
-2488.533996065446
 20
-873.8487127183851
 30
0.0
 40
6.0
100
AcDbArc
 50
180.0
 51
270.0
  0
ARC
  5
267
330
1F
100
AcDbEntity
  8
0-7_金物
  6
Continuous
 62
     7
370
     5
100
AcDbCircle
 10
-2497.533996065447
 20
-867.8487127183854
 30
0.0
 40
3.0
100
AcDbArc
 50
90.0
 51
180.0
  0
ARC
  5
268
330
1F
100
AcDbEntity
  8
0-7_金物
  6
Continuous
 62
     7
370
     5
100
AcDbCircle
 10
-2512.533996065447
 20
-882.8487127183854
 30
0.0
 40
3.0
100
AcDbArc
 50
180.0
 51
270.0
  0
LINE
  5
269
330
1F
100
AcDbEntity
  8
0-7_金物
  6
Continuous
 62
     7
370
     5
100
AcDbLine
 10
-2500.533996065445
 20
-867.8487127183854
 30
0.0
 11
-2500.533996065445
 21
-873.8487127183851
 31
0.0
  0
ARC
  5
26A
330
1F
100
AcDbEntity
  8
0-7_金物
  6
Continuous
 62
     7
370
     5
100
AcDbCircle
 10
-2482.533996065447
 20
-882.8487127183854
 30
0.0
 40
3.0
100
AcDbArc
 50
270.0
 51
0.0
  0
ARC
  5
26B
330
1F
100
AcDbEntity
  8
0-7_金物
  6
Continuous
 62
     7
370
     5
100
AcDbCircle
 10
-2497.533996065447
 20
-897.8487127183854
 30
0.0
 40
3.0
100
AcDbArc
 50
180.0
 51
270.0
  0
LINE
  5
26C
330
1F
100
AcDbEntity
  8
0-7_金物
  6
Continuous
 62
     7
370
     5
100
AcDbLine
 10
-2494.533996065446
 20
-897.8487127183854
 30
0.0
 11
-2494.533996065446
 21
-891.848712718384
 31
0.0
  0
LINE
  5
26D
330
1F
100
AcDbEntity
  8
0-7_金物
  6
Continuous
 62
     7
370
     5
100
AcDbLine
 10
-2506.533996065446
 20
-879.8487127183843
 30
0.0
 11
-2512.533996065447
 21
-879.8487127183843
 31
0.0
  0
ARC
  5
26E
330
1F
100
AcDbEntity
  8
0-7_金物
  6
Continuous
 62
     7
370
     5
100
AcDbCircle
 10
-2512.533996065447
 20
-882.8487127183854
 30
0.0
 40
3.0
100
AcDbArc
 50
90.0
 51
180.0
  0
ARC
  5
26F
330
1F
100
AcDbEntity
  8
0-7_金物
  6
Continuous
 62
     7
370
     5
100
AcDbCircle
 10
-2497.533996065447
 20
-897.8487127183854
 30
0.0
 40
3.0
100
AcDbArc
 50
270.0
 51
0.0
  0
LINE
  5
270
330
1F
100
AcDbEntity
  8
0-7_金物
  6
Continuous
 62
     7
370
     5
100
AcDbLine
 10
-2462.133996065445
 20
-1008.848712718385
 30
0.0
 11
-2462.133996065445
 21
-1026.848712718384
 31
0.0
  0
LINE
  5
271
330
1F
100
AcDbEntity
  8
0-7_金物
  6
Continuous
 62
     7
370
     5
100
AcDbLine
 10
-2468.133996065446
 20
-1026.848712718384
 30
0.0
 11
-2468.133996065446
 21
-1008.848712718385
 31
0.0
  0
LINE
  5
272
330
1F
100
AcDbEntity
  8
0-7_金物
  6
Continuous
 62
     7
370
     5
100
AcDbLine
 10
-2462.133996065445
 20
-1026.848712718384
 30
0.0
 11
-2468.133996065446
 21
-1026.848712718384
 31
0.0
  0
LINE
  5
273
330
1F
100
AcDbEntity
  8
0-7_金物
  6
Continuous
 62
     7
370
     5
100
AcDbLine
 10
-2468.133996065446
 20
-1008.848712718385
 30
0.0
 11
-2462.133996065445
 21
-1008.848712718385
 31
0.0
  0
LINE
  5
274
330
1F
100
AcDbEntity
  8
0-7_金物
  6
Continuous
 62
     7
370
     5
100
AcDbLine
 10
-2526.933996065445
 20
-1008.848712718385
 30
0.0
 11
-2526.933996065445
 21
-1026.848712718384
 31
0.0
  0
LINE
  5
275
330
1F
100
AcDbEntity
  8
0-7_金物
  6
Continuous
 62
     7
370
     5
100
AcDbLine
 10
-2468.133996065446
 20
-1026.848712718384
 30
0.0
 11
-2526.933996065445
 21
-1026.848712718384
 31
0.0
  0
LINE
  5
276
330
1F
100
AcDbEntity
  8
0-7_金物
  6
Continuous
 62
     7
370
     5
100
AcDbLine
 10
-2526.933996065445
 20
-1008.848712718385
 30
0.0
 11
-2468.133996065446
 21
-1008.848712718385
 31
0.0
  0
LINE
  5
277
330
1F
100
AcDbEntity
  8
0-7_金物
  6
Continuous
 62
     7
370
     5
100
AcDbLine
 10
-2544.933996065446
 20
-822.8487127183854
 30
0.0
 11
-2544.933996065446
 21
-962.648712718384
 31
0.0
  0
LINE
  5
278
330
1F
100
AcDbEntity
  8
0-7_金物
  6
Continuous
 62
     7
370
     5
100
AcDbLine
 10
-2450.133996065446
 20
-822.8487127183854
 30
0.0
 11
-2450.133996065446
 21
-962.648712718384
 31
0.0
  0
CIRCLE
  5
279
330
1F
100
AcDbEntity
  8
0-7_金物
  6
Continuous
 62
     7
370
     5
100
AcDbCircle
 10
-2497.533996065447
 20
-882.8487127183854
 30
0.0
 40
21.00000000000001
  0
LINE
  5
27A
330
1F
100
AcDbEntity
  8
0-7_金物
  6
Continuous
 62
     7
370
     5
100
AcDbLine
 10
-2450.133996065446
 20
-962.648712718384
 30
0.0
 11
-2544.933996065446
 21
-962.648712718384
 31
0.0
  0
LINE
  5
27B
330
1F
100
AcDbEntity
  8
0-7_金物
  6
Continuous
 62
     7
370
     5
100
AcDbLine
 10
-2532.933996065445
 20
-1026.848712718384
 30
0.0
 11
-2532.933996065445
 21
-1008.848712718385
 31
0.0
  0
LINE
  5
27C
330
1F
100
AcDbEntity
  8
0-7_金物
  6
Continuous
 62
     7
370
     5
100
AcDbLine
 10
-2526.933996065445
 20
-1026.848712718384
 30
0.0
 11
-2532.933996065445
 21
-1026.848712718384
 31
0.0
  0
LINE
  5
27D
330
1F
100
AcDbEntity
  8
0-7_金物
  6
Continuous
 62
     7
370
     5
100
AcDbLine
 10
-2532.933996065445
 20
-1008.848712718385
 30
0.0
 11
-2526.933996065445
 21
-1008.848712718385
 31
0.0
  0
LINE
  5
27E
330
1F
100
AcDbEntity
  8
0-7_金物
  6
Continuous
 62
     7
370
     5
100
AcDbLine
 10
-2462.133996065445
 20
-990.8487127183844
 30
0.0
 11
-2532.933996065445
 21
-990.8487127183844
 31
0.0
  0
LINE
  5
27F
330
1F
100
AcDbEntity
  8
0-7_金物
  6
Continuous
 62
     7
370
     5
100
AcDbLine
 10
-2532.933996065445
 20
-990.8487127183844
 30
0.0
 11
-2532.933996065445
 21
-978.8487127183851
 31
0.0
  0
LINE
  5
280
330
1F
100
AcDbEntity
  8
0-7_金物
  6
Continuous
 62
     7
370
     5
100
AcDbLine
 10
-2532.933996065445
 20
-978.8487127183851
 30
0.0
 11
-2462.133996065445
 21
-978.8487127183851
 31
0.0
  0
LINE
  5
281
330
1F
100
AcDbEntity
  8
0-7_金物
  6
Continuous
 62
     7
370
     5
100
AcDbLine
 10
-2462.133996065445
 20
-978.8487127183851
 30
0.0
 11
-2462.133996065445
 21
-990.8487127183844
 31
0.0
  0
LINE
  5
282
330
1F
100
AcDbEntity
  8
0-7_金物
  6
Continuous
 62
     7
370
     5
100
AcDbLine
 10
-2521.533996065446
 20
-975.8487127183844
 30
0.0
 11
-2532.933996065445
 21
-975.8487127183844
 31
0.0
  0
LINE
  5
283
330
1F
100
AcDbEntity
  8
0-7_金物
  6
Continuous
 62
     7
370
     5
100
AcDbLine
 10
-2521.533996065446
 20
-975.8487127183844
 30
0.0
 11
-2521.533996065446
 21
-962.648712718384
 31
0.0
  0
LINE
  5
284
330
1F
100
AcDbEntity
  8
0-7_金物
  6
Continuous
 62
     7
370
     5
100
AcDbLine
 10
-2462.133996065445
 20
-975.8487127183844
 30
0.0
 11
-2473.533996065446
 21
-975.8487127183844
 31
0.0
  0
LINE
  5
285
330
1F
100
AcDbEntity
  8
0-7_金物
  6
Continuous
 62
     7
370
     5
100
AcDbLine
 10
-2473.533996065446
 20
-962.648712718384
 30
0.0
 11
-2473.533996065446
 21
-975.8487127183844
 31
0.0
  0
LINE
  5
286
330
1F
100
AcDbEntity
  8
0-7_金物
  6
Continuous
 62
     7
370
     5
100
AcDbLine
 10
-2462.133996065445
 20
-978.8487127183851
 30
0.0
 11
-2462.133996065445
 21
-975.8487127183844
 31
0.0
  0
LINE
  5
287
330
1F
100
AcDbEntity
  8
0-7_金物
  6
Continuous
 62
     7
370
     5
100
AcDbLine
 10
-2532.933996065445
 20
-975.8487127183844
 30
0.0
 11
-2532.933996065445
 21
-978.8487127183851
 31
0.0
  0
LINE
  5
288
330
1F
100
AcDbEntity
  8
0-7_金物
  6
Continuous
 62
     7
370
     5
100
AcDbLine
 10
-2506.533996065446
 20
-990.8487127183844
 30
0.0
 11
-2506.533996065446
 21
-1008.848712718385
 31
0.0
  0
LINE
  5
289
330
1F
100
AcDbEntity
  8
0-7_金物
  6
Continuous
 62
     7
370
     5
100
AcDbLine
 10
-2488.533996065446
 20
-990.8487127183844
 30
0.0
 11
-2488.533996065446
 21
-1008.848712718385
 31
0.0
  0
LINE
  5
28A
330
1F
100
AcDbEntity
  8
0-7_金物
  6
Continuous
 62
     7
370
     5
100
AcDbLine
 10
-2521.533996065446
 20
-1002.848712718385
 30
0.0
 11
-2506.533996065446
 21
-1002.848712718385
 31
0.0
  0
LINE
  5
28B
330
1F
100
AcDbEntity
  8
0-7_金物
  6
Continuous
 62
     7
370
     5
100
AcDbLine
 10
-2521.533996065446
 20
-1008.848712718385
 30
0.0
 11
-2521.533996065446
 21
-1002.848712718385
 31
0.0
  0
LINE
  5
28C
330
1F
100
AcDbEntity
  8
0-7_金物
  6
Continuous
 62
     7
370
     5
100
AcDbLine
 10
-2488.533996065446
 20
-1002.848712718385
 30
0.0
 11
-2473.533996065446
 21
-1002.848712718385
 31
0.0
  0
LINE
  5
28D
330
1F
100
AcDbEntity
  8
0-7_金物
  6
Continuous
 62
     7
370
     5
100
AcDbLine
 10
-2473.533996065446
 20
-1002.848712718385
 30
0.0
 11
-2473.533996065446
 21
-1008.848712718385
 31
0.0
  0
LINE
  5
28E
330
1F
100
AcDbEntity
  8
0-7_金物
  6
Continuous
 62
     7
370
     5
100
AcDbLine
 10
-2473.533996065446
 20
-990.8487127183844
 30
0.0
 11
-2473.533996065446
 21
-1002.848712718385
 31
0.0
  0
LINE
  5
28F
330
1F
100
AcDbEntity
  8
0-7_金物
  6
Continuous
 62
     7
370
     5
100
AcDbLine
 10
-2521.533996065446
 20
-1002.848712718385
 30
0.0
 11
-2521.533996065446
 21
-990.8487127183844
 31
0.0
  0
LINE
  5
290
330
1F
100
AcDbEntity
  8
0-7_金物
  6
Continuous
 62
     7
370
     5
100
AcDbLine
 10
-2529.03399606544
 20
-725.0487127183857
 30
0.0
 11
-2529.03399606544
 21
-794.6487127183838
 31
0.0
  0
LINE
  5
291
330
1F
100
AcDbEntity
  8
0-7_金物
  6
Continuous
 62
     7
370
     5
100
AcDbLine
 10
-2529.03399606544
 20
-707.0487127183845
 30
0.0
 11
-2529.03399606544
 21
-725.0487127183857
 31
0.0
  0
LINE
  5
292
330
1F
100
AcDbEntity
  8
0-7_金物
  6
Continuous
 62
     7
370
     5
100
AcDbLine
 10
-2466.033996065441
 20
-725.0487127183857
 30
0.0
 11
-2466.033996065441
 21
-707.0487127183845
 31
0.0
  0
LINE
  5
293
330
1F
100
AcDbEntity
  8
0-7_金物
  6
Continuous
 62
     7
370
     5
100
AcDbLine
 10
-2529.03399606544
 20
-794.6487127183838
 30
0.0
 11
-2529.03399606544
 21
-821.0487127183853
 31
0.0
  0
LINE
  5
294
330
1F
100
AcDbEntity
  8
0-7_金物
  6
Continuous
 62
     7
370
     5
100
AcDbLine
 10
-2466.033996065441
 20
-821.0487127183853
 30
0.0
 11
-2466.033996065441
 21
-794.6487127183838
 31
0.0
  0
LINE
  5
295
330
1F
100
AcDbEntity
  8
0-7_金物
  6
Continuous
 62
     7
370
     5
100
AcDbLine
 10
-2473.533996065441
 20
-821.0487127183853
 30
0.0
 11
-2521.53399606544
 21
-821.0487127183853
 31
0.0
  0
LINE
  5
296
330
1F
100
AcDbEntity
  8
0-7_金物
  6
Continuous
 62
     7
370
     5
100
AcDbLine
 10
-2521.53399606544
 20
-821.0487127183853
 30
0.0
 11
-2521.53399606544
 21
-822.8487127183854
 31
0.0
  0
LINE
  5
297
330
1F
100
AcDbEntity
  8
0-7_金物
  6
Continuous
 62
     7
370
     5
100
AcDbLine
 10
-2473.533996065441
 20
-822.8487127183854
 30
0.0
 11
-2473.533996065441
 21
-821.0487127183853
 31
0.0
  0
LINE
  5
298
330
1F
100
AcDbEntity
  8
0-7_金物
  6
Continuous
 62
     7
370
     5
100
AcDbLine
 10
-2548.533996065441
 20
-683.0487127183846
 30
0.0
 11
-2548.533996065441
 21
-707.0487127183845
 31
0.0
  0
LINE
  5
299
330
1F
100
AcDbEntity
  8
0-7_金物
  6
Continuous
 62
     7
370
     5
100
AcDbLine
 10
-2524.533996065439
 20
-683.0487127183846
 30
0.0
 11
-2548.533996065441
 21
-683.0487127183846
 31
0.0
  0
LINE
  5
29A
330
1F
100
AcDbEntity
  8
0-7_金物
  6
Continuous
 62
     7
370
     5
100
AcDbLine
 10
-2524.533996065439
 20
-695.0487127183857
 30
0.0
 11
-2524.533996065439
 21
-683.0487127183846
 31
0.0
  0
LINE
  5
29B
330
1F
100
AcDbEntity
  8
0-7_金物
  6
Continuous
 62
     7
370
     5
100
AcDbLine
 10
-2470.533996065441
 20
-695.0487127183857
 30
0.0
 11
-2524.533996065439
 21
-695.0487127183857
 31
0.0
  0
LINE
  5
29C
330
1F
100
AcDbEntity
  8
0-7_金物
  6
Continuous
 62
     7
370
     5
100
AcDbLine
 10
-2470.533996065441
 20
-683.0487127183846
 30
0.0
 11
-2470.533996065441
 21
-695.0487127183857
 31
0.0
  0
LINE
  5
29D
330
1F
100
AcDbEntity
  8
0-7_金物
  6
Continuous
 62
     7
370
     5
100
AcDbLine
 10
-2446.53399606544
 20
-707.0487127183845
 30
0.0
 11
-2446.53399606544
 21
-683.0487127183846
 31
0.0
  0
LINE
  5
29E
330
1F
100
AcDbEntity
  8
0-7_金物
  6
Continuous
 62
     7
370
     5
100
AcDbLine
 10
-2497.53399606544
 20
-707.0487127183845
 30
0.0
 11
-2446.53399606544
 21
-707.0487127183845
 31
0.0
  0
LINE
  5
29F
330
1F
100
AcDbEntity
  8
0-7_金物
  6
Continuous
 62
     7
370
     5
100
AcDbLine
 10
-2548.533996065441
 20
-707.0487127183845
 30
0.0
 11
-2497.53399606544
 21
-707.0487127183845
 31
0.0
  0
LINE
  5
2A0
330
1F
100
AcDbEntity
  8
0-7_金物
  6
Continuous
 62
     7
370
     5
100
AcDbLine
 10
-2446.53399606544
 20
-683.0487127183846
 30
0.0
 11
-2470.533996065441
 21
-683.0487127183846
 31
0.0
  0
LINE
  5
2A1
330
1F
100
AcDbEntity
  8
0-7_金物
  6
Continuous
 62
     7
370
     5
100
AcDbLine
 10
-2466.033996065441
 20
-794.6487127183838
 30
0.0
 11
-2497.53399606544
 21
-794.6487127183838
 31
0.0
  0
LINE
  5
2A2
330
1F
100
AcDbEntity
  8
0-7_金物
  6
Continuous
 62
     7
370
     5
100
AcDbLine
 10
-2497.53399606544
 20
-725.0487127183857
 30
0.0
 11
-2466.033996065441
 21
-725.0487127183857
 31
0.0
  0
LINE
  5
2A3
330
1F
100
AcDbEntity
  8
0-7_金物
  6
Continuous
 62
     7
370
     5
100
AcDbLine
 10
-2497.53399606544
 20
-794.6487127183838
 30
0.0
 11
-2529.03399606544
 21
-794.6487127183838
 31
0.0
  0
LINE
  5
2A4
330
1F
100
AcDbEntity
  8
0-7_金物
  6
Continuous
 62
     7
370
     5
100
AcDbLine
 10
-2529.03399606544
 20
-725.0487127183857
 30
0.0
 11
-2497.53399606544
 21
-725.0487127183857
 31
0.0
  0
LINE
  5
2A5
330
1F
100
AcDbEntity
  8
0-7_金物
  6
Continuous
 62
     7
370
     5
100
AcDbLine
 10
-2466.033996065441
 20
-794.6487127183838
 30
0.0
 11
-2466.033996065441
 21
-725.0487127183857
 31
0.0
  0
LINE
  5
2A6
330
1F
100
AcDbEntity
  8
0-7_金物
  6
Continuous
 62
     7
370
     5
100
AcDbLine
 10
-2473.533996065441
 20
-821.0487127183853
 30
0.0
 11
-2466.033996065441
 21
-821.0487127183853
 31
0.0
  0
LINE
  5
2A7
330
1F
100
AcDbEntity
  8
0-7_金物
  6
Continuous
 62
     7
370
     5
100
AcDbLine
 10
-2529.03399606544
 20
-821.0487127183853
 30
0.0
 11
-2521.53399606544
 21
-821.0487127183853
 31
0.0
  0
LINE
  5
2A8
330
1F
100
AcDbEntity
  8
0-7_金物
  6
Continuous
 62
     7
370
     5
100
AcDbLine
 10
-2531.434221647571
 20
-642.8487127183871
 30
0.0
 11
-2463.63377048331
 21
-642.8487127183854
 31
0.0
  0
LINE
  5
2A9
330
1F
100
AcDbEntity
  8
0-7_金物
  6
Continuous
 62
     7
370
     5
100
AcDbLine
 10
-2416.533457063892
 20
-642.8487127183871
 30
0.0
 11
-2417.733996065441
 21
-642.8487127183854
 31
0.0
  0
LINE
  5
2AA
330
1F
100
AcDbEntity
  8
0-7_金物
  6
Continuous
 62
     7
370
     5
100
AcDbLine
 10
-2578.533996065441
 20
-642.8487127183854
 30
0.0
 11
-2577.33399606544
 21
-642.8487127183854
 31
0.0
  0
LINE
  5
2AB
330
1F
100
AcDbEntity
  8
0-7_金物
  6
Continuous
 62
     7
370
     5
100
AcDbLine
 10
-2450.13399606544
 20
-822.8487127183854
 30
0.0
 11
-2544.933996065442
 21
-822.8487127183854
 31
0.0
  0
LINE
  5
2AC
330
1F
100
AcDbEntity
  8
0-7_金物
  6
Continuous
 62
     7
370
     5
100
AcDbLine
 10
-2420.733485012119
 20
-760.5873486444244
 30
0.0
 11
-2420.733485012119
 21
-675.8489323116078
 31
0.0
  0
ARC
  5
2AD
330
1F
100
AcDbEntity
  8
0-7_金物
  6
Continuous
 62
     7
370
     5
100
AcDbCircle
 10
-2445.933652701489
 20
-744.8493914610788
 30
0.0
 40
30.00019963020328
100
AcDbArc
 50
238.109208198154
 51
326.0768879967404
  0
ARC
  5
2AE
330
1F
100
AcDbEntity
  8
0-7_金物
  6
Continuous
 62
     7
370
     5
100
AcDbCircle
 10
-2462.733764494405
 20
-771.8495711282605
 30
0.0
 40
1.800011977811773
100
AcDbArc
 50
58.10920819813639
 51
180.0
  0
ARC
  5
2AF
330
1F
100
AcDbEntity
  8
0-7_金物
  6
Continuous
 62
     7
370
     5
100
AcDbCircle
 10
-2422.533496989935
 20
-760.5873486444244
 30
0.0
 40
1.800011977815348
100
AcDbArc
 50
326.076887996758
 51
0.0000000000000127
  0
LINE
  5
2B0
330
1F
100
AcDbEntity
  8
0-7_金物
  6
Continuous
 62
     7
370
     5
100
AcDbLine
 10
-2469.633810409352
 20
-662.0488404817149
 30
0.0
 11
-2469.633810409352
 21
-653.6487845852571
 31
0.0
  0
LINE
  5
2B1
330
1F
100
AcDbEntity
  8
0-7_金物
  6
Continuous
 62
     7
370
     5
100
AcDbLine
 10
-2460.633750520291
 20
-651.8487726074454
 30
0.0
 11
-2460.633750520291
 21
-645.8487326814065
 31
0.0
  0
LINE
  5
2B2
330
1F
100
AcDbEntity
  8
0-7_金物
  6
Continuous
 62
     7
370
     5
100
AcDbLine
 10
-2423.73350497514
 20
-654.8487925704661
 30
0.0
 11
-2457.633730557269
 21
-654.8487925704661
 31
0.0
  0
LINE
  5
2B3
330
1F
100
AcDbEntity
  8
0-7_金物
  6
Continuous
 62
     7
370
     5
100
AcDbLine
 10
-2432.733564864201
 20
-663.8488524595283
 30
0.0
 11
-2467.83379843154
 21
-663.8488524595283
 31
0.0
  0
LINE
  5
2B4
330
1F
100
AcDbEntity
  8
0-7_金物
  6
Continuous
 62
     7
370
     5
100
AcDbLine
 10
-2420.733485012119
 20
-651.8487726074454
 30
0.0
 11
-2420.733485012119
 21
-645.8487326814065
 31
0.0
  0
ARC
  5
2B5
330
1F
100
AcDbEntity
  8
0-7_金物
  6
Continuous
 62
     7
370
     5
100
AcDbCircle
 10
-2463.63377048331
 20
-645.8487326814048
 30
0.0
 40
3.000019963019752
100
AcDbArc
 50
0.0
 51
90.00000000000163
  0
ARC
  5
2B6
330
1F
100
AcDbEntity
  8
0-7_金物
  6
Continuous
 62
     7
370
     5
100
AcDbCircle
 10
-2457.63373055727
 20
-651.8487726074454
 30
0.0
 40
3.000019963020116
100
AcDbArc
 50
180.0
 51
270.0000000000049
  0
ARC
  5
2B7
330
1F
100
AcDbEntity
  8
0-7_金物
  6
Continuous
 62
     7
370
     5
100
AcDbCircle
 10
-2423.73350497514
 20
-651.8487726074454
 30
0.0
 40
3.000019963020043
100
AcDbArc
 50
269.9999999999951
 51
0.0
  0
ARC
  5
2B8
330
1F
100
AcDbEntity
  8
0-7_金物
  6
Continuous
 62
     7
370
     5
100
AcDbCircle
 10
-2417.733465049099
 20
-645.8487326814048
 30
0.0
 40
3.000019963019753
100
AcDbArc
 50
89.99999999999022
 51
180.0
  0
ARC
  5
2B9
330
1F
100
AcDbEntity
  8
0-7_金物
  6
Continuous
 62
     7
370
     5
100
AcDbCircle
 10
-2416.533457063892
 20
-645.8487326814065
 30
0.0
 40
3.000019963020626
100
AcDbArc
 50
0.0
 51
89.99999999999349
  0
ARC
  5
2BA
330
1F
100
AcDbEntity
  8
0-7_金物
  6
Continuous
 62
     7
370
     5
100
AcDbCircle
 10
-2432.733564864201
 20
-675.848932311609
 30
0.0
 40
12.00007985208206
100
AcDbArc
 50
0.0
 51
89.99999999999841
  0
ARC
  5
2BB
330
1F
100
AcDbEntity
  8
0-7_金物
  6
Continuous
 62
     7
370
     5
100
AcDbCircle
 10
-2467.83379843154
 20
-662.0488404817149
 30
0.0
 40
1.800011977812318
100
AcDbArc
 50
180.0
 51
269.9999999999968
  0
LINE
  5
2BC
330
1F
100
AcDbEntity
  8
0-7_金物
  6
Continuous
 62
     7
370
     5
100
AcDbLine
 10
-2574.334507118761
 20
-760.5873486444244
 30
0.0
 11
-2574.334507118761
 21
-675.8489323116078
 31
0.0
  0
ARC
  5
2BD
330
1F
100
AcDbEntity
  8
0-7_金物
  6
Continuous
 62
     7
370
     5
100
AcDbCircle
 10
-2572.534495140957
 20
-760.5873486444261
 30
0.0
 40
1.80001197780369
100
AcDbArc
 50
180.0
 51
213.9231120033558
  0
LINE
  5
2BE
330
1F
100
AcDbEntity
  8
0-7_金物
  6
Continuous
 62
     7
370
     5
100
AcDbLine
 10
-2562.33442726668
 20
-663.8488524595283
 30
0.0
 11
-2527.234193699341
 21
-663.8488524595283
 31
0.0
  0
LINE
  5
2BF
330
1F
100
AcDbEntity
  8
0-7_金物
  6
Continuous
 62
     7
370
     5
100
AcDbLine
 10
-2571.334487155741
 20
-654.8487925704661
 30
0.0
 11
-2537.434261573612
 21
-654.8487925704661
 31
0.0
  0
ARC
  5
2C0
330
1F
100
AcDbEntity
  8
0-7_金物
  6
Continuous
 62
     7
370
     5
100
AcDbCircle
 10
-2562.33442726668
 20
-675.8489323116078
 30
0.0
 40
12.00007985208111
100
AcDbArc
 50
90.0
 51
180.0
  0
ARC
  5
2C1
330
1F
100
AcDbEntity
  8
0-7_金物
  6
Continuous
 62
     7
370
     5
100
AcDbCircle
 10
-2578.534535066989
 20
-645.8487326814065
 30
0.0
 40
3.000019963020699
100
AcDbArc
 50
90.00000000000813
 51
180.0
  0
LINE
  5
2C2
330
1F
100
AcDbEntity
  8
0-7_金物
  6
Continuous
 62
     7
370
     5
100
AcDbLine
 10
-2574.334507118761
 20
-651.8487726074454
 30
0.0
 11
-2574.334507118761
 21
-645.8487326814065
 31
0.0
  0
ARC
  5
2C3
330
1F
100
AcDbEntity
  8
0-7_金物
  6
Continuous
 62
     7
370
     5
100
AcDbCircle
 10
-2577.334527081782
 20
-645.8487326814065
 30
0.0
 40
3.000019963020699
100
AcDbArc
 50
0.0
 51
89.99999999999349
  0
ARC
  5
2C4
330
1F
100
AcDbEntity
  8
0-7_金物
  6
Continuous
 62
     7
370
     5
100
AcDbCircle
 10
-2571.334487155741
 20
-651.8487726074454
 30
0.0
 40
3.000019963020043
100
AcDbArc
 50
180.0
 51
270.0000000000049
  0
LINE
  5
2C5
330
1F
100
AcDbEntity
  8
0-7_金物
  6
Continuous
 62
     7
370
     5
100
AcDbLine
 10
-2523.634169743717
 20
-651.8487726074454
 30
0.0
 11
-2499.334008043253
 21
-651.8487726074454
 31
0.0
  0
LINE
  5
2C6
330
1F
100
AcDbEntity
  8
0-7_金物
  6
Continuous
 62
     7
370
     5
100
AcDbLine
 10
-2525.434181721531
 20
-662.0488404817149
 30
0.0
 11
-2525.434181721531
 21
-653.6487845852571
 31
0.0
  0
ARC
  5
2C7
330
1F
100
AcDbEntity
  8
0-7_金物
  6
Continuous
 62
     7
370
     5
100
AcDbCircle
 10
-2527.234193699341
 20
-662.0488404817183
 30
0.0
 40
1.800011977811371
100
AcDbArc
 50
269.9999999999902
 51
0.0
  0
ARC
  5
2C8
330
1F
100
AcDbEntity
  8
0-7_金物
  6
Continuous
 62
     7
370
     5
100
AcDbCircle
 10
-2531.434221647571
 20
-645.8487326814048
 30
0.0
 40
3.000019963019753
100
AcDbArc
 50
89.99999999999841
 51
180.0
  0
LINE
  5
2C9
330
1F
100
AcDbEntity
  8
0-7_金物
  6
Continuous
 62
     7
370
     5
100
AcDbLine
 10
-2534.43424161059
 20
-651.8487726074454
 30
0.0
 11
-2534.43424161059
 21
-645.8487326814065
 31
0.0
  0
ARC
  5
2CA
330
1F
100
AcDbEntity
  8
0-7_金物
  6
Continuous
 62
     7
370
     5
100
AcDbCircle
 10
-2537.434261573611
 20
-651.8487726074454
 30
0.0
 40
3.000019963020116
100
AcDbArc
 50
269.9999999999967
 51
0.0
  0
LINE
  5
2CB
330
1F
100
AcDbEntity
  8
0-7_金物
  6
Continuous
 62
     7
370
     5
100
AcDbLine
 10
-2495.733984087628
 20
-651.8487726074454
 30
0.0
 11
-2471.433822387163
 21
-651.8487726074454
 31
0.0
  0
ARC
  5
2CC
330
1F
100
AcDbEntity
  8
0-7_金物
  6
Continuous
 62
     7
370
     5
100
AcDbCircle
 10
-2471.433822387163
 20
-653.6487845852571
 30
0.0
 40
1.800011977812318
100
AcDbArc
 50
0.0
 51
89.99999999999675
  0
ARC
  5
2CD
330
1F
100
AcDbEntity
  8
0-7_金物
  6
Continuous
 62
     7
370
     5
100
AcDbCircle
 10
-2523.634169743717
 20
-653.6487845852571
 30
0.0
 40
1.800011977812317
100
AcDbArc
 50
90.00000000000325
 51
180.0
  0
LINE
  5
2CE
330
1F
100
AcDbEntity
  8
0-7_金物
  6
Continuous
 62
     7
370
     5
100
AcDbLine
 10
-2464.533776472199
 20
-775.3493923889108
 30
0.0
 11
-2464.533776472216
 21
-771.8495711282605
 31
0.0
  0
ARC
  5
2CF
330
1F
100
AcDbEntity
  8
0-7_金物
  6
Continuous
 62
     7
370
     5
100
AcDbCircle
 10
-2458.533776472198
 20
-775.3493923888806
 30
0.0
 40
6.000000000000762
100
AcDbArc
 50
180.0
 51
247.5535600967714
  0
ARC
  5
2D0
330
1F
100
AcDbEntity
  8
0-7_金物
  6
Continuous
 62
     7
370
     5
100
AcDbCircle
 10
-2445.933652701491
 20
-744.8493914610788
 30
0.0
 40
39.00019963020362
100
AcDbArc
 50
247.5535600967765
 51
319.0741272361626
  0
ARC
  5
2D1
330
1F
100
AcDbEntity
  8
0-7_金物
  6
Continuous
 62
     7
370
     5
100
AcDbCircle
 10
-2549.134339429392
 20
-744.8493914610788
 30
0.0
 40
30.00019963020324
100
AcDbArc
 50
213.9231120032596
 51
301.8907918018461
  0
ARC
  5
2D2
330
1F
100
AcDbEntity
  8
0-7_金物
  6
Continuous
 62
     7
370
     5
100
AcDbCircle
 10
-2532.334227636476
 20
-771.8495711282605
 30
0.0
 40
1.800011977811815
100
AcDbArc
 50
0.0
 51
121.8907918018614
  0
LINE
  5
2D3
330
1F
100
AcDbEntity
  8
0-7_金物
  6
Continuous
 62
     7
370
     5
100
AcDbLine
 10
-2530.534215658681
 20
-775.3493923889108
 30
0.0
 11
-2530.534215658664
 21
-771.8495711282605
 31
0.0
  0
ARC
  5
2D4
330
1F
100
AcDbEntity
  8
0-7_金物
  6
Continuous
 62
     7
370
     5
100
AcDbCircle
 10
-2536.534215658683
 20
-775.3493923888806
 30
0.0
 40
6.000000000000811
100
AcDbArc
 50
292.4464399032286
 51
0.0
  0
ARC
  5
2D5
330
1F
100
AcDbEntity
  8
0-7_金物
  6
Continuous
 62
     7
370
     5
100
AcDbCircle
 10
-2549.13433942939
 20
-744.8493914610788
 30
0.0
 40
39.00019963020364
100
AcDbArc
 50
220.9258727638373
 51
292.4464399032233
  0
ARC
  5
2D6
330
1F
100
AcDbEntity
  8
0-7_金物
  6
Continuous
 62
     7
370
     5
100
AcDbCircle
 10
-2402.133437100871
 20
-749.649399446285
 30
0.0
 40
3.59999999999971
100
AcDbArc
 50
0.0
 51
180.0
  0
ARC
  5
2D7
330
1F
100
AcDbEntity
  8
0-7_金物
  6
Continuous
 62
     7
370
     5
100
AcDbCircle
 10
-2425.533443047725
 20
-762.5367379594451
 30
0.0
 40
11.99999999999909
100
AcDbArc
 50
319.0741272361557
 51
328.260726288411
  0
ARC
  5
2D8
330
1F
100
AcDbEntity
  8
0-7_金物
  6
Continuous
 62
     7
370
     5
100
AcDbCircle
 10
-2405.733437100869
 20
-750.8493994462839
 30
0.0
 40
1.200000000000017
100
AcDbArc
 50
90.00000000002449
 51
270.0000000000261
  0
ARC
  5
2D9
330
1F
100
AcDbEntity
  8
0-7_金物
  6
Continuous
 62
     7
370
     5
100
AcDbCircle
 10
-2592.93455503001
 20
-749.649399446285
 30
0.0
 40
3.59999999999971
100
AcDbArc
 50
0.0
 51
180.0
  0
ARC
  5
2DA
330
1F
100
AcDbEntity
  8
0-7_金物
  6
Continuous
 62
     7
370
     5
100
AcDbCircle
 10
-2589.334555030011
 20
-750.8493994462839
 30
0.0
 40
1.200000000000017
100
AcDbArc
 50
269.9999999999723
 51
89.99999999997556
  0
ARC
  5
2DB
330
1F
100
AcDbEntity
  8
0-7_金物
  6
Continuous
 62
     7
370
     5
100
AcDbCircle
 10
-2569.534549083155
 20
-762.5367379594451
 30
0.0
 40
11.99999999999904
100
AcDbArc
 50
211.7392737115898
 51
220.9258727638443
  0
LINE
  5
2DC
330
1F
100
AcDbEntity
  8
0-7_金物
  6
Continuous
 62
     7
370
     5
100
AcDbLine
 10
-2398.53343710087
 20
-765.8494395748892
 30
0.0
 11
-2398.53343710087
 21
-749.649399446285
 31
0.0
  0
LINE
  5
2DD
330
1F
100
AcDbEntity
  8
0-7_金物
  6
Continuous
 62
     7
370
     5
100
AcDbLine
 10
-2401.533446879886
 20
-768.8494395748728
 30
0.0
 11
-2415.3280343825
 21
-768.8493946090455
 31
0.0
  0
ARC
  5
2DE
330
1F
100
AcDbEntity
  8
0-7_金物
  6
Continuous
 62
     7
370
     5
100
AcDbCircle
 10
-2401.533437100872
 20
-765.8494395748892
 30
0.0
 40
3.000000000000129
100
AcDbArc
 50
269.9998132345706
 51
0.0
  0
LINE
  5
2DF
330
1F
100
AcDbEntity
  8
0-7_金物
  6
Continuous
 62
     7
370
     5
100
AcDbLine
 10
-2596.534555030011
 20
-765.8494395748892
 30
0.0
 11
-2596.534555030011
 21
-749.649399446285
 31
0.0
  0
LINE
  5
2E0
330
1F
100
AcDbEntity
  8
0-7_金物
  6
Continuous
 62
     7
370
     5
100
AcDbLine
 10
-2593.534545250995
 20
-768.8494395748728
 30
0.0
 11
-2579.739957748379
 21
-768.8493946090455
 31
0.0
  0
ARC
  5
2E1
330
1F
100
AcDbEntity
  8
0-7_金物
  6
Continuous
 62
     7
370
     5
100
AcDbCircle
 10
-2593.534555030009
 20
-765.8494395748892
 30
0.0
 40
3.000000000000171
100
AcDbArc
 50
180.0
 51
270.0001867654327
  0
LINE
  5
2E2
330
1F
100
AcDbEntity
  8
0-7_金物
  6
Continuous
 62
     7
370
     5
100
AcDbLine
 10
-2405.733437100871
 20
-758.6493994462853
 30
0.0
 11
-2405.733437100871
 21
-752.0493994462845
 31
0.0
  0
ARC
  5
2E3
330
1F
100
AcDbEntity
  8
0-7_金物
  6
Continuous
 62
     7
370
     5
100
AcDbCircle
 10
-2408.73343710087
 20
-758.6493994462853
 30
0.0
 40
2.999999999999745
100
AcDbArc
 50
269.9999999999951
 51
0.0
  0
LINE
  5
2E4
330
1F
100
AcDbEntity
  8
0-7_金物
  6
Continuous
 62
     7
370
     5
100
AcDbLine
 10
-2413.53343710087
 20
-758.6493994462853
 30
0.0
 11
-2413.53343710087
 21
-645.8487326814065
 31
0.0
  0
LINE
  5
2E5
330
1F
100
AcDbEntity
  8
0-7_金物
  6
Continuous
 62
     7
370
     5
100
AcDbLine
 10
-2410.533437100871
 20
-761.649399446286
 30
0.0
 11
-2408.73343710087
 21
-761.649399446286
 31
0.0
  0
ARC
  5
2E6
330
1F
100
AcDbEntity
  8
0-7_金物
  6
Continuous
 62
     7
370
     5
100
AcDbCircle
 10
-2410.533437100871
 20
-758.6493994462853
 30
0.0
 40
3.000000000000129
100
AcDbArc
 50
180.0
 51
269.9999999999935
  0
LINE
  5
2E7
330
1F
100
AcDbEntity
  8
0-7_金物
  6
Continuous
 62
     7
370
     5
100
AcDbLine
 10
-2581.534555030011
 20
-758.6493994462853
 30
0.0
 11
-2581.534555030011
 21
-645.8487326814065
 31
0.0
  0
ARC
  5
2E8
330
1F
100
AcDbEntity
  8
0-7_金物
  6
Continuous
 62
     7
370
     5
100
AcDbCircle
 10
-2584.53455503001
 20
-758.6493994462853
 30
0.0
 40
3.0
100
AcDbArc
 50
270.0000000000015
 51
0.0
  0
LINE
  5
2E9
330
1F
100
AcDbEntity
  8
0-7_金物
  6
Continuous
 62
     7
370
     5
100
AcDbLine
 10
-2584.53455503001
 20
-761.649399446286
 30
0.0
 11
-2586.334555030009
 21
-761.649399446286
 31
0.0
  0
LINE
  5
2EA
330
1F
100
AcDbEntity
  8
0-7_金物
  6
Continuous
 62
     7
370
     5
100
AcDbLine
 10
-2589.334555030009
 20
-758.6493994462853
 30
0.0
 11
-2589.334555030009
 21
-752.0493994462845
 31
0.0
  0
ARC
  5
2EB
330
1F
100
AcDbEntity
  8
0-7_金物
  6
Continuous
 62
     7
370
     5
100
AcDbCircle
 10
-2586.334555030009
 20
-758.6493994462853
 30
0.0
 40
3.0
100
AcDbArc
 50
180.0
 51
270.0
  0
LINE
  5
2EC
330
1F
100
AcDbEntity
  8
0-7_金物
  6
Continuous
 62
     7
370
     5
100
AcDbLine
 10
-2495.733984087626
 20
-651.8487726074454
 30
0.0
 11
-2497.53399606544
 21
-650.0487606296338
 31
0.0
  0
LINE
  5
2ED
330
1F
100
AcDbEntity
  8
0-7_金物
  6
Continuous
 62
     7
370
     5
100
AcDbLine
 10
-2497.533996065439
 20
-650.0487606296338
 30
0.0
 11
-2499.334008043253
 21
-651.8487726074454
 31
0.0
  0
LINE
  5
2EE
330
1F
100
AcDbEntity
  8
0-7_金物
  6
Continuous
 62
     7
370
     5
100
AcDbLine
 10
-2222.133996065448
 20
-1033.448712718385
 30
0.0
 11
-2222.133996065448
 21
-963.2487127183856
 31
0.0
  0
ARC
  5
2EF
330
1F
100
AcDbEntity
  8
0-7_金物
  6
Continuous
 62
     7
370
     5
100
AcDbCircle
 10
-2269.53399606545
 20
-1033.448712718385
 30
0.0
 40
47.40000000000003
100
AcDbArc
 50
180.0
 51
0.0
  0
LINE
  5
2F0
330
1F
100
AcDbEntity
  8
0-7_金物
  6
Continuous
 62
     7
370
     5
100
AcDbLine
 10
-2316.933996065448
 20
-963.2487127183856
 30
0.0
 11
-2316.933996065448
 21
-1033.448712718385
 31
0.0
  0
ARC
  5
2F1
330
1F
100
AcDbEntity
  8
0-7_金物
  6
Continuous
 62
     7
370
     5
100
AcDbCircle
 10
-2269.53399606545
 20
-1033.448712718385
 30
0.0
 40
41.40000000000003
100
AcDbArc
 50
180.0
 51
0.0
  0
LINE
  5
2F2
330
1F
100
AcDbEntity
  8
0-7_金物
  6
Continuous
 62
     7
370
     5
100
AcDbLine
 10
-2310.93399606545
 20
-1033.448712718385
 30
0.0
 11
-2310.93399606545
 21
-963.2487127183856
 31
0.0
  0
LINE
  5
2F3
330
1F
100
AcDbEntity
  8
0-7_金物
  6
Continuous
 62
     7
370
     5
100
AcDbLine
 10
-2222.133996065448
 20
-963.2487127183856
 30
0.0
 11
-2228.133996065447
 21
-963.2487127183856
 31
0.0
  0
LINE
  5
2F4
330
1F
100
AcDbEntity
  8
0-7_金物
  6
Continuous
 62
     7
370
     5
100
AcDbLine
 10
-2228.133996065447
 20
-963.2487127183856
 30
0.0
 11
-2228.133996065447
 21
-1033.448712718385
 31
0.0
  0
LINE
  5
2F5
330
1F
100
AcDbEntity
  8
0-7_金物
  6
Continuous
 62
     7
370
     5
100
AcDbLine
 10
-2310.93399606545
 20
-963.2487127183856
 30
0.0
 11
-2316.933996065448
 21
-963.2487127183856
 31
0.0
  0
LINE
  5
2F6
330
1F
100
AcDbEntity
  8
0-7_金物
  6
Continuous
 62
     7
370
     5
100
AcDbLine
 10
-2294.733996065448
 20
-963.2487127183856
 30
0.0
 11
-2294.733996065448
 21
-969.2487127183836
 31
0.0
  0
LINE
  5
2F7
330
1F
100
AcDbEntity
  8
0-7_金物
  6
Continuous
 62
     7
370
     5
100
AcDbLine
 10
-2306.133996065448
 20
-969.2487127183836
 30
0.0
 11
-2294.733996065448
 21
-969.2487127183836
 31
0.0
  0
LINE
  5
2F8
330
1F
100
AcDbEntity
  8
0-7_金物
  6
Continuous
 62
     7
370
     5
100
AcDbLine
 10
-2306.133996065448
 20
-969.2487127183836
 30
0.0
 11
-2306.133996065448
 21
-997.4487127183835
 31
0.0
  0
LINE
  5
2F9
330
1F
100
AcDbEntity
  8
0-7_金物
  6
Continuous
 62
     7
370
     5
100
AcDbLine
 10
-2294.733996065448
 20
-997.4487127183835
 30
0.0
 11
-2306.133996065448
 21
-997.4487127183835
 31
0.0
  0
LINE
  5
2FA
330
1F
100
AcDbEntity
  8
0-7_金物
  6
Continuous
 62
     7
370
     5
100
AcDbLine
 10
-2294.733996065448
 20
-997.4487127183835
 30
0.0
 11
-2294.733996065448
 21
-1008.848712718385
 31
0.0
  0
LINE
  5
2FB
330
1F
100
AcDbEntity
  8
0-7_金物
  6
Continuous
 62
     7
370
     5
100
AcDbLine
 10
-2244.333996065448
 20
-1008.848712718385
 30
0.0
 11
-2244.333996065448
 21
-997.4487127183835
 31
0.0
  0
LINE
  5
2FC
330
1F
100
AcDbEntity
  8
0-7_金物
  6
Continuous
 62
     7
370
     5
100
AcDbLine
 10
-2232.933996065448
 20
-997.4487127183835
 30
0.0
 11
-2244.333996065448
 21
-997.4487127183835
 31
0.0
  0
LINE
  5
2FD
330
1F
100
AcDbEntity
  8
0-7_金物
  6
Continuous
 62
     7
370
     5
100
AcDbLine
 10
-2232.933996065448
 20
-997.4487127183835
 30
0.0
 11
-2232.933996065448
 21
-969.2487127183836
 31
0.0
  0
LINE
  5
2FE
330
1F
100
AcDbEntity
  8
0-7_金物
  6
Continuous
 62
     7
370
     5
100
AcDbLine
 10
-2244.333996065448
 20
-969.2487127183836
 30
0.0
 11
-2232.933996065448
 21
-969.2487127183836
 31
0.0
  0
LINE
  5
2FF
330
1F
100
AcDbEntity
  8
0-7_金物
  6
Continuous
 62
     7
370
     5
100
AcDbLine
 10
-2244.333996065448
 20
-969.2487127183836
 30
0.0
 11
-2244.333996065448
 21
-963.2487127183856
 31
0.0
  0
LINE
  5
300
330
1F
100
AcDbEntity
  8
0-7_金物
  6
Continuous
 62
     7
370
     5
100
AcDbLine
 10
-2228.133996065447
 20
-963.2487127183856
 30
0.0
 11
-2244.333996065448
 21
-963.2487127183856
 31
0.0
  0
LINE
  5
301
330
1F
100
AcDbEntity
  8
0-7_金物
  6
Continuous
 62
     7
370
     5
100
AcDbLine
 10
-2294.733996065448
 20
-963.2487127183856
 30
0.0
 11
-2310.93399606545
 21
-963.2487127183856
 31
0.0
  0
LINE
  5
302
330
1F
100
AcDbEntity
  8
0-7_金物
  6
Continuous
 62
     7
370
     5
100
AcDbLine
 10
-2232.933996065448
 20
-975.2487127183849
 30
0.0
 11
-2244.333996065448
 21
-975.2487127183849
 31
0.0
  0
LINE
  5
303
330
1F
100
AcDbEntity
  8
0-7_金物
  6
Continuous
 62
     7
370
     5
100
AcDbLine
 10
-2244.333996065448
 20
-975.2487127183849
 30
0.0
 11
-2244.333996065448
 21
-969.2487127183836
 31
0.0
  0
LINE
  5
304
330
1F
100
AcDbEntity
  8
0-7_金物
  6
Continuous
 62
     7
370
     5
100
AcDbLine
 10
-2294.733996065448
 20
-975.2487127183849
 30
0.0
 11
-2306.133996065448
 21
-975.2487127183849
 31
0.0
  0
LINE
  5
305
330
1F
100
AcDbEntity
  8
0-7_金物
  6
Continuous
 62
     7
370
     5
100
AcDbLine
 10
-2294.733996065448
 20
-969.2487127183836
 30
0.0
 11
-2294.733996065448
 21
-975.2487127183849
 31
0.0
  0
LINE
  5
306
330
1F
100
AcDbEntity
  8
0-7_金物
  6
Continuous
 62
     7
370
     5
100
AcDbLine
 10
-2244.333996065448
 20
-991.4487127183838
 30
0.0
 11
-2232.933996065448
 21
-991.4487127183838
 31
0.0
  0
LINE
  5
307
330
1F
100
AcDbEntity
  8
0-7_金物
  6
Continuous
 62
     7
370
     5
100
AcDbLine
 10
-2244.333996065448
 20
-997.4487127183835
 30
0.0
 11
-2244.333996065448
 21
-991.4487127183838
 31
0.0
  0
LINE
  5
308
330
1F
100
AcDbEntity
  8
0-7_金物
  6
Continuous
 62
     7
370
     5
100
AcDbLine
 10
-2306.133996065448
 20
-991.4487127183838
 30
0.0
 11
-2294.733996065448
 21
-991.4487127183838
 31
0.0
  0
LINE
  5
309
330
1F
100
AcDbEntity
  8
0-7_金物
  6
Continuous
 62
     7
370
     5
100
AcDbLine
 10
-2294.733996065448
 20
-991.4487127183838
 30
0.0
 11
-2294.733996065448
 21
-997.4487127183835
 31
0.0
  0
LINE
  5
30A
330
1F
100
AcDbEntity
  8
0-7_金物
  6
Continuous
 62
     7
370
     5
100
AcDbLine
 10
-2240.133996065448
 20
-962.648712718384
 30
0.0
 11
-2240.133996065448
 21
-963.2487127183856
 31
0.0
  0
LINE
  5
30B
330
1F
100
AcDbEntity
  8
0-7_金物
  6
Continuous
 62
     7
370
     5
100
AcDbLine
 10
-2222.133996065448
 20
-962.648712718384
 30
0.0
 11
-2222.133996065448
 21
-963.2487127183856
 31
0.0
  0
LINE
  5
30C
330
1F
100
AcDbEntity
  8
0-7_金物
  6
Continuous
 62
     7
370
     5
100
AcDbLine
 10
-2298.933996065447
 20
-963.2487127183856
 30
0.0
 11
-2298.933996065447
 21
-962.648712718384
 31
0.0
  0
LINE
  5
30D
330
1F
100
AcDbEntity
  8
0-7_金物
  6
Continuous
 62
     7
370
     5
100
AcDbLine
 10
-2316.933996065448
 20
-962.648712718384
 30
0.0
 11
-2316.933996065448
 21
-963.2487127183856
 31
0.0
  0
ARC
  5
30E
330
1F
100
AcDbEntity
  8
0-7_金物
  6
Continuous
 62
     7
370
     5
100
AcDbCircle
 10
-2278.533996065448
 20
-873.8487127183851
 30
0.0
 40
6.0
100
AcDbArc
 50
270.0
 51
0.0
  0
LINE
  5
30F
330
1F
100
AcDbEntity
  8
0-7_金物
  6
Continuous
 62
     7
370
     5
100
AcDbLine
 10
-2284.53399606545
 20
-885.8487127183844
 30
0.0
 11
-2278.533996065448
 21
-885.8487127183844
 31
0.0
  0
ARC
  5
310
330
1F
100
AcDbEntity
  8
0-7_金物
  6
Continuous
 62
     7
370
     5
100
AcDbCircle
 10
-2278.533996065448
 20
-891.848712718384
 30
0.0
 40
6.0
100
AcDbArc
 50
0.0
 51
90.0
  0
LINE
  5
311
330
1F
100
AcDbEntity
  8
0-7_金物
  6
Continuous
 62
     7
370
     5
100
AcDbLine
 10
-2272.533996065448
 20
-891.848712718384
 30
0.0
 11
-2272.533996065448
 21
-897.8487127183854
 31
0.0
  0
ARC
  5
312
330
1F
100
AcDbEntity
  8
0-7_金物
  6
Continuous
 62
     7
370
     5
100
AcDbCircle
 10
-2254.533996065449
 20
-882.8487127183854
 30
0.0
 40
3.0
100
AcDbArc
 50
0.0
 51
90.0
  0
LINE
  5
313
330
1F
100
AcDbEntity
  8
0-7_金物
  6
Continuous
 62
     7
370
     5
100
AcDbLine
 10
-2266.533996065448
 20
-873.8487127183851
 30
0.0
 11
-2266.533996065448
 21
-867.8487127183854
 31
0.0
  0
ARC
  5
314
330
1F
100
AcDbEntity
  8
0-7_金物
  6
Continuous
 62
     7
370
     5
100
AcDbCircle
 10
-2269.53399606545
 20
-867.8487127183854
 30
0.0
 40
3.0
100
AcDbArc
 50
0.0
 51
90.0
  0
ARC
  5
315
330
1F
100
AcDbEntity
  8
0-7_金物
  6
Continuous
 62
     7
370
     5
100
AcDbCircle
 10
-2260.533996065448
 20
-891.848712718384
 30
0.0
 40
6.0
100
AcDbArc
 50
90.0
 51
180.0
  0
LINE
  5
316
330
1F
100
AcDbEntity
  8
0-7_金物
  6
Continuous
 62
     7
370
     5
100
AcDbLine
 10
-2260.533996065448
 20
-885.8487127183844
 30
0.0
 11
-2254.533996065449
 21
-885.8487127183844
 31
0.0
  0
LINE
  5
317
330
1F
100
AcDbEntity
  8
0-7_金物
  6
Continuous
 62
     7
370
     5
100
AcDbLine
 10
-2254.533996065449
 20
-879.8487127183843
 30
0.0
 11
-2260.533996065448
 21
-879.8487127183843
 31
0.0
  0
ARC
  5
318
330
1F
100
AcDbEntity
  8
0-7_金物
  6
Continuous
 62
     7
370
     5
100
AcDbCircle
 10
-2260.533996065448
 20
-873.8487127183851
 30
0.0
 40
6.0
100
AcDbArc
 50
180.0
 51
270.0
  0
ARC
  5
319
330
1F
100
AcDbEntity
  8
0-7_金物
  6
Continuous
 62
     7
370
     5
100
AcDbCircle
 10
-2269.53399606545
 20
-867.8487127183854
 30
0.0
 40
3.0
100
AcDbArc
 50
90.0
 51
180.0
  0
ARC
  5
31A
330
1F
100
AcDbEntity
  8
0-7_金物
  6
Continuous
 62
     7
370
     5
100
AcDbCircle
 10
-2284.53399606545
 20
-882.8487127183854
 30
0.0
 40
3.0
100
AcDbArc
 50
180.0
 51
270.0
  0
LINE
  5
31B
330
1F
100
AcDbEntity
  8
0-7_金物
  6
Continuous
 62
     7
370
     5
100
AcDbLine
 10
-2272.533996065448
 20
-867.8487127183854
 30
0.0
 11
-2272.533996065448
 21
-873.8487127183851
 31
0.0
  0
ARC
  5
31C
330
1F
100
AcDbEntity
  8
0-7_金物
  6
Continuous
 62
     7
370
     5
100
AcDbCircle
 10
-2254.533996065449
 20
-882.8487127183854
 30
0.0
 40
3.0
100
AcDbArc
 50
270.0
 51
0.0
  0
ARC
  5
31D
330
1F
100
AcDbEntity
  8
0-7_金物
  6
Continuous
 62
     7
370
     5
100
AcDbCircle
 10
-2269.53399606545
 20
-897.8487127183854
 30
0.0
 40
3.0
100
AcDbArc
 50
180.0
 51
270.0
  0
LINE
  5
31E
330
1F
100
AcDbEntity
  8
0-7_金物
  6
Continuous
 62
     7
370
     5
100
AcDbLine
 10
-2266.533996065448
 20
-897.8487127183854
 30
0.0
 11
-2266.533996065448
 21
-891.848712718384
 31
0.0
  0
LINE
  5
31F
330
1F
100
AcDbEntity
  8
0-7_金物
  6
Continuous
 62
     7
370
     5
100
AcDbLine
 10
-2278.533996065448
 20
-879.8487127183843
 30
0.0
 11
-2284.53399606545
 21
-879.8487127183843
 31
0.0
  0
ARC
  5
320
330
1F
100
AcDbEntity
  8
0-7_金物
  6
Continuous
 62
     7
370
     5
100
AcDbCircle
 10
-2284.53399606545
 20
-882.8487127183854
 30
0.0
 40
3.0
100
AcDbArc
 50
90.0
 51
180.0
  0
ARC
  5
321
330
1F
100
AcDbEntity
  8
0-7_金物
  6
Continuous
 62
     7
370
     5
100
AcDbCircle
 10
-2269.53399606545
 20
-897.8487127183854
 30
0.0
 40
3.0
100
AcDbArc
 50
270.0
 51
0.0
  0
LINE
  5
322
330
1F
100
AcDbEntity
  8
0-7_金物
  6
Continuous
 62
     7
370
     5
100
AcDbLine
 10
-2234.133996065447
 20
-1008.848712718385
 30
0.0
 11
-2234.133996065447
 21
-1026.848712718384
 31
0.0
  0
LINE
  5
323
330
1F
100
AcDbEntity
  8
0-7_金物
  6
Continuous
 62
     7
370
     5
100
AcDbLine
 10
-2240.133996065448
 20
-1026.848712718384
 30
0.0
 11
-2240.133996065448
 21
-1008.848712718385
 31
0.0
  0
LINE
  5
324
330
1F
100
AcDbEntity
  8
0-7_金物
  6
Continuous
 62
     7
370
     5
100
AcDbLine
 10
-2234.133996065447
 20
-1026.848712718384
 30
0.0
 11
-2240.133996065448
 21
-1026.848712718384
 31
0.0
  0
LINE
  5
325
330
1F
100
AcDbEntity
  8
0-7_金物
  6
Continuous
 62
     7
370
     5
100
AcDbLine
 10
-2240.133996065448
 20
-1008.848712718385
 30
0.0
 11
-2234.133996065447
 21
-1008.848712718385
 31
0.0
  0
LINE
  5
326
330
1F
100
AcDbEntity
  8
0-7_金物
  6
Continuous
 62
     7
370
     5
100
AcDbLine
 10
-2298.933996065447
 20
-1008.848712718385
 30
0.0
 11
-2298.933996065447
 21
-1026.848712718384
 31
0.0
  0
LINE
  5
327
330
1F
100
AcDbEntity
  8
0-7_金物
  6
Continuous
 62
     7
370
     5
100
AcDbLine
 10
-2240.133996065448
 20
-1026.848712718384
 30
0.0
 11
-2298.933996065447
 21
-1026.848712718384
 31
0.0
  0
LINE
  5
328
330
1F
100
AcDbEntity
  8
0-7_金物
  6
Continuous
 62
     7
370
     5
100
AcDbLine
 10
-2298.933996065447
 20
-1008.848712718385
 30
0.0
 11
-2240.133996065448
 21
-1008.848712718385
 31
0.0
  0
LINE
  5
329
330
1F
100
AcDbEntity
  8
0-7_金物
  6
Continuous
 62
     7
370
     5
100
AcDbLine
 10
-2316.933996065448
 20
-822.8487127183854
 30
0.0
 11
-2316.933996065448
 21
-962.648712718384
 31
0.0
  0
LINE
  5
32A
330
1F
100
AcDbEntity
  8
0-7_金物
  6
Continuous
 62
     7
370
     5
100
AcDbLine
 10
-2222.133996065448
 20
-822.8487127183854
 30
0.0
 11
-2222.133996065448
 21
-962.648712718384
 31
0.0
  0
CIRCLE
  5
32B
330
1F
100
AcDbEntity
  8
0-7_金物
  6
Continuous
 62
     7
370
     5
100
AcDbCircle
 10
-2269.53399606545
 20
-882.8487127183854
 30
0.0
 40
21.00000000000001
  0
LINE
  5
32C
330
1F
100
AcDbEntity
  8
0-7_金物
  6
Continuous
 62
     7
370
     5
100
AcDbLine
 10
-2222.133996065448
 20
-962.648712718384
 30
0.0
 11
-2316.933996065448
 21
-962.648712718384
 31
0.0
  0
LINE
  5
32D
330
1F
100
AcDbEntity
  8
0-7_金物
  6
Continuous
 62
     7
370
     5
100
AcDbLine
 10
-2304.933996065448
 20
-1026.848712718384
 30
0.0
 11
-2304.933996065448
 21
-1008.848712718385
 31
0.0
  0
LINE
  5
32E
330
1F
100
AcDbEntity
  8
0-7_金物
  6
Continuous
 62
     7
370
     5
100
AcDbLine
 10
-2298.933996065447
 20
-1026.848712718384
 30
0.0
 11
-2304.933996065448
 21
-1026.848712718384
 31
0.0
  0
LINE
  5
32F
330
1F
100
AcDbEntity
  8
0-7_金物
  6
Continuous
 62
     7
370
     5
100
AcDbLine
 10
-2304.933996065448
 20
-1008.848712718385
 30
0.0
 11
-2298.933996065447
 21
-1008.848712718385
 31
0.0
  0
LINE
  5
330
330
1F
100
AcDbEntity
  8
0-7_金物
  6
Continuous
 62
     7
370
     5
100
AcDbLine
 10
-2234.133996065447
 20
-990.8487127183844
 30
0.0
 11
-2304.933996065448
 21
-990.8487127183844
 31
0.0
  0
LINE
  5
331
330
1F
100
AcDbEntity
  8
0-7_金物
  6
Continuous
 62
     7
370
     5
100
AcDbLine
 10
-2304.933996065448
 20
-990.8487127183844
 30
0.0
 11
-2304.933996065448
 21
-978.8487127183851
 31
0.0
  0
LINE
  5
332
330
1F
100
AcDbEntity
  8
0-7_金物
  6
Continuous
 62
     7
370
     5
100
AcDbLine
 10
-2304.933996065448
 20
-978.8487127183851
 30
0.0
 11
-2234.133996065447
 21
-978.8487127183851
 31
0.0
  0
LINE
  5
333
330
1F
100
AcDbEntity
  8
0-7_金物
  6
Continuous
 62
     7
370
     5
100
AcDbLine
 10
-2234.133996065447
 20
-978.8487127183851
 30
0.0
 11
-2234.133996065447
 21
-990.8487127183844
 31
0.0
  0
LINE
  5
334
330
1F
100
AcDbEntity
  8
0-7_金物
  6
Continuous
 62
     7
370
     5
100
AcDbLine
 10
-2293.533996065448
 20
-975.8487127183844
 30
0.0
 11
-2304.933996065448
 21
-975.8487127183844
 31
0.0
  0
LINE
  5
335
330
1F
100
AcDbEntity
  8
0-7_金物
  6
Continuous
 62
     7
370
     5
100
AcDbLine
 10
-2293.533996065448
 20
-975.8487127183844
 30
0.0
 11
-2293.533996065448
 21
-962.648712718384
 31
0.0
  0
LINE
  5
336
330
1F
100
AcDbEntity
  8
0-7_金物
  6
Continuous
 62
     7
370
     5
100
AcDbLine
 10
-2234.133996065447
 20
-975.8487127183844
 30
0.0
 11
-2245.533996065448
 21
-975.8487127183844
 31
0.0
  0
LINE
  5
337
330
1F
100
AcDbEntity
  8
0-7_金物
  6
Continuous
 62
     7
370
     5
100
AcDbLine
 10
-2245.533996065448
 20
-962.648712718384
 30
0.0
 11
-2245.533996065448
 21
-975.8487127183844
 31
0.0
  0
LINE
  5
338
330
1F
100
AcDbEntity
  8
0-7_金物
  6
Continuous
 62
     7
370
     5
100
AcDbLine
 10
-2234.133996065447
 20
-978.8487127183851
 30
0.0
 11
-2234.133996065447
 21
-975.8487127183844
 31
0.0
  0
LINE
  5
339
330
1F
100
AcDbEntity
  8
0-7_金物
  6
Continuous
 62
     7
370
     5
100
AcDbLine
 10
-2304.933996065448
 20
-975.8487127183844
 30
0.0
 11
-2304.933996065448
 21
-978.8487127183851
 31
0.0
  0
LINE
  5
33A
330
1F
100
AcDbEntity
  8
0-7_金物
  6
Continuous
 62
     7
370
     5
100
AcDbLine
 10
-2278.533996065448
 20
-990.8487127183844
 30
0.0
 11
-2278.533996065448
 21
-1008.848712718385
 31
0.0
  0
LINE
  5
33B
330
1F
100
AcDbEntity
  8
0-7_金物
  6
Continuous
 62
     7
370
     5
100
AcDbLine
 10
-2260.533996065448
 20
-990.8487127183844
 30
0.0
 11
-2260.533996065448
 21
-1008.848712718385
 31
0.0
  0
LINE
  5
33C
330
1F
100
AcDbEntity
  8
0-7_金物
  6
Continuous
 62
     7
370
     5
100
AcDbLine
 10
-2293.533996065448
 20
-1002.848712718385
 30
0.0
 11
-2278.533996065448
 21
-1002.848712718385
 31
0.0
  0
LINE
  5
33D
330
1F
100
AcDbEntity
  8
0-7_金物
  6
Continuous
 62
     7
370
     5
100
AcDbLine
 10
-2293.533996065448
 20
-1008.848712718385
 30
0.0
 11
-2293.533996065448
 21
-1002.848712718385
 31
0.0
  0
LINE
  5
33E
330
1F
100
AcDbEntity
  8
0-7_金物
  6
Continuous
 62
     7
370
     5
100
AcDbLine
 10
-2260.533996065448
 20
-1002.848712718385
 30
0.0
 11
-2245.533996065448
 21
-1002.848712718385
 31
0.0
  0
LINE
  5
33F
330
1F
100
AcDbEntity
  8
0-7_金物
  6
Continuous
 62
     7
370
     5
100
AcDbLine
 10
-2245.533996065448
 20
-1002.848712718385
 30
0.0
 11
-2245.533996065448
 21
-1008.848712718385
 31
0.0
  0
LINE
  5
340
330
1F
100
AcDbEntity
  8
0-7_金物
  6
Continuous
 62
     7
370
     5
100
AcDbLine
 10
-2245.533996065448
 20
-990.8487127183844
 30
0.0
 11
-2245.533996065448
 21
-1002.848712718385
 31
0.0
  0
LINE
  5
341
330
1F
100
AcDbEntity
  8
0-7_金物
  6
Continuous
 62
     7
370
     5
100
AcDbLine
 10
-2293.533996065448
 20
-1002.848712718385
 30
0.0
 11
-2293.533996065448
 21
-990.8487127183844
 31
0.0
  0
LINE
  5
342
330
1F
100
AcDbEntity
  8
0-7_金物
  6
Continuous
 62
     7
370
     5
100
AcDbLine
 10
-2301.033996065442
 20
-725.0487127183857
 30
0.0
 11
-2301.033996065442
 21
-794.6487127183838
 31
0.0
  0
LINE
  5
343
330
1F
100
AcDbEntity
  8
0-7_金物
  6
Continuous
 62
     7
370
     5
100
AcDbLine
 10
-2301.033996065442
 20
-707.0487127183845
 30
0.0
 11
-2301.033996065442
 21
-725.0487127183857
 31
0.0
  0
LINE
  5
344
330
1F
100
AcDbEntity
  8
0-7_金物
  6
Continuous
 62
     7
370
     5
100
AcDbLine
 10
-2238.033996065443
 20
-725.0487127183857
 30
0.0
 11
-2238.033996065443
 21
-707.0487127183845
 31
0.0
  0
LINE
  5
345
330
1F
100
AcDbEntity
  8
0-7_金物
  6
Continuous
 62
     7
370
     5
100
AcDbLine
 10
-2301.033996065442
 20
-794.6487127183838
 30
0.0
 11
-2301.033996065442
 21
-821.0487127183853
 31
0.0
  0
LINE
  5
346
330
1F
100
AcDbEntity
  8
0-7_金物
  6
Continuous
 62
     7
370
     5
100
AcDbLine
 10
-2238.033996065443
 20
-821.0487127183853
 30
0.0
 11
-2238.033996065443
 21
-794.6487127183838
 31
0.0
  0
LINE
  5
347
330
1F
100
AcDbEntity
  8
0-7_金物
  6
Continuous
 62
     7
370
     5
100
AcDbLine
 10
-2245.533996065443
 20
-821.0487127183853
 30
0.0
 11
-2293.533996065442
 21
-821.0487127183853
 31
0.0
  0
LINE
  5
348
330
1F
100
AcDbEntity
  8
0-7_金物
  6
Continuous
 62
     7
370
     5
100
AcDbLine
 10
-2293.533996065442
 20
-821.0487127183853
 30
0.0
 11
-2293.533996065442
 21
-822.8487127183854
 31
0.0
  0
LINE
  5
349
330
1F
100
AcDbEntity
  8
0-7_金物
  6
Continuous
 62
     7
370
     5
100
AcDbLine
 10
-2245.533996065443
 20
-822.8487127183854
 30
0.0
 11
-2245.533996065443
 21
-821.0487127183853
 31
0.0
  0
LINE
  5
34A
330
1F
100
AcDbEntity
  8
0-7_金物
  6
Continuous
 62
     7
370
     5
100
AcDbLine
 10
-2320.533996065443
 20
-683.0487127183846
 30
0.0
 11
-2320.533996065443
 21
-707.0487127183845
 31
0.0
  0
LINE
  5
34B
330
1F
100
AcDbEntity
  8
0-7_金物
  6
Continuous
 62
     7
370
     5
100
AcDbLine
 10
-2296.533996065442
 20
-683.0487127183846
 30
0.0
 11
-2320.533996065443
 21
-683.0487127183846
 31
0.0
  0
LINE
  5
34C
330
1F
100
AcDbEntity
  8
0-7_金物
  6
Continuous
 62
     7
370
     5
100
AcDbLine
 10
-2296.533996065442
 20
-695.0487127183857
 30
0.0
 11
-2296.533996065442
 21
-683.0487127183846
 31
0.0
  0
LINE
  5
34D
330
1F
100
AcDbEntity
  8
0-7_金物
  6
Continuous
 62
     7
370
     5
100
AcDbLine
 10
-2242.533996065443
 20
-695.0487127183857
 30
0.0
 11
-2296.533996065442
 21
-695.0487127183857
 31
0.0
  0
LINE
  5
34E
330
1F
100
AcDbEntity
  8
0-7_金物
  6
Continuous
 62
     7
370
     5
100
AcDbLine
 10
-2242.533996065443
 20
-683.0487127183846
 30
0.0
 11
-2242.533996065443
 21
-695.0487127183857
 31
0.0
  0
LINE
  5
34F
330
1F
100
AcDbEntity
  8
0-7_金物
  6
Continuous
 62
     7
370
     5
100
AcDbLine
 10
-2218.533996065442
 20
-707.0487127183845
 30
0.0
 11
-2218.533996065442
 21
-683.0487127183846
 31
0.0
  0
LINE
  5
350
330
1F
100
AcDbEntity
  8
0-7_金物
  6
Continuous
 62
     7
370
     5
100
AcDbLine
 10
-2269.533996065443
 20
-707.0487127183845
 30
0.0
 11
-2218.533996065442
 21
-707.0487127183845
 31
0.0
  0
LINE
  5
351
330
1F
100
AcDbEntity
  8
0-7_金物
  6
Continuous
 62
     7
370
     5
100
AcDbLine
 10
-2320.533996065443
 20
-707.0487127183845
 30
0.0
 11
-2269.533996065443
 21
-707.0487127183845
 31
0.0
  0
LINE
  5
352
330
1F
100
AcDbEntity
  8
0-7_金物
  6
Continuous
 62
     7
370
     5
100
AcDbLine
 10
-2218.533996065442
 20
-683.0487127183846
 30
0.0
 11
-2242.533996065443
 21
-683.0487127183846
 31
0.0
  0
LINE
  5
353
330
1F
100
AcDbEntity
  8
0-7_金物
  6
Continuous
 62
     7
370
     5
100
AcDbLine
 10
-2238.033996065443
 20
-794.6487127183838
 30
0.0
 11
-2269.533996065443
 21
-794.6487127183838
 31
0.0
  0
LINE
  5
354
330
1F
100
AcDbEntity
  8
0-7_金物
  6
Continuous
 62
     7
370
     5
100
AcDbLine
 10
-2269.533996065443
 20
-725.0487127183857
 30
0.0
 11
-2238.033996065443
 21
-725.0487127183857
 31
0.0
  0
LINE
  5
355
330
1F
100
AcDbEntity
  8
0-7_金物
  6
Continuous
 62
     7
370
     5
100
AcDbLine
 10
-2269.533996065443
 20
-794.6487127183838
 30
0.0
 11
-2301.033996065442
 21
-794.6487127183838
 31
0.0
  0
LINE
  5
356
330
1F
100
AcDbEntity
  8
0-7_金物
  6
Continuous
 62
     7
370
     5
100
AcDbLine
 10
-2301.033996065442
 20
-725.0487127183857
 30
0.0
 11
-2269.533996065443
 21
-725.0487127183857
 31
0.0
  0
LINE
  5
357
330
1F
100
AcDbEntity
  8
0-7_金物
  6
Continuous
 62
     7
370
     5
100
AcDbLine
 10
-2238.033996065443
 20
-794.6487127183838
 30
0.0
 11
-2238.033996065443
 21
-725.0487127183857
 31
0.0
  0
LINE
  5
358
330
1F
100
AcDbEntity
  8
0-7_金物
  6
Continuous
 62
     7
370
     5
100
AcDbLine
 10
-2245.533996065443
 20
-821.0487127183853
 30
0.0
 11
-2238.033996065443
 21
-821.0487127183853
 31
0.0
  0
LINE
  5
359
330
1F
100
AcDbEntity
  8
0-7_金物
  6
Continuous
 62
     7
370
     5
100
AcDbLine
 10
-2301.033996065442
 20
-821.0487127183853
 30
0.0
 11
-2293.533996065442
 21
-821.0487127183853
 31
0.0
  0
LINE
  5
35A
330
1F
100
AcDbEntity
  8
0-7_金物
  6
Continuous
 62
     7
370
     5
100
AcDbLine
 10
-2303.434221647573
 20
-642.8487127183871
 30
0.0
 11
-2235.633770483312
 21
-642.8487127183854
 31
0.0
  0
LINE
  5
35B
330
1F
100
AcDbEntity
  8
0-7_金物
  6
Continuous
 62
     7
370
     5
100
AcDbLine
 10
-2188.533457063893
 20
-642.8487127183871
 30
0.0
 11
-2189.733996065443
 21
-642.8487127183854
 31
0.0
  0
LINE
  5
35C
330
1F
100
AcDbEntity
  8
0-7_金物
  6
Continuous
 62
     7
370
     5
100
AcDbLine
 10
-2350.533996065443
 20
-642.8487127183854
 30
0.0
 11
-2349.333996065443
 21
-642.8487127183854
 31
0.0
  0
LINE
  5
35D
330
1F
100
AcDbEntity
  8
0-7_金物
  6
Continuous
 62
     7
370
     5
100
AcDbLine
 10
-2222.133996065442
 20
-822.8487127183854
 30
0.0
 11
-2316.933996065444
 21
-822.8487127183854
 31
0.0
  0
LINE
  5
35E
330
1F
100
AcDbEntity
  8
0-7_金物
  6
Continuous
 62
     7
370
     5
100
AcDbLine
 10
-2387.134555030012
 20
-851.0493994462844
 30
0.0
 11
-2387.134555030012
 21
-743.0493994462842
 31
0.0
  0
ARC
  5
35F
330
1F
100
AcDbEntity
  8
0-7_金物
  6
Continuous
 62
     7
370
     5
100
AcDbCircle
 10
-2384.134555030013
 20
-851.0493994462844
 30
0.0
 40
2.999999999999915
100
AcDbArc
 50
180.0
 51
0.0
  0
LINE
  5
360
330
1F
100
AcDbEntity
  8
0-7_金物
  6
Continuous
 62
     7
370
     5
100
AcDbLine
 10
-2192.733485012121
 20
-760.5873486444244
 30
0.0
 11
-2192.733485012121
 21
-675.8489323116078
 31
0.0
  0
ARC
  5
361
330
1F
100
AcDbEntity
  8
0-7_金物
  6
Continuous
 62
     7
370
     5
100
AcDbCircle
 10
-2217.933652701492
 20
-744.8493914610788
 30
0.0
 40
30.00019963020328
100
AcDbArc
 50
238.109208198154
 51
326.0768879967404
  0
ARC
  5
362
330
1F
100
AcDbEntity
  8
0-7_金物
  6
Continuous
 62
     7
370
     5
100
AcDbCircle
 10
-2234.733764494407
 20
-771.8495711282605
 30
0.0
 40
1.800011977811773
100
AcDbArc
 50
58.10920819813639
 51
180.0
  0
ARC
  5
363
330
1F
100
AcDbEntity
  8
0-7_金物
  6
Continuous
 62
     7
370
     5
100
AcDbCircle
 10
-2194.533496989937
 20
-760.5873486444244
 30
0.0
 40
1.800011977815348
100
AcDbArc
 50
326.076887996758
 51
0.0000000000000127
  0
LINE
  5
364
330
1F
100
AcDbEntity
  8
0-7_金物
  6
Continuous
 62
     7
370
     5
100
AcDbLine
 10
-2241.633810409354
 20
-662.0488404817149
 30
0.0
 11
-2241.633810409354
 21
-653.6487845852571
 31
0.0
  0
LINE
  5
365
330
1F
100
AcDbEntity
  8
0-7_金物
  6
Continuous
 62
     7
370
     5
100
AcDbLine
 10
-2232.633750520293
 20
-651.8487726074454
 30
0.0
 11
-2232.633750520293
 21
-645.8487326814065
 31
0.0
  0
LINE
  5
366
330
1F
100
AcDbEntity
  8
0-7_金物
  6
Continuous
 62
     7
370
     5
100
AcDbLine
 10
-2195.733504975143
 20
-654.8487925704661
 30
0.0
 11
-2229.633730557272
 21
-654.8487925704661
 31
0.0
  0
LINE
  5
367
330
1F
100
AcDbEntity
  8
0-7_金物
  6
Continuous
 62
     7
370
     5
100
AcDbLine
 10
-2204.733564864203
 20
-663.8488524595283
 30
0.0
 11
-2239.833798431543
 21
-663.8488524595283
 31
0.0
  0
LINE
  5
368
330
1F
100
AcDbEntity
  8
0-7_金物
  6
Continuous
 62
     7
370
     5
100
AcDbLine
 10
-2192.733485012121
 20
-651.8487726074454
 30
0.0
 11
-2192.733485012121
 21
-645.8487326814065
 31
0.0
  0
ARC
  5
369
330
1F
100
AcDbEntity
  8
0-7_金物
  6
Continuous
 62
     7
370
     5
100
AcDbCircle
 10
-2235.633770483312
 20
-645.8487326814048
 30
0.0
 40
3.000019963019752
100
AcDbArc
 50
0.0
 51
90.00000000000163
  0
ARC
  5
36A
330
1F
100
AcDbEntity
  8
0-7_金物
  6
Continuous
 62
     7
370
     5
100
AcDbCircle
 10
-2229.633730557272
 20
-651.8487726074454
 30
0.0
 40
3.000019963020116
100
AcDbArc
 50
180.0
 51
270.0000000000049
  0
ARC
  5
36B
330
1F
100
AcDbEntity
  8
0-7_金物
  6
Continuous
 62
     7
370
     5
100
AcDbCircle
 10
-2195.733504975143
 20
-651.8487726074454
 30
0.0
 40
3.000019963020043
100
AcDbArc
 50
269.9999999999951
 51
0.0
  0
ARC
  5
36C
330
1F
100
AcDbEntity
  8
0-7_金物
  6
Continuous
 62
     7
370
     5
100
AcDbCircle
 10
-2189.733465049102
 20
-645.8487326814048
 30
0.0
 40
3.000019963019753
100
AcDbArc
 50
89.99999999999022
 51
180.0
  0
ARC
  5
36D
330
1F
100
AcDbEntity
  8
0-7_金物
  6
Continuous
 62
     7
370
     5
100
AcDbCircle
 10
-2188.533457063893
 20
-645.8487326814065
 30
0.0
 40
3.000019963020626
100
AcDbArc
 50
0.0
 51
89.99999999999349
  0
ARC
  5
36E
330
1F
100
AcDbEntity
  8
0-7_金物
  6
Continuous
 62
     7
370
     5
100
AcDbCircle
 10
-2204.733564864203
 20
-675.848932311609
 30
0.0
 40
12.00007985208206
100
AcDbArc
 50
0.0
 51
89.99999999999841
  0
ARC
  5
36F
330
1F
100
AcDbEntity
  8
0-7_金物
  6
Continuous
 62
     7
370
     5
100
AcDbCircle
 10
-2239.833798431543
 20
-662.0488404817149
 30
0.0
 40
1.800011977812318
100
AcDbArc
 50
180.0
 51
269.9999999999968
  0
LINE
  5
370
330
1F
100
AcDbEntity
  8
0-7_金物
  6
Continuous
 62
     7
370
     5
100
AcDbLine
 10
-2346.334507118764
 20
-760.5873486444244
 30
0.0
 11
-2346.334507118764
 21
-675.8489323116078
 31
0.0
  0
ARC
  5
371
330
1F
100
AcDbEntity
  8
0-7_金物
  6
Continuous
 62
     7
370
     5
100
AcDbCircle
 10
-2344.53449514096
 20
-760.5873486444261
 30
0.0
 40
1.80001197780369
100
AcDbArc
 50
180.0
 51
213.9231120033558
  0
LINE
  5
372
330
1F
100
AcDbEntity
  8
0-7_金物
  6
Continuous
 62
     7
370
     5
100
AcDbLine
 10
-2334.334427266683
 20
-663.8488524595283
 30
0.0
 11
-2299.234193699344
 21
-663.8488524595283
 31
0.0
  0
LINE
  5
373
330
1F
100
AcDbEntity
  8
0-7_金物
  6
Continuous
 62
     7
370
     5
100
AcDbLine
 10
-2343.334487155743
 20
-654.8487925704661
 30
0.0
 11
-2309.434261573615
 21
-654.8487925704661
 31
0.0
  0
ARC
  5
374
330
1F
100
AcDbEntity
  8
0-7_金物
  6
Continuous
 62
     7
370
     5
100
AcDbCircle
 10
-2334.334427266683
 20
-675.8489323116078
 30
0.0
 40
12.00007985208111
100
AcDbArc
 50
90.0
 51
180.0
  0
ARC
  5
375
330
1F
100
AcDbEntity
  8
0-7_金物
  6
Continuous
 62
     7
370
     5
100
AcDbCircle
 10
-2350.534535066991
 20
-645.8487326814065
 30
0.0
 40
3.000019963020699
100
AcDbArc
 50
90.00000000000813
 51
180.0
  0
LINE
  5
376
330
1F
100
AcDbEntity
  8
0-7_金物
  6
Continuous
 62
     7
370
     5
100
AcDbLine
 10
-2346.334507118764
 20
-651.8487726074454
 30
0.0
 11
-2346.334507118764
 21
-645.8487326814065
 31
0.0
  0
ARC
  5
377
330
1F
100
AcDbEntity
  8
0-7_金物
  6
Continuous
 62
     7
370
     5
100
AcDbCircle
 10
-2349.334527081784
 20
-645.8487326814065
 30
0.0
 40
3.000019963020699
100
AcDbArc
 50
0.0
 51
89.99999999999349
  0
ARC
  5
378
330
1F
100
AcDbEntity
  8
0-7_金物
  6
Continuous
 62
     7
370
     5
100
AcDbCircle
 10
-2343.334487155743
 20
-651.8487726074454
 30
0.0
 40
3.000019963020043
100
AcDbArc
 50
180.0
 51
270.0000000000049
  0
LINE
  5
379
330
1F
100
AcDbEntity
  8
0-7_金物
  6
Continuous
 62
     7
370
     5
100
AcDbLine
 10
-2295.63416974372
 20
-651.8487726074454
 30
0.0
 11
-2271.334008043255
 21
-651.8487726074454
 31
0.0
  0
LINE
  5
37A
330
1F
100
AcDbEntity
  8
0-7_金物
  6
Continuous
 62
     7
370
     5
100
AcDbLine
 10
-2297.434181721534
 20
-662.0488404817149
 30
0.0
 11
-2297.434181721534
 21
-653.6487845852571
 31
0.0
  0
ARC
  5
37B
330
1F
100
AcDbEntity
  8
0-7_金物
  6
Continuous
 62
     7
370
     5
100
AcDbCircle
 10
-2299.234193699344
 20
-662.0488404817183
 30
0.0
 40
1.800011977811371
100
AcDbArc
 50
269.9999999999902
 51
0.0
  0
ARC
  5
37C
330
1F
100
AcDbEntity
  8
0-7_金物
  6
Continuous
 62
     7
370
     5
100
AcDbCircle
 10
-2303.434221647573
 20
-645.8487326814048
 30
0.0
 40
3.000019963019753
100
AcDbArc
 50
89.99999999999841
 51
180.0
  0
LINE
  5
37D
330
1F
100
AcDbEntity
  8
0-7_金物
  6
Continuous
 62
     7
370
     5
100
AcDbLine
 10
-2306.434241610593
 20
-651.8487726074454
 30
0.0
 11
-2306.434241610593
 21
-645.8487326814065
 31
0.0
  0
ARC
  5
37E
330
1F
100
AcDbEntity
  8
0-7_金物
  6
Continuous
 62
     7
370
     5
100
AcDbCircle
 10
-2309.434261573614
 20
-651.8487726074454
 30
0.0
 40
3.000019963020116
100
AcDbArc
 50
269.9999999999967
 51
0.0
  0
LINE
  5
37F
330
1F
100
AcDbEntity
  8
0-7_金物
  6
Continuous
 62
     7
370
     5
100
AcDbLine
 10
-2267.733984087631
 20
-651.8487726074454
 30
0.0
 11
-2243.433822387166
 21
-651.8487726074454
 31
0.0
  0
ARC
  5
380
330
1F
100
AcDbEntity
  8
0-7_金物
  6
Continuous
 62
     7
370
     5
100
AcDbCircle
 10
-2243.433822387166
 20
-653.6487845852571
 30
0.0
 40
1.800011977812318
100
AcDbArc
 50
0.0
 51
89.99999999999675
  0
ARC
  5
381
330
1F
100
AcDbEntity
  8
0-7_金物
  6
Continuous
 62
     7
370
     5
100
AcDbCircle
 10
-2295.63416974372
 20
-653.6487845852571
 30
0.0
 40
1.800011977812317
100
AcDbArc
 50
90.00000000000325
 51
180.0
  0
LINE
  5
382
330
1F
100
AcDbEntity
  8
0-7_金物
  6
Continuous
 62
     7
370
     5
100
AcDbLine
 10
-2236.533776472202
 20
-775.3493923889108
 30
0.0
 11
-2236.533776472219
 21
-771.8495711282605
 31
0.0
  0
ARC
  5
383
330
1F
100
AcDbEntity
  8
0-7_金物
  6
Continuous
 62
     7
370
     5
100
AcDbCircle
 10
-2230.533776472201
 20
-775.3493923888806
 30
0.0
 40
6.000000000000762
100
AcDbArc
 50
180.0
 51
247.5535600967714
  0
ARC
  5
384
330
1F
100
AcDbEntity
  8
0-7_金物
  6
Continuous
 62
     7
370
     5
100
AcDbCircle
 10
-2217.933652701494
 20
-744.8493914610788
 30
0.0
 40
39.00019963020362
100
AcDbArc
 50
247.5535600967765
 51
319.0741272361626
  0
ARC
  5
385
330
1F
100
AcDbEntity
  8
0-7_金物
  6
Continuous
 62
     7
370
     5
100
AcDbCircle
 10
-2321.134339429394
 20
-744.8493914610788
 30
0.0
 40
30.00019963020324
100
AcDbArc
 50
213.9231120032596
 51
301.8907918018461
  0
ARC
  5
386
330
1F
100
AcDbEntity
  8
0-7_金物
  6
Continuous
 62
     7
370
     5
100
AcDbCircle
 10
-2304.334227636478
 20
-771.8495711282605
 30
0.0
 40
1.800011977811815
100
AcDbArc
 50
0.0
 51
121.8907918018614
  0
LINE
  5
387
330
1F
100
AcDbEntity
  8
0-7_金物
  6
Continuous
 62
     7
370
     5
100
AcDbLine
 10
-2302.534215658684
 20
-775.3493923889108
 30
0.0
 11
-2302.534215658667
 21
-771.8495711282605
 31
0.0
  0
ARC
  5
388
330
1F
100
AcDbEntity
  8
0-7_金物
  6
Continuous
 62
     7
370
     5
100
AcDbCircle
 10
-2308.534215658685
 20
-775.3493923888806
 30
0.0
 40
6.000000000000811
100
AcDbArc
 50
292.4464399032286
 51
0.0
  0
ARC
  5
389
330
1F
100
AcDbEntity
  8
0-7_金物
  6
Continuous
 62
     7
370
     5
100
AcDbCircle
 10
-2321.134339429393
 20
-744.8493914610788
 30
0.0
 40
39.00019963020364
100
AcDbArc
 50
220.9258727638373
 51
292.4464399032233
  0
ARC
  5
38A
330
1F
100
AcDbEntity
  8
0-7_金物
  6
Continuous
 62
     7
370
     5
100
AcDbCircle
 10
-2174.133437100874
 20
-749.649399446285
 30
0.0
 40
3.59999999999971
100
AcDbArc
 50
0.0
 51
180.0
  0
ARC
  5
38B
330
1F
100
AcDbEntity
  8
0-7_金物
  6
Continuous
 62
     7
370
     5
100
AcDbCircle
 10
-2197.533443047728
 20
-762.5367379594451
 30
0.0
 40
11.99999999999909
100
AcDbArc
 50
319.0741272361557
 51
328.260726288411
  0
ARC
  5
38C
330
1F
100
AcDbEntity
  8
0-7_金物
  6
Continuous
 62
     7
370
     5
100
AcDbCircle
 10
-2177.733437100871
 20
-750.8493994462839
 30
0.0
 40
1.200000000000017
100
AcDbArc
 50
90.00000000002449
 51
270.0000000000261
  0
ARC
  5
38D
330
1F
100
AcDbEntity
  8
0-7_金物
  6
Continuous
 62
     7
370
     5
100
AcDbCircle
 10
-2364.934555030013
 20
-749.649399446285
 30
0.0
 40
3.59999999999971
100
AcDbArc
 50
0.0
 51
180.0
  0
ARC
  5
38E
330
1F
100
AcDbEntity
  8
0-7_金物
  6
Continuous
 62
     7
370
     5
100
AcDbCircle
 10
-2361.334555030014
 20
-750.8493994462839
 30
0.0
 40
1.200000000000017
100
AcDbArc
 50
269.9999999999723
 51
89.99999999997556
  0
ARC
  5
38F
330
1F
100
AcDbEntity
  8
0-7_金物
  6
Continuous
 62
     7
370
     5
100
AcDbCircle
 10
-2341.534549083158
 20
-762.5367379594451
 30
0.0
 40
11.99999999999904
100
AcDbArc
 50
211.7392737115898
 51
220.9258727638443
  0
LINE
  5
390
330
1F
100
AcDbEntity
  8
0-7_金物
  6
Continuous
 62
     7
370
     5
100
AcDbLine
 10
-2170.533437100873
 20
-765.8494395748892
 30
0.0
 11
-2170.533437100873
 21
-749.649399446285
 31
0.0
  0
LINE
  5
391
330
1F
100
AcDbEntity
  8
0-7_金物
  6
Continuous
 62
     7
370
     5
100
AcDbLine
 10
-2173.533446879888
 20
-768.8494395748728
 30
0.0
 11
-2187.328034382503
 21
-768.8493946090455
 31
0.0
  0
ARC
  5
392
330
1F
100
AcDbEntity
  8
0-7_金物
  6
Continuous
 62
     7
370
     5
100
AcDbCircle
 10
-2173.533437100874
 20
-765.8494395748892
 30
0.0
 40
3.000000000000129
100
AcDbArc
 50
269.9998132345706
 51
0.0
  0
LINE
  5
393
330
1F
100
AcDbEntity
  8
0-7_金物
  6
Continuous
 62
     7
370
     5
100
AcDbLine
 10
-2368.534555030014
 20
-767.049439574871
 30
0.0
 11
-2368.534555030014
 21
-749.649399446285
 31
0.0
  0
LINE
  5
394
330
1F
100
AcDbEntity
  8
0-7_金物
  6
Continuous
 62
     7
370
     5
100
AcDbLine
 10
-2365.534545250997
 20
-768.8494395748728
 30
0.0
 11
-2351.739957748382
 21
-768.8493946090455
 31
0.0
  0
ARC
  5
395
330
1F
100
AcDbEntity
  8
0-7_金物
  6
Continuous
 62
     7
370
     5
100
AcDbCircle
 10
-2365.534555030012
 20
-765.8494395748892
 30
0.0
 40
3.000000000000171
100
AcDbArc
 50
180.0
 51
270.0001867654327
  0
LINE
  5
396
330
1F
100
AcDbEntity
  8
0-7_金物
  6
Continuous
 62
     7
370
     5
100
AcDbLine
 10
-2177.733437100873
 20
-758.6493994462853
 30
0.0
 11
-2177.733437100873
 21
-752.0493994462845
 31
0.0
  0
ARC
  5
397
330
1F
100
AcDbEntity
  8
0-7_金物
  6
Continuous
 62
     7
370
     5
100
AcDbCircle
 10
-2180.733437100873
 20
-758.6493994462853
 30
0.0
 40
2.999999999999745
100
AcDbArc
 50
269.9999999999951
 51
0.0
  0
LINE
  5
398
330
1F
100
AcDbEntity
  8
0-7_金物
  6
Continuous
 62
     7
370
     5
100
AcDbLine
 10
-2185.533437100873
 20
-758.6493994462853
 30
0.0
 11
-2185.533437100873
 21
-645.8487326814065
 31
0.0
  0
LINE
  5
399
330
1F
100
AcDbEntity
  8
0-7_金物
  6
Continuous
 62
     7
370
     5
100
AcDbLine
 10
-2182.533437100873
 20
-761.649399446286
 30
0.0
 11
-2180.733437100873
 21
-761.649399446286
 31
0.0
  0
ARC
  5
39A
330
1F
100
AcDbEntity
  8
0-7_金物
  6
Continuous
 62
     7
370
     5
100
AcDbCircle
 10
-2182.533437100873
 20
-758.6493994462853
 30
0.0
 40
3.000000000000129
100
AcDbArc
 50
180.0
 51
269.9999999999935
  0
LINE
  5
39B
330
1F
100
AcDbEntity
  8
0-7_金物
  6
Continuous
 62
     7
370
     5
100
AcDbLine
 10
-2353.534555030014
 20
-758.6493994462853
 30
0.0
 11
-2353.534555030014
 21
-645.8487326814065
 31
0.0
  0
ARC
  5
39C
330
1F
100
AcDbEntity
  8
0-7_金物
  6
Continuous
 62
     7
370
     5
100
AcDbCircle
 10
-2356.534555030013
 20
-758.6493994462853
 30
0.0
 40
3.0
100
AcDbArc
 50
270.0000000000015
 51
0.0
  0
LINE
  5
39D
330
1F
100
AcDbEntity
  8
0-7_金物
  6
Continuous
 62
     7
370
     5
100
AcDbLine
 10
-2356.534555030013
 20
-761.649399446286
 30
0.0
 11
-2358.334555030012
 21
-761.649399446286
 31
0.0
  0
LINE
  5
39E
330
1F
100
AcDbEntity
  8
0-7_金物
  6
Continuous
 62
     7
370
     5
100
AcDbLine
 10
-2361.334555030011
 20
-758.6493994462853
 30
0.0
 11
-2361.334555030011
 21
-752.0493994462845
 31
0.0
  0
ARC
  5
39F
330
1F
100
AcDbEntity
  8
0-7_金物
  6
Continuous
 62
     7
370
     5
100
AcDbCircle
 10
-2358.334555030012
 20
-758.6493994462853
 30
0.0
 40
3.0
100
AcDbArc
 50
180.0
 51
270.0
  0
ARC
  5
3A0
330
1F
100
AcDbEntity
  8
0-7_金物
  6
Continuous
 62
     7
370
     5
100
AcDbCircle
 10
-2356.534555030013
 20
-758.0493994462842
 30
0.0
 40
3.000000000000171
100
AcDbArc
 50
180.0
 51
0.0
  0
ARC
  5
3A1
330
1F
100
AcDbEntity
  8
0-7_金物
  6
Continuous
 62
     7
370
     5
100
AcDbCircle
 10
-2359.534555030013
 20
-756.8493994462852
 30
0.0
 40
1.200000000000017
100
AcDbArc
 50
90.00000000000324
 51
270.0
  0
ARC
  5
3A2
330
1F
100
AcDbEntity
  8
0-7_金物
  6
Continuous
 62
     7
370
     5
100
AcDbCircle
 10
-2356.534555030013
 20
-743.0493994462842
 30
0.0
 40
3.0
100
AcDbArc
 50
0.0
 51
90.0
  0
LINE
  5
3A3
330
1F
100
AcDbEntity
  8
0-7_金物
  6
Continuous
 62
     7
370
     5
100
AcDbLine
 10
-2359.534555030013
 20
-749.0493994462855
 30
0.0
 11
-2359.534555030013
 21
-755.6493994462863
 31
0.0
  0
ARC
  5
3A4
330
1F
100
AcDbEntity
  8
0-7_金物
  6
Continuous
 62
     7
370
     5
100
AcDbCircle
 10
-2362.534555030013
 20
-749.0493994462855
 30
0.0
 40
3.0
100
AcDbArc
 50
0.0
 51
90.0
  0
LINE
  5
3A5
330
1F
100
AcDbEntity
  8
0-7_金物
  6
Continuous
 62
     7
370
     5
100
AcDbLine
 10
-2378.134555030013
 20
-746.0493994462844
 30
0.0
 11
-2362.534555030013
 21
-746.0493994462844
 31
0.0
  0
ARC
  5
3A6
330
1F
100
AcDbEntity
  8
0-7_金物
  6
Continuous
 62
     7
370
     5
100
AcDbCircle
 10
-2378.134555030013
 20
-749.0493994462855
 30
0.0
 40
3.000000000000171
100
AcDbArc
 50
90.0
 51
180.0
  0
LINE
  5
3A7
330
1F
100
AcDbEntity
  8
0-7_金物
  6
Continuous
 62
     7
370
     5
100
AcDbLine
 10
-2384.134555030013
 20
-740.0493994462852
 30
0.0
 11
-2356.534555030013
 21
-740.0493994462852
 31
0.0
  0
ARC
  5
3A8
330
1F
100
AcDbEntity
  8
0-7_金物
  6
Continuous
 62
     7
370
     5
100
AcDbCircle
 10
-2384.134555030013
 20
-743.0493994462842
 30
0.0
 40
3.0
100
AcDbArc
 50
90.0
 51
180.0
  0
ARC
  5
3A9
330
1F
100
AcDbEntity
  8
0-7_金物
  6
Continuous
 62
     7
370
     5
100
AcDbCircle
 10
-2371.534555030013
 20
-762.8494395748731
 30
0.0
 40
2.999999999999829
100
AcDbArc
 50
0.0
 51
180.0
  0
ARC
  5
3AA
330
1F
100
AcDbEntity
  8
0-7_金物
  6
Continuous
 62
     7
370
     5
100
AcDbCircle
 10
-2370.334555030013
 20
-767.049439574871
 30
0.0
 40
1.800000000000153
100
AcDbArc
 50
269.9999999999967
 51
0.0
  0
LINE
  5
3AB
330
1F
100
AcDbEntity
  8
0-7_金物
  6
Continuous
 62
     7
370
     5
100
AcDbLine
 10
-2381.134555030013
 20
-761.0494395748709
 30
0.0
 11
-2381.134555030013
 21
-749.0493994462855
 31
0.0
  0
LINE
  5
3AC
330
1F
100
AcDbEntity
  8
0-7_金物
  6
Continuous
 62
     7
370
     5
100
AcDbLine
 10
-2379.334555030012
 20
-762.8494395748731
 30
0.0
 11
-2374.534555030013
 21
-762.8494395748731
 31
0.0
  0
ARC
  5
3AD
330
1F
100
AcDbEntity
  8
0-7_金物
  6
Continuous
 62
     7
370
     5
100
AcDbCircle
 10
-2379.334555030012
 20
-761.0494395748709
 30
0.0
 40
1.800000000000069
100
AcDbArc
 50
180.0
 51
269.9999999999919
  0
LINE
  5
3AE
330
1F
100
AcDbEntity
  8
0-7_金物
  6
Continuous
 62
     7
370
     5
100
AcDbLine
 10
-2379.334555030012
 20
-768.8494395748706
 30
0.0
 11
-2370.334555030013
 21
-768.8494395748706
 31
0.0
  0
LINE
  5
3AF
330
1F
100
AcDbEntity
  8
0-7_金物
  6
Continuous
 62
     7
370
     5
100
AcDbLine
 10
-2381.134555030013
 20
-851.0493994462844
 30
0.0
 11
-2381.134555030013
 21
-770.6494395748712
 31
0.0
  0
ARC
  5
3B0
330
1F
100
AcDbEntity
  8
0-7_金物
  6
Continuous
 62
     7
370
     5
100
AcDbCircle
 10
-2379.334555030012
 20
-770.6494395748712
 30
0.0
 40
1.799999999999898
100
AcDbArc
 50
90.0
 51
180.0
  0
LINE
  5
3B1
330
1F
100
AcDbEntity
  8
0-7_金物
  6
Continuous
 62
     7
370
     5
100
AcDbLine
 10
-2267.733984087628
 20
-651.8487726074454
 30
0.0
 11
-2269.533996065443
 21
-650.0487606296338
 31
0.0
  0
LINE
  5
3B2
330
1F
100
AcDbEntity
  8
0-7_金物
  6
Continuous
 62
     7
370
     5
100
AcDbLine
 10
-2269.533996065442
 20
-650.0487606296338
 30
0.0
 11
-2271.334008043255
 21
-651.8487726074454
 31
0.0
  0
LINE
  5
3B3
330
1F
100
AcDbEntity
  8
0-0_補助線
  6
JWW_HOJO
 62
   120
370
     5
100
AcDbLine
 10
-373.5339966188002
 20
-3258.848713002944
 30
0.0
 11
-373.5339966188002
 21
-210.8487130029482
 31
0.0
  0
LWPOLYLINE
  5
3B4
330
1F
100
AcDbEntity
  8
0-B_寸法
  6
Continuous
 62
     7
370
     5
100
AcDbPolyline
 90
        4
 70
     1
 43
3.0
 10
-372.0339966188002
 20
-558.8487130029698
 42
0.4142135623731
 10
-373.5339966188002
 20
-557.3487130029698
 42
0.4142135623731
 10
-375.0339966188002
 20
-558.8487130029698
 42
0.4142135623731
 10
-373.5339966188002
 20
-560.3487130029698
 42
0.4142135623731
  0
MTEXT
  5
3B5
330
1F
100
AcDbEntity
  8
0-A_文字
  6
Continuous
 62
     7
370
     0
100
AcDbMText
 10
-1513.5339966188
 20
-3554.200069581008
 30
0.0
 40
78.97090909090909
 41
1140.0
 46
0.0
 71
     7
 72
     1
  1
{\fＭＳ ゴシック|b0|i0|c128|p49;※(　)内寸法はハイドア}
 73
     1
 44
1.0
  0
MTEXT
  5
3B6
330
1F
100
AcDbEntity
  8
0-B_寸法
  6
Continuous
 62
     7
370
   211
100
AcDbMText
 10
-1018.5339966188
 20
-1028.318712718385
 30
0.0
 40
99.06
 41
195.0
 46
0.0
 71
     7
 72
     1
  1
{\fＭＳ ゴシック|b0|i0|c128|p49;6.8}
 11
6.123031769111886E-17
 21
1.0
 31
0.0
 73
     1
 44
1.0
  0
MTEXT
  5
3B7
330
1F
100
AcDbEntity
  8
0-B_寸法
  6
Continuous
 62
     7
370
   211
100
AcDbMText
 10
-808.5339966188002
 20
-961.7712127183854
 30
0.0
 40
97.15499999999999
 41
127.5
 46
0.0
 71
     7
 72
     1
  1
{\fＭＳ ゴシック|b0|i0|c128|p49;14}
 11
6.123031769111886E-17
 21
1.0
 31
0.0
 73
     1
 44
1.0
  0
LINE
  5
3B8
330
1F
100
AcDbEntity
  8
0-0_補助線
  6
JWW_HOJO
 62
   120
370
     5
100
AcDbLine
 10
-1213.5339966188
 20
-3258.848713002945
 30
0.0
 11
-1213.5339966188
 21
-210.8487130029482
 31
0.0
  0
LINE
  5
3B9
330
1F
100
AcDbEntity
  8
0-0_補助線
  6
JWW_HOJO
 62
   120
370
     5
100
AcDbLine
 10
-1003.5339966188
 20
-3258.848713002944
 30
0.0
 11
-1003.5339966188
 21
-210.8487130029482
 31
0.0
  0
LINE
  5
3BA
330
1F
100
AcDbEntity
  8
0-0_補助線
  6
JWW_HOJO
 62
   120
370
     5
100
AcDbLine
 10
-793.5339966188002
 20
-3258.848713271378
 30
0.0
 11
-793.5339966188002
 21
-210.8487130029482
 31
0.0
  0
LINE
  5
3BB
330
1F
100
AcDbEntity
  8
0-0_補助線
  6
JWW_HOJO
 62
   120
370
     5
100
AcDbLine
 10
-583.5339966188002
 20
-3258.848713002944
 30
0.0
 11
-583.5339966188002
 21
-210.8487130029482
 31
0.0
  0
LINE
  5
3BC
330
1F
100
AcDbEntity
  8
0-B_寸法
  6
Continuous
 62
   120
370
     5
100
AcDbLine
 10
-1003.5339966188
 20
-782.0487127183858
 30
0.0
 11
-1003.5339966188
 21
-822.8487127183854
 31
0.0
  0
LWPOLYLINE
  5
3BD
330
1F
100
AcDbEntity
  8
0-B_寸法
  6
Continuous
 62
     7
370
     5
100
AcDbPolyline
 90
        4
 70
     1
 43
3.0
 10
-1002.0339966188
 20
-782.0487127183858
 42
0.4142135623731
 10
-1003.5339966188
 20
-780.5487127183858
 42
0.4142135623731
 10
-1005.0339966188
 20
-782.0487127183858
 42
0.4142135623731
 10
-1003.5339966188
 20
-783.5487127183859
 42
0.4142135623731
  0
LWPOLYLINE
  5
3BE
330
1F
100
AcDbEntity
  8
0-B_寸法
  6
Continuous
 62
     7
370
     5
100
AcDbPolyline
 90
        4
 70
     1
 43
3.0
 10
-1002.0339966188
 20
-822.8487127183854
 42
0.4142135623731
 10
-1003.5339966188
 20
-821.3487127183854
 42
0.4142135623731
 10
-1005.0339966188
 20
-822.8487127183854
 42
0.4142135623731
 10
-1003.5339966188
 20
-824.3487127183854
 42
0.4142135623731
  0
LINE
  5
3BF
330
1F
100
AcDbEntity
  8
0-B_寸法
  6
Continuous
 62
   120
370
     5
100
AcDbLine
 10
-1003.5339966188
 20
-782.0487127183858
 30
0.0
 11
-1213.5339966188
 21
-782.0487127183858
 31
0.0
  0
LINE
  5
3C0
330
1F
100
AcDbEntity
  8
0-B_寸法
  6
Continuous
 62
   120
370
     5
100
AcDbLine
 10
-793.5339966188002
 20
-822.8487127183854
 30
0.0
 11
-1213.5339966188
 21
-822.8487127183854
 31
0.0
  0
LINE
  5
3C1
330
1F
100
AcDbEntity
  8
0-B_寸法
  6
Continuous
 62
   120
370
     5
100
AcDbLine
 10
-793.5339966188002
 20
-738.8487130029698
 30
0.0
 11
-793.5339966188002
 21
-822.8487127183854
 31
0.0
  0
LWPOLYLINE
  5
3C2
330
1F
100
AcDbEntity
  8
0-B_寸法
  6
Continuous
 62
     7
370
     5
100
AcDbPolyline
 90
        4
 70
     1
 43
3.0
 10
-792.0339966188002
 20
-738.8487130029698
 42
0.4142135623731
 10
-793.5339966188002
 20
-737.3487130029698
 42
0.4142135623731
 10
-795.0339966188002
 20
-738.8487130029698
 42
0.4142135623731
 10
-793.5339966188002
 20
-740.3487130029698
 42
0.4142135623731
  0
LWPOLYLINE
  5
3C3
330
1F
100
AcDbEntity
  8
0-B_寸法
  6
Continuous
 62
     7
370
     5
100
AcDbPolyline
 90
        4
 70
     1
 43
3.0
 10
-792.0339966188002
 20
-822.8487127183854
 42
0.4142135623731
 10
-793.5339966188002
 20
-821.3487127183854
 42
0.4142135623731
 10
-795.0339966188002
 20
-822.8487127183854
 42
0.4142135623731
 10
-793.5339966188002
 20
-824.3487127183854
 42
0.4142135623731
  0
LINE
  5
3C4
330
1F
100
AcDbEntity
  8
0-B_寸法
  6
Continuous
 62
   120
370
     5
100
AcDbLine
 10
-583.5339966188002
 20
-738.8487130029698
 30
0.0
 11
-1213.5339966188
 21
-738.8487130029698
 31
0.0
  0
LINE
  5
3C5
330
1F
100
AcDbEntity
  8
0-B_寸法
  6
Continuous
 62
   120
370
     5
100
AcDbLine
 10
-793.5339966188002
 20
-822.8487127183854
 30
0.0
 11
-793.5339966188002
 21
-3138.849313002965
 31
0.0
  0
LWPOLYLINE
  5
3C6
330
1F
100
AcDbEntity
  8
0-B_寸法
  6
Continuous
 62
     7
370
     5
100
AcDbPolyline
 90
        4
 70
     1
 43
3.0
 10
-792.0339966188002
 20
-3138.849313002965
 42
0.4142135623731
 10
-793.5339966188002
 20
-3137.349313002966
 42
0.4142135623731
 10
-795.0339966188002
 20
-3138.849313002965
 42
0.4142135623731
 10
-793.5339966188002
 20
-3140.349313002965
 42
0.4142135623731
  0
LINE
  5
3C7
330
1F
100
AcDbEntity
  8
0-B_寸法
  6
Continuous
 62
   120
370
     5
100
AcDbLine
 10
-793.5339966188002
 20
-3138.849313002965
 30
0.0
 11
-1213.5339966188
 21
-3138.849313002965
 31
0.0
  0
LINE
  5
3C8
330
1F
100
AcDbEntity
  8
0-B_寸法
  6
Continuous
 62
   120
370
     5
100
AcDbLine
 10
-793.5339966188002
 20
-3138.849313002965
 30
0.0
 11
-793.5339966188002
 21
-3168.849313002965
 31
0.0
  0
LWPOLYLINE
  5
3C9
330
1F
100
AcDbEntity
  8
0-B_寸法
  6
Continuous
 62
     7
370
     5
100
AcDbPolyline
 90
        4
 70
     1
 43
3.0
 10
-792.0339966188002
 20
-3168.849313002965
 42
0.4142135623731
 10
-793.5339966188002
 20
-3167.349313002966
 42
0.4142135623731
 10
-795.0339966188002
 20
-3168.849313002965
 42
0.4142135623731
 10
-793.5339966188002
 20
-3170.349313002965
 42
0.4142135623731
  0
LINE
  5
3CA
330
1F
100
AcDbEntity
  8
0-B_寸法
  6
Continuous
 62
   120
370
     5
100
AcDbLine
 10
-583.5339966188002
 20
-3168.849313002965
 30
0.0
 11
-1213.5339966188
 21
-3168.849313002965
 31
0.0
  0
LINE
  5
3CB
330
1F
100
AcDbEntity
  8
0-B_寸法
  6
Continuous
 62
   120
370
     5
100
AcDbLine
 10
-583.5339966188002
 20
-3258.848713002945
 30
0.0
 11
-583.5339966188002
 21
-738.8487130029698
 31
0.0
  0
LWPOLYLINE
  5
3CC
330
1F
100
AcDbEntity
  8
0-B_寸法
  6
Continuous
 62
     7
370
     5
100
AcDbPolyline
 90
        4
 70
     1
 43
3.0
 10
-582.0339966188002
 20
-3186.848713002945
 42
0.4142135623731
 10
-583.5339966188002
 20
-3185.348713002945
 42
0.4142135623731
 10
-585.0339966188002
 20
-3186.848713002945
 42
0.4142135623731
 10
-583.5339966188002
 20
-3188.348713002945
 42
0.4142135623731
  0
LWPOLYLINE
  5
3CD
330
1F
100
AcDbEntity
  8
0-B_寸法
  6
Continuous
 62
     7
370
     5
100
AcDbPolyline
 90
        4
 70
     1
 43
3.0
 10
-582.0339966188002
 20
-3168.849313002965
 42
0.4142135623731
 10
-583.5339966188002
 20
-3167.349313002966
 42
0.4142135623731
 10
-585.0339966188002
 20
-3168.849313002965
 42
0.4142135623731
 10
-583.5339966188002
 20
-3170.349313002965
 42
0.4142135623731
  0
LWPOLYLINE
  5
3CE
330
1F
100
AcDbEntity
  8
0-B_寸法
  6
Continuous
 62
     7
370
     5
100
AcDbPolyline
 90
        4
 70
     1
 43
3.0
 10
-582.0339966188002
 20
-738.8487130029698
 42
0.4142135623731
 10
-583.5339966188002
 20
-737.3487130029698
 42
0.4142135623731
 10
-585.0339966188002
 20
-738.8487130029698
 42
0.4142135623731
 10
-583.5339966188002
 20
-740.3487130029698
 42
0.4142135623731
  0
LINE
  5
3CF
330
1F
100
AcDbEntity
  8
0-B_寸法
  6
Continuous
 62
   120
370
     5
100
AcDbLine
 10
-583.5339966188002
 20
-558.8487130029698
 30
0.0
 11
-583.5339966188002
 21
-738.8487130029698
 31
0.0
  0
LWPOLYLINE
  5
3D0
330
1F
100
AcDbEntity
  8
0-B_寸法
  6
Continuous
 62
     7
370
     5
100
AcDbPolyline
 90
        4
 70
     1
 43
3.0
 10
-582.0339966188002
 20
-558.8487130029698
 42
0.4142135623731
 10
-583.5339966188002
 20
-557.3487130029698
 42
0.4142135623731
 10
-585.0339966188002
 20
-558.8487130029698
 42
0.4142135623731
 10
-583.5339966188002
 20
-560.3487130029698
 42
0.4142135623731
  0
LINE
  5
3D1
330
1F
100
AcDbEntity
  8
0-B_寸法
  6
Continuous
 62
   120
370
     5
100
AcDbLine
 10
-373.5339966188002
 20
-558.8487130029698
 30
0.0
 11
-1213.5339966188
 21
-558.8487130029698
 31
0.0
  0
MTEXT
  5
3D2
330
1F
100
AcDbEntity
  8
0-B_寸法
  6
Continuous
 62
     7
370
   211
100
AcDbMText
 10
-598.5339966188002
 20
-724.0212130029694
 30
0.0
 40
97.15499999999999
 41
127.5
 46
0.0
 71
     7
 72
     1
  1
{\fＭＳ ゴシック|b0|i0|c128|p49;30}
 11
6.123031769111886E-17
 21
1.0
 31
0.0
 73
     1
 44
1.0
  0
LINE
  5
3D3
330
1F
100
AcDbEntity
  8
0-B_寸法
  6
Continuous
 62
   120
370
     5
100
AcDbLine
 10
-373.5339966188002
 20
-3258.848713002945
 30
0.0
 11
-1213.5339966188
 21
-3258.848713002945
 31
0.0
  0
MTEXT
  5
3D4
330
1F
100
AcDbEntity
  8
0-B_寸法
  6
Continuous
 62
     7
370
   211
100
AcDbMText
 10
-808.5339966188002
 20
-3141.129313002965
 30
0.0
 40
91.44
 41
60.0
 46
0.0
 71
     7
 72
     1
  1
{\fＭＳ ゴシック|b0|i0|c128|p49;5}
 11
6.123031769111886E-17
 21
1.0
 31
0.0
 73
     1
 44
1.0
  0
MTEXT
  5
3D5
330
1F
100
AcDbEntity
  8
0-B_寸法
  6
Continuous
 62
     7
370
   211
100
AcDbMText
 10
-598.5339966188002
 20
-3171.129313002965
 30
0.0
 40
91.44
 41
60.0
 46
0.0
 71
     7
 72
     1
  1
{\fＭＳ ゴシック|b0|i0|c128|p49;3}
 11
6.123031769111886E-17
 21
1.0
 31
0.0
 73
     1
 44
1.0
  0
MTEXT
  5
3D6
330
1F
100
AcDbEntity
  8
0-B_寸法
  6
Continuous
 62
     7
370
   211
100
AcDbMText
 10
-808.5339966188002
 20
-2557.481213002965
 30
0.0
 40
102.235
 41
1207.5
 46
0.0
 71
     7
 72
     1
  1
{\fＭＳ ゴシック|b0|i0|c128|p49;ＤＨ＝1,983(2,183)}
 11
6.123031769111886E-17
 21
1.0
 31
0.0
 73
     1
 44
1.0
  0
MTEXT
  5
3D7
330
1F
100
AcDbEntity
  8
0-B_寸法
  6
Continuous
 62
     7
370
   211
100
AcDbMText
 10
-598.5339966188002
 20
-2557.481213002965
 30
0.0
 40
102.235
 41
1207.5
 46
0.0
 71
     7
 72
     1
  1
{\fＭＳ ゴシック|b0|i0|c128|p49;枠内＝2,002(2,202)}
 11
6.123031769111886E-17
 21
1.0
 31
0.0
 73
     1
 44
1.0
  0
LWPOLYLINE
  5
3D8
330
1F
100
AcDbEntity
  8
0-B_寸法
  6
Continuous
 62
     7
370
     5
100
AcDbPolyline
 90
        4
 70
     1
 43
3.0
 10
-582.0339966188002
 20
-3258.848713002945
 42
0.4142135623731
 10
-583.5339966188002
 20
-3257.348713002946
 42
0.4142135623731
 10
-585.0339966188002
 20
-3258.848713002945
 42
0.4142135623731
 10
-583.5339966188002
 20
-3260.348713002945
 42
0.4142135623731
  0
MTEXT
  5
3D9
330
1F
100
AcDbEntity
  8
0-B_寸法
  6
Continuous
 62
     7
370
   211
100
AcDbMText
 10
-598.5339966188002
 20
-3409.771213002946
 30
0.0
 40
97.15499999999999
 41
127.5
 46
0.0
 71
     7
 72
     1
  1
{\fＭＳ ゴシック|b0|i0|c128|p49;12}
 11
6.123031769111886E-17
 21
1.0
 31
0.0
 73
     1
 44
1.0
  0
LINE
  5
3DA
330
1F
100
AcDbEntity
  8
0-B_寸法
  6
Continuous
 62
   120
370
     5
100
AcDbLine
 10
-583.5339966188002
 20
-3186.848713002945
 30
0.0
 11
-1213.5339966188
 21
-3186.848713002945
 31
0.0
  0
LWPOLYLINE
  5
3DB
330
1F
100
AcDbEntity
  8
0-B_寸法
  6
Continuous
 62
     7
370
     5
100
AcDbPolyline
 90
        4
 70
     1
 43
3.0
 10
-372.0339966188002
 20
-3258.848713002945
 42
0.4142135623731
 10
-373.5339966188002
 20
-3257.348713002946
 42
0.4142135623731
 10
-375.0339966188002
 20
-3258.848713002945
 42
0.4142135623731
 10
-373.5339966188002
 20
-3260.348713002945
 42
0.4142135623731
  0
LINE
  5
3DC
330
1F
100
AcDbEntity
  8
0-1_通り芯
  6
JWW_CENTER1
 62
   120
370
     5
100
AcDbLine
 10
-3525.033996618797
 20
-558.8487130029698
 30
0.0
 11
-259.5339966188003
 21
-558.8487130029698
 31
0.0
  0
LINE
  5
3DD
330
1F
100
AcDbEntity
  8
0-0_補助線
  6
JWW_HOJO
 62
   120
370
     5
100
AcDbLine
 10
-3525.033996618797
 20
-3258.848713002945
 30
0.0
 11
-3525.033996618797
 21
-210.8487130029482
 31
0.0
  0
LINE
  5
3DE
330
1F
100
AcDbEntity
  8
0-0_補助線
  6
JWW_HOJO
 62
   120
370
     5
100
AcDbLine
 10
-3525.033996618797
 20
-210.8487130029482
 30
0.0
 11
-373.5339966188002
 21
-210.8487130029482
 31
0.0
  0
MTEXT
  5
3DF
330
1F
100
AcDbEntity
  8
0-A_文字
  6
Continuous
 62
     7
370
     5
100
AcDbMText
 10
-3525.033996618797
 20
-64.21205741321619
 30
0.0
 40
91.43999999999997
 41
1140.0
 46
0.0
 71
     7
 72
     1
  1
{\fＭＳ ゴシック|b0|i0|c128|p49;■縦断面図[ﾚｰﾙﾀｲﾌﾟ]}
 73
     1
 44
1.0
  0
MTEXT
  5
3E0
330
1F
100
AcDbEntity
  8
0-B_寸法
  6
Continuous
 62
     7
370
   211
100
AcDbMText
 10
-388.5339966188002
 20
-2557.481213002965
 30
0.0
 40
102.235
 41
1207.5
 46
0.0
 71
     7
 72
     1
  1
{\fＭＳ ゴシック|b0|i0|c128|p49;枠外＝2,047(2,247)}
 11
6.123031769111886E-17
 21
1.0
 31
0.0
 73
     1
 44
1.0
  0
LINE
  5
3E1
330
1F
100
AcDbEntity
  8
0-B_寸法
  6
Continuous
 62
   120
370
     5
100
AcDbLine
 10
-373.5339966188002
 20
-558.8487130029698
 30
0.0
 11
-373.5339966188002
 21
-3258.848713002945
 31
0.0
  0
LINE
  5
3E2
330
1F
100
AcDbEntity
  8
0-1_通り芯
  6
JWW_CENTER1
 62
   120
370
     5
100
AcDbLine
 10
-3496.533996618794
 20
-3258.848713002945
 30
0.0
 11
-259.5339966188003
 21
-3258.848713002945
 31
0.0
  0
LINE
  5
3E3
330
1F
100
AcDbEntity
  8
0-0_補助線
  6
JWW_HOJO
 62
   120
370
     5
100
AcDbLine
 10
-373.5339966188002
 20
-3258.848713002945
 30
0.0
 11
-3496.533996618794
 21
-3258.848713002945
 31
0.0
  0
MTEXT
  5
3E4
330
1F
100
AcDbEntity
  8
F-A_文字
  6
Continuous
 62
     7
370
     0
100
AcDbMText
 10
3569.917643811961
 20
-3946.903115907308
 30
0.0
 40
76.19999999999999
 41
150.0
 46
0.0
 71
     7
 72
     1
  1
{\fＭＳ ゴシック|b0|i0|c128|p49;1/5}
 73
     1
 44
1.0
  0
LINE
  5
3E5
330
1F
100
AcDbEntity
  8
0-A_文字
  6
Continuous
 62
     7
370
     5
100
AcDbLine
 10
-3006.033996618801
 20
-1824.848713002965
 30
0.0
 11
-3006.033996618801
 21
-2064.848713002965
 31
0.0
  0
LINE
  5
3E6
330
1F
100
AcDbEntity
  8
0-A_文字
  6
Continuous
 62
     7
370
     5
100
AcDbLine
 10
-3606.033996618803
 20
-2064.848713002965
 30
0.0
 11
-3606.033996618803
 21
-1824.848713002965
 31
0.0
  0
LINE
  5
3E7
330
1F
100
AcDbEntity
  8
0-A_文字
  6
Continuous
 62
     7
370
     5
100
AcDbLine
 10
-3006.033996618801
 20
-2064.848713002965
 30
0.0
 11
-3606.033996618803
 21
-2064.848713002965
 31
0.0
  0
LINE
  5
3E8
330
1F
100
AcDbEntity
  8
0-A_文字
  6
Continuous
 62
     7
370
     5
100
AcDbLine
 10
-3606.033996618803
 20
-1824.848713002965
 30
0.0
 11
-3006.033996618801
 21
-1824.848713002965
 31
0.0
  0
MTEXT
  5
3E9
330
1F
100
AcDbEntity
  8
0-A_文字
  6
Continuous
 62
     7
370
     5
100
AcDbMText
 10
-3546.033996618803
 20
-2019.128713002965
 30
0.0
 40
91.44
 41
480.0
 46
0.0
 71
     7
 72
     1
  1
{\fＭＳ ゴシック|b0|i0|c128|p49;和室側・}
 73
     1
 44
1.0
  0
MTEXT
  5
3EA
330
1F
100
AcDbEntity
  8
0-A_文字
  6
Continuous
 62
     7
370
     5
100
AcDbMText
 10
-1820.283996618809
 20
-2019.128713002963
 30
0.0
 40
91.4400000000026
 41
480.0000000000136
 46
0.0
 71
     7
 72
     1
  1
{\fＭＳ ゴシック|b0|i0|c128|p49;洋室側・}
 73
     1
 44
1.0
  0
LINE
  5
3EB
330
1F
100
AcDbEntity
  8
0-A_文字
  6
Continuous
 62
     7
370
     5
100
AcDbLine
 10
-1880.283996618803
 20
-1824.848713002965
 30
0.0
 11
-1280.283996618803
 21
-1824.848713002965
 31
0.0
  0
LINE
  5
3EC
330
1F
100
AcDbEntity
  8
0-A_文字
  6
Continuous
 62
     7
370
     5
100
AcDbLine
 10
-1280.283996618803
 20
-2064.848713002965
 30
0.0
 11
-1880.283996618803
 21
-2064.848713002965
 31
0.0
  0
LINE
  5
3ED
330
1F
100
AcDbEntity
  8
0-A_文字
  6
Continuous
 62
     7
370
     5
100
AcDbLine
 10
-1880.283996618803
 20
-2064.848713002965
 30
0.0
 11
-1880.283996618803
 21
-1824.848713002965
 31
0.0
  0
LINE
  5
3EE
330
1F
100
AcDbEntity
  8
0-A_文字
  6
Continuous
 62
     7
370
     5
100
AcDbLine
 10
-1280.283996618803
 20
-1824.848713002965
 30
0.0
 11
-1280.283996618803
 21
-2064.848713002965
 31
0.0
  0
LINE
  5
3EF
330
1F
100
AcDbEntity
  8
0-A_文字
  6
Continuous
 62
     7
370
     5
100
AcDbLine
 10
-1306.92110061921
 20
-3133.967421332442
 30
0.0
 11
-1276.921100619211
 21
-3185.928945559508
 31
0.0
  0
LINE
  5
3F0
330
1F
100
AcDbEntity
  8
0-A_文字
  6
Continuous
 62
     7
370
     5
100
AcDbLine
 10
-1246.92110061921
 20
-3133.967421332442
 30
0.0
 11
-1306.92110061921
 21
-3133.967421332442
 31
0.0
  0
LINE
  5
3F1
330
1F
100
AcDbEntity
  8
0-A_文字
  6
Continuous
 62
     7
370
     5
100
AcDbLine
 10
-1246.92110061921
 20
-3133.967421332442
 30
0.0
 11
-1276.92110061921
 21
-3185.928945559508
 31
0.0
  0
LINE
  5
3F2
330
1F
100
AcDbEntity
  8
仕上げ
  6
Continuous
 62
    40
370
     5
100
AcDbLine
 10
-1993.534254110867
 20
-3258.84891926503
 30
0.0
 11
-1213.5339966188
 21
-3258.84891926503
 31
0.0
  0
LINE
  5
3F3
330
1F
100
AcDbEntity
  8
仕上げ
  6
Continuous
 62
    40
370
     5
100
AcDbLine
 10
-1993.534254110867
 20
-3186.848919265029
 30
0.0
 11
-1213.5339966188
 21
-3186.848919265029
 31
0.0
  0
LINE
  5
3F4
330
1F
100
AcDbEntity
  8
仕上げ
  6
Continuous
 62
     7
370
     5
100
AcDbLine
 10
-1993.534254110867
 20
-3240.84891926503
 30
0.0
 11
-1213.5339966188
 21
-3240.84891926503
 31
0.0
  0
LINE
  5
3F5
330
1F
100
AcDbEntity
  8
仕上げ
  6
Continuous
 62
     7
370
     5
100
AcDbLine
 10
-1993.534254110867
 20
-3231.848919265029
 30
0.0
 11
-1213.5339966188
 21
-3231.848919265029
 31
0.0
  0
LINE
  5
3F6
330
1F
100
AcDbEntity
  8
仕上げ
  6
Continuous
 62
     7
370
     5
100
AcDbLine
 10
-1993.534254110867
 20
-3222.848919265028
 30
0.0
 11
-1213.5339966188
 21
-3222.848919265028
 31
0.0
  0
LINE
  5
3F7
330
1F
100
AcDbEntity
  8
仕上げ
  6
Continuous
 62
     7
370
     5
100
AcDbLine
 10
-1993.534254110867
 20
-3213.848919265028
 30
0.0
 11
-1213.5339966188
 21
-3213.848919265028
 31
0.0
  0
LINE
  5
3F8
330
1F
100
AcDbEntity
  8
仕上げ
  6
Continuous
 62
     7
370
     5
100
AcDbLine
 10
-1993.534254110867
 20
-3204.848919265029
 30
0.0
 11
-1213.5339966188
 21
-3204.848919265029
 31
0.0
  0
LINE
  5
3F9
330
1F
100
AcDbEntity
  8
仕上げ
  6
Continuous
 62
     7
370
     5
100
AcDbLine
 10
-1993.534254110867
 20
-3195.84891926503
 30
0.0
 11
-1213.5339966188
 21
-3195.84891926503
 31
0.0
  0
LINE
  5
3FA
330
1F
100
AcDbEntity
  8
仕上げ
  6
Continuous
 62
     7
370
     5
100
AcDbLine
 10
-1993.534254110867
 20
-3249.848919265029
 30
0.0
 11
-1213.5339966188
 21
-3249.848919265029
 31
0.0
  0
LINE
  5
3FB
330
1F
100
AcDbEntity
  8
0-0_補助線
  6
JWW_HOJO
 62
   120
370
     5
100
AcDbLine
 10
-1792.533996618801
 20
-2004.848713002964
 30
0.0
 11
-2974.533996618802
 21
-2004.848713002964
 31
0.0
  0
LINE
  5
3FC
330
1F
100
AcDbEntity
  8
0-0_補助線
  6
JWW_HOJO
 62
   120
370
     5
100
AcDbLine
 10
-1792.533996618801
 20
-1884.848713002964
 30
0.0
 11
-2974.533996618802
 21
-1884.848713002964
 31
0.0
  0
LINE
  5
3FD
330
1F
100
AcDbEntity
  8
0-4_枠
  6
Continuous
 62
   120
370
     5
100
AcDbLine
 10
-2848.533996618802
 20
-3186.848919265029
 30
0.0
 11
-2848.533996618802
 21
-2004.848713002964
 31
0.0
  0
LINE
  5
3FE
330
1F
100
AcDbEntity
  8
0-4_枠
  6
Continuous
 62
   120
370
     5
100
AcDbLine
 10
-1918.533996618802
 20
-2004.848713002964
 30
0.0
 11
-1918.533996618802
 21
-3186.848919265029
 31
0.0
  0
LINE
  5
3FF
330
1F
100
AcDbEntity
  8
0-6_扉
  6
Continuous
 62
   200
370
     5
100
AcDbLine
 10
-2587.533997172154
 20
-2004.848713002964
 30
0.0
 11
-2587.533997172154
 21
-3138.849313002965
 31
0.0
  0
LINE
  5
400
330
1F
100
AcDbEntity
  8
0-6_扉
  6
Continuous
 62
   200
370
     5
100
AcDbLine
 10
-2179.533997172156
 20
-2004.848713002964
 30
0.0
 11
-2179.533997172156
 21
-3138.849313002965
 31
0.0
  0
LINE
  5
401
330
1F
100
AcDbEntity
  8
0-6_扉
  6
Continuous
 62
   200
370
     5
100
AcDbLine
 10
-2359.533997172156
 20
-2004.848713002964
 30
0.0
 11
-2359.533997172156
 21
-3138.849313002965
 31
0.0
  0
LINE
  5
402
330
1F
100
AcDbEntity
  8
0-6_扉
  6
Continuous
 62
   200
370
     5
100
AcDbLine
 10
-2407.533997172154
 20
-2004.848713002964
 30
0.0
 11
-2407.533997172154
 21
-3138.849313002965
 31
0.0
  0
LINE
  5
403
330
1F
100
AcDbEntity
  8
0-4_枠
  6
Continuous
 62
    92
370
     5
100
AcDbLine
 10
-2769.291613423748
 20
-3168.848919265048
 30
0.0
 11
-2773.534254110867
 21
-3173.091559952167
 31
0.0
  0
LINE
  5
404
330
1F
100
AcDbEntity
  8
0-4_枠
  6
Continuous
 62
    92
370
     5
100
AcDbLine
 10
-1993.534254110867
 20
-3258.84922253348
 30
0.0
 11
-2773.534254110867
 21
-3258.84922253348
 31
0.0
  0
LINE
  5
405
330
1F
100
AcDbEntity
  8
0-4_枠
  6
Continuous
 62
    92
370
     5
100
AcDbLine
 10
-1993.534254110867
 20
-3173.091559952167
 30
0.0
 11
-1997.776894797986
 21
-3168.848919265048
 31
0.0
  0
LINE
  5
406
330
1F
100
AcDbEntity
  8
0-4_枠
  6
Continuous
 62
    92
370
     5
100
AcDbLine
 10
-1996.534254110868
 20
-3258.849428527135
 30
0.0
 11
-1996.534254110868
 21
-3171.848633162752
 31
0.0
  0
LINE
  5
407
330
1F
100
AcDbEntity
  8
0-7_金物
  6
Continuous
 62
     7
370
     5
100
AcDbLine
 10
-2242.534254664223
 20
-3168.84951926505
 30
0.0
 11
-2245.791654664222
 21
-3168.84951926505
 31
0.0
  0
LINE
  5
408
330
1F
100
AcDbEntity
  8
0-7_金物
  6
Continuous
 62
     7
370
     5
100
AcDbLine
 10
-2242.534254664223
 20
-3174.84951926505
 30
0.0
 11
-2242.534254664223
 21
-3168.84951926505
 31
0.0
  0
LINE
  5
409
330
1F
100
AcDbEntity
  8
0-7_金物
  6
Continuous
 62
     7
370
     5
100
AcDbLine
 10
-2279.134254664222
 20
-3194.048919265049
 30
0.0
 11
-2279.134254664222
 21
-3179.04951926505
 31
0.0
  0
LINE
  5
40A
330
1F
100
AcDbEntity
  8
0-7_金物
  6
Continuous
 62
     7
370
     5
100
AcDbLine
 10
-2259.934254664222
 20
-3194.048919265049
 30
0.0
 11
-2259.934254664222
 21
-3179.04951926505
 31
0.0
  0
LINE
  5
40B
330
1F
100
AcDbEntity
  8
0-7_金物
  6
Continuous
 62
     7
370
     5
100
AcDbLine
 10
-2283.334254664223
 20
-3204.84891926505
 30
0.0
 11
-2255.734254664221
 21
-3204.84891926505
 31
0.0
  0
LINE
  5
40C
330
1F
100
AcDbEntity
  8
0-7_金物
  6
Continuous
 62
     7
370
     5
100
AcDbLine
 10
-2269.534254664222
 20
-3197.648919265051
 30
0.0
 11
-2271.334254664222
 21
-3195.84891926505
 31
0.0
  0
LINE
  5
40D
330
1F
100
AcDbEntity
  8
0-7_金物
  6
Continuous
 62
     7
370
     5
100
AcDbLine
 10
-2246.734254664223
 20
-3204.84891926505
 30
0.0
 11
-2243.818854664223
 21
-3197.491119265048
 31
0.0
  0
LINE
  5
40E
330
1F
100
AcDbEntity
  8
0-7_金物
  6
Continuous
 62
     7
370
     5
100
AcDbLine
 10
-2253.334254664223
 20
-3204.84891926505
 30
0.0
 11
-2246.734254664223
 21
-3204.84891926505
 31
0.0
  0
LINE
  5
40F
330
1F
100
AcDbEntity
  8
0-7_金物
  6
Continuous
 62
     7
370
     5
100
AcDbLine
 10
-2254.534254664222
 20
-3203.648919265051
 30
0.0
 11
-2255.734254664221
 21
-3204.84891926505
 31
0.0
  0
LINE
  5
410
330
1F
100
AcDbEntity
  8
0-7_金物
  6
Continuous
 62
     7
370
     5
100
AcDbLine
 10
-2253.334254664223
 20
-3204.84891926505
 30
0.0
 11
-2254.534254664222
 21
-3203.648919265051
 31
0.0
  0
LINE
  5
411
330
1F
100
AcDbEntity
  8
0-7_金物
  6
Continuous
 62
     7
370
     5
100
AcDbLine
 10
-2248.534254664223
 20
-3195.84891926505
 30
0.0
 11
-2248.534254664223
 21
-3188.26551926505
 31
0.0
  0
LINE
  5
412
330
1F
100
AcDbEntity
  8
0-7_金物
  6
Continuous
 62
     7
370
     5
100
AcDbLine
 10
-2248.534254664223
 20
-3195.84891926505
 30
0.0
 11
-2244.934254664222
 21
-3195.84891926505
 31
0.0
  0
LINE
  5
413
330
1F
100
AcDbEntity
  8
0-7_金物
  6
Continuous
 62
     7
370
     5
100
AcDbLine
 10
-2261.734254664223
 20
-3195.84891926505
 30
0.0
 11
-2267.734254664222
 21
-3195.84891926505
 31
0.0
  0
LINE
  5
414
330
1F
100
AcDbEntity
  8
0-7_金物
  6
Continuous
 62
     7
370
     5
100
AcDbLine
 10
-2267.734254664222
 20
-3195.84891926505
 30
0.0
 11
-2269.534254664222
 21
-3197.648919265051
 31
0.0
  0
LINE
  5
415
330
1F
100
AcDbEntity
  8
0-7_金物
  6
Continuous
 62
     7
370
     5
100
AcDbLine
 10
-2292.334254664222
 20
-3204.84891926505
 30
0.0
 11
-2295.249654664221
 21
-3197.491119265048
 31
0.0
  0
LINE
  5
416
330
1F
100
AcDbEntity
  8
0-7_金物
  6
Continuous
 62
     7
370
     5
100
AcDbLine
 10
-2284.534254664222
 20
-3203.648919265051
 30
0.0
 11
-2283.334254664223
 21
-3204.84891926505
 31
0.0
  0
LINE
  5
417
330
1F
100
AcDbEntity
  8
0-7_金物
  6
Continuous
 62
     7
370
     5
100
AcDbLine
 10
-2285.734254664221
 20
-3204.84891926505
 30
0.0
 11
-2292.334254664222
 21
-3204.84891926505
 31
0.0
  0
LINE
  5
418
330
1F
100
AcDbEntity
  8
0-7_金物
  6
Continuous
 62
     7
370
     5
100
AcDbLine
 10
-2285.734254664221
 20
-3204.84891926505
 30
0.0
 11
-2284.534254664222
 21
-3203.648919265051
 31
0.0
  0
LINE
  5
419
330
1F
100
AcDbEntity
  8
0-7_金物
  6
Continuous
 62
     7
370
     5
100
AcDbLine
 10
-2271.334254664222
 20
-3195.84891926505
 30
0.0
 11
-2277.334254664222
 21
-3195.84891926505
 31
0.0
  0
LINE
  5
41A
330
1F
100
AcDbEntity
  8
0-7_金物
  6
Continuous
 62
     7
370
     5
100
AcDbLine
 10
-2290.534254664224
 20
-3195.84891926505
 30
0.0
 11
-2290.534254664224
 21
-3188.26551926505
 31
0.0
  0
LINE
  5
41B
330
1F
100
AcDbEntity
  8
0-7_金物
  6
Continuous
 62
     7
370
     5
100
AcDbLine
 10
-2290.534254664224
 20
-3195.84891926505
 30
0.0
 11
-2294.134254664222
 21
-3195.84891926505
 31
0.0
  0
LINE
  5
41C
330
1F
100
AcDbEntity
  8
0-7_金物
  6
Continuous
 62
     7
370
     5
100
AcDbLine
 10
-2255.506854664222
 20
-3177.32211926505
 30
0.0
 11
-2247.913254664223
 21
-3169.727919265049
 31
0.0
  0
LINE
  5
41D
330
1F
100
AcDbEntity
  8
0-7_金物
  6
Continuous
 62
     7
370
     5
100
AcDbLine
 10
-2256.780054664222
 20
-3177.849519265048
 30
0.0
 11
-2258.734254664222
 21
-3177.849519265048
 31
0.0
  0
LINE
  5
41E
330
1F
100
AcDbEntity
  8
0-7_金物
  6
Continuous
 62
     7
370
     5
100
AcDbLine
 10
-2283.561054664224
 20
-3177.32211926505
 30
0.0
 11
-2291.155254664222
 21
-3169.727919265049
 31
0.0
  0
LINE
  5
41F
330
1F
100
AcDbEntity
  8
0-7_金物
  6
Continuous
 62
     7
370
     5
100
AcDbLine
 10
-2282.288454664222
 20
-3177.849519265048
 30
0.0
 11
-2280.334254664222
 21
-3177.849519265048
 31
0.0
  0
LINE
  5
420
330
1F
100
AcDbEntity
  8
0-7_金物
  6
Continuous
 62
     7
370
     5
100
AcDbLine
 10
-2296.534254664221
 20
-3174.84951926505
 30
0.0
 11
-2296.534254664221
 21
-3168.84951926505
 31
0.0
  0
LINE
  5
421
330
1F
100
AcDbEntity
  8
0-7_金物
  6
Continuous
 62
     7
370
     5
100
AcDbLine
 10
-2296.534254664221
 20
-3168.84951926505
 30
0.0
 11
-2293.276854664223
 21
-3168.84951926505
 31
0.0
  0
ARC
  5
422
330
1F
100
AcDbEntity
  8
0-7_金物
  6
Continuous
 62
     7
370
     5
100
AcDbCircle
 10
-2230.534254664224
 20
-3188.26551926505
 30
0.0
 40
18.00000000000051
100
AcDbArc
 50
131.81
 51
180.0
  0
ARC
  5
423
330
1F
100
AcDbEntity
  8
0-7_金物
  6
Continuous
 62
     7
370
     5
100
AcDbCircle
 10
-2308.533654664222
 20
-3188.26551926505
 30
0.0
 40
18.00000000000051
100
AcDbArc
 50
0.0
 51
48.18999999999998
  0
ARC
  5
424
330
1F
100
AcDbEntity
  8
0-7_金物
  6
Continuous
 62
     7
370
     5
100
AcDbCircle
 10
-2244.934254664222
 20
-3197.048919265049
 30
0.0
 40
1.200000000000034
100
AcDbArc
 50
338.384
 51
89.99999999999997
  0
ARC
  5
425
330
1F
100
AcDbEntity
  8
0-7_金物
  6
Continuous
 62
     7
370
     5
100
AcDbCircle
 10
-2261.734254664223
 20
-3194.048919265049
 30
0.0
 40
1.800000000000052
100
AcDbArc
 50
269.9999999999999
 51
359.9999999999999
  0
ARC
  5
426
330
1F
100
AcDbEntity
  8
0-7_金物
  6
Continuous
 62
     7
370
     5
100
AcDbCircle
 10
-2277.334254664222
 20
-3194.048919265049
 30
0.0
 40
1.800000000000052
100
AcDbArc
 50
179.9999999999999
 51
269.9999999999999
  0
ARC
  5
427
330
1F
100
AcDbEntity
  8
0-7_金物
  6
Continuous
 62
     7
370
     5
100
AcDbCircle
 10
-2294.134254664222
 20
-3197.048919265049
 30
0.0
 40
1.200000000000034
100
AcDbArc
 50
89.99999999999987
 51
201.6159999999999
  0
ARC
  5
428
330
1F
100
AcDbEntity
  8
0-7_金物
  6
Continuous
 62
     7
370
     5
100
AcDbCircle
 10
-2256.780054664222
 20
-3176.04951926505
 30
0.0
 40
1.800000000000052
100
AcDbArc
 50
270.0
 51
315.0
  0
ARC
  5
429
330
1F
100
AcDbEntity
  8
0-7_金物
  6
Continuous
 62
     7
370
     5
100
AcDbCircle
 10
-2245.791654664222
 20
-3171.849519265049
 30
0.0
 40
3.000000000000086
100
AcDbArc
 50
89.99999999999996
 51
135.0
  0
ARC
  5
42A
330
1F
100
AcDbEntity
  8
0-7_金物
  6
Continuous
 62
     7
370
     5
100
AcDbCircle
 10
-2258.734254664222
 20
-3179.04951926505
 30
0.0
 40
1.200000000000034
100
AcDbArc
 50
89.99999999999997
 51
180.0
  0
ARC
  5
42B
330
1F
100
AcDbEntity
  8
0-7_金物
  6
Continuous
 62
     7
370
     5
100
AcDbCircle
 10
-2280.334254664222
 20
-3179.04951926505
 30
0.0
 40
1.200000000000034
100
AcDbArc
 50
359.9999999999999
 51
89.99999999999997
  0
ARC
  5
42C
330
1F
100
AcDbEntity
  8
0-7_金物
  6
Continuous
 62
     7
370
     5
100
AcDbCircle
 10
-2282.288454664222
 20
-3176.04951926505
 30
0.0
 40
1.800000000000052
100
AcDbArc
 50
224.9999999999999
 51
269.9999999999999
  0
ARC
  5
42D
330
1F
100
AcDbEntity
  8
0-7_金物
  6
Continuous
 62
     7
370
     5
100
AcDbCircle
 10
-2293.276854664223
 20
-3171.849519265049
 30
0.0
 40
3.000000000000086
100
AcDbArc
 50
44.99999999999995
 51
89.99999999999996
  0
LINE
  5
42E
330
1F
100
AcDbEntity
  8
0-7_金物
  6
Continuous
 62
     7
370
     5
100
AcDbLine
 10
-2221.534254664221
 20
-3138.84951926505
 30
0.0
 11
-2221.534254664221
 21
-2898.84951926505
 31
0.0
  0
LINE
  5
42F
330
1F
100
AcDbEntity
  8
0-7_金物
  6
Continuous
 62
     7
370
     5
100
AcDbLine
 10
-2317.534254664223
 20
-3138.84951926505
 30
0.0
 11
-2221.534254664221
 21
-3138.84951926505
 31
0.0
  0
LINE
  5
430
330
1F
100
AcDbEntity
  8
0-7_金物
  6
Continuous
 62
     7
370
     5
100
AcDbLine
 10
-2317.534254664223
 20
-2898.84951926505
 30
0.0
 11
-2317.534254664223
 21
-3138.84951926505
 31
0.0
  0
ARC
  5
431
330
1F
100
AcDbEntity
  8
0-7_金物
  6
Continuous
 62
     7
370
     5
100
AcDbCircle
 10
-2269.534254664222
 20
-2898.84951926505
 30
0.0
 40
47.99999999999999
100
AcDbArc
 50
0.0000000000000064
 51
180.0
  0
ARC
  5
432
330
1F
100
AcDbEntity
  8
0-7_金物
  6
Continuous
 62
     7
370
     5
100
AcDbCircle
 10
-2269.534254664222
 20
-2892.849519265051
 30
0.0
 40
24.9
100
AcDbArc
 50
91.36450306982846
 51
208.6354969301637
  0
ARC
  5
433
330
1F
100
AcDbEntity
  8
0-7_金物
  6
Continuous
 62
     7
370
     5
100
AcDbCircle
 10
-2269.534254664222
 20
-2892.849519265051
 30
0.0
 40
24.9
100
AcDbArc
 50
211.3645030698352
 51
328.6354969301648
  0
ARC
  5
434
330
1F
100
AcDbEntity
  8
0-7_金物
  6
Continuous
 62
     7
370
     5
100
AcDbCircle
 10
-2269.534254664222
 20
-2892.849519265051
 30
0.0
 40
24.9
100
AcDbArc
 50
331.3645030698363
 51
88.63549693017154
  0
CIRCLE
  5
435
330
1F
100
AcDbEntity
  8
0-7_金物
  6
Continuous
 62
     7
370
     5
100
AcDbCircle
 10
-2269.534254664222
 20
-3066.849519265051
 30
0.0
 40
21.00000000000001
  0
LINE
  5
436
330
1F
100
AcDbEntity
  8
0-7_金物
  6
Continuous
 62
     7
370
     5
100
AcDbLine
 10
-2270.127193885612
 20
-2867.95658004366
 30
0.0
 11
-2269.534254664222
 21
-2868.54951926505
 31
0.0
  0
LINE
  5
437
330
1F
100
AcDbEntity
  8
0-7_金物
  6
Continuous
 62
     7
370
     5
100
AcDbLine
 10
-2268.941315442833
 20
-2867.95658004366
 30
0.0
 11
-2269.534254664222
 21
-2868.54951926505
 31
0.0
  0
LINE
  5
438
330
1F
100
AcDbEntity
  8
0-7_金物
  6
Continuous
 62
     7
370
     5
100
AcDbLine
 10
-2290.795702794112
 20
-2905.809489304369
 30
0.0
 11
-2290.578671976183
 21
-2904.999519265048
 31
0.0
  0
LINE
  5
439
330
1F
100
AcDbEntity
  8
0-7_金物
  6
Continuous
 62
     7
370
     5
100
AcDbLine
 10
-2291.388642015502
 20
-2904.782488447121
 30
0.0
 11
-2290.578671976183
 21
-2904.999519265048
 31
0.0
  0
LINE
  5
43A
330
1F
100
AcDbEntity
  8
0-7_金物
  6
Continuous
 62
     7
370
     5
100
AcDbLine
 10
-2247.679867312943
 20
-2904.782488447121
 30
0.0
 11
-2248.489837352262
 21
-2904.999519265048
 31
0.0
  0
LINE
  5
43B
330
1F
100
AcDbEntity
  8
0-7_金物
  6
Continuous
 62
     7
370
     5
100
AcDbLine
 10
-2248.272806534334
 20
-2905.80948930437
 30
0.0
 11
-2248.489837352262
 21
-2904.999519265048
 31
0.0
  0
CIRCLE
  5
43C
330
1F
100
AcDbEntity
  8
0-7_金物
  6
Continuous
 62
     7
370
     5
100
AcDbCircle
 10
-2269.534254664222
 20
-2964.849519265051
 30
0.0
 40
32.09999999999997
  0
LINE
  5
43D
330
1F
100
AcDbEntity
  8
0-7_金物
  6
Continuous
 62
     7
370
     5
100
AcDbLine
 10
-2272.534254664223
 20
-3052.44951926505
 30
0.0
 11
-2272.534254664223
 21
-3056.04951926505
 31
0.0
  0
LINE
  5
43E
330
1F
100
AcDbEntity
  8
0-7_金物
  6
Continuous
 62
     7
370
     5
100
AcDbLine
 10
-2272.534254664215
 20
-3081.249519265051
 30
0.0
 11
-2266.534254664229
 21
-3081.249519265051
 31
0.0
  0
LINE
  5
43F
330
1F
100
AcDbEntity
  8
0-7_金物
  6
Continuous
 62
     7
370
     5
100
AcDbLine
 10
-2280.334254664222
 20
-3063.84951926505
 30
0.0
 11
-2283.934254664223
 21
-3063.84951926505
 31
0.0
  0
ARC
  5
440
330
1F
100
AcDbEntity
  8
0-7_金物
  6
Continuous
 62
     7
370
     5
100
AcDbCircle
 10
-2280.334254664222
 20
-3056.04951926505
 30
0.0
 40
7.800000000000001
100
AcDbArc
 50
270.0
 51
0.0
  0
LINE
  5
441
330
1F
100
AcDbEntity
  8
0-7_金物
  6
Continuous
 62
     7
370
     5
100
AcDbLine
 10
-2266.534254664221
 20
-3052.44951926505
 30
0.0
 11
-2272.534254664223
 21
-3052.44951926505
 31
0.0
  0
LINE
  5
442
330
1F
100
AcDbEntity
  8
0-7_金物
  6
Continuous
 62
     7
370
     5
100
AcDbLine
 10
-2283.934254664223
 20
-3063.84951926505
 30
0.0
 11
-2283.934254664223
 21
-3069.849519265064
 31
0.0
  0
LINE
  5
443
330
1F
100
AcDbEntity
  8
0-7_金物
  6
Continuous
 62
     7
370
     5
100
AcDbLine
 10
-2283.934254664216
 20
-3069.849519265064
 30
0.0
 11
-2280.334254664216
 21
-3069.849519265064
 31
0.0
  0
LINE
  5
444
330
1F
100
AcDbEntity
  8
0-7_金物
  6
Continuous
 62
     7
370
     5
100
AcDbLine
 10
-2272.534254664215
 20
-3077.649519265063
 30
0.0
 11
-2272.534254664215
 21
-3081.249519265061
 31
0.0
  0
ARC
  5
445
330
1F
100
AcDbEntity
  8
0-7_金物
  6
Continuous
 62
     7
370
     5
100
AcDbCircle
 10
-2280.334254664214
 20
-3077.649519265064
 30
0.0
 40
7.800000000000001
100
AcDbArc
 50
0.0000000000065265
 51
90.00000000000651
  0
LINE
  5
446
330
1F
100
AcDbEntity
  8
0-7_金物
  6
Continuous
 62
     7
370
     5
100
AcDbLine
 10
-2266.534254664221
 20
-3052.44951926505
 30
0.0
 11
-2266.534254664221
 21
-3056.04951926505
 31
0.0
  0
LINE
  5
447
330
1F
100
AcDbEntity
  8
0-7_金物
  6
Continuous
 62
     7
370
     5
100
AcDbLine
 10
-2258.734254664222
 20
-3063.84951926505
 30
0.0
 11
-2255.134254664222
 21
-3063.84951926505
 31
0.0
  0
ARC
  5
448
330
1F
100
AcDbEntity
  8
0-7_金物
  6
Continuous
 62
     7
370
     5
100
AcDbCircle
 10
-2258.734254664222
 20
-3056.04951926505
 30
0.0
 40
7.800000000000001
100
AcDbArc
 50
180.0
 51
270.0
  0
LINE
  5
449
330
1F
100
AcDbEntity
  8
0-7_金物
  6
Continuous
 62
     7
370
     5
100
AcDbLine
 10
-2255.134254664222
 20
-3063.84951926505
 30
0.0
 11
-2255.134254664222
 21
-3069.849519265064
 31
0.0
  0
LINE
  5
44A
330
1F
100
AcDbEntity
  8
0-7_金物
  6
Continuous
 62
     7
370
     5
100
AcDbLine
 10
-2266.534254664229
 20
-3077.649519265063
 30
0.0
 11
-2266.534254664229
 21
-3081.249519265061
 31
0.0
  0
LINE
  5
44B
330
1F
100
AcDbEntity
  8
0-7_金物
  6
Continuous
 62
     7
370
     5
100
AcDbLine
 10
-2255.134254664229
 20
-3069.849519265064
 30
0.0
 11
-2258.734254664229
 21
-3069.849519265064
 31
0.0
  0
ARC
  5
44C
330
1F
100
AcDbEntity
  8
0-7_金物
  6
Continuous
 62
     7
370
     5
100
AcDbCircle
 10
-2258.734254664229
 20
-3077.649519265064
 30
0.0
 40
7.800000000000001
100
AcDbArc
 50
89.99999999999352
 51
179.9999999999935
  0
LINE
  5
44D
330
1F
100
AcDbEntity
  8
0-7_金物
  6
Continuous
 62
     7
370
     5
100
AcDbLine
 10
-2248.534254664223
 20
-3165.376595517391
 30
0.0
 11
-2248.534254664223
 21
-3138.84951926505
 31
0.0
  0
LINE
  5
44E
330
1F
100
AcDbEntity
  8
0-7_金物
  6
Continuous
 62
     7
370
     5
100
AcDbLine
 10
-2278.534254664223
 20
-3138.84951926505
 30
0.0
 11
-2278.534254664223
 21
-3184.576595517393
 31
0.0
  0
LINE
  5
44F
330
1F
100
AcDbEntity
  8
0-7_金物
  6
Continuous
 62
     7
370
     5
100
AcDbLine
 10
-2260.534254664224
 20
-3138.84951926505
 30
0.0
 11
-2260.534254664224
 21
-3184.576595517393
 31
0.0
  0
LINE
  5
450
330
1F
100
AcDbEntity
  8
0-7_金物
  6
Continuous
 62
     7
370
     5
100
AcDbLine
 10
-2290.534254664224
 20
-3165.376595517391
 30
0.0
 11
-2290.534254664224
 21
-3138.84951926505
 31
0.0
  0
ARC
  5
451
330
1F
100
AcDbEntity
  8
0-7_金物
  6
Continuous
 62
     7
370
     5
100
AcDbCircle
 10
-2259.334254664222
 20
-3178.521935517393
 30
0.0
 40
1.2
100
AcDbArc
 50
95.21590900000078
 51
180.0
  0
ARC
  5
452
330
1F
100
AcDbEntity
  8
0-7_金物
  6
Continuous
 62
     7
370
     5
100
AcDbCircle
 10
-2262.334254664222
 20
-3184.576595517393
 30
0.0
 40
1.8
100
AcDbArc
 50
270.0
 51
0.0
  0
ARC
  5
453
330
1F
100
AcDbEntity
  8
0-7_金物
  6
Continuous
 62
     7
370
     5
100
AcDbCircle
 10
-2279.734254664223
 20
-3178.521935517393
 30
0.0
 40
1.2
100
AcDbArc
 50
0.0000000000000127
 51
84.7840909999992
  0
ARC
  5
454
330
1F
100
AcDbEntity
  8
0-7_金物
  6
Continuous
 62
     7
370
     5
100
AcDbCircle
 10
-2276.734254664223
 20
-3184.576595517393
 30
0.0
 40
1.8
100
AcDbArc
 50
180.0
 51
270.0
  0
ARC
  5
455
330
1F
100
AcDbEntity
  8
0-7_金物
  6
Continuous
 62
     7
370
     5
100
AcDbCircle
 10
-2260.534254664224
 20
-3165.376595517391
 30
0.0
 40
12.0
100
AcDbArc
 50
275.2159090000008
 51
0.0000000000000254
  0
ARC
  5
456
330
1F
100
AcDbEntity
  8
0-7_金物
  6
Continuous
 62
     7
370
     5
100
AcDbCircle
 10
-2278.534254664223
 20
-3165.376595517391
 30
0.0
 40
12.0
100
AcDbArc
 50
180.0
 51
264.7840909999994
  0
LINE
  5
457
330
1F
100
AcDbEntity
  8
0-7_金物
  6
Continuous
 62
     7
370
     5
100
AcDbLine
 10
-2276.734254664223
 20
-3186.376595517393
 30
0.0
 11
-2262.334254664222
 21
-3186.376595517393
 31
0.0
  0
ARC
  5
458
330
1F
100
AcDbEntity
  8
0-7_金物
  6
Continuous
 62
     7
370
     5
100
AcDbCircle
 10
-2282.73425466422
 20
-2978.049519265051
 30
0.0
 40
10.2
100
AcDbArc
 50
0.0000000000000127
 51
90.00000000000001
  0
ARC
  5
459
330
1F
100
AcDbEntity
  8
0-7_金物
  6
Continuous
 62
     7
370
     5
100
AcDbCircle
 10
-2256.334254664222
 20
-2978.049519265051
 30
0.0
 40
10.2
100
AcDbArc
 50
90.0
 51
180.0
  0
ARC
  5
45A
330
1F
100
AcDbEntity
  8
0-7_金物
  6
Continuous
 62
     7
370
     5
100
AcDbCircle
 10
-2282.73425466422
 20
-2951.64951926505
 30
0.0
 40
10.2
100
AcDbArc
 50
270.0
 51
0.0
  0
LINE
  5
45B
330
1F
100
AcDbEntity
  8
0-7_金物
  6
Continuous
 62
     7
370
     5
100
AcDbLine
 10
-2288.434254664222
 20
-2961.849519265051
 30
0.0
 11
-2282.73425466422
 21
-2961.849519265051
 31
0.0
  0
LINE
  5
45C
330
1F
100
AcDbEntity
  8
0-7_金物
  6
Continuous
 62
     7
370
     5
100
AcDbLine
 10
-2288.434254664222
 20
-2967.849519265051
 30
0.0
 11
-2288.434254664222
 21
-2961.849519265051
 31
0.0
  0
LINE
  5
45D
330
1F
100
AcDbEntity
  8
0-7_金物
  6
Continuous
 62
     7
370
     5
100
AcDbLine
 10
-2282.73425466422
 20
-2967.849519265051
 30
0.0
 11
-2288.434254664222
 21
-2967.849519265051
 31
0.0
  0
LINE
  5
45E
330
1F
100
AcDbEntity
  8
0-7_金物
  6
Continuous
 62
     7
370
     5
100
AcDbLine
 10
-2272.534254664223
 20
-2951.64951926505
 30
0.0
 11
-2272.534254664223
 21
-2945.949519265051
 31
0.0
  0
LINE
  5
45F
330
1F
100
AcDbEntity
  8
0-7_金物
  6
Continuous
 62
     7
370
     5
100
AcDbLine
 10
-2266.534254664221
 20
-2945.949519265051
 30
0.0
 11
-2266.534254664221
 21
-2951.64951926505
 31
0.0
  0
LINE
  5
460
330
1F
100
AcDbEntity
  8
0-7_金物
  6
Continuous
 62
     7
370
     5
100
AcDbLine
 10
-2272.534254664223
 20
-2945.949519265051
 30
0.0
 11
-2266.534254664221
 21
-2945.949519265051
 31
0.0
  0
LINE
  5
461
330
1F
100
AcDbEntity
  8
0-7_金物
  6
Continuous
 62
     7
370
     5
100
AcDbLine
 10
-2250.634254664223
 20
-2967.849519265051
 30
0.0
 11
-2256.334254664222
 21
-2967.849519265051
 31
0.0
  0
LINE
  5
462
330
1F
100
AcDbEntity
  8
0-7_金物
  6
Continuous
 62
     7
370
     5
100
AcDbLine
 10
-2256.334254664222
 20
-2961.849519265051
 30
0.0
 11
-2250.634254664223
 21
-2961.849519265051
 31
0.0
  0
ARC
  5
463
330
1F
100
AcDbEntity
  8
0-7_金物
  6
Continuous
 62
     7
370
     5
100
AcDbCircle
 10
-2256.334254664222
 20
-2951.64951926505
 30
0.0
 40
10.2
100
AcDbArc
 50
180.0
 51
270.0
  0
LINE
  5
464
330
1F
100
AcDbEntity
  8
0-7_金物
  6
Continuous
 62
     7
370
     5
100
AcDbLine
 10
-2250.634254664223
 20
-2961.849519265051
 30
0.0
 11
-2250.634254664223
 21
-2967.849519265051
 31
0.0
  0
LINE
  5
465
330
1F
100
AcDbEntity
  8
0-7_金物
  6
Continuous
 62
     7
370
     5
100
AcDbLine
 10
-2272.534254664223
 20
-2983.749519265051
 30
0.0
 11
-2272.534254664223
 21
-2978.049519265051
 31
0.0
  0
LINE
  5
466
330
1F
100
AcDbEntity
  8
0-7_金物
  6
Continuous
 62
     7
370
     5
100
AcDbLine
 10
-2266.534254664221
 20
-2978.049519265051
 30
0.0
 11
-2266.534254664221
 21
-2983.749519265051
 31
0.0
  0
LINE
  5
467
330
1F
100
AcDbEntity
  8
0-7_金物
  6
Continuous
 62
     7
370
     5
100
AcDbLine
 10
-2266.534254664221
 20
-2983.749519265051
 30
0.0
 11
-2272.534254664223
 21
-2983.749519265051
 31
0.0
  0
LINE
  5
468
330
1F
100
AcDbEntity
  8
0-7_金物
  6
Continuous
 62
     7
370
     5
100
AcDbLine
 10
-2229.934254664221
 20
-3146.04951926505
 30
0.0
 11
-2248.728725675307
 21
-3146.04951926505
 31
0.0
  0
LINE
  5
469
330
1F
100
AcDbEntity
  8
0-7_金物
  6
Continuous
 62
     7
370
     5
100
AcDbLine
 10
-2290.339783653139
 20
-3146.04951926505
 30
0.0
 11
-2309.134254664222
 21
-3146.04951926505
 31
0.0
  0
LINE
  5
46A
330
1F
100
AcDbEntity
  8
0-7_金物
  6
Continuous
 62
     7
370
     5
100
AcDbLine
 10
-2229.934254664221
 20
-3138.84951926505
 30
0.0
 11
-2229.934254664221
 21
-3146.04951926505
 31
0.0
  0
LINE
  5
46B
330
1F
100
AcDbEntity
  8
0-7_金物
  6
Continuous
 62
     7
370
     5
100
AcDbLine
 10
-2309.134254664222
 20
-3138.84951926505
 30
0.0
 11
-2309.134254664222
 21
-3146.04951926505
 31
0.0
  0
LINE
  5
46C
330
1F
100
AcDbEntity
  8
0-7_金物
  6
Continuous
 62
     7
370
     5
100
AcDbLine
 10
-2470.534254664223
 20
-3168.84951926505
 30
0.0
 11
-2473.791654664222
 21
-3168.84951926505
 31
0.0
  0
LINE
  5
46D
330
1F
100
AcDbEntity
  8
0-7_金物
  6
Continuous
 62
     7
370
     5
100
AcDbLine
 10
-2470.534254664223
 20
-3174.84951926505
 30
0.0
 11
-2470.534254664223
 21
-3168.84951926505
 31
0.0
  0
LINE
  5
46E
330
1F
100
AcDbEntity
  8
0-7_金物
  6
Continuous
 62
     7
370
     5
100
AcDbLine
 10
-2507.134254664222
 20
-3194.048919265049
 30
0.0
 11
-2507.134254664222
 21
-3179.04951926505
 31
0.0
  0
LINE
  5
46F
330
1F
100
AcDbEntity
  8
0-7_金物
  6
Continuous
 62
     7
370
     5
100
AcDbLine
 10
-2487.934254664223
 20
-3194.048919265049
 30
0.0
 11
-2487.934254664223
 21
-3179.04951926505
 31
0.0
  0
LINE
  5
470
330
1F
100
AcDbEntity
  8
0-7_金物
  6
Continuous
 62
     7
370
     5
100
AcDbLine
 10
-2511.334254664223
 20
-3204.84891926505
 30
0.0
 11
-2483.734254664221
 21
-3204.84891926505
 31
0.0
  0
LINE
  5
471
330
1F
100
AcDbEntity
  8
0-7_金物
  6
Continuous
 62
     7
370
     5
100
AcDbLine
 10
-2497.534254664222
 20
-3197.648919265051
 30
0.0
 11
-2499.334254664222
 21
-3195.84891926505
 31
0.0
  0
LINE
  5
472
330
1F
100
AcDbEntity
  8
0-7_金物
  6
Continuous
 62
     7
370
     5
100
AcDbLine
 10
-2474.734254664223
 20
-3204.84891926505
 30
0.0
 11
-2471.818854664223
 21
-3197.491119265048
 31
0.0
  0
LINE
  5
473
330
1F
100
AcDbEntity
  8
0-7_金物
  6
Continuous
 62
     7
370
     5
100
AcDbLine
 10
-2481.334254664223
 20
-3204.84891926505
 30
0.0
 11
-2474.734254664223
 21
-3204.84891926505
 31
0.0
  0
LINE
  5
474
330
1F
100
AcDbEntity
  8
0-7_金物
  6
Continuous
 62
     7
370
     5
100
AcDbLine
 10
-2482.534254664222
 20
-3203.648919265051
 30
0.0
 11
-2483.734254664221
 21
-3204.84891926505
 31
0.0
  0
LINE
  5
475
330
1F
100
AcDbEntity
  8
0-7_金物
  6
Continuous
 62
     7
370
     5
100
AcDbLine
 10
-2481.334254664223
 20
-3204.84891926505
 30
0.0
 11
-2482.534254664222
 21
-3203.648919265051
 31
0.0
  0
LINE
  5
476
330
1F
100
AcDbEntity
  8
0-7_金物
  6
Continuous
 62
     7
370
     5
100
AcDbLine
 10
-2476.534254664223
 20
-3195.84891926505
 30
0.0
 11
-2476.534254664223
 21
-3188.26551926505
 31
0.0
  0
LINE
  5
477
330
1F
100
AcDbEntity
  8
0-7_金物
  6
Continuous
 62
     7
370
     5
100
AcDbLine
 10
-2476.534254664223
 20
-3195.84891926505
 30
0.0
 11
-2472.934254664223
 21
-3195.84891926505
 31
0.0
  0
LINE
  5
478
330
1F
100
AcDbEntity
  8
0-7_金物
  6
Continuous
 62
     7
370
     5
100
AcDbLine
 10
-2489.734254664223
 20
-3195.84891926505
 30
0.0
 11
-2495.734254664223
 21
-3195.84891926505
 31
0.0
  0
LINE
  5
479
330
1F
100
AcDbEntity
  8
0-7_金物
  6
Continuous
 62
     7
370
     5
100
AcDbLine
 10
-2495.734254664223
 20
-3195.84891926505
 30
0.0
 11
-2497.534254664222
 21
-3197.648919265051
 31
0.0
  0
LINE
  5
47A
330
1F
100
AcDbEntity
  8
0-7_金物
  6
Continuous
 62
     7
370
     5
100
AcDbLine
 10
-2520.334254664222
 20
-3204.84891926505
 30
0.0
 11
-2523.249654664221
 21
-3197.491119265048
 31
0.0
  0
LINE
  5
47B
330
1F
100
AcDbEntity
  8
0-7_金物
  6
Continuous
 62
     7
370
     5
100
AcDbLine
 10
-2512.534254664222
 20
-3203.648919265051
 30
0.0
 11
-2511.334254664223
 21
-3204.84891926505
 31
0.0
  0
LINE
  5
47C
330
1F
100
AcDbEntity
  8
0-7_金物
  6
Continuous
 62
     7
370
     5
100
AcDbLine
 10
-2513.734254664221
 20
-3204.84891926505
 30
0.0
 11
-2520.334254664222
 21
-3204.84891926505
 31
0.0
  0
LINE
  5
47D
330
1F
100
AcDbEntity
  8
0-7_金物
  6
Continuous
 62
     7
370
     5
100
AcDbLine
 10
-2513.734254664221
 20
-3204.84891926505
 30
0.0
 11
-2512.534254664222
 21
-3203.648919265051
 31
0.0
  0
LINE
  5
47E
330
1F
100
AcDbEntity
  8
0-7_金物
  6
Continuous
 62
     7
370
     5
100
AcDbLine
 10
-2499.334254664222
 20
-3195.84891926505
 30
0.0
 11
-2505.334254664222
 21
-3195.84891926505
 31
0.0
  0
LINE
  5
47F
330
1F
100
AcDbEntity
  8
0-7_金物
  6
Continuous
 62
     7
370
     5
100
AcDbLine
 10
-2518.534254664224
 20
-3195.84891926505
 30
0.0
 11
-2518.534254664224
 21
-3188.26551926505
 31
0.0
  0
LINE
  5
480
330
1F
100
AcDbEntity
  8
0-7_金物
  6
Continuous
 62
     7
370
     5
100
AcDbLine
 10
-2518.534254664224
 20
-3195.84891926505
 30
0.0
 11
-2522.134254664222
 21
-3195.84891926505
 31
0.0
  0
LINE
  5
481
330
1F
100
AcDbEntity
  8
0-7_金物
  6
Continuous
 62
     7
370
     5
100
AcDbLine
 10
-2483.506854664222
 20
-3177.32211926505
 30
0.0
 11
-2475.913254664223
 21
-3169.727919265049
 31
0.0
  0
LINE
  5
482
330
1F
100
AcDbEntity
  8
0-7_金物
  6
Continuous
 62
     7
370
     5
100
AcDbLine
 10
-2484.780054664222
 20
-3177.849519265048
 30
0.0
 11
-2486.734254664222
 21
-3177.849519265048
 31
0.0
  0
LINE
  5
483
330
1F
100
AcDbEntity
  8
0-7_金物
  6
Continuous
 62
     7
370
     5
100
AcDbLine
 10
-2511.561054664224
 20
-3177.32211926505
 30
0.0
 11
-2519.155254664221
 21
-3169.727919265049
 31
0.0
  0
LINE
  5
484
330
1F
100
AcDbEntity
  8
0-7_金物
  6
Continuous
 62
     7
370
     5
100
AcDbLine
 10
-2510.288454664223
 20
-3177.849519265048
 30
0.0
 11
-2508.334254664222
 21
-3177.849519265048
 31
0.0
  0
LINE
  5
485
330
1F
100
AcDbEntity
  8
0-7_金物
  6
Continuous
 62
     7
370
     5
100
AcDbLine
 10
-2524.534254664221
 20
-3174.84951926505
 30
0.0
 11
-2524.534254664221
 21
-3168.84951926505
 31
0.0
  0
LINE
  5
486
330
1F
100
AcDbEntity
  8
0-7_金物
  6
Continuous
 62
     7
370
     5
100
AcDbLine
 10
-2524.534254664221
 20
-3168.84951926505
 30
0.0
 11
-2521.276854664223
 21
-3168.84951926505
 31
0.0
  0
ARC
  5
487
330
1F
100
AcDbEntity
  8
0-7_金物
  6
Continuous
 62
     7
370
     5
100
AcDbCircle
 10
-2458.534254664224
 20
-3188.26551926505
 30
0.0
 40
18.00000000000051
100
AcDbArc
 50
131.81
 51
180.0
  0
ARC
  5
488
330
1F
100
AcDbEntity
  8
0-7_金物
  6
Continuous
 62
     7
370
     5
100
AcDbCircle
 10
-2536.533654664222
 20
-3188.26551926505
 30
0.0
 40
18.00000000000051
100
AcDbArc
 50
0.0
 51
48.18999999999998
  0
ARC
  5
489
330
1F
100
AcDbEntity
  8
0-7_金物
  6
Continuous
 62
     7
370
     5
100
AcDbCircle
 10
-2472.934254664223
 20
-3197.048919265049
 30
0.0
 40
1.200000000000034
100
AcDbArc
 50
338.384
 51
89.99999999999997
  0
ARC
  5
48A
330
1F
100
AcDbEntity
  8
0-7_金物
  6
Continuous
 62
     7
370
     5
100
AcDbCircle
 10
-2489.734254664223
 20
-3194.048919265049
 30
0.0
 40
1.800000000000052
100
AcDbArc
 50
269.9999999999999
 51
359.9999999999999
  0
ARC
  5
48B
330
1F
100
AcDbEntity
  8
0-7_金物
  6
Continuous
 62
     7
370
     5
100
AcDbCircle
 10
-2505.334254664222
 20
-3194.048919265049
 30
0.0
 40
1.800000000000052
100
AcDbArc
 50
179.9999999999999
 51
269.9999999999999
  0
ARC
  5
48C
330
1F
100
AcDbEntity
  8
0-7_金物
  6
Continuous
 62
     7
370
     5
100
AcDbCircle
 10
-2522.134254664222
 20
-3197.048919265049
 30
0.0
 40
1.200000000000034
100
AcDbArc
 50
89.99999999999987
 51
201.6159999999999
  0
ARC
  5
48D
330
1F
100
AcDbEntity
  8
0-7_金物
  6
Continuous
 62
     7
370
     5
100
AcDbCircle
 10
-2484.780054664222
 20
-3176.04951926505
 30
0.0
 40
1.800000000000052
100
AcDbArc
 50
270.0
 51
315.0
  0
ARC
  5
48E
330
1F
100
AcDbEntity
  8
0-7_金物
  6
Continuous
 62
     7
370
     5
100
AcDbCircle
 10
-2473.791654664222
 20
-3171.849519265049
 30
0.0
 40
3.000000000000086
100
AcDbArc
 50
89.99999999999996
 51
135.0
  0
ARC
  5
48F
330
1F
100
AcDbEntity
  8
0-7_金物
  6
Continuous
 62
     7
370
     5
100
AcDbCircle
 10
-2486.734254664222
 20
-3179.04951926505
 30
0.0
 40
1.200000000000034
100
AcDbArc
 50
89.99999999999997
 51
180.0
  0
ARC
  5
490
330
1F
100
AcDbEntity
  8
0-7_金物
  6
Continuous
 62
     7
370
     5
100
AcDbCircle
 10
-2508.334254664222
 20
-3179.04951926505
 30
0.0
 40
1.200000000000034
100
AcDbArc
 50
359.9999999999999
 51
89.99999999999997
  0
ARC
  5
491
330
1F
100
AcDbEntity
  8
0-7_金物
  6
Continuous
 62
     7
370
     5
100
AcDbCircle
 10
-2510.288454664223
 20
-3176.04951926505
 30
0.0
 40
1.800000000000052
100
AcDbArc
 50
224.9999999999999
 51
269.9999999999999
  0
ARC
  5
492
330
1F
100
AcDbEntity
  8
0-7_金物
  6
Continuous
 62
     7
370
     5
100
AcDbCircle
 10
-2521.276854664223
 20
-3171.849519265049
 30
0.0
 40
3.000000000000086
100
AcDbArc
 50
44.99999999999995
 51
89.99999999999996
  0
LINE
  5
493
330
1F
100
AcDbEntity
  8
0-7_金物
  6
Continuous
 62
     7
370
     5
100
AcDbLine
 10
-2449.534254664221
 20
-3138.84951926505
 30
0.0
 11
-2449.534254664221
 21
-2898.84951926505
 31
0.0
  0
LINE
  5
494
330
1F
100
AcDbEntity
  8
0-7_金物
  6
Continuous
 62
     7
370
     5
100
AcDbLine
 10
-2545.534254664223
 20
-3138.84951926505
 30
0.0
 11
-2449.534254664221
 21
-3138.84951926505
 31
0.0
  0
LINE
  5
495
330
1F
100
AcDbEntity
  8
0-7_金物
  6
Continuous
 62
     7
370
     5
100
AcDbLine
 10
-2545.534254664223
 20
-2898.84951926505
 30
0.0
 11
-2545.534254664223
 21
-3138.84951926505
 31
0.0
  0
ARC
  5
496
330
1F
100
AcDbEntity
  8
0-7_金物
  6
Continuous
 62
     7
370
     5
100
AcDbCircle
 10
-2497.534254664222
 20
-2898.84951926505
 30
0.0
 40
47.99999999999999
100
AcDbArc
 50
0.0000000000000064
 51
180.0
  0
ARC
  5
497
330
1F
100
AcDbEntity
  8
0-7_金物
  6
Continuous
 62
     7
370
     5
100
AcDbCircle
 10
-2497.534254664222
 20
-2892.849519265051
 30
0.0
 40
24.9
100
AcDbArc
 50
91.36450306982846
 51
208.6354969301637
  0
ARC
  5
498
330
1F
100
AcDbEntity
  8
0-7_金物
  6
Continuous
 62
     7
370
     5
100
AcDbCircle
 10
-2497.534254664222
 20
-2892.849519265051
 30
0.0
 40
24.9
100
AcDbArc
 50
211.3645030698352
 51
328.6354969301648
  0
ARC
  5
499
330
1F
100
AcDbEntity
  8
0-7_金物
  6
Continuous
 62
     7
370
     5
100
AcDbCircle
 10
-2497.534254664222
 20
-2892.849519265051
 30
0.0
 40
24.9
100
AcDbArc
 50
331.3645030698363
 51
88.63549693017154
  0
CIRCLE
  5
49A
330
1F
100
AcDbEntity
  8
0-7_金物
  6
Continuous
 62
     7
370
     5
100
AcDbCircle
 10
-2497.534254664222
 20
-3066.849519265051
 30
0.0
 40
21.00000000000001
  0
LINE
  5
49B
330
1F
100
AcDbEntity
  8
0-7_金物
  6
Continuous
 62
     7
370
     5
100
AcDbLine
 10
-2498.127193885612
 20
-2867.95658004366
 30
0.0
 11
-2497.534254664222
 21
-2868.54951926505
 31
0.0
  0
LINE
  5
49C
330
1F
100
AcDbEntity
  8
0-7_金物
  6
Continuous
 62
     7
370
     5
100
AcDbLine
 10
-2496.941315442833
 20
-2867.95658004366
 30
0.0
 11
-2497.534254664222
 21
-2868.54951926505
 31
0.0
  0
LINE
  5
49D
330
1F
100
AcDbEntity
  8
0-7_金物
  6
Continuous
 62
     7
370
     5
100
AcDbLine
 10
-2518.795702794112
 20
-2905.809489304369
 30
0.0
 11
-2518.578671976183
 21
-2904.999519265048
 31
0.0
  0
LINE
  5
49E
330
1F
100
AcDbEntity
  8
0-7_金物
  6
Continuous
 62
     7
370
     5
100
AcDbLine
 10
-2519.388642015502
 20
-2904.782488447121
 30
0.0
 11
-2518.578671976183
 21
-2904.999519265048
 31
0.0
  0
LINE
  5
49F
330
1F
100
AcDbEntity
  8
0-7_金物
  6
Continuous
 62
     7
370
     5
100
AcDbLine
 10
-2475.679867312943
 20
-2904.782488447121
 30
0.0
 11
-2476.489837352261
 21
-2904.999519265048
 31
0.0
  0
LINE
  5
4A0
330
1F
100
AcDbEntity
  8
0-7_金物
  6
Continuous
 62
     7
370
     5
100
AcDbLine
 10
-2476.272806534334
 20
-2905.80948930437
 30
0.0
 11
-2476.489837352261
 21
-2904.999519265048
 31
0.0
  0
CIRCLE
  5
4A1
330
1F
100
AcDbEntity
  8
0-7_金物
  6
Continuous
 62
     7
370
     5
100
AcDbCircle
 10
-2497.534254664222
 20
-2964.849519265051
 30
0.0
 40
32.09999999999997
  0
LINE
  5
4A2
330
1F
100
AcDbEntity
  8
0-7_金物
  6
Continuous
 62
     7
370
     5
100
AcDbLine
 10
-2500.534254664223
 20
-3052.44951926505
 30
0.0
 11
-2500.534254664223
 21
-3056.04951926505
 31
0.0
  0
LINE
  5
4A3
330
1F
100
AcDbEntity
  8
0-7_金物
  6
Continuous
 62
     7
370
     5
100
AcDbLine
 10
-2500.534254664215
 20
-3081.249519265051
 30
0.0
 11
-2494.534254664228
 21
-3081.249519265051
 31
0.0
  0
LINE
  5
4A4
330
1F
100
AcDbEntity
  8
0-7_金物
  6
Continuous
 62
     7
370
     5
100
AcDbLine
 10
-2508.334254664222
 20
-3063.84951926505
 30
0.0
 11
-2511.934254664223
 21
-3063.84951926505
 31
0.0
  0
ARC
  5
4A5
330
1F
100
AcDbEntity
  8
0-7_金物
  6
Continuous
 62
     7
370
     5
100
AcDbCircle
 10
-2508.334254664222
 20
-3056.04951926505
 30
0.0
 40
7.800000000000001
100
AcDbArc
 50
270.0
 51
0.0
  0
LINE
  5
4A6
330
1F
100
AcDbEntity
  8
0-7_金物
  6
Continuous
 62
     7
370
     5
100
AcDbLine
 10
-2494.534254664221
 20
-3052.44951926505
 30
0.0
 11
-2500.534254664223
 21
-3052.44951926505
 31
0.0
  0
LINE
  5
4A7
330
1F
100
AcDbEntity
  8
0-7_金物
  6
Continuous
 62
     7
370
     5
100
AcDbLine
 10
-2511.934254664223
 20
-3063.84951926505
 30
0.0
 11
-2511.934254664223
 21
-3069.849519265064
 31
0.0
  0
LINE
  5
4A8
330
1F
100
AcDbEntity
  8
0-7_金物
  6
Continuous
 62
     7
370
     5
100
AcDbLine
 10
-2511.934254664216
 20
-3069.849519265064
 30
0.0
 11
-2508.334254664216
 21
-3069.849519265064
 31
0.0
  0
LINE
  5
4A9
330
1F
100
AcDbEntity
  8
0-7_金物
  6
Continuous
 62
     7
370
     5
100
AcDbLine
 10
-2500.534254664215
 20
-3077.649519265063
 30
0.0
 11
-2500.534254664215
 21
-3081.249519265061
 31
0.0
  0
ARC
  5
4AA
330
1F
100
AcDbEntity
  8
0-7_金物
  6
Continuous
 62
     7
370
     5
100
AcDbCircle
 10
-2508.334254664214
 20
-3077.649519265064
 30
0.0
 40
7.800000000000001
100
AcDbArc
 50
0.0000000000065265
 51
90.00000000000651
  0
LINE
  5
4AB
330
1F
100
AcDbEntity
  8
0-7_金物
  6
Continuous
 62
     7
370
     5
100
AcDbLine
 10
-2494.534254664221
 20
-3052.44951926505
 30
0.0
 11
-2494.534254664221
 21
-3056.04951926505
 31
0.0
  0
LINE
  5
4AC
330
1F
100
AcDbEntity
  8
0-7_金物
  6
Continuous
 62
     7
370
     5
100
AcDbLine
 10
-2486.734254664222
 20
-3063.84951926505
 30
0.0
 11
-2483.134254664222
 21
-3063.84951926505
 31
0.0
  0
ARC
  5
4AD
330
1F
100
AcDbEntity
  8
0-7_金物
  6
Continuous
 62
     7
370
     5
100
AcDbCircle
 10
-2486.734254664222
 20
-3056.04951926505
 30
0.0
 40
7.800000000000001
100
AcDbArc
 50
180.0
 51
270.0
  0
LINE
  5
4AE
330
1F
100
AcDbEntity
  8
0-7_金物
  6
Continuous
 62
     7
370
     5
100
AcDbLine
 10
-2483.134254664222
 20
-3063.84951926505
 30
0.0
 11
-2483.134254664222
 21
-3069.849519265064
 31
0.0
  0
LINE
  5
4AF
330
1F
100
AcDbEntity
  8
0-7_金物
  6
Continuous
 62
     7
370
     5
100
AcDbLine
 10
-2494.534254664228
 20
-3077.649519265063
 30
0.0
 11
-2494.534254664228
 21
-3081.249519265061
 31
0.0
  0
LINE
  5
4B0
330
1F
100
AcDbEntity
  8
0-7_金物
  6
Continuous
 62
     7
370
     5
100
AcDbLine
 10
-2483.134254664229
 20
-3069.849519265064
 30
0.0
 11
-2486.734254664229
 21
-3069.849519265064
 31
0.0
  0
ARC
  5
4B1
330
1F
100
AcDbEntity
  8
0-7_金物
  6
Continuous
 62
     7
370
     5
100
AcDbCircle
 10
-2486.734254664229
 20
-3077.649519265064
 30
0.0
 40
7.800000000000001
100
AcDbArc
 50
89.99999999999352
 51
179.9999999999935
  0
LINE
  5
4B2
330
1F
100
AcDbEntity
  8
0-7_金物
  6
Continuous
 62
     7
370
     5
100
AcDbLine
 10
-2476.534254664223
 20
-3165.376595517391
 30
0.0
 11
-2476.534254664223
 21
-3138.84951926505
 31
0.0
  0
LINE
  5
4B3
330
1F
100
AcDbEntity
  8
0-7_金物
  6
Continuous
 62
     7
370
     5
100
AcDbLine
 10
-2506.534254664223
 20
-3138.84951926505
 30
0.0
 11
-2506.534254664223
 21
-3184.576595517393
 31
0.0
  0
LINE
  5
4B4
330
1F
100
AcDbEntity
  8
0-7_金物
  6
Continuous
 62
     7
370
     5
100
AcDbLine
 10
-2488.534254664224
 20
-3138.84951926505
 30
0.0
 11
-2488.534254664224
 21
-3184.576595517393
 31
0.0
  0
LINE
  5
4B5
330
1F
100
AcDbEntity
  8
0-7_金物
  6
Continuous
 62
     7
370
     5
100
AcDbLine
 10
-2518.534254664224
 20
-3165.376595517391
 30
0.0
 11
-2518.534254664224
 21
-3138.84951926505
 31
0.0
  0
ARC
  5
4B6
330
1F
100
AcDbEntity
  8
0-7_金物
  6
Continuous
 62
     7
370
     5
100
AcDbCircle
 10
-2487.334254664221
 20
-3178.521935517393
 30
0.0
 40
1.2
100
AcDbArc
 50
95.21590900000078
 51
180.0
  0
ARC
  5
4B7
330
1F
100
AcDbEntity
  8
0-7_金物
  6
Continuous
 62
     7
370
     5
100
AcDbCircle
 10
-2490.334254664222
 20
-3184.576595517393
 30
0.0
 40
1.8
100
AcDbArc
 50
270.0
 51
0.0
  0
ARC
  5
4B8
330
1F
100
AcDbEntity
  8
0-7_金物
  6
Continuous
 62
     7
370
     5
100
AcDbCircle
 10
-2507.734254664223
 20
-3178.521935517393
 30
0.0
 40
1.2
100
AcDbArc
 50
0.0000000000000127
 51
84.7840909999992
  0
ARC
  5
4B9
330
1F
100
AcDbEntity
  8
0-7_金物
  6
Continuous
 62
     7
370
     5
100
AcDbCircle
 10
-2504.734254664223
 20
-3184.576595517393
 30
0.0
 40
1.8
100
AcDbArc
 50
180.0
 51
270.0
  0
ARC
  5
4BA
330
1F
100
AcDbEntity
  8
0-7_金物
  6
Continuous
 62
     7
370
     5
100
AcDbCircle
 10
-2488.534254664224
 20
-3165.376595517391
 30
0.0
 40
12.0
100
AcDbArc
 50
275.2159090000008
 51
0.0000000000000254
  0
ARC
  5
4BB
330
1F
100
AcDbEntity
  8
0-7_金物
  6
Continuous
 62
     7
370
     5
100
AcDbCircle
 10
-2506.534254664223
 20
-3165.376595517391
 30
0.0
 40
12.0
100
AcDbArc
 50
180.0
 51
264.7840909999994
  0
LINE
  5
4BC
330
1F
100
AcDbEntity
  8
0-7_金物
  6
Continuous
 62
     7
370
     5
100
AcDbLine
 10
-2504.734254664223
 20
-3186.376595517393
 30
0.0
 11
-2490.334254664222
 21
-3186.376595517393
 31
0.0
  0
ARC
  5
4BD
330
1F
100
AcDbEntity
  8
0-7_金物
  6
Continuous
 62
     7
370
     5
100
AcDbCircle
 10
-2510.73425466422
 20
-2978.049519265051
 30
0.0
 40
10.2
100
AcDbArc
 50
0.0000000000000127
 51
90.00000000000001
  0
ARC
  5
4BE
330
1F
100
AcDbEntity
  8
0-7_金物
  6
Continuous
 62
     7
370
     5
100
AcDbCircle
 10
-2484.334254664222
 20
-2978.049519265051
 30
0.0
 40
10.2
100
AcDbArc
 50
90.0
 51
180.0
  0
ARC
  5
4BF
330
1F
100
AcDbEntity
  8
0-7_金物
  6
Continuous
 62
     7
370
     5
100
AcDbCircle
 10
-2510.73425466422
 20
-2951.64951926505
 30
0.0
 40
10.2
100
AcDbArc
 50
270.0
 51
0.0
  0
LINE
  5
4C0
330
1F
100
AcDbEntity
  8
0-7_金物
  6
Continuous
 62
     7
370
     5
100
AcDbLine
 10
-2516.434254664222
 20
-2961.849519265051
 30
0.0
 11
-2510.73425466422
 21
-2961.849519265051
 31
0.0
  0
LINE
  5
4C1
330
1F
100
AcDbEntity
  8
0-7_金物
  6
Continuous
 62
     7
370
     5
100
AcDbLine
 10
-2516.434254664222
 20
-2967.849519265051
 30
0.0
 11
-2516.434254664222
 21
-2961.849519265051
 31
0.0
  0
LINE
  5
4C2
330
1F
100
AcDbEntity
  8
0-7_金物
  6
Continuous
 62
     7
370
     5
100
AcDbLine
 10
-2510.73425466422
 20
-2967.849519265051
 30
0.0
 11
-2516.434254664222
 21
-2967.849519265051
 31
0.0
  0
LINE
  5
4C3
330
1F
100
AcDbEntity
  8
0-7_金物
  6
Continuous
 62
     7
370
     5
100
AcDbLine
 10
-2500.534254664223
 20
-2951.64951926505
 30
0.0
 11
-2500.534254664223
 21
-2945.949519265051
 31
0.0
  0
LINE
  5
4C4
330
1F
100
AcDbEntity
  8
0-7_金物
  6
Continuous
 62
     7
370
     5
100
AcDbLine
 10
-2494.534254664221
 20
-2945.949519265051
 30
0.0
 11
-2494.534254664221
 21
-2951.64951926505
 31
0.0
  0
LINE
  5
4C5
330
1F
100
AcDbEntity
  8
0-7_金物
  6
Continuous
 62
     7
370
     5
100
AcDbLine
 10
-2500.534254664223
 20
-2945.949519265051
 30
0.0
 11
-2494.534254664221
 21
-2945.949519265051
 31
0.0
  0
LINE
  5
4C6
330
1F
100
AcDbEntity
  8
0-7_金物
  6
Continuous
 62
     7
370
     5
100
AcDbLine
 10
-2478.634254664222
 20
-2967.849519265051
 30
0.0
 11
-2484.334254664222
 21
-2967.849519265051
 31
0.0
  0
LINE
  5
4C7
330
1F
100
AcDbEntity
  8
0-7_金物
  6
Continuous
 62
     7
370
     5
100
AcDbLine
 10
-2484.334254664222
 20
-2961.849519265051
 30
0.0
 11
-2478.634254664222
 21
-2961.849519265051
 31
0.0
  0
ARC
  5
4C8
330
1F
100
AcDbEntity
  8
0-7_金物
  6
Continuous
 62
     7
370
     5
100
AcDbCircle
 10
-2484.334254664222
 20
-2951.64951926505
 30
0.0
 40
10.2
100
AcDbArc
 50
180.0
 51
270.0
  0
LINE
  5
4C9
330
1F
100
AcDbEntity
  8
0-7_金物
  6
Continuous
 62
     7
370
     5
100
AcDbLine
 10
-2478.634254664222
 20
-2961.849519265051
 30
0.0
 11
-2478.634254664222
 21
-2967.849519265051
 31
0.0
  0
LINE
  5
4CA
330
1F
100
AcDbEntity
  8
0-7_金物
  6
Continuous
 62
     7
370
     5
100
AcDbLine
 10
-2500.534254664223
 20
-2983.749519265051
 30
0.0
 11
-2500.534254664223
 21
-2978.049519265051
 31
0.0
  0
LINE
  5
4CB
330
1F
100
AcDbEntity
  8
0-7_金物
  6
Continuous
 62
     7
370
     5
100
AcDbLine
 10
-2494.534254664221
 20
-2978.049519265051
 30
0.0
 11
-2494.534254664221
 21
-2983.749519265051
 31
0.0
  0
LINE
  5
4CC
330
1F
100
AcDbEntity
  8
0-7_金物
  6
Continuous
 62
     7
370
     5
100
AcDbLine
 10
-2494.534254664221
 20
-2983.749519265051
 30
0.0
 11
-2500.534254664223
 21
-2983.749519265051
 31
0.0
  0
LINE
  5
4CD
330
1F
100
AcDbEntity
  8
0-7_金物
  6
Continuous
 62
     7
370
     5
100
AcDbLine
 10
-2457.934254664221
 20
-3146.04951926505
 30
0.0
 11
-2476.728725675307
 21
-3146.04951926505
 31
0.0
  0
LINE
  5
4CE
330
1F
100
AcDbEntity
  8
0-7_金物
  6
Continuous
 62
     7
370
     5
100
AcDbLine
 10
-2518.339783653139
 20
-3146.04951926505
 30
0.0
 11
-2537.134254664222
 21
-3146.04951926505
 31
0.0
  0
LINE
  5
4CF
330
1F
100
AcDbEntity
  8
0-7_金物
  6
Continuous
 62
     7
370
     5
100
AcDbLine
 10
-2457.934254664221
 20
-3138.84951926505
 30
0.0
 11
-2457.934254664221
 21
-3146.04951926505
 31
0.0
  0
LINE
  5
4D0
330
1F
100
AcDbEntity
  8
0-7_金物
  6
Continuous
 62
     7
370
     5
100
AcDbLine
 10
-2537.134254664222
 20
-3138.84951926505
 30
0.0
 11
-2537.134254664222
 21
-3146.04951926505
 31
0.0
  0
LINE
  5
4D1
330
1F
100
AcDbEntity
  8
0-6_扉
  6
Continuous
 62
   200
370
     5
100
AcDbLine
 10
-2407.53425466422
 20
-3138.84951926505
 30
0.0
 11
-2587.53425466422
 21
-3138.84951926505
 31
0.0
  0
LINE
  5
4D2
330
1F
100
AcDbEntity
  8
0-6_扉
  6
Continuous
 62
   200
370
     5
100
AcDbLine
 10
-2359.534254664222
 20
-3138.84951926505
 30
0.0
 11
-2179.534254664222
 21
-3138.84951926505
 31
0.0
  0
LINE
  5
4D3
330
1F
100
AcDbEntity
  8
0-4_枠
  6
Continuous
 62
    92
370
     5
100
AcDbLine
 10
-1997.776894797986
 20
-3168.848919265048
 30
0.0
 11
-2243.134254110874
 21
-3168.848919265048
 31
0.0
  0
LINE
  5
4D4
330
1F
100
AcDbEntity
  8
0-4_枠
  6
Continuous
 62
    92
370
     5
100
AcDbLine
 10
-1996.534254110868
 20
-3171.848633162752
 30
0.0
 11
-2243.134254110874
 21
-3171.848633162752
 31
0.0
  0
LINE
  5
4D5
330
1F
100
AcDbEntity
  8
0-4_枠
  6
Continuous
 62
    92
370
     5
100
AcDbLine
 10
-2243.134254110874
 20
-3204.84891926505
 30
0.0
 11
-2243.134254110874
 21
-3168.848919265048
 31
0.0
  0
LINE
  5
4D6
330
1F
100
AcDbEntity
  8
0-4_枠
  6
Continuous
 62
    92
370
     5
100
AcDbLine
 10
-2243.134254110874
 20
-3204.84891926505
 30
0.0
 11
-2295.934254110874
 21
-3204.84891926505
 31
0.0
  0
LINE
  5
4D7
330
1F
100
AcDbEntity
  8
0-4_枠
  6
Continuous
 62
    92
370
     5
100
AcDbLine
 10
-2295.934254110874
 20
-3204.84891926505
 30
0.0
 11
-2295.934254110874
 21
-3168.848919265048
 31
0.0
  0
LINE
  5
4D8
330
1F
100
AcDbEntity
  8
0-4_枠
  6
Continuous
 62
    92
370
     5
100
AcDbLine
 10
-2295.934254110874
 20
-3168.848919265048
 30
0.0
 11
-2471.134254110872
 21
-3168.848919265048
 31
0.0
  0
LINE
  5
4D9
330
1F
100
AcDbEntity
  8
0-4_枠
  6
Continuous
 62
    92
370
     5
100
AcDbLine
 10
-2295.934254110874
 20
-3171.848633162752
 30
0.0
 11
-2471.134254110872
 21
-3171.848633162752
 31
0.0
  0
LINE
  5
4DA
330
1F
100
AcDbEntity
  8
0-4_枠
  6
Continuous
 62
    92
370
     5
100
AcDbLine
 10
-2471.134254110872
 20
-3204.84891926505
 30
0.0
 11
-2471.134254110872
 21
-3168.848919265048
 31
0.0
  0
LINE
  5
4DB
330
1F
100
AcDbEntity
  8
0-4_枠
  6
Continuous
 62
    92
370
     5
100
AcDbLine
 10
-2770.534254110868
 20
-3171.848633162752
 30
0.0
 11
-2523.934254110872
 21
-3171.848633162752
 31
0.0
  0
LINE
  5
4DC
330
1F
100
AcDbEntity
  8
0-4_枠
  6
Continuous
 62
    92
370
     5
100
AcDbLine
 10
-2769.291613423748
 20
-3168.848919265048
 30
0.0
 11
-2523.934254110872
 21
-3168.848919265048
 31
0.0
  0
LINE
  5
4DD
330
1F
100
AcDbEntity
  8
0-4_枠
  6
Continuous
 62
    92
370
     5
100
AcDbLine
 10
-2471.134254110872
 20
-3204.84891926505
 30
0.0
 11
-2523.934254110872
 21
-3204.84891926505
 31
0.0
  0
LINE
  5
4DE
330
1F
100
AcDbEntity
  8
0-4_枠
  6
Continuous
 62
    92
370
     5
100
AcDbLine
 10
-2523.934254110872
 20
-3204.84891926505
 30
0.0
 11
-2523.934254110872
 21
-3168.848919265048
 31
0.0
  0
LINE
  5
4DF
330
1F
100
AcDbEntity
  8
仕上げ
  6
Continuous
 62
    40
370
     5
100
AcDbLine
 10
-2863.534254110868
 20
-3258.84891953346
 30
0.0
 11
-2863.534254110868
 21
-3186.849125527114
 31
0.0
  0
LINE
  5
4E0
330
1F
100
AcDbEntity
  8
0-4_枠
  6
Continuous
 62
    92
370
     5
100
AcDbLine
 10
-1993.534254110867
 20
-3173.091559952167
 30
0.0
 11
-1993.534254110867
 21
-3258.84922253348
 31
0.0
  0
LINE
  5
4E1
330
1F
100
AcDbEntity
  8
0-4_枠
  6
Continuous
 62
    92
370
     5
100
AcDbLine
 10
-2773.534254110867
 20
-3173.091559952167
 30
0.0
 11
-2773.534254110867
 21
-3258.84922253348
 31
0.0
  0
LINE
  5
4E2
330
1F
100
AcDbEntity
  8
仕上げ
  6
Continuous
 62
    40
370
     5
100
AcDbLine
 10
-1993.534254110867
 20
-3258.849222801909
 30
0.0
 11
-1993.534254110867
 21
-3186.849125527114
 31
0.0
  0
LINE
  5
4E3
330
1F
100
AcDbEntity
  8
0-A_文字
  6
Continuous
 62
     7
370
     5
100
AcDbLine
 10
-2927.612280616856
 20
-3072.959530537594
 30
0.0
 11
-2888.051647783378
 21
-3072.959530537594
 31
0.0
  0
LINE
  5
4E4
330
1F
100
AcDbEntity
  8
仕上げ
  6
Continuous
 62
    40
370
     5
100
AcDbLine
 10
-2863.534254110868
 20
-3186.849222533478
 30
0.0
 11
-2773.534254110867
 21
-3186.849222533478
 31
0.0
  0
LINE
  5
4E5
330
1F
100
AcDbEntity
  8
仕上げ
  6
Continuous
 62
    40
370
     5
100
AcDbLine
 10
-2773.534254110867
 20
-3186.849222533478
 30
0.0
 11
-2773.534254110867
 21
-3258.84922253348
 31
0.0
  0
LINE
  5
4E6
330
1F
100
AcDbEntity
  8
0-A_文字
  6
Continuous
 62
     7
370
     5
100
AcDbLine
 10
-2828.27351010499
 20
-3215.289308761497
 30
0.0
 11
-2888.051647783378
 21
-3072.959530537594
 31
0.0
  0
LINE
  5
4E7
330
1F
100
AcDbEntity
  8
仕上げ
  6
Continuous
 62
    40
370
     5
100
AcDbLine
 10
-2773.534254110867
 20
-3258.84922253348
 30
0.0
 11
-2863.534254110868
 21
-3258.84922253348
 31
0.0
  0
LINE
  5
4E8
330
1F
100
AcDbEntity
  8
0-B_寸法
  6
Continuous
 62
   120
370
     5
100
AcDbLine
 10
-1993.534254110866
 20
-3498.84891926503
 30
0.0
 11
-2773.534254110867
 21
-3498.84891926503
 31
0.0
  0
LWPOLYLINE
  5
4E9
330
1F
100
AcDbEntity
  8
0-B_寸法
  6
Continuous
 62
     7
370
     5
100
AcDbPolyline
 90
        4
 70
     1
 43
3.0
 10
-1992.034254110867
 20
-3498.84891926503
 42
0.4142135623731
 10
-1993.534254110866
 20
-3497.34891926503
 42
0.4142135623731
 10
-1995.034254110866
 20
-3498.84891926503
 42
0.4142135623731
 10
-1993.534254110866
 20
-3500.34891926503
 42
0.4142135623731
  0
LWPOLYLINE
  5
4EA
330
1F
100
AcDbEntity
  8
0-B_寸法
  6
Continuous
 62
     7
370
     5
100
AcDbPolyline
 90
        4
 70
     1
 43
3.0
 10
-2772.034254110867
 20
-3498.84891926503
 42
0.4142135623731
 10
-2773.534254110867
 20
-3497.34891926503
 42
0.4142135623731
 10
-2775.034254110866
 20
-3498.84891926503
 42
0.4142135623731
 10
-2773.534254110867
 20
-3500.34891926503
 42
0.4142135623731
  0
LINE
  5
4EB
330
1F
100
AcDbEntity
  8
0-B_寸法
  6
Continuous
 62
   120
370
     5
100
AcDbLine
 10
-1993.534254110866
 20
-3498.84891926503
 30
0.0
 11
-1993.534254110866
 21
-3318.84891926503
 31
0.0
  0
LINE
  5
4EC
330
1F
100
AcDbEntity
  8
0-B_寸法
  6
Continuous
 62
   120
370
     5
100
AcDbLine
 10
-2773.534254110867
 20
-3498.84891926503
 30
0.0
 11
-2773.534254110867
 21
-3318.84891926503
 31
0.0
  0
MTEXT
  5
4ED
330
1F
100
AcDbEntity
  8
0-A_文字
  6
Continuous
 62
     7
370
     0
100
AcDbMText
 10
-3158.051647783378
 20
-3147.239530537594
 30
0.0
 40
91.44
 41
240.0
 46
0.0
 71
     7
 72
     1
  1
{\fＭＳ ゴシック|b0|i0|c128|p49;畳寄}
 73
     1
 44
1.0
  0
LINE
  5
4EE
330
1F
100
AcDbEntity
  8
ハッチ
  6
Continuous
 62
   120
370
     5
100
AcDbLine
 10
-2273.367261719426
 20
-3258.849222533485
 30
0.0
 11
-2186.36667234869
 21
-3171.848633162752
 31
0.0
  0
LINE
  5
4EF
330
1F
100
AcDbEntity
  8
ハッチ
  6
Continuous
 62
   120
370
     5
100
AcDbLine
 10
-2315.793668590619
 20
-3258.849222533481
 30
0.0
 11
-2261.793365322194
 21
-3204.848919265056
 31
0.0
  0
LINE
  5
4F0
330
1F
100
AcDbEntity
  8
ハッチ
  6
Continuous
 62
   120
370
     5
100
AcDbLine
 10
-2400.64648233296
 20
-3258.849222533478
 30
0.0
 11
-2313.645892962237
 21
-3171.848633162752
 31
0.0
  0
LINE
  5
4F1
330
1F
100
AcDbEntity
  8
ハッチ
  6
Continuous
 62
   120
370
     5
100
AcDbLine
 10
-2443.072889204174
 20
-3258.849222533491
 30
0.0
 11
-2356.07229983344
 21
-3171.848633162757
 31
0.0
  0
LINE
  5
4F2
330
1F
100
AcDbEntity
  8
ハッチ
  6
Continuous
 62
   120
370
     5
100
AcDbLine
 10
-2485.499296075371
 20
-3258.849222533488
 30
0.0
 11
-2398.49870670464
 21
-3171.848633162757
 31
0.0
  0
LINE
  5
4F3
330
1F
100
AcDbEntity
  8
ハッチ
  6
Continuous
 62
   120
370
     5
100
AcDbLine
 10
-2527.925702946571
 20
-3258.849222533487
 30
0.0
 11
-2473.925399678135
 21
-3204.848919265056
 31
0.0
  0
LINE
  5
4F4
330
1F
100
AcDbEntity
  8
ハッチ
  6
Continuous
 62
   120
370
     5
100
AcDbLine
 10
-2570.352109817764
 20
-3258.849222533485
 30
0.0
 11
-2516.351806549342
 21
-3204.848919265058
 31
0.0
  0
LINE
  5
4F5
330
1F
100
AcDbEntity
  8
ハッチ
  6
Continuous
 62
   120
370
     5
100
AcDbLine
 10
-2612.778516688967
 20
-3258.84922253348
 30
0.0
 11
-2525.777927318236
 21
-3171.848633162752
 31
0.0
  0
LINE
  5
4F6
330
1F
100
AcDbEntity
  8
ハッチ
  6
Continuous
 62
   120
370
     5
100
AcDbLine
 10
-2655.204923560157
 20
-3258.84922253348
 30
0.0
 11
-2568.20433418943
 21
-3171.848633162747
 31
0.0
  0
LINE
  5
4F7
330
1F
100
AcDbEntity
  8
ハッチ
  6
Continuous
 62
   120
370
     5
100
AcDbLine
 10
-2697.631330431343
 20
-3258.84922253348
 30
0.0
 11
-2610.630741060619
 21
-3171.848633162747
 31
0.0
  0
LINE
  5
4F8
330
1F
100
AcDbEntity
  8
ハッチ
  6
Continuous
 62
   120
370
     5
100
AcDbLine
 10
-2740.057737302533
 20
-3258.84922253348
 30
0.0
 11
-2653.057147931809
 21
-3171.848633162747
 31
0.0
  0
LINE
  5
4F9
330
1F
100
AcDbEntity
  8
ハッチ
  6
Continuous
 62
   120
370
     5
100
AcDbLine
 10
-2230.940854848226
 20
-3258.849222533491
 30
0.0
 11
-2143.940265477491
 21
-3171.848633162752
 31
0.0
  0
LINE
  5
4FA
330
1F
100
AcDbEntity
  8
ハッチ
  6
Continuous
 62
   120
370
     5
100
AcDbLine
 10
-2188.514447977029
 20
-3258.849222533491
 30
0.0
 11
-2101.513858606295
 21
-3171.848633162752
 31
0.0
  0
LINE
  5
4FB
330
1F
100
AcDbEntity
  8
ハッチ
  6
Continuous
 62
   120
370
     5
100
AcDbLine
 10
-2146.088041105832
 20
-3258.849222533491
 30
0.0
 11
-2059.087451735099
 21
-3171.848633162752
 31
0.0
  0
LINE
  5
4FC
330
1F
100
AcDbEntity
  8
ハッチ
  6
Continuous
 62
   120
370
     5
100
AcDbLine
 10
-2103.661634234636
 20
-3258.849222533491
 30
0.0
 11
-2016.6610448639
 21
-3171.848633162752
 31
0.0
  0
LINE
  5
4FD
330
1F
100
AcDbEntity
  8
ハッチ
  6
Continuous
 62
   120
370
     5
100
AcDbLine
 10
-2018.808820492239
 20
-3258.849222533491
 30
0.0
 11
-1996.534254110866
 21
-3236.574656152116
 31
0.0
  0
LINE
  5
4FE
330
1F
100
AcDbEntity
  8
ハッチ
  6
Continuous
 62
   120
370
     5
100
AcDbLine
 10
-2061.235227363438
 20
-3258.849222533491
 30
0.0
 11
-1996.534254110866
 21
-3194.148249280916
 31
0.0
  0
LINE
  5
4FF
330
1F
100
AcDbEntity
  8
ハッチ
  6
Continuous
 62
   120
370
     5
100
AcDbLine
 10
-2471.134254110861
 20
-3202.057773697778
 30
0.0
 11
-2440.925113575836
 21
-3171.848633162752
 31
0.0
  0
LINE
  5
500
330
1F
100
AcDbEntity
  8
ハッチ
  6
Continuous
 62
   120
370
     5
100
AcDbLine
 10
-2358.220075461816
 20
-3258.849222533478
 30
0.0
 11
-2295.934254110862
 21
-3196.563401182524
 31
0.0
  0
LINE
  5
501
330
1F
100
AcDbEntity
  8
ハッチ
  6
Continuous
 62
   120
370
     5
100
AcDbLine
 10
-2243.134254110862
 20
-3186.189808053724
 30
0.0
 11
-2228.793079219891
 21
-3171.848633162754
 31
0.0
  0
LINE
  5
502
330
1F
100
AcDbEntity
  8
ハッチ
  6
Continuous
 62
   120
370
     5
100
AcDbLine
 10
-2773.534254110867
 20
-3207.472925599431
 30
0.0
 11
-2737.909961674189
 21
-3171.848633162747
 31
0.0
  0
LINE
  5
503
330
1F
100
AcDbEntity
  8
ハッチ
  6
Continuous
 62
   120
370
     5
100
AcDbLine
 10
-2773.534254110867
 20
-3249.899332470622
 30
0.0
 11
-2695.483554802999
 21
-3171.848633162747
 31
0.0
  0
LINE
  5
504
330
1F
100
AcDbEntity
  8
ハッチ
  6
Continuous
 62
   120
370
     5
100
AcDbLine
 10
-2851.636547531262
 20
-3258.849222533474
 30
0.0
 11
-2779.636547531269
 21
-3186.849222533482
 31
0.0
  0
LINE
  5
505
330
1F
100
AcDbEntity
  8
ハッチ
  6
Continuous
 62
   120
370
     5
100
AcDbLine
 10
-2863.534254110868
 20
-3211.349959493377
 30
0.0
 11
-2839.033517150961
 21
-3186.849222533472
 31
0.0
  0
LINE
  5
506
330
1F
100
AcDbEntity
  8
ハッチ
  6
Continuous
 62
   120
370
     5
100
AcDbLine
 10
-2792.239577911629
 20
-3258.849222533488
 30
0.0
 11
-2773.534254110867
 21
-3240.143898732725
 31
0.0
  0
MTEXT
  5
507
330
1F
100
AcDbEntity
  8
0-B_寸法
  6
Continuous
 62
     7
370
   211
100
AcDbMText
 10
-2481.034254110867
 20
-3494.31891926503
 30
0.0
 40
99.06
 41
195.0
 46
0.0
 71
     7
 72
     1
  1
{\fＭＳ ゴシック|b0|i0|c128|p49;130}
 73
     1
 44
1.0
  0
LINE
  5
508
330
1F
100
AcDbEntity
  8
0-A_文字
  6
Continuous
 62
    92
370
     5
100
AcDbLine
 10
-5659.999495325863
 20
4000.00018145587
 30
0.0
 11
-5659.999495325863
 21
3730.00018145587
 31
0.0
  0
LINE
  5
509
330
1F
100
AcDbEntity
  8
0-A_文字
  6
Continuous
 62
    92
370
     5
100
AcDbLine
 10
2909.918584083289
 20
-558.8487130029694
 30
0.0
 11
2909.918584083289
 21
-3426.84891899662
 31
0.0
  0
LINE
  5
50A
330
1F
100
AcDbEntity
  8
0-A_文字
  6
Continuous
 62
    92
370
     5
100
AcDbLine
 10
2909.918584083289
 20
-3426.84891899662
 30
0.0
 11
509.9185840832865
 21
-3426.84891899662
 31
0.0
  0
LWPOLYLINE
  5
50B
330
1F
100
AcDbEntity
  8
1-B_ﾊｯﾁ
  6
Continuous
 62
     7
370
     5
100
AcDbPolyline
 90
        4
 70
     1
 43
3.0
 10
2770.054111448866
 20
-2835.568395668807
 42
0.4142135623731
 10
2768.554111448866
 20
-2834.068395668807
 42
0.4142135623731
 10
2767.054111448866
 20
-2835.568395668807
 42
0.4142135623731
 10
2768.554111448866
 20
-2837.068395668807
 42
0.4142135623731
  0
LINE
  5
50C
330
1F
100
AcDbEntity
  8
1-B_ﾊｯﾁ
  6
Continuous
 62
   120
370
     5
100
AcDbLine
 10
2768.554111448866
 20
-2670.568395668807
 30
0.0
 11
2768.554111448866
 21
-2940.568395668807
 31
0.0
  0
LWPOLYLINE
  5
50D
330
1F
100
AcDbEntity
  8
1-B_ﾊｯﾁ
  6
Continuous
 62
     7
370
     5
100
AcDbPolyline
 90
        4
 70
     1
 43
3.0
 10
820.0541114488649
 20
-2835.568395668807
 42
0.4142135623731
 10
818.5541114488649
 20
-2834.068395668807
 42
0.4142135623731
 10
817.0541114488649
 20
-2835.568395668807
 42
0.4142135623731
 10
818.5541114488649
 20
-2837.068395668807
 42
0.4142135623731
  0
LINE
  5
50E
330
1F
100
AcDbEntity
  8
1-B_ﾊｯﾁ
  6
Continuous
 62
   120
370
     5
100
AcDbLine
 10
818.5541114488649
 20
-2670.568395668807
 30
0.0
 11
818.5541114488649
 21
-2940.568395668807
 31
0.0
  0
LWPOLYLINE
  5
50F
330
1F
100
AcDbEntity
  8
1-B_ﾊｯﾁ
  6
Continuous
 62
     7
370
     5
100
AcDbPolyline
 90
        4
 70
     1
 43
3.0
 10
2770.054111448866
 20
-2670.568395668807
 42
0.4142135623731
 10
2768.554111448866
 20
-2669.068395668807
 42
0.4142135623731
 10
2767.054111448866
 20
-2670.568395668807
 42
0.4142135623731
 10
2768.554111448866
 20
-2672.068395668807
 42
0.4142135623731
  0
LWPOLYLINE
  5
510
330
1F
100
AcDbEntity
  8
1-B_ﾊｯﾁ
  6
Continuous
 62
     7
370
     5
100
AcDbPolyline
 90
        4
 70
     1
 43
3.0
 10
820.0541114488649
 20
-2670.568395668807
 42
0.4142135623731
 10
818.5541114488649
 20
-2669.068395668807
 42
0.4142135623731
 10
817.0541114488649
 20
-2670.568395668807
 42
0.4142135623731
 10
818.5541114488649
 20
-2672.068395668807
 42
0.4142135623731
  0
LINE
  5
511
330
1F
100
AcDbEntity
  8
1-B_ﾊｯﾁ
  6
Continuous
 62
   120
370
     5
100
AcDbLine
 10
818.5541114488649
 20
-2670.568395668807
 30
0.0
 11
2768.554111448866
 21
-2670.568395668807
 31
0.0
  0
LINE
  5
512
330
1F
100
AcDbEntity
  8
1-4_枠
  6
Continuous
 62
    92
370
     5
100
AcDbLine
 10
2768.554111448866
 20
-2996.175511699662
 30
0.0
 11
2768.554111448866
 21
-3210.569668152943
 31
0.0
  0
LINE
  5
513
330
1F
100
AcDbEntity
  8
1-4_枠
  6
Continuous
 62
    92
370
     5
100
AcDbLine
 10
2761.054111448866
 20
-3210.570183137083
 30
0.0
 11
2761.054111448866
 21
-2993.068194726125
 31
0.0
  0
LINE
  5
514
330
1F
100
AcDbEntity
  8
1-4_枠
  6
Continuous
 62
    92
370
     5
100
AcDbLine
 10
2757.947509731069
 20
-2985.568909981866
 30
0.0
 11
2768.554111448866
 21
-2996.175511699662
 31
0.0
  0
LINE
  5
515
330
1F
100
AcDbEntity
  8
1-4_枠
  6
Continuous
 62
    92
370
     5
100
AcDbLine
 10
818.5541114488649
 20
-3210.569668152943
 30
0.0
 11
2768.554111448866
 21
-3210.569668152943
 31
0.0
  0
LINE
  5
516
330
1F
100
AcDbEntity
  8
1-4_枠
  6
Continuous
 62
    92
370
     5
100
AcDbLine
 10
818.5541114488649
 20
-2996.175511699662
 30
0.0
 11
829.1607131666615
 21
-2985.568909981866
 31
0.0
  0
LINE
  5
517
330
1F
100
AcDbEntity
  8
1-4_枠
  6
Continuous
 62
    92
370
     5
100
AcDbLine
 10
826.0541114488666
 20
-3210.570183137083
 30
0.0
 11
826.0541114488666
 21
-2993.068194726125
 31
0.0
  0
LINE
  5
518
330
1F
100
AcDbEntity
  8
1-4_枠
  6
Continuous
 62
    92
370
     5
100
AcDbLine
 10
818.5541114488649
 20
-2996.175511699662
 30
0.0
 11
818.5541114488649
 21
-3210.569668152943
 31
0.0
  0
LINE
  5
519
330
1F
100
AcDbEntity
  8
1-B_ﾊｯﾁ
  6
Continuous
 62
   120
370
     5
100
AcDbLine
 10
2768.554111448866
 20
-2835.568395668807
 30
0.0
 11
2078.554111448879
 21
-2835.568395668807
 31
0.0
  0
LWPOLYLINE
  5
51A
330
1F
100
AcDbEntity
  8
1-B_ﾊｯﾁ
  6
Continuous
 62
     7
370
     5
100
AcDbPolyline
 90
        4
 70
     1
 43
3.0
 10
2080.054111448879
 20
-2835.568395668807
 42
0.4142135623731
 10
2078.554111448879
 20
-2834.068395668807
 42
0.4142135623731
 10
2077.05411144888
 20
-2835.568395668807
 42
0.4142135623731
 10
2078.554111448879
 20
-2837.068395668807
 42
0.4142135623731
  0
LINE
  5
51B
330
1F
100
AcDbEntity
  8
1-B_ﾊｯﾁ
  6
Continuous
 62
   120
370
     5
100
AcDbLine
 10
2078.554111448879
 20
-2835.568395668807
 30
0.0
 11
2078.554111448879
 21
-2940.568395668807
 31
0.0
  0
LWPOLYLINE
  5
51C
330
1F
100
AcDbEntity
  8
1-B_ﾊｯﾁ
  6
Continuous
 62
     7
370
     5
100
AcDbPolyline
 90
        4
 70
     1
 43
3.0
 10
1510.054111448879
 20
-2835.568395668807
 42
0.4142135623731
 10
1508.554111448879
 20
-2834.068395668807
 42
0.4142135623731
 10
1507.054111448879
 20
-2835.568395668807
 42
0.4142135623731
 10
1508.554111448879
 20
-2837.068395668807
 42
0.4142135623731
  0
LINE
  5
51D
330
1F
100
AcDbEntity
  8
1-B_ﾊｯﾁ
  6
Continuous
 62
   120
370
     5
100
AcDbLine
 10
1508.554111448879
 20
-2835.568395668807
 30
0.0
 11
1508.554111448879
 21
-2940.568395668807
 31
0.0
  0
LINE
  5
51E
330
1F
100
AcDbEntity
  8
1-B_ﾊｯﾁ
  6
Continuous
 62
   120
370
     5
100
AcDbLine
 10
1508.554111448879
 20
-2835.568395668807
 30
0.0
 11
818.5541114488649
 21
-2835.568395668807
 31
0.0
  0
LINE
  5
51F
330
1F
100
AcDbEntity
  8
1-B_ﾊｯﾁ
  6
Continuous
 62
   120
370
     5
100
AcDbLine
 10
2078.554111448879
 20
-2835.568395668807
 30
0.0
 11
1508.554111448879
 21
-2835.568395668807
 31
0.0
  0
LINE
  5
520
330
1F
100
AcDbEntity
  8
1-4_枠
  6
Continuous
 62
    92
370
     5
100
AcDbLine
 10
1574.554111448881
 20
-3075.568909981869
 30
0.0
 11
1442.554111448881
 21
-3075.568909981869
 31
0.0
  0
LINE
  5
521
330
1F
100
AcDbEntity
  8
1-4_枠
  6
Continuous
 62
    92
370
     5
100
AcDbLine
 10
829.1607131666615
 20
-2985.568909981866
 30
0.0
 11
1442.554111448881
 21
-2985.568909981866
 31
0.0
  0
LINE
  5
522
330
1F
100
AcDbEntity
  8
1-4_枠
  6
Continuous
 62
    92
370
     5
100
AcDbLine
 10
826.0541114488666
 20
-2993.068194726125
 30
0.0
 11
1442.554111448881
 21
-2993.068194726125
 31
0.0
  0
LINE
  5
523
330
1F
100
AcDbEntity
  8
1-4_枠
  6
Continuous
 62
    92
370
     5
100
AcDbLine
 10
1442.554111448881
 20
-3075.568909981869
 30
0.0
 11
1442.554111448881
 21
-2985.568909981866
 31
0.0
  0
LINE
  5
524
330
1F
100
AcDbEntity
  8
1-4_枠
  6
Continuous
 62
    92
370
     5
100
AcDbLine
 10
1574.554111448881
 20
-3075.568909981869
 30
0.0
 11
1574.554111448881
 21
-2985.568909981866
 31
0.0
  0
LINE
  5
525
330
1F
100
AcDbEntity
  8
1-4_枠
  6
Continuous
 62
    92
370
     5
100
AcDbLine
 10
2012.554111448878
 20
-3075.568909981869
 30
0.0
 11
2144.554111448881
 21
-3075.568909981869
 31
0.0
  0
LINE
  5
526
330
1F
100
AcDbEntity
  8
1-4_枠
  6
Continuous
 62
    92
370
     5
100
AcDbLine
 10
2761.054111448866
 20
-2993.068194726125
 30
0.0
 11
2144.554111448881
 21
-2993.068194726125
 31
0.0
  0
LINE
  5
527
330
1F
100
AcDbEntity
  8
1-4_枠
  6
Continuous
 62
    92
370
     5
100
AcDbLine
 10
2757.947509731069
 20
-2985.568909981866
 30
0.0
 11
2144.554111448881
 21
-2985.568909981866
 31
0.0
  0
LINE
  5
528
330
1F
100
AcDbEntity
  8
1-4_枠
  6
Continuous
 62
    92
370
     5
100
AcDbLine
 10
2144.554111448881
 20
-3075.568909981869
 30
0.0
 11
2144.554111448881
 21
-2985.568909981866
 31
0.0
  0
LINE
  5
529
330
1F
100
AcDbEntity
  8
1-4_枠
  6
Continuous
 62
    92
370
     5
100
AcDbLine
 10
1574.554111448881
 20
-2985.568909981866
 30
0.0
 11
2012.554111448878
 21
-2985.568909981866
 31
0.0
  0
LINE
  5
52A
330
1F
100
AcDbEntity
  8
1-4_枠
  6
Continuous
 62
    92
370
     5
100
AcDbLine
 10
1574.554111448881
 20
-2993.068194726125
 30
0.0
 11
2012.554111448878
 21
-2993.068194726125
 31
0.0
  0
LINE
  5
52B
330
1F
100
AcDbEntity
  8
1-4_枠
  6
Continuous
 62
    92
370
     5
100
AcDbLine
 10
2012.554111448878
 20
-3075.568909981869
 30
0.0
 11
2012.554111448878
 21
-2985.568909981866
 31
0.0
  0
LINE
  5
52C
330
1F
100
AcDbEntity
  8
1-0_補助線
  6
JWW_HOJO
 62
   120
370
     5
100
AcDbLine
 10
1508.554111448879
 20
-2940.568395668807
 30
0.0
 11
1508.554111448879
 21
-3255.569668824019
 31
0.0
  0
LINE
  5
52D
330
1F
100
AcDbEntity
  8
1-0_補助線
  6
JWW_HOJO
 62
   120
370
     5
100
AcDbLine
 10
2078.554111448879
 20
-2940.568395668807
 30
0.0
 11
2078.554111448879
 21
-3255.569668824019
 31
0.0
  0
LINE
  5
52E
330
1F
100
AcDbEntity
  8
1-4_枠
  6
Continuous
 62
     7
370
     5
100
AcDbLine
 10
1441.054112832275
 20
-2985.571168152948
 30
0.0
 11
1449.197612832271
 21
-2985.571168152948
 31
0.0
  0
LINE
  5
52F
330
1F
100
AcDbEntity
  8
1-4_枠
  6
Continuous
 62
     7
370
     5
100
AcDbLine
 10
1441.054112832275
 20
-3000.571168152948
 30
0.0
 11
1441.054112832275
 21
-2985.571168152948
 31
0.0
  0
LINE
  5
530
330
1F
100
AcDbEntity
  8
1-4_枠
  6
Continuous
 62
     7
370
     5
100
AcDbLine
 10
1532.554112832274
 20
-3048.569668152946
 30
0.0
 11
1532.554112832274
 21
-3011.071168152947
 31
0.0
  0
LINE
  5
531
330
1F
100
AcDbEntity
  8
1-4_枠
  6
Continuous
 62
     7
370
     5
100
AcDbLine
 10
1484.554112832273
 20
-3048.569668152946
 30
0.0
 11
1484.554112832273
 21
-3011.071168152947
 31
0.0
  0
LINE
  5
532
330
1F
100
AcDbEntity
  8
1-4_枠
  6
Continuous
 62
     7
370
     5
100
AcDbLine
 10
1543.054112832275
 20
-3075.569668152947
 30
0.0
 11
1474.054112832269
 21
-3075.569668152947
 31
0.0
  0
LINE
  5
533
330
1F
100
AcDbEntity
  8
1-4_枠
  6
Continuous
 62
     7
370
     5
100
AcDbLine
 10
1508.554112832272
 20
-3057.569668152951
 30
0.0
 11
1513.054112832271
 21
-3053.069668152947
 31
0.0
  0
LINE
  5
534
330
1F
100
AcDbEntity
  8
1-4_枠
  6
Continuous
 62
     7
370
     5
100
AcDbLine
 10
1451.554112832273
 20
-3075.569668152947
 30
0.0
 11
1444.265612832274
 21
-3057.175168152944
 31
0.0
  0
LINE
  5
535
330
1F
100
AcDbEntity
  8
1-4_枠
  6
Continuous
 62
     7
370
     5
100
AcDbLine
 10
1468.054112832275
 20
-3075.569668152947
 30
0.0
 11
1451.554112832273
 21
-3075.569668152947
 31
0.0
  0
LINE
  5
536
330
1F
100
AcDbEntity
  8
1-4_枠
  6
Continuous
 62
     7
370
     5
100
AcDbLine
 10
1471.054112832272
 20
-3072.56966815295
 30
0.0
 11
1474.054112832269
 21
-3075.569668152947
 31
0.0
  0
LINE
  5
537
330
1F
100
AcDbEntity
  8
1-4_枠
  6
Continuous
 62
     7
370
     5
100
AcDbLine
 10
1468.054112832275
 20
-3075.569668152947
 30
0.0
 11
1471.054112832272
 21
-3072.56966815295
 31
0.0
  0
LINE
  5
538
330
1F
100
AcDbEntity
  8
1-4_枠
  6
Continuous
 62
     7
370
     5
100
AcDbLine
 10
1456.054112832275
 20
-3053.069668152947
 30
0.0
 11
1456.054112832275
 21
-3034.111168152948
 31
0.0
  0
LINE
  5
539
330
1F
100
AcDbEntity
  8
1-4_枠
  6
Continuous
 62
     7
370
     5
100
AcDbLine
 10
1456.054112832275
 20
-3053.069668152947
 30
0.0
 11
1447.054112832273
 21
-3053.069668152947
 31
0.0
  0
LINE
  5
53A
330
1F
100
AcDbEntity
  8
1-4_枠
  6
Continuous
 62
     7
370
     5
100
AcDbLine
 10
1489.054112832273
 20
-3053.069668152947
 30
0.0
 11
1504.054112832273
 21
-3053.069668152947
 31
0.0
  0
LINE
  5
53B
330
1F
100
AcDbEntity
  8
1-4_枠
  6
Continuous
 62
     7
370
     5
100
AcDbLine
 10
1504.054112832273
 20
-3053.069668152947
 30
0.0
 11
1508.554112832272
 21
-3057.569668152951
 31
0.0
  0
LINE
  5
53C
330
1F
100
AcDbEntity
  8
1-4_枠
  6
Continuous
 62
     7
370
     5
100
AcDbLine
 10
1565.554112832271
 20
-3075.569668152947
 30
0.0
 11
1572.84261283227
 21
-3057.175168152944
 31
0.0
  0
LINE
  5
53D
330
1F
100
AcDbEntity
  8
1-4_枠
  6
Continuous
 62
     7
370
     5
100
AcDbLine
 10
1546.054112832272
 20
-3072.56966815295
 30
0.0
 11
1543.054112832275
 21
-3075.569668152947
 31
0.0
  0
LINE
  5
53E
330
1F
100
AcDbEntity
  8
1-4_枠
  6
Continuous
 62
     7
370
     5
100
AcDbLine
 10
1549.054112832269
 20
-3075.569668152947
 30
0.0
 11
1565.554112832271
 21
-3075.569668152947
 31
0.0
  0
LINE
  5
53F
330
1F
100
AcDbEntity
  8
1-4_枠
  6
Continuous
 62
     7
370
     5
100
AcDbLine
 10
1549.054112832269
 20
-3075.569668152947
 30
0.0
 11
1546.054112832272
 21
-3072.56966815295
 31
0.0
  0
LINE
  5
540
330
1F
100
AcDbEntity
  8
1-4_枠
  6
Continuous
 62
     7
370
     5
100
AcDbLine
 10
1513.054112832271
 20
-3053.069668152947
 30
0.0
 11
1528.054112832271
 21
-3053.069668152947
 31
0.0
  0
LINE
  5
541
330
1F
100
AcDbEntity
  8
1-4_枠
  6
Continuous
 62
     7
370
     5
100
AcDbLine
 10
1561.054112832275
 20
-3053.069668152947
 30
0.0
 11
1561.054112832275
 21
-3034.111168152948
 31
0.0
  0
LINE
  5
542
330
1F
100
AcDbEntity
  8
1-4_枠
  6
Continuous
 62
     7
370
     5
100
AcDbLine
 10
1561.054112832275
 20
-3053.069668152947
 30
0.0
 11
1570.054112832274
 21
-3053.069668152947
 31
0.0
  0
LINE
  5
543
330
1F
100
AcDbEntity
  8
1-4_枠
  6
Continuous
 62
     7
370
     5
100
AcDbLine
 10
1473.485612832272
 20
-3006.752668152948
 30
0.0
 11
1454.501612832276
 21
-2987.767168152946
 31
0.0
  0
LINE
  5
544
330
1F
100
AcDbEntity
  8
1-4_枠
  6
Continuous
 62
     7
370
     5
100
AcDbLine
 10
1476.668612832275
 20
-3008.071168152945
 30
0.0
 11
1481.554112832273
 21
-3008.071168152945
 31
0.0
  0
LINE
  5
545
330
1F
100
AcDbEntity
  8
1-4_枠
  6
Continuous
 62
     7
370
     5
100
AcDbLine
 10
1543.621112832276
 20
-3006.752668152948
 30
0.0
 11
1562.606612832271
 21
-2987.767168152946
 31
0.0
  0
LINE
  5
546
330
1F
100
AcDbEntity
  8
1-4_枠
  6
Continuous
 62
     7
370
     5
100
AcDbLine
 10
1540.439612832273
 20
-3008.071168152945
 30
0.0
 11
1535.554112832275
 21
-3008.071168152945
 31
0.0
  0
LINE
  5
547
330
1F
100
AcDbEntity
  8
1-4_枠
  6
Continuous
 62
     7
370
     5
100
AcDbLine
 10
1576.054112832272
 20
-3000.571168152948
 30
0.0
 11
1576.054112832272
 21
-2985.571168152948
 31
0.0
  0
LINE
  5
548
330
1F
100
AcDbEntity
  8
1-4_枠
  6
Continuous
 62
     7
370
     5
100
AcDbLine
 10
1576.054112832272
 20
-2985.571168152948
 30
0.0
 11
1567.910612832273
 21
-2985.571168152948
 31
0.0
  0
ARC
  5
549
330
1F
100
AcDbEntity
  8
1-4_枠
  6
Continuous
 62
     7
370
     5
100
AcDbCircle
 10
1411.054112832275
 20
-3034.111168152948
 30
0.0
 40
45.00000000000128
100
AcDbArc
 50
0.0000000000000127
 51
48.19000000000003
  0
ARC
  5
54A
330
1F
100
AcDbEntity
  8
1-4_枠
  6
Continuous
 62
     7
370
     5
100
AcDbCircle
 10
1606.052612832272
 20
-3034.111168152948
 30
0.0
 40
45.00000000000128
100
AcDbArc
 50
131.81
 51
180.0
  0
ARC
  5
54B
330
1F
100
AcDbEntity
  8
1-4_枠
  6
Continuous
 62
     7
370
     5
100
AcDbCircle
 10
1447.054112832273
 20
-3056.069668152948
 30
0.0
 40
3.000000000000086
100
AcDbArc
 50
90.00000000000001
 51
201.6160000000001
  0
ARC
  5
54C
330
1F
100
AcDbEntity
  8
1-4_枠
  6
Continuous
 62
     7
370
     5
100
AcDbCircle
 10
1489.054112832273
 20
-3048.569668152946
 30
0.0
 40
4.500000000000128
100
AcDbArc
 50
180.0
 51
270.0000000000001
  0
ARC
  5
54D
330
1F
100
AcDbEntity
  8
1-4_枠
  6
Continuous
 62
     7
370
     5
100
AcDbCircle
 10
1528.054112832271
 20
-3048.569668152946
 30
0.0
 40
4.500000000000128
100
AcDbArc
 50
270.0000000000001
 51
0.0000000000000763
  0
ARC
  5
54E
330
1F
100
AcDbEntity
  8
1-4_枠
  6
Continuous
 62
     7
370
     5
100
AcDbCircle
 10
1570.054112832274
 20
-3056.069668152948
 30
0.0
 40
3.000000000000086
100
AcDbArc
 50
338.3840000000001
 51
90.00000000000011
  0
ARC
  5
54F
330
1F
100
AcDbEntity
  8
1-4_枠
  6
Continuous
 62
     7
370
     5
100
AcDbCircle
 10
1476.668612832275
 20
-3003.571168152949
 30
0.0
 40
4.500000000000128
100
AcDbArc
 50
225.0
 51
270.0000000000001
  0
ARC
  5
550
330
1F
100
AcDbEntity
  8
1-4_枠
  6
Continuous
 62
     7
370
     5
100
AcDbCircle
 10
1449.197612832271
 20
-2993.071168152946
 30
0.0
 40
7.500000000000213
100
AcDbArc
 50
45.00000000000003
 51
90.00000000000004
  0
ARC
  5
551
330
1F
100
AcDbEntity
  8
1-4_枠
  6
Continuous
 62
     7
370
     5
100
AcDbCircle
 10
1481.554112832273
 20
-3011.071168152947
 30
0.0
 40
3.000000000000086
100
AcDbArc
 50
0.0000000000000127
 51
90.00000000000004
  0
ARC
  5
552
330
1F
100
AcDbEntity
  8
1-4_枠
  6
Continuous
 62
     7
370
     5
100
AcDbCircle
 10
1535.554112832275
 20
-3011.071168152947
 30
0.0
 40
3.000000000000086
100
AcDbArc
 50
90.00000000000001
 51
180.0
  0
ARC
  5
553
330
1F
100
AcDbEntity
  8
1-4_枠
  6
Continuous
 62
     7
370
     5
100
AcDbCircle
 10
1540.439612832273
 20
-3003.571168152949
 30
0.0
 40
4.500000000000128
100
AcDbArc
 50
270.0000000000001
 51
315.0000000000001
  0
ARC
  5
554
330
1F
100
AcDbEntity
  8
1-4_枠
  6
Continuous
 62
     7
370
     5
100
AcDbCircle
 10
1567.910612832273
 20
-2993.071168152946
 30
0.0
 40
7.500000000000213
100
AcDbArc
 50
90.00000000000006
 51
135.0000000000001
  0
LINE
  5
555
330
1F
100
AcDbEntity
  8
1-4_枠
  6
Continuous
 62
     7
370
     5
100
AcDbLine
 10
2011.054112832272
 20
-2985.571168152948
 30
0.0
 11
2019.197612832267
 21
-2985.571168152948
 31
0.0
  0
LINE
  5
556
330
1F
100
AcDbEntity
  8
1-4_枠
  6
Continuous
 62
     7
370
     5
100
AcDbLine
 10
2011.054112832272
 20
-3000.571168152948
 30
0.0
 11
2011.054112832272
 21
-2985.571168152948
 31
0.0
  0
LINE
  5
557
330
1F
100
AcDbEntity
  8
1-4_枠
  6
Continuous
 62
     7
370
     5
100
AcDbLine
 10
2102.554112832271
 20
-3048.569668152946
 30
0.0
 11
2102.554112832271
 21
-3011.071168152947
 31
0.0
  0
LINE
  5
558
330
1F
100
AcDbEntity
  8
1-4_枠
  6
Continuous
 62
     7
370
     5
100
AcDbLine
 10
2054.55411283227
 20
-3048.569668152946
 30
0.0
 11
2054.55411283227
 21
-3011.071168152947
 31
0.0
  0
LINE
  5
559
330
1F
100
AcDbEntity
  8
1-4_枠
  6
Continuous
 62
     7
370
     5
100
AcDbLine
 10
2113.054112832271
 20
-3075.569668152947
 30
0.0
 11
2044.054112832266
 21
-3075.569668152947
 31
0.0
  0
LINE
  5
55A
330
1F
100
AcDbEntity
  8
1-4_枠
  6
Continuous
 62
     7
370
     5
100
AcDbLine
 10
2078.554112832268
 20
-3057.569668152951
 30
0.0
 11
2083.054112832271
 21
-3053.069668152947
 31
0.0
  0
LINE
  5
55B
330
1F
100
AcDbEntity
  8
1-4_枠
  6
Continuous
 62
     7
370
     5
100
AcDbLine
 10
2021.554112832273
 20
-3075.569668152947
 30
0.0
 11
2014.265612832271
 21
-3057.175168152944
 31
0.0
  0
LINE
  5
55C
330
1F
100
AcDbEntity
  8
1-4_枠
  6
Continuous
 62
     7
370
     5
100
AcDbLine
 10
2038.054112832271
 20
-3075.569668152947
 30
0.0
 11
2021.554112832273
 21
-3075.569668152947
 31
0.0
  0
LINE
  5
55D
330
1F
100
AcDbEntity
  8
1-4_枠
  6
Continuous
 62
     7
370
     5
100
AcDbLine
 10
2041.054112832269
 20
-3072.56966815295
 30
0.0
 11
2044.054112832266
 21
-3075.569668152947
 31
0.0
  0
LINE
  5
55E
330
1F
100
AcDbEntity
  8
1-4_枠
  6
Continuous
 62
     7
370
     5
100
AcDbLine
 10
2038.054112832271
 20
-3075.569668152947
 30
0.0
 11
2041.054112832269
 21
-3072.56966815295
 31
0.0
  0
LINE
  5
55F
330
1F
100
AcDbEntity
  8
1-4_枠
  6
Continuous
 62
     7
370
     5
100
AcDbLine
 10
2026.054112832272
 20
-3053.069668152947
 30
0.0
 11
2026.054112832272
 21
-3034.111168152948
 31
0.0
  0
LINE
  5
560
330
1F
100
AcDbEntity
  8
1-4_枠
  6
Continuous
 62
     7
370
     5
100
AcDbLine
 10
2026.054112832272
 20
-3053.069668152947
 30
0.0
 11
2017.05411283227
 21
-3053.069668152947
 31
0.0
  0
LINE
  5
561
330
1F
100
AcDbEntity
  8
1-4_枠
  6
Continuous
 62
     7
370
     5
100
AcDbLine
 10
2059.054112832272
 20
-3053.069668152947
 30
0.0
 11
2074.054112832269
 21
-3053.069668152947
 31
0.0
  0
LINE
  5
562
330
1F
100
AcDbEntity
  8
1-4_枠
  6
Continuous
 62
     7
370
     5
100
AcDbLine
 10
2074.054112832269
 20
-3053.069668152947
 30
0.0
 11
2078.554112832268
 21
-3057.569668152951
 31
0.0
  0
LINE
  5
563
330
1F
100
AcDbEntity
  8
1-4_枠
  6
Continuous
 62
     7
370
     5
100
AcDbLine
 10
2135.554112832271
 20
-3075.569668152947
 30
0.0
 11
2142.842612832266
 21
-3057.175168152944
 31
0.0
  0
LINE
  5
564
330
1F
100
AcDbEntity
  8
1-4_枠
  6
Continuous
 62
     7
370
     5
100
AcDbLine
 10
2116.054112832268
 20
-3072.56966815295
 30
0.0
 11
2113.054112832271
 21
-3075.569668152947
 31
0.0
  0
LINE
  5
565
330
1F
100
AcDbEntity
  8
1-4_枠
  6
Continuous
 62
     7
370
     5
100
AcDbLine
 10
2119.054112832266
 20
-3075.569668152947
 30
0.0
 11
2135.554112832271
 21
-3075.569668152947
 31
0.0
  0
LINE
  5
566
330
1F
100
AcDbEntity
  8
1-4_枠
  6
Continuous
 62
     7
370
     5
100
AcDbLine
 10
2119.054112832266
 20
-3075.569668152947
 30
0.0
 11
2116.054112832268
 21
-3072.56966815295
 31
0.0
  0
LINE
  5
567
330
1F
100
AcDbEntity
  8
1-4_枠
  6
Continuous
 62
     7
370
     5
100
AcDbLine
 10
2083.054112832271
 20
-3053.069668152947
 30
0.0
 11
2098.054112832271
 21
-3053.069668152947
 31
0.0
  0
LINE
  5
568
330
1F
100
AcDbEntity
  8
1-4_枠
  6
Continuous
 62
     7
370
     5
100
AcDbLine
 10
2131.054112832275
 20
-3053.069668152947
 30
0.0
 11
2131.054112832275
 21
-3034.111168152948
 31
0.0
  0
LINE
  5
569
330
1F
100
AcDbEntity
  8
1-4_枠
  6
Continuous
 62
     7
370
     5
100
AcDbLine
 10
2131.054112832275
 20
-3053.069668152947
 30
0.0
 11
2140.054112832271
 21
-3053.069668152947
 31
0.0
  0
LINE
  5
56A
330
1F
100
AcDbEntity
  8
1-4_枠
  6
Continuous
 62
     7
370
     5
100
AcDbLine
 10
2043.485612832269
 20
-3006.752668152948
 30
0.0
 11
2024.501612832273
 21
-2987.767168152946
 31
0.0
  0
LINE
  5
56B
330
1F
100
AcDbEntity
  8
1-4_枠
  6
Continuous
 62
     7
370
     5
100
AcDbLine
 10
2046.668612832271
 20
-3008.071168152945
 30
0.0
 11
2051.554112832269
 21
-3008.071168152945
 31
0.0
  0
LINE
  5
56C
330
1F
100
AcDbEntity
  8
1-4_枠
  6
Continuous
 62
     7
370
     5
100
AcDbLine
 10
2113.621112832272
 20
-3006.752668152948
 30
0.0
 11
2132.606612832268
 21
-2987.767168152946
 31
0.0
  0
LINE
  5
56D
330
1F
100
AcDbEntity
  8
1-4_枠
  6
Continuous
 62
     7
370
     5
100
AcDbLine
 10
2110.439612832269
 20
-3008.071168152945
 30
0.0
 11
2105.554112832271
 21
-3008.071168152945
 31
0.0
  0
LINE
  5
56E
330
1F
100
AcDbEntity
  8
1-4_枠
  6
Continuous
 62
     7
370
     5
100
AcDbLine
 10
2146.054112832268
 20
-3000.571168152948
 30
0.0
 11
2146.054112832268
 21
-2985.571168152948
 31
0.0
  0
LINE
  5
56F
330
1F
100
AcDbEntity
  8
1-4_枠
  6
Continuous
 62
     7
370
     5
100
AcDbLine
 10
2146.054112832268
 20
-2985.571168152948
 30
0.0
 11
2137.91061283227
 21
-2985.571168152948
 31
0.0
  0
ARC
  5
570
330
1F
100
AcDbEntity
  8
1-4_枠
  6
Continuous
 62
     7
370
     5
100
AcDbCircle
 10
1981.054112832275
 20
-3034.111168152948
 30
0.0
 40
45.00000000000128
100
AcDbArc
 50
0.0000000000000127
 51
48.19000000000003
  0
ARC
  5
571
330
1F
100
AcDbEntity
  8
1-4_枠
  6
Continuous
 62
     7
370
     5
100
AcDbCircle
 10
2176.052612832272
 20
-3034.111168152948
 30
0.0
 40
45.00000000000128
100
AcDbArc
 50
131.81
 51
180.0
  0
ARC
  5
572
330
1F
100
AcDbEntity
  8
1-4_枠
  6
Continuous
 62
     7
370
     5
100
AcDbCircle
 10
2017.05411283227
 20
-3056.069668152948
 30
0.0
 40
3.000000000000086
100
AcDbArc
 50
90.00000000000001
 51
201.6160000000001
  0
ARC
  5
573
330
1F
100
AcDbEntity
  8
1-4_枠
  6
Continuous
 62
     7
370
     5
100
AcDbCircle
 10
2059.054112832272
 20
-3048.569668152946
 30
0.0
 40
4.500000000000128
100
AcDbArc
 50
180.0
 51
270.0000000000001
  0
ARC
  5
574
330
1F
100
AcDbEntity
  8
1-4_枠
  6
Continuous
 62
     7
370
     5
100
AcDbCircle
 10
2098.054112832271
 20
-3048.569668152946
 30
0.0
 40
4.500000000000128
100
AcDbArc
 50
270.0000000000001
 51
0.0000000000000763
  0
ARC
  5
575
330
1F
100
AcDbEntity
  8
1-4_枠
  6
Continuous
 62
     7
370
     5
100
AcDbCircle
 10
2140.054112832271
 20
-3056.069668152948
 30
0.0
 40
3.000000000000086
100
AcDbArc
 50
338.3840000000001
 51
90.00000000000011
  0
ARC
  5
576
330
1F
100
AcDbEntity
  8
1-4_枠
  6
Continuous
 62
     7
370
     5
100
AcDbCircle
 10
2046.668612832271
 20
-3003.571168152949
 30
0.0
 40
4.500000000000128
100
AcDbArc
 50
225.0
 51
270.0000000000001
  0
ARC
  5
577
330
1F
100
AcDbEntity
  8
1-4_枠
  6
Continuous
 62
     7
370
     5
100
AcDbCircle
 10
2019.197612832267
 20
-2993.071168152946
 30
0.0
 40
7.500000000000213
100
AcDbArc
 50
45.00000000000003
 51
90.00000000000004
  0
ARC
  5
578
330
1F
100
AcDbEntity
  8
1-4_枠
  6
Continuous
 62
     7
370
     5
100
AcDbCircle
 10
2051.554112832269
 20
-3011.071168152947
 30
0.0
 40
3.000000000000086
100
AcDbArc
 50
0.0000000000000127
 51
90.00000000000004
  0
ARC
  5
579
330
1F
100
AcDbEntity
  8
1-4_枠
  6
Continuous
 62
     7
370
     5
100
AcDbCircle
 10
2105.554112832271
 20
-3011.071168152947
 30
0.0
 40
3.000000000000086
100
AcDbArc
 50
90.00000000000001
 51
180.0
  0
ARC
  5
57A
330
1F
100
AcDbEntity
  8
1-4_枠
  6
Continuous
 62
     7
370
     5
100
AcDbCircle
 10
2110.439612832269
 20
-3003.571168152949
 30
0.0
 40
4.500000000000128
100
AcDbArc
 50
270.0000000000001
 51
315.0000000000001
  0
ARC
  5
57B
330
1F
100
AcDbEntity
  8
1-4_枠
  6
Continuous
 62
     7
370
     5
100
AcDbCircle
 10
2137.91061283227
 20
-2993.071168152946
 30
0.0
 40
7.500000000000213
100
AcDbArc
 50
90.00000000000006
 51
135.0000000000001
  0
MTEXT
  5
57C
330
1F
100
AcDbEntity
  8
0-A_文字
  6
Continuous
 62
     7
370
     0
100
AcDbMText
 10
1109.918584083288
 20
-723.1287130029694
 30
0.0
 40
91.43999999999978
 41
1199.999999999997
 46
0.0
 71
     7
 72
     1
  1
{\fＭＳ ゴシック|b0|i0|c128|p49;フロアー貼り込み位置}
 73
     1
 44
1.0
  0
MTEXT
  5
57D
330
1F
100
AcDbEntity
  8
1-B_ﾊｯﾁ
  6
Continuous
 62
     7
370
   211
100
AcDbMText
 10
1696.054111448866
 20
-2666.038395668807
 30
0.0
 40
99.06
 41
195.0
 46
0.0
 71
     7
 72
     1
  1
{\fＭＳ ゴシック|b0|i0|c128|p49;130}
 73
     1
 44
1.0
  0
MTEXT
  5
57E
330
1F
100
AcDbEntity
  8
1-B_ﾊｯﾁ
  6
Continuous
 62
     7
370
   211
100
AcDbMText
 10
1107.304111448865
 20
-2831.990895668807
 30
0.0
 40
97.15499999999999
 41
127.5
 46
0.0
 71
     7
 72
     1
  1
{\fＭＳ ゴシック|b0|i0|c128|p49;46}
 73
     1
 44
1.0
  0
MTEXT
  5
57F
330
1F
100
AcDbEntity
  8
1-B_ﾊｯﾁ
  6
Continuous
 62
     7
370
   211
100
AcDbMText
 10
1729.804111448866
 20
-2831.990895668807
 30
0.0
 40
97.15499999999999
 41
127.5
 46
0.0
 71
     7
 72
     1
  1
{\fＭＳ ゴシック|b0|i0|c128|p49;38}
 73
     1
 44
1.0
  0
MTEXT
  5
580
330
1F
100
AcDbEntity
  8
1-B_ﾊｯﾁ
  6
Continuous
 62
     7
370
   211
100
AcDbMText
 10
2352.304111448866
 20
-2831.990895668807
 30
0.0
 40
97.15499999999999
 41
127.5
 46
0.0
 71
     7
 72
     1
  1
{\fＭＳ ゴシック|b0|i0|c128|p49;46}
 73
     1
 44
1.0
  0
MTEXT
  5
581
330
1F
100
AcDbEntity
  8
0-A_文字
  6
Continuous
 62
     7
370
     0
100
AcDbMText
 10
1199.918584083289
 20
-2442.226598762763
 30
0.0
 40
91.43999999999997
 41
1080.0
 46
0.0
 71
     7
 72
     1
  1
{\fＭＳ ゴシック|b0|i0|c128|p49;敷居詳細図 (S=1/2)}
 73
     1
 44
1.0
  0
LINE
  5
582
330
1F
100
AcDbEntity
  8
0-A_文字
  6
Continuous
 62
    92
370
     5
100
AcDbLine
 10
2909.918584083289
 20
-558.8487130029694
 30
0.0
 11
509.9185840832865
 21
-558.8487130029694
 31
0.0
  0
LINE
  5
583
330
1F
100
AcDbEntity
  8
0-A_文字
  6
Continuous
 62
    92
370
     5
100
AcDbLine
 10
2711.919935122911
 20
-2278.002927642972
 30
0.0
 11
509.9185840832865
 21
-2278.002927642972
 31
0.0
  0
LINE
  5
584
330
1F
100
AcDbEntity
  8
0-A_文字
  6
Continuous
 62
    92
370
     5
100
AcDbLine
 10
509.9185840832865
 20
-3426.84891899662
 30
0.0
 11
509.9185840832865
 21
-558.8487130029694
 31
0.0
  0
LINE
  5
585
330
1F
100
AcDbEntity
  8
0-A_文字
  6
Continuous
 62
    92
370
     5
100
AcDbLine
 10
2909.918584083289
 20
-2277.890269882556
 30
0.0
 11
509.9185840832865
 21
-2277.890269882556
 31
0.0
  0
LINE
  5
586
330
1F
100
AcDbEntity
  8
0-A_文字
  6
Continuous
 62
    92
370
     5
100
AcDbLine
 10
2909.918584083289
 20
-738.8487130029694
 30
0.0
 11
509.9185840832865
 21
-738.8487130029694
 31
0.0
  0
LINE
  5
587
330
1F
100
AcDbEntity
  8
0-A_文字
  6
Continuous
 62
    92
370
     5
100
AcDbLine
 10
2909.918584083289
 20
-2458.00292764297
 30
0.0
 11
509.9185840832865
 21
-2458.00292764297
 31
0.0
  0
LINE
  5
588
330
1F
100
AcDbEntity
  8
1-B_ﾊｯﾁ
  6
Continuous
 62
   120
370
     5
100
AcDbLine
 10
670.9138273360918
 20
-3210.569668152943
 30
0.0
 11
670.9138273360918
 21
-2985.568909981866
 31
0.0
  0
LWPOLYLINE
  5
589
330
1F
100
AcDbEntity
  8
1-B_ﾊｯﾁ
  6
Continuous
 62
     7
370
     5
100
AcDbPolyline
 90
        4
 70
     1
 43
3.0
 10
672.4138273360918
 20
-3210.569668152943
 42
0.4142135623731
 10
670.9138273360918
 20
-3209.069668152943
 42
0.4142135623731
 10
669.4138273360918
 20
-3210.569668152943
 42
0.4142135623731
 10
670.9138273360918
 20
-3212.069668152943
 42
0.4142135623731
  0
LWPOLYLINE
  5
58A
330
1F
100
AcDbEntity
  8
1-B_ﾊｯﾁ
  6
Continuous
 62
     7
370
     5
100
AcDbPolyline
 90
        4
 70
     1
 43
3.0
 10
672.4138273360918
 20
-2985.568909981866
 42
0.4142135623731
 10
670.9138273360918
 20
-2984.068909981866
 42
0.4142135623731
 10
669.4138273360918
 20
-2985.568909981866
 42
0.4142135623731
 10
670.9138273360918
 20
-2987.068909981865
 42
0.4142135623731
  0
LINE
  5
58B
330
1F
100
AcDbEntity
  8
1-B_ﾊｯﾁ
  6
Continuous
 62
   120
370
     5
100
AcDbLine
 10
670.9138273360918
 20
-3210.569668152943
 30
0.0
 11
773.5541114488649
 21
-3210.569668152943
 31
0.0
  0
LINE
  5
58C
330
1F
100
AcDbEntity
  8
1-B_ﾊｯﾁ
  6
Continuous
 62
   120
370
     5
100
AcDbLine
 10
670.9138273360918
 20
-2985.568909981866
 30
0.0
 11
773.5541114488649
 21
-2985.568909981866
 31
0.0
  0
MTEXT
  5
58D
330
1F
100
AcDbEntity
  8
1-B_ﾊｯﾁ
  6
Continuous
 62
     7
370
   211
100
AcDbMText
 10
655.9138273360918
 20
-3173.241789067405
 30
0.0
 40
97.15499999999999
 41
127.5
 46
0.0
 71
     7
 72
     1
  1
{\fＭＳ ゴシック|b0|i0|c128|p49;15}
 11
6.123031769111886E-17
 21
1.0
 31
0.0
 73
     1
 44
1.0
  0
LINE
  5
58E
330
1F
100
AcDbEntity
  8
0-1_通り芯
  6
JWW_CENTER1
 62
   120
370
     5
100
AcDbLine
 10
1709.918584083289
 20
-978.8487130029694
 30
0.0
 11
1709.918584083289
 21
-2157.890269882558
 31
0.0
  0
LINE
  5
58F
330
1F
100
AcDbEntity
  8
0-B_寸法
  6
Continuous
 62
   120
370
     5
100
AcDbLine
 10
2174.918584083289
 20
-1069.457671957672
 30
0.0
 11
1244.918584083289
 21
-1069.457671957672
 31
0.0
  0
LWPOLYLINE
  5
590
330
1F
100
AcDbEntity
  8
0-B_寸法
  6
Continuous
 62
     7
370
     5
100
AcDbPolyline
 90
        4
 70
     1
 43
3.0
 10
2176.418584083289
 20
-1069.457671957672
 42
0.4142135623731
 10
2174.918584083289
 20
-1067.957671957672
 42
0.4142135623731
 10
2173.418584083289
 20
-1069.457671957672
 42
0.4142135623731
 10
2174.918584083289
 20
-1070.957671957672
 42
0.4142135623731
  0
LWPOLYLINE
  5
591
330
1F
100
AcDbEntity
  8
0-B_寸法
  6
Continuous
 62
     7
370
     5
100
AcDbPolyline
 90
        4
 70
     1
 43
3.0
 10
1246.418584083289
 20
-1069.457671957672
 42
0.4142135623731
 10
1244.918584083289
 20
-1067.957671957672
 42
0.4142135623731
 10
1243.418584083289
 20
-1069.457671957672
 42
0.4142135623731
 10
1244.918584083289
 20
-1070.957671957672
 42
0.4142135623731
  0
MTEXT
  5
592
330
1F
100
AcDbEntity
  8
0-B_寸法
  6
Continuous
 62
     7
370
   211
100
AcDbMText
 10
1612.418584083289
 20
-1064.927671957672
 30
0.0
 40
99.06
 41
195.0
 46
0.0
 71
     7
 72
     1
  1
{\fＭＳ ゴシック|b0|i0|c128|p49;155}
 73
     1
 44
1.0
  0
MTEXT
  5
593
330
1F
100
AcDbEntity
  8
0-A_文字
  6
Continuous
 62
     7
370
     0
100
AcDbMText
 10
1289.918584083288
 20
-931.3567195767193
 30
0.0
 40
91.44000000000011
 41
840.0000000000009
 46
0.0
 71
     7
 72
     1
  1
{\fＭＳ ゴシック|b0|i0|c128|p49;壁(枠)センター}
 73
     1
 44
1.0
  0
MTEXT
  5
594
330
1F
100
AcDbEntity
  8
0-B_寸法
  6
Continuous
 62
     7
370
   211
100
AcDbMText
 10
2190.795020864899
 20
-1453.350113182457
 30
0.0
 40
100.0125
 41
262.5
 46
0.0
 71
     7
 72
     1
  1
{\fＭＳ ゴシック|b0|i0|c128|p49;12.5}
 73
     1
 44
1.0
  0
LINE
  5
595
330
1F
100
AcDbEntity
  8
仕上げ
  6
Continuous
 62
   120
370
     5
100
AcDbLine
 10
2099.918584083289
 20
-1499.293555479949
 30
0.0
 11
2669.918584083287
 21
-1499.293555479949
 31
0.0
  0
LINE
  5
596
330
1F
100
AcDbEntity
  8
仕上げ
  6
Continuous
 62
   120
370
     5
100
AcDbLine
 10
2174.918584083289
 20
-1299.48524410403
 30
0.0
 11
2669.918584083287
 21
-1299.48524410403
 31
0.0
  0
LINE
  5
597
330
1F
100
AcDbEntity
  8
仕上げ
  6
Continuous
 62
   120
370
     5
100
AcDbLine
 10
2099.918584083289
 20
-1699.101866855867
 30
0.0
 11
2669.918584083287
 21
-1699.101866855867
 31
0.0
  0
LINE
  5
598
330
1F
100
AcDbEntity
  8
仕上げ
  6
Continuous
 62
   120
370
     5
100
AcDbLine
 10
2099.918584083289
 20
-2098.718489607701
 30
0.0
 11
2669.918584083287
 21
-2098.718489607701
 31
0.0
  0
LINE
  5
599
330
1F
100
AcDbEntity
  8
仕上げ
  6
Continuous
 62
   120
370
     5
100
AcDbLine
 10
2099.918584083289
 20
-1898.910178231784
 30
0.0
 11
2669.918584083287
 21
-1898.910178231784
 31
0.0
  0
LINE
  5
59A
330
1F
100
AcDbEntity
  8
0-A_文字
  6
Continuous
 62
     7
370
     5
100
AcDbLine
 10
1280.91858408329
 20
-1941.797850225162
 30
0.0
 11
1154.441305857526
 21
-2036.655808894483
 31
0.0
  0
LINE
  5
59B
330
1F
100
AcDbEntity
  8
0-A_文字
  6
Continuous
 62
     7
370
     5
100
AcDbLine
 10
1095.372772298688
 20
-2036.655808894483
 30
0.0
 11
1154.441305857526
 21
-2036.655808894483
 31
0.0
  0
MTEXT
  5
59C
330
1F
100
AcDbEntity
  8
0-A_文字
  6
Continuous
 62
     7
370
     0
100
AcDbMText
 10
834.8087422916591
 20
-2113.583222651244
 30
0.0
 40
91.44000000000017
 41
240.0000000000004
 46
0.0
 71
     7
 72
     1
  1
{\fＭＳ ゴシック|b0|i0|c128|p49;畳寄}
 73
     1
 44
1.0
  0
LINE
  5
59D
330
1F
100
AcDbEntity
  8
仕上げ
  6
Continuous
 62
    40
370
     5
100
AcDbLine
 10
1229.918584083289
 20
-1038.848713002969
 30
0.0
 11
1229.918584083289
 21
-2157.746399051573
 31
0.0
  0
MTEXT
  5
59E
330
1F
100
AcDbEntity
  8
0-A_文字
  6
Continuous
 62
     7
370
     0
100
AcDbMText
 10
2319.310386067561
 20
-1872.313931987696
 30
0.0
 40
91.44
 41
120.0
 46
0.0
 71
     7
 72
     1
  1
{\fＭＳ ゴシック|b0|i0|c128|p49;床}
 73
     1
 44
1.0
  0
LWPOLYLINE
  5
59F
330
1F
100
AcDbEntity
  8
0-B_寸法
  6
Continuous
 62
     7
370
     5
100
AcDbPolyline
 90
        4
 70
     1
 43
3.0
 10
1246.418584083289
 20
-1458.356363182457
 42
0.4142135623731
 10
1244.918584083289
 20
-1456.856363182457
 42
0.4142135623731
 10
1243.418584083289
 20
-1458.356363182457
 42
0.4142135623731
 10
1244.918584083289
 20
-1459.856363182457
 42
0.4142135623731
  0
LWPOLYLINE
  5
5A0
330
1F
100
AcDbEntity
  8
0-B_寸法
  6
Continuous
 62
     7
370
     5
100
AcDbPolyline
 90
        4
 70
     1
 43
3.0
 10
1321.418584083289
 20
-1458.356363182457
 42
0.4142135623731
 10
1319.918584083289
 20
-1456.856363182457
 42
0.4142135623731
 10
1318.418584083289
 20
-1458.356363182457
 42
0.4142135623731
 10
1319.918584083289
 20
-1459.856363182457
 42
0.4142135623731
  0
LINE
  5
5A1
330
1F
100
AcDbEntity
  8
0-B_寸法
  6
Continuous
 62
   120
370
     5
100
AcDbLine
 10
951.9540229885063
 20
-1458.356363182457
 30
0.0
 11
1319.918584083289
 21
-1458.356363182457
 31
0.0
  0
LWPOLYLINE
  5
5A2
330
1F
100
AcDbEntity
  8
0-B_寸法
  6
Continuous
 62
     7
370
     5
100
AcDbPolyline
 90
        4
 70
     1
 43
3.0
 10
2176.418584083289
 20
-1458.356363182457
 42
0.4142135623731
 10
2174.918584083289
 20
-1456.856363182457
 42
0.4142135623731
 10
2173.418584083289
 20
-1458.356363182457
 42
0.4142135623731
 10
2174.918584083289
 20
-1459.856363182457
 42
0.4142135623731
  0
LWPOLYLINE
  5
5A3
330
1F
100
AcDbEntity
  8
0-B_寸法
  6
Continuous
 62
     7
370
     5
100
AcDbPolyline
 90
        4
 70
     1
 43
3.0
 10
2101.418584083289
 20
-1458.356363182457
 42
0.4142135623731
 10
2099.918584083289
 20
-1456.856363182457
 42
0.4142135623731
 10
2098.418584083289
 20
-1458.356363182457
 42
0.4142135623731
 10
2099.918584083289
 20
-1459.856363182457
 42
0.4142135623731
  0
LINE
  5
5A4
330
1F
100
AcDbEntity
  8
0-B_寸法
  6
Continuous
 62
   120
370
     5
100
AcDbLine
 10
2467.883145178072
 20
-1458.356363182457
 30
0.0
 11
2099.918584083289
 21
-1458.356363182457
 31
0.0
  0
MTEXT
  5
5A5
330
1F
100
AcDbEntity
  8
0-B_寸法
  6
Continuous
 62
     7
370
   211
100
AcDbMText
 10
931.0488505747132
 20
-1453.350113182456
 30
0.0
 40
100.0125000000002
 41
262.5000000000005
 46
0.0
 71
     7
 72
     1
  1
{\fＭＳ ゴシック|b0|i0|c128|p49;12.5}
 73
     1
 44
1.0
  0
LINE
  5
5A6
330
1F
100
AcDbEntity
  8
0-B_寸法
  6
Continuous
 62
   120
370
     5
100
AcDbLine
 10
1319.918584083289
 20
-1767.880793025573
 30
0.0
 11
1709.918584083289
 21
-1767.880793025573
 31
0.0
  0
LWPOLYLINE
  5
5A7
330
1F
100
AcDbEntity
  8
0-B_寸法
  6
Continuous
 62
     7
370
     5
100
AcDbPolyline
 90
        4
 70
     1
 43
3.0
 10
1321.418584083289
 20
-1767.880793025573
 42
0.4142135623731
 10
1319.918584083289
 20
-1766.380793025573
 42
0.4142135623731
 10
1318.418584083289
 20
-1767.880793025573
 42
0.4142135623731
 10
1319.918584083289
 20
-1769.380793025573
 42
0.4142135623731
  0
LWPOLYLINE
  5
5A8
330
1F
100
AcDbEntity
  8
0-B_寸法
  6
Continuous
 62
     7
370
     5
100
AcDbPolyline
 90
        4
 70
     1
 43
3.0
 10
1711.418584083289
 20
-1767.880793025573
 42
0.4142135623731
 10
1709.918584083289
 20
-1766.380793025573
 42
0.4142135623731
 10
1708.418584083289
 20
-1767.880793025573
 42
0.4142135623731
 10
1709.918584083289
 20
-1769.380793025573
 42
0.4142135623731
  0
LINE
  5
5A9
330
1F
100
AcDbEntity
  8
0-B_寸法
  6
Continuous
 62
   120
370
     5
100
AcDbLine
 10
1709.918584083289
 20
-1767.880793025573
 30
0.0
 11
2099.918584083289
 21
-1767.880793025573
 31
0.0
  0
LWPOLYLINE
  5
5AA
330
1F
100
AcDbEntity
  8
0-B_寸法
  6
Continuous
 62
     7
370
     5
100
AcDbPolyline
 90
        4
 70
     1
 43
3.0
 10
2101.418584083289
 20
-1767.880793025573
 42
0.4142135623731
 10
2099.918584083289
 20
-1766.380793025573
 42
0.4142135623731
 10
2098.418584083289
 20
-1767.880793025573
 42
0.4142135623731
 10
2099.918584083289
 20
-1769.380793025573
 42
0.4142135623731
  0
LINE
  5
5AB
330
1F
100
AcDbEntity
  8
0-B_寸法
  6
Continuous
 62
   120
370
     5
100
AcDbLine
 10
1319.918584083289
 20
-1956.188646437358
 30
0.0
 11
2099.918584083289
 21
-1956.188646437358
 31
0.0
  0
LWPOLYLINE
  5
5AC
330
1F
100
AcDbEntity
  8
0-B_寸法
  6
Continuous
 62
     7
370
     5
100
AcDbPolyline
 90
        4
 70
     1
 43
3.0
 10
1321.418584083289
 20
-1956.188646437358
 42
0.4142135623731
 10
1319.918584083289
 20
-1954.688646437358
 42
0.4142135623731
 10
1318.418584083289
 20
-1956.188646437358
 42
0.4142135623731
 10
1319.918584083289
 20
-1957.688646437358
 42
0.4142135623731
  0
LWPOLYLINE
  5
5AD
330
1F
100
AcDbEntity
  8
0-B_寸法
  6
Continuous
 62
     7
370
     5
100
AcDbPolyline
 90
        4
 70
     1
 43
3.0
 10
2101.418584083289
 20
-1956.188646437358
 42
0.4142135623731
 10
2099.918584083289
 20
-1954.688646437358
 42
0.4142135623731
 10
2098.418584083289
 20
-1956.188646437358
 42
0.4142135623731
 10
2099.918584083289
 20
-1957.688646437358
 42
0.4142135623731
  0
MTEXT
  5
5AE
330
1F
100
AcDbEntity
  8
0-B_寸法
  6
Continuous
 62
     7
370
   211
100
AcDbMText
 10
1451.168584083288
 20
-1764.303293025572
 30
0.0
 40
97.15500000000064
 41
127.5000000000009
 46
0.0
 71
     7
 72
     1
  1
{\fＭＳ ゴシック|b0|i0|c128|p49;65}
 73
     1
 44
1.0
  0
MTEXT
  5
5AF
330
1F
100
AcDbEntity
  8
0-B_寸法
  6
Continuous
 62
     7
370
   211
100
AcDbMText
 10
1841.168584083289
 20
-1764.303293025572
 30
0.0
 40
97.15499999999999
 41
127.5
 46
0.0
 71
     7
 72
     1
  1
{\fＭＳ ゴシック|b0|i0|c128|p49;65}
 73
     1
 44
1.0
  0
MTEXT
  5
5B0
330
1F
100
AcDbEntity
  8
0-B_寸法
  6
Continuous
 62
     7
370
   211
100
AcDbMText
 10
1612.418584083289
 20
-1951.658646437358
 30
0.0
 40
99.06
 41
195.0
 46
0.0
 71
     7
 72
     1
  1
{\fＭＳ ゴシック|b0|i0|c128|p49;130}
 73
     1
 44
1.0
  0
LINE
  5
5B1
330
1F
100
AcDbEntity
  8
0-4_枠
  6
Continuous
 62
    92
370
     5
100
AcDbLine
 10
2174.918584083289
 20
-1345.749046910682
 30
0.0
 11
1244.918584083289
 21
-1345.749046910682
 31
0.0
  0
LINE
  5
5B2
330
1F
100
AcDbEntity
  8
0-B_寸法
  6
Continuous
 62
   120
370
     5
100
AcDbLine
 10
1244.918584083289
 20
-1458.356363182457
 30
0.0
 11
1244.918584083289
 21
-1373.967884981864
 31
0.0
  0
LINE
  5
5B3
330
1F
100
AcDbEntity
  8
0-B_寸法
  6
Continuous
 62
   120
370
     5
100
AcDbLine
 10
1319.918584083289
 20
-1458.356363182457
 30
0.0
 11
1319.918584083289
 21
-1373.967884981864
 31
0.0
  0
LINE
  5
5B4
330
1F
100
AcDbEntity
  8
0-B_寸法
  6
Continuous
 62
   120
370
     5
100
AcDbLine
 10
2099.918584083289
 20
-1458.356363182457
 30
0.0
 11
2099.918584083289
 21
-1373.967884981864
 31
0.0
  0
LINE
  5
5B5
330
1F
100
AcDbEntity
  8
0-B_寸法
  6
Continuous
 62
   120
370
     5
100
AcDbLine
 10
2174.918584083289
 20
-1458.356363182457
 30
0.0
 11
2174.918584083289
 21
-1373.967884981864
 31
0.0
  0
LINE
  5
5B6
330
1F
100
AcDbEntity
  8
0-4_枠
  6
Continuous
 62
    92
370
     5
100
AcDbLine
 10
1319.918584083289
 20
-1345.749046910682
 30
0.0
 11
1319.918584083289
 21
-2157.746399051573
 31
0.0
  0
LINE
  5
5B7
330
1F
100
AcDbEntity
  8
0-4_枠
  6
Continuous
 62
    92
370
     5
100
AcDbLine
 10
2099.918584083289
 20
-1345.749046910682
 30
0.0
 11
2099.918584083289
 21
-2157.746399051573
 31
0.0
  0
LINE
  5
5B8
330
1F
100
AcDbEntity
  8
0-4_枠
  6
Continuous
 62
    92
370
     5
100
AcDbLine
 10
1244.918584083289
 20
-1345.749046910682
 30
0.0
 11
1244.918584083289
 21
-1248.461465170948
 31
0.0
  0
LINE
  5
5B9
330
1F
100
AcDbEntity
  8
0-4_枠
  6
Continuous
 62
    92
370
     5
100
AcDbLine
 10
2174.918584083289
 20
-1248.461465170948
 30
0.0
 11
2174.918584083289
 21
-1345.749046910682
 31
0.0
  0
LINE
  5
5BA
330
1F
100
AcDbEntity
  8
0-B_寸法
  6
Continuous
 62
   120
370
     5
100
AcDbLine
 10
2174.918584083289
 20
-1069.457671957672
 30
0.0
 11
2174.918584083289
 21
-1216.237859598593
 31
0.0
  0
LINE
  5
5BB
330
1F
100
AcDbEntity
  8
0-B_寸法
  6
Continuous
 62
   120
370
     5
100
AcDbLine
 10
1244.918584083289
 20
-1069.457671957672
 30
0.0
 11
1244.918584083289
 21
-1216.237859598593
 31
0.0
  0
MTEXT
  5
5BC
330
1F
100
AcDbEntity
  8
0-A_文字
  6
Continuous
 62
     7
370
     5
100
AcDbMText
 10
2188.087889476778
 20
-1205.353449418647
 30
0.0
 40
91.44
 41
600.0
 46
0.0
 71
     7
 72
     1
  1
{\fＭＳ ゴシック|b0|i0|c128|p49;（洋室側）}
 73
     1
 44
1.0
  0
MTEXT
  5
5BD
330
1F
100
AcDbEntity
  8
0-A_文字
  6
Continuous
 62
     7
370
     5
100
AcDbMText
 10
575.3968253968258
 20
-1205.353449418647
 30
0.0
 40
91.44000000000007
 41
600.0000000000005
 46
0.0
 71
     7
 72
     1
  1
{\fＭＳ ゴシック|b0|i0|c128|p49;（和室側）}
 73
     1
 44
1.0
  0
MTEXT
  5
5BE
330
1F
100
AcDbEntity
  8
0-A_文字
  6
Continuous
 62
    92
370
     5
100
AcDbMText
 10
-5573.749495325863
 20
3759.016400968066
 30
0.0
 40
148.0324390243902
 41
3982.5
 46
0.0
 71
     7
 72
     1
  1
{\fＭＳ ゴシック|b0|i0|c128|p49;４枚引き違い戸　レールタイプ　固定枠155巾}
 73
     1
 44
1.0
  0
LINE
  5
5BF
330
1F
100
AcDbEntity
  8
0-A_文字
  6
Continuous
 62
    92
370
     5
100
AcDbLine
 10
-5659.999495325863
 20
4000.00018145587
 30
0.0
 11
-1485.714285714286
 21
4000.00018145587
 31
0.0
  0
LINE
  5
5C0
330
1F
100
AcDbEntity
  8
0-A_文字
  6
Continuous
 62
    92
370
     5
100
AcDbLine
 10
-5659.999495325863
 20
3730.00018145587
 30
0.0
 11
-1485.714285714286
 21
3730.00018145587
 31
0.0
  0
LINE
  5
5C1
330
1F
100
AcDbEntity
  8
0-A_文字
  6
Continuous
 62
    92
370
     5
100
AcDbLine
 10
-1485.714285714286
 20
4000.00018145587
 30
0.0
 11
-1485.714285714286
 21
3730.00018145587
 31
0.0
  0
MTEXT
  5
5C2
330
1F
100
AcDbEntity
  8
F-A_文字
  6
Continuous
 62
     7
370
     0
100
AcDbMText
 10
-5080.081323642279
 20
-4045.073223749623
 30
0.0
 40
79.85342465753423
 41
3825.0
 46
0.0
 71
     7
 72
     1
  1
{\fＭＳ ゴシック|b0|i0|c128|p49;ドレタス　４枚引き違い戸　レールタイプ　固定枠155巾　幅広敷居　枠外W3,234}
 73
     1
 44
1.0
  0
LINE
  5
5C3
330
1F
100
AcDbEntity
  8
F-0_補助線
  6
JWW_HOJO
 62
     7
370
     5
100
AcDbLine
 10
1109.918584083287
 20
-3795.000003092998
 30
0.0
 11
1109.918584083287
 21
-4195.000008247994
 31
0.0
  0
LINE
  5
5C4
330
1F
100
AcDbEntity
  8
F-0_補助線
  6
JWW_HOJO
 62
     7
370
     5
100
AcDbLine
 10
4889.917891251784
 20
-3795.000003092998
 30
0.0
 11
4889.917891251784
 21
-4195.000008247994
 31
0.0
  0
MTEXT
  5
5C5
330
1F
100
AcDbEntity
  8
F-0_補助線
  6
Continuous
 62
     7
370
     0
100
AcDbMText
 10
1109.918584083287
 20
-3945.948259655243
 30
0.0
 40
78.105
 41
615.0
 46
0.0
 71
     7
 72
     1
  1
{\fＭＳ ゴシック|b0|i0|c128|p49;建具納まり図}
 73
     1
 44
1.0
  0
MTEXT
  5
5C6
330
1F
100
AcDbEntity
  8
F-0_補助線
  6
Continuous
 62
     7
370
     0
100
AcDbMText
 10
509.9185840832865
 20
-3945.709576962234
 30
0.0
 40
78.58125
 41
412.5
 46
0.0
 71
     7
 72
     1
  1
{\fＭＳ ゴシック|b0|i0|c128|p49;DOORETUS}
 73
     1
 44
1.0
  0
LINE
  5
5C7
330
1F
100
AcDbEntity
  8
0-1_通り芯
  6
JWW_CENTER1
 62
   120
370
     5
100
AcDbLine
 10
-2497.5339966188
 20
-3258.848713002945
 30
0.0
 11
-2497.5339966188
 21
-642.8487130029705
 31
0.0
  0
LINE
  5
5C8
330
1F
100
AcDbEntity
  8
0-1_通り芯
  6
JWW_CENTER1
 62
   120
370
     5
100
AcDbLine
 10
-2269.5339966188
 20
-3258.848713002945
 30
0.0
 11
-2269.5339966188
 21
-642.8487127183862
 31
0.0
  0
LINE
  5
5C9
330
1F
100
AcDbEntity
  8
0-1_通り芯
  6
JWW_CENTER1
 62
   120
370
     5
100
AcDbLine
 10
-2383.5339966188
 20
-3318.84891926503
 30
0.0
 11
-2383.5339966188
 21
-210.8487130029482
 31
0.0
  0
LINE
  5
5CA
330
1F
100
AcDbEntity
  8
0-1_通り芯
  6
JWW_CENTER1
 62
   120
370
     5
100
AcDbLine
 10
2230.871230333156
 20
2285.962168973791
 30
0.0
 11
-2211.034144646525
 21
2285.962168973791
 31
0.0
  0
LINE
  5
5CB
330
1F
100
AcDbEntity
  8
0-1_通り芯
  6
JWW_CENTER1
 62
   120
370
     5
100
AcDbLine
 10
2167.870795893833
 20
2057.962168973791
 30
0.0
 11
-2145.034145082691
 21
2057.962168973791
 31
0.0
  0
LWPOLYLINE
  5
5CC
330
1F
100
AcDbEntity
  8
0-B_寸法
  6
Continuous
 62
     7
370
     5
100
AcDbPolyline
 90
        4
 70
     1
 43
3.0
 10
-1314.56645720313
 20
2375.962911447904
 42
0.4142135623731
 10
-1316.06645720313
 20
2377.462911447903
 42
0.4142135623731
 10
-1317.56645720313
 20
2375.962911447904
 42
0.4142135623731
 10
-1316.06645720313
 20
2374.462911447904
 42
0.4142135623731
  0
LWPOLYLINE
  5
5CD
330
1F
100
AcDbEntity
  8
0-B_寸法
  6
Continuous
 62
     7
370
     5
100
AcDbPolyline
 90
        4
 70
     1
 43
3.0
 10
-1314.56645720313
 20
2195.962169128434
 42
0.4142135623731
 10
-1316.06645720313
 20
2197.462169128434
 42
0.4142135623731
 10
-1317.56645720313
 20
2195.962169128434
 42
0.4142135623731
 10
-1316.06645720313
 20
2194.462169128434
 42
0.4142135623731
  0
LWPOLYLINE
  5
5CE
330
1F
100
AcDbEntity
  8
0-B_寸法
  6
Continuous
 62
     7
370
     5
100
AcDbPolyline
 90
        4
 70
     1
 43
3.0
 10
-1314.56645720313
 20
2195.960684489501
 42
0.4142135623731
 10
-1316.06645720313
 20
2197.460684489501
 42
0.4142135623731
 10
-1317.56645720313
 20
2195.960684489501
 42
0.4142135623731
 10
-1316.06645720313
 20
2194.460684489501
 42
0.4142135623731
  0
LINE
  5
5CF
330
1F
100
AcDbEntity
  8
0-B_寸法
  6
Continuous
 62
   120
370
     5
100
AcDbLine
 10
-1316.06645720313
 20
2375.962911447904
 30
0.0
 11
-1316.06645720313
 21
2195.962169128434
 31
0.0
  0
MTEXT
  5
5D0
330
1F
100
AcDbEntity
  8
0-B_寸法
  6
Continuous
 62
     7
370
     0
100
AcDbMText
 10
-1331.066506691094
 20
2210.790841993192
 30
0.0
 40
97.15499999999999
 41
127.5
 46
0.0
 71
     7
 72
     1
  1
{\fＭＳ ゴシック|b0|i0|c128|p49;30}
 11
6.123031769111886E-17
 21
1.0
 31
0.0
 73
     1
 44
1.0
  0
LWPOLYLINE
  5
5D1
330
1F
100
AcDbEntity
  8
0-B_寸法
  6
Continuous
 62
     7
370
     5
100
AcDbPolyline
 90
        4
 70
     1
 43
3.0
 10
-1314.56645720313
 20
2147.960684489503
 42
0.4142135623731
 10
-1316.06645720313
 20
2149.460684489503
 42
0.4142135623731
 10
-1317.56645720313
 20
2147.960684489503
 42
0.4142135623731
 10
-1316.06645720313
 20
2146.460684489503
 42
0.4142135623731
  0
LWPOLYLINE
  5
5D2
330
1F
100
AcDbEntity
  8
0-B_寸法
  6
Continuous
 62
     7
370
     5
100
AcDbPolyline
 90
        4
 70
     1
 43
3.0
 10
-1314.56645720313
 20
1967.960684489503
 42
0.4142135623731
 10
-1316.06645720313
 20
1969.460684489503
 42
0.4142135623731
 10
-1317.56645720313
 20
1967.960684489503
 42
0.4142135623731
 10
-1316.06645720313
 20
1966.460684489503
 42
0.4142135623731
  0
LINE
  5
5D3
330
1F
100
AcDbEntity
  8
0-B_寸法
  6
Continuous
 62
   120
370
     5
100
AcDbLine
 10
-1316.06645720313
 20
2195.960684489501
 30
0.0
 11
-1316.06645720313
 21
1967.960684489503
 31
0.0
  0
MTEXT
  5
5D4
330
1F
100
AcDbEntity
  8
0-B_寸法
  6
Continuous
 62
     7
370
   211
100
AcDbMText
 10
-1331.06645720313
 20
1982.787753944212
 30
0.0
 40
97.15499999999999
 41
127.5
 46
0.0
 71
     7
 72
     1
  1
{\fＭＳ ゴシック|b0|i0|c128|p49;30}
 11
6.123031769111886E-17
 21
1.0
 31
0.0
 73
     1
 44
1.0
  0
LWPOLYLINE
  5
5D5
330
1F
100
AcDbEntity
  8
0-B_寸法
  6
Continuous
 62
     7
370
     5
100
AcDbPolyline
 90
        4
 70
     1
 43
3.0
 10
-1905.972758488741
 20
1706.962168973789
 42
0.4142135623731
 10
-1907.472758488741
 20
1708.462168973789
 42
0.4142135623731
 10
-1908.97275848874
 20
1706.962168973789
 42
0.4142135623731
 10
-1907.472758488741
 20
1705.462168973789
 42
0.4142135623731
  0
LINE
  5
5D6
330
1F
100
AcDbEntity
  8
0-B_寸法
  6
Continuous
 62
   120
370
     5
100
AcDbLine
 10
-1907.472758488741
 20
1706.962168973789
 30
0.0
 11
-1907.472758488737
 21
2636.962168973789
 31
0.0
  0
LINE
  5
5D7
330
1F
100
AcDbEntity
  8
0-B_寸法
  6
Continuous
 62
   120
370
     5
100
AcDbLine
 10
-1907.472758488741
 20
1706.962168973789
 30
0.0
 11
-2114.604897312337
 21
1706.962168973789
 31
0.0
  0
LWPOLYLINE
  5
5D8
330
1F
100
AcDbEntity
  8
0-B_寸法
  6
Continuous
 62
     7
370
     5
100
AcDbPolyline
 90
        4
 70
     1
 43
3.0
 10
-1905.972758488737
 20
2636.962168973789
 42
0.4142135623731
 10
-1907.472758488737
 20
2638.462168973789
 42
0.4142135623731
 10
-1908.972758488737
 20
2636.962168973789
 42
0.4142135623731
 10
-1907.472758488737
 20
2635.462168973789
 42
0.4142135623731
  0
LINE
  5
5D9
330
1F
100
AcDbEntity
  8
0-B_寸法
  6
Continuous
 62
   120
370
     5
100
AcDbLine
 10
-1907.472758488737
 20
2636.962168973789
 30
0.0
 11
-2114.604897312337
 21
2636.962168973789
 31
0.0
  0
LINE
  5
5DA
330
1F
100
AcDbEntity
  8
0-B_寸法
  6
Continuous
 62
   120
370
     5
100
AcDbLine
 10
-1693.589044738416
 20
2285.962168973791
 30
0.0
 11
-1693.589044738416
 21
2171.962168973789
 31
0.0
  0
LWPOLYLINE
  5
5DB
330
1F
100
AcDbEntity
  8
0-B_寸法
  6
Continuous
 62
     7
370
     5
100
AcDbPolyline
 90
        4
 70
     1
 43
3.0
 10
-1692.089044738416
 20
2285.962168973791
 42
0.4142135623731
 10
-1693.589044738416
 20
2287.46216897379
 42
0.4142135623731
 10
-1695.089044738416
 20
2285.962168973791
 42
0.4142135623731
 10
-1693.589044738416
 20
2284.462168973791
 42
0.4142135623731
  0
LWPOLYLINE
  5
5DC
330
1F
100
AcDbEntity
  8
0-B_寸法
  6
Continuous
 62
     7
370
     5
100
AcDbPolyline
 90
        4
 70
     1
 43
3.0
 10
-1692.089044738416
 20
2171.962168973789
 42
0.4142135623731
 10
-1693.589044738416
 20
2173.462168973789
 42
0.4142135623731
 10
-1695.089044738416
 20
2171.962168973789
 42
0.4142135623731
 10
-1693.589044738416
 20
2170.462168973789
 42
0.4142135623731
  0
LINE
  5
5DD
330
1F
100
AcDbEntity
  8
0-B_寸法
  6
Continuous
 62
   120
370
     5
100
AcDbLine
 10
-1693.589044738416
 20
2171.962168973789
 30
0.0
 11
-1693.589044738416
 21
2057.962168973791
 31
0.0
  0
LWPOLYLINE
  5
5DE
330
1F
100
AcDbEntity
  8
0-B_寸法
  6
Continuous
 62
     7
370
     5
100
AcDbPolyline
 90
        4
 70
     1
 43
3.0
 10
-1692.089044738416
 20
2057.962168973791
 42
0.4142135623731
 10
-1693.589044738416
 20
2059.462168973791
 42
0.4142135623731
 10
-1695.089044738416
 20
2057.962168973791
 42
0.4142135623731
 10
-1693.589044738416
 20
2056.462168973791
 42
0.4142135623731
  0
LINE
  5
5DF
330
1F
100
AcDbEntity
  8
0-B_寸法
  6
Continuous
 62
   120
370
     5
100
AcDbLine
 10
-2497.5339966188
 20
-1824.84883985154
 30
0.0
 11
-2383.5339966188
 21
-1824.84883985154
 31
0.0
  0
LWPOLYLINE
  5
5E0
330
1F
100
AcDbEntity
  8
0-B_寸法
  6
Continuous
 62
     7
370
     5
100
AcDbPolyline
 90
        4
 70
     1
 43
3.0
 10
-2496.033996618801
 20
-1824.84883985154
 42
0.4142135623731
 10
-2497.5339966188
 20
-1823.34883985154
 42
0.4142135623731
 10
-2499.0339966188
 20
-1824.84883985154
 42
0.4142135623731
 10
-2497.5339966188
 20
-1826.34883985154
 42
0.4142135623731
  0
LWPOLYLINE
  5
5E1
330
1F
100
AcDbEntity
  8
0-B_寸法
  6
Continuous
 62
     7
370
     5
100
AcDbPolyline
 90
        4
 70
     1
 43
3.0
 10
-2382.0339966188
 20
-1824.84883985154
 42
0.4142135623731
 10
-2383.5339966188
 20
-1823.34883985154
 42
0.4142135623731
 10
-2385.0339966188
 20
-1824.84883985154
 42
0.4142135623731
 10
-2383.5339966188
 20
-1826.34883985154
 42
0.4142135623731
  0
LINE
  5
5E2
330
1F
100
AcDbEntity
  8
0-B_寸法
  6
Continuous
 62
   120
370
     5
100
AcDbLine
 10
-2383.5339966188
 20
-1824.84883985154
 30
0.0
 11
-2269.5339966188
 21
-1824.84883985154
 31
0.0
  0
LWPOLYLINE
  5
5E3
330
1F
100
AcDbEntity
  8
0-B_寸法
  6
Continuous
 62
     7
370
     5
100
AcDbPolyline
 90
        4
 70
     1
 43
3.0
 10
-2268.0339966188
 20
-1824.84883985154
 42
0.4142135623731
 10
-2269.5339966188
 20
-1823.34883985154
 42
0.4142135623731
 10
-2271.0339966188
 20
-1824.84883985154
 42
0.4142135623731
 10
-2269.5339966188
 20
-1826.34883985154
 42
0.4142135623731
  0
MTEXT
  5
5E4
330
1F
100
AcDbEntity
  8
F-A_文字
  6
Continuous
 62
     7
370
     0
100
AcDbMText
 10
4889.917891251784
 20
-3945.570773120548
 30
0.0
 40
78.86699999999999
 41
517.5
 46
0.0
 71
     7
 72
     1
  1
{\fＭＳ ゴシック|b0|i0|c128|p49;2022.04.01}
 73
     1
 44
1.0
  0
MTEXT
  5
5E5
330
1F
100
AcDbEntity
  8
0-B_寸法
  6
Continuous
 62
     7
370
     0
100
AcDbMText
 10
-1922.472758488741
 20
1981.764184664157
 30
0.0
 40
91.44
 41
180.0
 46
0.0
 71
     7
 72
     1
  1
{\fＭＳ ゴシック|b0|i0|c128|p49;155}
 11
6.123031769111886E-17
 21
1.0
 31
0.0
 73
     1
 44
1.0
  0
MTEXT
  5
5E6
330
1F
100
AcDbEntity
  8
0-B_寸法
  6
Continuous
 62
     7
370
   211
100
AcDbMText
 10
-1708.589044738416
 20
2210.78966897379
 30
0.0
 40
97.15499999999999
 41
127.5
 46
0.0
 71
     7
 72
     1
  1
{\fＭＳ ゴシック|b0|i0|c128|p49;19}
 11
6.123031769111886E-17
 21
1.0
 31
0.0
 73
     1
 44
1.0
  0
MTEXT
  5
5E7
330
1F
100
AcDbEntity
  8
0-B_寸法
  6
Continuous
 62
     7
370
   211
100
AcDbMText
 10
-1708.589044738416
 20
1982.789668973791
 30
0.0
 40
97.15499999999999
 41
127.5
 46
0.0
 71
     7
 72
     1
  1
{\fＭＳ ゴシック|b0|i0|c128|p49;19}
 11
6.123031769111886E-17
 21
1.0
 31
0.0
 73
     1
 44
1.0
  0
LINE
  5
5E8
330
1F
100
AcDbEntity
  8
0-B_寸法
  6
Continuous
 62
   120
370
     5
100
AcDbLine
 10
-1516.801328361072
 20
2066.741846095767
 30
0.0
 11
-1516.801328361072
 21
2133.001783237567
 31
0.0
  0
LINE
  5
5E9
330
1F
100
AcDbEntity
  8
0-B_寸法
  6
Continuous
 62
   120
370
     5
100
AcDbLine
 10
-1316.06645720313
 20
2171.960684489502
 30
0.0
 11
-1516.801328361072
 21
2133.001783237567
 31
0.0
  0
MTEXT
  5
5EA
330
1F
100
AcDbEntity
  8
0-B_寸法
  6
Continuous
 62
     7
370
   211
100
AcDbMText
 10
-1516.801328361072
 20
2051.450568595305
 30
0.0
 40
91.44
 41
60.0
 46
0.0
 71
     7
 72
     1
  1
{\fＭＳ ゴシック|b0|i0|c128|p49;8}
 11
6.123031769111886E-17
 21
1.0
 31
0.0
 73
     1
 44
1.0
  0
LINE
  5
5EB
330
1F
100
AcDbEntity
  8
0-6_扉
  6
Continuous
 62
   200
370
     5
100
AcDbLine
 10
-2407.533996065444
 20
-822.8487127183854
 30
0.0
 11
-2407.533996065444
 21
-1884.848713002964
 31
0.0
  0
LINE
  5
5EC
330
1F
100
AcDbEntity
  8
0-6_扉
  6
Continuous
 62
   200
370
     5
100
AcDbLine
 10
-2359.533996065446
 20
-822.8487127183854
 30
0.0
 11
-2359.533996065446
 21
-1884.848713002964
 31
0.0
  0
MTEXT
  5
5ED
330
1F
100
AcDbEntity
  8
0-B_寸法
  6
Continuous
 62
     7
370
     0
100
AcDbMText
 10
-2587.5339966188
 20
-1273.953709344067
 30
0.0
 40
91.44
 41
180.0
 46
0.0
 71
     7
 72
     1
  1
{\fＭＳ ゴシック|b0|i0|c128|p49;147}
 73
     1
 44
1.0
  0
MTEXT
  5
5EE
330
1F
100
AcDbEntity
  8
0-B_寸法
  6
Continuous
 62
     7
370
   211
100
AcDbMText
 10
-2561.2839966188
 20
-1821.27133985154
 30
0.0
 40
97.15499999999999
 41
127.5
 46
0.0
 71
     7
 72
     1
  1
{\fＭＳ ゴシック|b0|i0|c128|p49;19}
 73
     1
 44
1.0
  0
MTEXT
  5
5EF
330
1F
100
AcDbEntity
  8
0-B_寸法
  6
Continuous
 62
     7
370
   211
100
AcDbMText
 10
-2333.2839966188
 20
-1821.27133985154
 30
0.0
 40
97.15499999999999
 41
127.5
 46
0.0
 71
     7
 72
     1
  1
{\fＭＳ ゴシック|b0|i0|c128|p49;19}
 73
     1
 44
1.0
  0
MTEXT
  5
5F0
330
1F
100
AcDbEntity
  8
0-B_寸法
  6
Continuous
 62
     7
370
   211
100
AcDbMText
 10
-2557.533996065446
 20
-1554.128839851538
 30
0.0
 40
91.4400000000026
 41
120.0000000000034
 46
0.0
 71
     7
 72
     1
  1
{\fＭＳ ゴシック|b0|i0|c128|p49;30}
 73
     1
 44
1.0
  0
LWPOLYLINE
  5
5F1
330
1F
100
AcDbEntity
  8
0-B_寸法
  6
Continuous
 62
     7
370
     5
100
AcDbPolyline
 90
        4
 70
     1
 43
3.0
 10
-2178.033996065446
 20
-1554.84883985154
 42
0.4142135623731
 10
-2179.533996065446
 20
-1553.34883985154
 42
0.4142135623731
 10
-2181.033996065446
 20
-1554.84883985154
 42
0.4142135623731
 10
-2179.533996065446
 20
-1556.34883985154
 42
0.4142135623731
  0
LWPOLYLINE
  5
5F2
330
1F
100
AcDbEntity
  8
0-B_寸法
  6
Continuous
 62
     7
370
     5
100
AcDbPolyline
 90
        4
 70
     1
 43
3.0
 10
-2358.033996065446
 20
-1554.84883985154
 42
0.4142135623731
 10
-2359.533996065446
 20
-1553.34883985154
 42
0.4142135623731
 10
-2361.033996065446
 20
-1554.84883985154
 42
0.4142135623731
 10
-2359.533996065446
 20
-1556.34883985154
 42
0.4142135623731
  0
LWPOLYLINE
  5
5F3
330
1F
100
AcDbEntity
  8
0-B_寸法
  6
Continuous
 62
     7
370
     5
100
AcDbPolyline
 90
        4
 70
     1
 43
3.0
 10
-2406.033996065444
 20
-1554.84883985154
 42
0.4142135623731
 10
-2407.533996065444
 20
-1553.34883985154
 42
0.4142135623731
 10
-2409.033996065443
 20
-1554.84883985154
 42
0.4142135623731
 10
-2407.533996065444
 20
-1556.34883985154
 42
0.4142135623731
  0
LWPOLYLINE
  5
5F4
330
1F
100
AcDbEntity
  8
0-B_寸法
  6
Continuous
 62
     7
370
     5
100
AcDbPolyline
 90
        4
 70
     1
 43
3.0
 10
-2586.033996065445
 20
-1554.84883985154
 42
0.4142135623731
 10
-2587.533996065444
 20
-1553.34883985154
 42
0.4142135623731
 10
-2589.033996065444
 20
-1554.84883985154
 42
0.4142135623731
 10
-2587.533996065444
 20
-1556.34883985154
 42
0.4142135623731
  0
LINE
  5
5F5
330
1F
100
AcDbEntity
  8
0-B_寸法
  6
Continuous
 62
   120
370
     5
100
AcDbLine
 10
-2587.533996065444
 20
-1554.84883985154
 30
0.0
 11
-2179.533996065446
 21
-1554.84883985154
 31
0.0
  0
MTEXT
  5
5F6
330
1F
100
AcDbEntity
  8
0-B_寸法
  6
Continuous
 62
     7
370
   211
100
AcDbMText
 10
-2329.533996065446
 20
-1554.12883985154
 30
0.0
 40
91.44
 41
120.0
 46
0.0
 71
     7
 72
     1
  1
{\fＭＳ ゴシック|b0|i0|c128|p49;30}
 73
     1
 44
1.0
  0
LINE
  5
5F7
330
1F
100
AcDbEntity
  8
0-B_寸法
  6
Continuous
 62
   120
370
     5
100
AcDbLine
 10
-2383.5339966188
 20
-1554.84883985154
 30
0.0
 11
-2340.770069969709
 21
-1408.512265149406
 31
0.0
  0
LINE
  5
5F8
330
1F
100
AcDbEntity
  8
0-B_寸法
  6
Continuous
 62
   120
370
     5
100
AcDbLine
 10
-2340.770069969709
 20
-1408.512265149406
 30
0.0
 11
-2286.367666763778
 21
-1408.512265149406
 31
0.0
  0
MTEXT
  5
5F9
330
1F
100
AcDbEntity
  8
0-B_寸法
  6
Continuous
 62
     7
370
   211
100
AcDbMText
 10
-2343.568868366744
 20
-1422.792265149406
 30
0.0
 40
91.44
 41
60.0
 46
0.0
 71
     7
 72
     1
  1
{\fＭＳ ゴシック|b0|i0|c128|p49;8}
 73
     1
 44
1.0
  0
ENDSEC
  0
SECTION
  2
OBJECTS
  0
DICTIONARY
  5
C
330
0
100
AcDbDictionary
281
     1
  3
ACAD_GROUP
350
D
  3
ACAD_LAYOUT
350
1A
  3
ACAD_MATERIAL
350
3B
  3
ACAD_MLEADERSTYLE
350
5FB
  3
ACAD_MLINESTYLE
350
17
  3
ACAD_PLOTSETTINGS
350
19
  3
ACAD_PLOTSTYLENAME
350
E
  3
ACAD_TABLESTYLE
350
5FA
  3
ACAD_VISUALSTYLE
350
2A
  0
DICTIONARY
  5
D
102
{ACAD_REACTORS
330
C
102
}
330
C
100
AcDbDictionary
281
     1
  0
DICTIONARY
  5
1A
102
{ACAD_REACTORS
330
C
102
}
330
C
100
AcDbDictionary
281
     1
  3
Layout1
350
1E
  3
Layout2
350
26
  3
Model
350
22
  0
DICTIONARY
  5
3B
102
{ACAD_REACTORS
330
C
102
}
330
C
100
AcDbDictionary
281
     1
  3
ByBlock
350
3D
  3
ByLayer
350
3C
  3
Global
350
3E
  0
DICTIONARY
  5
5FB
102
{ACAD_REACTORS
330
C
102
}
330
C
100
AcDbDictionary
281
     1
  0
DICTIONARY
  5
17
102
{ACAD_REACTORS
330
C
102
}
330
C
100
AcDbDictionary
281
     1
  3
Standard
350
18
  0
DICTIONARY
  5
19
102
{ACAD_REACTORS
330
C
102
}
330
C
100
AcDbDictionary
281
     1
  0
ACDBDICTIONARYWDFLT
  5
E
102
{ACAD_REACTORS
330
C
102
}
330
C
100
AcDbDictionary
281
     1
  3
Normal
350
F
100
AcDbDictionaryWithDefault
340
F
  0
DICTIONARY
  5
5FA
102
{ACAD_REACTORS
330
C
102
}
330
C
100
AcDbDictionary
281
     1
  0
DICTIONARY
  5
2A
102
{ACAD_REACTORS
330
C
102
}
330
C
100
AcDbDictionary
281
     1
  3
2dWireframe
350
2F
  3
3D Hidden
350
31
  3
3dWireframe
350
30
  3
Basic
350
32
  3
Brighten
350
36
  3
ColorChange
350
3A
  3
Conceptual
350
34
  3
Dim
350
35
  3
Facepattern
350
39
  3
Flat
350
2B
  3
FlatWithEdges
350
2C
  3
Gouraud
350
2D
  3
GouraudWithEdges
350
2E
  3
Linepattern
350
38
  3
Realistic
350
33
  3
Thicken
350
37
  0
LAYOUT
  5
1E
102
{ACAD_REACTORS
330
1A
102
}
330
1A
100
AcDbPlotSettings
  1

  2
none_device
  4

  6

 40
0.0
 41
0.0
 42
0.0
 43
0.0
 44
0.0
 45
0.0
 46
0.0
 47
0.0
 48
0.0
 49
0.0
140
0.0
141
0.0
142
1.0
143
1.0
 70
   688
 72
     0
 73
     0
 74
     5
  7

 75
    16
 76
     0
 77
     5
 78
   300
147
1.0
148
0.0
149
0.0
100
AcDbLayout
  1
Layout1
 70
     1
 71
     1
 10
0.0
 20
0.0
 11
420.0
 21
297.0
 12
0.0
 22
0.0
 32
0.0
 14
1.000000000000000E+20
 24
1.000000000000000E+20
 34
1.000000000000000E+20
 15
-1.000000000000000E+20
 25
-1.000000000000000E+20
 35
-1.000000000000000E+20
146
0.0
 13
0.0
 23
0.0
 33
0.0
 16
1.0
 26
0.0
 36
0.0
 17
0.0
 27
1.0
 37
0.0
 76
     0
330
1B
  0
LAYOUT
  5
26
102
{ACAD_REACTORS
330
1A
102
}
330
1A
100
AcDbPlotSettings
  1

  2
none_device
  4

  6

 40
0.0
 41
0.0
 42
0.0
 43
0.0
 44
0.0
 45
0.0
 46
0.0
 47
0.0
 48
0.0
 49
0.0
140
0.0
141
0.0
142
1.0
143
1.0
 70
   688
 72
     0
 73
     0
 74
     5
  7

 75
    16
 76
     0
 77
     5
 78
   300
147
1.0
148
0.0
149
0.0
100
AcDbLayout
  1
Layout2
 70
     1
 71
     2
 10
0.0
 20
0.0
 11
0.0
 21
0.0
 12
0.0
 22
0.0
 32
0.0
 14
0.0
 24
0.0
 34
0.0
 15
0.0
 25
0.0
 35
0.0
146
0.0
 13
0.0
 23
0.0
 33
0.0
 16
1.0
 26
0.0
 36
0.0
 17
0.0
 27
1.0
 37
0.0
 76
     0
330
23
  0
LAYOUT
  5
22
102
{ACAD_REACTORS
330
1A
102
}
330
1A
100
AcDbPlotSettings
  1

  2
none_device
  4

  6

 40
0.0
 41
0.0
 42
0.0
 43
0.0
 44
0.0
 45
0.0
 46
0.0
 47
0.0
 48
0.0
 49
0.0
140
0.0
141
0.0
142
1.0
143
1.0
 70
  1712
 72
     0
 73
     0
 74
     0
  7

 75
     0
 76
     0
 77
     5
 78
   300
147
1.0
148
0.0
149
0.0
100
AcDbLayout
  1
Model
 70
     1
 71
     0
 10
-8910.0
 20
-6300.0
 11
8910.0
 21
6300.0
 12
0.0
 22
0.0
 32
0.0
 14
-8910.0
 24
-6300.0
 34
0.0
 15
8910.0
 25
6300.0
 35
0.0
146
0.0
 13
0.0
 23
0.0
 33
0.0
 16
1.0
 26
0.0
 36
0.0
 17
0.0
 27
1.0
 37
0.0
 76
     0
330
1F
331
29
  0
MATERIAL
  5
3D
102
{ACAD_REACTORS
330
3B
102
}
330
3B
100
AcDbMaterial
  1
ByBlock
 72
     1
 94
      127
  0
MATERIAL
  5
3C
102
{ACAD_REACTORS
330
3B
102
}
330
3B
100
AcDbMaterial
  1
ByLayer
 72
     1
 94
      127
  0
MATERIAL
  5
3E
102
{ACAD_REACTORS
330
3B
102
}
330
3B
100
AcDbMaterial
  1
Global
 72
     1
 94
      127
  0
MLINESTYLE
  5
18
102
{ACAD_REACTORS
330
17
102
}
330
17
100
AcDbMlineStyle
  2
Standard
 70
     0
  3

 62
   256
 51
90.0
 52
90.0
 71
     2
 49
0.5
 62
   256
  6
BYLAYER
 49
-0.5
 62
   256
  6
BYLAYER
  0
ACDBPLACEHOLDER
  5
F
102
{ACAD_REACTORS
330
E
102
}
330
E
  0
VISUALSTYLE
  5
2F
102
{ACAD_REACTORS
330
2A
102
}
330
2A
100
AcDbVisualStyle
  2
2dWireframe
 70
     4
177
     2
291
     0
 71
     0
176
     1
 72
     2
176
     1
 73
     0
176
     1
 90
        0
176
     1
 40
-0.6
176
     1
 41
-30.0
176
     1
 62
     5
 63
     7
421
 16777215
176
     1
 74
     1
176
     1
 91
        4
176
     1
 64
     7
176
     1
 65
   257
176
     1
 75
     1
176
     1
175
     1
176
     1
 42
1.0
176
     1
 92
        0
176
     1
 66
   257
176
     1
 43
1.0
176
     1
 76
     1
176
     1
 77
     6
176
     1
 78
     2
176
     1
 67
     7
176
     1
 79
     5
176
     1
170
     0
176
     1
171
     0
176
     1
290
     0
176
     1
 93
        1
176
     1
 44
0.0
176
     1
173
     0
176
     1
  0
VISUALSTYLE
  5
31
102
{ACAD_REACTORS
330
2A
102
}
330
2A
100
AcDbVisualStyle
  2
3D Hidden
 70
     6
177
     2
291
     0
 71
     1
176
     1
 72
     2
176
     1
 73
     2
176
     1
 90
        0
176
     1
 40
-0.6
176
     1
 41
-30.0
176
     1
 62
     5
 63
     7
421
 16777215
176
     1
 74
     2
176
     1
 91
        2
176
     1
 64
     7
176
     1
 65
   257
176
     1
 75
     2
176
     1
175
     1
176
     1
 42
40.0
176
     1
 92
        0
176
     1
 66
   257
176
     1
 43
1.0
176
     1
 76
     1
176
     1
 77
     6
176
     1
 78
     2
176
     1
 67
     7
176
     1
 79
     3
176
     1
170
     0
176
     1
171
     0
176
     1
290
     0
176
     1
 93
        1
176
     1
 44
0.0
176
     1
173
     0
176
     1
  0
VISUALSTYLE
  5
30
102
{ACAD_REACTORS
330
2A
102
}
330
2A
100
AcDbVisualStyle
  2
3dWireframe
 70
     5
177
     2
291
     0
 71
     0
176
     1
 72
     2
176
     1
 73
     0
176
     1
 90
        0
176
     1
 40
-0.6
176
     1
 41
-30.0
176
     1
 62
     5
 63
     7
421
 16777215
176
     1
 74
     1
176
     1
 91
        4
176
     1
 64
     7
176
     1
 65
   257
176
     1
 75
     1
176
     1
175
     1
176
     1
 42
1.0
176
     1
 92
        0
176
     1
 66
   257
176
     1
 43
1.0
176
     1
 76
     1
176
     1
 77
     6
176
     1
 78
     2
176
     1
 67
     7
176
     1
 79
     5
176
     1
170
     0
176
     1
171
     0
176
     1
290
     0
176
     1
 93
        1
176
     1
 44
0.0
176
     1
173
     0
176
     1
  0
VISUALSTYLE
  5
32
102
{ACAD_REACTORS
330
2A
102
}
330
2A
100
AcDbVisualStyle
  2
Basic
 70
     7
177
     2
291
     1
 71
     1
176
     1
 72
     0
176
     1
 73
     1
176
     1
 90
        0
176
     1
 40
-0.6
176
     1
 41
-30.0
176
     1
 62
     5
 63
     7
421
 16777215
176
     1
 74
     0
176
     1
 91
        4
176
     1
 64
     7
176
     1
 65
   257
176
     1
 75
     1
176
     1
175
     1
176
     1
 42
1.0
176
     1
 92
        8
176
     1
 66
     7
176
     1
 43
1.0
176
     1
 76
     1
176
     1
 77
     6
176
     1
 78
     2
176
     1
 67
     7
176
     1
 79
     5
176
     1
170
     0
176
     1
171
     0
176
     1
290
     0
176
     1
 93
        1
176
     1
 44
0.0
176
     1
173
     0
176
     1
  0
VISUALSTYLE
  5
36
102
{ACAD_REACTORS
330
2A
102
}
330
2A
100
AcDbVisualStyle
  2
Brighten
 70
    12
177
     2
291
     1
 71
     2
176
     1
 72
     2
176
     1
 73
     0
176
     1
 90
        0
176
     1
 40
-0.6
176
     1
 41
-30.0
176
     1
 62
     5
 63
     7
421
 16777215
176
     1
 74
     1
176
     1
 91
        4
176
     1
 64
     7
176
     1
 65
   257
176
     1
 75
     1
176
     1
175
     1
176
     1
 42
1.0
176
     1
 92
        8
176
     1
 66
     7
176
     1
 43
1.0
176
     1
 76
     1
176
     1
 77
     6
176
     1
 78
     2
176
     1
 67
     7
176
     1
 79
     5
176
     1
170
     0
176
     1
171
     0
176
     1
290
     0
176
     1
 93
        1
176
     1
 44
50.0
176
     1
173
     0
176
     1
  0
VISUALSTYLE
  5
3A
102
{ACAD_REACTORS
330
2A
102
}
330
2A
100
AcDbVisualStyle
  2
ColorChange
 70
    16
177
     2
291
     1
 71
     2
176
     1
 72
     2
176
     1
 73
     3
176
     1
 90
        0
176
     1
 40
-0.6
176
     1
 41
-30.0
176
     1
 62
     5
 63
     8
421
  8421504
176
     1
 74
     1
176
     1
 91
        4
176
     1
 64
     7
176
     1
 65
   257
176
     1
 75
     1
176
     1
175
     1
176
     1
 42
1.0
176
     1
 92
        8
176
     1
 66
     8
424
  8421504
176
     1
 43
1.0
176
     1
 76
     1
176
     1
 77
     6
176
     1
 78
     2
176
     1
 67
     7
176
     1
 79
     5
176
     1
170
     0
176
     1
171
     0
176
     1
290
     0
176
     1
 93
        1
176
     1
 44
0.0
176
     1
173
     0
176
     1
  0
VISUALSTYLE
  5
34
102
{ACAD_REACTORS
330
2A
102
}
330
2A
100
AcDbVisualStyle
  2
Conceptual
 70
     9
177
     2
291
     0
 71
     3
176
     1
 72
     2
176
     1
 73
     0
176
     1
 90
        0
176
     1
 40
-0.6
176
     1
 41
-30.0
176
     1
 62
     5
 63
     7
421
 16777215
176
     1
 74
     2
176
     1
 91
        2
176
     1
 64
     7
176
     1
 65
   257
176
     1
 75
     1
176
     1
175
     1
176
     1
 42
40.0
176
     1
 92
        8
176
     1
 66
     7
176
     1
 43
1.0
176
     1
 76
     1
176
     1
 77
     6
176
     1
 78
     2
176
     1
 67
     7
176
     1
 79
     3
176
     1
170
     0
176
     1
171
     0
176
     1
290
     0
176
     1
 93
        1
176
     1
 44
0.0
176
     1
173
     0
176
     1
  0
VISUALSTYLE
  5
35
102
{ACAD_REACTORS
330
2A
102
}
330
2A
100
AcDbVisualStyle
  2
Dim
 70
    11
177
     2
291
     1
 71
     2
176
     1
 72
     2
176
     1
 73
     0
176
     1
 90
        0
176
     1
 40
-0.6
176
     1
 41
-30.0
176
     1
 62
     5
 63
     7
421
 16777215
176
     1
 74
     1
176
     1
 91
        4
176
     1
 64
     7
176
     1
 65
   257
176
     1
 75
     1
176
     1
175
     1
176
     1
 42
1.0
176
     1
 92
        8
176
     1
 66
     7
176
     1
 43
1.0
176
     1
 76
     1
176
     1
 77
     6
176
     1
 78
     2
176
     1
 67
     7
176
     1
 79
     5
176
     1
170
     0
176
     1
171
     0
176
     1
290
     0
176
     1
 93
        1
176
     1
 44
-50.0
176
     1
173
     0
176
     1
  0
VISUALSTYLE
  5
39
102
{ACAD_REACTORS
330
2A
102
}
330
2A
100
AcDbVisualStyle
  2
Facepattern
 70
    15
177
     2
291
     1
 71
     2
176
     1
 72
     2
176
     1
 73
     0
176
     1
 90
        0
176
     1
 40
-0.6
176
     1
 41
-30.0
176
     1
 62
     5
 63
     7
421
 16777215
176
     1
 74
     1
176
     1
 91
        4
176
     1
 64
     7
176
     1
 65
   257
176
     1
 75
     1
176
     1
175
     1
176
     1
 42
1.0
176
     1
 92
        8
176
     1
 66
     7
176
     1
 43
1.0
176
     1
 76
     1
176
     1
 77
     6
176
     1
 78
     2
176
     1
 67
     7
176
     1
 79
     5
176
     1
170
     0
176
     1
171
     0
176
     1
290
     0
176
     1
 93
        1
176
     1
 44
0.0
176
     1
173
     0
176
     1
  0
VISUALSTYLE
  5
2B
102
{ACAD_REACTORS
330
2A
102
}
330
2A
100
AcDbVisualStyle
  2
Flat
 70
     0
177
     2
291
     1
 71
     2
176
     1
 72
     1
176
     1
 73
     1
176
     1
 90
        2
176
     1
 40
-0.6
176
     1
 41
30.0
176
     1
 62
     5
 63
     7
421
 16777215
176
     1
 74
     0
176
     1
 91
        4
176
     1
 64
     7
176
     1
 65
   257
176
     1
 75
     1
176
     1
175
     1
176
     1
 42
1.0
176
     1
 92
        8
176
     1
 66
     7
176
     1
 43
1.0
176
     1
 76
     1
176
     1
 77
     6
176
     1
 78
     2
176
     1
 67
     7
176
     1
 79
     5
176
     1
170
     0
176
     1
171
     0
176
     1
290
     0
176
     1
 93
       13
176
     1
 44
0.0
176
     1
173
     0
176
     1
  0
VISUALSTYLE
  5
2C
102
{ACAD_REACTORS
330
2A
102
}
330
2A
100
AcDbVisualStyle
  2
FlatWithEdges
 70
     1
177
     2
291
     1
 71
     2
176
     1
 72
     1
176
     1
 73
     1
176
     1
 90
        2
176
     1
 40
-0.6
176
     1
 41
30.0
176
     1
 62
     5
 63
     7
421
 16777215
176
     1
 74
     1
176
     1
 91
        4
176
     1
 64
     7
176
     1
 65
   257
176
     1
 75
     1
176
     1
175
     1
176
     1
 42
1.0
176
     1
 92
        0
176
     1
 66
   257
176
     1
 43
1.0
176
     1
 76
     1
176
     1
 77
     6
176
     1
 78
     2
176
     1
 67
     7
176
     1
 79
     5
176
     1
170
     0
176
     1
171
     0
176
     1
290
     0
176
     1
 93
       13
176
     1
 44
0.0
176
     1
173
     0
176
     1
  0
VISUALSTYLE
  5
2D
102
{ACAD_REACTORS
330
2A
102
}
330
2A
100
AcDbVisualStyle
  2
Gouraud
 70
     2
177
     2
291
     1
 71
     2
176
     1
 72
     2
176
     1
 73
     1
176
     1
 90
        2
176
     1
 40
-0.6
176
     1
 41
30.0
176
     1
 62
     5
 63
     7
421
 16777215
176
     1
 74
     0
176
     1
 91
        4
176
     1
 64
     7
176
     1
 65
   257
176
     1
 75
     1
176
     1
175
     1
176
     1
 42
1.0
176
     1
 92
        0
176
     1
 66
     7
176
     1
 43
1.0
176
     1
 76
     1
176
     1
 77
     6
176
     1
 78
     2
176
     1
 67
     7
176
     1
 79
     5
176
     1
170
     0
176
     1
171
     0
176
     1
290
     0
176
     1
 93
       13
176
     1
 44
0.0
176
     1
173
     0
176
     1
  0
VISUALSTYLE
  5
2E
102
{ACAD_REACTORS
330
2A
102
}
330
2A
100
AcDbVisualStyle
  2
GouraudWithEdges
 70
     3
177
     2
291
     1
 71
     2
176
     1
 72
     2
176
     1
 73
     1
176
     1
 90
        2
176
     1
 40
-0.6
176
     1
 41
30.0
176
     1
 62
     5
 63
     7
421
 16777215
176
     1
 74
     1
176
     1
 91
        4
176
     1
 64
     7
176
     1
 65
   257
176
     1
 75
     1
176
     1
175
     1
176
     1
 42
1.0
176
     1
 92
        0
176
     1
 66
   257
176
     1
 43
1.0
176
     1
 76
     1
176
     1
 77
     6
176
     1
 78
     2
176
     1
 67
     7
176
     1
 79
     5
176
     1
170
     0
176
     1
171
     0
176
     1
290
     0
176
     1
 93
       13
176
     1
 44
0.0
176
     1
173
     0
176
     1
  0
VISUALSTYLE
  5
38
102
{ACAD_REACTORS
330
2A
102
}
330
2A
100
AcDbVisualStyle
  2
Linepattern
 70
    14
177
     2
291
     1
 71
     2
176
     1
 72
     2
176
     1
 73
     0
176
     1
 90
        0
176
     1
 40
-0.6
176
     1
 41
-30.0
176
     1
 62
     5
 63
     7
421
 16777215
176
     1
 74
     1
176
     1
 91
        4
176
     1
 64
     7
176
     1
 65
   257
176
     1
 75
     7
176
     1
175
     7
176
     1
 42
1.0
176
     1
 92
        8
176
     1
 66
     7
176
     1
 43
1.0
176
     1
 76
     1
176
     1
 77
     6
176
     1
 78
     2
176
     1
 67
     7
176
     1
 79
     5
176
     1
170
     0
176
     1
171
     0
176
     1
290
     0
176
     1
 93
        1
176
     1
 44
0.0
176
     1
173
     0
176
     1
  0
VISUALSTYLE
  5
33
102
{ACAD_REACTORS
330
2A
102
}
330
2A
100
AcDbVisualStyle
  2
Realistic
 70
     8
177
     2
291
     0
 71
     2
176
     1
 72
     2
176
     1
 73
     0
176
     1
 90
        0
176
     1
 40
-0.6
176
     1
 41
-30.0
176
     1
 62
     5
 63
     7
421
 16777215
176
     1
 74
     1
176
     1
 91
        0
176
     1
 64
     7
176
     1
 65
   257
176
     1
 75
     1
176
     1
175
     1
176
     1
 42
1.0
176
     1
 92
        8
176
     1
 66
     8
424
  7895160
176
     1
 43
1.0
176
     1
 76
     1
176
     1
 77
     6
176
     1
 78
     2
176
     1
 67
     7
176
     1
 79
     5
176
     1
170
     0
176
     1
171
     0
176
     1
290
     0
176
     1
 93
       13
176
     1
 44
0.0
176
     1
173
     0
176
     1
  0
VISUALSTYLE
  5
37
102
{ACAD_REACTORS
330
2A
102
}
330
2A
100
AcDbVisualStyle
  2
Thicken
 70
    13
177
     2
291
     1
 71
     2
176
     1
 72
     2
176
     1
 73
     0
176
     1
 90
        0
176
     1
 40
-0.6
176
     1
 41
-30.0
176
     1
 62
     5
 63
     7
421
 16777215
176
     1
 74
     1
176
     1
 91
        4
176
     1
 64
     7
176
     1
 65
   257
176
     1
 75
     1
176
     1
175
     1
176
     1
 42
1.0
176
     1
 92
       12
176
     1
 66
     7
176
     1
 43
1.0
176
     1
 76
     1
176
     1
 77
     6
176
     1
 78
     2
176
     1
 67
     7
176
     1
 79
     5
176
     1
170
     0
176
     1
171
     0
176
     1
290
     0
176
     1
 93
        1
176
     1
 44
0.0
176
     1
173
     0
176
     1
  0
ENDSEC
  0
EOF
