  0
SECTION
  2
HEADER
  9
$ACADVER
  1
AC1024
  9
$ACADMAINTVER
 70
     6
  9
$DWGCODEPAGE
  3
ANSI_932
  9
$INSBASE
 10
0.0
 20
0.0
 30
0.0
  9
$EXTMIN
 10
-8910.0
 20
-6300.0
 30
0.0
  9
$EXTMAX
 10
8910.0
 20
6300.0
 30
0.0
  9
$LIMMIN
 10
-8910.0
 20
-6300.0
  9
$LIMMAX
 10
8910.0
 20
6300.0
  9
$ORTHOMODE
 70
     0
  9
$REGENMODE
 70
     1
  9
$FILLMODE
 70
     1
  9
$QTEXTMODE
 70
     0
  9
$MIRRTEXT
 70
     1
  9
$LTSCALE
 40
30.0
  9
$ATTMODE
 70
     1
  9
$TEXTSIZE
 40
2.5
  9
$TRACEWID
 40
1.0
  9
$TEXTSTYLE
  7
Standard
  9
$CLAYER
  8
0
  9
$CELTYPE
  6
ByLayer
  9
$CECOLOR
 62
   256
  9
$CELTSCALE
 40
1.0
  9
$DISPSILH
 70
     0
  9
$DIMSCALE
 40
1.0
  9
$DIMASZ
 40
2.5
  9
$DIMEXO
 40
0.625
  9
$DIMDLI
 40
3.75
  9
$DIMRND
 40
0.0
  9
$DIMDLE
 40
0.0
  9
$DIMEXE
 40
1.25
  9
$DIMTP
 40
0.0
  9
$DIMTM
 40
0.0
  9
$DIMTXT
 40
2.5
  9
$DIMCEN
 40
2.5
  9
$DIMTSZ
 40
0.0
  9
$DIMTOL
 70
     0
  9
$DIMLIM
 70
     0
  9
$DIMTIH
 70
     0
  9
$DIMTOH
 70
     0
  9
$DIMSE1
 70
     0
  9
$DIMSE2
 70
     0
  9
$DIMTAD
 70
     1
  9
$DIMZIN
 70
     8
  9
$DIMBLK
  1

  9
$DIMASO
 70
     1
  9
$DIMSHO
 70
     1
  9
$DIMPOST
  1

  9
$DIMAPOST
  1

  9
$DIMALT
 70
     0
  9
$DIMALTD
 70
     3
  9
$DIMALTF
 40
0.03937007874016
  9
$DIMLFAC
 40
1.0
  9
$DIMTOFL
 70
     1
  9
$DIMTVP
 40
0.0
  9
$DIMTIX
 70
     0
  9
$DIMSOXD
 70
     0
  9
$DIMSAH
 70
     0
  9
$DIMBLK1
  1

  9
$DIMBLK2
  1

  9
$DIMSTYLE
  2
ISO-25
  9
$DIMCLRD
 70
     0
  9
$DIMCLRE
 70
     0
  9
$DIMCLRT
 70
     0
  9
$DIMTFAC
 40
1.0
  9
$DIMGAP
 40
0.625
  9
$DIMJUST
 70
     0
  9
$DIMSD1
 70
     0
  9
$DIMSD2
 70
     0
  9
$DIMTOLJ
 70
     0
  9
$DIMTZIN
 70
     8
  9
$DIMALTZ
 70
     0
  9
$DIMALTTZ
 70
     0
  9
$DIMUPT
 70
     0
  9
$DIMDEC
 70
     2
  9
$DIMTDEC
 70
     2
  9
$DIMALTU
 70
     2
  9
$DIMALTTD
 70
     3
  9
$DIMTXSTY
  7
Standard
  9
$DIMAUNIT
 70
     0
  9
$DIMADEC
 70
     0
  9
$DIMALTRND
 40
0.0
  9
$DIMAZIN
 70
     0
  9
$DIMDSEP
 70
    44
  9
$DIMATFIT
 70
     3
  9
$DIMFRAC
 70
     0
  9
$DIMLDRBLK
  1

  9
$DIMLUNIT
 70
     2
  9
$DIMLWD
 70
    -2
  9
$DIMLWE
 70
    -2
  9
$DIMTMOVE
 70
     0
  9
$DIMFXL
 40
1.0
  9
$DIMFXLON
 70
     0
  9
$DIMJOGANG
 40
0.7853981633974483
  9
$DIMTFILL
 70
     0
  9
$DIMTFILLCLR
 70
     0
  9
$DIMARCSYM
 70
     0
  9
$DIMLTYPE
  6

  9
$DIMLTEX1
  6

  9
$DIMLTEX2
  6

  9
$DIMTXTDIRECTION
 70
     0
  9
$LUNITS
 70
     2
  9
$LUPREC
 70
     4
  9
$SKETCHINC
 40
1.0
  9
$FILLETRAD
 40
10.0
  9
$AUNITS
 70
     0
  9
$AUPREC
 70
     0
  9
$MENU
  1
.
  9
$ELEVATION
 40
0.0
  9
$PELEVATION
 40
0.0
  9
$THICKNESS
 40
0.0
  9
$LIMCHECK
 70
     0
  9
$CHAMFERA
 40
10.0
  9
$CHAMFERB
 40
10.0
  9
$CHAMFERC
 40
20.0
  9
$CHAMFERD
 40
0.0
  9
$SKPOLY
 70
     0
  9
$TDCREATE
 40
2459720.733024132
  9
$TDUCREATE
 40
2459720.358024132
  9
$TDUPDATE
 40
2459720.733024144
  9
$TDUUPDATE
 40
2459720.358024144
  9
$TDINDWG
 40
0.0000000116
  9
$TDUSRTIMER
 40
0.0000000116
  9
$USRTIMER
 70
     1
  9
$ANGBASE
 50
0.0
  9
$ANGDIR
 70
     0
  9
$PDMODE
 70
     0
  9
$PDSIZE
 40
0.0
  9
$PLINEWID
 40
0.0
  9
$SPLFRAME
 70
     0
  9
$SPLINETYPE
 70
     6
  9
$SPLINESEGS
 70
     8
  9
$HANDSEED
  5
51C
  9
$SURFTAB1
 70
     6
  9
$SURFTAB2
 70
     6
  9
$SURFTYPE
 70
     6
  9
$SURFU
 70
     6
  9
$SURFV
 70
     6
  9
$UCSBASE
  2

  9
$UCSNAME
  2

  9
$UCSORG
 10
0.0
 20
0.0
 30
0.0
  9
$UCSXDIR
 10
1.0
 20
0.0
 30
0.0
  9
$UCSYDIR
 10
0.0
 20
1.0
 30
0.0
  9
$UCSORTHOREF
  2

  9
$UCSORTHOVIEW
 70
     0
  9
$UCSORGTOP
 10
0.0
 20
0.0
 30
0.0
  9
$UCSORGBOTTOM
 10
0.0
 20
0.0
 30
0.0
  9
$UCSORGLEFT
 10
0.0
 20
0.0
 30
0.0
  9
$UCSORGRIGHT
 10
0.0
 20
0.0
 30
0.0
  9
$UCSORGFRONT
 10
0.0
 20
0.0
 30
0.0
  9
$UCSORGBACK
 10
0.0
 20
0.0
 30
0.0
  9
$PUCSBASE
  2

  9
$PUCSNAME
  2

  9
$PUCSORG
 10
0.0
 20
0.0
 30
0.0
  9
$PUCSXDIR
 10
1.0
 20
0.0
 30
0.0
  9
$PUCSYDIR
 10
0.0
 20
1.0
 30
0.0
  9
$PUCSORTHOREF
  2

  9
$PUCSORTHOVIEW
 70
     0
  9
$PUCSORGTOP
 10
0.0
 20
0.0
 30
0.0
  9
$PUCSORGBOTTOM
 10
0.0
 20
0.0
 30
0.0
  9
$PUCSORGLEFT
 10
0.0
 20
0.0
 30
0.0
  9
$PUCSORGRIGHT
 10
0.0
 20
0.0
 30
0.0
  9
$PUCSORGFRONT
 10
0.0
 20
0.0
 30
0.0
  9
$PUCSORGBACK
 10
0.0
 20
0.0
 30
0.0
  9
$USERI1
 70
     0
  9
$USERI2
 70
     0
  9
$USERI3
 70
     0
  9
$USERI4
 70
     0
  9
$USERI5
 70
     0
  9
$USERR1
 40
0.0
  9
$USERR2
 40
0.0
  9
$USERR3
 40
0.0
  9
$USERR4
 40
0.0
  9
$USERR5
 40
0.0
  9
$WORLDVIEW
 70
     1
  9
$SHADEDGE
 70
     3
  9
$SHADEDIF
 70
    70
  9
$TILEMODE
 70
     1
  9
$MAXACTVP
 70
    64
  9
$PINSBASE
 10
0.0
 20
0.0
 30
0.0
  9
$PLIMCHECK
 70
     0
  9
$PEXTMIN
 10
1.000000000000000E+20
 20
1.000000000000000E+20
 30
1.000000000000000E+20
  9
$PEXTMAX
 10
-1.000000000000000E+20
 20
-1.000000000000000E+20
 30
-1.000000000000000E+20
  9
$PLIMMIN
 10
0.0
 20
0.0
  9
$PLIMMAX
 10
420.0
 20
297.0
  9
$UNITMODE
 70
     0
  9
$VISRETAIN
 70
     1
  9
$PLINEGEN
 70
     0
  9
$PSLTSCALE
 70
     1
  9
$TREEDEPTH
 70
  3020
  9
$CMLSTYLE
  2
Standard
  9
$CMLJUST
 70
     0
  9
$CMLSCALE
 40
20.0
  9
$PROXYGRAPHICS
 70
     1
  9
$MEASUREMENT
 70
     1
  9
$CELWEIGHT
370
    -1
  9
$ENDCAPS
280
     0
  9
$JOINSTYLE
280
     0
  9
$LWDISPLAY
290
     0
  9
$INSUNITS
 70
     4
  9
$HYPERLINKBASE
  1

  9
$STYLESHEET
  1

  9
$XEDIT
290
     1
  9
$CEPSNTYPE
380
     0
  9
$PSTYLEMODE
290
     1
  9
$FINGERPRINTGUID
  2
{A057F853-EDF9-45ED-ADDA-939B38CDEED9}
  9
$VERSIONGUID
  2
{FAEB1C32-E019-11D5-929B-00C0DF256EC4}
  9
$EXTNAMES
290
     1
  9
$PSVPSCALE
 40
0.0
  9
$OLESTARTUP
290
     0
  9
$SORTENTS
280
   127
  9
$INDEXCTL
280
     0
  9
$HIDETEXT
280
     1
  9
$XCLIPFRAME
280
     2
  9
$HALOGAP
280
     0
  9
$OBSCOLOR
 70
   257
  9
$OBSLTYPE
280
     0
  9
$INTERSECTIONDISPLAY
280
     0
  9
$INTERSECTIONCOLOR
 70
   257
  9
$DIMASSOC
280
     2
  9
$PROJECTNAME
  1

  9
$CAMERADISPLAY
290
     0
  9
$LENSLENGTH
 40
50.0
  9
$CAMERAHEIGHT
 40
0.0
  9
$STEPSPERSEC
 40
2.0
  9
$STEPSIZE
 40
6.0
  9
$3DDWFPREC
 40
2.0
  9
$PSOLWIDTH
 40
5.0
  9
$PSOLHEIGHT
 40
80.0
  9
$LOFTANG1
 40
1.570796326794897
  9
$LOFTANG2
 40
1.570796326794897
  9
$LOFTMAG1
 40
0.0
  9
$LOFTMAG2
 40
0.0
  9
$LOFTPARAM
 70
     7
  9
$LOFTNORMALS
280
     1
  9
$LATITUDE
 40
37.795
  9
$LONGITUDE
 40
-122.394
  9
$NORTHDIRECTION
 40
0.0
  9
$TIMEZONE
 70
 -8000
  9
$LIGHTGLYPHDISPLAY
280
     1
  9
$TILEMODELIGHTSYNCH
280
     1
  9
$SOLIDHIST
280
     1
  9
$SHOWHIST
280
     1
  9
$DWFFRAME
280
     2
  9
$DGNFRAME
280
     2
  9
$REALWORLDSCALE
290
     1
  9
$INTERFERECOLOR
 62
   256
  9
$CSHADOW
280
     0
  9
$SHADOWPLANELOCATION
 40
0.0
  0
ENDSEC
  0
SECTION
  2
CLASSES
  0
CLASS
  1
ACDBDICTIONARYWDFLT
  2
AcDbDictionaryWithDefault
  3
ObjectDBX Classes
 90
        0
 91
        4
280
     0
281
     0
  0
CLASS
  1
VISUALSTYLE
  2
AcDbVisualStyle
  3
ObjectDBX Classes
 90
     4095
 91
        4
280
     0
281
     0
  0
CLASS
  1
MATERIAL
  2
AcDbMaterial
  3
ObjectDBX Classes
 90
     1153
 91
        4
280
     0
281
     0
  0
ENDSEC
  0
SECTION
  2
TABLES
  0
TABLE
  2
VPORT
  5
8
330
0
100
AcDbSymbolTable
 70
     1
  0
VPORT
  5
29
330
8
100
AcDbSymbolTableRecord
100
AcDbViewportTableRecord
  2
*Active
 70
     0
 10
0.0
 20
0.0
 11
1.0
 21
1.0
 12
0.0
 22
0.0
 13
0.0
 23
0.0
 14
10.0
 24
10.0
 15
10.0
 25
10.0
 16
0.0
 26
0.0
 36
1.0
 17
0.0
 27
0.0
 37
0.0
 40
13860.0
 41
1.414285714285714
 42
50.0
 43
0.0
 44
0.0
 50
0.0
 51
0.0
 71
     0
 72
 10000
 73
     1
 74
     3
 75
     0
 76
     0
 77
     0
 78
     0
281
     0
 65
     1
110
0.0
120
0.0
130
0.0
111
1.0
121
0.0
131
0.0
112
0.0
122
1.0
132
0.0
 79
     0
146
0.0
 60
     3
 61
     5
292
     1
282
     1
141
0.0
142
0.0
 63
   250
  0
ENDTAB
  0
TABLE
  2
LTYPE
  5
5
330
0
100
AcDbSymbolTable
 70
     5
  0
LTYPE
  5
14
330
5
100
AcDbSymbolTableRecord
100
AcDbLinetypeTableRecord
  2
ByBlock
 70
     0
  3

 72
    65
 73
     0
 40
0.0
  0
LTYPE
  5
15
330
5
100
AcDbSymbolTableRecord
100
AcDbLinetypeTableRecord
  2
ByLayer
 70
     0
  3

 72
    65
 73
     0
 40
0.0
  0
LTYPE
  5
16
330
5
100
AcDbSymbolTableRecord
100
AcDbLinetypeTableRecord
  2
Continuous
 70
     0
  3
Solid line
 72
    65
 73
     0
 40
0.0
  0
LTYPE
  5
3F
330
5
100
AcDbSymbolTableRecord
100
AcDbLinetypeTableRecord
  2
JWW_CENTER1
 70
     0
  3
-----  --  ----------  --  -----
 72
    65
 73
     4
 40
6.773333333333333
 49
4.233333333333333
 74
     0
 49
-0.8466666666666667
 74
     0
 49
0.8466666666666667
 74
     0
 49
-0.8466666666666667
 74
     0
  0
LTYPE
  5
40
330
5
100
AcDbSymbolTableRecord
100
AcDbLinetypeTableRecord
  2
JWW_HOJO
 70
     0
  3
  -   -   -   -   -   -   -   - 
 72
    65
 73
     2
 40
1.693333333333333
 49
-1.27
 74
     0
 49
0.4233333333333333
 74
     0
  0
LTYPE
  5
41
330
5
100
AcDbSymbolTableRecord
100
AcDbLinetypeTableRecord
  2
JWW_DASHED1
 70
     0
  3
-  --  --  --  --  --  --  --  -
 72
    65
 73
     2
 40
1.693333333333333
 49
0.8466666666666667
 74
     0
 49
-0.8466666666666667
 74
     0
  0
LTYPE
  5
42
330
5
100
AcDbSymbolTableRecord
100
AcDbLinetypeTableRecord
  2
JWW_DASHED2
 70
     0
  3
--    ----    ----    ----    --
 72
    65
 73
     2
 40
3.386666666666667
 49
1.693333333333333
 74
     0
 49
-1.693333333333333
 74
     0
  0
ENDTAB
  0
TABLE
  2
LAYER
  5
2
330
0
100
AcDbSymbolTable
 70
    18
  0
LAYER
  5
10
330
2
100
AcDbSymbolTableRecord
100
AcDbLayerTableRecord
  2
0
 70
     0
 62
     7
  6
Continuous
370
    -3
390
F
347
3E
  0
LAYER
  5
43
330
2
100
AcDbSymbolTableRecord
100
AcDbLayerTableRecord
  2
0-1_通り芯
 70
     0
 62
     7
  6
Continuous
370
    -3
390
F
347
3E
  0
LAYER
  5
44
330
2
100
AcDbSymbolTableRecord
100
AcDbLayerTableRecord
  2
0-0_補助線
 70
     0
 62
     7
  6
Continuous
370
    -3
390
F
347
3E
  0
LAYER
  5
45
330
2
100
AcDbSymbolTableRecord
100
AcDbLayerTableRecord
  2
F-0_補助線
 70
     0
 62
     7
  6
Continuous
370
    -3
390
F
347
3E
  0
LAYER
  5
46
330
2
100
AcDbSymbolTableRecord
100
AcDbLayerTableRecord
  2
F-1_枠
 70
     0
 62
     7
  6
Continuous
370
    -3
390
F
347
3E
  0
LAYER
  5
47
330
2
100
AcDbSymbolTableRecord
100
AcDbLayerTableRecord
  2
F-A_文字
 70
     0
 62
     7
  6
Continuous
370
    -3
390
F
347
3E
  0
LAYER
  5
48
330
2
100
AcDbSymbolTableRecord
100
AcDbLayerTableRecord
  2
0-4_枠
 70
     0
 62
     7
  6
Continuous
370
    -3
390
F
347
3E
  0
LAYER
  5
49
330
2
100
AcDbSymbolTableRecord
100
AcDbLayerTableRecord
  2
0-2_柱
 70
     0
 62
     7
  6
Continuous
370
    -3
390
F
347
3E
  0
LAYER
  5
4A
330
2
100
AcDbSymbolTableRecord
100
AcDbLayerTableRecord
  2
0-C_ハッチ
 70
     0
 62
     7
  6
Continuous
370
    -3
390
F
347
3E
  0
LAYER
  5
4B
330
2
100
AcDbSymbolTableRecord
100
AcDbLayerTableRecord
  2
0-3_仕上げ
 70
     0
 62
     7
  6
Continuous
370
    -3
390
F
347
3E
  0
LAYER
  5
4C
330
2
100
AcDbSymbolTableRecord
100
AcDbLayerTableRecord
  2
0-7_金物
 70
     0
 62
     7
  6
Continuous
370
    -3
390
F
347
3E
  0
LAYER
  5
4D
330
2
100
AcDbSymbolTableRecord
100
AcDbLayerTableRecord
  2
0-6_扉
 70
     0
 62
     7
  6
Continuous
370
    -3
390
F
347
3E
  0
LAYER
  5
4E
330
2
100
AcDbSymbolTableRecord
100
AcDbLayerTableRecord
  2
0-B_寸法
 70
     0
 62
     7
  6
Continuous
370
    -3
390
F
347
3E
  0
LAYER
  5
4F
330
2
100
AcDbSymbolTableRecord
100
AcDbLayerTableRecord
  2
0-A_文字
 70
     0
 62
     7
  6
Continuous
370
    -3
390
F
347
3E
  0
LAYER
  5
50
330
2
100
AcDbSymbolTableRecord
100
AcDbLayerTableRecord
  2
1-B_寸法
 70
     0
 62
     7
  6
Continuous
370
    -3
390
F
347
3E
  0
LAYER
  5
51
330
2
100
AcDbSymbolTableRecord
100
AcDbLayerTableRecord
  2
1-7_金物
 70
     0
 62
     7
  6
Continuous
370
    -3
390
F
347
3E
  0
LAYER
  5
52
330
2
100
AcDbSymbolTableRecord
100
AcDbLayerTableRecord
  2
1-0_補助線
 70
     0
 62
     7
  6
Continuous
370
    -3
390
F
347
3E
  0
LAYER
  5
53
330
2
100
AcDbSymbolTableRecord
100
AcDbLayerTableRecord
  2
1-4_枠
 70
     0
 62
     7
  6
Continuous
370
    -3
390
F
347
3E
  0
ENDTAB
  0
TABLE
  2
STYLE
  5
3
330
0
100
AcDbSymbolTable
 70
     1
  0
STYLE
  5
11
330
3
100
AcDbSymbolTableRecord
100
AcDbTextStyleTableRecord
  2
Standard
 70
     0
 40
0.0
 41
1.0
 50
0.0
 71
     0
 42
2.5
  3
txt
  4

  0
ENDTAB
  0
TABLE
  2
VIEW
  5
6
330
0
100
AcDbSymbolTable
 70
     0
  0
ENDTAB
  0
TABLE
  2
UCS
  5
7
330
0
100
AcDbSymbolTable
 70
     0
  0
ENDTAB
  0
TABLE
  2
APPID
  5
9
330
0
100
AcDbSymbolTable
 70
     1
  0
APPID
  5
12
330
9
100
AcDbSymbolTableRecord
100
AcDbRegAppTableRecord
  2
ACAD
 70
     0
  0
ENDTAB
  0
TABLE
  2
DIMSTYLE
  5
A
330
0
100
AcDbSymbolTable
 70
     1
100
AcDbDimStyleTable
  0
DIMSTYLE
105
27
330
A
100
AcDbSymbolTableRecord
100
AcDbDimStyleTableRecord
  2
ISO-25
 70
     0
 41
2.5
 42
0.625
 43
3.75
 44
1.25
 73
     0
 74
     0
 77
     1
 78
     8
140
2.5
141
2.5
143
0.03937007874016
147
0.625
171
     3
172
     1
178
     0
271
     2
272
     2
274
     3
278
    44
283
     0
284
     8
340
11
  0
ENDTAB
  0
TABLE
  2
BLOCK_RECORD
  5
1
330
0
100
AcDbSymbolTable
 70
     1
  0
BLOCK_RECORD
  5
1F
330
1
100
AcDbSymbolTableRecord
100
AcDbBlockTableRecord
  2
*Model_Space
340
22
 70
     0
280
     1
281
     0
  0
BLOCK_RECORD
  5
1B
330
1
100
AcDbSymbolTableRecord
100
AcDbBlockTableRecord
  2
*Paper_Space
340
1E
 70
     0
280
     1
281
     0
  0
BLOCK_RECORD
  5
23
330
1
100
AcDbSymbolTableRecord
100
AcDbBlockTableRecord
  2
*Paper_Space0
340
26
 70
     0
280
     1
281
     0
  0
ENDTAB
  0
ENDSEC
  0
SECTION
  2
BLOCKS
  0
BLOCK
  5
20
330
1F
100
AcDbEntity
  8
0
100
AcDbBlockBegin
  2
*Model_Space
 70
     0
 10
0.0
 20
0.0
 30
0.0
  3
*Model_Space
  1

  0
ENDBLK
  5
21
330
1F
100
AcDbEntity
  8
0
100
AcDbBlockEnd
  0
BLOCK
  5
1C
330
1B
100
AcDbEntity
 67
     1
  8
0
100
AcDbBlockBegin
  2
*Paper_Space
 70
     0
 10
0.0
 20
0.0
 30
0.0
  3
*Paper_Space
  1

  0
ENDBLK
  5
1D
330
1B
100
AcDbEntity
 67
     1
  8
0
100
AcDbBlockEnd
  0
BLOCK
  5
24
330
23
100
AcDbEntity
  8
0
100
AcDbBlockBegin
  2
*Paper_Space0
 70
     0
 10
0.0
 20
0.0
 30
0.0
  3
*Paper_Space0
  1

  0
ENDBLK
  5
25
330
23
100
AcDbEntity
  8
0
100
AcDbBlockEnd
  0
ENDSEC
  0
SECTION
  2
ENTITIES
  0
LINE
  5
54
330
1F
100
AcDbEntity
  8
0-1_通り芯
  6
JWW_CENTER1
 62
   120
370
     5
100
AcDbLine
 10
-2570.338200311357
 20
2171.962168973789
 30
0.0
 11
2590.258723166165
 21
2171.962168973789
 31
0.0
  0
LINE
  5
55
330
1F
100
AcDbEntity
  8
0-0_補助線
  6
JWW_HOJO
 62
   120
370
     5
100
AcDbLine
 10
547.2414845952507
 20
1421.961624593966
 30
0.0
 11
547.2414845952507
 21
2690.962396613789
 31
0.0
  0
LINE
  5
56
330
1F
100
AcDbEntity
  8
0-0_補助線
  6
JWW_HOJO
 62
   120
370
     5
100
AcDbLine
 10
-2569.495794194033
 20
2690.962396613789
 30
0.0
 11
2590.258723166165
 21
2690.962396613789
 31
0.0
  0
LINE
  5
57
330
1F
100
AcDbEntity
  8
0-0_補助線
  6
JWW_HOJO
 62
   120
370
     5
100
AcDbLine
 10
-1559.760187066051
 20
1421.961624593966
 30
0.0
 11
-1559.760187066051
 21
2690.962396613789
 31
0.0
  0
LINE
  5
58
330
1F
100
AcDbEntity
  8
0-0_補助線
  6
JWW_HOJO
 62
   120
370
     5
100
AcDbLine
 10
1681.218501188195
 20
1421.961624593966
 30
0.0
 11
1681.218501188195
 21
2690.962396613789
 31
0.0
  0
LINE
  5
59
330
1F
100
AcDbEntity
  8
0-0_補助線
  6
JWW_HOJO
 62
   120
370
     5
100
AcDbLine
 10
-1439.760187066051
 20
1421.961624593966
 30
0.0
 11
-1439.760187066051
 21
2690.962396613789
 31
0.0
  0
LINE
  5
5A
330
1F
100
AcDbEntity
  8
0-0_補助線
  6
JWW_HOJO
 62
   120
370
     5
100
AcDbLine
 10
-515.7601876464081
 20
1421.961624593966
 30
0.0
 11
-515.7601876464081
 21
2690.962396613789
 31
0.0
  0
LINE
  5
5B
330
1F
100
AcDbEntity
  8
0-0_補助線
  6
JWW_HOJO
 62
   120
370
     5
100
AcDbLine
 10
-395.7601876464081
 20
1421.961624593966
 30
0.0
 11
-395.7601876464081
 21
2690.962396613789
 31
0.0
  0
LINE
  5
5C
330
1F
100
AcDbEntity
  8
0-0_補助線
  6
JWW_HOJO
 62
   120
370
     5
100
AcDbLine
 10
427.2414845952507
 20
1421.961624593966
 30
0.0
 11
427.2414845952507
 21
2690.962396613789
 31
0.0
  0
LINE
  5
5D
330
1F
100
AcDbEntity
  8
0-0_補助線
  6
JWW_HOJO
 62
   120
370
     5
100
AcDbLine
 10
1561.218501188195
 20
1421.961624593966
 30
0.0
 11
1561.218501188195
 21
2690.962396613789
 31
0.0
  0
LINE
  5
5E
330
1F
100
AcDbEntity
  8
0-0_補助線
  6
JWW_HOJO
 62
   120
370
     5
100
AcDbLine
 10
-2569.495794194033
 20
2690.962396613789
 30
0.0
 11
-2572.801562447445
 21
431.9616245939665
 31
0.0
  0
LINE
  5
5F
330
1F
100
AcDbEntity
  8
0-0_補助線
  6
JWW_HOJO
 62
   120
370
     5
100
AcDbLine
 10
2590.212755191342
 20
431.9616245939665
 30
0.0
 11
2590.212755191342
 21
2690.962396613788
 31
0.0
  0
LINE
  5
60
330
1F
100
AcDbEntity
  8
F-0_補助線
  6
JWW_HOJO
 62
   120
370
     5
100
AcDbLine
 10
-6140.081333436773
 20
-4455.0
 30
0.0
 11
-6140.081333436773
 21
4424.999604096284
 31
0.0
  0
LINE
  5
61
330
1F
100
AcDbEntity
  8
F-0_補助線
  6
JWW_HOJO
 62
   120
370
     5
100
AcDbLine
 10
-6140.081333436773
 20
4424.999604096284
 30
0.0
 11
6159.917676803936
 21
4424.999604096284
 31
0.0
  0
LINE
  5
62
330
1F
100
AcDbEntity
  8
F-0_補助線
  6
JWW_HOJO
 62
   120
370
     5
100
AcDbLine
 10
6159.917676803936
 20
4424.999604096284
 30
0.0
 11
6159.917676803936
 21
-4455.0
 31
0.0
  0
LINE
  5
63
330
1F
100
AcDbEntity
  8
F-0_補助線
  6
JWW_HOJO
 62
   120
370
     5
100
AcDbLine
 10
6159.917676803936
 20
-4455.0
 30
0.0
 11
-6140.081333436773
 21
-4455.0
 31
0.0
  0
LINE
  5
64
330
1F
100
AcDbEntity
  8
F-0_補助線
  6
JWW_HOJO
 62
     7
370
     9
100
AcDbLine
 10
509.9185840832865
 20
-3795.000003092998
 30
0.0
 11
509.9185840832865
 21
-4195.000008247994
 31
0.0
  0
LINE
  5
65
330
1F
100
AcDbEntity
  8
F-1_枠
  6
Continuous
 62
   200
370
    20
100
AcDbLine
 10
5859.917429364114
 20
4174.999769056166
 30
0.0
 11
5859.917429364114
 21
-4205.000164959882
 31
0.0
  0
LINE
  5
66
330
1F
100
AcDbEntity
  8
F-1_枠
  6
Continuous
 62
   200
370
    20
100
AcDbLine
 10
-5840.081317971782
 20
4174.999769056166
 30
0.0
 11
-5840.081317971782
 21
-4205.000164959882
 31
0.0
  0
LINE
  5
67
330
1F
100
AcDbEntity
  8
F-1_枠
  6
Continuous
 62
   200
370
    20
100
AcDbLine
 10
5859.917429364114
 20
-4205.000002577498
 30
0.0
 11
-5840.081085996952
 21
-4205.000002577498
 31
0.0
  0
LINE
  5
68
330
1F
100
AcDbEntity
  8
F-1_枠
  6
Continuous
 62
   200
370
    20
100
AcDbLine
 10
-5830.081323642279
 20
4174.999769056166
 30
0.0
 11
-5830.081323642279
 21
-4205.000164959882
 31
0.0
  0
LINE
  5
69
330
1F
100
AcDbEntity
  8
F-1_枠
  6
Continuous
 62
   200
370
    20
100
AcDbLine
 10
-5835.081309208291
 20
4174.999769056166
 30
0.0
 11
-5835.081309208291
 21
-4205.000164959882
 31
0.0
  0
LINE
  5
6A
330
1F
100
AcDbEntity
  8
F-1_枠
  6
Continuous
 62
   200
370
    20
100
AcDbLine
 10
5854.917165428304
 20
4174.999769056166
 30
0.0
 11
5854.917165428304
 21
-4205.000164959882
 31
0.0
  0
LINE
  5
6B
330
1F
100
AcDbEntity
  8
F-1_枠
  6
Continuous
 62
   200
370
    20
100
AcDbLine
 10
5849.917643811961
 20
4174.999769056166
 30
0.0
 11
5849.917643811961
 21
-4205.000164959882
 31
0.0
  0
LINE
  5
6C
330
1F
100
AcDbEntity
  8
F-1_枠
  6
Continuous
 62
   200
370
    20
100
AcDbLine
 10
5859.917429364114
 20
-4199.999993814004
 30
0.0
 11
-5840.081085996952
 21
-4199.999993814004
 31
0.0
  0
LINE
  5
6D
330
1F
100
AcDbEntity
  8
F-1_枠
  6
Continuous
 62
   200
370
    20
100
AcDbLine
 10
5859.917429364114
 20
-4195.000008247994
 30
0.0
 11
-5840.081085996952
 21
-4195.000008247994
 31
0.0
  0
LINE
  5
6E
330
1F
100
AcDbEntity
  8
F-1_枠
  6
Continuous
 62
   200
370
    20
100
AcDbLine
 10
4349.917891251784
 20
-3795.000003092998
 30
0.0
 11
4349.917891251784
 21
-4195.000008247994
 31
0.0
  0
LINE
  5
6F
330
1F
100
AcDbEntity
  8
F-1_枠
  6
Continuous
 62
   200
370
    20
100
AcDbLine
 10
2849.917396372139
 20
-3795.000003092998
 30
0.0
 11
2849.917396372139
 21
-4195.000008247994
 31
0.0
  0
LINE
  5
70
330
1F
100
AcDbEntity
  8
F-1_枠
  6
Continuous
 62
   200
370
    20
100
AcDbLine
 10
9.918542843316231
 20
-3795.000003092998
 30
0.0
 11
9.918542843316231
 21
-4195.000008247994
 31
0.0
  0
LINE
  5
71
330
1F
100
AcDbEntity
  8
F-1_枠
  6
Continuous
 62
   200
370
    20
100
AcDbLine
 10
9.918542843316231
 20
-3994.999936078046
 30
0.0
 11
5849.917643811961
 21
-3995.005364289155
 31
0.0
  0
LINE
  5
72
330
1F
100
AcDbEntity
  8
F-1_枠
  6
Continuous
 62
   200
370
    20
100
AcDbLine
 10
-5840.081085996952
 20
4174.999769056166
 30
0.0
 11
5859.917429364114
 21
4174.999769056166
 31
0.0
  0
LINE
  5
73
330
1F
100
AcDbEntity
  8
F-1_枠
  6
Continuous
 62
   200
370
    20
100
AcDbLine
 10
-5840.081085996952
 20
4164.999983504013
 30
0.0
 11
5859.917429364114
 21
4164.999983504013
 31
0.0
  0
LINE
  5
74
330
1F
100
AcDbEntity
  8
F-1_枠
  6
Continuous
 62
   200
370
    20
100
AcDbLine
 10
-5840.081085996952
 20
4169.999505120355
 30
0.0
 11
5859.917429364114
 21
4169.999505120355
 31
0.0
  0
LINE
  5
75
330
1F
100
AcDbEntity
  8
F-0_補助線
  6
JWW_HOJO
 62
     7
370
     9
100
AcDbLine
 10
-5830.081323642279
 20
-3994.99993607839
 30
0.0
 11
9.918542843316231
 21
-3994.99993607839
 31
0.0
  0
LINE
  5
76
330
1F
100
AcDbEntity
  8
F-0_補助線
  6
JWW_HOJO
 62
     7
370
     9
100
AcDbLine
 10
-5830.081323642279
 20
-3904.99993607839
 30
0.0
 11
9.918542843316231
 21
-3904.99993607839
 31
0.0
  0
LINE
  5
77
330
1F
100
AcDbEntity
  8
F-0_補助線
  6
JWW_HOJO
 62
     7
370
     9
100
AcDbLine
 10
-5830.081323642279
 20
-4084.99993607839
 30
0.0
 11
9.918542843316231
 21
-4084.99993607839
 31
0.0
  0
LINE
  5
78
330
1F
100
AcDbEntity
  8
F-0_補助線
  6
JWW_HOJO
 62
     7
370
     9
100
AcDbLine
 10
9.918408067688347
 20
-4139.999739777983
 30
0.0
 11
5849.917509036332
 21
-4140.005167989091
 31
0.0
  0
LINE
  5
79
330
1F
100
AcDbEntity
  8
F-0_補助線
  6
JWW_HOJO
 62
     7
370
     9
100
AcDbLine
 10
9.918491721639953
 20
-4049.999739778022
 30
0.0
 11
5849.917592690284
 21
-4050.005167989131
 31
0.0
  0
LINE
  5
7A
330
1F
100
AcDbEntity
  8
F-0_補助線
  6
JWW_HOJO
 62
     7
370
     9
100
AcDbLine
 10
9.918593965360003
 20
-3939.99973721807
 30
0.0
 11
5849.917694934004
 21
-3940.005165429179
 31
0.0
  0
LINE
  5
7B
330
1F
100
AcDbEntity
  8
F-0_補助線
  6
JWW_HOJO
 62
     7
370
     9
100
AcDbLine
 10
9.918677619311609
 20
-3849.999737218109
 30
0.0
 11
5849.917778587956
 21
-3850.005165429218
 31
0.0
  0
LINE
  5
7C
330
1F
100
AcDbEntity
  8
F-0_補助線
  6
JWW_HOJO
 62
     7
370
     9
100
AcDbLine
 10
2939.917396372139
 20
-3795.000003092998
 30
0.0
 11
2939.917396372139
 21
-4195.000008247994
 31
0.0
  0
LINE
  5
7D
330
1F
100
AcDbEntity
  8
F-0_補助線
  6
JWW_HOJO
 62
     7
370
     9
100
AcDbLine
 10
99.91854284331623
 20
-3795.000003092998
 30
0.0
 11
99.91854284331623
 21
-4195.000008247994
 31
0.0
  0
LINE
  5
7E
330
1F
100
AcDbEntity
  8
F-0_補助線
  6
JWW_HOJO
 62
     7
370
     9
100
AcDbLine
 10
4439.917891251784
 20
-3795.000003092998
 30
0.0
 11
4439.917891251784
 21
-4195.000008247994
 31
0.0
  0
MTEXT
  5
7F
330
1F
100
AcDbEntity
  8
F-A_文字
  6
Continuous
 62
     7
370
     0
100
AcDbMText
 10
99.91854284331623
 20
-3887.139820871936
 30
0.0
 40
45.72
 41
180.0
 46
0.0
 71
     7
 72
     1
  1
{\fＭＳ ゴシック|b0|i0|c128|p49;図面名}
 73
     1
 44
1.0
  0
MTEXT
  5
80
330
1F
100
AcDbEntity
  8
F-A_文字
  6
Continuous
 62
     7
370
     0
100
AcDbMText
 10
2939.917396372139
 20
-3887.142460617774
 30
0.0
 40
45.72
 41
300.0
 46
0.0
 71
     7
 72
     1
  1
{\fＭＳ ゴシック|b0|i0|c128|p49;ＳＣＡＬＥ}
 73
     1
 44
1.0
  0
MTEXT
  5
81
330
1F
100
AcDbEntity
  8
F-A_文字
  6
Continuous
 62
     7
370
     0
100
AcDbMText
 10
4439.917891251784
 20
-3887.143854850754
 30
0.0
 40
45.72
 41
240.0
 46
0.0
 71
     7
 72
     1
  1
{\fＭＳ ゴシック|b0|i0|c128|p49;ＤＡＴＥ}
 73
     1
 44
1.0
  0
MTEXT
  5
82
330
1F
100
AcDbEntity
  8
F-A_文字
  6
Continuous
 62
     7
370
     0
100
AcDbMText
 10
3569.917643811961
 20
-3946.903115907308
 30
0.0
 40
76.19999999999999
 41
150.0
 46
0.0
 71
     7
 72
     1
  1
{\fＭＳ ゴシック|b0|i0|c128|p49;1/5}
 73
     1
 44
1.0
  0
LINE
  5
83
330
1F
100
AcDbEntity
  8
F-1_枠
  6
Continuous
 62
   200
370
    20
100
AcDbLine
 10
5859.917429364114
 20
-3795.000003092998
 30
0.0
 11
-5840.081085996952
 21
-3795.000003092998
 31
0.0
  0
LINE
  5
84
330
1F
100
AcDbEntity
  8
F-1_枠
  6
Continuous
 62
   200
370
    20
100
AcDbLine
 10
5859.917429364114
 20
-3790.000017526987
 30
0.0
 11
-5840.081085996952
 21
-3790.000017526987
 31
0.0
  0
LINE
  5
85
330
1F
100
AcDbEntity
  8
F-0_補助線
  6
JWW_HOJO
 62
     7
370
     9
100
AcDbLine
 10
-5087.628710189611
 20
-3795.000003092999
 30
0.0
 11
-5087.628710189611
 21
-4205.000164959882
 31
0.0
  0
MTEXT
  5
86
330
1F
100
AcDbEntity
  8
F-A_文字
  6
Continuous
 62
     7
370
     0
100
AcDbMText
 10
2939.917396372139
 20
-4087.14246317786
 30
0.0
 40
45.72
 41
240.0
 46
0.0
 71
     7
 72
     1
  1
{\fＭＳ ゴシック|b0|i0|c128|p49;ＦＩＬＥ}
 73
     1
 44
1.0
  0
LINE
  5
87
330
1F
100
AcDbEntity
  8
F-0_補助線
  6
JWW_HOJO
 62
     7
370
     9
100
AcDbLine
 10
-50.08145715668377
 20
-3795.000003092998
 30
0.0
 11
-50.08145715668377
 21
-4195.000008247994
 31
0.0
  0
MTEXT
  5
88
330
1F
100
AcDbEntity
  8
F-A_文字
  6
Continuous
 62
     7
370
     0
100
AcDbMText
 10
4439.917891251784
 20
-4087.143857410839
 30
0.0
 40
45.72
 41
180.0
 46
0.0
 71
     7
 72
     1
  1
{\fＭＳ ゴシック|b0|i0|c128|p49;ＮＯ．}
 73
     1
 44
1.0
  0
MTEXT
  5
89
330
1F
100
AcDbEntity
  8
F-A_文字
  6
Continuous
 62
     7
370
     0
100
AcDbMText
 10
1394.917396372138
 20
-4096.140669266149
 30
0.0
 40
45.72
 41
120.0
 46
0.0
 71
     7
 72
     1
  1
{\fＭＳ ゴシック|b0|i0|c128|p49;株式}
 73
     1
 44
1.0
  0
MTEXT
  5
8A
330
1F
100
AcDbEntity
  8
F-A_文字
  6
Continuous
 62
     7
370
     0
100
AcDbMText
 10
1604.917396372138
 20
-4164.281754523929
 30
0.0
 40
101.44125
 41
1065.0
 46
0.0
 71
     7
 72
     1
  1
{\fＭＳ ゴシック|b0|i0|c128|p49;ウッドワン・・・}
 73
     1
 44
1.0
  0
MTEXT
  5
8B
330
1F
100
AcDbEntity
  8
F-A_文字
  6
Continuous
 62
     7
370
     0
100
AcDbMText
 10
1394.917396372138
 20
-4168.140669266187
 30
0.0
 40
45.72
 41
120.0
 46
0.0
 71
     7
 72
     1
  1
{\fＭＳ ゴシック|b0|i0|c128|p49;会社}
 73
     1
 44
1.0
  0
LINE
  5
8C
330
1F
100
AcDbEntity
  8
0-4_枠
  6
Continuous
 62
    92
370
    13
100
AcDbLine
 10
2140.258723166164
 20
2507.962168973791
 30
0.0
 11
2083.258723166164
 21
2507.962168973791
 31
0.0
  0
LINE
  5
8D
330
1F
100
AcDbEntity
  8
0-4_枠
  6
Continuous
 62
    92
370
    13
100
AcDbLine
 10
2080.258723166164
 20
2036.962168973789
 30
0.0
 11
2080.258723166164
 21
2162.962168973789
 31
0.0
  0
LINE
  5
8E
330
1F
100
AcDbEntity
  8
0-2_柱
  6
Continuous
 62
     7
370
     9
100
AcDbLine
 10
2290.175285998007
 20
1856.962168973789
 30
0.0
 11
2290.175285998007
 21
2486.962168973789
 31
0.0
  0
LINE
  5
8F
330
1F
100
AcDbEntity
  8
0-2_柱
  6
Continuous
 62
     7
370
     9
100
AcDbLine
 10
2452.175285998007
 20
1856.962168973789
 30
0.0
 11
2290.175285998007
 21
1856.962168973789
 31
0.0
  0
LINE
  5
90
330
1F
100
AcDbEntity
  8
0-2_柱
  6
Continuous
 62
     7
370
     9
100
AcDbLine
 10
2452.175285998007
 20
2486.962168973789
 30
0.0
 11
2452.175285998007
 21
1856.962168973789
 31
0.0
  0
LINE
  5
91
330
1F
100
AcDbEntity
  8
0-2_柱
  6
Continuous
 62
     7
370
     9
100
AcDbLine
 10
2290.175285998007
 20
2486.962168973789
 30
0.0
 11
2452.175285998007
 21
2486.962168973789
 31
0.0
  0
LINE
  5
92
330
1F
100
AcDbEntity
  8
0-4_枠
  6
Continuous
 62
    92
370
    13
100
AcDbLine
 10
2140.258723166164
 20
2450.96216897379
 30
0.0
 11
2140.258723166164
 21
2510.96216897379
 31
0.0
  0
LINE
  5
93
330
1F
100
AcDbEntity
  8
0-4_枠
  6
Continuous
 62
    92
370
    13
100
AcDbLine
 10
2194.258723166162
 20
2450.96216897379
 30
0.0
 11
2194.258723166162
 21
2510.96216897379
 31
0.0
  0
LINE
  5
94
330
1F
100
AcDbEntity
  8
0-4_枠
  6
Continuous
 62
    92
370
    13
100
AcDbLine
 10
2140.258723166164
 20
2450.96216897379
 30
0.0
 11
2194.258723166162
 21
2450.96216897379
 31
0.0
  0
LINE
  5
95
330
1F
100
AcDbEntity
  8
0-4_枠
  6
Continuous
 62
    92
370
    13
100
AcDbLine
 10
2230.258723166164
 20
2468.96216897379
 30
0.0
 11
2260.258723166164
 21
2468.96216897379
 31
0.0
  0
LINE
  5
96
330
1F
100
AcDbEntity
  8
0-4_枠
  6
Continuous
 62
    92
370
    13
100
AcDbLine
 10
2230.258723166164
 20
2468.96216897379
 30
0.0
 11
2230.258723166164
 21
2510.96216897379
 31
0.0
  0
LINE
  5
97
330
1F
100
AcDbEntity
  8
0-4_枠
  6
Continuous
 62
    92
370
    13
100
AcDbLine
 10
2194.258723166162
 20
2510.96216897379
 30
0.0
 11
2230.258723166164
 21
2510.96216897379
 31
0.0
  0
LINE
  5
98
330
1F
100
AcDbEntity
  8
0-4_枠
  6
Continuous
 62
    92
370
    13
100
AcDbLine
 10
2140.258723166164
 20
2510.96216897379
 30
0.0
 11
2080.258723166164
 21
2510.96216897379
 31
0.0
  0
LINE
  5
99
330
1F
100
AcDbEntity
  8
0-4_枠
  6
Continuous
 62
    92
370
    13
100
AcDbLine
 10
2080.258723166164
 20
2510.96216897379
 30
0.0
 11
2080.258723166164
 21
2408.962168973788
 31
0.0
  0
LINE
  5
9A
330
1F
100
AcDbEntity
  8
0-4_枠
  6
Continuous
 62
    92
370
    13
100
AcDbLine
 10
2083.258723166164
 20
2507.962168973791
 30
0.0
 11
2083.258723166164
 21
2411.962168973787
 31
0.0
  0
LINE
  5
9B
330
1F
100
AcDbEntity
  8
0-4_枠
  6
Continuous
 62
    92
370
    13
100
AcDbLine
 10
2116.258723166162
 20
2408.962168973788
 30
0.0
 11
2080.258723166164
 21
2408.962168973788
 31
0.0
  0
LINE
  5
9C
330
1F
100
AcDbEntity
  8
0-4_枠
  6
Continuous
 62
    92
370
    13
100
AcDbLine
 10
2119.258723166162
 20
2411.962168973787
 30
0.0
 11
2083.258723166164
 21
2411.962168973787
 31
0.0
  0
LINE
  5
9D
330
1F
100
AcDbEntity
  8
0-4_枠
  6
Continuous
 62
    92
370
    13
100
AcDbLine
 10
2116.258723166162
 20
2408.962168973788
 30
0.0
 11
2116.258723166162
 21
2162.962168973789
 31
0.0
  0
LINE
  5
9E
330
1F
100
AcDbEntity
  8
0-4_枠
  6
Continuous
 62
    92
370
    13
100
AcDbLine
 10
2119.258723166162
 20
2411.962168973787
 30
0.0
 11
2119.258723166162
 21
2159.962168973788
 31
0.0
  0
LINE
  5
9F
330
1F
100
AcDbEntity
  8
0-4_枠
  6
Continuous
 62
    92
370
    13
100
AcDbLine
 10
2116.258723166162
 20
2162.962168973789
 30
0.0
 11
2080.258723166164
 21
2162.962168973789
 31
0.0
  0
LINE
  5
A0
330
1F
100
AcDbEntity
  8
0-4_枠
  6
Continuous
 62
    92
370
    13
100
AcDbLine
 10
2119.258723166162
 20
2159.962168973788
 30
0.0
 11
2083.258723166164
 21
2159.962168973788
 31
0.0
  0
LINE
  5
A1
330
1F
100
AcDbEntity
  8
0-4_枠
  6
Continuous
 62
    92
370
    13
100
AcDbLine
 10
2260.258723166164
 20
2036.962168973789
 30
0.0
 11
2080.258723166164
 21
2036.962168973789
 31
0.0
  0
LINE
  5
A2
330
1F
100
AcDbEntity
  8
0-4_枠
  6
Continuous
 62
    92
370
    13
100
AcDbLine
 10
2260.258723166164
 20
2468.96216897379
 30
0.0
 11
2260.258723166164
 21
2036.962168973789
 31
0.0
  0
LINE
  5
A3
330
1F
100
AcDbEntity
  8
0-4_枠
  6
Continuous
 62
    92
370
    13
100
AcDbLine
 10
2083.258723166164
 20
2036.962168973789
 30
0.0
 11
2083.258723166164
 21
2159.962168973788
 31
0.0
  0
LINE
  5
A4
330
1F
100
AcDbEntity
  8
0-C_ハッチ
  6
JWW_DASHED1
 62
   120
370
     5
100
AcDbLine
 10
2568.279066374035
 20
2486.962168973786
 30
0.0
 11
2590.17528599799
 21
2508.858388597737
 31
0.0
  0
LINE
  5
A5
330
1F
100
AcDbEntity
  8
0-C_ハッチ
  6
JWW_DASHED1
 62
   120
370
     5
100
AcDbLine
 10
2525.85265950284
 20
2486.962168973789
 30
0.0
 11
2590.175285997994
 21
2551.284795468939
 31
0.0
  0
LINE
  5
A6
330
1F
100
AcDbEntity
  8
0-C_ハッチ
  6
JWW_DASHED1
 62
   120
370
     5
100
AcDbLine
 10
2483.426252631644
 20
2486.962168973792
 30
0.0
 11
2558.42625263164
 21
2561.962168973789
 31
0.0
  0
LINE
  5
A7
330
1F
100
AcDbEntity
  8
0-C_ハッチ
  6
JWW_DASHED1
 62
   120
370
     5
100
AcDbLine
 10
2440.999845760447
 20
2486.962168973796
 30
0.0
 11
2515.999845760444
 21
2561.962168973792
 31
0.0
  0
LINE
  5
A8
330
1F
100
AcDbEntity
  8
0-C_ハッチ
  6
JWW_DASHED1
 62
   120
370
     5
100
AcDbLine
 10
2398.573438889297
 20
2486.962168973789
 30
0.0
 11
2473.57343888929
 21
2561.962168973786
 31
0.0
  0
LINE
  5
A9
330
1F
100
AcDbEntity
  8
0-C_ハッチ
  6
JWW_DASHED1
 62
   120
370
     5
100
AcDbLine
 10
2356.147032018101
 20
2486.962168973794
 30
0.0
 11
2431.147032018095
 21
2561.962168973789
 31
0.0
  0
LINE
  5
AA
330
1F
100
AcDbEntity
  8
0-C_ハッチ
  6
JWW_DASHED1
 62
   120
370
     5
100
AcDbLine
 10
2313.720625146888
 20
2486.962168973782
 30
0.0
 11
2388.720625146899
 21
2561.962168973792
 31
0.0
  0
LINE
  5
AB
330
1F
100
AcDbEntity
  8
0-C_ハッチ
  6
JWW_DASHED1
 62
   120
370
     5
100
AcDbLine
 10
2271.29421827569
 20
2486.962168973786
 30
0.0
 11
2346.294218275701
 21
2561.962168973796
 31
0.0
  0
LINE
  5
AC
330
1F
100
AcDbEntity
  8
0-C_ハッチ
  6
JWW_DASHED1
 62
   120
370
     5
100
AcDbLine
 10
2230.175285997989
 20
2488.269643567283
 30
0.0
 11
2303.86781140449
 21
2561.962168973782
 31
0.0
  0
LINE
  5
AD
330
1F
100
AcDbEntity
  8
0-C_ハッチ
  6
Continuous
 62
   120
370
     5
100
AcDbLine
 10
2235.724896692291
 20
2036.962168973789
 30
0.0
 11
2260.258723166174
 21
2061.495995447672
 31
0.0
  0
LINE
  5
AE
330
1F
100
AcDbEntity
  8
0-C_ハッチ
  6
Continuous
 62
   120
370
     5
100
AcDbLine
 10
2119.258723166162
 20
2395.671752405001
 30
0.0
 11
2174.549139734948
 21
2450.962168973788
 31
0.0
  0
LINE
  5
AF
330
1F
100
AcDbEntity
  8
0-C_ハッチ
  6
Continuous
 62
   120
370
     5
100
AcDbLine
 10
2119.258723166162
 20
2276.877813165653
 30
0.0
 11
2260.258723166164
 21
2417.877813165652
 31
0.0
  0
LINE
  5
B0
330
1F
100
AcDbEntity
  8
0-C_ハッチ
  6
Continuous
 62
   120
370
     5
100
AcDbLine
 10
2176.327927072644
 20
2036.962168973789
 30
0.0
 11
2260.258723166164
 21
2120.892965067309
 31
0.0
  0
LINE
  5
B1
330
1F
100
AcDbEntity
  8
0-C_ハッチ
  6
Continuous
 62
   120
370
     5
100
AcDbLine
 10
2083.258723166181
 20
2122.083873926377
 30
0.0
 11
2260.258723166164
 21
2299.08387392636
 31
0.0
  0
LINE
  5
B2
330
1F
100
AcDbEntity
  8
0-C_ハッチ
  6
Continuous
 62
   120
370
     5
100
AcDbLine
 10
2083.258723166166
 20
2062.68690430666
 30
0.0
 11
2260.258723166164
 21
2239.686904306658
 31
0.0
  0
LINE
  5
B3
330
1F
100
AcDbEntity
  8
0-C_ハッチ
  6
Continuous
 62
   120
370
     5
100
AcDbLine
 10
2116.930957452941
 20
2036.962168973789
 30
0.0
 11
2260.258723166164
 21
2180.289934687012
 31
0.0
  0
LINE
  5
B4
330
1F
100
AcDbEntity
  8
0-C_ハッチ
  6
Continuous
 62
   120
370
     5
100
AcDbLine
 10
2119.258723166163
 20
2217.480843546006
 30
0.0
 11
2260.258723166164
 21
2358.480843546007
 31
0.0
  0
LINE
  5
B5
330
1F
100
AcDbEntity
  8
0-C_ハッチ
  6
Continuous
 62
   120
370
     5
100
AcDbLine
 10
2119.258723166162
 20
2336.274782785353
 30
0.0
 11
2251.9461093546
 21
2468.96216897379
 31
0.0
  0
LINE
  5
B6
330
1F
100
AcDbEntity
  8
0-C_ハッチ
  6
Continuous
 62
   120
370
     5
100
AcDbLine
 10
2194.258723166162
 20
2470.671752405002
 30
0.0
 11
2230.175285997989
 21
2506.588315236829
 31
0.0
  0
LINE
  5
B7
330
1F
100
AcDbEntity
  8
0-C_ハッチ
  6
Continuous
 62
   120
370
     5
100
AcDbLine
 10
2083.258723166181
 20
2419.068722024723
 30
0.0
 11
2140.258723166164
 21
2476.068722024704
 31
0.0
  0
LINE
  5
B8
330
1F
100
AcDbEntity
  8
0-C_ハッチ
  6
Continuous
 62
   120
370
     5
100
AcDbLine
 10
2083.258723166164
 20
2478.465691644386
 30
0.0
 11
2112.755200495599
 21
2507.962168973791
 31
0.0
  0
LINE
  5
B9
330
1F
100
AcDbEntity
  8
0-2_柱
  6
Continuous
 62
     7
370
     9
100
AcDbLine
 10
2290.175285998007
 20
1856.962168973789
 30
0.0
 11
2128.175285998007
 21
1856.962168973789
 31
0.0
  0
LINE
  5
BA
330
1F
100
AcDbEntity
  8
0-2_柱
  6
Continuous
 62
     7
370
     9
100
AcDbLine
 10
2290.175285998007
 20
1856.962168973789
 30
0.0
 11
2452.175285998007
 21
2486.962168973789
 31
0.0
  0
LINE
  5
BB
330
1F
100
AcDbEntity
  8
0-2_柱
  6
Continuous
 62
     7
370
     9
100
AcDbLine
 10
2128.175285998007
 20
1856.962168973789
 30
0.0
 11
2128.175285998007
 21
2036.962168973789
 31
0.0
  0
LINE
  5
BC
330
1F
100
AcDbEntity
  8
0-2_柱
  6
Continuous
 62
     7
370
     9
100
AcDbLine
 10
2128.175285998007
 20
2036.962168973789
 30
0.0
 11
2290.175285998007
 21
2036.962168973789
 31
0.0
  0
LINE
  5
BD
330
1F
100
AcDbEntity
  8
0-2_柱
  6
Continuous
 62
     7
370
     9
100
AcDbLine
 10
2290.175285998007
 20
2036.962168973789
 30
0.0
 11
2128.175285998007
 21
1856.962168973789
 31
0.0
  0
LINE
  5
BE
330
1F
100
AcDbEntity
  8
0-C_ハッチ
  6
JWW_DASHED1
 62
   120
370
     5
100
AcDbLine
 10
2072.689163484992
 20
2036.962168973789
 30
0.0
 11
2080.258723166166
 21
2044.531728654963
 31
0.0
  0
LINE
  5
BF
330
1F
100
AcDbEntity
  8
0-C_ハッチ
  6
JWW_DASHED1
 62
   120
370
     5
100
AcDbLine
 10
2030.262756613779
 20
2036.962168973777
 30
0.0
 11
2080.258723166176
 21
2086.958135526174
 31
0.0
  0
LINE
  5
C0
330
1F
100
AcDbEntity
  8
0-C_ハッチ
  6
JWW_DASHED1
 62
   120
370
     5
100
AcDbLine
 10
1987.836349742583
 20
2036.962168973781
 30
0.0
 11
2059.836349742582
 21
2108.96216897378
 31
0.0
  0
LINE
  5
C1
330
1F
100
AcDbEntity
  8
0-C_ハッチ
  6
JWW_DASHED1
 62
   120
370
     5
100
AcDbLine
 10
1945.409942871387
 20
2036.962168973784
 30
0.0
 11
2017.409942871386
 21
2108.962168973783
 31
0.0
  0
LINE
  5
C2
330
1F
100
AcDbEntity
  8
0-C_ハッチ
  6
JWW_DASHED1
 62
   120
370
     5
100
AcDbLine
 10
1902.98353600019
 20
2036.962168973788
 30
0.0
 11
1974.98353600019
 21
2108.962168973787
 31
0.0
  0
LINE
  5
C3
330
1F
100
AcDbEntity
  8
0-C_ハッチ
  6
JWW_DASHED1
 62
   120
370
     5
100
AcDbLine
 10
1860.557129128994
 20
2036.962168973792
 30
0.0
 11
1932.557129128993
 21
2108.962168973791
 31
0.0
  0
LINE
  5
C4
330
1F
100
AcDbEntity
  8
0-C_ハッチ
  6
JWW_DASHED1
 62
   120
370
     5
100
AcDbLine
 10
1818.130722257798
 20
2036.962168973796
 30
0.0
 11
1890.130722257797
 21
2108.962168973795
 31
0.0
  0
LINE
  5
C5
330
1F
100
AcDbEntity
  8
0-C_ハッチ
  6
JWW_DASHED1
 62
   120
370
     5
100
AcDbLine
 10
1775.704315386648
 20
2036.962168973791
 30
0.0
 11
1847.70431538663
 21
2108.962168973773
 31
0.0
  0
LINE
  5
C6
330
1F
100
AcDbEntity
  8
0-C_ハッチ
  6
JWW_DASHED1
 62
   120
370
     5
100
AcDbLine
 10
1733.277908515436
 20
2036.962168973779
 30
0.0
 11
1805.277908515434
 21
2108.962168973777
 31
0.0
  0
LINE
  5
C7
330
1F
100
AcDbEntity
  8
0-4_枠
  6
Continuous
 62
    92
370
    13
100
AcDbLine
 10
-2120.421637479532
 20
2507.962168973791
 30
0.0
 11
-2063.421637479531
 21
2507.962168973791
 31
0.0
  0
LINE
  5
C8
330
1F
100
AcDbEntity
  8
0-4_枠
  6
Continuous
 62
    92
370
    13
100
AcDbLine
 10
-2060.421637479532
 20
2036.962168973789
 30
0.0
 11
-2060.421637479532
 21
2162.962168973789
 31
0.0
  0
LINE
  5
C9
330
1F
100
AcDbEntity
  8
0-4_枠
  6
Continuous
 62
    92
370
    13
100
AcDbLine
 10
-2120.421637479532
 20
2450.96216897379
 30
0.0
 11
-2120.421637479532
 21
2510.96216897379
 31
0.0
  0
LINE
  5
CA
330
1F
100
AcDbEntity
  8
0-4_枠
  6
Continuous
 62
    92
370
    13
100
AcDbLine
 10
-2174.421637479531
 20
2450.96216897379
 30
0.0
 11
-2174.421637479531
 21
2510.96216897379
 31
0.0
  0
LINE
  5
CB
330
1F
100
AcDbEntity
  8
0-4_枠
  6
Continuous
 62
    92
370
    13
100
AcDbLine
 10
-2120.421637479532
 20
2450.96216897379
 30
0.0
 11
-2174.421637479531
 21
2450.96216897379
 31
0.0
  0
LINE
  5
CC
330
1F
100
AcDbEntity
  8
0-4_枠
  6
Continuous
 62
    92
370
    13
100
AcDbLine
 10
-2210.421637479532
 20
2468.96216897379
 30
0.0
 11
-2240.421637479532
 21
2468.96216897379
 31
0.0
  0
LINE
  5
CD
330
1F
100
AcDbEntity
  8
0-4_枠
  6
Continuous
 62
    92
370
    13
100
AcDbLine
 10
-2210.421637479532
 20
2468.96216897379
 30
0.0
 11
-2210.421637479532
 21
2510.96216897379
 31
0.0
  0
LINE
  5
CE
330
1F
100
AcDbEntity
  8
0-4_枠
  6
Continuous
 62
    92
370
    13
100
AcDbLine
 10
-2174.421637479531
 20
2510.96216897379
 30
0.0
 11
-2210.421637479532
 21
2510.96216897379
 31
0.0
  0
LINE
  5
CF
330
1F
100
AcDbEntity
  8
0-4_枠
  6
Continuous
 62
    92
370
    13
100
AcDbLine
 10
-2120.421637479532
 20
2510.96216897379
 30
0.0
 11
-2060.421637479532
 21
2510.96216897379
 31
0.0
  0
LINE
  5
D0
330
1F
100
AcDbEntity
  8
0-4_枠
  6
Continuous
 62
    92
370
    13
100
AcDbLine
 10
-2060.421637479532
 20
2510.96216897379
 30
0.0
 11
-2060.421637479532
 21
2408.962168973788
 31
0.0
  0
LINE
  5
D1
330
1F
100
AcDbEntity
  8
0-4_枠
  6
Continuous
 62
    92
370
    13
100
AcDbLine
 10
-2063.421637479531
 20
2507.962168973791
 30
0.0
 11
-2063.421637479531
 21
2411.962168973787
 31
0.0
  0
LINE
  5
D2
330
1F
100
AcDbEntity
  8
0-4_枠
  6
Continuous
 62
    92
370
    13
100
AcDbLine
 10
-2096.42163747953
 20
2408.962168973788
 30
0.0
 11
-2060.421637479532
 21
2408.962168973788
 31
0.0
  0
LINE
  5
D3
330
1F
100
AcDbEntity
  8
0-4_枠
  6
Continuous
 62
    92
370
    13
100
AcDbLine
 10
-2099.421637479531
 20
2411.962168973787
 30
0.0
 11
-2063.421637479531
 21
2411.962168973787
 31
0.0
  0
LINE
  5
D4
330
1F
100
AcDbEntity
  8
0-4_枠
  6
Continuous
 62
    92
370
    13
100
AcDbLine
 10
-2096.42163747953
 20
2408.962168973788
 30
0.0
 11
-2096.42163747953
 21
2162.962168973789
 31
0.0
  0
LINE
  5
D5
330
1F
100
AcDbEntity
  8
0-4_枠
  6
Continuous
 62
    92
370
    13
100
AcDbLine
 10
-2099.421637479531
 20
2411.962168973787
 30
0.0
 11
-2099.421637479531
 21
2159.962168973788
 31
0.0
  0
LINE
  5
D6
330
1F
100
AcDbEntity
  8
0-4_枠
  6
Continuous
 62
    92
370
    13
100
AcDbLine
 10
-2096.42163747953
 20
2162.962168973789
 30
0.0
 11
-2060.421637479532
 21
2162.962168973789
 31
0.0
  0
LINE
  5
D7
330
1F
100
AcDbEntity
  8
0-4_枠
  6
Continuous
 62
    92
370
    13
100
AcDbLine
 10
-2099.421637479531
 20
2159.962168973788
 30
0.0
 11
-2063.421637479531
 21
2159.962168973788
 31
0.0
  0
LINE
  5
D8
330
1F
100
AcDbEntity
  8
0-4_枠
  6
Continuous
 62
    92
370
    13
100
AcDbLine
 10
-2240.421637479532
 20
2036.962168973789
 30
0.0
 11
-2060.421637479532
 21
2036.962168973789
 31
0.0
  0
LINE
  5
D9
330
1F
100
AcDbEntity
  8
0-4_枠
  6
Continuous
 62
    92
370
    13
100
AcDbLine
 10
-2240.421637479532
 20
2468.96216897379
 30
0.0
 11
-2240.421637479532
 21
2036.962168973789
 31
0.0
  0
LINE
  5
DA
330
1F
100
AcDbEntity
  8
0-4_枠
  6
Continuous
 62
    92
370
    13
100
AcDbLine
 10
-2063.421637479531
 20
2036.962168973789
 30
0.0
 11
-2063.421637479531
 21
2159.962168973788
 31
0.0
  0
LINE
  5
DB
330
1F
100
AcDbEntity
  8
0-C_ハッチ
  6
Continuous
 62
   120
370
     5
100
AcDbLine
 10
-2240.421637479532
 20
2356.671752405002
 30
0.0
 11
-2146.131220910747
 21
2450.962168973788
 31
0.0
  0
LINE
  5
DC
330
1F
100
AcDbEntity
  8
0-C_ハッチ
  6
Continuous
 62
   120
370
     5
100
AcDbLine
 10
-2237.421637479514
 20
2122.083873926377
 30
0.0
 11
-2099.421637479531
 21
2260.083873926361
 31
0.0
  0
LINE
  5
DD
330
1F
100
AcDbEntity
  8
0-C_ハッチ
  6
Continuous
 62
   120
370
     5
100
AcDbLine
 10
-2240.421637479532
 20
2178.480843546008
 30
0.0
 11
-2099.421637479531
 21
2319.480843546008
 31
0.0
  0
LINE
  5
DE
330
1F
100
AcDbEntity
  8
0-C_ハッチ
  6
Continuous
 62
   120
370
     5
100
AcDbLine
 10
-2066.337281671397
 20
2411.962168973787
 30
0.0
 11
-2063.421637479531
 21
2414.877813165653
 31
0.0
  0
LINE
  5
DF
330
1F
100
AcDbEntity
  8
0-C_ハッチ
  6
Continuous
 62
   120
370
     5
100
AcDbLine
 10
-2240.421637479532
 20
2237.877813165655
 30
0.0
 11
-2099.421637479531
 21
2378.877813165655
 31
0.0
  0
LINE
  5
E0
330
1F
100
AcDbEntity
  8
0-C_ハッチ
  6
Continuous
 62
   120
370
     5
100
AcDbLine
 10
-2203.749403192755
 20
2036.962168973789
 30
0.0
 11
-2080.749403192756
 21
2159.962168973788
 31
0.0
  0
LINE
  5
E1
330
1F
100
AcDbEntity
  8
0-C_ハッチ
  6
Continuous
 62
   120
370
     5
100
AcDbLine
 10
-2144.352433573051
 20
2036.962168973789
 30
0.0
 11
-2063.421637479531
 21
2117.892965067309
 31
0.0
  0
LINE
  5
E2
330
1F
100
AcDbEntity
  8
0-C_ハッチ
  6
Continuous
 62
   120
370
     5
100
AcDbLine
 10
-2084.955463953405
 20
2036.962168973789
 30
0.0
 11
-2063.421637479531
 21
2058.495995447662
 31
0.0
  0
LINE
  5
E3
330
1F
100
AcDbEntity
  8
0-C_ハッチ
  6
Continuous
 62
   120
370
     5
100
AcDbLine
 10
-2210.338200311357
 20
2505.549128812534
 30
0.0
 11
-2204.925160150096
 21
2510.96216897379
 31
0.0
  0
LINE
  5
E4
330
1F
100
AcDbEntity
  8
0-C_ハッチ
  6
Continuous
 62
   120
370
     5
100
AcDbLine
 10
-2237.421637479514
 20
2419.068722024723
 30
0.0
 11
-2174.421637479531
 21
2482.068722024705
 31
0.0
  0
LINE
  5
E5
330
1F
100
AcDbEntity
  8
0-C_ハッチ
  6
Continuous
 62
   120
370
     5
100
AcDbLine
 10
-2240.421637479532
 20
2297.274782785355
 30
0.0
 11
-2063.421637479531
 21
2474.274782785354
 31
0.0
  0
LINE
  5
E6
330
1F
100
AcDbEntity
  8
0-C_ハッチ
  6
Continuous
 62
   120
370
     5
100
AcDbLine
 10
-2120.421637479532
 20
2476.671752405004
 30
0.0
 11
-2089.131220910745
 21
2507.962168973791
 31
0.0
  0
LINE
  5
E7
330
1F
100
AcDbEntity
  8
0-3_仕上げ
  6
Continuous
 62
    40
370
    15
100
AcDbLine
 10
2590.175285997989
 20
2486.962168973789
 30
0.0
 11
2230.258723166164
 21
2486.962168973789
 31
0.0
  0
LINE
  5
E8
330
1F
100
AcDbEntity
  8
0-3_仕上げ
  6
Continuous
 62
    40
370
    15
100
AcDbLine
 10
2590.175285997989
 20
2561.962168973789
 30
0.0
 11
2230.258723166164
 21
2561.962168973789
 31
0.0
  0
LINE
  5
E9
330
1F
100
AcDbEntity
  8
0-3_仕上げ
  6
Continuous
 62
    40
370
    15
100
AcDbLine
 10
2230.258723166164
 20
2486.962168973789
 30
0.0
 11
2230.258723166164
 21
2561.962168973789
 31
0.0
  0
LINE
  5
EA
330
1F
100
AcDbEntity
  8
0-C_ハッチ
  6
JWW_DASHED1
 62
   120
370
     5
100
AcDbLine
 10
2230.258723166164
 20
2530.779487606657
 30
0.0
 11
2261.44140453329
 21
2561.962168973782
 31
0.0
  0
LINE
  5
EB
330
1F
100
AcDbEntity
  8
0-3_仕上げ
  6
Continuous
 62
    40
370
    15
100
AcDbLine
 10
-2570.338200311357
 20
2561.962168973789
 30
0.0
 11
-2210.421637479532
 21
2561.962168973789
 31
0.0
  0
LINE
  5
EC
330
1F
100
AcDbEntity
  8
0-3_仕上げ
  6
Continuous
 62
    40
370
    15
100
AcDbLine
 10
-2570.338200311357
 20
2486.962168973789
 30
0.0
 11
-2210.421637479532
 21
2486.962168973789
 31
0.0
  0
LINE
  5
ED
330
1F
100
AcDbEntity
  8
0-3_仕上げ
  6
Continuous
 62
    40
370
    15
100
AcDbLine
 10
-2210.421637479532
 20
2486.962168973789
 30
0.0
 11
-2210.421637479532
 21
2561.962168973789
 31
0.0
  0
LINE
  5
EE
330
1F
100
AcDbEntity
  8
0-7_金物
  6
Continuous
 62
     7
370
     9
100
AcDbLine
 10
-2126.42163747953
 20
2270.962168973788
 30
0.0
 11
-2126.42163747953
 21
2300.962168973788
 31
0.0
  0
LINE
  5
EF
330
1F
100
AcDbEntity
  8
0-7_金物
  6
Continuous
 62
     7
370
     9
100
AcDbLine
 10
-2096.42163747953
 20
2240.962168973788
 30
0.0
 11
-2078.421637479529
 21
2240.962168973788
 31
0.0
  0
LINE
  5
F0
330
1F
100
AcDbEntity
  8
0-7_金物
  6
Continuous
 62
     7
370
     9
100
AcDbLine
 10
-2078.421637479529
 20
2330.962168973788
 30
0.0
 11
-2096.42163747953
 21
2330.962168973788
 31
0.0
  0
LINE
  5
F1
330
1F
100
AcDbEntity
  8
0-7_金物
  6
Continuous
 62
     7
370
     9
100
AcDbLine
 10
-2096.42163747953
 20
2330.962168973788
 30
0.0
 11
-2096.42163747953
 21
2240.962168973788
 31
0.0
  0
LINE
  5
F2
330
1F
100
AcDbEntity
  8
0-7_金物
  6
Continuous
 62
     7
370
     9
100
AcDbLine
 10
-2096.42163747953
 20
2270.962168973788
 30
0.0
 11
-2126.42163747953
 21
2270.962168973788
 31
0.0
  0
LINE
  5
F3
330
1F
100
AcDbEntity
  8
0-7_金物
  6
Continuous
 62
     7
370
     9
100
AcDbLine
 10
-2126.42163747953
 20
2300.962168973788
 30
0.0
 11
-2096.42163747953
 21
2300.962168973788
 31
0.0
  0
ARC
  5
F4
330
1F
100
AcDbEntity
  8
0-7_金物
  6
Continuous
 62
     7
370
     9
100
AcDbCircle
 10
-2244.17163747953
 20
2285.962168973788
 30
0.0
 40
171.7499999999977
100
AcDbArc
 50
344.8107132628169
 51
15.1892867371831
  0
LINE
  5
F5
330
1F
100
AcDbEntity
  8
0-7_金物
  6
Continuous
 62
     7
370
     9
100
AcDbLine
 10
2146.258723166162
 20
2270.962168973788
 30
0.0
 11
2146.258723166162
 21
2300.962168973788
 31
0.0
  0
LINE
  5
F6
330
1F
100
AcDbEntity
  8
0-7_金物
  6
Continuous
 62
     7
370
     9
100
AcDbLine
 10
2116.258723166162
 20
2240.962168973788
 30
0.0
 11
2098.258723166161
 21
2240.962168973788
 31
0.0
  0
LINE
  5
F7
330
1F
100
AcDbEntity
  8
0-7_金物
  6
Continuous
 62
     7
370
     9
100
AcDbLine
 10
2098.258723166161
 20
2330.962168973788
 30
0.0
 11
2116.258723166162
 21
2330.962168973788
 31
0.0
  0
LINE
  5
F8
330
1F
100
AcDbEntity
  8
0-7_金物
  6
Continuous
 62
     7
370
     9
100
AcDbLine
 10
2116.258723166162
 20
2330.962168973788
 30
0.0
 11
2116.258723166162
 21
2240.962168973788
 31
0.0
  0
LINE
  5
F9
330
1F
100
AcDbEntity
  8
0-7_金物
  6
Continuous
 62
     7
370
     9
100
AcDbLine
 10
2116.258723166162
 20
2270.962168973788
 30
0.0
 11
2146.258723166162
 21
2270.962168973788
 31
0.0
  0
LINE
  5
FA
330
1F
100
AcDbEntity
  8
0-7_金物
  6
Continuous
 62
     7
370
     9
100
AcDbLine
 10
2146.258723166162
 20
2300.962168973788
 30
0.0
 11
2116.258723166162
 21
2300.962168973788
 31
0.0
  0
ARC
  5
FB
330
1F
100
AcDbEntity
  8
0-7_金物
  6
Continuous
 62
     7
370
     9
100
AcDbCircle
 10
2264.008723166162
 20
2285.962168973788
 30
0.0
 40
171.7499999999977
100
AcDbArc
 50
164.8107132628169
 51
195.1892867371831
  0
LINE
  5
FC
330
1F
100
AcDbEntity
  8
0-7_金物
  6
Continuous
 62
     7
370
     9
100
AcDbLine
 10
2278.258386648004
 20
2196.369776593615
 30
0.0
 11
2278.258386648004
 21
2376.369628129721
 31
0.0
  0
LINE
  5
FD
330
1F
100
AcDbEntity
  8
0-7_金物
  6
Continuous
 62
     7
370
     9
100
AcDbLine
 10
2290.258723166164
 20
2376.369628129721
 30
0.0
 11
2278.258386648004
 21
2376.369628129721
 31
0.0
  0
LINE
  5
FE
330
1F
100
AcDbEntity
  8
0-7_金物
  6
Continuous
 62
     7
370
     9
100
AcDbLine
 10
2290.258723166164
 20
2196.369776593615
 30
0.0
 11
2278.258386648004
 21
2196.369776593615
 31
0.0
  0
LINE
  5
FF
330
1F
100
AcDbEntity
  8
0-7_金物
  6
Continuous
 62
     7
370
     9
100
AcDbLine
 10
2290.258723166164
 20
2196.369776593615
 30
0.0
 11
2290.258723166164
 21
2376.369628129721
 31
0.0
  0
LINE
  5
100
330
1F
100
AcDbEntity
  8
0-7_金物
  6
Continuous
 62
     7
370
     9
100
AcDbLine
 10
2278.258386648004
 20
2226.369875569545
 30
0.0
 11
2266.258792449314
 21
2226.369875569545
 31
0.0
  0
LINE
  5
101
330
1F
100
AcDbEntity
  8
0-7_金物
  6
Continuous
 62
     7
370
     9
100
AcDbLine
 10
2278.258386648004
 20
2346.369529153792
 30
0.0
 11
2266.258792449314
 21
2346.369529153792
 31
0.0
  0
LINE
  5
102
330
1F
100
AcDbEntity
  8
0-7_金物
  6
Continuous
 62
     7
370
     9
100
AcDbLine
 10
2266.258792449314
 20
2226.369875569545
 30
0.0
 11
2266.258792449314
 21
2346.369529153792
 31
0.0
  0
LINE
  5
103
330
1F
100
AcDbEntity
  8
0-7_金物
  6
Continuous
 62
     7
370
     9
100
AcDbLine
 10
2266.258792449314
 20
2340.370103214181
 30
0.0
 11
2260.216633652332
 21
2340.370103214181
 31
0.0
  0
LINE
  5
104
330
1F
100
AcDbEntity
  8
0-7_金物
  6
Continuous
 62
     7
370
     9
100
AcDbLine
 10
2266.258792449314
 20
2232.370043828622
 30
0.0
 11
2260.216633652332
 21
2232.370043828622
 31
0.0
  0
LINE
  5
105
330
1F
100
AcDbEntity
  8
0-6_扉
  6
Continuous
 62
   200
370
    20
100
AcDbLine
 10
9.918542843316658
 20
2375.962168973788
 30
0.0
 11
9.918542843316658
 21
2195.962168973788
 31
0.0
  0
LINE
  5
106
330
1F
100
AcDbEntity
  8
0-6_扉
  6
Continuous
 62
   200
370
    20
100
AcDbLine
 10
-1124.251547318106
 20
2375.962168973788
 30
0.0
 11
-1124.251547318106
 21
2195.962168973788
 31
0.0
  0
LINE
  5
107
330
1F
100
AcDbEntity
  8
0-6_扉
  6
Continuous
 62
   200
370
    20
100
AcDbLine
 10
1144.088633004739
 20
2375.962168973788
 30
0.0
 11
1144.088633004739
 21
2195.962168973788
 31
0.0
  0
LINE
  5
108
330
1F
100
AcDbEntity
  8
0-3_仕上げ
  6
Continuous
 62
    40
370
    15
100
AcDbLine
 10
2080.258723166164
 20
2108.962168973789
 30
0.0
 11
1681.218501188195
 21
2108.962168973789
 31
0.0
  0
LINE
  5
109
330
1F
100
AcDbEntity
  8
0-3_仕上げ
  6
Continuous
 62
    40
370
    15
100
AcDbLine
 10
2590.175285997989
 20
1781.962168973789
 30
0.0
 11
1681.218501188195
 21
1781.962168973789
 31
0.0
  0
LINE
  5
10A
330
1F
100
AcDbEntity
  8
0-C_ハッチ
  6
JWW_DASHED1
 62
   120
370
     5
100
AcDbLine
 10
1681.218501188195
 20
2069.755575388937
 30
0.0
 11
1720.42509477304
 21
2108.962168973782
 31
0.0
  0
LINE
  5
10B
330
1F
100
AcDbEntity
  8
0-3_仕上げ
  6
Continuous
 62
    40
370
    15
100
AcDbLine
 10
2080.258723166164
 20
2036.962168973789
 30
0.0
 11
1681.218501188195
 21
2036.962168973789
 31
0.0
  0
LINE
  5
10C
330
1F
100
AcDbEntity
  8
0-3_仕上げ
  6
Continuous
 62
    40
370
    15
100
AcDbLine
 10
2590.175285997989
 20
1856.962168973789
 30
0.0
 11
1681.218501188195
 21
1856.962168973789
 31
0.0
  0
LINE
  5
10D
330
1F
100
AcDbEntity
  8
0-C_ハッチ
  6
JWW_DASHED1
 62
   120
370
     5
100
AcDbLine
 10
1690.851501644246
 20
2036.962168973789
 30
0.0
 11
1762.851501644236
 21
2108.962168973779
 31
0.0
  0
LINE
  5
10E
330
1F
100
AcDbEntity
  8
0-C_ハッチ
  6
JWW_DASHED1
 62
   120
370
     5
100
AcDbLine
 10
1449.193912577247
 20
2036.962168973793
 30
0.0
 11
1521.193912577246
 21
2108.962168973791
 31
0.0
  0
LINE
  5
10F
330
1F
100
AcDbEntity
  8
0-C_ハッチ
  6
JWW_DASHED1
 62
   120
370
     5
100
AcDbLine
 10
1406.767505706051
 20
2036.962168973796
 30
0.0
 11
1478.76750570605
 21
2108.962168973795
 31
0.0
  0
LINE
  5
110
330
1F
100
AcDbEntity
  8
0-C_ハッチ
  6
JWW_DASHED1
 62
   120
370
     5
100
AcDbLine
 10
1364.341098834854
 20
2036.9621689738
 30
0.0
 11
1436.341098834853
 21
2108.962168973799
 31
0.0
  0
LINE
  5
111
330
1F
100
AcDbEntity
  8
0-C_ハッチ
  6
JWW_DASHED1
 62
   120
370
     5
100
AcDbLine
 10
1321.914691963712
 20
2036.962168973803
 30
0.0
 11
1393.914691963695
 21
2108.962168973786
 31
0.0
  0
LINE
  5
112
330
1F
100
AcDbEntity
  8
0-C_ハッチ
  6
JWW_DASHED1
 62
   120
370
     5
100
AcDbLine
 10
1279.488285092489
 20
2036.96216897378
 30
0.0
 11
1351.488285092488
 21
2108.962168973779
 31
0.0
  0
LINE
  5
113
330
1F
100
AcDbEntity
  8
0-C_ハッチ
  6
JWW_DASHED1
 62
   120
370
     5
100
AcDbLine
 10
1237.061878221293
 20
2036.962168973784
 30
0.0
 11
1309.061878221292
 21
2108.962168973783
 31
0.0
  0
LINE
  5
114
330
1F
100
AcDbEntity
  8
0-C_ハッチ
  6
JWW_DASHED1
 62
   120
370
     5
100
AcDbLine
 10
1194.635471350097
 20
2036.962168973787
 30
0.0
 11
1266.635471350096
 21
2108.962168973787
 31
0.0
  0
LINE
  5
115
330
1F
100
AcDbEntity
  8
0-C_ハッチ
  6
JWW_DASHED1
 62
   120
370
     5
100
AcDbLine
 10
1152.2090644789
 20
2036.962168973791
 30
0.0
 11
1224.2090644789
 21
2108.962168973791
 31
0.0
  0
LINE
  5
116
330
1F
100
AcDbEntity
  8
0-C_ハッチ
  6
JWW_DASHED1
 62
   120
370
     5
100
AcDbLine
 10
1534.04672631964
 20
2036.962168973784
 30
0.0
 11
1561.218501188195
 21
2064.133943842339
 31
0.0
  0
LINE
  5
117
330
1F
100
AcDbEntity
  8
0-C_ハッチ
  6
JWW_DASHED1
 62
   120
370
     5
100
AcDbLine
 10
1491.620319448443
 20
2036.962168973788
 30
0.0
 11
1561.218501188195
 21
2106.56035071354
 31
0.0
  0
LINE
  5
118
330
1F
100
AcDbEntity
  8
0-3_仕上げ
  6
Continuous
 62
    40
370
    15
100
AcDbLine
 10
1561.218501188195
 20
2108.962168973789
 30
0.0
 11
1144.088633004739
 21
2108.962168973789
 31
0.0
  0
LINE
  5
119
330
1F
100
AcDbEntity
  8
0-C_ハッチ
  6
JWW_DASHED1
 62
   120
370
     5
100
AcDbLine
 10
1144.088633004739
 20
2071.26814437083
 30
0.0
 11
1181.782657607703
 21
2108.962168973795
 31
0.0
  0
LINE
  5
11A
330
1F
100
AcDbEntity
  8
0-3_仕上げ
  6
Continuous
 62
    40
370
    15
100
AcDbLine
 10
1561.218501188195
 20
2036.962168973789
 30
0.0
 11
1144.088633004739
 21
2036.962168973789
 31
0.0
  0
LINE
  5
11B
330
1F
100
AcDbEntity
  8
0-3_仕上げ
  6
Continuous
 62
    40
370
    15
100
AcDbLine
 10
1561.218501188195
 20
1856.962168973789
 30
0.0
 11
1144.088633004739
 21
1856.962168973789
 31
0.0
  0
LINE
  5
11C
330
1F
100
AcDbEntity
  8
0-3_仕上げ
  6
Continuous
 62
    40
370
    15
100
AcDbLine
 10
1561.218501188195
 20
1781.962168973789
 30
0.0
 11
1144.088633004739
 21
1781.962168973789
 31
0.0
  0
LINE
  5
11D
330
1F
100
AcDbEntity
  8
0-4_枠
  6
Continuous
 62
    92
370
    13
100
AcDbLine
 10
967.0886330047402
 20
2153.962168973789
 30
0.0
 11
967.0886330047402
 21
1835.962168973789
 31
0.0
  0
LINE
  5
11E
330
1F
100
AcDbEntity
  8
0-4_枠
  6
Continuous
 62
    92
370
    13
100
AcDbLine
 10
964.0886330047362
 20
2156.962168973789
 30
0.0
 11
964.0886330047362
 21
1832.962168973789
 31
0.0
  0
LINE
  5
11F
330
1F
100
AcDbEntity
  8
0-4_枠
  6
Continuous
 62
    92
370
    13
100
AcDbLine
 10
1018.088633004742
 20
2153.962168973789
 30
0.0
 11
967.0886330047402
 21
2153.962168973789
 31
0.0
  0
LINE
  5
120
330
1F
100
AcDbEntity
  8
0-4_枠
  6
Continuous
 62
    92
370
    13
100
AcDbLine
 10
1018.088633004742
 20
2156.962168973789
 30
0.0
 11
964.0886330047362
 21
2156.962168973789
 31
0.0
  0
LINE
  5
121
330
1F
100
AcDbEntity
  8
0-4_枠
  6
Continuous
 62
    92
370
    13
100
AcDbLine
 10
1141.088633004742
 20
2096.962168973789
 30
0.0
 11
1141.088633004742
 21
2153.962168973789
 31
0.0
  0
LINE
  5
122
330
1F
100
AcDbEntity
  8
0-4_枠
  6
Continuous
 62
    92
370
    13
100
AcDbLine
 10
1090.088633004741
 20
2153.962168973789
 30
0.0
 11
1141.088633004742
 21
2153.962168973789
 31
0.0
  0
LINE
  5
123
330
1F
100
AcDbEntity
  8
0-4_枠
  6
Continuous
 62
    92
370
    13
100
AcDbLine
 10
1090.088633004741
 20
2156.962168973789
 30
0.0
 11
1144.088633004739
 21
2156.962168973789
 31
0.0
  0
LINE
  5
124
330
1F
100
AcDbEntity
  8
0-4_枠
  6
Continuous
 62
    92
370
    13
100
AcDbLine
 10
1144.088633004739
 20
1832.962168973789
 30
0.0
 11
1144.088633004739
 21
2156.962168973789
 31
0.0
  0
LINE
  5
125
330
1F
100
AcDbEntity
  8
0-4_枠
  6
Continuous
 62
    92
370
    13
100
AcDbLine
 10
1141.088633004742
 20
2096.962168973789
 30
0.0
 11
1144.088633004739
 21
2096.962168973789
 31
0.0
  0
LINE
  5
126
330
1F
100
AcDbEntity
  8
0-4_枠
  6
Continuous
 62
    92
370
    13
100
AcDbLine
 10
1018.088633004742
 20
2141.962168973789
 30
0.0
 11
1090.088633004741
 21
2141.962168973789
 31
0.0
  0
LINE
  5
127
330
1F
100
AcDbEntity
  8
0-4_枠
  6
Continuous
 62
    92
370
    13
100
AcDbLine
 10
1090.088633004741
 20
2141.962168973789
 30
0.0
 11
1090.088633004741
 21
2156.962168973789
 31
0.0
  0
LINE
  5
128
330
1F
100
AcDbEntity
  8
0-4_枠
  6
Continuous
 62
    92
370
    13
100
AcDbLine
 10
1018.088633004742
 20
2141.962168973789
 30
0.0
 11
1018.088633004742
 21
2156.962168973789
 31
0.0
  0
MTEXT
  5
129
330
1F
100
AcDbEntity
  8
0-B_寸法
  6
Continuous
 62
     7
370
   211
100
AcDbMText
 10
907.6549119951084
 20
2063.574232816245
 30
0.0
 40
91.44
 41
180.0
 46
0.0
 71
     7
 72
     1
  1
{\fＭＳ ゴシック|b0|i0|c128|p49;6.5}
 11
6.123031769111886E-17
 21
1.0
 31
0.0
 73
     1
 44
1.0
  0
LWPOLYLINE
  5
12A
330
1F
100
AcDbEntity
  8
0-B_寸法
  6
Continuous
 62
     7
370
     9
100
AcDbPolyline
 90
        4
 70
     1
 43
3.0
 10
781.360418431524
 20
2156.962168973789
 42
0.4142135623731
 10
779.860418431524
 20
2158.462168973789
 42
0.4142135623731
 10
778.360418431524
 20
2156.962168973789
 42
0.4142135623731
 10
779.860418431524
 20
2155.462168973789
 42
0.4142135623731
  0
LINE
  5
12B
330
1F
100
AcDbEntity
  8
0-B_寸法
  6
Continuous
 62
   120
370
     5
100
AcDbLine
 10
779.860418431524
 20
2375.964395932193
 30
0.0
 11
779.860418431524
 21
1832.962168973789
 31
0.0
  0
LWPOLYLINE
  5
12C
330
1F
100
AcDbEntity
  8
0-B_寸法
  6
Continuous
 62
     7
370
     9
100
AcDbPolyline
 90
        4
 70
     1
 43
3.0
 10
781.360418431524
 20
2195.963653612725
 42
0.4142135623731
 10
779.860418431524
 20
2197.463653612725
 42
0.4142135623731
 10
778.360418431524
 20
2195.963653612725
 42
0.4142135623731
 10
779.860418431524
 20
2194.463653612725
 42
0.4142135623731
  0
LWPOLYLINE
  5
12D
330
1F
100
AcDbEntity
  8
0-B_寸法
  6
Continuous
 62
     7
370
     9
100
AcDbPolyline
 90
        4
 70
     1
 43
3.0
 10
781.360418431524
 20
2375.964395932193
 42
0.4142135623731
 10
779.860418431524
 20
2377.464395932193
 42
0.4142135623731
 10
778.360418431524
 20
2375.964395932193
 42
0.4142135623731
 10
779.860418431524
 20
2374.464395932193
 42
0.4142135623731
  0
MTEXT
  5
12E
330
1F
100
AcDbEntity
  8
0-B_寸法
  6
Continuous
 62
     7
370
     0
100
AcDbMText
 10
764.8603689435616
 20
2211.684826477484
 30
0.0
 40
91.44
 41
120.0
 46
0.0
 71
     7
 72
     1
  1
{\fＭＳ ゴシック|b0|i0|c128|p49;30}
 11
6.123031769111886E-17
 21
1.0
 31
0.0
 73
     1
 44
1.0
  0
LINE
  5
12F
330
1F
100
AcDbEntity
  8
0-2_柱
  6
Continuous
 62
     7
370
     9
100
AcDbLine
 10
1306.431525403162
 20
2036.962168973789
 30
0.0
 11
1144.431525403162
 21
1856.962168973789
 31
0.0
  0
LINE
  5
130
330
1F
100
AcDbEntity
  8
0-2_柱
  6
Continuous
 62
     7
370
     9
100
AcDbLine
 10
1306.431525403162
 20
2036.962168973789
 30
0.0
 11
1306.431525403162
 21
1856.962168973789
 31
0.0
  0
LINE
  5
131
330
1F
100
AcDbEntity
  8
0-2_柱
  6
Continuous
 62
     7
370
     9
100
AcDbLine
 10
1144.431525403162
 20
2036.962168973789
 30
0.0
 11
1306.431525403162
 21
2036.962168973789
 31
0.0
  0
LINE
  5
132
330
1F
100
AcDbEntity
  8
0-2_柱
  6
Continuous
 62
     7
370
     9
100
AcDbLine
 10
1144.431525403162
 20
1856.962168973789
 30
0.0
 11
1144.431525403162
 21
2036.962168973789
 31
0.0
  0
LINE
  5
133
330
1F
100
AcDbEntity
  8
0-2_柱
  6
Continuous
 62
     7
370
     9
100
AcDbLine
 10
1306.431525403162
 20
1856.962168973789
 30
0.0
 11
1144.431525403162
 21
1856.962168973789
 31
0.0
  0
LINE
  5
134
330
1F
100
AcDbEntity
  8
0-3_仕上げ
  6
Continuous
 62
    40
370
    15
100
AcDbLine
 10
1144.088633004739
 20
1781.962168973789
 30
0.0
 11
1144.088633004739
 21
1856.962168973789
 31
0.0
  0
LINE
  5
135
330
1F
100
AcDbEntity
  8
0-C_ハッチ
  6
Continuous
 62
   120
370
     5
100
AcDbLine
 10
1039.169106527459
 20
1892.962168973789
 30
0.0
 11
1144.08863300475
 21
1997.881695451079
 31
0.0
  0
LINE
  5
136
330
1F
100
AcDbEntity
  8
0-4_枠
  6
Continuous
 62
    92
370
    13
100
AcDbLine
 10
1078.088633004741
 20
1892.962168973789
 30
0.0
 11
1078.088633004741
 21
1832.962168973789
 31
0.0
  0
LINE
  5
137
330
1F
100
AcDbEntity
  8
0-4_枠
  6
Continuous
 62
    92
370
    13
100
AcDbLine
 10
1078.088633004741
 20
1892.962168973789
 30
0.0
 11
1024.088633004736
 21
1892.962168973789
 31
0.0
  0
LINE
  5
138
330
1F
100
AcDbEntity
  8
0-4_枠
  6
Continuous
 62
    92
370
    13
100
AcDbLine
 10
1024.088633004736
 20
1832.962168973789
 30
0.0
 11
1024.088633004736
 21
1892.962168973789
 31
0.0
  0
LINE
  5
139
330
1F
100
AcDbEntity
  8
0-C_ハッチ
  6
Continuous
 62
   120
370
     5
100
AcDbLine
 10
967.0886330047402
 20
1939.67563469042
 30
0.0
 11
1141.088633004735
 21
2113.675634690414
 31
0.0
  0
LINE
  5
13A
330
1F
100
AcDbEntity
  8
0-C_ハッチ
  6
Continuous
 62
   120
370
     5
100
AcDbLine
 10
967.0886330047573
 20
1880.27866507079
 30
0.0
 11
1144.088633004736
 21
2057.278665070767
 31
0.0
  0
LINE
  5
13B
330
1F
100
AcDbEntity
  8
0-C_ハッチ
  6
Continuous
 62
   120
370
     5
100
AcDbLine
 10
982.16910652745
 20
1835.962168973786
 30
0.0
 11
1024.088633004736
 21
1877.881695451068
 31
0.0
  0
LINE
  5
13C
330
1F
100
AcDbEntity
  8
0-C_ハッチ
  6
Continuous
 62
   120
370
     5
100
AcDbLine
 10
1078.088633004741
 20
1872.484725831427
 30
0.0
 11
1144.088633004736
 21
1938.484725831418
 31
0.0
  0
LINE
  5
13D
330
1F
100
AcDbEntity
  8
0-C_ハッチ
  6
Continuous
 62
   120
370
     5
100
AcDbLine
 10
1097.963045766754
 20
1832.962168973789
 30
0.0
 11
1144.088633004733
 21
1879.087756211771
 31
0.0
  0
LINE
  5
13E
330
1F
100
AcDbEntity
  8
0-4_枠
  6
Continuous
 62
    92
370
    13
100
AcDbLine
 10
1024.088633004736
 20
1835.962168973789
 30
0.0
 11
967.0886330047402
 21
1835.962168973789
 31
0.0
  0
LINE
  5
13F
330
1F
100
AcDbEntity
  8
0-4_枠
  6
Continuous
 62
    92
370
    13
100
AcDbLine
 10
1024.088633004736
 20
1832.962168973789
 30
0.0
 11
964.0886330047362
 21
1832.962168973789
 31
0.0
  0
LINE
  5
140
330
1F
100
AcDbEntity
  8
0-4_枠
  6
Continuous
 62
    92
370
    13
100
AcDbLine
 10
1144.088633004739
 20
1832.962168973789
 30
0.0
 11
1078.088633004741
 21
1832.962168973789
 31
0.0
  0
LWPOLYLINE
  5
141
330
1F
100
AcDbEntity
  8
0-B_寸法
  6
Continuous
 62
     7
370
     9
100
AcDbPolyline
 90
        4
 70
     1
 43
3.0
 10
781.360418431524
 20
1832.962168973789
 42
0.4142135623731
 10
779.860418431524
 20
1834.462168973789
 42
0.4142135623731
 10
778.360418431524
 20
1832.962168973789
 42
0.4142135623731
 10
779.860418431524
 20
1831.462168973789
 42
0.4142135623731
  0
LINE
  5
142
330
1F
100
AcDbEntity
  8
0-B_寸法
  6
Continuous
 62
   120
370
     5
100
AcDbLine
 10
930.1381696324335
 20
1832.962168973789
 30
0.0
 11
779.860418431524
 21
1832.962168973789
 31
0.0
  0
LINE
  5
143
330
1F
100
AcDbEntity
  8
0-6_扉
  6
JWW_DASHED2
 62
    40
370
    15
100
AcDbLine
 10
-2078.421637479529
 20
2375.962168973788
 30
0.0
 11
-2078.421637479529
 21
2195.962168973788
 31
0.0
  0
LINE
  5
144
330
1F
100
AcDbEntity
  8
0-6_扉
  6
JWW_DASHED2
 62
    40
370
    15
100
AcDbLine
 10
-944.2515473181062
 20
2375.962168973788
 30
0.0
 11
-944.2515473181062
 21
2195.962168973788
 31
0.0
  0
LINE
  5
145
330
1F
100
AcDbEntity
  8
0-6_扉
  6
JWW_DASHED2
 62
    40
370
    15
100
AcDbLine
 10
964.0886330047387
 20
2375.962168973788
 30
0.0
 11
964.0886330047387
 21
2195.962168973788
 31
0.0
  0
LINE
  5
146
330
1F
100
AcDbEntity
  8
0-6_扉
  6
JWW_DASHED2
 62
    40
370
    15
100
AcDbLine
 10
2098.258723166161
 20
2375.962168973788
 30
0.0
 11
2098.258723166161
 21
2195.962168973788
 31
0.0
  0
LINE
  5
147
330
1F
100
AcDbEntity
  8
0-2_柱
  6
Continuous
 62
     7
370
     9
100
AcDbLine
 10
-1286.594439716528
 20
2036.962168973789
 30
0.0
 11
-1124.594439716529
 21
1856.962168973789
 31
0.0
  0
LINE
  5
148
330
1F
100
AcDbEntity
  8
0-2_柱
  6
Continuous
 62
     7
370
     9
100
AcDbLine
 10
-1286.594439716528
 20
2036.962168973789
 30
0.0
 11
-1286.594439716528
 21
1856.962168973789
 31
0.0
  0
LINE
  5
149
330
1F
100
AcDbEntity
  8
0-2_柱
  6
Continuous
 62
     7
370
     9
100
AcDbLine
 10
-1124.594439716529
 20
2036.962168973789
 30
0.0
 11
-1286.594439716528
 21
2036.962168973789
 31
0.0
  0
LINE
  5
14A
330
1F
100
AcDbEntity
  8
0-2_柱
  6
Continuous
 62
     7
370
     9
100
AcDbLine
 10
-1124.594439716529
 20
1856.962168973789
 30
0.0
 11
-1124.594439716529
 21
2036.962168973789
 31
0.0
  0
LINE
  5
14B
330
1F
100
AcDbEntity
  8
0-2_柱
  6
Continuous
 62
     7
370
     9
100
AcDbLine
 10
-1286.594439716528
 20
1856.962168973789
 30
0.0
 11
-1124.594439716529
 21
1856.962168973789
 31
0.0
  0
LINE
  5
14C
330
1F
100
AcDbEntity
  8
0-3_仕上げ
  6
Continuous
 62
    40
370
    15
100
AcDbLine
 10
-1124.251547318105
 20
1781.962168973789
 30
0.0
 11
-1124.251547318105
 21
1856.962168973789
 31
0.0
  0
LINE
  5
14D
330
1F
100
AcDbEntity
  8
0-C_ハッチ
  6
Continuous
 62
   120
370
     5
100
AcDbLine
 10
967.0886330047471
 20
2058.46957392978
 30
0.0
 11
1050.58122804876
 21
2141.962168973789
 31
0.0
  0
LINE
  5
14E
330
1F
100
AcDbEntity
  8
0-C_ハッチ
  6
Continuous
 62
   120
370
     5
100
AcDbLine
 10
967.0886330047334
 20
2117.86654354941
 30
0.0
 11
1003.184258429109
 21
2153.962168973789
 31
0.0
  0
LINE
  5
14F
330
1F
100
AcDbEntity
  8
0-C_ハッチ
  6
Continuous
 62
   120
370
     5
100
AcDbLine
 10
967.0886330047471
 20
1999.072604310129
 30
0.0
 11
1121.978197668405
 21
2153.962168973789
 31
0.0
  0
LINE
  5
150
330
1F
100
AcDbEntity
  8
0-3_仕上げ
  6
Continuous
 62
    40
370
    15
100
AcDbLine
 10
-1124.251547318105
 20
2108.962168973789
 30
0.0
 11
-1124.251547318105
 21
2036.962168973789
 31
0.0
  0
LINE
  5
151
330
1F
100
AcDbEntity
  8
0-3_仕上げ
  6
Continuous
 62
    40
370
    15
100
AcDbLine
 10
-1439.760187066051
 20
2108.962168973789
 30
0.0
 11
-1124.251547318105
 21
2108.962168973789
 31
0.0
  0
LINE
  5
152
330
1F
100
AcDbEntity
  8
0-3_仕上げ
  6
Continuous
 62
    40
370
    15
100
AcDbLine
 10
-1439.760187066051
 20
1781.962168973789
 30
0.0
 11
-1124.251547318105
 21
1781.962168973789
 31
0.0
  0
LINE
  5
153
330
1F
100
AcDbEntity
  8
0-3_仕上げ
  6
Continuous
 62
    40
370
    15
100
AcDbLine
 10
-1439.760187066051
 20
2036.962168973789
 30
0.0
 11
-1124.251547318105
 21
2036.962168973789
 31
0.0
  0
LINE
  5
154
330
1F
100
AcDbEntity
  8
0-3_仕上げ
  6
Continuous
 62
    40
370
    15
100
AcDbLine
 10
-1439.760187066051
 20
1856.962168973789
 30
0.0
 11
-1124.251547318105
 21
1856.962168973789
 31
0.0
  0
LINE
  5
155
330
1F
100
AcDbEntity
  8
0-3_仕上げ
  6
Continuous
 62
    40
370
    15
100
AcDbLine
 10
-2570.849487036921
 20
1856.962168973789
 30
0.0
 11
-1559.760187066051
 21
1856.962168973789
 31
0.0
  0
LINE
  5
156
330
1F
100
AcDbEntity
  8
0-3_仕上げ
  6
Continuous
 62
    40
370
    15
100
AcDbLine
 10
-2570.97122197158
 20
1781.962168973789
 30
0.0
 11
-1559.760187066051
 21
1781.962168973789
 31
0.0
  0
LINE
  5
157
330
1F
100
AcDbEntity
  8
0-3_仕上げ
  6
Continuous
 62
    40
370
    15
100
AcDbLine
 10
-2060.421637479532
 20
2108.962168973789
 30
0.0
 11
-1559.760187066051
 21
2108.962168973789
 31
0.0
  0
LINE
  5
158
330
1F
100
AcDbEntity
  8
0-3_仕上げ
  6
Continuous
 62
    40
370
    15
100
AcDbLine
 10
-2060.421637479532
 20
2036.962168973789
 30
0.0
 11
-1559.760187066051
 21
2036.962168973789
 31
0.0
  0
LINE
  5
159
330
1F
100
AcDbEntity
  8
0-C_ハッチ
  6
JWW_DASHED1
 62
   120
370
     5
100
AcDbLine
 10
2581.364487166433
 20
1781.962168973793
 30
0.0
 11
2590.258723166161
 21
1790.856404973522
 31
0.0
  0
LINE
  5
15A
330
1F
100
AcDbEntity
  8
0-C_ハッチ
  6
JWW_DASHED1
 62
   120
370
     5
100
AcDbLine
 10
2538.938080295221
 20
1781.962168973781
 30
0.0
 11
2590.258723166166
 21
1833.282811844726
 31
0.0
  0
LINE
  5
15B
330
1F
100
AcDbEntity
  8
0-C_ハッチ
  6
JWW_DASHED1
 62
   120
370
     5
100
AcDbLine
 10
2496.511673424083
 20
1781.962168973789
 30
0.0
 11
2571.511673424094
 21
1856.9621689738
 31
0.0
  0
LINE
  5
15C
330
1F
100
AcDbEntity
  8
0-C_ハッチ
  6
JWW_DASHED1
 62
   120
370
     5
100
AcDbLine
 10
2454.085266552887
 20
1781.962168973793
 30
0.0
 11
2529.085266552882
 21
1856.962168973788
 31
0.0
  0
LINE
  5
15D
330
1F
100
AcDbEntity
  8
0-C_ハッチ
  6
JWW_DASHED1
 62
   120
370
     5
100
AcDbLine
 10
2411.658859681676
 20
1781.962168973782
 30
0.0
 11
2486.658859681671
 21
1856.962168973777
 31
0.0
  0
LINE
  5
15E
330
1F
100
AcDbEntity
  8
0-C_ハッチ
  6
JWW_DASHED1
 62
   120
370
     5
100
AcDbLine
 10
2369.23245281048
 20
1781.962168973787
 30
0.0
 11
2444.232452810475
 21
1856.962168973781
 31
0.0
  0
LINE
  5
15F
330
1F
100
AcDbEntity
  8
0-C_ハッチ
  6
JWW_DASHED1
 62
   120
370
     5
100
AcDbLine
 10
2326.806045939285
 20
1781.962168973791
 30
0.0
 11
2401.806045939279
 21
1856.962168973785
 31
0.0
  0
LINE
  5
160
330
1F
100
AcDbEntity
  8
0-C_ハッチ
  6
JWW_DASHED1
 62
   120
370
     5
100
AcDbLine
 10
2284.379639068085
 20
1781.962168973792
 30
0.0
 11
2359.379639068081
 21
1856.962168973787
 31
0.0
  0
LINE
  5
161
330
1F
100
AcDbEntity
  8
0-C_ハッチ
  6
JWW_DASHED1
 62
   120
370
     5
100
AcDbLine
 10
2241.953232196889
 20
1781.962168973795
 30
0.0
 11
2316.953232196884
 21
1856.962168973791
 31
0.0
  0
LINE
  5
162
330
1F
100
AcDbEntity
  8
0-C_ハッチ
  6
JWW_DASHED1
 62
   120
370
     5
100
AcDbLine
 10
2199.526825325677
 20
1781.962168973783
 30
0.0
 11
2274.526825325688
 21
1856.962168973794
 31
0.0
  0
LINE
  5
163
330
1F
100
AcDbEntity
  8
0-C_ハッチ
  6
JWW_DASHED1
 62
   120
370
     5
100
AcDbLine
 10
2157.10041845454
 20
1781.962168973791
 30
0.0
 11
2232.100418454535
 21
1856.962168973786
 31
0.0
  0
LINE
  5
164
330
1F
100
AcDbEntity
  8
0-C_ハッチ
  6
JWW_DASHED1
 62
   120
370
     5
100
AcDbLine
 10
2114.674011583333
 20
1781.962168973784
 30
0.0
 11
2189.674011583327
 21
1856.962168973778
 31
0.0
  0
LINE
  5
165
330
1F
100
AcDbEntity
  8
0-C_ハッチ
  6
JWW_DASHED1
 62
   120
370
     5
100
AcDbLine
 10
2072.247604712137
 20
1781.962168973788
 30
0.0
 11
2147.247604712131
 21
1856.962168973783
 31
0.0
  0
LINE
  5
166
330
1F
100
AcDbEntity
  8
0-C_ハッチ
  6
JWW_DASHED1
 62
   120
370
     5
100
AcDbLine
 10
2029.82119784094
 20
1781.962168973793
 30
0.0
 11
2104.821197840935
 21
1856.962168973787
 31
0.0
  0
LINE
  5
167
330
1F
100
AcDbEntity
  8
0-C_ハッチ
  6
JWW_DASHED1
 62
   120
370
     5
100
AcDbLine
 10
1987.394790969745
 20
1781.962168973796
 30
0.0
 11
2062.394790969739
 21
1856.962168973791
 31
0.0
  0
LINE
  5
168
330
1F
100
AcDbEntity
  8
0-C_ハッチ
  6
JWW_DASHED1
 62
   120
370
     5
100
AcDbLine
 10
1944.968384098542
 20
1781.962168973793
 30
0.0
 11
2019.968384098537
 21
1856.962168973789
 31
0.0
  0
LINE
  5
169
330
1F
100
AcDbEntity
  8
0-C_ハッチ
  6
JWW_DASHED1
 62
   120
370
     5
100
AcDbLine
 10
1902.541977227329
 20
1781.962168973781
 30
0.0
 11
1977.54197722734
 21
1856.962168973793
 31
0.0
  0
LINE
  5
16A
330
1F
100
AcDbEntity
  8
0-C_ハッチ
  6
JWW_DASHED1
 62
   120
370
     5
100
AcDbLine
 10
1860.115570356192
 20
1781.962168973789
 30
0.0
 11
1935.115570356203
 21
1856.9621689738
 31
0.0
  0
LINE
  5
16B
330
1F
100
AcDbEntity
  8
0-C_ハッチ
  6
JWW_DASHED1
 62
   120
370
     5
100
AcDbLine
 10
1817.689163484996
 20
1781.962168973793
 30
0.0
 11
1892.689163484991
 21
1856.962168973788
 31
0.0
  0
LINE
  5
16C
330
1F
100
AcDbEntity
  8
0-C_ハッチ
  6
JWW_DASHED1
 62
   120
370
     5
100
AcDbLine
 10
1775.262756613793
 20
1781.96216897379
 30
0.0
 11
1850.262756613787
 21
1856.962168973784
 31
0.0
  0
LINE
  5
16D
330
1F
100
AcDbEntity
  8
0-C_ハッチ
  6
JWW_DASHED1
 62
   120
370
     5
100
AcDbLine
 10
1732.836349742597
 20
1781.962168973794
 30
0.0
 11
1807.836349742591
 21
1856.962168973788
 31
0.0
  0
LINE
  5
16E
330
1F
100
AcDbEntity
  8
0-C_ハッチ
  6
JWW_DASHED1
 62
   120
370
     5
100
AcDbLine
 10
1681.218501188195
 20
1815.197134161792
 30
0.0
 11
1722.98353600019
 21
1856.962168973787
 31
0.0
  0
LINE
  5
16F
330
1F
100
AcDbEntity
  8
0-C_ハッチ
  6
JWW_DASHED1
 62
   120
370
     5
100
AcDbLine
 10
1690.409942871392
 20
1781.962168973789
 30
0.0
 11
1765.409942871395
 21
1856.962168973793
 31
0.0
  0
LINE
  5
170
330
1F
100
AcDbEntity
  8
0-C_ハッチ
  6
JWW_DASHED1
 62
   120
370
     5
100
AcDbLine
 10
1533.605167546807
 20
1781.962168973806
 30
0.0
 11
1561.218501188179
 21
1809.575502615179
 31
0.0
  0
LINE
  5
171
330
1F
100
AcDbEntity
  8
0-C_ハッチ
  6
JWW_DASHED1
 62
   120
370
     5
100
AcDbLine
 10
1491.178760675595
 20
1781.962168973795
 30
0.0
 11
1561.218501188194
 21
1852.001909486394
 31
0.0
  0
LINE
  5
172
330
1F
100
AcDbEntity
  8
0-C_ハッチ
  6
JWW_DASHED1
 62
   120
370
     5
100
AcDbLine
 10
1448.752353804384
 20
1781.962168973784
 30
0.0
 11
1523.752353804394
 21
1856.962168973794
 31
0.0
  0
LINE
  5
173
330
1F
100
AcDbEntity
  8
0-C_ハッチ
  6
JWW_DASHED1
 62
   120
370
     5
100
AcDbLine
 10
1406.325946933247
 20
1781.962168973792
 30
0.0
 11
1481.325946933257
 21
1856.962168973802
 31
0.0
  0
LINE
  5
174
330
1F
100
AcDbEntity
  8
0-C_ハッチ
  6
JWW_DASHED1
 62
   120
370
     5
100
AcDbLine
 10
1363.89954006205
 20
1781.962168973796
 30
0.0
 11
1438.899540062045
 21
1856.962168973791
 31
0.0
  0
LINE
  5
175
330
1F
100
AcDbEntity
  8
0-C_ハッチ
  6
JWW_DASHED1
 62
   120
370
     5
100
AcDbLine
 10
1321.473133190849
 20
1781.962168973795
 30
0.0
 11
1396.473133190846
 21
1856.962168973791
 31
0.0
  0
LINE
  5
176
330
1F
100
AcDbEntity
  8
0-C_ハッチ
  6
JWW_DASHED1
 62
   120
370
     5
100
AcDbLine
 10
1279.046726319653
 20
1781.962168973798
 30
0.0
 11
1354.046726319649
 21
1856.962168973794
 31
0.0
  0
LINE
  5
177
330
1F
100
AcDbEntity
  8
0-C_ハッチ
  6
JWW_DASHED1
 62
   120
370
     5
100
AcDbLine
 10
1236.620319448456
 20
1781.962168973801
 30
0.0
 11
1311.620319448452
 21
1856.962168973798
 31
0.0
  0
LINE
  5
178
330
1F
100
AcDbEntity
  8
0-C_ハッチ
  6
JWW_DASHED1
 62
   120
370
     5
100
AcDbLine
 10
1194.193912577259
 20
1781.962168973805
 30
0.0
 11
1269.193912577256
 21
1856.962168973801
 31
0.0
  0
LINE
  5
179
330
1F
100
AcDbEntity
  8
0-C_ハッチ
  6
JWW_DASHED1
 62
   120
370
     5
100
AcDbLine
 10
1151.767505706055
 20
1781.9621689738
 30
0.0
 11
1226.767505706049
 21
1856.962168973795
 31
0.0
  0
LINE
  5
17A
330
1F
100
AcDbEntity
  8
0-C_ハッチ
  6
JWW_DASHED1
 62
   120
370
     5
100
AcDbLine
 10
1144.088633004739
 20
1816.709703143684
 30
0.0
 11
1184.341098834854
 21
1856.962168973799
 31
0.0
  0
LINE
  5
17B
330
1F
100
AcDbEntity
  8
0-C_ハッチ
  6
JWW_DASHED1
 62
   120
370
     5
100
AcDbLine
 10
-1219.507721235936
 20
2036.9621689738
 30
0.0
 11
-1147.507721235937
 21
2108.962168973799
 31
0.0
  0
LINE
  5
17C
330
1F
100
AcDbEntity
  8
0-C_ハッチ
  6
JWW_DASHED1
 62
   120
370
     5
100
AcDbLine
 10
-1261.934128107078
 20
2036.962168973803
 30
0.0
 11
-1189.934128107096
 21
2108.962168973786
 31
0.0
  0
LINE
  5
17D
330
1F
100
AcDbEntity
  8
0-C_ハッチ
  6
JWW_DASHED1
 62
   120
370
     5
100
AcDbLine
 10
-1304.360534978302
 20
2036.96216897378
 30
0.0
 11
-1232.360534978302
 21
2108.962168973779
 31
0.0
  0
LINE
  5
17E
330
1F
100
AcDbEntity
  8
0-C_ハッチ
  6
JWW_DASHED1
 62
   120
370
     5
100
AcDbLine
 10
-1346.786941849497
 20
2036.962168973784
 30
0.0
 11
-1274.786941849498
 21
2108.962168973783
 31
0.0
  0
LINE
  5
17F
330
1F
100
AcDbEntity
  8
0-C_ハッチ
  6
JWW_DASHED1
 62
   120
370
     5
100
AcDbLine
 10
-1389.213348720693
 20
2036.962168973787
 30
0.0
 11
-1317.213348720695
 21
2108.962168973787
 31
0.0
  0
LINE
  5
180
330
1F
100
AcDbEntity
  8
0-C_ハッチ
  6
JWW_DASHED1
 62
   120
370
     5
100
AcDbLine
 10
-1431.63975559189
 20
2036.962168973791
 30
0.0
 11
-1359.63975559189
 21
2108.962168973791
 31
0.0
  0
LINE
  5
181
330
1F
100
AcDbEntity
  8
0-C_ハッチ
  6
JWW_DASHED1
 62
   120
370
     5
100
AcDbLine
 10
-1219.94928000874
 20
1781.962168973796
 30
0.0
 11
-1144.949280008745
 21
1856.962168973791
 31
0.0
  0
LINE
  5
182
330
1F
100
AcDbEntity
  8
0-C_ハッチ
  6
JWW_DASHED1
 62
   120
370
     5
100
AcDbLine
 10
-1262.375686879941
 20
1781.962168973795
 30
0.0
 11
-1187.375686879944
 21
1856.962168973791
 31
0.0
  0
LINE
  5
183
330
1F
100
AcDbEntity
  8
0-C_ハッチ
  6
JWW_DASHED1
 62
   120
370
     5
100
AcDbLine
 10
-1304.802093751137
 20
1781.962168973798
 30
0.0
 11
-1229.802093751141
 21
1856.962168973794
 31
0.0
  0
LINE
  5
184
330
1F
100
AcDbEntity
  8
0-C_ハッチ
  6
JWW_DASHED1
 62
   120
370
     5
100
AcDbLine
 10
-1347.228500622334
 20
1781.962168973801
 30
0.0
 11
-1272.228500622338
 21
1856.962168973798
 31
0.0
  0
LINE
  5
185
330
1F
100
AcDbEntity
  8
0-C_ハッチ
  6
JWW_DASHED1
 62
   120
370
     5
100
AcDbLine
 10
-1389.654907493531
 20
1781.962168973805
 30
0.0
 11
-1314.654907493535
 21
1856.962168973801
 31
0.0
  0
LINE
  5
186
330
1F
100
AcDbEntity
  8
0-C_ハッチ
  6
JWW_DASHED1
 62
   120
370
     5
100
AcDbLine
 10
-1432.081314364736
 20
1781.9621689738
 30
0.0
 11
-1357.081314364741
 21
1856.962168973795
 31
0.0
  0
LINE
  5
187
330
1F
100
AcDbEntity
  8
0-C_ハッチ
  6
JWW_DASHED1
 62
   120
370
     5
100
AcDbLine
 10
-1439.760187066051
 20
2071.26814437083
 30
0.0
 11
-1402.066162463087
 21
2108.962168973795
 31
0.0
  0
LINE
  5
188
330
1F
100
AcDbEntity
  8
0-C_ハッチ
  6
JWW_DASHED1
 62
   120
370
     5
100
AcDbLine
 10
-1439.760187066051
 20
1816.709703143684
 30
0.0
 11
-1399.507721235937
 21
1856.962168973799
 31
0.0
  0
LINE
  5
189
330
1F
100
AcDbEntity
  8
0-C_ハッチ
  6
JWW_DASHED1
 62
   120
370
     5
100
AcDbLine
 10
-1134.654907493543
 20
2036.962168973793
 30
0.0
 11
-1124.251547318105
 21
2047.36552914923
 31
0.0
  0
LINE
  5
18A
330
1F
100
AcDbEntity
  8
0-C_ハッチ
  6
JWW_DASHED1
 62
   120
370
     5
100
AcDbLine
 10
-1177.081314364739
 20
2036.962168973796
 30
0.0
 11
-1124.251547318105
 21
2089.79193602043
 31
0.0
  0
LINE
  5
18B
330
1F
100
AcDbEntity
  8
0-C_ハッチ
  6
JWW_DASHED1
 62
   120
370
     5
100
AcDbLine
 10
-1135.096466266407
 20
1781.962168973784
 30
0.0
 11
-1124.251547318105
 21
1792.807087922086
 31
0.0
  0
LINE
  5
18C
330
1F
100
AcDbEntity
  8
0-C_ハッチ
  6
JWW_DASHED1
 62
   120
370
     5
100
AcDbLine
 10
-1177.522873137544
 20
1781.962168973792
 30
0.0
 11
-1124.251547318105
 21
1835.233494793231
 31
0.0
  0
LINE
  5
18D
330
1F
100
AcDbEntity
  8
0-C_ハッチ
  6
JWW_DASHED1
 62
   120
370
     5
100
AcDbLine
 10
-1569.725808051446
 20
1781.962168973785
 30
0.0
 11
-1559.760187066046
 21
1791.927789959186
 31
0.0
  0
LINE
  5
18E
330
1F
100
AcDbEntity
  8
0-C_ハッチ
  6
JWW_DASHED1
 62
   120
370
     5
100
AcDbLine
 10
-1612.152214922643
 20
1781.962168973788
 30
0.0
 11
-1559.760187066047
 21
1834.354196830384
 31
0.0
  0
LINE
  5
18F
330
1F
100
AcDbEntity
  8
0-C_ハッチ
  6
JWW_DASHED1
 62
   120
370
     5
100
AcDbLine
 10
-1654.578621793838
 20
1781.962168973793
 30
0.0
 11
-1579.578621793844
 21
1856.962168973787
 31
0.0
  0
LINE
  5
190
330
1F
100
AcDbEntity
  8
0-C_ハッチ
  6
JWW_DASHED1
 62
   120
370
     5
100
AcDbLine
 10
-1697.005028665034
 20
1781.962168973797
 30
0.0
 11
-1622.00502866504
 21
1856.962168973791
 31
0.0
  0
LINE
  5
191
330
1F
100
AcDbEntity
  8
0-C_ハッチ
  6
JWW_DASHED1
 62
   120
370
     5
100
AcDbLine
 10
-1739.431435536231
 20
1781.9621689738
 30
0.0
 11
-1664.431435536236
 21
1856.962168973795
 31
0.0
  0
LINE
  5
192
330
1F
100
AcDbEntity
  8
0-C_ハッチ
  6
JWW_DASHED1
 62
   120
370
     5
100
AcDbLine
 10
-1781.857842407443
 20
1781.962168973788
 30
0.0
 11
-1706.857842407449
 21
1856.962168973783
 31
0.0
  0
LINE
  5
193
330
1F
100
AcDbEntity
  8
0-C_ハッチ
  6
JWW_DASHED1
 62
   120
370
     5
100
AcDbLine
 10
-1824.284249278655
 20
1781.962168973776
 30
0.0
 11
-1749.284249278644
 21
1856.962168973787
 31
0.0
  0
LINE
  5
194
330
1F
100
AcDbEntity
  8
0-C_ハッチ
  6
JWW_DASHED1
 62
   120
370
     5
100
AcDbLine
 10
-1569.284249278648
 20
2036.962168973784
 30
0.0
 11
-1559.760187066046
 21
2046.486231186385
 31
0.0
  0
LINE
  5
195
330
1F
100
AcDbEntity
  8
0-C_ハッチ
  6
JWW_DASHED1
 62
   120
370
     5
100
AcDbLine
 10
-1866.710656149791
 20
1781.962168973785
 30
0.0
 11
-1791.710656149798
 21
1856.962168973779
 31
0.0
  0
LINE
  5
196
330
1F
100
AcDbEntity
  8
0-C_ハッチ
  6
JWW_DASHED1
 62
   120
370
     5
100
AcDbLine
 10
-1611.710656149785
 20
2036.962168973792
 30
0.0
 11
-1559.760187066043
 21
2088.912638057534
 31
0.0
  0
LINE
  5
197
330
1F
100
AcDbEntity
  8
0-C_ハッチ
  6
JWW_DASHED1
 62
   120
370
     5
100
AcDbLine
 10
-1909.137063020988
 20
1781.962168973789
 30
0.0
 11
-1834.137063020993
 21
1856.962168973783
 31
0.0
  0
LINE
  5
198
330
1F
100
AcDbEntity
  8
0-C_ハッチ
  6
JWW_DASHED1
 62
   120
370
     5
100
AcDbLine
 10
-1654.137063020997
 20
2036.96216897378
 30
0.0
 11
-1582.137063020997
 21
2108.962168973779
 31
0.0
  0
LINE
  5
199
330
1F
100
AcDbEntity
  8
0-C_ハッチ
  6
JWW_DASHED1
 62
   120
370
     5
100
AcDbLine
 10
-1951.563469892184
 20
1781.962168973793
 30
0.0
 11
-1876.56346989219
 21
1856.962168973787
 31
0.0
  0
LINE
  5
19A
330
1F
100
AcDbEntity
  8
0-C_ハッチ
  6
JWW_DASHED1
 62
   120
370
     5
100
AcDbLine
 10
-1696.563469892193
 20
2036.962168973783
 30
0.0
 11
-1624.563469892194
 21
2108.962168973783
 31
0.0
  0
LINE
  5
19B
330
1F
100
AcDbEntity
  8
0-C_ハッチ
  6
JWW_DASHED1
 62
   120
370
     5
100
AcDbLine
 10
-1993.989876763381
 20
1781.962168973796
 30
0.0
 11
-1918.989876763387
 21
1856.962168973791
 31
0.0
  0
LINE
  5
19C
330
1F
100
AcDbEntity
  8
0-C_ハッチ
  6
JWW_DASHED1
 62
   120
370
     5
100
AcDbLine
 10
-1738.98987676339
 20
2036.962168973787
 30
0.0
 11
-1666.989876763391
 21
2108.962168973786
 31
0.0
  0
LINE
  5
19D
330
1F
100
AcDbEntity
  8
0-C_ハッチ
  6
JWW_DASHED1
 62
   120
370
     5
100
AcDbLine
 10
-2036.416283634576
 20
1781.962168973801
 30
0.0
 11
-1961.416283634583
 21
1856.962168973794
 31
0.0
  0
LINE
  5
19E
330
1F
100
AcDbEntity
  8
0-C_ハッチ
  6
JWW_DASHED1
 62
   120
370
     5
100
AcDbLine
 10
-1781.416283634586
 20
2036.962168973791
 30
0.0
 11
-1709.416283634586
 21
2108.96216897379
 31
0.0
  0
LINE
  5
19F
330
1F
100
AcDbEntity
  8
0-C_ハッチ
  6
JWW_DASHED1
 62
   120
370
     5
100
AcDbLine
 10
-2078.842690505772
 20
1781.962168973805
 30
0.0
 11
-2003.842690505779
 21
1856.962168973798
 31
0.0
  0
LINE
  5
1A0
330
1F
100
AcDbEntity
  8
0-C_ハッチ
  6
JWW_DASHED1
 62
   120
370
     5
100
AcDbLine
 10
-1823.842690505791
 20
2036.962168973786
 30
0.0
 11
-1751.842690505789
 21
2108.962168973788
 31
0.0
  0
LINE
  5
1A1
330
1F
100
AcDbEntity
  8
0-C_ハッチ
  6
JWW_DASHED1
 62
   120
370
     5
100
AcDbLine
 10
-2121.269097376984
 20
1781.962168973793
 30
0.0
 11
-2046.269097376991
 21
1856.962168973786
 31
0.0
  0
LINE
  5
1A2
330
1F
100
AcDbEntity
  8
0-C_ハッチ
  6
JWW_DASHED1
 62
   120
370
     5
100
AcDbLine
 10
-1866.269097376994
 20
2036.962168973782
 30
0.0
 11
-1794.269097376995
 21
2108.962168973781
 31
0.0
  0
LINE
  5
1A3
330
1F
100
AcDbEntity
  8
0-C_ハッチ
  6
JWW_DASHED1
 62
   120
370
     5
100
AcDbLine
 10
-2163.695504248196
 20
1781.962168973781
 30
0.0
 11
-2088.695504248186
 21
1856.96216897379
 31
0.0
  0
LINE
  5
1A4
330
1F
100
AcDbEntity
  8
0-C_ハッチ
  6
JWW_DASHED1
 62
   120
370
     5
100
AcDbLine
 10
-1908.695504248191
 20
2036.962168973786
 30
0.0
 11
-1836.695504248207
 21
2108.96216897377
 31
0.0
  0
LINE
  5
1A5
330
1F
100
AcDbEntity
  8
0-C_ハッチ
  6
JWW_DASHED1
 62
   120
370
     5
100
AcDbLine
 10
-2206.121911119334
 20
1781.962168973789
 30
0.0
 11
-2131.12191111934
 21
1856.962168973782
 31
0.0
  0
LINE
  5
1A6
330
1F
100
AcDbEntity
  8
0-C_ハッチ
  6
JWW_DASHED1
 62
   120
370
     5
100
AcDbLine
 10
-1951.121911119329
 20
2036.962168973794
 30
0.0
 11
-1879.121911119345
 21
2108.962168973777
 31
0.0
  0
LINE
  5
1A7
330
1F
100
AcDbEntity
  8
0-C_ハッチ
  6
JWW_DASHED1
 62
   120
370
     5
100
AcDbLine
 10
-2248.54831799053
 20
1781.962168973793
 30
0.0
 11
-2173.548317990536
 21
1856.962168973786
 31
0.0
  0
LINE
  5
1A8
330
1F
100
AcDbEntity
  8
0-C_ハッチ
  6
JWW_DASHED1
 62
   120
370
     5
100
AcDbLine
 10
-1993.54831799054
 20
2036.962168973781
 30
0.0
 11
-1921.548317990541
 21
2108.962168973781
 31
0.0
  0
LINE
  5
1A9
330
1F
100
AcDbEntity
  8
0-C_ハッチ
  6
JWW_DASHED1
 62
   120
370
     5
100
AcDbLine
 10
-2290.974724861725
 20
1781.962168973797
 30
0.0
 11
-2215.974724861733
 21
1856.96216897379
 31
0.0
  0
LINE
  5
1AA
330
1F
100
AcDbEntity
  8
0-C_ハッチ
  6
JWW_DASHED1
 62
   120
370
     5
100
AcDbLine
 10
-2035.974724861737
 20
2036.962168973785
 30
0.0
 11
-1963.974724861738
 21
2108.962168973785
 31
0.0
  0
LINE
  5
1AB
330
1F
100
AcDbEntity
  8
0-C_ハッチ
  6
JWW_DASHED1
 62
   120
370
     5
100
AcDbLine
 10
-2333.401131732922
 20
1781.962168973801
 30
0.0
 11
-2258.401131732929
 21
1856.962168973793
 31
0.0
  0
LINE
  5
1AC
330
1F
100
AcDbEntity
  8
0-C_ハッチ
  6
JWW_DASHED1
 62
   120
370
     5
100
AcDbLine
 10
-2060.421637479532
 20
2054.94166322719
 30
0.0
 11
-2006.401131732934
 21
2108.962168973789
 31
0.0
  0
LINE
  5
1AD
330
1F
100
AcDbEntity
  8
0-C_ハッチ
  6
JWW_DASHED1
 62
   120
370
     5
100
AcDbLine
 10
-2375.827538604118
 20
1781.962168973805
 30
0.0
 11
-2300.827538604125
 21
1856.962168973798
 31
0.0
  0
LINE
  5
1AE
330
1F
100
AcDbEntity
  8
0-C_ハッチ
  6
JWW_DASHED1
 62
   120
370
     5
100
AcDbLine
 10
-2060.421637479535
 20
2097.368070098387
 30
0.0
 11
-2048.82753860413
 21
2108.962168973792
 31
0.0
  0
LINE
  5
1AF
330
1F
100
AcDbEntity
  8
0-C_ハッチ
  6
JWW_DASHED1
 62
   120
370
     5
100
AcDbLine
 10
-2418.25394547533
 20
1781.962168973793
 30
0.0
 11
-2343.253945475337
 21
1856.962168973786
 31
0.0
  0
LINE
  5
1B0
330
1F
100
AcDbEntity
  8
0-C_ハッチ
  6
JWW_DASHED1
 62
   120
370
     5
100
AcDbLine
 10
-2460.680352346541
 20
1781.962168973781
 30
0.0
 11
-2385.680352346533
 21
1856.962168973789
 31
0.0
  0
LINE
  5
1B1
330
1F
100
AcDbEntity
  8
0-C_ハッチ
  6
JWW_DASHED1
 62
   120
370
     5
100
AcDbLine
 10
-2503.106759217708
 20
1781.962168973787
 30
0.0
 11
-2428.1067592177
 21
1856.962168973795
 31
0.0
  0
LINE
  5
1B2
330
1F
100
AcDbEntity
  8
0-C_ハッチ
  6
JWW_DASHED1
 62
   120
370
     5
100
AcDbLine
 10
-2545.533166088874
 20
1781.962168973793
 30
0.0
 11
-2470.533166088883
 21
1856.962168973785
 31
0.0
  0
LINE
  5
1B3
330
1F
100
AcDbEntity
  8
0-C_ハッチ
  6
JWW_DASHED1
 62
   120
370
     5
100
AcDbLine
 10
-2570.943602798042
 20
1798.978139135826
 30
0.0
 11
-2512.959572960078
 21
1856.96216897379
 31
0.0
  0
LINE
  5
1B4
330
1F
100
AcDbEntity
  8
0-C_ハッチ
  6
JWW_DASHED1
 62
   120
370
     5
100
AcDbLine
 10
-2570.874627163206
 20
1841.473521641862
 30
0.0
 11
-2555.385979831275
 21
1856.962168973793
 31
0.0
  0
LINE
  5
1B5
330
1F
100
AcDbEntity
  8
0-C_ハッチ
  6
JWW_DASHED1
 62
   120
370
     5
100
AcDbLine
 10
-2222.370827929633
 20
2486.96216897378
 30
0.0
 11
-2210.421637479521
 21
2498.911359423892
 31
0.0
  0
LINE
  5
1B6
330
1F
100
AcDbEntity
  8
0-C_ハッチ
  6
JWW_DASHED1
 62
   120
370
     5
100
AcDbLine
 10
-2264.797234800829
 20
2486.962168973784
 30
0.0
 11
-2210.421637479522
 21
2541.337766295091
 31
0.0
  0
LINE
  5
1B7
330
1F
100
AcDbEntity
  8
0-C_ハッチ
  6
JWW_DASHED1
 62
   120
370
     5
100
AcDbLine
 10
-2307.223641672025
 20
2486.962168973788
 30
0.0
 11
-2232.22364167203
 21
2561.962168973783
 31
0.0
  0
LINE
  5
1B8
330
1F
100
AcDbEntity
  8
0-C_ハッチ
  6
JWW_DASHED1
 62
   120
370
     5
100
AcDbLine
 10
-2349.650048543222
 20
2486.962168973792
 30
0.0
 11
-2274.650048543225
 21
2561.962168973789
 31
0.0
  0
LINE
  5
1B9
330
1F
100
AcDbEntity
  8
0-C_ハッチ
  6
JWW_DASHED1
 62
   120
370
     5
100
AcDbLine
 10
-2392.076455414417
 20
2486.962168973796
 30
0.0
 11
-2317.076455414419
 21
2561.962168973794
 31
0.0
  0
LINE
  5
1BA
330
1F
100
AcDbEntity
  8
0-C_ハッチ
  6
JWW_DASHED1
 62
   120
370
     5
100
AcDbLine
 10
-2434.502862285613
 20
2486.9621689738
 30
0.0
 11
-2359.502862285613
 21
2561.9621689738
 31
0.0
  0
LINE
  5
1BB
330
1F
100
AcDbEntity
  8
0-C_ハッチ
  6
JWW_DASHED1
 62
   120
370
     5
100
AcDbLine
 10
-2476.929269156779
 20
2486.962168973781
 30
0.0
 11
-2401.929269156765
 21
2561.962168973793
 31
0.0
  0
LINE
  5
1BC
330
1F
100
AcDbEntity
  8
0-C_ハッチ
  6
JWW_DASHED1
 62
   120
370
     5
100
AcDbLine
 10
-2519.355676027978
 20
2486.962168973781
 30
0.0
 11
-2444.355676027986
 21
2561.962168973774
 31
0.0
  0
LINE
  5
1BD
330
1F
100
AcDbEntity
  8
0-C_ハッチ
  6
JWW_DASHED1
 62
   120
370
     5
100
AcDbLine
 10
-2561.782082899174
 20
2486.962168973786
 30
0.0
 11
-2486.782082899182
 21
2561.962168973777
 31
0.0
  0
LINE
  5
1BE
330
1F
100
AcDbEntity
  8
0-C_ハッチ
  6
JWW_DASHED1
 62
   120
370
     5
100
AcDbLine
 10
-2569.771017005832
 20
2521.399641738327
 30
0.0
 11
-2529.208489770378
 21
2561.962168973781
 31
0.0
  0
LINE
  5
1BF
330
1F
100
AcDbEntity
  8
0-4_枠
  6
Continuous
 62
    92
370
    13
100
AcDbLine
 10
-1124.251547318105
 20
1832.962168973789
 30
0.0
 11
-1058.251547318107
 21
1832.962168973789
 31
0.0
  0
LINE
  5
1C0
330
1F
100
AcDbEntity
  8
0-4_枠
  6
Continuous
 62
    92
370
    13
100
AcDbLine
 10
-1004.251547318102
 20
1832.962168973789
 30
0.0
 11
-944.251547318102
 21
1832.962168973789
 31
0.0
  0
LINE
  5
1C1
330
1F
100
AcDbEntity
  8
0-4_枠
  6
Continuous
 62
    92
370
    13
100
AcDbLine
 10
-1004.251547318102
 20
1835.962168973789
 30
0.0
 11
-947.2515473181061
 21
1835.962168973789
 31
0.0
  0
LINE
  5
1C2
330
1F
100
AcDbEntity
  8
0-4_枠
  6
Continuous
 62
    92
370
    13
100
AcDbLine
 10
-1004.251547318102
 20
1832.962168973789
 30
0.0
 11
-1004.251547318102
 21
1892.962168973789
 31
0.0
  0
LINE
  5
1C3
330
1F
100
AcDbEntity
  8
0-4_枠
  6
Continuous
 62
    92
370
    13
100
AcDbLine
 10
-1058.251547318107
 20
1892.962168973789
 30
0.0
 11
-1004.251547318102
 21
1892.962168973789
 31
0.0
  0
LINE
  5
1C4
330
1F
100
AcDbEntity
  8
0-4_枠
  6
Continuous
 62
    92
370
    13
100
AcDbLine
 10
-1058.251547318107
 20
1892.962168973789
 30
0.0
 11
-1058.251547318107
 21
1832.962168973789
 31
0.0
  0
LINE
  5
1C5
330
1F
100
AcDbEntity
  8
0-4_枠
  6
Continuous
 62
    92
370
    13
100
AcDbLine
 10
-998.2515473181074
 20
2141.962168973789
 30
0.0
 11
-998.2515473181074
 21
2156.962168973789
 31
0.0
  0
LINE
  5
1C6
330
1F
100
AcDbEntity
  8
0-4_枠
  6
Continuous
 62
    92
370
    13
100
AcDbLine
 10
-1070.251547318107
 20
2141.962168973789
 30
0.0
 11
-1070.251547318107
 21
2156.962168973789
 31
0.0
  0
LINE
  5
1C7
330
1F
100
AcDbEntity
  8
0-4_枠
  6
Continuous
 62
    92
370
    13
100
AcDbLine
 10
-998.2515473181074
 20
2141.962168973789
 30
0.0
 11
-1070.251547318107
 21
2141.962168973789
 31
0.0
  0
LINE
  5
1C8
330
1F
100
AcDbEntity
  8
0-4_枠
  6
Continuous
 62
    92
370
    13
100
AcDbLine
 10
-1121.251547318108
 20
2096.962168973789
 30
0.0
 11
-1124.251547318105
 21
2096.962168973789
 31
0.0
  0
LINE
  5
1C9
330
1F
100
AcDbEntity
  8
0-4_枠
  6
Continuous
 62
    92
370
    13
100
AcDbLine
 10
-1124.251547318105
 20
1832.962168973789
 30
0.0
 11
-1124.251547318105
 21
2156.962168973789
 31
0.0
  0
LINE
  5
1CA
330
1F
100
AcDbEntity
  8
0-4_枠
  6
Continuous
 62
    92
370
    13
100
AcDbLine
 10
-1070.251547318107
 20
2156.962168973789
 30
0.0
 11
-1124.251547318105
 21
2156.962168973789
 31
0.0
  0
LINE
  5
1CB
330
1F
100
AcDbEntity
  8
0-4_枠
  6
Continuous
 62
    92
370
    13
100
AcDbLine
 10
-1070.251547318107
 20
2153.962168973789
 30
0.0
 11
-1121.251547318108
 21
2153.962168973789
 31
0.0
  0
LINE
  5
1CC
330
1F
100
AcDbEntity
  8
0-4_枠
  6
Continuous
 62
    92
370
    13
100
AcDbLine
 10
-1121.251547318108
 20
2096.962168973789
 30
0.0
 11
-1121.251547318108
 21
2153.962168973789
 31
0.0
  0
LINE
  5
1CD
330
1F
100
AcDbEntity
  8
0-4_枠
  6
Continuous
 62
    92
370
    13
100
AcDbLine
 10
-998.2515473181074
 20
2156.962168973789
 30
0.0
 11
-944.251547318102
 21
2156.962168973789
 31
0.0
  0
LINE
  5
1CE
330
1F
100
AcDbEntity
  8
0-4_枠
  6
Continuous
 62
    92
370
    13
100
AcDbLine
 10
-998.2515473181074
 20
2153.962168973789
 30
0.0
 11
-947.2515473181061
 21
2153.962168973789
 31
0.0
  0
LINE
  5
1CF
330
1F
100
AcDbEntity
  8
0-4_枠
  6
Continuous
 62
    92
370
    13
100
AcDbLine
 10
-944.251547318102
 20
2156.962168973789
 30
0.0
 11
-944.251547318102
 21
1832.962168973789
 31
0.0
  0
LINE
  5
1D0
330
1F
100
AcDbEntity
  8
0-4_枠
  6
Continuous
 62
    92
370
    13
100
AcDbLine
 10
-947.2515473181061
 20
2153.962168973789
 30
0.0
 11
-947.2515473181061
 21
1835.962168973789
 31
0.0
  0
LINE
  5
1D1
330
1F
100
AcDbEntity
  8
0-C_ハッチ
  6
Continuous
 62
   120
370
     5
100
AcDbLine
 10
-1124.251547318105
 20
2049.469573929773
 30
0.0
 11
-1031.758952274084
 21
2141.962168973789
 31
0.0
  0
LINE
  5
1D2
330
1F
100
AcDbEntity
  8
0-C_ハッチ
  6
Continuous
 62
   120
370
     5
100
AcDbLine
 10
-1124.251547318105
 20
1990.07260431012
 30
0.0
 11
-960.3619826544378
 21
2153.962168973789
 31
0.0
  0
LINE
  5
1D3
330
1F
100
AcDbEntity
  8
0-C_ハッチ
  6
Continuous
 62
   120
370
     5
100
AcDbLine
 10
-1124.251547318105
 20
1930.675634690418
 30
0.0
 11
-947.2515473181061
 21
2107.675634690416
 31
0.0
  0
LINE
  5
1D4
330
1F
100
AcDbEntity
  8
0-C_ハッチ
  6
Continuous
 62
   120
370
     5
100
AcDbLine
 10
-1004.251547318102
 20
1872.484725831427
 30
0.0
 11
-947.2515473181061
 21
1929.48472583142
 31
0.0
  0
LINE
  5
1D5
330
1F
100
AcDbEntity
  8
0-C_ハッチ
  6
Continuous
 62
   120
370
     5
100
AcDbLine
 10
-1043.171073795384
 20
1892.962168973789
 30
0.0
 11
-947.2515473181061
 21
1988.881695451067
 31
0.0
  0
LINE
  5
1D6
330
1F
100
AcDbEntity
  8
0-C_ハッチ
  6
Continuous
 62
   120
370
     5
100
AcDbLine
 10
-1124.251547318105
 20
1871.278665070771
 30
0.0
 11
-947.2515473181061
 21
2048.278665070769
 31
0.0
  0
LINE
  5
1D7
330
1F
100
AcDbEntity
  8
0-C_ハッチ
  6
Continuous
 62
   120
370
     5
100
AcDbLine
 10
-981.3771345560896
 20
1835.962168973789
 30
0.0
 11
-947.2515473181061
 21
1870.087756211775
 31
0.0
  0
LINE
  5
1D8
330
1F
100
AcDbEntity
  8
0-C_ハッチ
  6
Continuous
 62
   120
370
     5
100
AcDbLine
 10
-1103.171073795391
 20
1832.962168973789
 30
0.0
 11
-1058.251547318107
 21
1877.881695451068
 31
0.0
  0
LINE
  5
1D9
330
1F
100
AcDbEntity
  8
0-C_ハッチ
  6
Continuous
 62
   120
370
     5
100
AcDbLine
 10
-1121.251547318108
 20
2111.866543549412
 30
0.0
 11
-1079.155921893734
 21
2153.962168973789
 31
0.0
  0
LINE
  5
1DA
330
1F
100
AcDbEntity
  8
0-C_ハッチ
  6
Continuous
 62
   120
370
     5
100
AcDbLine
 10
-2240.421637479532
 20
2059.686904306659
 30
0.0
 11
-2099.421637479531
 21
2200.686904306659
 31
0.0
  0
LINE
  5
1DB
330
1F
100
AcDbEntity
  8
0-7_金物
  6
Continuous
 62
     7
370
     9
100
AcDbLine
 10
-2258.463390475204
 20
2196.369776593615
 30
0.0
 11
-2258.463390475204
 21
2376.369628129721
 31
0.0
  0
LINE
  5
1DC
330
1F
100
AcDbEntity
  8
0-7_金物
  6
Continuous
 62
     7
370
     9
100
AcDbLine
 10
-2270.463726993363
 20
2376.369628129721
 30
0.0
 11
-2258.463390475204
 21
2376.369628129721
 31
0.0
  0
LINE
  5
1DD
330
1F
100
AcDbEntity
  8
0-7_金物
  6
Continuous
 62
     7
370
     9
100
AcDbLine
 10
-2270.463726993363
 20
2196.369776593615
 30
0.0
 11
-2258.463390475204
 21
2196.369776593615
 31
0.0
  0
LINE
  5
1DE
330
1F
100
AcDbEntity
  8
0-7_金物
  6
Continuous
 62
     7
370
     9
100
AcDbLine
 10
-2270.463726993363
 20
2196.369776593615
 30
0.0
 11
-2270.463726993363
 21
2376.369628129721
 31
0.0
  0
LINE
  5
1DF
330
1F
100
AcDbEntity
  8
0-7_金物
  6
Continuous
 62
     7
370
     9
100
AcDbLine
 10
-2258.463390475204
 20
2226.369875569545
 30
0.0
 11
-2246.463796276513
 21
2226.369875569545
 31
0.0
  0
LINE
  5
1E0
330
1F
100
AcDbEntity
  8
0-7_金物
  6
Continuous
 62
     7
370
     9
100
AcDbLine
 10
-2258.463390475204
 20
2346.369529153792
 30
0.0
 11
-2246.463796276513
 21
2346.369529153792
 31
0.0
  0
LINE
  5
1E1
330
1F
100
AcDbEntity
  8
0-7_金物
  6
Continuous
 62
     7
370
     9
100
AcDbLine
 10
-2246.463796276513
 20
2226.369875569545
 30
0.0
 11
-2246.463796276513
 21
2346.369529153792
 31
0.0
  0
LINE
  5
1E2
330
1F
100
AcDbEntity
  8
0-7_金物
  6
Continuous
 62
     7
370
     9
100
AcDbLine
 10
-2246.463796276513
 20
2340.370103214181
 30
0.0
 11
-2240.421637479532
 21
2340.370103214181
 31
0.0
  0
LINE
  5
1E3
330
1F
100
AcDbEntity
  8
0-7_金物
  6
Continuous
 62
     7
370
     9
100
AcDbLine
 10
-2246.463796276513
 20
2232.370043828622
 30
0.0
 11
-2240.421637479532
 21
2232.370043828622
 31
0.0
  0
LINE
  5
1E4
330
1F
100
AcDbEntity
  8
0-2_柱
  6
Continuous
 62
     7
370
     9
100
AcDbLine
 10
-2270.463726993363
 20
1856.962168973789
 30
0.0
 11
-2270.463726993363
 21
2486.962168973789
 31
0.0
  0
LINE
  5
1E5
330
1F
100
AcDbEntity
  8
0-2_柱
  6
Continuous
 62
     7
370
     9
100
AcDbLine
 10
-2432.463726993363
 20
2486.962168973789
 30
0.0
 11
-2432.463726993363
 21
1856.962168973789
 31
0.0
  0
LINE
  5
1E6
330
1F
100
AcDbEntity
  8
0-2_柱
  6
Continuous
 62
     7
370
     9
100
AcDbLine
 10
-2270.463726993363
 20
2486.962168973789
 30
0.0
 11
-2432.463726993363
 21
2486.962168973789
 31
0.0
  0
LINE
  5
1E7
330
1F
100
AcDbEntity
  8
0-2_柱
  6
Continuous
 62
     7
370
     9
100
AcDbLine
 10
-2270.463726993363
 20
1856.962168973789
 30
0.0
 11
-2108.463726993363
 21
1856.962168973789
 31
0.0
  0
LINE
  5
1E8
330
1F
100
AcDbEntity
  8
0-2_柱
  6
Continuous
 62
     7
370
     9
100
AcDbLine
 10
-2270.463726993363
 20
1856.962168973789
 30
0.0
 11
-2432.463726993363
 21
2486.962168973789
 31
0.0
  0
LINE
  5
1E9
330
1F
100
AcDbEntity
  8
0-2_柱
  6
Continuous
 62
     7
370
     9
100
AcDbLine
 10
-2108.463726993363
 20
1856.962168973789
 30
0.0
 11
-2108.463726993363
 21
2036.962168973789
 31
0.0
  0
LINE
  5
1EA
330
1F
100
AcDbEntity
  8
0-2_柱
  6
Continuous
 62
     7
370
     9
100
AcDbLine
 10
-2108.463726993363
 20
2036.962168973789
 30
0.0
 11
-2270.463726993363
 21
2036.962168973789
 31
0.0
  0
LINE
  5
1EB
330
1F
100
AcDbEntity
  8
0-2_柱
  6
Continuous
 62
     7
370
     9
100
AcDbLine
 10
-2270.463726993363
 20
2036.962168973789
 30
0.0
 11
-2108.463726993363
 21
1856.962168973789
 31
0.0
  0
LINE
  5
1EC
330
1F
100
AcDbEntity
  8
0-2_柱
  6
Continuous
 62
     7
370
     9
100
AcDbLine
 10
-2432.463726993363
 20
1856.962168973789
 30
0.0
 11
-2270.463726993363
 21
1856.962168973789
 31
0.0
  0
MTEXT
  5
1ED
330
1F
100
AcDbEntity
  8
0-B_寸法
  6
Continuous
 62
     7
370
     0
100
AcDbMText
 10
-725.7601876464081
 20
2205.682168973789
 30
0.0
 40
91.43999999999998
 41
540.0
 46
0.0
 71
     7
 72
     1
  1
{\fＭＳ ゴシック|b0|i0|c128|p49;ＤＷ＝810}
 73
     1
 44
1.0
  0
LINE
  5
1EE
330
1F
100
AcDbEntity
  8
0-6_扉
  6
JWW_DASHED2
 62
    40
370
    15
100
AcDbLine
 10
-1439.760187066051
 20
2375.962168973788
 30
0.0
 11
-944.2515473181062
 21
2375.962168973788
 31
0.0
  0
LINE
  5
1EF
330
1F
100
AcDbEntity
  8
0-6_扉
  6
JWW_DASHED2
 62
    40
370
    15
100
AcDbLine
 10
-1439.760187066051
 20
2195.962168973788
 30
0.0
 11
-944.2515473181062
 21
2195.962168973788
 31
0.0
  0
LINE
  5
1F0
330
1F
100
AcDbEntity
  8
0-6_扉
  6
JWW_DASHED2
 62
    40
370
    15
100
AcDbLine
 10
-2078.421637479529
 20
2375.962168973788
 30
0.0
 11
-1559.760187066051
 21
2375.962168973788
 31
0.0
  0
LINE
  5
1F1
330
1F
100
AcDbEntity
  8
0-6_扉
  6
JWW_DASHED2
 62
    40
370
    15
100
AcDbLine
 10
-2078.421637479529
 20
2195.962168973788
 30
0.0
 11
-1559.760187066051
 21
2195.962168973788
 31
0.0
  0
LINE
  5
1F2
330
1F
100
AcDbEntity
  8
0-6_扉
  6
JWW_DASHED2
 62
    40
370
    15
100
AcDbLine
 10
964.0886330047387
 20
2375.962168973788
 30
0.0
 11
1561.218501188195
 21
2375.962168973788
 31
0.0
  0
LINE
  5
1F3
330
1F
100
AcDbEntity
  8
0-6_扉
  6
JWW_DASHED2
 62
    40
370
    15
100
AcDbLine
 10
964.0886330047387
 20
2195.962168973788
 30
0.0
 11
1561.218501188195
 21
2195.962168973788
 31
0.0
  0
LINE
  5
1F4
330
1F
100
AcDbEntity
  8
0-6_扉
  6
JWW_DASHED2
 62
    40
370
    15
100
AcDbLine
 10
1681.218501188195
 20
2375.962168973788
 30
0.0
 11
2098.258723166161
 21
2375.962168973788
 31
0.0
  0
LINE
  5
1F5
330
1F
100
AcDbEntity
  8
0-6_扉
  6
JWW_DASHED2
 62
    40
370
    15
100
AcDbLine
 10
1681.218501188195
 20
2195.962168973788
 30
0.0
 11
2098.258723166161
 21
2195.962168973788
 31
0.0
  0
LINE
  5
1F6
330
1F
100
AcDbEntity
  8
0-6_扉
  6
Continuous
 62
   200
370
    20
100
AcDbLine
 10
-1124.251547318106
 20
2375.962168973788
 30
0.0
 11
-515.7601876464081
 21
2375.962168973788
 31
0.0
  0
LINE
  5
1F7
330
1F
100
AcDbEntity
  8
0-6_扉
  6
Continuous
 62
   200
370
    20
100
AcDbLine
 10
-1124.251547318106
 20
2195.962168973788
 30
0.0
 11
-515.7601876464081
 21
2195.962168973788
 31
0.0
  0
LINE
  5
1F8
330
1F
100
AcDbEntity
  8
0-6_扉
  6
Continuous
 62
   200
370
    20
100
AcDbLine
 10
-395.7601876464081
 20
2375.962168973788
 30
0.0
 11
427.2414845952507
 21
2375.962168973788
 31
0.0
  0
LINE
  5
1F9
330
1F
100
AcDbEntity
  8
0-6_扉
  6
Continuous
 62
   200
370
    20
100
AcDbLine
 10
-395.7601876464081
 20
2195.962168973788
 30
0.0
 11
427.2414845952507
 21
2195.962168973788
 31
0.0
  0
LINE
  5
1FA
330
1F
100
AcDbEntity
  8
0-6_扉
  6
Continuous
 62
   200
370
    20
100
AcDbLine
 10
547.2414845952507
 20
2375.962168973788
 30
0.0
 11
1144.088633004739
 21
2375.962168973788
 31
0.0
  0
MTEXT
  5
1FB
330
1F
100
AcDbEntity
  8
0-B_寸法
  6
Continuous
 62
     7
370
     0
100
AcDbMText
 10
764.8603689435616
 20
1920.682168973789
 30
0.0
 40
91.44
 41
120.0
 46
0.0
 71
     7
 72
     1
  1
{\fＭＳ ゴシック|b0|i0|c128|p49;54}
 11
6.123031769111886E-17
 21
1.0
 31
0.0
 73
     1
 44
1.0
  0
LINE
  5
1FC
330
1F
100
AcDbEntity
  8
0-0_補助線
  6
JWW_HOJO
 62
   120
370
     5
100
AcDbLine
 10
-2571.180606428682
 20
1421.961624593966
 30
0.0
 11
2590.258723166165
 21
1421.961624593966
 31
0.0
  0
LINE
  5
1FD
330
1F
100
AcDbEntity
  8
0-0_補助線
  6
JWW_HOJO
 62
   120
370
     5
100
AcDbLine
 10
-2571.180606428682
 20
1061.961624593966
 30
0.0
 11
2590.258723166165
 21
1061.961624593966
 31
0.0
  0
LINE
  5
1FE
330
1F
100
AcDbEntity
  8
0-0_補助線
  6
JWW_HOJO
 62
   120
370
     5
100
AcDbLine
 10
-2571.180606428682
 20
851.9616245939665
 30
0.0
 11
2590.258723166165
 21
851.9616245939665
 31
0.0
  0
LINE
  5
1FF
330
1F
100
AcDbEntity
  8
0-0_補助線
  6
JWW_HOJO
 62
   120
370
     5
100
AcDbLine
 10
-2571.180606428682
 20
641.9616245939665
 30
0.0
 11
2590.258723166165
 21
641.9616245939665
 31
0.0
  0
LINE
  5
200
330
1F
100
AcDbEntity
  8
0-B_寸法
  6
Continuous
 62
   120
370
     5
100
AcDbLine
 10
-2060.421637479532
 20
1061.961624593966
 30
0.0
 11
-1124.251547318105
 21
1061.961624593966
 31
0.0
  0
LWPOLYLINE
  5
201
330
1F
100
AcDbEntity
  8
0-B_寸法
  6
Continuous
 62
     7
370
     9
100
AcDbPolyline
 90
        4
 70
     1
 43
3.0
 10
-2058.921637479532
 20
1061.961624593966
 42
0.4142135623731
 10
-2060.421637479532
 20
1063.461624593966
 42
0.4142135623731
 10
-2061.921637479532
 20
1061.961624593966
 42
0.4142135623731
 10
-2060.421637479532
 20
1060.461624593966
 42
0.4142135623731
  0
LWPOLYLINE
  5
202
330
1F
100
AcDbEntity
  8
0-B_寸法
  6
Continuous
 62
     7
370
     9
100
AcDbPolyline
 90
        4
 70
     1
 43
3.0
 10
-1122.751547318105
 20
1061.961624593966
 42
0.4142135623731
 10
-1124.251547318105
 20
1063.461624593966
 42
0.4142135623731
 10
-1125.751547318105
 20
1061.961624593966
 42
0.4142135623731
 10
-1124.251547318105
 20
1060.461624593966
 42
0.4142135623731
  0
LINE
  5
203
330
1F
100
AcDbEntity
  8
0-B_寸法
  6
Continuous
 62
   120
370
     5
100
AcDbLine
 10
-2060.421637479532
 20
851.9616245939665
 30
0.0
 11
-2060.421637479532
 21
1421.961624593966
 31
0.0
  0
LINE
  5
204
330
1F
100
AcDbEntity
  8
0-B_寸法
  6
Continuous
 62
   120
370
     5
100
AcDbLine
 10
-1124.251547318105
 20
1061.961624593966
 30
0.0
 11
-1124.251547318105
 21
1421.961624593966
 31
0.0
  0
LINE
  5
205
330
1F
100
AcDbEntity
  8
0-B_寸法
  6
Continuous
 62
   120
370
     5
100
AcDbLine
 10
-1124.251547318105
 20
1061.961624593966
 30
0.0
 11
-944.251547318102
 21
1061.961624593966
 31
0.0
  0
LWPOLYLINE
  5
206
330
1F
100
AcDbEntity
  8
0-B_寸法
  6
Continuous
 62
     7
370
     9
100
AcDbPolyline
 90
        4
 70
     1
 43
3.0
 10
-942.751547318102
 20
1061.961624593966
 42
0.4142135623731
 10
-944.251547318102
 20
1063.461624593966
 42
0.4142135623731
 10
-945.751547318102
 20
1061.961624593966
 42
0.4142135623731
 10
-944.251547318102
 20
1060.461624593966
 42
0.4142135623731
  0
LINE
  5
207
330
1F
100
AcDbEntity
  8
0-B_寸法
  6
Continuous
 62
   120
370
     5
100
AcDbLine
 10
-944.251547318102
 20
1061.961624593966
 30
0.0
 11
-944.251547318102
 21
1421.961624593966
 31
0.0
  0
MTEXT
  5
208
330
1F
100
AcDbEntity
  8
0-B_寸法
  6
Continuous
 62
     7
370
   211
100
AcDbMText
 10
-1098.001547318104
 20
1065.539124593967
 30
0.0
 40
97.15499999999999
 41
127.5
 46
0.0
 71
     7
 72
     1
  1
{\fＭＳ ゴシック|b0|i0|c128|p49;30}
 73
     1
 44
1.0
  0
LINE
  5
209
330
1F
100
AcDbEntity
  8
0-B_寸法
  6
Continuous
 62
   120
370
     5
100
AcDbLine
 10
-944.251547318102
 20
1061.961624593966
 30
0.0
 11
964.0886330047362
 21
1061.961624593966
 31
0.0
  0
LWPOLYLINE
  5
20A
330
1F
100
AcDbEntity
  8
0-B_寸法
  6
Continuous
 62
     7
370
     9
100
AcDbPolyline
 90
        4
 70
     1
 43
3.0
 10
965.588633004736
 20
1061.961624593966
 42
0.4142135623731
 10
964.0886330047362
 20
1063.461624593966
 42
0.4142135623731
 10
962.5886330047363
 20
1061.961624593966
 42
0.4142135623731
 10
964.0886330047362
 20
1060.461624593966
 42
0.4142135623731
  0
LINE
  5
20B
330
1F
100
AcDbEntity
  8
0-B_寸法
  6
Continuous
 62
   120
370
     5
100
AcDbLine
 10
964.0886330047362
 20
1061.961624593966
 30
0.0
 11
964.0886330047362
 21
1421.961624593966
 31
0.0
  0
LINE
  5
20C
330
1F
100
AcDbEntity
  8
0-B_寸法
  6
Continuous
 62
   120
370
     5
100
AcDbLine
 10
964.0886330047362
 20
1061.961624593966
 30
0.0
 11
1144.088633004739
 21
1061.961624593966
 31
0.0
  0
LWPOLYLINE
  5
20D
330
1F
100
AcDbEntity
  8
0-B_寸法
  6
Continuous
 62
     7
370
     9
100
AcDbPolyline
 90
        4
 70
     1
 43
3.0
 10
1145.588633004739
 20
1061.961624593966
 42
0.4142135623731
 10
1144.088633004739
 20
1063.461624593966
 42
0.4142135623731
 10
1142.58863300474
 20
1061.961624593966
 42
0.4142135623731
 10
1144.088633004739
 20
1060.461624593966
 42
0.4142135623731
  0
LINE
  5
20E
330
1F
100
AcDbEntity
  8
0-B_寸法
  6
Continuous
 62
   120
370
     5
100
AcDbLine
 10
1144.088633004739
 20
1061.961624593966
 30
0.0
 11
1144.088633004739
 21
1421.961624593966
 31
0.0
  0
MTEXT
  5
20F
330
1F
100
AcDbEntity
  8
0-B_寸法
  6
Continuous
 62
     7
370
   211
100
AcDbMText
 10
990.3386330047379
 20
1065.539124593967
 30
0.0
 40
97.15499999999999
 41
127.5
 46
0.0
 71
     7
 72
     1
  1
{\fＭＳ ゴシック|b0|i0|c128|p49;30}
 73
     1
 44
1.0
  0
LINE
  5
210
330
1F
100
AcDbEntity
  8
0-B_寸法
  6
Continuous
 62
   120
370
     5
100
AcDbLine
 10
1144.088633004739
 20
1061.961624593966
 30
0.0
 11
2080.258723166164
 21
1061.961624593966
 31
0.0
  0
LWPOLYLINE
  5
211
330
1F
100
AcDbEntity
  8
0-B_寸法
  6
Continuous
 62
     7
370
     9
100
AcDbPolyline
 90
        4
 70
     1
 43
3.0
 10
2081.758723166164
 20
1061.961624593966
 42
0.4142135623731
 10
2080.258723166164
 20
1063.461624593966
 42
0.4142135623731
 10
2078.758723166165
 20
1061.961624593966
 42
0.4142135623731
 10
2080.258723166164
 20
1060.461624593966
 42
0.4142135623731
  0
LINE
  5
212
330
1F
100
AcDbEntity
  8
0-B_寸法
  6
Continuous
 62
   120
370
     5
100
AcDbLine
 10
2080.258723166164
 20
851.9616245939665
 30
0.0
 11
2080.258723166164
 21
1421.961624593966
 31
0.0
  0
LINE
  5
213
330
1F
100
AcDbEntity
  8
0-B_寸法
  6
Continuous
 62
   120
370
     5
100
AcDbLine
 10
-2240.421637479532
 20
851.9616245939665
 30
0.0
 11
-2060.421637479532
 21
851.9616245939665
 31
0.0
  0
LWPOLYLINE
  5
214
330
1F
100
AcDbEntity
  8
0-B_寸法
  6
Continuous
 62
     7
370
     9
100
AcDbPolyline
 90
        4
 70
     1
 43
3.0
 10
-2238.921637479532
 20
851.9616245939665
 42
0.4142135623731
 10
-2240.421637479532
 20
853.4616245939665
 42
0.4142135623731
 10
-2241.921637479532
 20
851.9616245939665
 42
0.4142135623731
 10
-2240.421637479532
 20
850.4616245939665
 42
0.4142135623731
  0
LWPOLYLINE
  5
215
330
1F
100
AcDbEntity
  8
0-B_寸法
  6
Continuous
 62
     7
370
     9
100
AcDbPolyline
 90
        4
 70
     1
 43
3.0
 10
-2058.921637479532
 20
851.9616245939665
 42
0.4142135623731
 10
-2060.421637479532
 20
853.4616245939665
 42
0.4142135623731
 10
-2061.921637479532
 20
851.9616245939665
 42
0.4142135623731
 10
-2060.421637479532
 20
850.4616245939665
 42
0.4142135623731
  0
LINE
  5
216
330
1F
100
AcDbEntity
  8
0-B_寸法
  6
Continuous
 62
   120
370
     5
100
AcDbLine
 10
-2240.421637479532
 20
641.9616245939665
 30
0.0
 11
-2240.421637479532
 21
1421.961624593966
 31
0.0
  0
MTEXT
  5
217
330
1F
100
AcDbEntity
  8
0-B_寸法
  6
Continuous
 62
     7
370
   211
100
AcDbMText
 10
-2214.171637479532
 20
855.5391245939664
 30
0.0
 40
97.15499999999999
 41
127.5
 46
0.0
 71
     7
 72
     1
  1
{\fＭＳ ゴシック|b0|i0|c128|p49;30}
 73
     1
 44
1.0
  0
LINE
  5
218
330
1F
100
AcDbEntity
  8
0-B_寸法
  6
Continuous
 62
   120
370
     5
100
AcDbLine
 10
-2060.421637479532
 20
851.9616245939665
 30
0.0
 11
2080.258723166164
 21
851.9616245939665
 31
0.0
  0
LWPOLYLINE
  5
219
330
1F
100
AcDbEntity
  8
0-B_寸法
  6
Continuous
 62
     7
370
     9
100
AcDbPolyline
 90
        4
 70
     1
 43
3.0
 10
2081.758723166164
 20
851.9616245939665
 42
0.4142135623731
 10
2080.258723166164
 20
853.4616245939665
 42
0.4142135623731
 10
2078.758723166165
 20
851.9616245939665
 42
0.4142135623731
 10
2080.258723166164
 20
850.4616245939665
 42
0.4142135623731
  0
LINE
  5
21A
330
1F
100
AcDbEntity
  8
0-B_寸法
  6
Continuous
 62
   120
370
     5
100
AcDbLine
 10
2080.258723166164
 20
851.9616245939665
 30
0.0
 11
2260.258723166164
 21
851.9616245939665
 31
0.0
  0
LWPOLYLINE
  5
21B
330
1F
100
AcDbEntity
  8
0-B_寸法
  6
Continuous
 62
     7
370
     9
100
AcDbPolyline
 90
        4
 70
     1
 43
3.0
 10
2261.758723166164
 20
851.9616245939665
 42
0.4142135623731
 10
2260.258723166164
 20
853.4616245939665
 42
0.4142135623731
 10
2258.758723166165
 20
851.9616245939665
 42
0.4142135623731
 10
2260.258723166164
 20
850.4616245939665
 42
0.4142135623731
  0
LINE
  5
21C
330
1F
100
AcDbEntity
  8
0-B_寸法
  6
Continuous
 62
   120
370
     5
100
AcDbLine
 10
2260.258723166164
 20
641.9616245939665
 30
0.0
 11
2260.258723166164
 21
1421.961624593966
 31
0.0
  0
MTEXT
  5
21D
330
1F
100
AcDbEntity
  8
0-B_寸法
  6
Continuous
 62
     7
370
   211
100
AcDbMText
 10
2106.508723166164
 20
855.5391245939664
 30
0.0
 40
97.15499999999999
 41
127.5
 46
0.0
 71
     7
 72
     1
  1
{\fＭＳ ゴシック|b0|i0|c128|p49;30}
 73
     1
 44
1.0
  0
LINE
  5
21E
330
1F
100
AcDbEntity
  8
0-B_寸法
  6
Continuous
 62
   120
370
     5
100
AcDbLine
 10
-2270.338200311375
 20
641.9616245939665
 30
0.0
 11
-2240.421637479532
 21
641.9616245939665
 31
0.0
  0
LWPOLYLINE
  5
21F
330
1F
100
AcDbEntity
  8
0-B_寸法
  6
Continuous
 62
     7
370
     9
100
AcDbPolyline
 90
        4
 70
     1
 43
3.0
 10
-2268.838200311375
 20
641.9616245939665
 42
0.4142135623731
 10
-2270.338200311375
 20
643.4616245939665
 42
0.4142135623731
 10
-2271.838200311375
 20
641.9616245939665
 42
0.4142135623731
 10
-2270.338200311375
 20
640.4616245939665
 42
0.4142135623731
  0
LWPOLYLINE
  5
220
330
1F
100
AcDbEntity
  8
0-B_寸法
  6
Continuous
 62
     7
370
     9
100
AcDbPolyline
 90
        4
 70
     1
 43
3.0
 10
-2238.921637479532
 20
641.9616245939665
 42
0.4142135623731
 10
-2240.421637479532
 20
643.4616245939665
 42
0.4142135623731
 10
-2241.921637479532
 20
641.9616245939665
 42
0.4142135623731
 10
-2240.421637479532
 20
640.4616245939665
 42
0.4142135623731
  0
LINE
  5
221
330
1F
100
AcDbEntity
  8
0-B_寸法
  6
Continuous
 62
   120
370
     5
100
AcDbLine
 10
-2270.338200311375
 20
431.9616245939665
 30
0.0
 11
-2270.338200311375
 21
1421.961624593966
 31
0.0
  0
LINE
  5
222
330
1F
100
AcDbEntity
  8
0-B_寸法
  6
Continuous
 62
   120
370
     5
100
AcDbLine
 10
-2240.421637479532
 20
641.9616245939665
 30
0.0
 11
2260.258723166164
 21
641.9616245939665
 31
0.0
  0
LWPOLYLINE
  5
223
330
1F
100
AcDbEntity
  8
0-B_寸法
  6
Continuous
 62
     7
370
     9
100
AcDbPolyline
 90
        4
 70
     1
 43
3.0
 10
2261.758723166164
 20
641.9616245939665
 42
0.4142135623731
 10
2260.258723166164
 20
643.4616245939665
 42
0.4142135623731
 10
2258.758723166165
 20
641.9616245939665
 42
0.4142135623731
 10
2260.258723166164
 20
640.4616245939665
 42
0.4142135623731
  0
LINE
  5
224
330
1F
100
AcDbEntity
  8
0-B_寸法
  6
Continuous
 62
   120
370
     5
100
AcDbLine
 10
2260.258723166164
 20
641.9616245939665
 30
0.0
 11
2290.175285998008
 21
641.9616245939665
 31
0.0
  0
LWPOLYLINE
  5
225
330
1F
100
AcDbEntity
  8
0-B_寸法
  6
Continuous
 62
     7
370
     9
100
AcDbPolyline
 90
        4
 70
     1
 43
3.0
 10
2291.675285998007
 20
641.9616245939665
 42
0.4142135623731
 10
2290.175285998008
 20
643.4616245939665
 42
0.4142135623731
 10
2288.675285998008
 20
641.9616245939665
 42
0.4142135623731
 10
2290.175285998008
 20
640.4616245939665
 42
0.4142135623731
  0
LINE
  5
226
330
1F
100
AcDbEntity
  8
0-B_寸法
  6
Continuous
 62
   120
370
     5
100
AcDbLine
 10
2290.175285998008
 20
431.9616245939665
 30
0.0
 11
2290.175285998008
 21
1421.961624593966
 31
0.0
  0
LINE
  5
227
330
1F
100
AcDbEntity
  8
0-B_寸法
  6
Continuous
 62
   120
370
     5
100
AcDbLine
 10
-2270.338200311375
 20
431.9616245939665
 30
0.0
 11
2290.175285998008
 21
431.9616245939665
 31
0.0
  0
LWPOLYLINE
  5
228
330
1F
100
AcDbEntity
  8
0-B_寸法
  6
Continuous
 62
     7
370
     9
100
AcDbPolyline
 90
        4
 70
     1
 43
3.0
 10
-2268.838200311375
 20
431.9616245939665
 42
0.4142135623731
 10
-2270.338200311375
 20
433.4616245939665
 42
0.4142135623731
 10
-2271.838200311375
 20
431.9616245939665
 42
0.4142135623731
 10
-2270.338200311375
 20
430.4616245939665
 42
0.4142135623731
  0
LWPOLYLINE
  5
229
330
1F
100
AcDbEntity
  8
0-B_寸法
  6
Continuous
 62
     7
370
     9
100
AcDbPolyline
 90
        4
 70
     1
 43
3.0
 10
2291.675285998007
 20
431.9616245939665
 42
0.4142135623731
 10
2290.175285998008
 20
433.4616245939665
 42
0.4142135623731
 10
2288.675285998008
 20
431.9616245939665
 42
0.4142135623731
 10
2290.175285998008
 20
430.4616245939665
 42
0.4142135623731
  0
MTEXT
  5
22A
330
1F
100
AcDbEntity
  8
0-B_寸法
  6
Continuous
 62
     7
370
   211
100
AcDbMText
 10
-2228.421637479531
 20
642.6816245939665
 30
0.0
 40
91.44
 41
60.0
 46
0.0
 71
     7
 72
     1
  1
{\fＭＳ ゴシック|b0|i0|c128|p49;5}
 73
     1
 44
1.0
  0
MTEXT
  5
22B
330
1F
100
AcDbEntity
  8
0-B_寸法
  6
Continuous
 62
     7
370
   211
100
AcDbMText
 10
2188.258723166165
 20
642.6816245939665
 30
0.0
 40
91.44
 41
60.0
 46
0.0
 71
     7
 72
     1
  1
{\fＭＳ ゴシック|b0|i0|c128|p49;5}
 73
     1
 44
1.0
  0
MTEXT
  5
22C
330
1F
100
AcDbEntity
  8
0-B_寸法
  6
Continuous
 62
     7
370
   211
100
AcDbMText
 10
-627.581457156683
 20
1068.095835120282
 30
0.0
 40
102.2684210526316
 41
1275.0
 46
0.0
 71
     7
 72
     1
  1
{\fＭＳ ゴシック|b0|i0|c128|p49;有効開口寸法＝1,560}
 73
     1
 44
1.0
  0
MTEXT
  5
22D
330
1F
100
AcDbEntity
  8
0-B_寸法
  6
Continuous
 62
     7
370
   211
100
AcDbMText
 10
-357.5814571566829
 20
857.877079139421
 30
0.0
 40
101.8309090909091
 41
735.0
 46
0.0
 71
     7
 72
     1
  1
{\fＭＳ ゴシック|b0|i0|c128|p49;枠内＝3,174}
 73
     1
 44
1.0
  0
MTEXT
  5
22E
330
1F
100
AcDbEntity
  8
0-B_寸法
  6
Continuous
 62
     7
370
   211
100
AcDbMText
 10
-357.5814571566829
 20
647.877079139421
 30
0.0
 40
101.8309090909091
 41
735.0
 46
0.0
 71
     7
 72
     1
  1
{\fＭＳ ゴシック|b0|i0|c128|p49;枠外＝3,234}
 73
     1
 44
1.0
  0
MTEXT
  5
22F
330
1F
100
AcDbEntity
  8
0-B_寸法
  6
Continuous
 62
     7
370
   211
100
AcDbMText
 10
-425.0814571566829
 20
437.957009209351
 30
0.0
 40
101.9907692307692
 41
870.0
 46
0.0
 71
     7
 72
     1
  1
{\fＭＳ ゴシック|b0|i0|c128|p49;ＲＯＷ＝3,244}
 73
     1
 44
1.0
  0
MTEXT
  5
230
330
1F
100
AcDbEntity
  8
0-B_寸法
  6
Continuous
 62
     7
370
   211
100
AcDbMText
 10
-1689.836592398818
 20
1066.491624593966
 30
0.0
 40
99.06
 41
195.0
 46
0.0
 71
     7
 72
     1
  1
{\fＭＳ ゴシック|b0|i0|c128|p49;777}
 73
     1
 44
1.0
  0
MTEXT
  5
231
330
1F
100
AcDbEntity
  8
0-B_寸法
  6
Continuous
 62
     7
370
   211
100
AcDbMText
 10
1514.673678085452
 20
1066.491624593966
 30
0.0
 40
99.06
 41
195.0
 46
0.0
 71
     7
 72
     1
  1
{\fＭＳ ゴシック|b0|i0|c128|p49;777}
 73
     1
 44
1.0
  0
LINE
  5
232
330
1F
100
AcDbEntity
  8
0-0_補助線
  6
JWW_HOJO
 62
   120
370
     5
100
AcDbLine
 10
-2572.801562447445
 20
431.9616245939665
 30
0.0
 11
2590.212755191342
 21
431.9616245939665
 31
0.0
  0
LINE
  5
233
330
1F
100
AcDbEntity
  8
0-4_枠
  6
Continuous
 62
   120
370
     5
100
AcDbLine
 10
-2096.42163747953
 20
2510.962168973789
 30
0.0
 11
-1559.760187066051
 21
2510.962168973789
 31
0.0
  0
LINE
  5
234
330
1F
100
AcDbEntity
  8
0-4_枠
  6
Continuous
 62
   120
370
     5
100
AcDbLine
 10
-1439.760187066051
 20
2510.962168973789
 30
0.0
 11
-515.7601876464081
 21
2510.962168973789
 31
0.0
  0
LINE
  5
235
330
1F
100
AcDbEntity
  8
0-4_枠
  6
Continuous
 62
   120
370
     5
100
AcDbLine
 10
-395.7601876464081
 20
2510.962168973789
 30
0.0
 11
427.2414845952507
 21
2510.962168973789
 31
0.0
  0
LINE
  5
236
330
1F
100
AcDbEntity
  8
0-4_枠
  6
Continuous
 62
   120
370
     5
100
AcDbLine
 10
547.2414845952507
 20
2510.962168973789
 30
0.0
 11
1561.218501188195
 21
2510.962168973789
 31
0.0
  0
LINE
  5
237
330
1F
100
AcDbEntity
  8
0-4_枠
  6
Continuous
 62
   120
370
     5
100
AcDbLine
 10
1681.218501188195
 20
2510.962168973789
 30
0.0
 11
2116.258723166162
 21
2510.962168973789
 31
0.0
  0
LINE
  5
238
330
1F
100
AcDbEntity
  8
0-4_枠
  6
Continuous
 62
   120
370
     5
100
AcDbLine
 10
-944.251547318102
 20
1832.962168973789
 30
0.0
 11
-515.7601876464081
 21
1832.962168973789
 31
0.0
  0
LINE
  5
239
330
1F
100
AcDbEntity
  8
0-4_枠
  6
Continuous
 62
   120
370
     5
100
AcDbLine
 10
-395.7601876464081
 20
1832.962168973789
 30
0.0
 11
427.2414845952507
 21
1832.962168973789
 31
0.0
  0
LINE
  5
23A
330
1F
100
AcDbEntity
  8
0-4_枠
  6
Continuous
 62
   120
370
     5
100
AcDbLine
 10
547.2414845952507
 20
1832.962168973789
 30
0.0
 11
964.0886330047362
 21
1832.962168973789
 31
0.0
  0
LINE
  5
23B
330
1F
100
AcDbEntity
  8
0-A_文字
  6
Continuous
 62
     7
370
     9
100
AcDbLine
 10
-284.2593515255817
 20
1721.961624593966
 30
0.0
 11
-284.2593515255817
 21
1481.961624593966
 31
0.0
  0
LINE
  5
23C
330
1F
100
AcDbEntity
  8
0-A_文字
  6
Continuous
 62
     7
370
     9
100
AcDbLine
 10
315.7406484744217
 20
1481.961624593966
 30
0.0
 11
315.7406484744217
 21
1721.961624593966
 31
0.0
  0
LINE
  5
23D
330
1F
100
AcDbEntity
  8
0-A_文字
  6
Continuous
 62
     7
370
     9
100
AcDbLine
 10
-284.2593515255817
 20
1481.961624593966
 30
0.0
 11
315.7406484744217
 21
1481.961624593966
 31
0.0
  0
LINE
  5
23E
330
1F
100
AcDbEntity
  8
0-A_文字
  6
Continuous
 62
     7
370
     9
100
AcDbLine
 10
315.7406484744217
 20
1721.961624593966
 30
0.0
 11
-284.2593515255817
 21
1721.961624593966
 31
0.0
  0
MTEXT
  5
23F
330
1F
100
AcDbEntity
  8
0-A_文字
  6
Continuous
 62
     7
370
     9
100
AcDbMText
 10
-224.2593515255834
 20
1527.681624593967
 30
0.0
 40
91.44000000000129
 41
480.0000000000068
 46
0.0
 71
     7
 72
     1
  1
{\fＭＳ ゴシック|b0|i0|c128|p49;洋室側・}
 73
     1
 44
1.0
  0
MTEXT
  5
240
330
1F
100
AcDbEntity
  8
0-A_文字
  6
Continuous
 62
     7
370
     9
100
AcDbMText
 10
-224.2593515255834
 20
2706.68216897379
 30
0.0
 40
91.44000000000129
 41
480.0000000000068
 46
0.0
 71
     7
 72
     1
  1
{\fＭＳ ゴシック|b0|i0|c128|p49;和室側・}
 73
     1
 44
1.0
  0
LINE
  5
241
330
1F
100
AcDbEntity
  8
0-A_文字
  6
Continuous
 62
     7
370
     9
100
AcDbLine
 10
-284.2593515255817
 20
2900.962168973791
 30
0.0
 11
-284.2593515255817
 21
2660.96216897379
 31
0.0
  0
LINE
  5
242
330
1F
100
AcDbEntity
  8
0-A_文字
  6
Continuous
 62
     7
370
     9
100
AcDbLine
 10
315.7406484744217
 20
2900.962168973791
 30
0.0
 11
-284.2593515255817
 21
2900.962168973791
 31
0.0
  0
LINE
  5
243
330
1F
100
AcDbEntity
  8
0-A_文字
  6
Continuous
 62
     7
370
     9
100
AcDbLine
 10
-284.2593515255817
 20
2660.96216897379
 30
0.0
 11
315.7406484744217
 21
2660.96216897379
 31
0.0
  0
LINE
  5
244
330
1F
100
AcDbEntity
  8
0-A_文字
  6
Continuous
 62
     7
370
     9
100
AcDbLine
 10
315.7406484744217
 20
2660.96216897379
 30
0.0
 11
315.7406484744217
 21
2900.962168973791
 31
0.0
  0
LINE
  5
245
330
1F
100
AcDbEntity
  8
0-B_寸法
  6
Continuous
 62
   120
370
     5
100
AcDbLine
 10
-2060.421637479532
 20
3050.962396613789
 30
0.0
 11
-2060.421637479532
 21
2690.962396613789
 31
0.0
  0
LWPOLYLINE
  5
246
330
1F
100
AcDbEntity
  8
0-B_寸法
  6
Continuous
 62
     7
370
     9
100
AcDbPolyline
 90
        4
 70
     1
 43
3.0
 10
-2058.921637479532
 20
2870.962396613789
 42
0.4142135623731
 10
-2060.421637479532
 20
2872.462396613789
 42
0.4142135623731
 10
-2061.921637479532
 20
2870.962396613789
 42
0.4142135623731
 10
-2060.421637479532
 20
2869.462396613789
 42
0.4142135623731
  0
LWPOLYLINE
  5
247
330
1F
100
AcDbEntity
  8
0-B_寸法
  6
Continuous
 62
     7
370
     9
100
AcDbPolyline
 90
        4
 70
     1
 43
3.0
 10
-2058.921637479532
 20
3050.962396613789
 42
0.4142135623731
 10
-2060.421637479532
 20
3052.462396613789
 42
0.4142135623731
 10
-2061.921637479532
 20
3050.962396613789
 42
0.4142135623731
 10
-2060.421637479532
 20
3049.462396613789
 42
0.4142135623731
  0
LINE
  5
248
330
1F
100
AcDbEntity
  8
0-B_寸法
  6
Continuous
 62
   120
370
     5
100
AcDbLine
 10
-2120.421637479532
 20
2870.962396613789
 30
0.0
 11
-2120.421637479532
 21
2690.962396613789
 31
0.0
  0
MTEXT
  5
249
330
1F
100
AcDbEntity
  8
0-B_寸法
  6
Continuous
 62
     7
370
   211
100
AcDbMText
 10
-2210.421365295726
 20
3051.682396613789
 30
0.0
 40
91.44
 41
120.0
 46
0.0
 71
     7
 72
     1
  1
{\fＭＳ ゴシック|b0|i0|c128|p49;30}
 73
     1
 44
1.0
  0
LWPOLYLINE
  5
24A
330
1F
100
AcDbEntity
  8
0-B_寸法
  6
Continuous
 62
     7
370
     9
100
AcDbPolyline
 90
        4
 70
     1
 43
3.0
 10
-2118.921637479532
 20
2870.962396613789
 42
0.4142135623731
 10
-2120.421637479532
 20
2872.462396613789
 42
0.4142135623731
 10
-2121.921637479532
 20
2870.962396613789
 42
0.4142135623731
 10
-2120.421637479532
 20
2869.462396613789
 42
0.4142135623731
  0
LINE
  5
24B
330
1F
100
AcDbEntity
  8
0-B_寸法
  6
Continuous
 62
   120
370
     5
100
AcDbLine
 10
-2174.421637479531
 20
2870.962396613789
 30
0.0
 11
-2174.421637479531
 21
2690.962396613789
 31
0.0
  0
MTEXT
  5
24C
330
1F
100
AcDbEntity
  8
0-B_寸法
  6
Continuous
 62
     7
370
   211
100
AcDbMText
 10
-2222.421449425268
 20
2871.682396613789
 30
0.0
 40
91.44
 41
60.0
 46
0.0
 71
     7
 72
     1
  1
{\fＭＳ ゴシック|b0|i0|c128|p49;6}
 73
     1
 44
1.0
  0
LWPOLYLINE
  5
24D
330
1F
100
AcDbEntity
  8
0-B_寸法
  6
Continuous
 62
     7
370
     9
100
AcDbPolyline
 90
        4
 70
     1
 43
3.0
 10
-2172.921637479531
 20
2870.962396613789
 42
0.4142135623731
 10
-2174.421637479531
 20
2872.462396613789
 42
0.4142135623731
 10
-2175.921637479531
 20
2870.962396613789
 42
0.4142135623731
 10
-2174.421637479531
 20
2869.462396613789
 42
0.4142135623731
  0
LINE
  5
24E
330
1F
100
AcDbEntity
  8
0-B_寸法
  6
Continuous
 62
   120
370
     5
100
AcDbLine
 10
-2210.421637479532
 20
2870.962396613789
 30
0.0
 11
-2210.421637479532
 21
2690.962396613789
 31
0.0
  0
LWPOLYLINE
  5
24F
330
1F
100
AcDbEntity
  8
0-B_寸法
  6
Continuous
 62
     7
370
     9
100
AcDbPolyline
 90
        4
 70
     1
 43
3.0
 10
-2208.921637479532
 20
2870.962396613789
 42
0.4142135623731
 10
-2210.421637479532
 20
2872.462396613789
 42
0.4142135623731
 10
-2211.921637479532
 20
2870.962396613789
 42
0.4142135623731
 10
-2210.421637479532
 20
2869.462396613789
 42
0.4142135623731
  0
LINE
  5
250
330
1F
100
AcDbEntity
  8
0-B_寸法
  6
Continuous
 62
   120
370
     5
100
AcDbLine
 10
-2240.421637479532
 20
2870.962396613789
 30
0.0
 11
-2060.421637479532
 21
2870.962396613789
 31
0.0
  0
LINE
  5
251
330
1F
100
AcDbEntity
  8
0-B_寸法
  6
Continuous
 62
   120
370
     5
100
AcDbLine
 10
-2240.421637479532
 20
3050.962396613789
 30
0.0
 11
-2240.421637479532
 21
2690.962396613789
 31
0.0
  0
LINE
  5
252
330
1F
100
AcDbEntity
  8
0-B_寸法
  6
Continuous
 62
   120
370
     5
100
AcDbLine
 10
-2240.421637479532
 20
3050.962396613789
 30
0.0
 11
-2060.421637479532
 21
3050.962396613789
 31
0.0
  0
LWPOLYLINE
  5
253
330
1F
100
AcDbEntity
  8
0-B_寸法
  6
Continuous
 62
     7
370
     9
100
AcDbPolyline
 90
        4
 70
     1
 43
3.0
 10
-2238.921637479532
 20
2870.962396613789
 42
0.4142135623731
 10
-2240.421637479532
 20
2872.462396613789
 42
0.4142135623731
 10
-2241.921637479532
 20
2870.962396613789
 42
0.4142135623731
 10
-2240.421637479532
 20
2869.462396613789
 42
0.4142135623731
  0
LWPOLYLINE
  5
254
330
1F
100
AcDbEntity
  8
0-B_寸法
  6
Continuous
 62
     7
370
     9
100
AcDbPolyline
 90
        4
 70
     1
 43
3.0
 10
-2238.921637479532
 20
3050.962396613789
 42
0.4142135623731
 10
-2240.421637479532
 20
3052.462396613789
 42
0.4142135623731
 10
-2241.921637479532
 20
3050.962396613789
 42
0.4142135623731
 10
-2240.421637479532
 20
3049.462396613789
 42
0.4142135623731
  0
MTEXT
  5
255
330
1F
100
AcDbEntity
  8
0-B_寸法
  6
Continuous
 62
     7
370
   211
100
AcDbMText
 10
-2177.421652325919
 20
2733.642382225324
 30
0.0
 40
91.44
 41
60.0
 46
0.0
 71
     7
 72
     1
  1
{\fＭＳ ゴシック|b0|i0|c128|p49;9}
 73
     1
 44
1.0
  0
MTEXT
  5
256
330
1F
100
AcDbEntity
  8
0-A_文字
  6
Continuous
 62
     7
370
     9
100
AcDbMText
 10
-2569.741276833836
 20
3216.748220668865
 30
0.0
 40
100.584
 41
660.0
 46
0.0
 71
     7
 72
     1
  1
{\fＭＳ ゴシック|b0|i0|c128|p49;■横断面図}
 73
     1
 44
1.0
  0
LINE
  5
257
330
1F
100
AcDbEntity
  8
0-3_仕上げ
  6
Continuous
 62
    40
370
    15
100
AcDbLine
 10
-2570.338200311357
 20
2600.962168973791
 30
0.0
 11
-1559.760187066051
 21
2600.962168973791
 31
0.0
  0
LINE
  5
258
330
1F
100
AcDbEntity
  8
0-3_仕上げ
  6
Continuous
 62
    40
370
    15
100
AcDbLine
 10
-1439.760187066051
 20
2600.962168973791
 30
0.0
 11
-515.7601876464081
 21
2600.962168973791
 31
0.0
  0
LINE
  5
259
330
1F
100
AcDbEntity
  8
0-3_仕上げ
  6
Continuous
 62
    40
370
    15
100
AcDbLine
 10
-395.7601876464081
 20
2600.962168973791
 30
0.0
 11
427.2414845952507
 21
2600.962168973791
 31
0.0
  0
LINE
  5
25A
330
1F
100
AcDbEntity
  8
0-3_仕上げ
  6
Continuous
 62
    40
370
    15
100
AcDbLine
 10
547.2414845952507
 20
2600.962168973791
 30
0.0
 11
1561.218501188195
 21
2600.962168973791
 31
0.0
  0
LINE
  5
25B
330
1F
100
AcDbEntity
  8
0-3_仕上げ
  6
Continuous
 62
    40
370
    15
100
AcDbLine
 10
1681.218501188195
 20
2600.962168973791
 30
0.0
 11
2590.258723166165
 21
2600.962168973791
 31
0.0
  0
LINE
  5
25C
330
1F
100
AcDbEntity
  8
0-A_文字
  6
Continuous
 62
     7
370
     9
100
AcDbLine
 10
2359.773759184552
 20
2714.851663017822
 30
0.0
 11
2320.213126351072
 21
2714.851663017822
 31
0.0
  0
MTEXT
  5
25D
330
1F
100
AcDbEntity
  8
0-A_文字
  6
Continuous
 62
     7
370
     0
100
AcDbMText
 10
2350.213126351072
 20
2640.571663017822
 30
0.0
 40
91.44
 41
240.0
 46
0.0
 71
     7
 72
     1
  1
{\fＭＳ ゴシック|b0|i0|c128|p49;畳寄}
 73
     1
 44
1.0
  0
LINE
  5
25E
330
1F
100
AcDbEntity
  8
0-A_文字
  6
Continuous
 62
     7
370
     9
100
AcDbLine
 10
2260.434988672684
 20
2572.521884793918
 30
0.0
 11
2320.213126351072
 21
2714.851663017822
 31
0.0
  0
LINE
  5
25F
330
1F
100
AcDbEntity
  8
0-1_通り芯
  6
JWW_CENTER1
 62
   120
370
     5
100
AcDbLine
 10
-2270.463726993363
 20
2486.962168973789
 30
0.0
 11
-2270.463726993363
 21
1421.961624593966
 31
0.0
  0
LINE
  5
260
330
1F
100
AcDbEntity
  8
0-1_通り芯
  6
JWW_CENTER1
 62
   120
370
     5
100
AcDbLine
 10
2290.175285998007
 20
2486.962168973789
 30
0.0
 11
2290.175285998007
 21
1421.961624593966
 31
0.0
  0
MTEXT
  5
261
330
1F
100
AcDbEntity
  8
F-A_文字
  6
Continuous
 62
     7
370
     9
100
AcDbMText
 10
5096.167700144058
 20
-4147.857012699985
 30
0.0
 40
74.295
 41
97.5
 46
0.0
 71
     7
 72
     1
  1
{\fＭＳ ゴシック|b0|i0|c128|p49;01}
 73
     1
 44
1.0
  0
LINE
  5
262
330
1F
100
AcDbEntity
  8
0-B_寸法
  6
Continuous
 62
   120
370
     5
100
AcDbLine
 10
-1892.754758802917
 20
2510.96216897379
 30
0.0
 11
-2005.735925433974
 21
2510.96216897379
 31
0.0
  0
LWPOLYLINE
  5
263
330
1F
100
AcDbEntity
  8
0-B_寸法
  6
Continuous
 62
     7
370
     9
100
AcDbPolyline
 90
        4
 70
     1
 43
3.0
 10
-1891.254758802917
 20
2510.96216897379
 42
0.4142135623731
 10
-1892.754758802917
 20
2512.46216897379
 42
0.4142135623731
 10
-1894.254758802917
 20
2510.96216897379
 42
0.4142135623731
 10
-1892.754758802917
 20
2509.46216897379
 42
0.4142135623731
  0
LINE
  5
264
330
1F
100
AcDbEntity
  8
0-B_寸法
  6
Continuous
 62
   120
370
     5
100
AcDbLine
 10
-1892.754758802917
 20
2036.962168973789
 30
0.0
 11
-2005.735925433974
 21
2036.962168973789
 31
0.0
  0
LWPOLYLINE
  5
265
330
1F
100
AcDbEntity
  8
0-B_寸法
  6
Continuous
 62
     7
370
     9
100
AcDbPolyline
 90
        4
 70
     1
 43
3.0
 10
-1891.254758802917
 20
2036.962168973789
 42
0.4142135623731
 10
-1892.754758802917
 20
2038.462168973789
 42
0.4142135623731
 10
-1894.254758802917
 20
2036.962168973789
 42
0.4142135623731
 10
-1892.754758802917
 20
2035.462168973789
 42
0.4142135623731
  0
LINE
  5
266
330
1F
100
AcDbEntity
  8
0-B_寸法
  6
Continuous
 62
   120
370
     5
100
AcDbLine
 10
-1892.754758802917
 20
2036.962168973789
 30
0.0
 11
-1892.754758802917
 21
2510.96216897379
 31
0.0
  0
LINE
  5
267
330
1F
100
AcDbEntity
  8
0-0_補助線
  6
JWW_HOJO
 62
   120
370
     5
100
AcDbLine
 10
-805.8015624474455
 20
-210.8487132713799
 30
0.0
 11
-805.8015624474455
 21
-3258.848713373457
 31
0.0
  0
LINE
  5
268
330
1F
100
AcDbEntity
  8
0-0_補助線
  6
JWW_HOJO
 62
   120
370
     5
100
AcDbLine
 10
-595.8015624474455
 20
-210.8487132713799
 30
0.0
 11
-595.8015624474455
 21
-3258.848713373457
 31
0.0
  0
LINE
  5
269
330
1F
100
AcDbEntity
  8
0-0_補助線
  6
JWW_HOJO
 62
   120
370
     5
100
AcDbLine
 10
-175.8015624474454
 20
-210.8487132713799
 30
0.0
 11
-175.8015624474454
 21
-3258.848713373457
 31
0.0
  0
LINE
  5
26A
330
1F
100
AcDbEntity
  8
0-0_補助線
  6
JWW_HOJO
 62
   120
370
     5
100
AcDbLine
 10
-385.8015624474455
 20
-210.8487132713799
 30
0.0
 11
-385.8015624474455
 21
-3258.848713373457
 31
0.0
  0
LINE
  5
26B
330
1F
100
AcDbEntity
  8
0-B_寸法
  6
Continuous
 62
   120
370
     5
100
AcDbLine
 10
34.19843755255457
 20
-558.8487132713772
 30
0.0
 11
-805.8015624474455
 21
-558.8487132713772
 31
0.0
  0
LINE
  5
26C
330
1F
100
AcDbEntity
  8
0-B_寸法
  6
Continuous
 62
   120
370
     5
100
AcDbLine
 10
-175.8015624474454
 20
-3168.848713271374
 30
0.0
 11
-805.8015624474455
 21
-3168.848713271374
 31
0.0
  0
LWPOLYLINE
  5
26D
330
1F
100
AcDbEntity
  8
0-B_寸法
  6
Continuous
 62
     7
370
     9
100
AcDbPolyline
 90
        4
 70
     1
 43
3.0
 10
-174.3015624474454
 20
-558.8487132713772
 42
0.4142135623731
 10
-175.8015624474454
 20
-557.3487132713772
 42
0.4142135623731
 10
-177.3015624474454
 20
-558.8487132713772
 42
0.4142135623731
 10
-175.8015624474454
 20
-560.3487132713772
 42
0.4142135623731
  0
LWPOLYLINE
  5
26E
330
1F
100
AcDbEntity
  8
0-B_寸法
  6
Continuous
 62
     7
370
     9
100
AcDbPolyline
 90
        4
 70
     1
 43
3.0
 10
-174.3015624474454
 20
-3168.848713271374
 42
0.4142135623731
 10
-175.8015624474454
 20
-3167.348713271374
 42
0.4142135623731
 10
-177.3015624474454
 20
-3168.848713271374
 42
0.4142135623731
 10
-175.8015624474454
 20
-3170.348713271374
 42
0.4142135623731
  0
LINE
  5
26F
330
1F
100
AcDbEntity
  8
0-B_寸法
  6
Continuous
 62
   120
370
     5
100
AcDbLine
 10
-595.8015624474455
 20
-782.0487129867979
 30
0.0
 11
-595.8015624474455
 21
-822.8487129867949
 31
0.0
  0
LWPOLYLINE
  5
270
330
1F
100
AcDbEntity
  8
0-B_寸法
  6
Continuous
 62
     7
370
     9
100
AcDbPolyline
 90
        4
 70
     1
 43
3.0
 10
-594.3015624474455
 20
-782.0487129867979
 42
0.4142135623731
 10
-595.8015624474455
 20
-780.5487129867979
 42
0.4142135623731
 10
-597.3015624474455
 20
-782.0487129867979
 42
0.4142135623731
 10
-595.8015624474455
 20
-783.5487129867979
 42
0.4142135623731
  0
LWPOLYLINE
  5
271
330
1F
100
AcDbEntity
  8
0-B_寸法
  6
Continuous
 62
     7
370
     9
100
AcDbPolyline
 90
        4
 70
     1
 43
3.0
 10
-594.3015624474455
 20
-822.8487129867949
 42
0.4142135623731
 10
-595.8015624474455
 20
-821.3487129867949
 42
0.4142135623731
 10
-597.3015624474455
 20
-822.8487129867949
 42
0.4142135623731
 10
-595.8015624474455
 20
-824.3487129867949
 42
0.4142135623731
  0
LINE
  5
272
330
1F
100
AcDbEntity
  8
0-B_寸法
  6
Continuous
 62
   120
370
     5
100
AcDbLine
 10
-595.8015624474455
 20
-782.0487129867979
 30
0.0
 11
-805.8015624474455
 21
-782.0487129867979
 31
0.0
  0
LINE
  5
273
330
1F
100
AcDbEntity
  8
0-B_寸法
  6
Continuous
 62
   120
370
     5
100
AcDbLine
 10
-385.8015624474455
 20
-822.8487129867949
 30
0.0
 11
-805.8015624474455
 21
-822.8487129867949
 31
0.0
  0
LINE
  5
274
330
1F
100
AcDbEntity
  8
0-B_寸法
  6
Continuous
 62
   120
370
     5
100
AcDbLine
 10
-385.8015624474455
 20
-738.8487132713806
 30
0.0
 11
-385.8015624474455
 21
-3138.849313271376
 31
0.0
  0
LWPOLYLINE
  5
275
330
1F
100
AcDbEntity
  8
0-B_寸法
  6
Continuous
 62
     7
370
     9
100
AcDbPolyline
 90
        4
 70
     1
 43
3.0
 10
-384.3015624474454
 20
-738.8487132713806
 42
0.4142135623731
 10
-385.8015624474455
 20
-737.3487132713806
 42
0.4142135623731
 10
-387.3015624474455
 20
-738.8487132713806
 42
0.4142135623731
 10
-385.8015624474455
 20
-740.3487132713806
 42
0.4142135623731
  0
LWPOLYLINE
  5
276
330
1F
100
AcDbEntity
  8
0-B_寸法
  6
Continuous
 62
     7
370
     9
100
AcDbPolyline
 90
        4
 70
     1
 43
3.0
 10
-384.3015624474454
 20
-822.8487129867949
 42
0.4142135623731
 10
-385.8015624474455
 20
-821.3487129867949
 42
0.4142135623731
 10
-387.3015624474455
 20
-822.8487129867949
 42
0.4142135623731
 10
-385.8015624474455
 20
-824.3487129867949
 42
0.4142135623731
  0
LINE
  5
277
330
1F
100
AcDbEntity
  8
0-B_寸法
  6
Continuous
 62
   120
370
     5
100
AcDbLine
 10
-175.8015624474454
 20
-738.8487132713806
 30
0.0
 11
-805.8015624474455
 21
-738.8487132713806
 31
0.0
  0
LINE
  5
278
330
1F
100
AcDbEntity
  8
0-B_寸法
  6
Continuous
 62
   120
370
     5
100
AcDbLine
 10
34.19843755255457
 20
-3258.848713271374
 30
0.0
 11
-805.8015624474455
 21
-3258.848713271374
 31
0.0
  0
LINE
  5
279
330
1F
100
AcDbEntity
  8
0-B_寸法
  6
Continuous
 62
   120
370
     5
100
AcDbLine
 10
-175.8015624474454
 20
-3258.848713271374
 30
0.0
 11
-175.8015624474454
 21
-558.8487132713772
 31
0.0
  0
LWPOLYLINE
  5
27A
330
1F
100
AcDbEntity
  8
0-B_寸法
  6
Continuous
 62
     7
370
     9
100
AcDbPolyline
 90
        4
 70
     1
 43
3.0
 10
-174.3015624474454
 20
-3186.848713271374
 42
0.4142135623731
 10
-175.8015624474454
 20
-3185.348713271374
 42
0.4142135623731
 10
-177.3015624474454
 20
-3186.848713271374
 42
0.4142135623731
 10
-175.8015624474454
 20
-3188.348713271374
 42
0.4142135623731
  0
LINE
  5
27B
330
1F
100
AcDbEntity
  8
0-B_寸法
  6
Continuous
 62
   120
370
     5
100
AcDbLine
 10
-385.8015624474455
 20
-3168.849313271376
 30
0.0
 11
-385.8015624474455
 21
-3138.849313271376
 31
0.0
  0
LWPOLYLINE
  5
27C
330
1F
100
AcDbEntity
  8
0-B_寸法
  6
Continuous
 62
     7
370
     9
100
AcDbPolyline
 90
        4
 70
     1
 43
3.0
 10
-384.3015624474454
 20
-3168.849313271376
 42
0.4142135623731
 10
-385.8015624474455
 20
-3167.349313271376
 42
0.4142135623731
 10
-387.3015624474455
 20
-3168.849313271376
 42
0.4142135623731
 10
-385.8015624474455
 20
-3170.349313271376
 42
0.4142135623731
  0
LWPOLYLINE
  5
27D
330
1F
100
AcDbEntity
  8
0-B_寸法
  6
Continuous
 62
     7
370
     9
100
AcDbPolyline
 90
        4
 70
     1
 43
3.0
 10
-384.3015624474454
 20
-3138.849313271376
 42
0.4142135623731
 10
-385.8015624474455
 20
-3137.349313271376
 42
0.4142135623731
 10
-387.3015624474455
 20
-3138.849313271376
 42
0.4142135623731
 10
-385.8015624474455
 20
-3140.349313271376
 42
0.4142135623731
  0
LINE
  5
27E
330
1F
100
AcDbEntity
  8
0-B_寸法
  6
Continuous
 62
   120
370
     5
100
AcDbLine
 10
-385.8015624474455
 20
-3168.849313271376
 30
0.0
 11
-805.8015624474455
 21
-3168.849313271376
 31
0.0
  0
LINE
  5
27F
330
1F
100
AcDbEntity
  8
0-B_寸法
  6
Continuous
 62
   120
370
     5
100
AcDbLine
 10
-385.8015624474455
 20
-3138.849313271376
 30
0.0
 11
-805.8015624474455
 21
-3138.849313271376
 31
0.0
  0
LWPOLYLINE
  5
280
330
1F
100
AcDbEntity
  8
0-B_寸法
  6
Continuous
 62
     7
370
     9
100
AcDbPolyline
 90
        4
 70
     1
 43
3.0
 10
-174.3015624474454
 20
-738.8487132713806
 42
0.4142135623731
 10
-175.8015624474454
 20
-737.3487132713806
 42
0.4142135623731
 10
-177.3015624474454
 20
-738.8487132713806
 42
0.4142135623731
 10
-175.8015624474454
 20
-740.3487132713806
 42
0.4142135623731
  0
LINE
  5
281
330
1F
100
AcDbEntity
  8
0-B_寸法
  6
Continuous
 62
   120
370
     5
100
AcDbLine
 10
34.19843755255457
 20
-510.8487132713765
 30
0.0
 11
34.19843755255457
 21
-558.8487132713772
 31
0.0
  0
LWPOLYLINE
  5
282
330
1F
100
AcDbEntity
  8
0-B_寸法
  6
Continuous
 62
     7
370
     9
100
AcDbPolyline
 90
        4
 70
     1
 43
3.0
 10
35.69843755255457
 20
-510.8487132713765
 42
0.4142135623731
 10
34.19843755255457
 20
-509.3487132713765
 42
0.4142135623731
 10
32.69843755255457
 20
-510.8487132713765
 42
0.4142135623731
 10
34.19843755255457
 20
-512.3487132713765
 42
0.4142135623731
  0
LWPOLYLINE
  5
283
330
1F
100
AcDbEntity
  8
0-B_寸法
  6
Continuous
 62
     7
370
     9
100
AcDbPolyline
 90
        4
 70
     1
 43
3.0
 10
35.69843755255457
 20
-558.8487132713772
 42
0.4142135623731
 10
34.19843755255457
 20
-557.3487132713772
 42
0.4142135623731
 10
32.69843755255457
 20
-558.8487132713772
 42
0.4142135623731
 10
34.19843755255457
 20
-560.3487132713772
 42
0.4142135623731
  0
LINE
  5
284
330
1F
100
AcDbEntity
  8
0-B_寸法
  6
Continuous
 62
   120
370
     5
100
AcDbLine
 10
34.19843755255457
 20
-510.8487132713765
 30
0.0
 11
-805.8015624474455
 21
-510.8487132713765
 31
0.0
  0
LINE
  5
285
330
1F
100
AcDbEntity
  8
0-0_補助線
  6
JWW_HOJO
 62
   120
370
     5
100
AcDbLine
 10
34.19843755255457
 20
-210.8487132713799
 30
0.0
 11
34.19843755255457
 21
-3258.848713373457
 31
0.0
  0
MTEXT
  5
286
330
1F
100
AcDbEntity
  8
0-A_文字
  6
Continuous
 62
     7
370
     0
100
AcDbMText
 10
-1105.801562447445
 20
-3554.200069581004
 30
0.0
 40
78.97090909090909
 41
1140.0
 46
0.0
 71
     7
 72
     1
  1
{\fＭＳ ゴシック|b0|i0|c128|p49;※(　)内寸法はハイドア}
 73
     1
 44
1.0
  0
MTEXT
  5
287
330
1F
100
AcDbEntity
  8
0-B_寸法
  6
Continuous
 62
     7
370
   211
100
AcDbMText
 10
-2587.801562447448
 20
-618.1287132713805
 30
0.0
 40
91.44
 41
60.0
 46
0.0
 71
     7
 72
     1
  1
{\fＭＳ ゴシック|b0|i0|c128|p49;5}
 11
6.123031769111886E-17
 21
1.0
 31
0.0
 73
     1
 44
1.0
  0
MTEXT
  5
288
330
1F
100
AcDbEntity
  8
0-B_寸法
  6
Continuous
 62
     7
370
   211
100
AcDbMText
 10
19.19843755255457
 20
-633.128713271375
 30
0.0
 40
91.44
 41
60.0
 46
0.0
 71
     7
 72
     1
  1
{\fＭＳ ゴシック|b0|i0|c128|p49;8}
 11
6.123031769111886E-17
 21
1.0
 31
0.0
 73
     1
 44
1.0
  0
MTEXT
  5
289
330
1F
100
AcDbEntity
  8
0-B_寸法
  6
Continuous
 62
     7
370
   211
100
AcDbMText
 10
-2437.801562447448
 20
-660.1287132713799
 30
0.0
 40
91.44
 41
60.0
 46
0.0
 71
     7
 72
     1
  1
{\fＭＳ ゴシック|b0|i0|c128|p49;9}
 11
6.123031769111886E-17
 21
1.0
 31
0.0
 73
     1
 44
1.0
  0
LINE
  5
28A
330
1F
100
AcDbEntity
  8
0-1_通り芯
  6
JWW_CENTER1
 62
   120
370
     5
100
AcDbLine
 10
151.1984375525547
 20
-3258.848713271373
 30
0.0
 11
-3048.718056654076
 21
-3258.848713271377
 31
0.0
  0
LINE
  5
28B
330
1F
100
AcDbEntity
  8
0-0_補助線
  6
JWW_HOJO
 62
   120
370
     5
100
AcDbLine
 10
-3040.801562447444
 20
-210.8487132713842
 30
0.0
 11
34.19843755255457
 21
-210.8487132713799
 31
0.0
  0
LINE
  5
28C
330
1F
100
AcDbEntity
  8
0-1_通り芯
  6
JWW_CENTER1
 62
   120
370
     5
100
AcDbLine
 10
-3040.801562447444
 20
-510.8487132713799
 30
0.0
 11
148.1984375525545
 21
-510.8487132713752
 31
0.0
  0
MTEXT
  5
28D
330
1F
100
AcDbEntity
  8
0-B_寸法
  6
Continuous
 62
     7
370
   211
100
AcDbMText
 10
-190.8015624474454
 20
-724.0212132713784
 30
0.0
 40
97.15499999999999
 41
127.5
 46
0.0
 71
     7
 72
     1
  1
{\fＭＳ ゴシック|b0|i0|c128|p49;30}
 11
6.123031769111886E-17
 21
1.0
 31
0.0
 73
     1
 44
1.0
  0
MTEXT
  5
28E
330
1F
100
AcDbEntity
  8
0-B_寸法
  6
Continuous
 62
     7
370
   211
100
AcDbMText
 10
-2587.801562447448
 20
-765.1287132713799
 30
0.0
 40
91.44
 41
120.0
 46
0.0
 71
     7
 72
     1
  1
{\fＭＳ ゴシック|b0|i0|c128|p49;16}
 11
6.123031769111886E-17
 21
1.0
 31
0.0
 73
     1
 44
1.0
  0
MTEXT
  5
28F
330
1F
100
AcDbEntity
  8
0-B_寸法
  6
Continuous
 62
     7
370
   211
100
AcDbMText
 10
-400.8015624474455
 20
-973.7712129867955
 30
0.0
 40
97.15499999999999
 41
127.5
 46
0.0
 71
     7
 72
     1
  1
{\fＭＳ ゴシック|b0|i0|c128|p49;14}
 11
6.123031769111886E-17
 21
1.0
 31
0.0
 73
     1
 44
1.0
  0
MTEXT
  5
290
330
1F
100
AcDbEntity
  8
0-B_寸法
  6
Continuous
 62
     7
370
   211
100
AcDbMText
 10
-610.8015624474455
 20
-1040.318712986798
 30
0.0
 40
99.06
 41
195.0
 46
0.0
 71
     7
 72
     1
  1
{\fＭＳ ゴシック|b0|i0|c128|p49;6.8}
 11
6.123031769111886E-17
 21
1.0
 31
0.0
 73
     1
 44
1.0
  0
MTEXT
  5
291
330
1F
100
AcDbEntity
  8
0-B_寸法
  6
Continuous
 62
     7
370
   211
100
AcDbMText
 10
-3055.801562447444
 20
-2499.12871327138
 30
0.0
 40
91.43999999999996
 41
1200.0
 46
0.0
 71
     7
 72
     1
  1
{\fＭＳ ゴシック|b0|i0|c128|p49;ＲＯＨ＝2,055(2,255)}
 11
6.123031769111886E-17
 21
1.0
 31
0.0
 73
     1
 44
1.0
  0
MTEXT
  5
292
330
1F
100
AcDbEntity
  8
0-B_寸法
  6
Continuous
 62
     7
370
   211
100
AcDbMText
 10
-400.8015624474455
 20
-2557.481213271376
 30
0.0
 40
102.235
 41
1207.5
 46
0.0
 71
     7
 72
     1
  1
{\fＭＳ ゴシック|b0|i0|c128|p49;ＤＨ＝1,983(2,183)}
 11
6.123031769111886E-17
 21
1.0
 31
0.0
 73
     1
 44
1.0
  0
MTEXT
  5
293
330
1F
100
AcDbEntity
  8
0-B_寸法
  6
Continuous
 62
     7
370
   211
100
AcDbMText
 10
-190.8015624474454
 20
-2557.481213271376
 30
0.0
 40
102.235
 41
1207.5
 46
0.0
 71
     7
 72
     1
  1
{\fＭＳ ゴシック|b0|i0|c128|p49;枠内＝2,002(2,202)}
 11
6.123031769111886E-17
 21
1.0
 31
0.0
 73
     1
 44
1.0
  0
LINE
  5
294
330
1F
100
AcDbEntity
  8
0-B_寸法
  6
Continuous
 62
   120
370
     5
100
AcDbLine
 10
-2572.801562447448
 20
-558.8487132713806
 30
0.0
 11
-2572.801562447448
 21
-588.8487132713806
 31
0.0
  0
LWPOLYLINE
  5
295
330
1F
100
AcDbEntity
  8
0-B_寸法
  6
Continuous
 62
     7
370
     9
100
AcDbPolyline
 90
        4
 70
     1
 43
3.0
 10
-2571.301562447448
 20
-558.8487132713806
 42
0.4142135623731
 10
-2572.801562447448
 20
-557.3487132713806
 42
0.4142135623731
 10
-2574.301562447448
 20
-558.8487132713806
 42
0.4142135623731
 10
-2572.801562447448
 20
-560.3487132713806
 42
0.4142135623731
  0
LWPOLYLINE
  5
296
330
1F
100
AcDbEntity
  8
0-B_寸法
  6
Continuous
 62
     7
370
     9
100
AcDbPolyline
 90
        4
 70
     1
 43
3.0
 10
-2571.301562447448
 20
-588.8487132713806
 42
0.4142135623731
 10
-2572.801562447448
 20
-587.3487132713806
 42
0.4142135623731
 10
-2574.301562447448
 20
-588.8487132713806
 42
0.4142135623731
 10
-2572.801562447448
 20
-590.3487132713806
 42
0.4142135623731
  0
LINE
  5
297
330
1F
100
AcDbEntity
  8
0-B_寸法
  6
Continuous
 62
   120
370
     5
100
AcDbLine
 10
-2572.801562447448
 20
-588.8487132713806
 30
0.0
 11
-2572.801562447448
 21
-642.8487132713792
 31
0.0
  0
LWPOLYLINE
  5
298
330
1F
100
AcDbEntity
  8
0-B_寸法
  6
Continuous
 62
     7
370
     9
100
AcDbPolyline
 90
        4
 70
     1
 43
3.0
 10
-2571.301562447448
 20
-642.8487132713792
 42
0.4142135623731
 10
-2572.801562447448
 20
-641.3487132713792
 42
0.4142135623731
 10
-2574.301562447448
 20
-642.8487132713792
 42
0.4142135623731
 10
-2572.801562447448
 20
-644.3487132713792
 42
0.4142135623731
  0
LINE
  5
299
330
1F
100
AcDbEntity
  8
0-B_寸法
  6
Continuous
 62
   120
370
     5
100
AcDbLine
 10
-2572.801562447448
 20
-642.8487132713792
 30
0.0
 11
-2572.801562447448
 21
-738.8487132713806
 31
0.0
  0
LWPOLYLINE
  5
29A
330
1F
100
AcDbEntity
  8
0-B_寸法
  6
Continuous
 62
     7
370
     9
100
AcDbPolyline
 90
        4
 70
     1
 43
3.0
 10
-2571.301562447448
 20
-738.8487132713806
 42
0.4142135623731
 10
-2572.801562447448
 20
-737.3487132713806
 42
0.4142135623731
 10
-2574.301562447448
 20
-738.8487132713806
 42
0.4142135623731
 10
-2572.801562447448
 20
-740.3487132713806
 42
0.4142135623731
  0
MTEXT
  5
29B
330
1F
100
AcDbEntity
  8
0-B_寸法
  6
Continuous
 62
     7
370
   211
100
AcDbMText
 10
-400.8015624474455
 20
-3141.129313271377
 30
0.0
 40
91.44
 41
60.0
 46
0.0
 71
     7
 72
     1
  1
{\fＭＳ ゴシック|b0|i0|c128|p49;5}
 11
6.123031769111886E-17
 21
1.0
 31
0.0
 73
     1
 44
1.0
  0
LINE
  5
29C
330
1F
100
AcDbEntity
  8
0-B_寸法
  6
Continuous
 62
   120
370
     5
100
AcDbLine
 10
-2572.801562447448
 20
-558.8487132713806
 30
0.0
 11
-2383.801562447446
 21
-558.8487132713806
 31
0.0
  0
LINE
  5
29D
330
1F
100
AcDbEntity
  8
0-B_寸法
  6
Continuous
 62
   120
370
     5
100
AcDbLine
 10
-2572.801562447448
 20
-588.8487132713806
 30
0.0
 11
-2383.801562447446
 21
-588.8487132713806
 31
0.0
  0
LINE
  5
29E
330
1F
100
AcDbEntity
  8
0-B_寸法
  6
Continuous
 62
   120
370
     5
100
AcDbLine
 10
-2572.801562447448
 20
-642.8487132713792
 30
0.0
 11
-2383.801562447446
 21
-642.8487132713792
 31
0.0
  0
LINE
  5
29F
330
1F
100
AcDbEntity
  8
0-B_寸法
  6
Continuous
 62
   120
370
     5
100
AcDbLine
 10
-2572.801562447448
 20
-738.8487132713806
 30
0.0
 11
-2383.801562447446
 21
-738.8487132713806
 31
0.0
  0
MTEXT
  5
2A0
330
1F
100
AcDbEntity
  8
0-B_寸法
  6
Continuous
 62
     7
370
   211
100
AcDbMText
 10
-190.8015624474454
 20
-3165.128713271373
 30
0.0
 40
91.44
 41
60.0
 46
0.0
 71
     7
 72
     1
  1
{\fＭＳ ゴシック|b0|i0|c128|p49;3}
 11
6.123031769111886E-17
 21
1.0
 31
0.0
 73
     1
 44
1.0
  0
LINE
  5
2A1
330
1F
100
AcDbEntity
  8
0-0_補助線
  6
JWW_HOJO
 62
   120
370
     5
100
AcDbLine
 10
-2572.801562447445
 20
-210.8487132713842
 30
0.0
 11
-2572.801562447445
 21
-3258.848713373462
 31
0.0
  0
LWPOLYLINE
  5
2A2
330
1F
100
AcDbEntity
  8
0-B_寸法
  6
Continuous
 62
     7
370
     9
100
AcDbPolyline
 90
        4
 70
     1
 43
3.0
 10
-3039.301562447444
 20
-3258.848713271378
 42
0.4142135623731
 10
-3040.801562447444
 20
-3257.348713271378
 42
0.4142135623731
 10
-3042.301562447444
 20
-3258.848713271378
 42
0.4142135623731
 10
-3040.801562447444
 20
-3260.348713271378
 42
0.4142135623731
  0
LINE
  5
2A3
330
1F
100
AcDbEntity
  8
0-B_寸法
  6
Continuous
 62
   120
370
     5
100
AcDbLine
 10
-2572.801562447445
 20
-3258.848713271378
 30
0.0
 11
-3040.801562447444
 21
-3258.848713271378
 31
0.0
  0
LWPOLYLINE
  5
2A4
330
1F
100
AcDbEntity
  8
0-B_寸法
  6
Continuous
 62
     7
370
     9
100
AcDbPolyline
 90
        4
 70
     1
 43
3.0
 10
-3039.301562447444
 20
-510.8487132713821
 42
0.4142135623731
 10
-3040.801562447444
 20
-509.348713271382
 42
0.4142135623731
 10
-3042.301562447444
 20
-510.8487132713821
 42
0.4142135623731
 10
-3040.801562447444
 20
-512.348713271382
 42
0.4142135623731
  0
LINE
  5
2A5
330
1F
100
AcDbEntity
  8
0-B_寸法
  6
Continuous
 62
   120
370
     5
100
AcDbLine
 10
-2572.801562447445
 20
-510.8487132713821
 30
0.0
 11
-3040.801562447444
 21
-510.8487132713821
 31
0.0
  0
LINE
  5
2A6
330
1F
100
AcDbEntity
  8
0-B_寸法
  6
Continuous
 62
   120
370
     5
100
AcDbLine
 10
-3040.801562447444
 20
-510.8487132713821
 30
0.0
 11
-3040.801562447444
 21
-3258.848713271378
 31
0.0
  0
LINE
  5
2A7
330
1F
100
AcDbEntity
  8
0-0_補助線
  6
JWW_HOJO
 62
   120
370
     5
100
AcDbLine
 10
-3040.801562447444
 20
-210.8487132713842
 30
0.0
 11
-3040.801562447444
 21
-3258.848713373462
 31
0.0
  0
MTEXT
  5
2A8
330
1F
100
AcDbEntity
  8
0-A_文字
  6
Continuous
 62
     7
370
     9
100
AcDbMText
 10
-3040.801562447444
 20
-64.21205768165042
 30
0.0
 40
91.43999999999997
 41
1140.0
 46
0.0
 71
     7
 72
     1
  1
{\fＭＳ ゴシック|b0|i0|c128|p49;■縦断面図[ﾚｰﾙﾀｲﾌﾟ]}
 73
     1
 44
1.0
  0
LWPOLYLINE
  5
2A9
330
1F
100
AcDbEntity
  8
0-B_寸法
  6
Continuous
 62
     7
370
     9
100
AcDbPolyline
 90
        4
 70
     1
 43
3.0
 10
-174.3015624474454
 20
-3258.848713271374
 42
0.4142135623731
 10
-175.8015624474454
 20
-3257.348713271374
 42
0.4142135623731
 10
-177.3015624474454
 20
-3258.848713271374
 42
0.4142135623731
 10
-175.8015624474454
 20
-3260.348713271374
 42
0.4142135623731
  0
MTEXT
  5
2AA
330
1F
100
AcDbEntity
  8
0-B_寸法
  6
Continuous
 62
     7
370
   211
100
AcDbMText
 10
-190.8015624474454
 20
-3408.53479740556
 30
0.0
 40
97.15499999999999
 41
127.5
 46
0.0
 71
     7
 72
     1
  1
{\fＭＳ ゴシック|b0|i0|c128|p49;12}
 11
6.123031769111886E-17
 21
1.0
 31
0.0
 73
     1
 44
1.0
  0
LINE
  5
2AB
330
1F
100
AcDbEntity
  8
0-B_寸法
  6
Continuous
 62
   120
370
     5
100
AcDbLine
 10
-175.8015624474454
 20
-3186.848713271374
 30
0.0
 11
-805.8015624474455
 21
-3186.848713271374
 31
0.0
  0
LWPOLYLINE
  5
2AC
330
1F
100
AcDbEntity
  8
0-B_寸法
  6
Continuous
 62
     7
370
     9
100
AcDbPolyline
 90
        4
 70
     1
 43
3.0
 10
35.69843755255457
 20
-3258.848713271374
 42
0.4142135623731
 10
34.19843755255457
 20
-3257.348713271374
 42
0.4142135623731
 10
32.69843755255457
 20
-3258.848713271374
 42
0.4142135623731
 10
34.19843755255457
 20
-3260.348713271374
 42
0.4142135623731
  0
MTEXT
  5
2AD
330
1F
100
AcDbEntity
  8
0-B_寸法
  6
Continuous
 62
     7
370
   211
100
AcDbMText
 10
19.19843755255457
 20
-2557.481213271376
 30
0.0
 40
102.235
 41
1207.5
 46
0.0
 71
     7
 72
     1
  1
{\fＭＳ ゴシック|b0|i0|c128|p49;枠外＝2,047(2,247)}
 11
6.123031769111886E-17
 21
1.0
 31
0.0
 73
     1
 44
1.0
  0
LINE
  5
2AE
330
1F
100
AcDbEntity
  8
0-B_寸法
  6
Continuous
 62
   120
370
     5
100
AcDbLine
 10
34.19843755255457
 20
-558.8487132713772
 30
0.0
 11
34.19843755255457
 21
-3258.848713271374
 31
0.0
  0
LINE
  5
2AF
330
1F
100
AcDbEntity
  8
0-4_枠
  6
Continuous
 62
   120
370
     5
100
AcDbLine
 10
-1534.801562447449
 20
-2016.848713271381
 30
0.0
 11
-1534.801562447449
 21
-3186.848713271378
 31
0.0
  0
LINE
  5
2B0
330
1F
100
AcDbEntity
  8
0-4_枠
  6
Continuous
 62
   120
370
     5
100
AcDbLine
 10
-2212.80156244745
 20
-2016.848713271381
 30
0.0
 11
-2212.80156244745
 21
-3186.848713271378
 31
0.0
  0
LINE
  5
2B1
330
1F
100
AcDbEntity
  8
0-6_扉
  6
Continuous
 62
   200
370
    20
100
AcDbLine
 10
-2077.801561894086
 20
-2016.848713271381
 30
0.0
 11
-2077.801561894086
 21
-3138.849313271383
 31
0.0
  0
LINE
  5
2B2
330
1F
100
AcDbEntity
  8
0-4_枠
  6
Continuous
 62
   120
370
     5
100
AcDbLine
 10
-1534.801562447449
 20
-558.8487132713806
 30
0.0
 11
-1534.801562447449
 21
-1896.848713271381
 31
0.0
  0
LINE
  5
2B3
330
1F
100
AcDbEntity
  8
0-4_枠
  6
Continuous
 62
   120
370
     5
100
AcDbLine
 10
-2212.80156244745
 20
-558.8487132713806
 30
0.0
 11
-2212.80156244745
 21
-1896.848713271381
 31
0.0
  0
LINE
  5
2B4
330
1F
100
AcDbEntity
  8
0-6_扉
  6
Continuous
 62
   200
370
    20
100
AcDbLine
 10
-2077.801561894086
 20
-822.8487129867983
 30
0.0
 11
-2077.801561894086
 21
-1896.848713271381
 31
0.0
  0
MTEXT
  5
2B5
330
1F
100
AcDbEntity
  8
0-B_寸法
  6
Continuous
 62
     7
370
   211
100
AcDbMText
 10
-2047.80156244744
 20
-1524.128840119953
 30
0.0
 40
91.44
 41
120.0
 46
0.0
 71
     7
 72
     1
  1
{\fＭＳ ゴシック|b0|i0|c128|p49;30}
 73
     1
 44
1.0
  0
LINE
  5
2B6
330
1F
100
AcDbEntity
  8
0-7_金物
  6
Continuous
 62
     7
370
     9
100
AcDbLine
 10
-2041.801885507569
 20
-558.8487132713806
 30
0.0
 11
-2041.801885507569
 21
-534.8486446068284
 31
0.0
  0
LINE
  5
2B7
330
1F
100
AcDbEntity
  8
0-7_金物
  6
Continuous
 62
     7
370
     9
100
AcDbLine
 10
-1933.801816843019
 20
-534.8486446068284
 30
0.0
 11
-1933.801816843019
 21
-558.8487132713806
 31
0.0
  0
LINE
  5
2B8
330
1F
100
AcDbEntity
  8
0-7_金物
  6
Continuous
 62
     7
370
     9
100
AcDbLine
 10
-1927.801650903687
 20
-534.8486446068284
 30
0.0
 11
-2047.801307580934
 21
-534.8486446068284
 31
0.0
  0
LINE
  5
2B9
330
1F
100
AcDbEntity
  8
0-7_金物
  6
Continuous
 62
     7
370
     9
100
AcDbLine
 10
-2047.801307580934
 20
-522.8490508720893
 30
0.0
 11
-2047.801307580934
 21
-534.8486446068284
 31
0.0
  0
LINE
  5
2BA
330
1F
100
AcDbEntity
  8
0-7_金物
  6
Continuous
 62
     7
370
     9
100
AcDbLine
 10
-1927.801650903687
 20
-522.8490508720893
 30
0.0
 11
-1927.801650903687
 21
-534.8486446068284
 31
0.0
  0
LINE
  5
2BB
330
1F
100
AcDbEntity
  8
0-7_金物
  6
Continuous
 62
     7
370
     9
100
AcDbLine
 10
-1897.801547906864
 20
-510.8487132713799
 30
0.0
 11
-2077.801410577762
 21
-510.8487132713799
 31
0.0
  0
LINE
  5
2BC
330
1F
100
AcDbEntity
  8
0-7_金物
  6
Continuous
 62
     7
370
     9
100
AcDbLine
 10
-1897.801547906864
 20
-510.8487132713799
 30
0.0
 11
-1897.801547906864
 21
-522.8490508720893
 31
0.0
  0
LINE
  5
2BD
330
1F
100
AcDbEntity
  8
0-7_金物
  6
Continuous
 62
     7
370
     9
100
AcDbLine
 10
-2077.801410577762
 20
-510.8487132713799
 30
0.0
 11
-2077.801410577762
 21
-522.8490508720893
 31
0.0
  0
LINE
  5
2BE
330
1F
100
AcDbEntity
  8
0-7_金物
  6
Continuous
 62
     7
370
     9
100
AcDbLine
 10
-1897.801547906864
 20
-522.8490508720893
 30
0.0
 11
-2077.801410577762
 21
-522.8490508720893
 31
0.0
  0
LINE
  5
2BF
330
1F
100
AcDbEntity
  8
0-6_扉
  6
Continuous
 62
   200
370
    20
100
AcDbLine
 10
-2077.80156244744
 20
-822.8487129867983
 30
0.0
 11
-1897.80156244744
 21
-822.8487129867983
 31
0.0
  0
LINE
  5
2C0
330
1F
100
AcDbEntity
  8
0-C_ハッチ
  6
JWW_DASHED1
 62
   120
370
     5
100
AcDbLine
 10
-2188.801562447448
 20
-263.1713397665271
 30
0.0
 11
-2241.124188942595
 21
-210.8487132713799
 31
0.0
  0
LINE
  5
2C1
330
1F
100
AcDbEntity
  8
0-C_ハッチ
  6
JWW_DASHED1
 62
   120
370
     5
100
AcDbLine
 10
-2188.801562447445
 20
-220.7449328953318
 30
0.0
 11
-2198.697782071397
 21
-210.8487132713799
 31
0.0
  0
LINE
  5
2C2
330
1F
100
AcDbEntity
  8
0-C_ハッチ
  6
JWW_DASHED1
 62
   120
370
     5
100
AcDbLine
 10
-1483.801562447448
 20
-263.1713397665271
 30
0.0
 11
-1536.124188942594
 21
-210.8487132713799
 31
0.0
  0
LINE
  5
2C3
330
1F
100
AcDbEntity
  8
0-C_ハッチ
  6
JWW_DASHED1
 62
   120
370
     5
100
AcDbLine
 10
-1483.801562447445
 20
-220.7449328953318
 30
0.0
 11
-1493.697782071397
 21
-210.8487132713799
 31
0.0
  0
LINE
  5
2C4
330
1F
100
AcDbEntity
  8
0-0_補助線
  6
JWW_HOJO
 62
   120
370
     5
100
AcDbLine
 10
-1759.801561894087
 20
-210.8487132713799
 30
0.0
 11
-1759.801561894087
 21
-3258.848713271377
 31
0.0
  0
LINE
  5
2C5
330
1F
100
AcDbEntity
  8
0-7_金物
  6
Continuous
 62
     7
370
     9
100
AcDbLine
 10
-2027.401562447443
 20
-3138.849313271379
 30
0.0
 11
-2027.401562447443
 21
-3146.049313271379
 31
0.0
  0
LINE
  5
2C6
330
1F
100
AcDbEntity
  8
0-7_金物
  6
Continuous
 62
     7
370
     9
100
AcDbLine
 10
-1948.201562447442
 20
-3138.849313271379
 30
0.0
 11
-1948.201562447442
 21
-3146.049313271379
 31
0.0
  0
LINE
  5
2C7
330
1F
100
AcDbEntity
  8
0-7_金物
  6
Continuous
 62
     7
370
     9
100
AcDbLine
 10
-2008.60709143636
 20
-3146.049313271379
 30
0.0
 11
-2027.401562447443
 21
-3146.049313271379
 31
0.0
  0
LINE
  5
2C8
330
1F
100
AcDbEntity
  8
0-7_金物
  6
Continuous
 62
     7
370
     9
100
AcDbLine
 10
-1948.201562447442
 20
-3146.049313271379
 30
0.0
 11
-1966.996033458528
 21
-3146.049313271379
 31
0.0
  0
LINE
  5
2C9
330
1F
100
AcDbEntity
  8
0-7_金物
  6
Continuous
 62
     7
370
     9
100
AcDbLine
 10
-1984.801562447442
 20
-2983.74931327138
 30
0.0
 11
-1990.801562447444
 21
-2983.74931327138
 31
0.0
  0
LINE
  5
2CA
330
1F
100
AcDbEntity
  8
0-7_金物
  6
Continuous
 62
     7
370
     9
100
AcDbLine
 10
-1984.801562447442
 20
-2978.049313271382
 30
0.0
 11
-1984.801562447442
 21
-2983.74931327138
 31
0.0
  0
LINE
  5
2CB
330
1F
100
AcDbEntity
  8
0-7_金物
  6
Continuous
 62
     7
370
     9
100
AcDbLine
 10
-1990.801562447444
 20
-2983.74931327138
 30
0.0
 11
-1990.801562447444
 21
-2978.049313271382
 31
0.0
  0
LINE
  5
2CC
330
1F
100
AcDbEntity
  8
0-7_金物
  6
Continuous
 62
     7
370
     9
100
AcDbLine
 10
-1968.901562447443
 20
-2961.84931327138
 30
0.0
 11
-1968.901562447443
 21
-2967.849313271379
 31
0.0
  0
ARC
  5
2CD
330
1F
100
AcDbEntity
  8
0-7_金物
  6
Continuous
 62
     7
370
     9
100
AcDbCircle
 10
-1974.601562447443
 20
-2951.649313271379
 30
0.0
 40
10.2
100
AcDbArc
 50
180.0
 51
270.0
  0
LINE
  5
2CE
330
1F
100
AcDbEntity
  8
0-7_金物
  6
Continuous
 62
     7
370
     9
100
AcDbLine
 10
-1974.601562447443
 20
-2961.84931327138
 30
0.0
 11
-1968.901562447443
 21
-2961.84931327138
 31
0.0
  0
LINE
  5
2CF
330
1F
100
AcDbEntity
  8
0-7_金物
  6
Continuous
 62
     7
370
     9
100
AcDbLine
 10
-1968.901562447443
 20
-2967.849313271379
 30
0.0
 11
-1974.601562447443
 21
-2967.849313271379
 31
0.0
  0
LINE
  5
2D0
330
1F
100
AcDbEntity
  8
0-7_金物
  6
Continuous
 62
     7
370
     9
100
AcDbLine
 10
-1990.801562447444
 20
-2945.949313271381
 30
0.0
 11
-1984.801562447442
 21
-2945.949313271381
 31
0.0
  0
LINE
  5
2D1
330
1F
100
AcDbEntity
  8
0-7_金物
  6
Continuous
 62
     7
370
     9
100
AcDbLine
 10
-1984.801562447442
 20
-2945.949313271381
 30
0.0
 11
-1984.801562447442
 21
-2951.649313271379
 31
0.0
  0
LINE
  5
2D2
330
1F
100
AcDbEntity
  8
0-7_金物
  6
Continuous
 62
     7
370
     9
100
AcDbLine
 10
-1990.801562447444
 20
-2951.649313271379
 30
0.0
 11
-1990.801562447444
 21
-2945.949313271381
 31
0.0
  0
LINE
  5
2D3
330
1F
100
AcDbEntity
  8
0-7_金物
  6
Continuous
 62
     7
370
     9
100
AcDbLine
 10
-2001.001562447441
 20
-2967.849313271379
 30
0.0
 11
-2006.701562447443
 21
-2967.849313271379
 31
0.0
  0
LINE
  5
2D4
330
1F
100
AcDbEntity
  8
0-7_金物
  6
Continuous
 62
     7
370
     9
100
AcDbLine
 10
-2006.701562447443
 20
-2967.849313271379
 30
0.0
 11
-2006.701562447443
 21
-2961.84931327138
 31
0.0
  0
LINE
  5
2D5
330
1F
100
AcDbEntity
  8
0-7_金物
  6
Continuous
 62
     7
370
     9
100
AcDbLine
 10
-2006.701562447443
 20
-2961.84931327138
 30
0.0
 11
-2001.001562447441
 21
-2961.84931327138
 31
0.0
  0
ARC
  5
2D6
330
1F
100
AcDbEntity
  8
0-7_金物
  6
Continuous
 62
     7
370
     9
100
AcDbCircle
 10
-2001.001562447441
 20
-2951.649313271379
 30
0.0
 40
10.2
100
AcDbArc
 50
270.0
 51
0.0
  0
ARC
  5
2D7
330
1F
100
AcDbEntity
  8
0-7_金物
  6
Continuous
 62
     7
370
     9
100
AcDbCircle
 10
-1974.601562447443
 20
-2978.049313271382
 30
0.0
 40
10.2
100
AcDbArc
 50
90.0
 51
180.0
  0
ARC
  5
2D8
330
1F
100
AcDbEntity
  8
0-7_金物
  6
Continuous
 62
     7
370
     9
100
AcDbCircle
 10
-2001.001562447441
 20
-2978.049313271382
 30
0.0
 40
10.2
100
AcDbArc
 50
0.0000000000000127
 51
90.00000000000001
  0
LINE
  5
2D9
330
1F
100
AcDbEntity
  8
0-7_金物
  6
Continuous
 62
     7
370
     9
100
AcDbLine
 10
-1995.001562447443
 20
-3186.376389523722
 30
0.0
 11
-1980.601562447443
 21
-3186.376389523722
 31
0.0
  0
LINE
  5
2DA
330
1F
100
AcDbEntity
  8
0-7_金物
  6
Continuous
 62
     7
370
     9
100
AcDbLine
 10
-1996.801562447443
 20
-3184.576389523723
 30
0.0
 11
-1996.801562447443
 21
-3138.849313271379
 31
0.0
  0
LINE
  5
2DB
330
1F
100
AcDbEntity
  8
0-7_金物
  6
Continuous
 62
     7
370
     9
100
AcDbLine
 10
-1978.801562447444
 20
-3138.849313271379
 30
0.0
 11
-1978.801562447444
 21
-3184.576389523723
 31
0.0
  0
ARC
  5
2DC
330
1F
100
AcDbEntity
  8
0-7_金物
  6
Continuous
 62
     7
370
     9
100
AcDbCircle
 10
-1996.801562447443
 20
-3165.376389523721
 30
0.0
 40
12.0
100
AcDbArc
 50
180.0
 51
264.7840909999994
  0
ARC
  5
2DD
330
1F
100
AcDbEntity
  8
0-7_金物
  6
Continuous
 62
     7
370
     9
100
AcDbCircle
 10
-1978.801562447444
 20
-3165.376389523721
 30
0.0
 40
12.0
100
AcDbArc
 50
275.2159090000008
 51
0.0000000000000254
  0
ARC
  5
2DE
330
1F
100
AcDbEntity
  8
0-7_金物
  6
Continuous
 62
     7
370
     9
100
AcDbCircle
 10
-1995.001562447443
 20
-3184.576389523723
 30
0.0
 40
1.8
100
AcDbArc
 50
180.0
 51
270.0
  0
ARC
  5
2DF
330
1F
100
AcDbEntity
  8
0-7_金物
  6
Continuous
 62
     7
370
     9
100
AcDbCircle
 10
-1998.001562447444
 20
-3178.521729523723
 30
0.0
 40
1.2
100
AcDbArc
 50
0.0000000000000127
 51
84.7840909999992
  0
ARC
  5
2E0
330
1F
100
AcDbEntity
  8
0-7_金物
  6
Continuous
 62
     7
370
     9
100
AcDbCircle
 10
-1980.601562447443
 20
-3184.576389523723
 30
0.0
 40
1.8
100
AcDbArc
 50
270.0
 51
0.0
  0
ARC
  5
2E1
330
1F
100
AcDbEntity
  8
0-7_金物
  6
Continuous
 62
     7
370
     9
100
AcDbCircle
 10
-1977.601562447442
 20
-3178.521729523723
 30
0.0
 40
1.2
100
AcDbArc
 50
95.21590900000078
 51
180.0
  0
LINE
  5
2E2
330
1F
100
AcDbEntity
  8
0-7_金物
  6
Continuous
 62
     7
370
     9
100
AcDbLine
 10
-2008.801562447444
 20
-3165.376389523721
 30
0.0
 11
-2008.801562447444
 21
-3138.849313271379
 31
0.0
  0
LINE
  5
2E3
330
1F
100
AcDbEntity
  8
0-7_金物
  6
Continuous
 62
     7
370
     9
100
AcDbLine
 10
-1966.801562447443
 20
-3165.376389523721
 30
0.0
 11
-1966.801562447443
 21
-3138.849313271379
 31
0.0
  0
ARC
  5
2E4
330
1F
100
AcDbEntity
  8
0-7_金物
  6
Continuous
 62
     7
370
     9
100
AcDbCircle
 10
-1977.001562447449
 20
-3077.649313271394
 30
0.0
 40
7.800000000000001
100
AcDbArc
 50
89.99999999999352
 51
179.9999999999935
  0
LINE
  5
2E5
330
1F
100
AcDbEntity
  8
0-7_金物
  6
Continuous
 62
     7
370
     9
100
AcDbLine
 10
-1973.401562447449
 20
-3069.849313271394
 30
0.0
 11
-1977.001562447449
 21
-3069.849313271394
 31
0.0
  0
LINE
  5
2E6
330
1F
100
AcDbEntity
  8
0-7_金物
  6
Continuous
 62
     7
370
     9
100
AcDbLine
 10
-1984.801562447449
 20
-3077.649313271394
 30
0.0
 11
-1984.801562447449
 21
-3081.249313271391
 31
0.0
  0
LINE
  5
2E7
330
1F
100
AcDbEntity
  8
0-7_金物
  6
Continuous
 62
     7
370
     9
100
AcDbLine
 10
-1973.401562447443
 20
-3063.849313271379
 30
0.0
 11
-1973.401562447443
 21
-3069.849313271394
 31
0.0
  0
ARC
  5
2E8
330
1F
100
AcDbEntity
  8
0-7_金物
  6
Continuous
 62
     7
370
     9
100
AcDbCircle
 10
-1977.001562447443
 20
-3056.049313271379
 30
0.0
 40
7.800000000000001
100
AcDbArc
 50
180.0
 51
270.0
  0
LINE
  5
2E9
330
1F
100
AcDbEntity
  8
0-7_金物
  6
Continuous
 62
     7
370
     9
100
AcDbLine
 10
-1977.001562447443
 20
-3063.849313271379
 30
0.0
 11
-1973.401562447443
 21
-3063.849313271379
 31
0.0
  0
LINE
  5
2EA
330
1F
100
AcDbEntity
  8
0-7_金物
  6
Continuous
 62
     7
370
     9
100
AcDbLine
 10
-1984.801562447442
 20
-3052.449313271379
 30
0.0
 11
-1984.801562447442
 21
-3056.049313271379
 31
0.0
  0
ARC
  5
2EB
330
1F
100
AcDbEntity
  8
0-7_金物
  6
Continuous
 62
     7
370
     9
100
AcDbCircle
 10
-1998.601562447435
 20
-3077.649313271394
 30
0.0
 40
7.800000000000001
100
AcDbArc
 50
0.0000000000065265
 51
90.00000000000651
  0
LINE
  5
2EC
330
1F
100
AcDbEntity
  8
0-7_金物
  6
Continuous
 62
     7
370
     9
100
AcDbLine
 10
-1990.801562447435
 20
-3077.649313271394
 30
0.0
 11
-1990.801562447435
 21
-3081.249313271391
 31
0.0
  0
LINE
  5
2ED
330
1F
100
AcDbEntity
  8
0-7_金物
  6
Continuous
 62
     7
370
     9
100
AcDbLine
 10
-2002.201562447437
 20
-3069.849313271394
 30
0.0
 11
-1998.601562447437
 21
-3069.849313271394
 31
0.0
  0
LINE
  5
2EE
330
1F
100
AcDbEntity
  8
0-7_金物
  6
Continuous
 62
     7
370
     9
100
AcDbLine
 10
-2002.201562447444
 20
-3063.849313271379
 30
0.0
 11
-2002.201562447444
 21
-3069.849313271394
 31
0.0
  0
LINE
  5
2EF
330
1F
100
AcDbEntity
  8
0-7_金物
  6
Continuous
 62
     7
370
     9
100
AcDbLine
 10
-1984.801562447442
 20
-3052.449313271379
 30
0.0
 11
-1990.801562447444
 21
-3052.449313271379
 31
0.0
  0
ARC
  5
2F0
330
1F
100
AcDbEntity
  8
0-7_金物
  6
Continuous
 62
     7
370
     9
100
AcDbCircle
 10
-1998.601562447443
 20
-3056.049313271379
 30
0.0
 40
7.800000000000001
100
AcDbArc
 50
270.0
 51
0.0
  0
LINE
  5
2F1
330
1F
100
AcDbEntity
  8
0-7_金物
  6
Continuous
 62
     7
370
     9
100
AcDbLine
 10
-1998.601562447443
 20
-3063.849313271379
 30
0.0
 11
-2002.201562447444
 21
-3063.849313271379
 31
0.0
  0
LINE
  5
2F2
330
1F
100
AcDbEntity
  8
0-7_金物
  6
Continuous
 62
     7
370
     9
100
AcDbLine
 10
-1990.801562447435
 20
-3081.24931327138
 30
0.0
 11
-1984.801562447449
 21
-3081.24931327138
 31
0.0
  0
LINE
  5
2F3
330
1F
100
AcDbEntity
  8
0-7_金物
  6
Continuous
 62
     7
370
     9
100
AcDbLine
 10
-1990.801562447444
 20
-3052.449313271379
 30
0.0
 11
-1990.801562447444
 21
-3056.049313271379
 31
0.0
  0
CIRCLE
  5
2F4
330
1F
100
AcDbEntity
  8
0-7_金物
  6
Continuous
 62
     7
370
     9
100
AcDbCircle
 10
-1987.801562447443
 20
-2964.84931327138
 30
0.0
 40
32.09999999999997
  0
LINE
  5
2F5
330
1F
100
AcDbEntity
  8
0-7_金物
  6
Continuous
 62
     7
370
     9
100
AcDbLine
 10
-1966.540114317555
 20
-2905.809283310699
 30
0.0
 11
-1966.757145135482
 21
-2904.999313271377
 31
0.0
  0
LINE
  5
2F6
330
1F
100
AcDbEntity
  8
0-7_金物
  6
Continuous
 62
     7
370
     9
100
AcDbLine
 10
-1965.947175096164
 20
-2904.782282453451
 30
0.0
 11
-1966.757145135482
 21
-2904.999313271377
 31
0.0
  0
LINE
  5
2F7
330
1F
100
AcDbEntity
  8
0-7_金物
  6
Continuous
 62
     7
370
     9
100
AcDbLine
 10
-2009.655949798723
 20
-2904.782282453451
 30
0.0
 11
-2008.845979759404
 21
-2904.999313271377
 31
0.0
  0
LINE
  5
2F8
330
1F
100
AcDbEntity
  8
0-7_金物
  6
Continuous
 62
     7
370
     9
100
AcDbLine
 10
-2009.063010577333
 20
-2905.809283310699
 30
0.0
 11
-2008.845979759404
 21
-2904.999313271377
 31
0.0
  0
LINE
  5
2F9
330
1F
100
AcDbEntity
  8
0-7_金物
  6
Continuous
 62
     7
370
     9
100
AcDbLine
 10
-1987.208623226053
 20
-2867.95637404999
 30
0.0
 11
-1987.801562447443
 21
-2868.549313271379
 31
0.0
  0
LINE
  5
2FA
330
1F
100
AcDbEntity
  8
0-7_金物
  6
Continuous
 62
     7
370
     9
100
AcDbLine
 10
-1988.394501668833
 20
-2867.95637404999
 30
0.0
 11
-1987.801562447443
 21
-2868.549313271379
 31
0.0
  0
CIRCLE
  5
2FB
330
1F
100
AcDbEntity
  8
0-7_金物
  6
Continuous
 62
     7
370
     9
100
AcDbCircle
 10
-1987.801562447443
 20
-3066.84931327138
 30
0.0
 40
21.00000000000001
  0
ARC
  5
2FC
330
1F
100
AcDbEntity
  8
0-7_金物
  6
Continuous
 62
     7
370
     9
100
AcDbCircle
 10
-1987.801562447443
 20
-2892.849313271379
 30
0.0
 40
24.9
100
AcDbArc
 50
331.3645030698363
 51
88.63549693017154
  0
ARC
  5
2FD
330
1F
100
AcDbEntity
  8
0-7_金物
  6
Continuous
 62
     7
370
     9
100
AcDbCircle
 10
-1987.801562447443
 20
-2892.849313271379
 30
0.0
 40
24.9
100
AcDbArc
 50
211.3645030698352
 51
328.6354969301648
  0
ARC
  5
2FE
330
1F
100
AcDbEntity
  8
0-7_金物
  6
Continuous
 62
     7
370
     9
100
AcDbCircle
 10
-1987.801562447443
 20
-2892.849313271379
 30
0.0
 40
24.9
100
AcDbArc
 50
91.36450306982846
 51
208.6354969301637
  0
ARC
  5
2FF
330
1F
100
AcDbEntity
  8
0-7_金物
  6
Continuous
 62
     7
370
     9
100
AcDbCircle
 10
-1987.801562447443
 20
-2898.849313271379
 30
0.0
 40
47.99999999999999
100
AcDbArc
 50
0.0000000000000064
 51
180.0
  0
LINE
  5
300
330
1F
100
AcDbEntity
  8
0-7_金物
  6
Continuous
 62
     7
370
     9
100
AcDbLine
 10
-2035.801562447444
 20
-2898.849313271379
 30
0.0
 11
-2035.801562447444
 21
-3138.849313271379
 31
0.0
  0
LINE
  5
301
330
1F
100
AcDbEntity
  8
0-7_金物
  6
Continuous
 62
     7
370
     9
100
AcDbLine
 10
-2035.801562447444
 20
-3138.849313271379
 30
0.0
 11
-1939.801562447442
 21
-3138.849313271379
 31
0.0
  0
LINE
  5
302
330
1F
100
AcDbEntity
  8
0-7_金物
  6
Continuous
 62
     7
370
     9
100
AcDbLine
 10
-1939.801562447442
 20
-3138.849313271379
 30
0.0
 11
-1939.801562447442
 21
-2898.849313271379
 31
0.0
  0
ARC
  5
303
330
1F
100
AcDbEntity
  8
0-7_金物
  6
Continuous
 62
     7
370
     9
100
AcDbCircle
 10
-2011.544162447444
 20
-3171.849313271378
 30
0.0
 40
3.000000000000086
100
AcDbArc
 50
44.99999999999995
 51
89.99999999999996
  0
ARC
  5
304
330
1F
100
AcDbEntity
  8
0-7_金物
  6
Continuous
 62
     7
370
     9
100
AcDbCircle
 10
-2000.555762447443
 20
-3176.049313271379
 30
0.0
 40
1.800000000000052
100
AcDbArc
 50
224.9999999999999
 51
269.9999999999999
  0
ARC
  5
305
330
1F
100
AcDbEntity
  8
0-7_金物
  6
Continuous
 62
     7
370
     9
100
AcDbCircle
 10
-1998.601562447443
 20
-3179.049313271378
 30
0.0
 40
1.200000000000034
100
AcDbArc
 50
359.9999999999999
 51
89.99999999999997
  0
ARC
  5
306
330
1F
100
AcDbEntity
  8
0-7_金物
  6
Continuous
 62
     7
370
     9
100
AcDbCircle
 10
-1977.001562447443
 20
-3179.049313271378
 30
0.0
 40
1.200000000000034
100
AcDbArc
 50
89.99999999999997
 51
180.0
  0
ARC
  5
307
330
1F
100
AcDbEntity
  8
0-7_金物
  6
Continuous
 62
     7
370
     9
100
AcDbCircle
 10
-1964.058962447443
 20
-3171.849313271378
 30
0.0
 40
3.000000000000086
100
AcDbArc
 50
89.99999999999996
 51
135.0
  0
ARC
  5
308
330
1F
100
AcDbEntity
  8
0-7_金物
  6
Continuous
 62
     7
370
     9
100
AcDbCircle
 10
-1975.047362447443
 20
-3176.049313271379
 30
0.0
 40
1.800000000000052
100
AcDbArc
 50
270.0
 51
315.0
  0
ARC
  5
309
330
1F
100
AcDbEntity
  8
0-7_金物
  6
Continuous
 62
     7
370
     9
100
AcDbCircle
 10
-2012.401562447443
 20
-3197.048713271379
 30
0.0
 40
1.200000000000034
100
AcDbArc
 50
89.99999999999987
 51
201.6159999999999
  0
ARC
  5
30A
330
1F
100
AcDbEntity
  8
0-7_金物
  6
Continuous
 62
     7
370
     9
100
AcDbCircle
 10
-1995.601562447443
 20
-3194.048713271378
 30
0.0
 40
1.800000000000052
100
AcDbArc
 50
179.9999999999999
 51
269.9999999999999
  0
ARC
  5
30B
330
1F
100
AcDbEntity
  8
0-7_金物
  6
Continuous
 62
     7
370
     9
100
AcDbCircle
 10
-1980.001562447443
 20
-3194.048713271378
 30
0.0
 40
1.800000000000052
100
AcDbArc
 50
269.9999999999999
 51
359.9999999999999
  0
ARC
  5
30C
330
1F
100
AcDbEntity
  8
0-7_金物
  6
Continuous
 62
     7
370
     9
100
AcDbCircle
 10
-1963.201562447443
 20
-3197.048713271379
 30
0.0
 40
1.200000000000034
100
AcDbArc
 50
338.384
 51
89.99999999999997
  0
ARC
  5
30D
330
1F
100
AcDbEntity
  8
0-7_金物
  6
Continuous
 62
     7
370
     9
100
AcDbCircle
 10
-2026.800962447443
 20
-3188.265313271379
 30
0.0
 40
18.00000000000051
100
AcDbArc
 50
0.0
 51
48.18999999999998
  0
ARC
  5
30E
330
1F
100
AcDbEntity
  8
0-7_金物
  6
Continuous
 62
     7
370
     9
100
AcDbCircle
 10
-1948.801562447444
 20
-3188.265313271379
 30
0.0
 40
18.00000000000051
100
AcDbArc
 50
131.81
 51
180.0
  0
LINE
  5
30F
330
1F
100
AcDbEntity
  8
0-7_金物
  6
Continuous
 62
     7
370
     9
100
AcDbLine
 10
-2014.801562447442
 20
-3168.849313271379
 30
0.0
 11
-2011.544162447444
 21
-3168.849313271379
 31
0.0
  0
LINE
  5
310
330
1F
100
AcDbEntity
  8
0-7_金物
  6
Continuous
 62
     7
370
     9
100
AcDbLine
 10
-2014.801562447442
 20
-3174.84931327138
 30
0.0
 11
-2014.801562447442
 21
-3168.849313271379
 31
0.0
  0
LINE
  5
311
330
1F
100
AcDbEntity
  8
0-7_金物
  6
Continuous
 62
     7
370
     9
100
AcDbLine
 10
-2000.555762447443
 20
-3177.849313271377
 30
0.0
 11
-1998.601562447443
 21
-3177.849313271377
 31
0.0
  0
LINE
  5
312
330
1F
100
AcDbEntity
  8
0-7_金物
  6
Continuous
 62
     7
370
     9
100
AcDbLine
 10
-2001.828362447445
 20
-3177.321913271379
 30
0.0
 11
-2009.422562447442
 21
-3169.727713271378
 31
0.0
  0
LINE
  5
313
330
1F
100
AcDbEntity
  8
0-7_金物
  6
Continuous
 62
     7
370
     9
100
AcDbLine
 10
-1975.047362447443
 20
-3177.849313271377
 30
0.0
 11
-1977.001562447443
 21
-3177.849313271377
 31
0.0
  0
LINE
  5
314
330
1F
100
AcDbEntity
  8
0-7_金物
  6
Continuous
 62
     7
370
     9
100
AcDbLine
 10
-1973.774162447443
 20
-3177.321913271379
 30
0.0
 11
-1966.180562447444
 21
-3169.727713271378
 31
0.0
  0
LINE
  5
315
330
1F
100
AcDbEntity
  8
0-7_金物
  6
Continuous
 62
     7
370
     9
100
AcDbLine
 10
-2008.801562447444
 20
-3195.848713271378
 30
0.0
 11
-2012.401562447443
 21
-3195.848713271378
 31
0.0
  0
LINE
  5
316
330
1F
100
AcDbEntity
  8
0-7_金物
  6
Continuous
 62
     7
370
     9
100
AcDbLine
 10
-2008.801562447444
 20
-3195.848713271378
 30
0.0
 11
-2008.801562447444
 21
-3188.265313271379
 31
0.0
  0
LINE
  5
317
330
1F
100
AcDbEntity
  8
0-7_金物
  6
Continuous
 62
     7
370
     9
100
AcDbLine
 10
-1989.601562447443
 20
-3195.848713271378
 30
0.0
 11
-1995.601562447443
 21
-3195.848713271378
 31
0.0
  0
LINE
  5
318
330
1F
100
AcDbEntity
  8
0-7_金物
  6
Continuous
 62
     7
370
     9
100
AcDbLine
 10
-2004.001562447442
 20
-3204.848713271379
 30
0.0
 11
-2002.801562447443
 21
-3203.64871327138
 31
0.0
  0
LINE
  5
319
330
1F
100
AcDbEntity
  8
0-7_金物
  6
Continuous
 62
     7
370
     9
100
AcDbLine
 10
-2004.001562447442
 20
-3204.848713271379
 30
0.0
 11
-2010.601562447443
 21
-3204.848713271379
 31
0.0
  0
LINE
  5
31A
330
1F
100
AcDbEntity
  8
0-7_金物
  6
Continuous
 62
     7
370
     9
100
AcDbLine
 10
-2002.801562447443
 20
-3203.64871327138
 30
0.0
 11
-2001.601562447444
 21
-3204.848713271379
 31
0.0
  0
LINE
  5
31B
330
1F
100
AcDbEntity
  8
0-7_金物
  6
Continuous
 62
     7
370
     9
100
AcDbLine
 10
-2010.601562447443
 20
-3204.848713271379
 30
0.0
 11
-2013.516962447442
 21
-3197.490913271377
 31
0.0
  0
LINE
  5
31C
330
1F
100
AcDbEntity
  8
0-7_金物
  6
Continuous
 62
     7
370
     9
100
AcDbLine
 10
-1986.001562447443
 20
-3195.848713271378
 30
0.0
 11
-1987.801562447443
 21
-3197.648713271382
 31
0.0
  0
LINE
  5
31D
330
1F
100
AcDbEntity
  8
0-7_金物
  6
Continuous
 62
     7
370
     9
100
AcDbLine
 10
-1980.001562447443
 20
-3195.848713271378
 30
0.0
 11
-1986.001562447443
 21
-3195.848713271378
 31
0.0
  0
LINE
  5
31E
330
1F
100
AcDbEntity
  8
0-7_金物
  6
Continuous
 62
     7
370
     9
100
AcDbLine
 10
-1966.801562447443
 20
-3195.848713271378
 30
0.0
 11
-1963.201562447443
 21
-3195.848713271378
 31
0.0
  0
LINE
  5
31F
330
1F
100
AcDbEntity
  8
0-7_金物
  6
Continuous
 62
     7
370
     9
100
AcDbLine
 10
-1966.801562447443
 20
-3195.848713271378
 30
0.0
 11
-1966.801562447443
 21
-3188.265313271379
 31
0.0
  0
LINE
  5
320
330
1F
100
AcDbEntity
  8
0-7_金物
  6
Continuous
 62
     7
370
     9
100
AcDbLine
 10
-1971.601562447444
 20
-3204.848713271379
 30
0.0
 11
-1972.801562447443
 21
-3203.64871327138
 31
0.0
  0
LINE
  5
321
330
1F
100
AcDbEntity
  8
0-7_金物
  6
Continuous
 62
     7
370
     9
100
AcDbLine
 10
-1972.801562447443
 20
-3203.64871327138
 30
0.0
 11
-1974.001562447442
 21
-3204.848713271379
 31
0.0
  0
LINE
  5
322
330
1F
100
AcDbEntity
  8
0-7_金物
  6
Continuous
 62
     7
370
     9
100
AcDbLine
 10
-1971.601562447444
 20
-3204.848713271379
 30
0.0
 11
-1965.001562447443
 21
-3204.848713271379
 31
0.0
  0
LINE
  5
323
330
1F
100
AcDbEntity
  8
0-7_金物
  6
Continuous
 62
     7
370
     9
100
AcDbLine
 10
-1965.001562447443
 20
-3204.848713271379
 30
0.0
 11
-1962.086162447444
 21
-3197.490913271377
 31
0.0
  0
LINE
  5
324
330
1F
100
AcDbEntity
  8
0-7_金物
  6
Continuous
 62
     7
370
     9
100
AcDbLine
 10
-1987.801562447443
 20
-3197.648713271382
 30
0.0
 11
-1989.601562447443
 21
-3195.848713271378
 31
0.0
  0
LINE
  5
325
330
1F
100
AcDbEntity
  8
0-7_金物
  6
Continuous
 62
     7
370
     9
100
AcDbLine
 10
-2001.601562447444
 20
-3204.848713271379
 30
0.0
 11
-1974.001562447442
 21
-3204.848713271379
 31
0.0
  0
LINE
  5
326
330
1F
100
AcDbEntity
  8
0-7_金物
  6
Continuous
 62
     7
370
     9
100
AcDbLine
 10
-1978.201562447443
 20
-3194.048713271378
 30
0.0
 11
-1978.201562447443
 21
-3179.049313271378
 31
0.0
  0
LINE
  5
327
330
1F
100
AcDbEntity
  8
0-7_金物
  6
Continuous
 62
     7
370
     9
100
AcDbLine
 10
-1997.401562447443
 20
-3194.048713271378
 30
0.0
 11
-1997.401562447443
 21
-3179.049313271378
 31
0.0
  0
LINE
  5
328
330
1F
100
AcDbEntity
  8
0-7_金物
  6
Continuous
 62
     7
370
     9
100
AcDbLine
 10
-1960.801562447444
 20
-3174.84931327138
 30
0.0
 11
-1960.801562447444
 21
-3168.849313271379
 31
0.0
  0
LINE
  5
329
330
1F
100
AcDbEntity
  8
0-7_金物
  6
Continuous
 62
     7
370
     9
100
AcDbLine
 10
-1960.801562447444
 20
-3168.849313271379
 30
0.0
 11
-1964.058962447443
 21
-3168.849313271379
 31
0.0
  0
LINE
  5
32A
330
1F
100
AcDbEntity
  8
0-C_ハッチ
  6
Continuous
 62
   120
370
     5
100
AcDbLine
 10
-1545.016621163363
 20
-558.8487132713772
 30
0.0
 11
-1543.801562447441
 21
-560.0637719872998
 31
0.0
  0
LINE
  5
32B
330
1F
100
AcDbEntity
  8
0-C_ハッチ
  6
JWW_DASHED1
 62
   120
370
     5
100
AcDbLine
 10
-2232.535443912143
 20
-558.8487132713806
 30
0.0
 11
-2263.801562447442
 21
-527.5825947360773
 31
0.0
  0
LINE
  5
32C
330
1F
100
AcDbEntity
  8
0-C_ハッチ
  6
JWW_DASHED1
 62
   120
370
     5
100
AcDbLine
 10
-2190.109037040943
 20
-558.8487132713806
 30
0.0
 11
-2263.801562447442
 21
-485.1561878648773
 31
0.0
  0
LINE
  5
32D
330
1F
100
AcDbEntity
  8
0-C_ハッチ
  6
JWW_DASHED1
 62
   120
370
     5
100
AcDbLine
 10
-2188.801562447445
 20
-517.7297809936773
 30
0.0
 11
-2263.801562447456
 21
-442.7297809936658
 31
0.0
  0
LINE
  5
32E
330
1F
100
AcDbEntity
  8
0-C_ハッチ
  6
JWW_DASHED1
 62
   120
370
     5
100
AcDbLine
 10
-2188.801562447441
 20
-475.3033741224795
 30
0.0
 11
-2263.801562447452
 21
-400.3033741224692
 31
0.0
  0
LINE
  5
32F
330
1F
100
AcDbEntity
  8
0-C_ハッチ
  6
JWW_DASHED1
 62
   120
370
     5
100
AcDbLine
 10
-2188.801562447455
 20
-432.8769672512692
 30
0.0
 11
-2263.801562447449
 21
-357.8769672512726
 31
0.0
  0
LINE
  5
330
330
1F
100
AcDbEntity
  8
0-C_ハッチ
  6
JWW_DASHED1
 62
   120
370
     5
100
AcDbLine
 10
-2188.801562447448
 20
-390.4505603800704
 30
0.0
 11
-2263.801562447445
 21
-315.4505603800773
 31
0.0
  0
LINE
  5
331
330
1F
100
AcDbEntity
  8
0-C_ハッチ
  6
JWW_DASHED1
 62
   120
370
     5
100
AcDbLine
 10
-2188.801562447455
 20
-348.0241535089203
 30
0.0
 11
-2263.801562447452
 21
-273.0241535089237
 31
0.0
  0
LINE
  5
332
330
1F
100
AcDbEntity
  8
0-C_ハッチ
  6
JWW_DASHED1
 62
   120
370
     5
100
AcDbLine
 10
-2188.801562447451
 20
-305.5977466377237
 30
0.0
 11
-2263.801562447449
 21
-230.5977466377271
 31
0.0
  0
LINE
  5
333
330
1F
100
AcDbEntity
  8
0-C_ハッチ
  6
JWW_DASHED1
 62
   120
370
     5
100
AcDbLine
 10
-1527.535443912142
 20
-558.8487132713806
 30
0.0
 11
-1558.801562447441
 21
-527.5825947360773
 31
0.0
  0
LINE
  5
334
330
1F
100
AcDbEntity
  8
0-C_ハッチ
  6
JWW_DASHED1
 62
   120
370
     5
100
AcDbLine
 10
-1485.109037040942
 20
-558.8487132713806
 30
0.0
 11
-1558.801562447441
 21
-485.1561878648773
 31
0.0
  0
LINE
  5
335
330
1F
100
AcDbEntity
  8
0-C_ハッチ
  6
JWW_DASHED1
 62
   120
370
     5
100
AcDbLine
 10
-1483.801562447445
 20
-517.7297809936773
 30
0.0
 11
-1558.801562447455
 21
-442.7297809936658
 31
0.0
  0
LINE
  5
336
330
1F
100
AcDbEntity
  8
0-C_ハッチ
  6
JWW_DASHED1
 62
   120
370
     5
100
AcDbLine
 10
-1483.801562447441
 20
-475.3033741224795
 30
0.0
 11
-1558.801562447452
 21
-400.3033741224692
 31
0.0
  0
LINE
  5
337
330
1F
100
AcDbEntity
  8
0-C_ハッチ
  6
JWW_DASHED1
 62
   120
370
     5
100
AcDbLine
 10
-1483.801562447454
 20
-432.8769672512692
 30
0.0
 11
-1558.801562447448
 21
-357.8769672512726
 31
0.0
  0
LINE
  5
338
330
1F
100
AcDbEntity
  8
0-C_ハッチ
  6
JWW_DASHED1
 62
   120
370
     5
100
AcDbLine
 10
-1483.801562447448
 20
-390.4505603800704
 30
0.0
 11
-1558.801562447445
 21
-315.4505603800773
 31
0.0
  0
LINE
  5
339
330
1F
100
AcDbEntity
  8
0-C_ハッチ
  6
JWW_DASHED1
 62
   120
370
     5
100
AcDbLine
 10
-1483.801562447455
 20
-348.0241535089203
 30
0.0
 11
-1558.801562447452
 21
-273.0241535089237
 31
0.0
  0
LINE
  5
33A
330
1F
100
AcDbEntity
  8
0-C_ハッチ
  6
JWW_DASHED1
 62
   120
370
     5
100
AcDbLine
 10
-1483.801562447452
 20
-305.5977466377237
 30
0.0
 11
-1558.801562447448
 21
-230.5977466377271
 31
0.0
  0
LINE
  5
33B
330
1F
100
AcDbEntity
  8
0-2_柱
  6
Continuous
 62
     7
370
     9
100
AcDbLine
 10
-1558.801562447448
 20
-510.8487132713799
 30
0.0
 11
-2188.801562447448
 21
-348.8487132713806
 31
0.0
  0
LINE
  5
33C
330
1F
100
AcDbEntity
  8
0-2_柱
  6
Continuous
 62
     7
370
     9
100
AcDbLine
 10
-2188.801562447448
 20
-510.8487132713799
 30
0.0
 11
-2188.801562447448
 21
-348.8487132713806
 31
0.0
  0
LINE
  5
33D
330
1F
100
AcDbEntity
  8
0-2_柱
  6
Continuous
 62
     7
370
     9
100
AcDbLine
 10
-2188.801562447448
 20
-348.8487132713806
 30
0.0
 11
-1558.801562447448
 21
-348.8487132713806
 31
0.0
  0
LINE
  5
33E
330
1F
100
AcDbEntity
  8
0-2_柱
  6
Continuous
 62
     7
370
     9
100
AcDbLine
 10
-1558.801562447448
 20
-348.8487132713806
 30
0.0
 11
-1558.801562447448
 21
-510.8487132713799
 31
0.0
  0
LINE
  5
33F
330
1F
100
AcDbEntity
  8
0-2_柱
  6
Continuous
 62
     7
370
     9
100
AcDbLine
 10
-1558.801562447448
 20
-510.8487132713799
 30
0.0
 11
-2188.801562447448
 21
-510.8487132713799
 31
0.0
  0
LINE
  5
340
330
1F
100
AcDbEntity
  8
0-B_寸法
  6
Continuous
 62
   120
370
     5
100
AcDbLine
 10
-1543.801562447441
 20
-1274.67370961248
 30
0.0
 11
-2203.801562447441
 21
-1274.67370961248
 31
0.0
  0
LWPOLYLINE
  5
341
330
1F
100
AcDbEntity
  8
0-B_寸法
  6
Continuous
 62
     7
370
     9
100
AcDbPolyline
 90
        4
 70
     1
 43
3.0
 10
-1542.301562447441
 20
-1274.67370961248
 42
0.4142135623731
 10
-1543.801562447441
 20
-1273.17370961248
 42
0.4142135623731
 10
-1545.301562447441
 20
-1274.67370961248
 42
0.4142135623731
 10
-1543.801562447441
 20
-1276.17370961248
 42
0.4142135623731
  0
LWPOLYLINE
  5
342
330
1F
100
AcDbEntity
  8
0-B_寸法
  6
Continuous
 62
     7
370
     9
100
AcDbPolyline
 90
        4
 70
     1
 43
3.0
 10
-2202.301562447441
 20
-1274.67370961248
 42
0.4142135623731
 10
-2203.801562447441
 20
-1273.17370961248
 42
0.4142135623731
 10
-2205.301562447441
 20
-1274.67370961248
 42
0.4142135623731
 10
-2203.801562447441
 20
-1276.17370961248
 42
0.4142135623731
  0
LWPOLYLINE
  5
343
330
1F
100
AcDbEntity
  8
0-B_寸法
  6
Continuous
 62
     7
370
     9
100
AcDbPolyline
 90
        4
 70
     1
 43
3.0
 10
-1896.30156244744
 20
-1524.848840119953
 42
0.4142135623731
 10
-1897.80156244744
 20
-1523.348840119953
 42
0.4142135623731
 10
-1899.30156244744
 20
-1524.848840119953
 42
0.4142135623731
 10
-1897.80156244744
 20
-1526.348840119953
 42
0.4142135623731
  0
LWPOLYLINE
  5
344
330
1F
100
AcDbEntity
  8
0-B_寸法
  6
Continuous
 62
     7
370
     9
100
AcDbPolyline
 90
        4
 70
     1
 43
3.0
 10
-2076.30156244744
 20
-1524.848840119953
 42
0.4142135623731
 10
-2077.80156244744
 20
-1523.348840119953
 42
0.4142135623731
 10
-2079.30156244744
 20
-1524.848840119953
 42
0.4142135623731
 10
-2077.80156244744
 20
-1526.348840119953
 42
0.4142135623731
  0
LINE
  5
345
330
1F
100
AcDbEntity
  8
0-B_寸法
  6
Continuous
 62
   120
370
     5
100
AcDbLine
 10
-2203.801562447441
 20
-1274.67370961248
 30
0.0
 11
-2203.801562447441
 21
-1151.324276337999
 31
0.0
  0
LINE
  5
346
330
1F
100
AcDbEntity
  8
0-B_寸法
  6
Continuous
 62
   120
370
     5
100
AcDbLine
 10
-1543.801562447441
 20
-1274.67370961248
 30
0.0
 11
-1543.801562447441
 21
-1130.324276338005
 31
0.0
  0
LINE
  5
347
330
1F
100
AcDbEntity
  8
0-C_ハッチ
  6
Continuous
 62
   120
370
     5
100
AcDbLine
 10
-1599.869434905758
 20
-588.8487132713806
 30
0.0
 11
-1629.869434905757
 21
-558.8487132713806
 31
0.0
  0
LINE
  5
348
330
1F
100
AcDbEntity
  8
0-4_枠
  6
Continuous
 62
    92
370
    13
100
AcDbLine
 10
-2203.801562447441
 20
-558.8487132713806
 30
0.0
 11
-1543.801562447441
 21
-558.8487132713806
 31
0.0
  0
LINE
  5
349
330
1F
100
AcDbEntity
  8
0-C_ハッチ
  6
Continuous
 62
   120
370
     5
100
AcDbLine
 10
-2174.118351716053
 20
-735.8487132713765
 30
0.0
 11
-2200.801562447434
 21
-709.165502539995
 31
0.0
  0
LINE
  5
34A
330
1F
100
AcDbEntity
  8
0-C_ハッチ
  6
Continuous
 62
   120
370
     5
100
AcDbLine
 10
-2131.691944844839
 20
-735.8487132713935
 30
0.0
 11
-2200.801562447434
 21
-666.739095668795
 31
0.0
  0
LINE
  5
34B
330
1F
100
AcDbEntity
  8
0-C_ハッチ
  6
Continuous
 62
   120
370
     5
100
AcDbLine
 10
-2054.986317360029
 20
-642.8487132713997
 30
0.0
 11
-2138.986317360048
 21
-558.8487132713806
 31
0.0
  0
LINE
  5
34C
330
1F
100
AcDbEntity
  8
0-C_ハッチ
  6
Continuous
 62
   120
370
     5
100
AcDbLine
 10
-2012.559910488839
 20
-642.8487132713894
 30
0.0
 11
-2096.559910488852
 21
-558.8487132713772
 31
0.0
  0
LINE
  5
34D
330
1F
100
AcDbEntity
  8
0-C_ハッチ
  6
Continuous
 62
   120
370
     5
100
AcDbLine
 10
-1970.133503617697
 20
-642.848713271386
 30
0.0
 11
-2054.133503617703
 21
-558.848713271384
 31
0.0
  0
LINE
  5
34E
330
1F
100
AcDbEntity
  8
0-C_ハッチ
  6
Continuous
 62
   120
370
     5
100
AcDbLine
 10
-1927.707096746504
 20
-642.8487132713792
 30
0.0
 11
-2011.707096746506
 21
-558.8487132713772
 31
0.0
  0
LINE
  5
34F
330
1F
100
AcDbEntity
  8
0-C_ハッチ
  6
Continuous
 62
   120
370
     5
100
AcDbLine
 10
-1603.801562447455
 20
-627.3429926008828
 30
0.0
 11
-1672.295841776954
 21
-558.848713271384
 31
0.0
  0
LINE
  5
350
330
1F
100
AcDbEntity
  8
0-4_枠
  6
Continuous
 62
    92
370
    13
100
AcDbLine
 10
-2074.201562447442
 20
-642.8487132713929
 30
0.0
 11
-2074.201562447442
 21
-738.848713271384
 31
0.0
  0
LINE
  5
351
330
1F
100
AcDbEntity
  8
0-4_枠
  6
Continuous
 62
    92
370
    13
100
AcDbLine
 10
-2074.201562447442
 20
-738.848713271384
 30
0.0
 11
-2203.801562447441
 21
-738.848713271384
 31
0.0
  0
LINE
  5
352
330
1F
100
AcDbEntity
  8
0-4_枠
  6
Continuous
 62
    92
370
    13
100
AcDbLine
 10
-2074.201562447442
 20
-735.8487132713833
 30
0.0
 11
-2200.801562447441
 21
-735.8487132713833
 31
0.0
  0
LINE
  5
353
330
1F
100
AcDbEntity
  8
0-4_枠
  6
Continuous
 62
    92
370
    13
100
AcDbLine
 10
-1901.401562447442
 20
-642.8487132713929
 30
0.0
 11
-1901.401562447442
 21
-738.848713271384
 31
0.0
  0
LINE
  5
354
330
1F
100
AcDbEntity
  8
0-4_枠
  6
Continuous
 62
    92
370
    13
100
AcDbLine
 10
-1901.401562447442
 20
-642.8487132713929
 30
0.0
 11
-2074.201562447442
 21
-642.8487132713929
 31
0.0
  0
LINE
  5
355
330
1F
100
AcDbEntity
  8
0-4_枠
  6
Continuous
 62
    92
370
    13
100
AcDbLine
 10
-2203.801562447441
 20
-588.8487132713806
 30
0.0
 11
-2143.801562447441
 21
-588.8487132713806
 31
0.0
  0
LINE
  5
356
330
1F
100
AcDbEntity
  8
0-4_枠
  6
Continuous
 62
    92
370
    13
100
AcDbLine
 10
-1543.801562447441
 20
-588.8487132713806
 30
0.0
 11
-1603.801562447441
 21
-588.8487132713806
 31
0.0
  0
LINE
  5
357
330
1F
100
AcDbEntity
  8
0-4_枠
  6
Continuous
 62
    92
370
    13
100
AcDbLine
 10
-2203.801562447441
 20
-588.8487132713806
 30
0.0
 11
-2203.801562447441
 21
-558.8487132713806
 31
0.0
  0
LINE
  5
358
330
1F
100
AcDbEntity
  8
0-4_枠
  6
Continuous
 62
    92
370
    13
100
AcDbLine
 10
-1543.801562447441
 20
-588.8487132713806
 30
0.0
 11
-1543.801562447441
 21
-558.8487132713806
 31
0.0
  0
LINE
  5
359
330
1F
100
AcDbEntity
  8
0-4_枠
  6
Continuous
 62
    92
370
    13
100
AcDbLine
 10
-2143.801562447441
 20
-642.8487132713792
 30
0.0
 11
-2203.801562447441
 21
-642.8487132713792
 31
0.0
  0
LINE
  5
35A
330
1F
100
AcDbEntity
  8
0-4_枠
  6
Continuous
 62
    92
370
    13
100
AcDbLine
 10
-1603.801562447441
 20
-642.8487132713792
 30
0.0
 11
-1543.801562447441
 21
-642.8487132713792
 31
0.0
  0
LINE
  5
35B
330
1F
100
AcDbEntity
  8
0-4_枠
  6
Continuous
 62
    92
370
    13
100
AcDbLine
 10
-1543.801562447441
 20
-642.8487132713792
 30
0.0
 11
-1543.801562447441
 21
-738.848713271384
 31
0.0
  0
LINE
  5
35C
330
1F
100
AcDbEntity
  8
0-4_枠
  6
Continuous
 62
    92
370
    13
100
AcDbLine
 10
-1546.801562447442
 20
-642.8487132713792
 30
0.0
 11
-1546.801562447442
 21
-735.8487132713833
 31
0.0
  0
LINE
  5
35D
330
1F
100
AcDbEntity
  8
0-4_枠
  6
Continuous
 62
    92
370
    13
100
AcDbLine
 10
-2203.801562447441
 20
-642.8487132713792
 30
0.0
 11
-2203.801562447441
 21
-738.848713271384
 31
0.0
  0
LINE
  5
35E
330
1F
100
AcDbEntity
  8
0-4_枠
  6
Continuous
 62
    92
370
    13
100
AcDbLine
 10
-2200.801562447441
 20
-642.8487132713792
 30
0.0
 11
-2200.801562447441
 21
-735.8487132713833
 31
0.0
  0
LINE
  5
35F
330
1F
100
AcDbEntity
  8
0-4_枠
  6
Continuous
 62
    92
370
    13
100
AcDbLine
 10
-1603.801562447441
 20
-588.8487132713806
 30
0.0
 11
-1603.801562447441
 21
-642.8487132713792
 31
0.0
  0
LINE
  5
360
330
1F
100
AcDbEntity
  8
0-4_枠
  6
Continuous
 62
    92
370
    13
100
AcDbLine
 10
-2143.801562447441
 20
-588.8487132713806
 30
0.0
 11
-2143.801562447441
 21
-642.8487132713792
 31
0.0
  0
LINE
  5
361
330
1F
100
AcDbEntity
  8
0-C_ハッチ
  6
Continuous
 62
   120
370
     5
100
AcDbLine
 10
-2074.201562447442
 20
-708.4862819263924
 30
0.0
 11
-2143.801562447451
 21
-638.8862819263773
 31
0.0
  0
LINE
  5
362
330
1F
100
AcDbEntity
  8
0-C_ハッチ
  6
Continuous
 62
   120
370
     5
100
AcDbLine
 10
-2089.265537973639
 20
-735.8487132713935
 30
0.0
 11
-2182.265537973654
 21
-642.8487132713792
 31
0.0
  0
LINE
  5
363
330
1F
100
AcDbEntity
  8
0-C_ハッチ
  6
Continuous
 62
   120
370
     5
100
AcDbLine
 10
-2193.839131102452
 20
-588.8487132713806
 30
0.0
 11
-2203.801562447438
 21
-578.8862819263909
 31
0.0
  0
LINE
  5
364
330
1F
100
AcDbEntity
  8
0-C_ハッチ
  6
Continuous
 62
   120
370
     5
100
AcDbLine
 10
-2074.201562447442
 20
-666.0598750551856
 30
0.0
 11
-2143.801562447441
 21
-596.4598750551875
 31
0.0
  0
LINE
  5
365
330
1F
100
AcDbEntity
  8
0-C_ハッチ
  6
Continuous
 62
   120
370
     5
100
AcDbLine
 10
-2151.412724231251
 20
-588.8487132713806
 30
0.0
 11
-2181.412724231245
 21
-558.848713271384
 31
0.0
  0
LINE
  5
366
330
1F
100
AcDbEntity
  8
0-C_ハッチ
  6
Continuous
 62
   120
370
     5
100
AcDbLine
 10
-1557.443028034559
 20
-588.8487132713806
 30
0.0
 11
-1587.443028034561
 21
-558.8487132713772
 31
0.0
  0
LINE
  5
367
330
1F
100
AcDbEntity
  8
0-C_ハッチ
  6
Continuous
 62
   120
370
     5
100
AcDbLine
 10
-1546.801562447439
 20
-684.3429926009026
 30
0.0
 11
-1588.295841776957
 21
-642.8487132713792
 31
0.0
  0
LINE
  5
368
330
1F
100
AcDbEntity
  8
0-4_枠
  6
Continuous
 62
   120
370
     5
100
AcDbLine
 10
-1543.801562447447
 20
-558.8487132713806
 30
0.0
 11
-1534.801562447449
 21
-558.8487132713806
 31
0.0
  0
LINE
  5
369
330
1F
100
AcDbEntity
  8
0-4_枠
  6
Continuous
 62
   120
370
     5
100
AcDbLine
 10
-2203.801562447451
 20
-558.8487132713806
 30
0.0
 11
-2212.80156244745
 21
-558.8487132713806
 31
0.0
  0
LINE
  5
36A
330
1F
100
AcDbEntity
  8
0-3_仕上げ
  6
Continuous
 62
    40
370
    15
100
AcDbLine
 10
-1483.801562447448
 20
-558.8487132713806
 30
0.0
 11
-1558.801562447448
 21
-558.8487132713806
 31
0.0
  0
LINE
  5
36B
330
1F
100
AcDbEntity
  8
0-3_仕上げ
  6
Continuous
 62
    40
370
    15
100
AcDbLine
 10
-2188.801562447448
 20
-558.8487132713806
 30
0.0
 11
-2263.801562447449
 21
-558.8487132713806
 31
0.0
  0
LINE
  5
36C
330
1F
100
AcDbEntity
  8
0-3_仕上げ
  6
Continuous
 62
    40
370
    15
100
AcDbLine
 10
-1483.801562447448
 20
-210.8487132713799
 30
0.0
 11
-1483.801562447448
 21
-558.8487132713806
 31
0.0
  0
LINE
  5
36D
330
1F
100
AcDbEntity
  8
0-3_仕上げ
  6
Continuous
 62
    40
370
    15
100
AcDbLine
 10
-1558.801562447448
 20
-210.8487132713799
 30
0.0
 11
-1558.801562447448
 21
-558.8487132713806
 31
0.0
  0
LINE
  5
36E
330
1F
100
AcDbEntity
  8
0-3_仕上げ
  6
Continuous
 62
    40
370
    15
100
AcDbLine
 10
-2188.801562447448
 20
-210.8487132713799
 30
0.0
 11
-2188.801562447448
 21
-558.8487132713806
 31
0.0
  0
LINE
  5
36F
330
1F
100
AcDbEntity
  8
0-3_仕上げ
  6
Continuous
 62
    40
370
    15
100
AcDbLine
 10
-2263.801562447449
 20
-210.8487132713799
 30
0.0
 11
-2263.801562447449
 21
-558.8487132713806
 31
0.0
  0
LINE
  5
370
330
1F
100
AcDbEntity
  8
0-4_枠
  6
Continuous
 62
    92
370
    13
100
AcDbLine
 10
-1543.801562447441
 20
-738.848713271384
 30
0.0
 11
-1901.401562447442
 21
-738.848713271384
 31
0.0
  0
LINE
  5
371
330
1F
100
AcDbEntity
  8
0-4_枠
  6
Continuous
 62
    92
370
    13
100
AcDbLine
 10
-1546.801562447442
 20
-735.8487132713833
 30
0.0
 11
-1901.401562447442
 21
-735.8487132713833
 31
0.0
  0
LINE
  5
372
330
1F
100
AcDbEntity
  8
0-C_ハッチ
  6
Continuous
 62
   120
370
     5
100
AcDbLine
 10
-1546.801562447432
 20
-726.769399472106
 30
0.0
 11
-1714.722248648164
 21
-558.8487132713772
 31
0.0
  0
LINE
  5
373
330
1F
100
AcDbEntity
  8
0-C_ハッチ
  6
Continuous
 62
   120
370
     5
100
AcDbLine
 10
-1622.5750623905
 20
-735.8487132713867
 30
0.0
 11
-1799.575062390501
 21
-558.8487132713806
 31
0.0
  0
LINE
  5
374
330
1F
100
AcDbEntity
  8
0-C_ハッチ
  6
Continuous
 62
   120
370
     5
100
AcDbLine
 10
-1580.148655519303
 20
-735.8487132713799
 30
0.0
 11
-1757.148655519303
 21
-558.8487132713806
 31
0.0
  0
LINE
  5
375
330
1F
100
AcDbEntity
  8
0-C_ハッチ
  6
Continuous
 62
   120
370
     5
100
AcDbLine
 10
-1665.0014692617
 20
-735.8487132713833
 30
0.0
 11
-1842.001469261696
 21
-558.8487132713874
 31
0.0
  0
LINE
  5
376
330
1F
100
AcDbEntity
  8
0-C_ハッチ
  6
Continuous
 62
   120
370
     5
100
AcDbLine
 10
-1877.1335036177
 20
-735.8487132713833
 30
0.0
 11
-1901.401562447442
 21
-711.5806544416466
 31
0.0
  0
LINE
  5
377
330
1F
100
AcDbEntity
  8
0-C_ハッチ
  6
Continuous
 62
   120
370
     5
100
AcDbLine
 10
-1749.8542830041
 20
-735.8487132713833
 30
0.0
 11
-1926.854283004106
 21
-558.8487132713772
 31
0.0
  0
LINE
  5
378
330
1F
100
AcDbEntity
  8
0-C_ハッチ
  6
Continuous
 62
   120
370
     5
100
AcDbLine
 10
-1707.427876132897
 20
-735.8487132713833
 30
0.0
 11
-1884.427876132896
 21
-558.8487132713908
 31
0.0
  0
LINE
  5
379
330
1F
100
AcDbEntity
  8
0-C_ハッチ
  6
Continuous
 62
   120
370
     5
100
AcDbLine
 10
-1792.280689875303
 20
-735.8487132713833
 30
0.0
 11
-1969.280689875303
 21
-558.8487132713806
 31
0.0
  0
LINE
  5
37A
330
1F
100
AcDbEntity
  8
0-C_ハッチ
  6
Continuous
 62
   120
370
     5
100
AcDbLine
 10
-1901.401562447442
 20
-669.154247570441
 30
0.0
 11
-1834.707096746505
 21
-735.8487132713833
 31
0.0
  0
LINE
  5
37B
330
1F
100
AcDbEntity
  8
0-B_寸法
  6
Continuous
 62
   120
370
     5
100
AcDbLine
 10
-1897.80156244744
 20
-1524.848840119953
 30
0.0
 11
-2077.80156244744
 21
-1524.848840119953
 31
0.0
  0
LINE
  5
37C
330
1F
100
AcDbEntity
  8
0-6_扉
  6
Continuous
 62
   200
370
    20
100
AcDbLine
 10
-1897.801561894086
 20
-3138.849313271379
 30
0.0
 11
-2077.801561894086
 21
-3138.849313271379
 31
0.0
  0
LINE
  5
37D
330
1F
100
AcDbEntity
  8
0-7_金物
  6
Continuous
 62
     7
370
     9
100
AcDbLine
 10
-2035.201562447437
 20
-1033.448712986798
 30
0.0
 11
-2035.201562447437
 21
-963.2487129867981
 31
0.0
  0
ARC
  5
37E
330
1F
100
AcDbEntity
  8
0-7_金物
  6
Continuous
 62
     7
370
     9
100
AcDbCircle
 10
-1987.801562447436
 20
-1033.448712986798
 30
0.0
 40
47.40000000000003
100
AcDbArc
 50
180.0
 51
0.0
  0
LINE
  5
37F
330
1F
100
AcDbEntity
  8
0-7_金物
  6
Continuous
 62
     7
370
     9
100
AcDbLine
 10
-1940.401562447437
 20
-963.2487129867981
 30
0.0
 11
-1940.401562447437
 21
-1033.448712986798
 31
0.0
  0
ARC
  5
380
330
1F
100
AcDbEntity
  8
0-7_金物
  6
Continuous
 62
     7
370
     9
100
AcDbCircle
 10
-1987.801562447436
 20
-1033.448712986798
 30
0.0
 40
41.40000000000003
100
AcDbArc
 50
180.0
 51
0.0
  0
LINE
  5
381
330
1F
100
AcDbEntity
  8
0-7_金物
  6
Continuous
 62
     7
370
     9
100
AcDbLine
 10
-1946.401562447436
 20
-1033.448712986798
 30
0.0
 11
-1946.401562447436
 21
-963.2487129867981
 31
0.0
  0
LINE
  5
382
330
1F
100
AcDbEntity
  8
0-7_金物
  6
Continuous
 62
     7
370
     9
100
AcDbLine
 10
-2035.201562447437
 20
-963.2487129867981
 30
0.0
 11
-2029.201562447438
 21
-963.2487129867981
 31
0.0
  0
LINE
  5
383
330
1F
100
AcDbEntity
  8
0-7_金物
  6
Continuous
 62
     7
370
     9
100
AcDbLine
 10
-2029.201562447438
 20
-963.2487129867981
 30
0.0
 11
-2029.201562447438
 21
-1033.448712986798
 31
0.0
  0
LINE
  5
384
330
1F
100
AcDbEntity
  8
0-7_金物
  6
Continuous
 62
     7
370
     9
100
AcDbLine
 10
-1946.401562447436
 20
-963.2487129867981
 30
0.0
 11
-1940.401562447437
 21
-963.2487129867981
 31
0.0
  0
LINE
  5
385
330
1F
100
AcDbEntity
  8
0-7_金物
  6
Continuous
 62
     7
370
     9
100
AcDbLine
 10
-1962.601562447437
 20
-963.2487129867981
 30
0.0
 11
-1962.601562447437
 21
-969.248712986796
 31
0.0
  0
LINE
  5
386
330
1F
100
AcDbEntity
  8
0-7_金物
  6
Continuous
 62
     7
370
     9
100
AcDbLine
 10
-1951.201562447437
 20
-969.248712986796
 30
0.0
 11
-1962.601562447437
 21
-969.248712986796
 31
0.0
  0
LINE
  5
387
330
1F
100
AcDbEntity
  8
0-7_金物
  6
Continuous
 62
     7
370
     9
100
AcDbLine
 10
-1951.201562447437
 20
-969.248712986796
 30
0.0
 11
-1951.201562447437
 21
-997.4487129867964
 31
0.0
  0
LINE
  5
388
330
1F
100
AcDbEntity
  8
0-7_金物
  6
Continuous
 62
     7
370
     9
100
AcDbLine
 10
-1962.601562447437
 20
-997.4487129867964
 30
0.0
 11
-1951.201562447437
 21
-997.4487129867964
 31
0.0
  0
LINE
  5
389
330
1F
100
AcDbEntity
  8
0-7_金物
  6
Continuous
 62
     7
370
     9
100
AcDbLine
 10
-1962.601562447437
 20
-997.4487129867964
 30
0.0
 11
-1962.601562447437
 21
-1008.848712986798
 31
0.0
  0
LINE
  5
38A
330
1F
100
AcDbEntity
  8
0-7_金物
  6
Continuous
 62
     7
370
     9
100
AcDbLine
 10
-2013.001562447437
 20
-1008.848712986798
 30
0.0
 11
-2013.001562447437
 21
-997.4487129867964
 31
0.0
  0
LINE
  5
38B
330
1F
100
AcDbEntity
  8
0-7_金物
  6
Continuous
 62
     7
370
     9
100
AcDbLine
 10
-2024.401562447437
 20
-997.4487129867964
 30
0.0
 11
-2013.001562447437
 21
-997.4487129867964
 31
0.0
  0
LINE
  5
38C
330
1F
100
AcDbEntity
  8
0-7_金物
  6
Continuous
 62
     7
370
     9
100
AcDbLine
 10
-2024.401562447437
 20
-997.4487129867964
 30
0.0
 11
-2024.401562447437
 21
-969.248712986796
 31
0.0
  0
LINE
  5
38D
330
1F
100
AcDbEntity
  8
0-7_金物
  6
Continuous
 62
     7
370
     9
100
AcDbLine
 10
-2013.001562447437
 20
-969.248712986796
 30
0.0
 11
-2024.401562447437
 21
-969.248712986796
 31
0.0
  0
LINE
  5
38E
330
1F
100
AcDbEntity
  8
0-7_金物
  6
Continuous
 62
     7
370
     9
100
AcDbLine
 10
-2013.001562447437
 20
-969.248712986796
 30
0.0
 11
-2013.001562447437
 21
-963.2487129867981
 31
0.0
  0
LINE
  5
38F
330
1F
100
AcDbEntity
  8
0-7_金物
  6
Continuous
 62
     7
370
     9
100
AcDbLine
 10
-2029.201562447438
 20
-963.2487129867981
 30
0.0
 11
-2013.001562447437
 21
-963.2487129867981
 31
0.0
  0
LINE
  5
390
330
1F
100
AcDbEntity
  8
0-7_金物
  6
Continuous
 62
     7
370
     9
100
AcDbLine
 10
-1962.601562447437
 20
-963.2487129867981
 30
0.0
 11
-1946.401562447436
 21
-963.2487129867981
 31
0.0
  0
LINE
  5
391
330
1F
100
AcDbEntity
  8
0-7_金物
  6
Continuous
 62
     7
370
     9
100
AcDbLine
 10
-2024.401562447437
 20
-975.2487129867974
 30
0.0
 11
-2013.001562447437
 21
-975.2487129867974
 31
0.0
  0
LINE
  5
392
330
1F
100
AcDbEntity
  8
0-7_金物
  6
Continuous
 62
     7
370
     9
100
AcDbLine
 10
-2013.001562447437
 20
-975.2487129867974
 30
0.0
 11
-2013.001562447437
 21
-969.248712986796
 31
0.0
  0
LINE
  5
393
330
1F
100
AcDbEntity
  8
0-7_金物
  6
Continuous
 62
     7
370
     9
100
AcDbLine
 10
-1962.601562447437
 20
-975.2487129867974
 30
0.0
 11
-1951.201562447437
 21
-975.2487129867974
 31
0.0
  0
LINE
  5
394
330
1F
100
AcDbEntity
  8
0-7_金物
  6
Continuous
 62
     7
370
     9
100
AcDbLine
 10
-1962.601562447437
 20
-969.248712986796
 30
0.0
 11
-1962.601562447437
 21
-975.2487129867974
 31
0.0
  0
LINE
  5
395
330
1F
100
AcDbEntity
  8
0-7_金物
  6
Continuous
 62
     7
370
     9
100
AcDbLine
 10
-2013.001562447437
 20
-991.4487129867963
 30
0.0
 11
-2024.401562447437
 21
-991.4487129867963
 31
0.0
  0
LINE
  5
396
330
1F
100
AcDbEntity
  8
0-7_金物
  6
Continuous
 62
     7
370
     9
100
AcDbLine
 10
-2013.001562447437
 20
-997.4487129867964
 30
0.0
 11
-2013.001562447437
 21
-991.4487129867963
 31
0.0
  0
LINE
  5
397
330
1F
100
AcDbEntity
  8
0-7_金物
  6
Continuous
 62
     7
370
     9
100
AcDbLine
 10
-1951.201562447437
 20
-991.4487129867963
 30
0.0
 11
-1962.601562447437
 21
-991.4487129867963
 31
0.0
  0
LINE
  5
398
330
1F
100
AcDbEntity
  8
0-7_金物
  6
Continuous
 62
     7
370
     9
100
AcDbLine
 10
-1962.601562447437
 20
-991.4487129867963
 30
0.0
 11
-1962.601562447437
 21
-997.4487129867964
 31
0.0
  0
LINE
  5
399
330
1F
100
AcDbEntity
  8
0-7_金物
  6
Continuous
 62
     7
370
     9
100
AcDbLine
 10
-2017.201562447437
 20
-962.6487129867974
 30
0.0
 11
-2017.201562447437
 21
-963.2487129867981
 31
0.0
  0
LINE
  5
39A
330
1F
100
AcDbEntity
  8
0-7_金物
  6
Continuous
 62
     7
370
     9
100
AcDbLine
 10
-2035.201562447437
 20
-962.6487129867974
 30
0.0
 11
-2035.201562447437
 21
-963.2487129867981
 31
0.0
  0
LINE
  5
39B
330
1F
100
AcDbEntity
  8
0-7_金物
  6
Continuous
 62
     7
370
     9
100
AcDbLine
 10
-1958.401562447437
 20
-963.2487129867981
 30
0.0
 11
-1958.401562447437
 21
-962.6487129867974
 31
0.0
  0
LINE
  5
39C
330
1F
100
AcDbEntity
  8
0-7_金物
  6
Continuous
 62
     7
370
     9
100
AcDbLine
 10
-1940.401562447437
 20
-962.6487129867974
 30
0.0
 11
-1940.401562447437
 21
-963.2487129867981
 31
0.0
  0
ARC
  5
39D
330
1F
100
AcDbEntity
  8
0-7_金物
  6
Continuous
 62
     7
370
     9
100
AcDbCircle
 10
-1978.801562447438
 20
-873.8487129867975
 30
0.0
 40
6.0
100
AcDbArc
 50
180.0
 51
270.0
  0
LINE
  5
39E
330
1F
100
AcDbEntity
  8
0-7_金物
  6
Continuous
 62
     7
370
     9
100
AcDbLine
 10
-1972.801562447436
 20
-885.8487129867968
 30
0.0
 11
-1978.801562447438
 21
-885.8487129867968
 31
0.0
  0
ARC
  5
39F
330
1F
100
AcDbEntity
  8
0-7_金物
  6
Continuous
 62
     7
370
     9
100
AcDbCircle
 10
-1978.801562447438
 20
-891.848712986797
 30
0.0
 40
6.0
100
AcDbArc
 50
90.0
 51
180.0
  0
LINE
  5
3A0
330
1F
100
AcDbEntity
  8
0-7_金物
  6
Continuous
 62
     7
370
     9
100
AcDbLine
 10
-1984.801562447437
 20
-891.848712986797
 30
0.0
 11
-1984.801562447437
 21
-897.8487129867983
 31
0.0
  0
ARC
  5
3A1
330
1F
100
AcDbEntity
  8
0-7_金物
  6
Continuous
 62
     7
370
     9
100
AcDbCircle
 10
-2002.801562447436
 20
-882.8487129867983
 30
0.0
 40
3.0
100
AcDbArc
 50
90.0
 51
180.0
  0
LINE
  5
3A2
330
1F
100
AcDbEntity
  8
0-7_金物
  6
Continuous
 62
     7
370
     9
100
AcDbLine
 10
-1990.801562447437
 20
-873.8487129867975
 30
0.0
 11
-1990.801562447437
 21
-867.8487129867983
 31
0.0
  0
ARC
  5
3A3
330
1F
100
AcDbEntity
  8
0-7_金物
  6
Continuous
 62
     7
370
     9
100
AcDbCircle
 10
-1987.801562447436
 20
-867.8487129867983
 30
0.0
 40
3.0
100
AcDbArc
 50
90.0
 51
180.0
  0
ARC
  5
3A4
330
1F
100
AcDbEntity
  8
0-7_金物
  6
Continuous
 62
     7
370
     9
100
AcDbCircle
 10
-1996.801562447436
 20
-891.848712986797
 30
0.0
 40
6.0
100
AcDbArc
 50
0.0
 51
90.0
  0
LINE
  5
3A5
330
1F
100
AcDbEntity
  8
0-7_金物
  6
Continuous
 62
     7
370
     9
100
AcDbLine
 10
-1996.801562447436
 20
-885.8487129867968
 30
0.0
 11
-2002.801562447436
 21
-885.8487129867968
 31
0.0
  0
LINE
  5
3A6
330
1F
100
AcDbEntity
  8
0-7_金物
  6
Continuous
 62
     7
370
     9
100
AcDbLine
 10
-2002.801562447436
 20
-879.8487129867976
 30
0.0
 11
-1996.801562447436
 21
-879.8487129867976
 31
0.0
  0
ARC
  5
3A7
330
1F
100
AcDbEntity
  8
0-7_金物
  6
Continuous
 62
     7
370
     9
100
AcDbCircle
 10
-1996.801562447436
 20
-873.8487129867975
 30
0.0
 40
6.0
100
AcDbArc
 50
270.0
 51
0.0
  0
ARC
  5
3A8
330
1F
100
AcDbEntity
  8
0-7_金物
  6
Continuous
 62
     7
370
     9
100
AcDbCircle
 10
-1987.801562447436
 20
-867.8487129867983
 30
0.0
 40
3.0
100
AcDbArc
 50
0.0
 51
90.0
  0
ARC
  5
3A9
330
1F
100
AcDbEntity
  8
0-7_金物
  6
Continuous
 62
     7
370
     9
100
AcDbCircle
 10
-1972.801562447436
 20
-882.8487129867983
 30
0.0
 40
3.0
100
AcDbArc
 50
270.0
 51
0.0
  0
LINE
  5
3AA
330
1F
100
AcDbEntity
  8
0-7_金物
  6
Continuous
 62
     7
370
     9
100
AcDbLine
 10
-1984.801562447437
 20
-867.8487129867983
 30
0.0
 11
-1984.801562447437
 21
-873.8487129867975
 31
0.0
  0
ARC
  5
3AB
330
1F
100
AcDbEntity
  8
0-7_金物
  6
Continuous
 62
     7
370
     9
100
AcDbCircle
 10
-2002.801562447436
 20
-882.8487129867983
 30
0.0
 40
3.0
100
AcDbArc
 50
180.0
 51
270.0
  0
ARC
  5
3AC
330
1F
100
AcDbEntity
  8
0-7_金物
  6
Continuous
 62
     7
370
     9
100
AcDbCircle
 10
-1987.801562447436
 20
-897.8487129867983
 30
0.0
 40
3.0
100
AcDbArc
 50
270.0
 51
0.0
  0
LINE
  5
3AD
330
1F
100
AcDbEntity
  8
0-7_金物
  6
Continuous
 62
     7
370
     9
100
AcDbLine
 10
-1990.801562447437
 20
-897.8487129867983
 30
0.0
 11
-1990.801562447437
 21
-891.848712986797
 31
0.0
  0
LINE
  5
3AE
330
1F
100
AcDbEntity
  8
0-7_金物
  6
Continuous
 62
     7
370
     9
100
AcDbLine
 10
-1978.801562447438
 20
-879.8487129867976
 30
0.0
 11
-1972.801562447436
 21
-879.8487129867976
 31
0.0
  0
ARC
  5
3AF
330
1F
100
AcDbEntity
  8
0-7_金物
  6
Continuous
 62
     7
370
     9
100
AcDbCircle
 10
-1972.801562447436
 20
-882.8487129867983
 30
0.0
 40
3.0
100
AcDbArc
 50
0.0
 51
90.0
  0
ARC
  5
3B0
330
1F
100
AcDbEntity
  8
0-7_金物
  6
Continuous
 62
     7
370
     9
100
AcDbCircle
 10
-1987.801562447436
 20
-897.8487129867983
 30
0.0
 40
3.0
100
AcDbArc
 50
180.0
 51
270.0
  0
LINE
  5
3B1
330
1F
100
AcDbEntity
  8
0-7_金物
  6
Continuous
 62
     7
370
     9
100
AcDbLine
 10
-2023.201562447438
 20
-1008.848712986798
 30
0.0
 11
-2023.201562447438
 21
-1026.848712986797
 31
0.0
  0
LINE
  5
3B2
330
1F
100
AcDbEntity
  8
0-7_金物
  6
Continuous
 62
     7
370
     9
100
AcDbLine
 10
-2017.201562447437
 20
-1026.848712986797
 30
0.0
 11
-2017.201562447437
 21
-1008.848712986798
 31
0.0
  0
LINE
  5
3B3
330
1F
100
AcDbEntity
  8
0-7_金物
  6
Continuous
 62
     7
370
     9
100
AcDbLine
 10
-2023.201562447438
 20
-1026.848712986797
 30
0.0
 11
-2017.201562447437
 21
-1026.848712986797
 31
0.0
  0
LINE
  5
3B4
330
1F
100
AcDbEntity
  8
0-7_金物
  6
Continuous
 62
     7
370
     9
100
AcDbLine
 10
-2017.201562447437
 20
-1008.848712986798
 30
0.0
 11
-2023.201562447438
 21
-1008.848712986798
 31
0.0
  0
LINE
  5
3B5
330
1F
100
AcDbEntity
  8
0-7_金物
  6
Continuous
 62
     7
370
     9
100
AcDbLine
 10
-1958.401562447437
 20
-1008.848712986798
 30
0.0
 11
-1958.401562447437
 21
-1026.848712986797
 31
0.0
  0
LINE
  5
3B6
330
1F
100
AcDbEntity
  8
0-7_金物
  6
Continuous
 62
     7
370
     9
100
AcDbLine
 10
-2017.201562447437
 20
-1026.848712986797
 30
0.0
 11
-1958.401562447437
 21
-1026.848712986797
 31
0.0
  0
LINE
  5
3B7
330
1F
100
AcDbEntity
  8
0-7_金物
  6
Continuous
 62
     7
370
     9
100
AcDbLine
 10
-1958.401562447437
 20
-1008.848712986798
 30
0.0
 11
-2017.201562447437
 21
-1008.848712986798
 31
0.0
  0
LINE
  5
3B8
330
1F
100
AcDbEntity
  8
0-7_金物
  6
Continuous
 62
     7
370
     9
100
AcDbLine
 10
-1940.401562447437
 20
-822.8487129867983
 30
0.0
 11
-1940.401562447437
 21
-962.6487129867974
 31
0.0
  0
LINE
  5
3B9
330
1F
100
AcDbEntity
  8
0-7_金物
  6
Continuous
 62
     7
370
     9
100
AcDbLine
 10
-2035.201562447437
 20
-822.8487129867983
 30
0.0
 11
-2035.201562447437
 21
-962.6487129867974
 31
0.0
  0
CIRCLE
  5
3BA
330
1F
100
AcDbEntity
  8
0-7_金物
  6
Continuous
 62
     7
370
     9
100
AcDbCircle
 10
-1987.801562447436
 20
-882.8487129867983
 30
0.0
 40
21.00000000000001
  0
LINE
  5
3BB
330
1F
100
AcDbEntity
  8
0-7_金物
  6
Continuous
 62
     7
370
     9
100
AcDbLine
 10
-2035.201562447437
 20
-962.6487129867974
 30
0.0
 11
-1940.401562447437
 21
-962.6487129867974
 31
0.0
  0
LINE
  5
3BC
330
1F
100
AcDbEntity
  8
0-7_金物
  6
Continuous
 62
     7
370
     9
100
AcDbLine
 10
-1952.401562447438
 20
-1026.848712986797
 30
0.0
 11
-1952.401562447438
 21
-1008.848712986798
 31
0.0
  0
LINE
  5
3BD
330
1F
100
AcDbEntity
  8
0-7_金物
  6
Continuous
 62
     7
370
     9
100
AcDbLine
 10
-1958.401562447437
 20
-1026.848712986797
 30
0.0
 11
-1952.401562447438
 21
-1026.848712986797
 31
0.0
  0
LINE
  5
3BE
330
1F
100
AcDbEntity
  8
0-7_金物
  6
Continuous
 62
     7
370
     9
100
AcDbLine
 10
-1952.401562447438
 20
-1008.848712986798
 30
0.0
 11
-1958.401562447437
 21
-1008.848712986798
 31
0.0
  0
LINE
  5
3BF
330
1F
100
AcDbEntity
  8
0-7_金物
  6
Continuous
 62
     7
370
     9
100
AcDbLine
 10
-2023.201562447438
 20
-990.8487129867968
 30
0.0
 11
-1952.401562447438
 21
-990.8487129867968
 31
0.0
  0
LINE
  5
3C0
330
1F
100
AcDbEntity
  8
0-7_金物
  6
Continuous
 62
     7
370
     9
100
AcDbLine
 10
-1952.401562447438
 20
-990.8487129867968
 30
0.0
 11
-1952.401562447438
 21
-978.8487129867975
 31
0.0
  0
LINE
  5
3C1
330
1F
100
AcDbEntity
  8
0-7_金物
  6
Continuous
 62
     7
370
     9
100
AcDbLine
 10
-1952.401562447438
 20
-978.8487129867975
 30
0.0
 11
-2023.201562447438
 21
-978.8487129867975
 31
0.0
  0
LINE
  5
3C2
330
1F
100
AcDbEntity
  8
0-7_金物
  6
Continuous
 62
     7
370
     9
100
AcDbLine
 10
-2023.201562447438
 20
-978.8487129867975
 30
0.0
 11
-2023.201562447438
 21
-990.8487129867968
 31
0.0
  0
LINE
  5
3C3
330
1F
100
AcDbEntity
  8
0-7_金物
  6
Continuous
 62
     7
370
     9
100
AcDbLine
 10
-1963.801562447438
 20
-975.8487129867968
 30
0.0
 11
-1952.401562447438
 21
-975.8487129867968
 31
0.0
  0
LINE
  5
3C4
330
1F
100
AcDbEntity
  8
0-7_金物
  6
Continuous
 62
     7
370
     9
100
AcDbLine
 10
-1963.801562447438
 20
-975.8487129867968
 30
0.0
 11
-1963.801562447438
 21
-962.6487129867974
 31
0.0
  0
LINE
  5
3C5
330
1F
100
AcDbEntity
  8
0-7_金物
  6
Continuous
 62
     7
370
     9
100
AcDbLine
 10
-2023.201562447438
 20
-975.8487129867968
 30
0.0
 11
-2011.801562447436
 21
-975.8487129867968
 31
0.0
  0
LINE
  5
3C6
330
1F
100
AcDbEntity
  8
0-7_金物
  6
Continuous
 62
     7
370
     9
100
AcDbLine
 10
-2011.801562447436
 20
-962.6487129867974
 30
0.0
 11
-2011.801562447436
 21
-975.8487129867968
 31
0.0
  0
LINE
  5
3C7
330
1F
100
AcDbEntity
  8
0-7_金物
  6
Continuous
 62
     7
370
     9
100
AcDbLine
 10
-2023.201562447438
 20
-978.8487129867975
 30
0.0
 11
-2023.201562447438
 21
-975.8487129867968
 31
0.0
  0
LINE
  5
3C8
330
1F
100
AcDbEntity
  8
0-7_金物
  6
Continuous
 62
     7
370
     9
100
AcDbLine
 10
-1952.401562447438
 20
-975.8487129867968
 30
0.0
 11
-1952.401562447438
 21
-978.8487129867975
 31
0.0
  0
LINE
  5
3C9
330
1F
100
AcDbEntity
  8
0-7_金物
  6
Continuous
 62
     7
370
     9
100
AcDbLine
 10
-1978.801562447438
 20
-990.8487129867968
 30
0.0
 11
-1978.801562447438
 21
-1008.848712986798
 31
0.0
  0
LINE
  5
3CA
330
1F
100
AcDbEntity
  8
0-7_金物
  6
Continuous
 62
     7
370
     9
100
AcDbLine
 10
-1996.801562447436
 20
-990.8487129867968
 30
0.0
 11
-1996.801562447436
 21
-1008.848712986798
 31
0.0
  0
LINE
  5
3CB
330
1F
100
AcDbEntity
  8
0-7_金物
  6
Continuous
 62
     7
370
     9
100
AcDbLine
 10
-1963.801562447438
 20
-1002.848712986798
 30
0.0
 11
-1978.801562447438
 21
-1002.848712986798
 31
0.0
  0
LINE
  5
3CC
330
1F
100
AcDbEntity
  8
0-7_金物
  6
Continuous
 62
     7
370
     9
100
AcDbLine
 10
-1963.801562447438
 20
-1008.848712986798
 30
0.0
 11
-1963.801562447438
 21
-1002.848712986798
 31
0.0
  0
LINE
  5
3CD
330
1F
100
AcDbEntity
  8
0-7_金物
  6
Continuous
 62
     7
370
     9
100
AcDbLine
 10
-1996.801562447436
 20
-1002.848712986798
 30
0.0
 11
-2011.801562447436
 21
-1002.848712986798
 31
0.0
  0
LINE
  5
3CE
330
1F
100
AcDbEntity
  8
0-7_金物
  6
Continuous
 62
     7
370
     9
100
AcDbLine
 10
-2011.801562447436
 20
-1002.848712986798
 30
0.0
 11
-2011.801562447436
 21
-1008.848712986798
 31
0.0
  0
LINE
  5
3CF
330
1F
100
AcDbEntity
  8
0-7_金物
  6
Continuous
 62
     7
370
     9
100
AcDbLine
 10
-2011.801562447436
 20
-990.8487129867968
 30
0.0
 11
-2011.801562447436
 21
-1002.848712986798
 31
0.0
  0
LINE
  5
3D0
330
1F
100
AcDbEntity
  8
0-7_金物
  6
Continuous
 62
     7
370
     9
100
AcDbLine
 10
-1963.801562447438
 20
-1002.848712986798
 30
0.0
 11
-1963.801562447438
 21
-990.8487129867968
 31
0.0
  0
LINE
  5
3D1
330
1F
100
AcDbEntity
  8
0-7_金物
  6
Continuous
 62
     7
370
     9
100
AcDbLine
 10
-1956.301562447443
 20
-725.0487129867986
 30
0.0
 11
-1956.301562447443
 21
-794.6487129867967
 31
0.0
  0
LINE
  5
3D2
330
1F
100
AcDbEntity
  8
0-7_金物
  6
Continuous
 62
     7
370
     9
100
AcDbLine
 10
-1956.301562447443
 20
-707.0487129867979
 30
0.0
 11
-1956.301562447443
 21
-725.0487129867986
 31
0.0
  0
LINE
  5
3D3
330
1F
100
AcDbEntity
  8
0-7_金物
  6
Continuous
 62
     7
370
     9
100
AcDbLine
 10
-2019.301562447442
 20
-725.0487129867986
 30
0.0
 11
-2019.301562447442
 21
-707.0487129867979
 31
0.0
  0
LINE
  5
3D4
330
1F
100
AcDbEntity
  8
0-7_金物
  6
Continuous
 62
     7
370
     9
100
AcDbLine
 10
-1956.301562447443
 20
-794.6487129867967
 30
0.0
 11
-1956.301562447443
 21
-821.0487129867978
 31
0.0
  0
LINE
  5
3D5
330
1F
100
AcDbEntity
  8
0-7_金物
  6
Continuous
 62
     7
370
     9
100
AcDbLine
 10
-2019.301562447442
 20
-821.0487129867978
 30
0.0
 11
-2019.301562447442
 21
-794.6487129867967
 31
0.0
  0
LINE
  5
3D6
330
1F
100
AcDbEntity
  8
0-7_金物
  6
Continuous
 62
     7
370
     9
100
AcDbLine
 10
-2011.801562447442
 20
-821.0487129867978
 30
0.0
 11
-1963.801562447443
 21
-821.0487129867978
 31
0.0
  0
LINE
  5
3D7
330
1F
100
AcDbEntity
  8
0-7_金物
  6
Continuous
 62
     7
370
     9
100
AcDbLine
 10
-1963.801562447443
 20
-821.0487129867978
 30
0.0
 11
-1963.801562447443
 21
-822.8487129867983
 31
0.0
  0
LINE
  5
3D8
330
1F
100
AcDbEntity
  8
0-7_金物
  6
Continuous
 62
     7
370
     9
100
AcDbLine
 10
-2011.801562447442
 20
-822.8487129867983
 30
0.0
 11
-2011.801562447442
 21
-821.0487129867978
 31
0.0
  0
LINE
  5
3D9
330
1F
100
AcDbEntity
  8
0-7_金物
  6
Continuous
 62
     7
370
     9
100
AcDbLine
 10
-1936.801562447442
 20
-683.0487129867971
 30
0.0
 11
-1936.801562447442
 21
-707.0487129867979
 31
0.0
  0
LINE
  5
3DA
330
1F
100
AcDbEntity
  8
0-7_金物
  6
Continuous
 62
     7
370
     9
100
AcDbLine
 10
-1960.801562447443
 20
-683.0487129867971
 30
0.0
 11
-1936.801562447442
 21
-683.0487129867971
 31
0.0
  0
LINE
  5
3DB
330
1F
100
AcDbEntity
  8
0-7_金物
  6
Continuous
 62
     7
370
     9
100
AcDbLine
 10
-1960.801562447443
 20
-695.0487129867986
 30
0.0
 11
-1960.801562447443
 21
-683.0487129867971
 31
0.0
  0
LINE
  5
3DC
330
1F
100
AcDbEntity
  8
0-7_金物
  6
Continuous
 62
     7
370
     9
100
AcDbLine
 10
-2014.801562447442
 20
-695.0487129867986
 30
0.0
 11
-1960.801562447443
 21
-695.0487129867986
 31
0.0
  0
LINE
  5
3DD
330
1F
100
AcDbEntity
  8
0-7_金物
  6
Continuous
 62
     7
370
     9
100
AcDbLine
 10
-2014.801562447442
 20
-683.0487129867971
 30
0.0
 11
-2014.801562447442
 21
-695.0487129867986
 31
0.0
  0
LINE
  5
3DE
330
1F
100
AcDbEntity
  8
0-7_金物
  6
Continuous
 62
     7
370
     9
100
AcDbLine
 10
-2038.801562447443
 20
-707.0487129867979
 30
0.0
 11
-2038.801562447443
 21
-683.0487129867971
 31
0.0
  0
LINE
  5
3DF
330
1F
100
AcDbEntity
  8
0-7_金物
  6
Continuous
 62
     7
370
     9
100
AcDbLine
 10
-1987.801562447443
 20
-707.0487129867979
 30
0.0
 11
-2038.801562447443
 21
-707.0487129867979
 31
0.0
  0
LINE
  5
3E0
330
1F
100
AcDbEntity
  8
0-7_金物
  6
Continuous
 62
     7
370
     9
100
AcDbLine
 10
-1936.801562447442
 20
-707.0487129867979
 30
0.0
 11
-1987.801562447443
 21
-707.0487129867979
 31
0.0
  0
LINE
  5
3E1
330
1F
100
AcDbEntity
  8
0-7_金物
  6
Continuous
 62
     7
370
     9
100
AcDbLine
 10
-2038.801562447443
 20
-683.0487129867971
 30
0.0
 11
-2014.801562447442
 21
-683.0487129867971
 31
0.0
  0
LINE
  5
3E2
330
1F
100
AcDbEntity
  8
0-7_金物
  6
Continuous
 62
     7
370
     9
100
AcDbLine
 10
-2019.301562447442
 20
-794.6487129867967
 30
0.0
 11
-1987.801562447443
 21
-794.6487129867967
 31
0.0
  0
LINE
  5
3E3
330
1F
100
AcDbEntity
  8
0-7_金物
  6
Continuous
 62
     7
370
     9
100
AcDbLine
 10
-1987.801562447443
 20
-725.0487129867986
 30
0.0
 11
-2019.301562447442
 21
-725.0487129867986
 31
0.0
  0
LINE
  5
3E4
330
1F
100
AcDbEntity
  8
0-7_金物
  6
Continuous
 62
     7
370
     9
100
AcDbLine
 10
-1987.801562447443
 20
-794.6487129867967
 30
0.0
 11
-1956.301562447443
 21
-794.6487129867967
 31
0.0
  0
LINE
  5
3E5
330
1F
100
AcDbEntity
  8
0-7_金物
  6
Continuous
 62
     7
370
     9
100
AcDbLine
 10
-1956.301562447443
 20
-725.0487129867986
 30
0.0
 11
-1987.801562447443
 21
-725.0487129867986
 31
0.0
  0
LINE
  5
3E6
330
1F
100
AcDbEntity
  8
0-7_金物
  6
Continuous
 62
     7
370
     9
100
AcDbLine
 10
-2019.301562447442
 20
-794.6487129867967
 30
0.0
 11
-2019.301562447442
 21
-725.0487129867986
 31
0.0
  0
LINE
  5
3E7
330
1F
100
AcDbEntity
  8
0-7_金物
  6
Continuous
 62
     7
370
     9
100
AcDbLine
 10
-2011.801562447442
 20
-821.0487129867978
 30
0.0
 11
-2019.301562447442
 21
-821.0487129867978
 31
0.0
  0
LINE
  5
3E8
330
1F
100
AcDbEntity
  8
0-7_金物
  6
Continuous
 62
     7
370
     9
100
AcDbLine
 10
-1956.301562447443
 20
-821.0487129867978
 30
0.0
 11
-1963.801562447443
 21
-821.0487129867978
 31
0.0
  0
LINE
  5
3E9
330
1F
100
AcDbEntity
  8
0-7_金物
  6
Continuous
 62
     7
370
     9
100
AcDbLine
 10
-1953.901336865311
 20
-642.8487129867996
 30
0.0
 11
-2021.701788029573
 21
-642.8487129867983
 31
0.0
  0
LINE
  5
3EA
330
1F
100
AcDbEntity
  8
0-7_金物
  6
Continuous
 62
     7
370
     9
100
AcDbLine
 10
-2068.802101448992
 20
-642.8487129867996
 30
0.0
 11
-2067.601562447442
 21
-642.8487129867983
 31
0.0
  0
LINE
  5
3EB
330
1F
100
AcDbEntity
  8
0-7_金物
  6
Continuous
 62
     7
370
     9
100
AcDbLine
 10
-1906.801562447442
 20
-642.8487129867983
 30
0.0
 11
-1908.001562447442
 21
-642.8487129867983
 31
0.0
  0
LINE
  5
3EC
330
1F
100
AcDbEntity
  8
0-7_金物
  6
Continuous
 62
     7
370
     9
100
AcDbLine
 10
-2035.201562447442
 20
-822.8487129867983
 30
0.0
 11
-1940.401562447442
 21
-822.8487129867983
 31
0.0
  0
LINE
  5
3ED
330
1F
100
AcDbEntity
  8
0-7_金物
  6
Continuous
 62
     7
370
     9
100
AcDbLine
 10
-1870.201003482873
 20
-851.0493997146978
 30
0.0
 11
-1870.201003482873
 21
-743.0493997146971
 31
0.0
  0
ARC
  5
3EE
330
1F
100
AcDbEntity
  8
0-7_金物
  6
Continuous
 62
     7
370
     9
100
AcDbCircle
 10
-1873.201003482872
 20
-851.0493997146978
 30
0.0
 40
2.999999999999915
100
AcDbArc
 50
180.0
 51
0.0
  0
LINE
  5
3EF
330
1F
100
AcDbEntity
  8
0-7_金物
  6
Continuous
 62
     7
370
     9
100
AcDbLine
 10
-2064.602073500764
 20
-760.5873489128373
 30
0.0
 11
-2064.602073500764
 21
-675.8489325800202
 31
0.0
  0
ARC
  5
3F0
330
1F
100
AcDbEntity
  8
0-7_金物
  6
Continuous
 62
     7
370
     9
100
AcDbCircle
 10
-2039.401905811393
 20
-744.8493917294912
 30
0.0
 40
30.00019963020328
100
AcDbArc
 50
213.9231120032596
 51
301.890791801846
  0
ARC
  5
3F1
330
1F
100
AcDbEntity
  8
0-7_金物
  6
Continuous
 62
     7
370
     9
100
AcDbCircle
 10
-2022.601794018478
 20
-771.849571396673
 30
0.0
 40
1.800011977811773
100
AcDbArc
 50
0.0000000000000064
 51
121.8907918018636
  0
ARC
  5
3F2
330
1F
100
AcDbEntity
  8
0-7_金物
  6
Continuous
 62
     7
370
     9
100
AcDbCircle
 10
-2062.802061522948
 20
-760.5873489128373
 30
0.0
 40
1.800011977815348
100
AcDbArc
 50
180.0
 51
213.923112003242
  0
LINE
  5
3F3
330
1F
100
AcDbEntity
  8
0-7_金物
  6
Continuous
 62
     7
370
     9
100
AcDbLine
 10
-2015.701748103531
 20
-662.0488407501274
 30
0.0
 11
-2015.701748103531
 21
-653.6487848536696
 31
0.0
  0
LINE
  5
3F4
330
1F
100
AcDbEntity
  8
0-7_金物
  6
Continuous
 62
     7
370
     9
100
AcDbLine
 10
-2024.701807992592
 20
-651.8487728758579
 30
0.0
 11
-2024.701807992592
 21
-645.848732949819
 31
0.0
  0
LINE
  5
3F5
330
1F
100
AcDbEntity
  8
0-7_金物
  6
Continuous
 62
     7
370
     9
100
AcDbLine
 10
-2061.602053537742
 20
-654.8487928388795
 30
0.0
 11
-2027.701827955613
 21
-654.8487928388795
 31
0.0
  0
LINE
  5
3F6
330
1F
100
AcDbEntity
  8
0-7_金物
  6
Continuous
 62
     7
370
     9
100
AcDbLine
 10
-2052.601993648682
 20
-663.8488527279412
 30
0.0
 11
-2017.501760081343
 21
-663.8488527279412
 31
0.0
  0
LINE
  5
3F7
330
1F
100
AcDbEntity
  8
0-7_金物
  6
Continuous
 62
     7
370
     9
100
AcDbLine
 10
-2064.602073500764
 20
-651.8487728758579
 30
0.0
 11
-2064.602073500764
 21
-645.848732949819
 31
0.0
  0
ARC
  5
3F8
330
1F
100
AcDbEntity
  8
0-7_金物
  6
Continuous
 62
     7
370
     9
100
AcDbCircle
 10
-2021.701788029573
 20
-645.8487329498178
 30
0.0
 40
3.000019963019752
100
AcDbArc
 50
89.99999999999837
 51
180.0
  0
ARC
  5
3F9
330
1F
100
AcDbEntity
  8
0-7_金物
  6
Continuous
 62
     7
370
     9
100
AcDbCircle
 10
-2027.701827955612
 20
-651.8487728758579
 30
0.0
 40
3.000019963020116
100
AcDbArc
 50
269.9999999999951
 51
0.0000000000000127
  0
ARC
  5
3FA
330
1F
100
AcDbEntity
  8
0-7_金物
  6
Continuous
 62
     7
370
     9
100
AcDbCircle
 10
-2061.602053537742
 20
-651.8487728758579
 30
0.0
 40
3.000019963020043
100
AcDbArc
 50
180.0
 51
270.0000000000049
  0
ARC
  5
3FB
330
1F
100
AcDbEntity
  8
0-7_金物
  6
Continuous
 62
     7
370
     9
100
AcDbCircle
 10
-2067.602093463783
 20
-645.8487329498178
 30
0.0
 40
3.000019963019753
100
AcDbArc
 50
0.0000000000000127
 51
90.00000000000979
  0
ARC
  5
3FC
330
1F
100
AcDbEntity
  8
0-7_金物
  6
Continuous
 62
     7
370
     9
100
AcDbCircle
 10
-2068.802101448992
 20
-645.848732949819
 30
0.0
 40
3.000019963020626
100
AcDbArc
 50
90.00000000000654
 51
180.0
  0
ARC
  5
3FD
330
1F
100
AcDbEntity
  8
0-7_金物
  6
Continuous
 62
     7
370
     9
100
AcDbCircle
 10
-2052.601993648682
 20
-675.8489325800224
 30
0.0
 40
12.00007985208206
100
AcDbArc
 50
90.00000000000159
 51
180.0
  0
ARC
  5
3FE
330
1F
100
AcDbEntity
  8
0-7_金物
  6
Continuous
 62
     7
370
     9
100
AcDbCircle
 10
-2017.501760081343
 20
-662.0488407501274
 30
0.0
 40
1.800011977812318
100
AcDbArc
 50
270.0000000000032
 51
359.9999999999999
  0
LINE
  5
3FF
330
1F
100
AcDbEntity
  8
0-7_金物
  6
Continuous
 62
     7
370
     9
100
AcDbLine
 10
-1911.001051394122
 20
-760.5873489128373
 30
0.0
 11
-1911.001051394122
 21
-675.8489325800202
 31
0.0
  0
ARC
  5
400
330
1F
100
AcDbEntity
  8
0-7_金物
  6
Continuous
 62
     7
370
     9
100
AcDbCircle
 10
-1912.801063371925
 20
-760.5873489128386
 30
0.0
 40
1.80001197780369
100
AcDbArc
 50
326.0768879966443
 51
0.0000000000000318
  0
LINE
  5
401
330
1F
100
AcDbEntity
  8
0-7_金物
  6
Continuous
 62
     7
370
     9
100
AcDbLine
 10
-1923.001131246203
 20
-663.8488527279412
 30
0.0
 11
-1958.101364813541
 21
-663.8488527279412
 31
0.0
  0
LINE
  5
402
330
1F
100
AcDbEntity
  8
0-7_金物
  6
Continuous
 62
     7
370
     9
100
AcDbLine
 10
-1914.001071357141
 20
-654.8487928388795
 30
0.0
 11
-1947.901296939271
 21
-654.8487928388795
 31
0.0
  0
ARC
  5
403
330
1F
100
AcDbEntity
  8
0-7_金物
  6
Continuous
 62
     7
370
     9
100
AcDbCircle
 10
-1923.001131246203
 20
-675.8489325800202
 30
0.0
 40
12.00007985208111
100
AcDbArc
 50
0.0000000000000127
 51
90.00000000000001
  0
ARC
  5
404
330
1F
100
AcDbEntity
  8
0-7_金物
  6
Continuous
 62
     7
370
     9
100
AcDbCircle
 10
-1906.801023445893
 20
-645.848732949819
 30
0.0
 40
3.000019963020699
100
AcDbArc
 50
0.0000000000000127
 51
89.99999999999187
  0
LINE
  5
405
330
1F
100
AcDbEntity
  8
0-7_金物
  6
Continuous
 62
     7
370
     9
100
AcDbLine
 10
-1911.001051394122
 20
-651.8487728758579
 30
0.0
 11
-1911.001051394122
 21
-645.848732949819
 31
0.0
  0
ARC
  5
406
330
1F
100
AcDbEntity
  8
0-7_金物
  6
Continuous
 62
     7
370
     9
100
AcDbCircle
 10
-1908.0010314311
 20
-645.848732949819
 30
0.0
 40
3.000019963020699
100
AcDbArc
 50
90.00000000000654
 51
180.0
  0
ARC
  5
407
330
1F
100
AcDbEntity
  8
0-7_金物
  6
Continuous
 62
     7
370
     9
100
AcDbCircle
 10
-1914.001071357141
 20
-651.8487728758579
 30
0.0
 40
3.000019963020043
100
AcDbArc
 50
269.9999999999951
 51
0.0000000000000127
  0
LINE
  5
408
330
1F
100
AcDbEntity
  8
0-7_金物
  6
Continuous
 62
     7
370
     9
100
AcDbLine
 10
-1961.701388769165
 20
-651.8487728758579
 30
0.0
 11
-1986.00155046963
 21
-651.8487728758579
 31
0.0
  0
LINE
  5
409
330
1F
100
AcDbEntity
  8
0-7_金物
  6
Continuous
 62
     7
370
     9
100
AcDbLine
 10
-1959.901376791352
 20
-662.0488407501274
 30
0.0
 11
-1959.901376791352
 21
-653.6487848536696
 31
0.0
  0
ARC
  5
40A
330
1F
100
AcDbEntity
  8
0-7_金物
  6
Continuous
 62
     7
370
     9
100
AcDbCircle
 10
-1958.101364813541
 20
-662.0488407501308
 30
0.0
 40
1.800011977811371
100
AcDbArc
 50
180.0
 51
270.0000000000098
  0
ARC
  5
40B
330
1F
100
AcDbEntity
  8
0-7_金物
  6
Continuous
 62
     7
370
     9
100
AcDbCircle
 10
-1953.901336865311
 20
-645.8487329498178
 30
0.0
 40
3.000019963019753
100
AcDbArc
 50
0.0000000000000127
 51
90.00000000000162
  0
LINE
  5
40C
330
1F
100
AcDbEntity
  8
0-7_金物
  6
Continuous
 62
     7
370
     9
100
AcDbLine
 10
-1950.901316902292
 20
-651.8487728758579
 30
0.0
 11
-1950.901316902292
 21
-645.848732949819
 31
0.0
  0
ARC
  5
40D
330
1F
100
AcDbEntity
  8
0-7_金物
  6
Continuous
 62
     7
370
     9
100
AcDbCircle
 10
-1947.901296939271
 20
-651.8487728758579
 30
0.0
 40
3.000019963020116
100
AcDbArc
 50
180.0
 51
270.0000000000033
  0
LINE
  5
40E
330
1F
100
AcDbEntity
  8
0-7_金物
  6
Continuous
 62
     7
370
     9
100
AcDbLine
 10
-1989.601574425254
 20
-651.8487728758579
 30
0.0
 11
-2013.901736125719
 21
-651.8487728758579
 31
0.0
  0
ARC
  5
40F
330
1F
100
AcDbEntity
  8
0-7_金物
  6
Continuous
 62
     7
370
     9
100
AcDbCircle
 10
-2013.901736125719
 20
-653.6487848536696
 30
0.0
 40
1.800011977812318
100
AcDbArc
 50
90.00000000000325
 51
180.0
  0
ARC
  5
410
330
1F
100
AcDbEntity
  8
0-7_金物
  6
Continuous
 62
     7
370
     9
100
AcDbCircle
 10
-1961.701388769165
 20
-653.6487848536696
 30
0.0
 40
1.800011977812317
100
AcDbArc
 50
0.0000000000000127
 51
89.99999999999675
  0
LINE
  5
411
330
1F
100
AcDbEntity
  8
0-7_金物
  6
Continuous
 62
     7
370
     9
100
AcDbLine
 10
-2020.801782040683
 20
-775.3493926573242
 30
0.0
 11
-2020.801782040666
 21
-771.849571396673
 31
0.0
  0
ARC
  5
412
330
1F
100
AcDbEntity
  8
0-7_金物
  6
Continuous
 62
     7
370
     9
100
AcDbCircle
 10
-2026.801782040684
 20
-775.3493926572935
 30
0.0
 40
6.000000000000762
100
AcDbArc
 50
292.4464399032286
 51
0.0
  0
ARC
  5
413
330
1F
100
AcDbEntity
  8
0-7_金物
  6
Continuous
 62
     7
370
     9
100
AcDbCircle
 10
-2039.401905811392
 20
-744.8493917294912
 30
0.0
 40
39.00019963020362
100
AcDbArc
 50
220.9258727638374
 51
292.4464399032235
  0
ARC
  5
414
330
1F
100
AcDbEntity
  8
0-7_金物
  6
Continuous
 62
     7
370
     9
100
AcDbCircle
 10
-1936.201219083492
 20
-744.8493917294912
 30
0.0
 40
30.00019963020324
100
AcDbArc
 50
238.1092081981539
 51
326.0768879967404
  0
ARC
  5
415
330
1F
100
AcDbEntity
  8
0-7_金物
  6
Continuous
 62
     7
370
     9
100
AcDbCircle
 10
-1953.001330876406
 20
-771.849571396673
 30
0.0
 40
1.800011977811815
100
AcDbArc
 50
58.10920819813862
 51
180.0
  0
LINE
  5
416
330
1F
100
AcDbEntity
  8
0-7_金物
  6
Continuous
 62
     7
370
     9
100
AcDbLine
 10
-1954.801342854202
 20
-775.3493926573242
 30
0.0
 11
-1954.801342854218
 21
-771.849571396673
 31
0.0
  0
ARC
  5
417
330
1F
100
AcDbEntity
  8
0-7_金物
  6
Continuous
 62
     7
370
     9
100
AcDbCircle
 10
-1948.801342854201
 20
-775.3493926572935
 30
0.0
 40
6.000000000000811
100
AcDbArc
 50
180.0
 51
247.5535600967714
  0
ARC
  5
418
330
1F
100
AcDbEntity
  8
0-7_金物
  6
Continuous
 62
     7
370
     9
100
AcDbCircle
 10
-1936.201219083492
 20
-744.8493917294912
 30
0.0
 40
39.00019963020364
100
AcDbArc
 50
247.5535600967767
 51
319.0741272361627
  0
ARC
  5
419
330
1F
100
AcDbEntity
  8
0-7_金物
  6
Continuous
 62
     7
370
     9
100
AcDbCircle
 10
-2083.202121412011
 20
-749.6493997146979
 30
0.0
 40
3.59999999999971
100
AcDbArc
 50
0.0000000000000064
 51
180.0
  0
ARC
  5
41A
330
1F
100
AcDbEntity
  8
0-7_金物
  6
Continuous
 62
     7
370
     9
100
AcDbCircle
 10
-2059.802115465157
 20
-762.536738227858
 30
0.0
 40
11.99999999999909
100
AcDbArc
 50
211.739273711589
 51
220.9258727638443
  0
ARC
  5
41B
330
1F
100
AcDbEntity
  8
0-7_金物
  6
Continuous
 62
     7
370
     9
100
AcDbCircle
 10
-2079.602121412014
 20
-750.8493997146968
 30
0.0
 40
1.200000000000017
100
AcDbArc
 50
269.9999999999739
 51
89.99999999997551
  0
ARC
  5
41C
330
1F
100
AcDbEntity
  8
0-7_金物
  6
Continuous
 62
     7
370
     9
100
AcDbCircle
 10
-1892.401003482872
 20
-749.6493997146979
 30
0.0
 40
3.59999999999971
100
AcDbArc
 50
0.0000000000000064
 51
180.0
  0
ARC
  5
41D
330
1F
100
AcDbEntity
  8
0-7_金物
  6
Continuous
 62
     7
370
     9
100
AcDbCircle
 10
-1896.001003482872
 20
-750.8493997146968
 30
0.0
 40
1.200000000000017
100
AcDbArc
 50
90.00000000002441
 51
270.0000000000277
  0
ARC
  5
41E
330
1F
100
AcDbEntity
  8
0-7_金物
  6
Continuous
 62
     7
370
     9
100
AcDbCircle
 10
-1915.801009429727
 20
-762.536738227858
 30
0.0
 40
11.99999999999904
100
AcDbArc
 50
319.0741272361557
 51
328.2607262884101
  0
LINE
  5
41F
330
1F
100
AcDbEntity
  8
0-7_金物
  6
Continuous
 62
     7
370
     9
100
AcDbLine
 10
-2086.802121412012
 20
-765.8494398433016
 30
0.0
 11
-2086.802121412012
 21
-749.6493997146979
 31
0.0
  0
LINE
  5
420
330
1F
100
AcDbEntity
  8
0-7_金物
  6
Continuous
 62
     7
370
     9
100
AcDbLine
 10
-2083.802111632997
 20
-768.8494398432853
 30
0.0
 11
-2070.007524130382
 21
-768.8493948774579
 31
0.0
  0
ARC
  5
421
330
1F
100
AcDbEntity
  8
0-7_金物
  6
Continuous
 62
     7
370
     9
100
AcDbCircle
 10
-2083.802121412011
 20
-765.8494398433016
 30
0.0
 40
3.000000000000129
100
AcDbArc
 50
180.0
 51
270.0001867654294
  0
LINE
  5
422
330
1F
100
AcDbEntity
  8
0-7_金物
  6
Continuous
 62
     7
370
     9
100
AcDbLine
 10
-1888.801003482872
 20
-767.0494398432835
 30
0.0
 11
-1888.801003482872
 21
-749.6493997146979
 31
0.0
  0
LINE
  5
423
330
1F
100
AcDbEntity
  8
0-7_金物
  6
Continuous
 62
     7
370
     9
100
AcDbLine
 10
-1891.801013261888
 20
-768.8494398432853
 30
0.0
 11
-1905.595600764503
 21
-768.8493948774579
 31
0.0
  0
ARC
  5
424
330
1F
100
AcDbEntity
  8
0-7_金物
  6
Continuous
 62
     7
370
     9
100
AcDbCircle
 10
-1891.801003482873
 20
-765.8494398433016
 30
0.0
 40
3.000000000000171
100
AcDbArc
 50
269.9998132345673
 51
0.0
  0
LINE
  5
425
330
1F
100
AcDbEntity
  8
0-7_金物
  6
Continuous
 62
     7
370
     9
100
AcDbLine
 10
-2079.602121412011
 20
-758.6493997146978
 30
0.0
 11
-2079.602121412011
 21
-752.049399714697
 31
0.0
  0
ARC
  5
426
330
1F
100
AcDbEntity
  8
0-7_金物
  6
Continuous
 62
     7
370
     9
100
AcDbCircle
 10
-2076.602121412012
 20
-758.6493997146978
 30
0.0
 40
2.999999999999745
100
AcDbArc
 50
180.0
 51
270.0000000000049
  0
LINE
  5
427
330
1F
100
AcDbEntity
  8
0-7_金物
  6
Continuous
 62
     7
370
     9
100
AcDbLine
 10
-2071.802121412012
 20
-758.6493997146978
 30
0.0
 11
-2071.802121412012
 21
-645.848732949819
 31
0.0
  0
LINE
  5
428
330
1F
100
AcDbEntity
  8
0-7_金物
  6
Continuous
 62
     7
370
     9
100
AcDbLine
 10
-2074.802121412012
 20
-761.6493997146985
 30
0.0
 11
-2076.602121412012
 21
-761.6493997146985
 31
0.0
  0
ARC
  5
429
330
1F
100
AcDbEntity
  8
0-7_金物
  6
Continuous
 62
     7
370
     9
100
AcDbCircle
 10
-2074.802121412012
 20
-758.6493997146978
 30
0.0
 40
3.000000000000129
100
AcDbArc
 50
270.0000000000065
 51
0.0
  0
LINE
  5
42A
330
1F
100
AcDbEntity
  8
0-7_金物
  6
Continuous
 62
     7
370
     9
100
AcDbLine
 10
-1903.801003482872
 20
-758.6493997146978
 30
0.0
 11
-1903.801003482872
 21
-645.848732949819
 31
0.0
  0
ARC
  5
42B
330
1F
100
AcDbEntity
  8
0-7_金物
  6
Continuous
 62
     7
370
     9
100
AcDbCircle
 10
-1900.801003482872
 20
-758.6493997146978
 30
0.0
 40
3.0
100
AcDbArc
 50
180.0
 51
269.9999999999985
  0
LINE
  5
42C
330
1F
100
AcDbEntity
  8
0-7_金物
  6
Continuous
 62
     7
370
     9
100
AcDbLine
 10
-1900.801003482872
 20
-761.6493997146985
 30
0.0
 11
-1899.001003482873
 21
-761.6493997146985
 31
0.0
  0
LINE
  5
42D
330
1F
100
AcDbEntity
  8
0-7_金物
  6
Continuous
 62
     7
370
     9
100
AcDbLine
 10
-1896.001003482873
 20
-758.6493997146978
 30
0.0
 11
-1896.001003482873
 21
-752.049399714697
 31
0.0
  0
ARC
  5
42E
330
1F
100
AcDbEntity
  8
0-7_金物
  6
Continuous
 62
     7
370
     9
100
AcDbCircle
 10
-1899.001003482873
 20
-758.6493997146978
 30
0.0
 40
3.0
100
AcDbArc
 50
270.0
 51
0.0
  0
ARC
  5
42F
330
1F
100
AcDbEntity
  8
0-7_金物
  6
Continuous
 62
     7
370
     9
100
AcDbCircle
 10
-1900.801003482872
 20
-758.0493997146971
 30
0.0
 40
3.000000000000171
100
AcDbArc
 50
180.0
 51
0.0
  0
ARC
  5
430
330
1F
100
AcDbEntity
  8
0-7_金物
  6
Continuous
 62
     7
370
     9
100
AcDbCircle
 10
-1897.801003482873
 20
-756.8493997146982
 30
0.0
 40
1.200000000000017
100
AcDbArc
 50
270.0
 51
89.99999999999677
  0
ARC
  5
431
330
1F
100
AcDbEntity
  8
0-7_金物
  6
Continuous
 62
     7
370
     9
100
AcDbCircle
 10
-1900.801003482872
 20
-743.0493997146971
 30
0.0
 40
3.0
100
AcDbArc
 50
90.0
 51
180.0
  0
LINE
  5
432
330
1F
100
AcDbEntity
  8
0-7_金物
  6
Continuous
 62
     7
370
     9
100
AcDbLine
 10
-1897.801003482872
 20
-749.0493997146984
 30
0.0
 11
-1897.801003482872
 21
-755.6493997146993
 31
0.0
  0
ARC
  5
433
330
1F
100
AcDbEntity
  8
0-7_金物
  6
Continuous
 62
     7
370
     9
100
AcDbCircle
 10
-1894.801003482872
 20
-749.0493997146984
 30
0.0
 40
3.0
100
AcDbArc
 50
90.0
 51
180.0
  0
LINE
  5
434
330
1F
100
AcDbEntity
  8
0-7_金物
  6
Continuous
 62
     7
370
     9
100
AcDbLine
 10
-1879.201003482872
 20
-746.0493997146978
 30
0.0
 11
-1894.801003482872
 21
-746.0493997146978
 31
0.0
  0
ARC
  5
435
330
1F
100
AcDbEntity
  8
0-7_金物
  6
Continuous
 62
     7
370
     9
100
AcDbCircle
 10
-1879.201003482872
 20
-749.0493997146984
 30
0.0
 40
3.000000000000171
100
AcDbArc
 50
0.0000000000000127
 51
90.00000000000001
  0
LINE
  5
436
330
1F
100
AcDbEntity
  8
0-7_金物
  6
Continuous
 62
     7
370
     9
100
AcDbLine
 10
-1873.201003482872
 20
-740.0493997146976
 30
0.0
 11
-1900.801003482872
 21
-740.0493997146976
 31
0.0
  0
ARC
  5
437
330
1F
100
AcDbEntity
  8
0-7_金物
  6
Continuous
 62
     7
370
     9
100
AcDbCircle
 10
-1873.201003482872
 20
-743.0493997146971
 30
0.0
 40
3.0
100
AcDbArc
 50
0.0000000000000127
 51
90.00000000000001
  0
ARC
  5
438
330
1F
100
AcDbEntity
  8
0-7_金物
  6
Continuous
 62
     7
370
     9
100
AcDbCircle
 10
-1885.801003482872
 20
-762.8494398432861
 30
0.0
 40
2.999999999999829
100
AcDbArc
 50
0.0000000000000064
 51
180.0
  0
ARC
  5
439
330
1F
100
AcDbEntity
  8
0-7_金物
  6
Continuous
 62
     7
370
     9
100
AcDbCircle
 10
-1887.001003482872
 20
-767.0494398432835
 30
0.0
 40
1.800000000000153
100
AcDbArc
 50
180.0
 51
270.0000000000033
  0
LINE
  5
43A
330
1F
100
AcDbEntity
  8
0-7_金物
  6
Continuous
 62
     7
370
     9
100
AcDbLine
 10
-1876.201003482873
 20
-761.0494398432843
 30
0.0
 11
-1876.201003482873
 21
-749.0493997146984
 31
0.0
  0
LINE
  5
43B
330
1F
100
AcDbEntity
  8
0-7_金物
  6
Continuous
 62
     7
370
     9
100
AcDbLine
 10
-1878.001003482873
 20
-762.8494398432861
 30
0.0
 11
-1882.801003482873
 21
-762.8494398432861
 31
0.0
  0
ARC
  5
43C
330
1F
100
AcDbEntity
  8
0-7_金物
  6
Continuous
 62
     7
370
     9
100
AcDbCircle
 10
-1878.001003482873
 20
-761.0494398432843
 30
0.0
 40
1.800000000000069
100
AcDbArc
 50
270.0000000000081
 51
0.0000000000000127
  0
LINE
  5
43D
330
1F
100
AcDbEntity
  8
0-7_金物
  6
Continuous
 62
     7
370
     9
100
AcDbLine
 10
-1878.001003482873
 20
-768.849439843284
 30
0.0
 11
-1887.001003482872
 21
-768.849439843284
 31
0.0
  0
LINE
  5
43E
330
1F
100
AcDbEntity
  8
0-7_金物
  6
Continuous
 62
     7
370
     9
100
AcDbLine
 10
-1876.201003482873
 20
-851.0493997146978
 30
0.0
 11
-1876.201003482873
 21
-770.6494398432836
 31
0.0
  0
ARC
  5
43F
330
1F
100
AcDbEntity
  8
0-7_金物
  6
Continuous
 62
     7
370
     9
100
AcDbCircle
 10
-1878.001003482873
 20
-770.6494398432836
 30
0.0
 40
1.799999999999898
100
AcDbArc
 50
0.0000000000000127
 51
90.00000000000001
  0
LINE
  5
440
330
1F
100
AcDbEntity
  8
0-7_金物
  6
Continuous
 62
     7
370
     9
100
AcDbLine
 10
-1989.601574425256
 20
-651.8487728758579
 30
0.0
 11
-1987.801562447442
 21
-650.0487608980462
 31
0.0
  0
LINE
  5
441
330
1F
100
AcDbEntity
  8
0-7_金物
  6
Continuous
 62
     7
370
     9
100
AcDbLine
 10
-1987.801562447444
 20
-650.0487608980462
 30
0.0
 11
-1986.00155046963
 21
-651.8487728758579
 31
0.0
  0
LINE
  5
442
330
1F
100
AcDbEntity
  8
0-C_ハッチ
  6
Continuous
 62
   120
370
     5
100
AcDbLine
 10
-1865.262927354142
 20
-3258.849016002981
 30
0.0
 11
-1952.263516724874
 21
-3171.848426632246
 31
0.0
  0
LINE
  5
443
330
1F
100
AcDbEntity
  8
0-C_ハッチ
  6
Continuous
 62
   120
370
     5
100
AcDbLine
 10
-1610.704486126971
 20
-3258.849016002968
 30
0.0
 11
-1697.705075497696
 21
-3171.848426632234
 31
0.0
  0
LINE
  5
444
330
1F
100
AcDbEntity
  8
0-C_ハッチ
  6
Continuous
 62
   120
370
     5
100
AcDbLine
 10
-1568.278079255783
 20
-3258.849016002968
 30
0.0
 11
-1655.278668626507
 21
-3171.848426632234
 31
0.0
  0
LINE
  5
445
330
1F
100
AcDbEntity
  8
0-C_ハッチ
  6
Continuous
 62
   120
370
     5
100
AcDbLine
 10
-2077.394961710089
 20
-3258.849016002981
 30
0.0
 11
-2164.395551080825
 21
-3171.848426632241
 31
0.0
  0
LINE
  5
446
330
1F
100
AcDbEntity
  8
0-C_ハッチ
  6
Continuous
 62
   120
370
     5
100
AcDbLine
 10
-2119.821368581287
 20
-3258.849016002981
 30
0.0
 11
-2206.82195795202
 21
-3171.848426632241
 31
0.0
  0
LINE
  5
447
330
1F
100
AcDbEntity
  8
0-C_ハッチ
  6
Continuous
 62
   120
370
     5
100
AcDbLine
 10
-1537.801562447448
 20
-3204.472719068918
 30
0.0
 11
-1570.425854884125
 21
-3171.848426632234
 31
0.0
  0
LINE
  5
448
330
1F
100
AcDbEntity
  8
0-C_ハッチ
  6
Continuous
 62
   120
370
     5
100
AcDbLine
 10
-1537.801562447448
 20
-3246.899125940108
 30
0.0
 11
-1612.852261755315
 21
-3171.848426632234
 31
0.0
  0
LINE
  5
449
330
1F
100
AcDbEntity
  8
0-C_ハッチ
  6
Continuous
 62
   120
370
     5
100
AcDbLine
 10
-2204.674182323679
 20
-3258.849016002981
 30
0.0
 11
-2209.801562447451
 21
-3253.72163587921
 31
0.0
  0
LINE
  5
44A
330
1F
100
AcDbEntity
  8
0-C_ハッチ
  6
Continuous
 62
   120
370
     5
100
AcDbLine
 10
-2162.247775452484
 20
-3258.849016002981
 30
0.0
 11
-2209.801562447451
 21
-3211.29522900801
 31
0.0
  0
LINE
  5
44B
330
1F
100
AcDbEntity
  8
0-C_ハッチ
  6
Continuous
 62
   120
370
     5
100
AcDbLine
 10
-2034.968554838889
 20
-3258.849016002974
 30
0.0
 11
-2121.969144209628
 21
-3171.848426632241
 31
0.0
  0
LINE
  5
44C
330
1F
100
AcDbEntity
  8
0-C_ハッチ
  6
Continuous
 62
   120
370
     5
100
AcDbLine
 10
-1992.542147967697
 20
-3258.849016002968
 30
0.0
 11
-2079.542737338427
 21
-3171.848426632243
 31
0.0
  0
LINE
  5
44D
330
1F
100
AcDbEntity
  8
0-C_ハッチ
  6
Continuous
 62
   120
370
     5
100
AcDbLine
 10
-2014.801562447449
 20
-3194.16319465202
 30
0.0
 11
-2037.116330467227
 21
-3171.848426632241
 31
0.0
  0
LINE
  5
44E
330
1F
100
AcDbEntity
  8
0-C_ハッチ
  6
Continuous
 62
   120
370
     5
100
AcDbLine
 10
-1950.115741096501
 20
-3258.849016002967
 30
0.0
 11
-2004.116044364928
 21
-3204.848712734538
 31
0.0
  0
LINE
  5
44F
330
1F
100
AcDbEntity
  8
0-C_ハッチ
  6
Continuous
 62
   120
370
     5
100
AcDbLine
 10
-1907.689334225355
 20
-3258.849016002967
 30
0.0
 11
-1961.689637493782
 21
-3204.848712734538
 31
0.0
  0
LINE
  5
450
330
1F
100
AcDbEntity
  8
0-C_ハッチ
  6
Continuous
 62
   120
370
     5
100
AcDbLine
 10
-1822.836520482943
 20
-3258.849016002975
 30
0.0
 11
-1909.837109853674
 21
-3171.848426632246
 31
0.0
  0
LINE
  5
451
330
1F
100
AcDbEntity
  8
0-C_ハッチ
  6
Continuous
 62
   120
370
     5
100
AcDbLine
 10
-1780.410113611743
 20
-3258.849016002975
 30
0.0
 11
-1867.410702982483
 21
-3171.848426632244
 31
0.0
  0
LINE
  5
452
330
1F
100
AcDbEntity
  8
0-4_枠
  6
Continuous
 62
    92
370
    13
100
AcDbLine
 10
-2209.801562447449
 20
-3258.848918996602
 30
0.0
 11
-2209.801562447449
 21
-3171.848123632219
 31
0.0
  0
LINE
  5
453
330
1F
100
AcDbEntity
  8
0-4_枠
  6
Continuous
 62
    92
370
    13
100
AcDbLine
 10
-2208.55892176033
 20
-3168.848409734515
 30
0.0
 11
-2212.801562447448
 21
-3173.091050421634
 31
0.0
  0
LINE
  5
454
330
1F
100
AcDbEntity
  8
0-4_枠
  6
Continuous
 62
    92
370
    13
100
AcDbLine
 10
-1534.801562447449
 20
-3173.091050421634
 30
0.0
 11
-1539.044203134568
 21
-3168.848409734515
 31
0.0
  0
LINE
  5
455
330
1F
100
AcDbEntity
  8
0-4_枠
  6
Continuous
 62
    92
370
    13
100
AcDbLine
 10
-1537.801562447448
 20
-3258.848918996602
 30
0.0
 11
-1537.801562447448
 21
-3171.848123632219
 31
0.0
  0
LINE
  5
456
330
1F
100
AcDbEntity
  8
0-4_枠
  6
Continuous
 62
    92
370
    13
100
AcDbLine
 10
-1534.801562447449
 20
-3258.848713002946
 30
0.0
 11
-2212.801562447448
 21
-3258.848713002946
 31
0.0
  0
LINE
  5
457
330
1F
100
AcDbEntity
  8
0-4_枠
  6
Continuous
 62
    92
370
    13
100
AcDbLine
 10
-2209.801562447449
 20
-3171.848123632219
 30
0.0
 11
-2014.201562447448
 21
-3171.848123632219
 31
0.0
  0
LINE
  5
458
330
1F
100
AcDbEntity
  8
0-4_枠
  6
Continuous
 62
    92
370
    13
100
AcDbLine
 10
-2208.55892176033
 20
-3168.848409734515
 30
0.0
 11
-2014.201562447448
 21
-3168.848409734515
 31
0.0
  0
LINE
  5
459
330
1F
100
AcDbEntity
  8
0-4_枠
  6
Continuous
 62
    92
370
    13
100
AcDbLine
 10
-2014.201562447448
 20
-3168.848409734515
 30
0.0
 11
-2014.201562447448
 21
-3204.848409734516
 31
0.0
  0
LINE
  5
45A
330
1F
100
AcDbEntity
  8
0-4_枠
  6
Continuous
 62
    92
370
    13
100
AcDbLine
 10
-2014.201562447448
 20
-3204.848409734516
 30
0.0
 11
-1961.401562447448
 21
-3204.848409734516
 31
0.0
  0
LINE
  5
45B
330
1F
100
AcDbEntity
  8
0-4_枠
  6
Continuous
 62
    92
370
    13
100
AcDbLine
 10
-1961.401562447448
 20
-3168.848409734515
 30
0.0
 11
-1961.401562447448
 21
-3204.848409734516
 31
0.0
  0
LINE
  5
45C
330
1F
100
AcDbEntity
  8
0-C_ハッチ
  6
Continuous
 62
   120
370
     5
100
AcDbLine
 10
-1737.983706740552
 20
-3258.849016002974
 30
0.0
 11
-1824.984296111274
 21
-3171.848426632241
 31
0.0
  0
LINE
  5
45D
330
1F
100
AcDbEntity
  8
0-4_枠
  6
Continuous
 62
    92
370
    13
100
AcDbLine
 10
-1539.044203134568
 20
-3168.848409734515
 30
0.0
 11
-1961.401562447448
 21
-3168.848409734515
 31
0.0
  0
LINE
  5
45E
330
1F
100
AcDbEntity
  8
0-4_枠
  6
Continuous
 62
    92
370
    13
100
AcDbLine
 10
-1537.801562447448
 20
-3171.848123632219
 30
0.0
 11
-1961.401562447448
 21
-3171.848123632219
 31
0.0
  0
LINE
  5
45F
330
1F
100
AcDbEntity
  8
0-C_ハッチ
  6
Continuous
 62
   120
370
     5
100
AcDbLine
 10
-1653.130892998157
 20
-3258.849016002968
 30
0.0
 11
-1740.131785368901
 21
-3171.848123632219
 31
0.0
  0
LINE
  5
460
330
1F
100
AcDbEntity
  8
0-C_ハッチ
  6
Continuous
 62
   120
370
     5
100
AcDbLine
 10
-1695.557299869347
 20
-3258.849016002968
 30
0.0
 11
-1782.558192240102
 21
-3171.848123632219
 31
0.0
  0
LINE
  5
461
330
1F
100
AcDbEntity
  8
0-A_文字
  6
Continuous
 62
     7
370
     9
100
AcDbLine
 10
-2926.801562447446
 20
-1824.848713002948
 30
0.0
 11
-2926.801562447446
 21
-2064.848713002949
 31
0.0
  0
LINE
  5
462
330
1F
100
AcDbEntity
  8
0-A_文字
  6
Continuous
 62
     7
370
     9
100
AcDbLine
 10
-2326.801562447446
 20
-2064.848713002949
 30
0.0
 11
-2326.801562447446
 21
-1824.848713002948
 31
0.0
  0
LINE
  5
463
330
1F
100
AcDbEntity
  8
0-A_文字
  6
Continuous
 62
     7
370
     9
100
AcDbLine
 10
-2926.801562447446
 20
-2064.848713002949
 30
0.0
 11
-2326.801562447446
 21
-2064.848713002949
 31
0.0
  0
LINE
  5
464
330
1F
100
AcDbEntity
  8
0-A_文字
  6
Continuous
 62
     7
370
     9
100
AcDbLine
 10
-2326.801562447446
 20
-1824.848713002948
 30
0.0
 11
-2926.801562447446
 21
-1824.848713002948
 31
0.0
  0
LINE
  5
465
330
1F
100
AcDbEntity
  8
0-0_補助線
  6
JWW_HOJO
 62
   120
370
     5
100
AcDbLine
 10
-1408.801562447447
 20
-2016.848713271381
 30
0.0
 11
-2338.801562447447
 21
-2016.848713271381
 31
0.0
  0
LINE
  5
466
330
1F
100
AcDbEntity
  8
0-0_補助線
  6
JWW_HOJO
 62
   120
370
     5
100
AcDbLine
 10
-1408.801562447447
 20
-1896.848713271381
 30
0.0
 11
-2338.801562447447
 21
-1896.848713271381
 31
0.0
  0
LINE
  5
467
330
1F
100
AcDbEntity
  8
0-4_枠
  6
Continuous
 62
    92
370
    13
100
AcDbLine
 10
-2212.801562447447
 20
-3173.091050421634
 30
0.0
 11
-2212.801562447447
 21
-3258.848713002946
 31
0.0
  0
LINE
  5
468
330
1F
100
AcDbEntity
  8
0-3_仕上げ
  6
Continuous
 62
    40
370
    15
100
AcDbLine
 10
-2212.801608223812
 20
-3258.848713271378
 30
0.0
 11
-2212.801608223812
 21
-3186.848713271378
 31
0.0
  0
LINE
  5
469
330
1F
100
AcDbEntity
  8
0-3_仕上げ
  6
Continuous
 62
    40
370
    15
100
AcDbLine
 10
-2212.801562447448
 20
-3258.848713373462
 30
0.0
 11
-2212.801562447447
 21
-3186.848713002945
 31
0.0
  0
MTEXT
  5
46A
330
1F
100
AcDbEntity
  8
0-A_文字
  6
Continuous
 62
     7
370
     0
100
AcDbMText
 10
-2597.318956119965
 20
-3147.23932427551
 30
0.0
 40
91.44
 41
240.0
 46
0.0
 71
     7
 72
     1
  1
{\fＭＳ ゴシック|b0|i0|c128|p49;畳寄}
 73
     1
 44
1.0
  0
LINE
  5
46B
330
1F
100
AcDbEntity
  8
0-4_枠
  6
Continuous
 62
    92
370
    13
100
AcDbLine
 10
-2212.801562447448
 20
-3173.091050421634
 30
0.0
 11
-2212.801562447448
 21
-3258.848713002946
 31
0.0
  0
LINE
  5
46C
330
1F
100
AcDbEntity
  8
0-A_文字
  6
Continuous
 62
     7
370
     9
100
AcDbLine
 10
-2366.879588953443
 20
-3072.95932427551
 30
0.0
 11
-2327.318956119965
 21
-3072.95932427551
 31
0.0
  0
LINE
  5
46D
330
1F
100
AcDbEntity
  8
0-A_文字
  6
Continuous
 62
     7
370
     9
100
AcDbLine
 10
-2267.540818441576
 20
-3215.289102499413
 30
0.0
 11
-2327.318956119965
 21
-3072.95932427551
 31
0.0
  0
LINE
  5
46E
330
1F
100
AcDbEntity
  8
0-3_仕上げ
  6
Continuous
 62
    40
370
    15
100
AcDbLine
 10
-2302.801562447454
 20
-3258.849016271396
 30
0.0
 11
-2302.801562447456
 21
-3186.84891926503
 31
0.0
  0
LINE
  5
46F
330
1F
100
AcDbEntity
  8
0-3_仕上げ
  6
Continuous
 62
    40
370
    15
100
AcDbLine
 10
-2212.801562447454
 20
-3258.849016271396
 30
0.0
 11
-2212.801562447454
 21
-3186.84891926503
 31
0.0
  0
LINE
  5
470
330
1F
100
AcDbEntity
  8
0-3_仕上げ
  6
Continuous
 62
    40
370
    15
100
AcDbLine
 10
-2212.801562447454
 20
-3186.849016271395
 30
0.0
 11
-2302.801562447454
 21
-3186.849016271395
 31
0.0
  0
LINE
  5
471
330
1F
100
AcDbEntity
  8
0-3_仕上げ
  6
Continuous
 62
    40
370
    15
100
AcDbLine
 10
-2302.801562447454
 20
-3258.849016271396
 30
0.0
 11
-2212.801562447454
 21
-3258.849016271396
 31
0.0
  0
LINE
  5
472
330
1F
100
AcDbEntity
  8
0-C_ハッチ
  6
Continuous
 62
   120
370
     5
100
AcDbLine
 10
-2231.506886248212
 20
-3258.849016271404
 30
0.0
 11
-2212.80156244745
 21
-3240.143692470641
 31
0.0
  0
LINE
  5
473
330
1F
100
AcDbEntity
  8
0-C_ハッチ
  6
Continuous
 62
   120
370
     5
100
AcDbLine
 10
-2290.903855867845
 20
-3258.849016271391
 30
0.0
 11
-2218.903855867853
 21
-3186.849016271398
 31
0.0
  0
LINE
  5
474
330
1F
100
AcDbEntity
  8
0-C_ハッチ
  6
Continuous
 62
   120
370
     5
100
AcDbLine
 10
-2302.80156244745
 20
-3211.349753231294
 30
0.0
 11
-2278.300825487544
 21
-3186.849016271388
 31
0.0
  0
MTEXT
  5
475
330
1F
100
AcDbEntity
  8
0-A_文字
  6
Continuous
 62
     7
370
     9
100
AcDbMText
 10
-2866.801562447453
 20
-2019.128713002949
 30
0.0
 40
91.44
 41
480.0
 46
0.0
 71
     7
 72
     1
  1
{\fＭＳ ゴシック|b0|i0|c128|p49;和室側・}
 73
     1
 44
1.0
  0
LINE
  5
476
330
1F
100
AcDbEntity
  8
0-4_枠
  6
Continuous
 62
    92
370
    13
100
AcDbLine
 10
-1534.801562447449
 20
-3173.091050421634
 30
0.0
 11
-1534.801562447449
 21
-3258.848918996602
 31
0.0
  0
LINE
  5
477
330
1F
100
AcDbEntity
  8
0-A_文字
  6
Continuous
 62
     7
370
     9
100
AcDbLine
 10
-1416.301563000806
 20
-1824.848713002948
 30
0.0
 11
-1416.301563000806
 21
-2064.848713002949
 31
0.0
  0
LINE
  5
478
330
1F
100
AcDbEntity
  8
0-A_文字
  6
Continuous
 62
     7
370
     9
100
AcDbLine
 10
-816.3015630008061
 20
-2064.848713002949
 30
0.0
 11
-816.3015630008061
 21
-1824.848713002948
 31
0.0
  0
LINE
  5
479
330
1F
100
AcDbEntity
  8
0-A_文字
  6
Continuous
 62
     7
370
     9
100
AcDbLine
 10
-1416.301563000806
 20
-2064.848713002949
 30
0.0
 11
-816.3015630008061
 21
-2064.848713002949
 31
0.0
  0
LINE
  5
47A
330
1F
100
AcDbEntity
  8
0-A_文字
  6
Continuous
 62
     7
370
     9
100
AcDbLine
 10
-816.3015630008061
 20
-1824.848713002948
 30
0.0
 11
-1416.301563000806
 21
-1824.848713002948
 31
0.0
  0
MTEXT
  5
47B
330
1F
100
AcDbEntity
  8
0-A_文字
  6
Continuous
 62
     7
370
     9
100
AcDbMText
 10
-1356.301563000806
 20
-2019.128713002949
 30
0.0
 40
91.44
 41
480.0
 46
0.0
 71
     7
 72
     1
  1
{\fＭＳ ゴシック|b0|i0|c128|p49;洋室側・}
 73
     1
 44
1.0
  0
LINE
  5
47C
330
1F
100
AcDbEntity
  8
0-6_扉
  6
Continuous
 62
   200
370
    20
100
AcDbLine
 10
-1897.801561894086
 20
-2016.848713271381
 30
0.0
 11
-1897.801561894086
 21
-3138.849313271379
 31
0.0
  0
LINE
  5
47D
330
1F
100
AcDbEntity
  8
0-B_寸法
  6
Continuous
 62
   120
370
     5
100
AcDbLine
 10
-1534.80156244745
 20
-3498.848713271378
 30
0.0
 11
-2212.80156244745
 21
-3498.848713271378
 31
0.0
  0
LWPOLYLINE
  5
47E
330
1F
100
AcDbEntity
  8
0-B_寸法
  6
Continuous
 62
     7
370
     9
100
AcDbPolyline
 90
        4
 70
     1
 43
3.0
 10
-1533.30156244745
 20
-3498.848713271378
 42
0.4142135623731
 10
-1534.80156244745
 20
-3497.348713271378
 42
0.4142135623731
 10
-1536.301562447449
 20
-3498.848713271378
 42
0.4142135623731
 10
-1534.80156244745
 20
-3500.348713271378
 42
0.4142135623731
  0
LWPOLYLINE
  5
47F
330
1F
100
AcDbEntity
  8
0-B_寸法
  6
Continuous
 62
     7
370
     9
100
AcDbPolyline
 90
        4
 70
     1
 43
3.0
 10
-2211.301562447451
 20
-3498.848713271378
 42
0.4142135623731
 10
-2212.80156244745
 20
-3497.348713271378
 42
0.4142135623731
 10
-2214.30156244745
 20
-3498.848713271378
 42
0.4142135623731
 10
-2212.80156244745
 20
-3500.348713271378
 42
0.4142135623731
  0
LINE
  5
480
330
1F
100
AcDbEntity
  8
0-B_寸法
  6
Continuous
 62
   120
370
     5
100
AcDbLine
 10
-1534.80156244745
 20
-3498.848713271378
 30
0.0
 11
-1534.80156244745
 21
-3318.848713271378
 31
0.0
  0
LINE
  5
481
330
1F
100
AcDbEntity
  8
0-B_寸法
  6
Continuous
 62
   120
370
     5
100
AcDbLine
 10
-2212.80156244745
 20
-3498.848713271378
 30
0.0
 11
-2212.80156244745
 21
-3318.848713271378
 31
0.0
  0
MTEXT
  5
482
330
1F
100
AcDbEntity
  8
0-B_寸法
  6
Continuous
 62
     7
370
   211
100
AcDbMText
 10
-1971.30156244745
 20
-3494.318713271378
 30
0.0
 40
99.06
 41
195.0
 46
0.0
 71
     7
 72
     1
  1
{\fＭＳ ゴシック|b0|i0|c128|p49;113}
 73
     1
 44
1.0
  0
LINE
  5
483
330
1F
100
AcDbEntity
  8
0-A_文字
  6
Continuous
 62
     7
370
     9
100
AcDbLine
 10
-839.1886664478556
 20
-3133.967215338788
 30
0.0
 11
-869.1886664478556
 21
-3185.928739565853
 31
0.0
  0
LINE
  5
484
330
1F
100
AcDbEntity
  8
0-A_文字
  6
Continuous
 62
     7
370
     9
100
AcDbLine
 10
-839.1886664478556
 20
-3133.967215338788
 30
0.0
 11
-899.1886664478556
 21
-3133.967215338788
 31
0.0
  0
LINE
  5
485
330
1F
100
AcDbEntity
  8
0-A_文字
  6
Continuous
 62
     7
370
     9
100
AcDbLine
 10
-899.1886664478556
 20
-3133.967215338788
 30
0.0
 11
-869.1886664478568
 21
-3185.928739565853
 31
0.0
  0
LINE
  5
486
330
1F
100
AcDbEntity
  8
0-3_仕上げ
  6
Continuous
 62
    40
370
    15
100
AcDbLine
 10
-805.8015624474455
 20
-3258.848713271374
 30
0.0
 11
-1534.801516671084
 21
-3258.848713271378
 31
0.0
  0
LINE
  5
487
330
1F
100
AcDbEntity
  8
0-3_仕上げ
  6
Continuous
 62
    40
370
    15
100
AcDbLine
 10
-805.8015624474455
 20
-3186.848713271374
 30
0.0
 11
-1534.801516671084
 21
-3186.848713271378
 31
0.0
  0
LINE
  5
488
330
1F
100
AcDbEntity
  8
0-3_仕上げ
  6
Continuous
 62
     7
370
     9
100
AcDbLine
 10
-805.8015624474455
 20
-3195.848713271372
 30
0.0
 11
-1534.801516671084
 21
-3195.848713271376
 31
0.0
  0
LINE
  5
489
330
1F
100
AcDbEntity
  8
0-3_仕上げ
  6
Continuous
 62
     7
370
     9
100
AcDbLine
 10
-805.8015624474455
 20
-3249.848713271374
 30
0.0
 11
-1534.801516671084
 21
-3249.848713271378
 31
0.0
  0
LINE
  5
48A
330
1F
100
AcDbEntity
  8
0-3_仕上げ
  6
Continuous
 62
     7
370
     9
100
AcDbLine
 10
-805.8015624474455
 20
-3204.848713271374
 30
0.0
 11
-1534.801516671084
 21
-3204.848713271378
 31
0.0
  0
LINE
  5
48B
330
1F
100
AcDbEntity
  8
0-3_仕上げ
  6
Continuous
 62
     7
370
     9
100
AcDbLine
 10
-805.8015624474455
 20
-3213.848713271372
 30
0.0
 11
-1534.801516671084
 21
-3213.848713271376
 31
0.0
  0
LINE
  5
48C
330
1F
100
AcDbEntity
  8
0-3_仕上げ
  6
Continuous
 62
     7
370
     9
100
AcDbLine
 10
-805.8015624474455
 20
-3222.848713271373
 30
0.0
 11
-1534.801516671084
 21
-3222.848713271378
 31
0.0
  0
LINE
  5
48D
330
1F
100
AcDbEntity
  8
0-3_仕上げ
  6
Continuous
 62
     7
370
     9
100
AcDbLine
 10
-805.8015624474455
 20
-3231.848713271372
 30
0.0
 11
-1534.801516671084
 21
-3231.848713271376
 31
0.0
  0
LINE
  5
48E
330
1F
100
AcDbEntity
  8
0-3_仕上げ
  6
Continuous
 62
     7
370
     9
100
AcDbLine
 10
-805.8015624474455
 20
-3240.848713271372
 30
0.0
 11
-1534.801516671084
 21
-3240.848713271376
 31
0.0
  0
MTEXT
  5
48F
330
1F
100
AcDbEntity
  8
0-A_文字
  6
Continuous
 62
     7
370
     0
100
AcDbMText
 10
1087.418562624859
 20
-675.1287132713743
 30
0.0
 40
91.43999999999998
 41
1200.0
 46
0.0
 71
     7
 72
     1
  1
{\fＭＳ ゴシック|b0|i0|c128|p49;フロアー貼り込み位置}
 73
     1
 44
1.0
  0
LINE
  5
490
330
1F
100
AcDbEntity
  8
1-B_寸法
  6
Continuous
 62
   120
370
     5
100
AcDbLine
 10
792.3484420269
 20
-3162.56966842135
 30
0.0
 11
792.3484420269
 21
-2937.56891025027
 31
0.0
  0
LWPOLYLINE
  5
491
330
1F
100
AcDbEntity
  8
1-B_寸法
  6
Continuous
 62
     7
370
     9
100
AcDbPolyline
 90
        4
 70
     1
 43
3.0
 10
793.8484420269
 20
-3162.56966842135
 42
0.4142135623731
 10
792.3484420269
 20
-3161.06966842135
 42
0.4142135623731
 10
790.8484420269
 20
-3162.56966842135
 42
0.4142135623731
 10
792.3484420269
 20
-3164.06966842135
 42
0.4142135623731
  0
LWPOLYLINE
  5
492
330
1F
100
AcDbEntity
  8
1-B_寸法
  6
Continuous
 62
     7
370
     9
100
AcDbPolyline
 90
        4
 70
     1
 43
3.0
 10
793.8484420269
 20
-2937.56891025027
 42
0.4142135623731
 10
792.3484420269
 20
-2936.06891025027
 42
0.4142135623731
 10
790.8484420269
 20
-2937.56891025027
 42
0.4142135623731
 10
792.3484420269
 20
-2939.06891025027
 42
0.4142135623731
  0
LINE
  5
493
330
1F
100
AcDbEntity
  8
1-B_寸法
  6
Continuous
 62
   120
370
     5
100
AcDbLine
 10
792.3484420269
 20
-3162.56966842135
 30
0.0
 11
894.9887261396731
 21
-3162.56966842135
 31
0.0
  0
LINE
  5
494
330
1F
100
AcDbEntity
  8
1-B_寸法
  6
Continuous
 62
   120
370
     5
100
AcDbLine
 10
792.3484420269
 20
-2937.56891025027
 30
0.0
 11
894.9887261396731
 21
-2937.56891025027
 31
0.0
  0
MTEXT
  5
495
330
1F
100
AcDbEntity
  8
1-B_寸法
  6
Continuous
 62
     7
370
   211
100
AcDbMText
 10
777.3484420269
 20
-3125.24178933581
 30
0.0
 40
97.15499999999999
 41
127.5
 46
0.0
 71
     7
 72
     1
  1
{\fＭＳ ゴシック|b0|i0|c128|p49;15}
 11
6.123031769111886E-17
 21
1.0
 31
0.0
 73
     1
 44
1.0
  0
MTEXT
  5
496
330
1F
100
AcDbEntity
  8
0-A_文字
  6
Continuous
 62
     7
370
     0
100
AcDbMText
 10
1199.918584083287
 20
-2394.226599031168
 30
0.0
 40
91.44
 41
1080.0
 46
0.0
 71
     7
 72
     1
  1
{\fＭＳ ゴシック|b0|i0|c128|p49;敷居詳細図 (S=1/2)}
 73
     1
 44
1.0
  0
LINE
  5
497
330
1F
100
AcDbEntity
  8
0-A_文字
  6
Continuous
 62
    92
370
    13
100
AcDbLine
 10
2909.918584083287
 20
-510.8487132713743
 30
0.0
 11
2909.918584083287
 21
-3378.848919265027
 31
0.0
  0
LINE
  5
498
330
1F
100
AcDbEntity
  8
0-A_文字
  6
Continuous
 62
    92
370
    13
100
AcDbLine
 10
2909.918584083287
 20
-3378.848919265027
 30
0.0
 11
509.9185840832865
 21
-3378.848919265027
 31
0.0
  0
LINE
  5
499
330
1F
100
AcDbEntity
  8
0-A_文字
  6
Continuous
 62
    92
370
    13
100
AcDbLine
 10
509.9185840832865
 20
-3378.848919265027
 30
0.0
 11
509.9185840832865
 21
-510.8487132713743
 31
0.0
  0
LINE
  5
49A
330
1F
100
AcDbEntity
  8
0-A_文字
  6
Continuous
 62
    92
370
    13
100
AcDbLine
 10
2909.918584083287
 20
-2410.002927911375
 30
0.0
 11
509.9185840832865
 21
-2410.002927911375
 31
0.0
  0
LINE
  5
49B
330
1F
100
AcDbEntity
  8
0-A_文字
  6
Continuous
 62
    92
370
    13
100
AcDbLine
 10
2909.918584083287
 20
-510.8487132713743
 30
0.0
 11
509.9185840832865
 21
-510.8487132713743
 31
0.0
  0
LINE
  5
49C
330
1F
100
AcDbEntity
  8
0-A_文字
  6
Continuous
 62
    92
370
    13
100
AcDbLine
 10
2909.918584083287
 20
-690.8487132713743
 30
0.0
 11
509.9185840832865
 21
-690.8487132713743
 31
0.0
  0
LINE
  5
49D
330
1F
100
AcDbEntity
  8
0-A_文字
  6
Continuous
 62
    92
370
    13
100
AcDbLine
 10
2909.918584083287
 20
-2230.002927911375
 30
0.0
 11
509.9185840832865
 21
-2230.002927911375
 31
0.0
  0
LINE
  5
49E
330
1F
100
AcDbEntity
  8
1-B_寸法
  6
Continuous
 62
   120
370
     5
100
AcDbLine
 10
1502.488726139675
 20
-2787.568395937212
 30
0.0
 11
1502.488726139675
 21
-2892.568395937212
 31
0.0
  0
LWPOLYLINE
  5
49F
330
1F
100
AcDbEntity
  8
1-B_寸法
  6
Continuous
 62
     7
370
     9
100
AcDbPolyline
 90
        4
 70
     1
 43
3.0
 10
1503.988726139675
 20
-2787.568395937212
 42
0.4142135623731
 10
1502.488726139675
 20
-2786.068395937212
 42
0.4142135623731
 10
1500.988726139675
 20
-2787.568395937212
 42
0.4142135623731
 10
1502.488726139675
 20
-2789.068395937212
 42
0.4142135623731
  0
LINE
  5
4A0
330
1F
100
AcDbEntity
  8
1-B_寸法
  6
Continuous
 62
   120
370
     5
100
AcDbLine
 10
2634.988726139673
 20
-2622.568395937212
 30
0.0
 11
2634.988726139673
 21
-2892.568395937212
 31
0.0
  0
LINE
  5
4A1
330
1F
100
AcDbEntity
  8
1-B_寸法
  6
Continuous
 62
   120
370
     5
100
AcDbLine
 10
939.9887261396731
 20
-2787.568395937212
 30
0.0
 11
1502.488726139675
 21
-2787.568395937212
 31
0.0
  0
LWPOLYLINE
  5
4A2
330
1F
100
AcDbEntity
  8
1-B_寸法
  6
Continuous
 62
     7
370
     9
100
AcDbPolyline
 90
        4
 70
     1
 43
3.0
 10
2636.488726139673
 20
-2622.568395937212
 42
0.4142135623731
 10
2634.988726139673
 20
-2621.068395937212
 42
0.4142135623731
 10
2633.488726139673
 20
-2622.568395937212
 42
0.4142135623731
 10
2634.988726139673
 20
-2624.068395937212
 42
0.4142135623731
  0
ARC
  5
4A3
330
1F
100
AcDbEntity
  8
1-7_金物
  6
Continuous
 62
     7
370
     9
100
AcDbCircle
 10
1443.132224756283
 20
-2945.071168421352
 30
0.0
 40
7.500000000000213
100
AcDbArc
 50
44.99999999999995
 51
89.99999999999996
  0
ARC
  5
4A4
330
1F
100
AcDbEntity
  8
1-7_金物
  6
Continuous
 62
     7
370
     9
100
AcDbCircle
 10
1470.603224756283
 20
-2955.571168421356
 30
0.0
 40
4.500000000000128
100
AcDbArc
 50
224.9999999999999
 51
269.9999999999999
  0
ARC
  5
4A5
330
1F
100
AcDbEntity
  8
1-7_金物
  6
Continuous
 62
     7
370
     9
100
AcDbCircle
 10
1475.488724756283
 20
-2963.071168421352
 30
0.0
 40
3.000000000000086
100
AcDbArc
 50
359.9999999999999
 51
89.99999999999997
  0
ARC
  5
4A6
330
1F
100
AcDbEntity
  8
1-7_金物
  6
Continuous
 62
     7
370
     9
100
AcDbCircle
 10
1529.488724756285
 20
-2963.071168421352
 30
0.0
 40
3.000000000000086
100
AcDbArc
 50
89.99999999999997
 51
180.0
  0
ARC
  5
4A7
330
1F
100
AcDbEntity
  8
1-7_金物
  6
Continuous
 62
     7
370
     9
100
AcDbCircle
 10
1561.845224756285
 20
-2945.071168421352
 30
0.0
 40
7.500000000000213
100
AcDbArc
 50
89.99999999999996
 51
135.0
  0
ARC
  5
4A8
330
1F
100
AcDbEntity
  8
1-7_金物
  6
Continuous
 62
     7
370
     9
100
AcDbCircle
 10
1534.374224756283
 20
-2955.571168421356
 30
0.0
 40
4.500000000000128
100
AcDbArc
 50
270.0
 51
315.0
  0
ARC
  5
4A9
330
1F
100
AcDbEntity
  8
1-7_金物
  6
Continuous
 62
     7
370
     9
100
AcDbCircle
 10
1440.988724756284
 20
-3008.069668421354
 30
0.0
 40
3.000000000000086
100
AcDbArc
 50
89.99999999999987
 51
201.6159999999999
  0
ARC
  5
4AA
330
1F
100
AcDbEntity
  8
1-7_金物
  6
Continuous
 62
     7
370
     9
100
AcDbCircle
 10
1482.988724756285
 20
-3000.569668421353
 30
0.0
 40
4.500000000000128
100
AcDbArc
 50
179.9999999999999
 51
269.9999999999999
  0
ARC
  5
4AB
330
1F
100
AcDbEntity
  8
1-7_金物
  6
Continuous
 62
     7
370
     9
100
AcDbCircle
 10
1521.988724756283
 20
-3000.569668421353
 30
0.0
 40
4.500000000000128
100
AcDbArc
 50
269.9999999999999
 51
359.9999999999999
  0
ARC
  5
4AC
330
1F
100
AcDbEntity
  8
1-7_金物
  6
Continuous
 62
     7
370
     9
100
AcDbCircle
 10
1563.988724756282
 20
-3008.069668421354
 30
0.0
 40
3.000000000000086
100
AcDbArc
 50
338.384
 51
89.99999999999997
  0
ARC
  5
4AD
330
1F
100
AcDbEntity
  8
1-7_金物
  6
Continuous
 62
     7
370
     9
100
AcDbCircle
 10
1404.990224756284
 20
-2986.111168421355
 30
0.0
 40
45.00000000000129
100
AcDbArc
 50
0.0
 51
48.18999999999998
  0
ARC
  5
4AE
330
1F
100
AcDbEntity
  8
1-7_金物
  6
Continuous
 62
     7
370
     9
100
AcDbCircle
 10
1599.988724756281
 20
-2986.111168421355
 30
0.0
 40
45.00000000000129
100
AcDbArc
 50
131.81
 51
180.0
  0
LINE
  5
4AF
330
1F
100
AcDbEntity
  8
1-7_金物
  6
Continuous
 62
     7
370
     9
100
AcDbLine
 10
1434.988724756286
 20
-2937.571168421355
 30
0.0
 11
1443.132224756283
 21
-2937.571168421355
 31
0.0
  0
LINE
  5
4B0
330
1F
100
AcDbEntity
  8
1-7_金物
  6
Continuous
 62
     7
370
     9
100
AcDbLine
 10
1434.988724756286
 20
-2952.571168421353
 30
0.0
 11
1434.988724756286
 21
-2937.571168421355
 31
0.0
  0
LINE
  5
4B1
330
1F
100
AcDbEntity
  8
1-7_金物
  6
Continuous
 62
     7
370
     9
100
AcDbLine
 10
1470.603224756283
 20
-2960.071168421352
 30
0.0
 11
1475.488724756283
 21
-2960.071168421352
 31
0.0
  0
LINE
  5
4B2
330
1F
100
AcDbEntity
  8
1-7_金物
  6
Continuous
 62
     7
370
     9
100
AcDbLine
 10
1467.42172475628
 20
-2958.752668421355
 30
0.0
 11
1448.436224756286
 21
-2939.767168421353
 31
0.0
  0
LINE
  5
4B3
330
1F
100
AcDbEntity
  8
1-7_金物
  6
Continuous
 62
     7
370
     9
100
AcDbLine
 10
1534.374224756283
 20
-2960.071168421352
 30
0.0
 11
1529.488724756285
 21
-2960.071168421352
 31
0.0
  0
LINE
  5
4B4
330
1F
100
AcDbEntity
  8
1-7_金物
  6
Continuous
 62
     7
370
     9
100
AcDbLine
 10
1537.557224756284
 20
-2958.752668421355
 30
0.0
 11
1556.541224756281
 21
-2939.767168421353
 31
0.0
  0
LINE
  5
4B5
330
1F
100
AcDbEntity
  8
1-7_金物
  6
Continuous
 62
     7
370
     9
100
AcDbLine
 10
1449.988724756281
 20
-3005.069668421352
 30
0.0
 11
1440.988724756284
 21
-3005.069668421352
 31
0.0
  0
LINE
  5
4B6
330
1F
100
AcDbEntity
  8
1-7_金物
  6
Continuous
 62
     7
370
     9
100
AcDbLine
 10
1449.988724756281
 20
-3005.069668421352
 30
0.0
 11
1449.988724756281
 21
-2986.111168421355
 31
0.0
  0
LINE
  5
4B7
330
1F
100
AcDbEntity
  8
1-7_金物
  6
Continuous
 62
     7
370
     9
100
AcDbLine
 10
1497.988724756283
 20
-3005.069668421352
 30
0.0
 11
1482.988724756285
 21
-3005.069668421352
 31
0.0
  0
LINE
  5
4B8
330
1F
100
AcDbEntity
  8
1-7_金物
  6
Continuous
 62
     7
370
     9
100
AcDbLine
 10
1461.988724756287
 20
-3027.569668421354
 30
0.0
 11
1464.988724756284
 21
-3024.569668421356
 31
0.0
  0
LINE
  5
4B9
330
1F
100
AcDbEntity
  8
1-7_金物
  6
Continuous
 62
     7
370
     9
100
AcDbLine
 10
1461.988724756287
 20
-3027.569668421354
 30
0.0
 11
1445.488724756285
 21
-3027.569668421354
 31
0.0
  0
LINE
  5
4BA
330
1F
100
AcDbEntity
  8
1-7_金物
  6
Continuous
 62
     7
370
     9
100
AcDbLine
 10
1464.988724756284
 20
-3024.569668421356
 30
0.0
 11
1467.988724756281
 21
-3027.569668421354
 31
0.0
  0
LINE
  5
4BB
330
1F
100
AcDbEntity
  8
1-7_金物
  6
Continuous
 62
     7
370
     9
100
AcDbLine
 10
1445.488724756285
 20
-3027.569668421354
 30
0.0
 11
1438.200224756286
 21
-3009.175168421351
 31
0.0
  0
LINE
  5
4BC
330
1F
100
AcDbEntity
  8
1-7_金物
  6
Continuous
 62
     7
370
     9
100
AcDbLine
 10
1506.988724756283
 20
-3005.069668421352
 30
0.0
 11
1502.488724756284
 21
-3009.569668421356
 31
0.0
  0
LINE
  5
4BD
330
1F
100
AcDbEntity
  8
1-7_金物
  6
Continuous
 62
     7
370
     9
100
AcDbLine
 10
1521.988724756283
 20
-3005.069668421352
 30
0.0
 11
1506.988724756283
 21
-3005.069668421352
 31
0.0
  0
LINE
  5
4BE
330
1F
100
AcDbEntity
  8
1-7_金物
  6
Continuous
 62
     7
370
     9
100
AcDbLine
 10
1554.988724756282
 20
-3005.069668421352
 30
0.0
 11
1563.988724756282
 21
-3005.069668421352
 31
0.0
  0
LINE
  5
4BF
330
1F
100
AcDbEntity
  8
1-7_金物
  6
Continuous
 62
     7
370
     9
100
AcDbLine
 10
1554.988724756282
 20
-3005.069668421352
 30
0.0
 11
1554.988724756282
 21
-2986.111168421355
 31
0.0
  0
LINE
  5
4C0
330
1F
100
AcDbEntity
  8
1-7_金物
  6
Continuous
 62
     7
370
     9
100
AcDbLine
 10
1542.988724756281
 20
-3027.569668421354
 30
0.0
 11
1539.988724756284
 21
-3024.569668421356
 31
0.0
  0
LINE
  5
4C1
330
1F
100
AcDbEntity
  8
1-7_金物
  6
Continuous
 62
     7
370
     9
100
AcDbLine
 10
1539.988724756284
 20
-3024.569668421356
 30
0.0
 11
1536.988724756287
 21
-3027.569668421354
 31
0.0
  0
LINE
  5
4C2
330
1F
100
AcDbEntity
  8
1-7_金物
  6
Continuous
 62
     7
370
     9
100
AcDbLine
 10
1542.988724756281
 20
-3027.569668421354
 30
0.0
 11
1559.488724756283
 21
-3027.569668421354
 31
0.0
  0
LINE
  5
4C3
330
1F
100
AcDbEntity
  8
1-7_金物
  6
Continuous
 62
     7
370
     9
100
AcDbLine
 10
1559.488724756283
 20
-3027.569668421354
 30
0.0
 11
1566.777224756282
 21
-3009.175168421351
 31
0.0
  0
LINE
  5
4C4
330
1F
100
AcDbEntity
  8
1-7_金物
  6
Continuous
 62
     7
370
     9
100
AcDbLine
 10
1502.488724756284
 20
-3009.569668421356
 30
0.0
 11
1497.988724756283
 21
-3005.069668421352
 31
0.0
  0
LINE
  5
4C5
330
1F
100
AcDbEntity
  8
1-7_金物
  6
Continuous
 62
     7
370
     9
100
AcDbLine
 10
1467.988724756281
 20
-3027.569668421354
 30
0.0
 11
1536.988724756287
 21
-3027.569668421354
 31
0.0
  0
LINE
  5
4C6
330
1F
100
AcDbEntity
  8
1-7_金物
  6
Continuous
 62
     7
370
     9
100
AcDbLine
 10
1526.488724756282
 20
-3000.569668421353
 30
0.0
 11
1526.488724756282
 21
-2963.071168421352
 31
0.0
  0
LINE
  5
4C7
330
1F
100
AcDbEntity
  8
1-7_金物
  6
Continuous
 62
     7
370
     9
100
AcDbLine
 10
1478.488724756284
 20
-3000.569668421353
 30
0.0
 11
1478.488724756284
 21
-2963.071168421352
 31
0.0
  0
LINE
  5
4C8
330
1F
100
AcDbEntity
  8
1-7_金物
  6
Continuous
 62
     7
370
     9
100
AcDbLine
 10
1569.988724756282
 20
-2952.571168421353
 30
0.0
 11
1569.988724756282
 21
-2937.571168421355
 31
0.0
  0
LINE
  5
4C9
330
1F
100
AcDbEntity
  8
1-7_金物
  6
Continuous
 62
     7
370
     9
100
AcDbLine
 10
1569.988724756282
 20
-2937.571168421355
 30
0.0
 11
1561.845224756285
 21
-2937.571168421355
 31
0.0
  0
LINE
  5
4CA
330
1F
100
AcDbEntity
  8
1-0_補助線
  6
JWW_HOJO
 62
   120
370
     5
100
AcDbLine
 10
1502.488726139675
 20
-2934.138862777319
 30
0.0
 11
1502.488726139675
 21
-3099.196818520206
 31
0.0
  0
LINE
  5
4CB
330
1F
100
AcDbEntity
  8
1-4_枠
  6
Continuous
 62
    92
370
    13
100
AcDbLine
 10
1568.488726139674
 20
-2937.56891025027
 30
0.0
 11
1568.488726139674
 21
-3027.568910250274
 31
0.0
  0
LINE
  5
4CC
330
1F
100
AcDbEntity
  8
1-4_枠
  6
Continuous
 62
    92
370
    13
100
AcDbLine
 10
1436.488726139675
 20
-3027.568910250274
 30
0.0
 11
1568.488726139674
 21
-3027.568910250274
 31
0.0
  0
LINE
  5
4CD
330
1F
100
AcDbEntity
  8
1-4_枠
  6
Continuous
 62
    92
370
    13
100
AcDbLine
 10
1436.488726139675
 20
-2937.56891025027
 30
0.0
 11
1436.488726139675
 21
-3027.568910250274
 31
0.0
  0
LINE
  5
4CE
330
1F
100
AcDbEntity
  8
1-4_枠
  6
Continuous
 62
    92
370
    13
100
AcDbLine
 10
950.5953278574697
 20
-2937.56891025027
 30
0.0
 11
1436.488726139675
 21
-2937.56891025027
 31
0.0
  0
LINE
  5
4CF
330
1F
100
AcDbEntity
  8
1-4_枠
  6
Continuous
 62
    92
370
    13
100
AcDbLine
 10
947.4887261396731
 20
-2945.068194994531
 30
0.0
 11
1436.488726139675
 21
-2945.068194994531
 31
0.0
  0
MTEXT
  5
4D0
330
1F
100
AcDbEntity
  8
1-B_寸法
  6
Continuous
 62
     7
370
   211
100
AcDbMText
 10
1089.988726139675
 20
-2782.562145937212
 30
0.0
 40
100.0125
 41
262.5
 46
0.0
 71
     7
 72
     1
  1
{\fＭＳ ゴシック|b0|i0|c128|p49;37.5}
 73
     1
 44
1.0
  0
LINE
  5
4D1
330
1F
100
AcDbEntity
  8
1-4_枠
  6
Continuous
 62
    92
370
    13
100
AcDbLine
 10
2634.988726139673
 20
-3162.56966842135
 30
0.0
 11
939.9887261396731
 21
-3162.56966842135
 31
0.0
  0
LINE
  5
4D2
330
1F
100
AcDbEntity
  8
1-B_寸法
  6
Continuous
 62
   120
370
     5
100
AcDbLine
 10
2634.988726139673
 20
-2622.568395937212
 30
0.0
 11
939.9887261396731
 21
-2622.568395937212
 31
0.0
  0
LINE
  5
4D3
330
1F
100
AcDbEntity
  8
1-4_枠
  6
Continuous
 62
    92
370
    13
100
AcDbLine
 10
2634.988726139673
 20
-2948.175511968067
 30
0.0
 11
2634.988726139673
 21
-3162.56966842135
 31
0.0
  0
LINE
  5
4D4
330
1F
100
AcDbEntity
  8
1-4_枠
  6
Continuous
 62
    92
370
    13
100
AcDbLine
 10
2627.488726139673
 20
-3162.570183405488
 30
0.0
 11
2627.488726139673
 21
-2945.068194994531
 31
0.0
  0
LINE
  5
4D5
330
1F
100
AcDbEntity
  8
1-4_枠
  6
Continuous
 62
    92
370
    13
100
AcDbLine
 10
2634.988726139673
 20
-2948.175511968067
 30
0.0
 11
2624.382124421877
 21
-2937.56891025027
 31
0.0
  0
LINE
  5
4D6
330
1F
100
AcDbEntity
  8
1-4_枠
  6
Continuous
 62
    92
370
    13
100
AcDbLine
 10
950.5953278574697
 20
-2937.56891025027
 30
0.0
 11
939.9887261396731
 21
-2948.175511968067
 31
0.0
  0
LINE
  5
4D7
330
1F
100
AcDbEntity
  8
1-4_枠
  6
Continuous
 62
    92
370
    13
100
AcDbLine
 10
947.4887261396731
 20
-3162.570183405488
 30
0.0
 11
947.4887261396731
 21
-2945.068194994531
 31
0.0
  0
LINE
  5
4D8
330
1F
100
AcDbEntity
  8
1-4_枠
  6
Continuous
 62
    92
370
    13
100
AcDbLine
 10
939.9887261396731
 20
-2948.175511968067
 30
0.0
 11
939.9887261396731
 21
-3162.56966842135
 31
0.0
  0
LWPOLYLINE
  5
4D9
330
1F
100
AcDbEntity
  8
1-B_寸法
  6
Continuous
 62
     7
370
     9
100
AcDbPolyline
 90
        4
 70
     1
 43
3.0
 10
941.4887261396731
 20
-2622.568395937212
 42
0.4142135623731
 10
939.9887261396731
 20
-2621.068395937212
 42
0.4142135623731
 10
938.4887261396731
 20
-2622.568395937212
 42
0.4142135623731
 10
939.9887261396731
 20
-2624.068395937212
 42
0.4142135623731
  0
LINE
  5
4DA
330
1F
100
AcDbEntity
  8
1-B_寸法
  6
Continuous
 62
   120
370
     5
100
AcDbLine
 10
939.9887261396731
 20
-2622.568395937212
 30
0.0
 11
939.9887261396731
 21
-2892.568395937212
 31
0.0
  0
LWPOLYLINE
  5
4DB
330
1F
100
AcDbEntity
  8
1-B_寸法
  6
Continuous
 62
     7
370
     9
100
AcDbPolyline
 90
        4
 70
     1
 43
3.0
 10
941.4887261396731
 20
-2787.568395937212
 42
0.4142135623731
 10
939.9887261396731
 20
-2786.068395937212
 42
0.4142135623731
 10
938.4887261396731
 20
-2787.568395937212
 42
0.4142135623731
 10
939.9887261396731
 20
-2789.068395937212
 42
0.4142135623731
  0
MTEXT
  5
4DC
330
1F
100
AcDbEntity
  8
1-B_寸法
  6
Continuous
 62
     7
370
   211
100
AcDbMText
 10
1689.988840580591
 20
-2618.038395937212
 30
0.0
 40
99.06
 41
195.0
 46
0.0
 71
     7
 72
     1
  1
{\fＭＳ ゴシック|b0|i0|c128|p49;113}
 73
     1
 44
1.0
  0
LINE
  5
4DD
330
1F
100
AcDbEntity
  8
1-B_寸法
  6
Continuous
 62
   120
370
     5
100
AcDbLine
 10
1502.488726139675
 20
-2787.568395937212
 30
0.0
 11
2634.988726139673
 21
-2787.568395937212
 31
0.0
  0
LWPOLYLINE
  5
4DE
330
1F
100
AcDbEntity
  8
1-B_寸法
  6
Continuous
 62
     7
370
     9
100
AcDbPolyline
 90
        4
 70
     1
 43
3.0
 10
2636.488726139673
 20
-2787.568395937212
 42
0.4142135623731
 10
2634.988726139673
 20
-2786.068395937212
 42
0.4142135623731
 10
2633.488726139673
 20
-2787.568395937212
 42
0.4142135623731
 10
2634.988726139673
 20
-2789.068395937212
 42
0.4142135623731
  0
MTEXT
  5
4DF
330
1F
100
AcDbEntity
  8
1-B_寸法
  6
Continuous
 62
     7
370
   211
100
AcDbMText
 10
1937.488726139675
 20
-2782.562145937212
 30
0.0
 40
100.0125
 41
262.5
 46
0.0
 71
     7
 72
     1
  1
{\fＭＳ ゴシック|b0|i0|c128|p49;75.5}
 73
     1
 44
1.0
  0
LINE
  5
4E0
330
1F
100
AcDbEntity
  8
1-4_枠
  6
Continuous
 62
    92
370
    13
100
AcDbLine
 10
2627.488726139673
 20
-2945.068194994531
 30
0.0
 11
1568.488726139674
 21
-2945.068194994531
 31
0.0
  0
LINE
  5
4E1
330
1F
100
AcDbEntity
  8
1-4_枠
  6
Continuous
 62
    92
370
    13
100
AcDbLine
 10
2624.382124421877
 20
-2937.56891025027
 30
0.0
 11
1568.488726139674
 21
-2937.56891025027
 31
0.0
  0
LINE
  5
4E2
330
1F
100
AcDbEntity
  8
0-1_通り芯
  6
JWW_CENTER1
 62
   120
370
     5
100
AcDbLine
 10
1709.918584083287
 20
-930.8487132713743
 30
0.0
 11
1709.918584083287
 21
-2109.890270150964
 31
0.0
  0
MTEXT
  5
4E3
330
1F
100
AcDbEntity
  8
0-A_文字
  6
Continuous
 62
     7
370
     9
100
AcDbMText
 10
2080.449599278791
 20
-1157.497320518036
 30
0.0
 40
91.44
 41
600.0
 46
0.0
 71
     7
 72
     1
  1
{\fＭＳ ゴシック|b0|i0|c128|p49;（洋室側）}
 73
     1
 44
1.0
  0
MTEXT
  5
4E4
330
1F
100
AcDbEntity
  8
0-A_文字
  6
Continuous
 62
     7
370
     9
100
AcDbMText
 10
697.4794987357988
 20
-1174.311153142369
 30
0.0
 40
91.44000000000001
 41
600.0000000000001
 46
0.0
 71
     7
 72
     1
  1
{\fＭＳ ゴシック|b0|i0|c128|p49;（和室側）}
 73
     1
 44
1.0
  0
LINE
  5
4E5
330
1F
100
AcDbEntity
  8
0-4_枠
  6
Continuous
 62
    92
370
    13
100
AcDbLine
 10
1370.918584083286
 20
-990.8487132713743
 30
0.0
 11
1370.918584083286
 21
-2049.890270150964
 31
0.0
  0
LINE
  5
4E6
330
1F
100
AcDbEntity
  8
0-4_枠
  6
Continuous
 62
    92
370
    13
100
AcDbLine
 10
2048.918584083287
 20
-990.8487132713743
 30
0.0
 11
2048.918584083287
 21
-2049.890270150964
 31
0.0
  0
LINE
  5
4E7
330
1F
100
AcDbEntity
  8
0-B_寸法
  6
Continuous
 62
   120
370
     5
100
AcDbLine
 10
1370.918584083286
 20
-1473.229256925271
 30
0.0
 11
1709.918584083287
 21
-1473.229256925271
 31
0.0
  0
LWPOLYLINE
  5
4E8
330
1F
100
AcDbEntity
  8
0-B_寸法
  6
Continuous
 62
     7
370
     9
100
AcDbPolyline
 90
        4
 70
     1
 43
3.0
 10
1372.418584083286
 20
-1473.229256925271
 42
0.4142135623731
 10
1370.918584083286
 20
-1471.729256925271
 42
0.4142135623731
 10
1369.418584083286
 20
-1473.229256925271
 42
0.4142135623731
 10
1370.918584083286
 20
-1474.72925692527
 42
0.4142135623731
  0
LWPOLYLINE
  5
4E9
330
1F
100
AcDbEntity
  8
0-B_寸法
  6
Continuous
 62
     7
370
     9
100
AcDbPolyline
 90
        4
 70
     1
 43
3.0
 10
1711.418584083287
 20
-1473.229256925271
 42
0.4142135623731
 10
1709.918584083287
 20
-1471.729256925271
 42
0.4142135623731
 10
1708.418584083287
 20
-1473.229256925271
 42
0.4142135623731
 10
1709.918584083287
 20
-1474.72925692527
 42
0.4142135623731
  0
MTEXT
  5
4EA
330
1F
100
AcDbEntity
  8
0-B_寸法
  6
Continuous
 62
     7
370
   211
100
AcDbMText
 10
1409.168584083288
 20
-1468.223006925271
 30
0.0
 40
100.0125
 41
262.5
 46
0.0
 71
     7
 72
     1
  1
{\fＭＳ ゴシック|b0|i0|c128|p49;56.5}
 73
     1
 44
1.0
  0
LINE
  5
4EB
330
1F
100
AcDbEntity
  8
0-B_寸法
  6
Continuous
 62
   120
370
     5
100
AcDbLine
 10
1709.918584083287
 20
-1473.229256925271
 30
0.0
 11
2048.918584083287
 21
-1473.229256925271
 31
0.0
  0
LWPOLYLINE
  5
4EC
330
1F
100
AcDbEntity
  8
0-B_寸法
  6
Continuous
 62
     7
370
     9
100
AcDbPolyline
 90
        4
 70
     1
 43
3.0
 10
2050.418584083287
 20
-1473.229256925271
 42
0.4142135623731
 10
2048.918584083287
 20
-1471.729256925271
 42
0.4142135623731
 10
2047.418584083287
 20
-1473.229256925271
 42
0.4142135623731
 10
2048.918584083287
 20
-1474.72925692527
 42
0.4142135623731
  0
MTEXT
  5
4ED
330
1F
100
AcDbEntity
  8
0-B_寸法
  6
Continuous
 62
     7
370
   211
100
AcDbMText
 10
1748.168584083286
 20
-1468.223006925271
 30
0.0
 40
100.0125
 41
262.5
 46
0.0
 71
     7
 72
     1
  1
{\fＭＳ ゴシック|b0|i0|c128|p49;56.5}
 73
     1
 44
1.0
  0
LINE
  5
4EE
330
1F
100
AcDbEntity
  8
0-B_寸法
  6
Continuous
 62
   120
370
     5
100
AcDbLine
 10
1370.918584083286
 20
-1661.537110337054
 30
0.0
 11
2048.918584083287
 21
-1661.537110337054
 31
0.0
  0
LWPOLYLINE
  5
4EF
330
1F
100
AcDbEntity
  8
0-B_寸法
  6
Continuous
 62
     7
370
     9
100
AcDbPolyline
 90
        4
 70
     1
 43
3.0
 10
1372.418584083286
 20
-1661.537110337054
 42
0.4142135623731
 10
1370.918584083286
 20
-1660.037110337054
 42
0.4142135623731
 10
1369.418584083286
 20
-1661.537110337054
 42
0.4142135623731
 10
1370.918584083286
 20
-1663.037110337054
 42
0.4142135623731
  0
LWPOLYLINE
  5
4F0
330
1F
100
AcDbEntity
  8
0-B_寸法
  6
Continuous
 62
     7
370
     9
100
AcDbPolyline
 90
        4
 70
     1
 43
3.0
 10
2050.418584083287
 20
-1661.537110337054
 42
0.4142135623731
 10
2048.918584083287
 20
-1660.037110337054
 42
0.4142135623731
 10
2047.418584083287
 20
-1661.537110337054
 42
0.4142135623731
 10
2048.918584083287
 20
-1663.037110337054
 42
0.4142135623731
  0
MTEXT
  5
4F1
330
1F
100
AcDbEntity
  8
0-B_寸法
  6
Continuous
 62
     7
370
   211
100
AcDbMText
 10
1612.418584083287
 20
-1657.007110337054
 30
0.0
 40
99.06
 41
195.0
 46
0.0
 71
     7
 72
     1
  1
{\fＭＳ ゴシック|b0|i0|c128|p49;113}
 73
     1
 44
1.0
  0
LINE
  5
4F2
330
1F
100
AcDbEntity
  8
0-A_文字
  6
Continuous
 62
     7
370
     9
100
AcDbLine
 10
1146.372772298685
 20
-1928.799679993874
 30
0.0
 11
1205.441305857521
 21
-1928.799679993874
 31
0.0
  0
MTEXT
  5
4F3
330
1F
100
AcDbEntity
  8
0-A_文字
  6
Continuous
 62
     7
370
     0
100
AcDbMText
 10
885.8087422916561
 20
-2005.727093750634
 30
0.0
 40
91.44
 41
240.0
 46
0.0
 71
     7
 72
     1
  1
{\fＭＳ ゴシック|b0|i0|c128|p49;畳寄}
 73
     1
 44
1.0
  0
MTEXT
  5
4F4
330
1F
100
AcDbEntity
  8
0-A_文字
  6
Continuous
 62
     7
370
     0
100
AcDbMText
 10
1289.918584083287
 20
-945.1287132713743
 30
0.0
 40
91.44
 41
840.0
 46
0.0
 71
     7
 72
     1
  1
{\fＭＳ ゴシック|b0|i0|c128|p49;壁(枠)センター}
 73
     1
 44
1.0
  0
MTEXT
  5
4F5
330
1F
100
AcDbEntity
  8
0-A_文字
  6
Continuous
 62
     7
370
     0
100
AcDbMText
 10
2236.565725533221
 20
-1764.457803087088
 30
0.0
 40
91.44
 41
120.0
 46
0.0
 71
     7
 72
     1
  1
{\fＭＳ ゴシック|b0|i0|c128|p49;床}
 73
     1
 44
1.0
  0
LINE
  5
4F6
330
1F
100
AcDbEntity
  8
0-3_仕上げ
  6
Continuous
 62
   120
370
     5
100
AcDbLine
 10
2048.918584083287
 20
-1190.657024647292
 30
0.0
 11
2669.918584083285
 21
-1190.657024647292
 31
0.0
  0
LINE
  5
4F7
330
1F
100
AcDbEntity
  8
0-3_仕上げ
  6
Continuous
 62
   120
370
     5
100
AcDbLine
 10
2048.918584083287
 20
-1989.890270150964
 30
0.0
 11
2669.918584083285
 21
-1989.890270150964
 31
0.0
  0
LINE
  5
4F8
330
1F
100
AcDbEntity
  8
0-3_仕上げ
  6
Continuous
 62
   120
370
     5
100
AcDbLine
 10
2048.918584083287
 20
-1390.465336023211
 30
0.0
 11
2669.918584083285
 21
-1390.465336023211
 31
0.0
  0
LINE
  5
4F9
330
1F
100
AcDbEntity
  8
0-3_仕上げ
  6
Continuous
 62
   120
370
     5
100
AcDbLine
 10
2048.918584083287
 20
-1590.27364739913
 30
0.0
 11
2669.918584083285
 21
-1590.27364739913
 31
0.0
  0
LINE
  5
4FA
330
1F
100
AcDbEntity
  8
0-3_仕上げ
  6
Continuous
 62
   120
370
     5
100
AcDbLine
 10
2048.918584083287
 20
-1790.081958775047
 30
0.0
 11
2669.918584083285
 21
-1790.081958775047
 31
0.0
  0
LINE
  5
4FB
330
1F
100
AcDbEntity
  8
0-3_仕上げ
  6
Continuous
 62
    40
370
    15
100
AcDbLine
 10
1280.918584083286
 20
-990.8487132713743
 30
0.0
 11
1280.918584083286
 21
-2049.890270150964
 31
0.0
  0
LINE
  5
4FC
330
1F
100
AcDbEntity
  8
0-A_文字
  6
Continuous
 62
     7
370
     9
100
AcDbLine
 10
1331.918584083287
 20
-1833.941721324552
 30
0.0
 11
1205.441305857521
 21
-1928.799679993874
 31
0.0
  0
LINE
  5
4FD
330
1F
100
AcDbEntity
  8
0-A_文字
  6
Continuous
 62
    92
370
    13
100
AcDbLine
 10
-5659.999495325863
 20
4000.00018145587
 30
0.0
 11
-5659.999495325863
 21
3730.00018145587
 31
0.0
  0
MTEXT
  5
4FE
330
1F
100
AcDbEntity
  8
0-A_文字
  6
Continuous
 62
    92
370
    13
100
AcDbMText
 10
-5573.749495325863
 20
3758.93799395587
 30
0.0
 40
147.875625
 41
3105.0
 46
0.0
 71
     7
 72
     1
  1
{\fＭＳ ゴシック|b0|i0|c128|p49;引き分け戸　レールタイプ　調整枠}
 73
     1
 44
1.0
  0
LINE
  5
4FF
330
1F
100
AcDbEntity
  8
0-A_文字
  6
Continuous
 62
    92
370
    13
100
AcDbLine
 10
-5659.999495325863
 20
4000.00018145587
 30
0.0
 11
-2385.714285714285
 21
4000.00018145587
 31
0.0
  0
LINE
  5
500
330
1F
100
AcDbEntity
  8
0-A_文字
  6
Continuous
 62
    92
370
    13
100
AcDbLine
 10
-5659.999495325863
 20
3730.00018145587
 30
0.0
 11
-2385.714285714285
 21
3730.00018145587
 31
0.0
  0
LINE
  5
501
330
1F
100
AcDbEntity
  8
0-A_文字
  6
Continuous
 62
    92
370
    13
100
AcDbLine
 10
-2385.714285714285
 20
4000.00018145587
 30
0.0
 11
-2385.714285714285
 21
3730.00018145587
 31
0.0
  0
MTEXT
  5
502
330
1F
100
AcDbEntity
  8
F-A_文字
  6
Continuous
 62
     7
370
     0
100
AcDbMText
 10
-5080.081323642279
 20
-4045.08423295339
 30
0.0
 40
79.83140624999997
 41
3352.5
 46
0.0
 71
     7
 72
     1
  1
{\fＭＳ ゴシック|b0|i0|c128|p49;ドレタス　引き分け戸　レールタイプ　調整枠　幅広敷居　枠外W3,234}
 73
     1
 44
1.0
  0
LINE
  5
503
330
1F
100
AcDbEntity
  8
F-0_補助線
  6
JWW_HOJO
 62
     7
370
     9
100
AcDbLine
 10
1109.918584083287
 20
-3795.000003092998
 30
0.0
 11
1109.918584083287
 21
-4195.000008247994
 31
0.0
  0
LINE
  5
504
330
1F
100
AcDbEntity
  8
F-0_補助線
  6
JWW_HOJO
 62
     7
370
     9
100
AcDbLine
 10
4889.917891251784
 20
-3795.000003092998
 30
0.0
 11
4889.917891251784
 21
-4195.000008247994
 31
0.0
  0
MTEXT
  5
505
330
1F
100
AcDbEntity
  8
F-0_補助線
  6
Continuous
 62
     7
370
     0
100
AcDbMText
 10
1109.918584083287
 20
-3945.948259655243
 30
0.0
 40
78.105
 41
615.0
 46
0.0
 71
     7
 72
     1
  1
{\fＭＳ ゴシック|b0|i0|c128|p49;建具納まり図}
 73
     1
 44
1.0
  0
MTEXT
  5
506
330
1F
100
AcDbEntity
  8
F-0_補助線
  6
Continuous
 62
     7
370
     0
100
AcDbMText
 10
509.9185840832865
 20
-3945.709576962234
 30
0.0
 40
78.58125
 41
412.5
 46
0.0
 71
     7
 72
     1
  1
{\fＭＳ ゴシック|b0|i0|c128|p49;DOORETUS}
 73
     1
 44
1.0
  0
MTEXT
  5
507
330
1F
100
AcDbEntity
  8
F-A_文字
  6
Continuous
 62
     7
370
     0
100
AcDbMText
 10
4889.917891251784
 20
-3945.570773120548
 30
0.0
 40
78.86699999999999
 41
517.5
 46
0.0
 71
     7
 72
     1
  1
{\fＭＳ ゴシック|b0|i0|c128|p49;2022.04.01}
 73
     1
 44
1.0
  0
LINE
  5
508
330
1F
100
AcDbEntity
  8
0-1_通り芯
  6
JWW_CENTER1
 62
   120
370
     5
100
AcDbLine
 10
-1987.801561894086
 20
-210.8487132713799
 30
0.0
 11
-1987.801561894086
 21
-3258.848713271377
 31
0.0
  0
LINE
  5
509
330
1F
100
AcDbEntity
  8
0-1_通り芯
  6
JWW_CENTER1
 62
   120
370
     5
100
AcDbLine
 10
-2126.42163747953
 20
2285.962168973788
 30
0.0
 11
2146.258723166161
 21
2285.962168973788
 31
0.0
  0
LWPOLYLINE
  5
50A
330
1F
100
AcDbEntity
  8
0-B_寸法
  6
Continuous
 62
     7
370
     9
100
AcDbPolyline
 90
        4
 70
     1
 43
3.0
 10
280.0800137192837
 20
2285.962142944336
 42
0.4142135623731
 10
278.5800137192837
 20
2287.462142944336
 42
0.4142135623731
 10
277.0800137192837
 20
2285.962142944336
 42
0.4142135623731
 10
278.5800137192837
 20
2284.462142944336
 42
0.4142135623731
  0
LWPOLYLINE
  5
50B
330
1F
100
AcDbEntity
  8
0-B_寸法
  6
Continuous
 62
     7
370
     9
100
AcDbPolyline
 90
        4
 70
     1
 43
3.0
 10
280.0800137192837
 20
2171.962168973789
 42
0.4142135623731
 10
278.5800137192837
 20
2173.462168973789
 42
0.4142135623731
 10
277.0800137192837
 20
2171.962168973789
 42
0.4142135623731
 10
278.5800137192837
 20
2170.462168973789
 42
0.4142135623731
  0
LWPOLYLINE
  5
50C
330
1F
100
AcDbEntity
  8
0-B_寸法
  6
Continuous
 62
     7
370
     9
100
AcDbPolyline
 90
        4
 70
     1
 43
3.0
 10
-1986.301561894086
 20
-1824.848840119953
 42
0.4142135623731
 10
-1987.801561894086
 20
-1823.348840119953
 42
0.4142135623731
 10
-1989.301561894086
 20
-1824.848840119953
 42
0.4142135623731
 10
-1987.801561894086
 20
-1826.348840119953
 42
0.4142135623731
  0
LWPOLYLINE
  5
50D
330
1F
100
AcDbEntity
  8
0-B_寸法
  6
Continuous
 62
     7
370
     9
100
AcDbPolyline
 90
        4
 70
     1
 43
3.0
 10
-1872.301562447448
 20
-1824.848840119953
 42
0.4142135623731
 10
-1873.801562447448
 20
-1823.348840119953
 42
0.4142135623731
 10
-1875.301562447448
 20
-1824.848840119953
 42
0.4142135623731
 10
-1873.801562447448
 20
-1826.348840119953
 42
0.4142135623731
  0
LINE
  5
50E
330
1F
100
AcDbEntity
  8
0-1_通り芯
  6
JWW_CENTER1
 62
   120
370
     5
100
AcDbLine
 10
-1873.801562447448
 20
-210.8487132713799
 30
0.0
 11
-1873.801562447448
 21
-3318.848713271378
 31
0.0
  0
MTEXT
  5
50F
330
1F
100
AcDbEntity
  8
0-B_寸法
  6
Continuous
 62
     7
370
   211
100
AcDbMText
 10
-2111.956607885872
 20
2871.682396613789
 30
0.0
 40
91.44
 41
120.0
 46
0.0
 71
     7
 72
     1
  1
{\fＭＳ ゴシック|b0|i0|c128|p49;10}
 73
     1
 44
1.0
  0
MTEXT
  5
510
330
1F
100
AcDbEntity
  8
0-B_寸法
  6
Continuous
 62
     7
370
     0
100
AcDbMText
 10
-1764.64632669737
 20
2211.682168973788
 30
0.0
 40
91.44
 41
120.0
 46
0.0
 71
     7
 72
     1
  1
{\fＭＳ ゴシック|b0|i0|c128|p49;79}
 11
6.123031769111886E-17
 21
1.0
 31
0.0
 73
     1
 44
1.0
  0
MTEXT
  5
511
330
1F
100
AcDbEntity
  8
0-B_寸法
  6
Continuous
 62
     7
370
   211
100
AcDbMText
 10
263.5800137192837
 20
2021.789655959062
 30
0.0
 40
97.15499999999999
 41
127.5
 46
0.0
 71
     7
 72
     1
  1
{\fＭＳ ゴシック|b0|i0|c128|p49;19}
 11
6.123031769111886E-17
 21
1.0
 31
0.0
 73
     1
 44
1.0
  0
LINE
  5
512
330
1F
100
AcDbEntity
  8
0-B_寸法
  6
Continuous
 62
   120
370
     5
100
AcDbLine
 10
278.5800137192837
 20
2285.962142944336
 30
0.0
 11
278.5800137192837
 21
2039.962168973789
 31
0.0
  0
LINE
  5
513
330
1F
100
AcDbEntity
  8
0-6_扉
  6
Continuous
 62
   200
370
    20
100
AcDbLine
 10
547.2414845952507
 20
2195.962168973788
 30
0.0
 11
1144.088633004739
 21
2195.962168973788
 31
0.0
  0
LINE
  5
514
330
1F
100
AcDbEntity
  8
0-B_寸法
  6
Continuous
 62
   120
370
     5
100
AcDbLine
 10
902.8322614407338
 20
2156.962168973789
 30
0.0
 11
779.860418431524
 21
2156.962168973789
 31
0.0
  0
LINE
  5
515
330
1F
100
AcDbEntity
  8
0-6_扉
  6
Continuous
 62
   200
370
    20
100
AcDbLine
 10
-1897.801561894086
 20
-822.8487129867983
 30
0.0
 11
-1897.801561894086
 21
-1896.848713271381
 31
0.0
  0
MTEXT
  5
516
330
1F
100
AcDbEntity
  8
0-B_寸法
  6
Continuous
 62
     7
370
     0
100
AcDbMText
 10
-1866.032201623877
 20
-1273.95370961248
 30
0.0
 40
91.43999999999977
 41
179.9999999999996
 46
0.0
 71
     7
 72
     1
  1
{\fＭＳ ゴシック|b0|i0|c128|p49;110}
 73
     1
 44
1.0
  0
MTEXT
  5
517
330
1F
100
AcDbEntity
  8
0-B_寸法
  6
Continuous
 62
     7
370
   211
100
AcDbMText
 10
-1862.551562170767
 20
-1821.271340119953
 30
0.0
 40
97.15499999999999
 41
127.5
 46
0.0
 71
     7
 72
     1
  1
{\fＭＳ ゴシック|b0|i0|c128|p49;19}
 73
     1
 44
1.0
  0
LINE
  5
518
330
1F
100
AcDbEntity
  8
0-B_寸法
  6
Continuous
 62
   120
370
     5
100
AcDbLine
 10
-1987.801561894086
 20
-1824.848840119953
 30
0.0
 11
-1741.801562447448
 21
-1824.848840119953
 31
0.0
  0
MTEXT
  5
519
330
1F
100
AcDbEntity
  8
0-B_寸法
  6
Continuous
 62
     7
370
   211
100
AcDbMText
 10
-2310.849019219338
 20
2733.642382225324
 30
0.0
 40
91.44
 41
60.0
 46
0.0
 71
     7
 72
     1
  1
{\fＭＳ ゴシック|b0|i0|c128|p49;5}
 73
     1
 44
1.0
  0
ENDSEC
  0
SECTION
  2
OBJECTS
  0
DICTIONARY
  5
C
330
0
100
AcDbDictionary
281
     1
  3
ACAD_GROUP
350
D
  3
ACAD_LAYOUT
350
1A
  3
ACAD_MATERIAL
350
3B
  3
ACAD_MLEADERSTYLE
350
51B
  3
ACAD_MLINESTYLE
350
17
  3
ACAD_PLOTSETTINGS
350
19
  3
ACAD_PLOTSTYLENAME
350
E
  3
ACAD_TABLESTYLE
350
51A
  3
ACAD_VISUALSTYLE
350
2A
  0
DICTIONARY
  5
D
102
{ACAD_REACTORS
330
C
102
}
330
C
100
AcDbDictionary
281
     1
  0
DICTIONARY
  5
1A
102
{ACAD_REACTORS
330
C
102
}
330
C
100
AcDbDictionary
281
     1
  3
Layout1
350
1E
  3
Layout2
350
26
  3
Model
350
22
  0
DICTIONARY
  5
3B
102
{ACAD_REACTORS
330
C
102
}
330
C
100
AcDbDictionary
281
     1
  3
ByBlock
350
3D
  3
ByLayer
350
3C
  3
Global
350
3E
  0
DICTIONARY
  5
51B
102
{ACAD_REACTORS
330
C
102
}
330
C
100
AcDbDictionary
281
     1
  0
DICTIONARY
  5
17
102
{ACAD_REACTORS
330
C
102
}
330
C
100
AcDbDictionary
281
     1
  3
Standard
350
18
  0
DICTIONARY
  5
19
102
{ACAD_REACTORS
330
C
102
}
330
C
100
AcDbDictionary
281
     1
  0
ACDBDICTIONARYWDFLT
  5
E
102
{ACAD_REACTORS
330
C
102
}
330
C
100
AcDbDictionary
281
     1
  3
Normal
350
F
100
AcDbDictionaryWithDefault
340
F
  0
DICTIONARY
  5
51A
102
{ACAD_REACTORS
330
C
102
}
330
C
100
AcDbDictionary
281
     1
  0
DICTIONARY
  5
2A
102
{ACAD_REACTORS
330
C
102
}
330
C
100
AcDbDictionary
281
     1
  3
2dWireframe
350
2F
  3
3D Hidden
350
31
  3
3dWireframe
350
30
  3
Basic
350
32
  3
Brighten
350
36
  3
ColorChange
350
3A
  3
Conceptual
350
34
  3
Dim
350
35
  3
Facepattern
350
39
  3
Flat
350
2B
  3
FlatWithEdges
350
2C
  3
Gouraud
350
2D
  3
GouraudWithEdges
350
2E
  3
Linepattern
350
38
  3
Realistic
350
33
  3
Thicken
350
37
  0
LAYOUT
  5
1E
102
{ACAD_REACTORS
330
1A
102
}
330
1A
100
AcDbPlotSettings
  1

  2
none_device
  4

  6

 40
0.0
 41
0.0
 42
0.0
 43
0.0
 44
0.0
 45
0.0
 46
0.0
 47
0.0
 48
0.0
 49
0.0
140
0.0
141
0.0
142
1.0
143
1.0
 70
   688
 72
     0
 73
     0
 74
     5
  7

 75
    16
 76
     0
 77
     5
 78
   300
147
1.0
148
0.0
149
0.0
100
AcDbLayout
  1
Layout1
 70
     1
 71
     1
 10
0.0
 20
0.0
 11
420.0
 21
297.0
 12
0.0
 22
0.0
 32
0.0
 14
1.000000000000000E+20
 24
1.000000000000000E+20
 34
1.000000000000000E+20
 15
-1.000000000000000E+20
 25
-1.000000000000000E+20
 35
-1.000000000000000E+20
146
0.0
 13
0.0
 23
0.0
 33
0.0
 16
1.0
 26
0.0
 36
0.0
 17
0.0
 27
1.0
 37
0.0
 76
     0
330
1B
  0
LAYOUT
  5
26
102
{ACAD_REACTORS
330
1A
102
}
330
1A
100
AcDbPlotSettings
  1

  2
none_device
  4

  6

 40
0.0
 41
0.0
 42
0.0
 43
0.0
 44
0.0
 45
0.0
 46
0.0
 47
0.0
 48
0.0
 49
0.0
140
0.0
141
0.0
142
1.0
143
1.0
 70
   688
 72
     0
 73
     0
 74
     5
  7

 75
    16
 76
     0
 77
     5
 78
   300
147
1.0
148
0.0
149
0.0
100
AcDbLayout
  1
Layout2
 70
     1
 71
     2
 10
0.0
 20
0.0
 11
0.0
 21
0.0
 12
0.0
 22
0.0
 32
0.0
 14
0.0
 24
0.0
 34
0.0
 15
0.0
 25
0.0
 35
0.0
146
0.0
 13
0.0
 23
0.0
 33
0.0
 16
1.0
 26
0.0
 36
0.0
 17
0.0
 27
1.0
 37
0.0
 76
     0
330
23
  0
LAYOUT
  5
22
102
{ACAD_REACTORS
330
1A
102
}
330
1A
100
AcDbPlotSettings
  1

  2
none_device
  4

  6

 40
0.0
 41
0.0
 42
0.0
 43
0.0
 44
0.0
 45
0.0
 46
0.0
 47
0.0
 48
0.0
 49
0.0
140
0.0
141
0.0
142
1.0
143
1.0
 70
  1712
 72
     0
 73
     0
 74
     0
  7

 75
     0
 76
     0
 77
     5
 78
   300
147
1.0
148
0.0
149
0.0
100
AcDbLayout
  1
Model
 70
     1
 71
     0
 10
-8910.0
 20
-6300.0
 11
8910.0
 21
6300.0
 12
0.0
 22
0.0
 32
0.0
 14
-8910.0
 24
-6300.0
 34
0.0
 15
8910.0
 25
6300.0
 35
0.0
146
0.0
 13
0.0
 23
0.0
 33
0.0
 16
1.0
 26
0.0
 36
0.0
 17
0.0
 27
1.0
 37
0.0
 76
     0
330
1F
331
29
  0
MATERIAL
  5
3D
102
{ACAD_REACTORS
330
3B
102
}
330
3B
100
AcDbMaterial
  1
ByBlock
 72
     1
 94
      127
  0
MATERIAL
  5
3C
102
{ACAD_REACTORS
330
3B
102
}
330
3B
100
AcDbMaterial
  1
ByLayer
 72
     1
 94
      127
  0
MATERIAL
  5
3E
102
{ACAD_REACTORS
330
3B
102
}
330
3B
100
AcDbMaterial
  1
Global
 72
     1
 94
      127
  0
MLINESTYLE
  5
18
102
{ACAD_REACTORS
330
17
102
}
330
17
100
AcDbMlineStyle
  2
Standard
 70
     0
  3

 62
   256
 51
90.0
 52
90.0
 71
     2
 49
0.5
 62
   256
  6
BYLAYER
 49
-0.5
 62
   256
  6
BYLAYER
  0
ACDBPLACEHOLDER
  5
F
102
{ACAD_REACTORS
330
E
102
}
330
E
  0
VISUALSTYLE
  5
2F
102
{ACAD_REACTORS
330
2A
102
}
330
2A
100
AcDbVisualStyle
  2
2dWireframe
 70
     4
177
     2
291
     0
 71
     0
176
     1
 72
     2
176
     1
 73
     0
176
     1
 90
        0
176
     1
 40
-0.6
176
     1
 41
-30.0
176
     1
 62
     5
 63
     7
421
 16777215
176
     1
 74
     1
176
     1
 91
        4
176
     1
 64
     7
176
     1
 65
   257
176
     1
 75
     1
176
     1
175
     1
176
     1
 42
1.0
176
     1
 92
        0
176
     1
 66
   257
176
     1
 43
1.0
176
     1
 76
     1
176
     1
 77
     6
176
     1
 78
     2
176
     1
 67
     7
176
     1
 79
     5
176
     1
170
     0
176
     1
171
     0
176
     1
290
     0
176
     1
 93
        1
176
     1
 44
0.0
176
     1
173
     0
176
     1
  0
VISUALSTYLE
  5
31
102
{ACAD_REACTORS
330
2A
102
}
330
2A
100
AcDbVisualStyle
  2
3D Hidden
 70
     6
177
     2
291
     0
 71
     1
176
     1
 72
     2
176
     1
 73
     2
176
     1
 90
        0
176
     1
 40
-0.6
176
     1
 41
-30.0
176
     1
 62
     5
 63
     7
421
 16777215
176
     1
 74
     2
176
     1
 91
        2
176
     1
 64
     7
176
     1
 65
   257
176
     1
 75
     2
176
     1
175
     1
176
     1
 42
40.0
176
     1
 92
        0
176
     1
 66
   257
176
     1
 43
1.0
176
     1
 76
     1
176
     1
 77
     6
176
     1
 78
     2
176
     1
 67
     7
176
     1
 79
     3
176
     1
170
     0
176
     1
171
     0
176
     1
290
     0
176
     1
 93
        1
176
     1
 44
0.0
176
     1
173
     0
176
     1
  0
VISUALSTYLE
  5
30
102
{ACAD_REACTORS
330
2A
102
}
330
2A
100
AcDbVisualStyle
  2
3dWireframe
 70
     5
177
     2
291
     0
 71
     0
176
     1
 72
     2
176
     1
 73
     0
176
     1
 90
        0
176
     1
 40
-0.6
176
     1
 41
-30.0
176
     1
 62
     5
 63
     7
421
 16777215
176
     1
 74
     1
176
     1
 91
        4
176
     1
 64
     7
176
     1
 65
   257
176
     1
 75
     1
176
     1
175
     1
176
     1
 42
1.0
176
     1
 92
        0
176
     1
 66
   257
176
     1
 43
1.0
176
     1
 76
     1
176
     1
 77
     6
176
     1
 78
     2
176
     1
 67
     7
176
     1
 79
     5
176
     1
170
     0
176
     1
171
     0
176
     1
290
     0
176
     1
 93
        1
176
     1
 44
0.0
176
     1
173
     0
176
     1
  0
VISUALSTYLE
  5
32
102
{ACAD_REACTORS
330
2A
102
}
330
2A
100
AcDbVisualStyle
  2
Basic
 70
     7
177
     2
291
     1
 71
     1
176
     1
 72
     0
176
     1
 73
     1
176
     1
 90
        0
176
     1
 40
-0.6
176
     1
 41
-30.0
176
     1
 62
     5
 63
     7
421
 16777215
176
     1
 74
     0
176
     1
 91
        4
176
     1
 64
     7
176
     1
 65
   257
176
     1
 75
     1
176
     1
175
     1
176
     1
 42
1.0
176
     1
 92
        8
176
     1
 66
     7
176
     1
 43
1.0
176
     1
 76
     1
176
     1
 77
     6
176
     1
 78
     2
176
     1
 67
     7
176
     1
 79
     5
176
     1
170
     0
176
     1
171
     0
176
     1
290
     0
176
     1
 93
        1
176
     1
 44
0.0
176
     1
173
     0
176
     1
  0
VISUALSTYLE
  5
36
102
{ACAD_REACTORS
330
2A
102
}
330
2A
100
AcDbVisualStyle
  2
Brighten
 70
    12
177
     2
291
     1
 71
     2
176
     1
 72
     2
176
     1
 73
     0
176
     1
 90
        0
176
     1
 40
-0.6
176
     1
 41
-30.0
176
     1
 62
     5
 63
     7
421
 16777215
176
     1
 74
     1
176
     1
 91
        4
176
     1
 64
     7
176
     1
 65
   257
176
     1
 75
     1
176
     1
175
     1
176
     1
 42
1.0
176
     1
 92
        8
176
     1
 66
     7
176
     1
 43
1.0
176
     1
 76
     1
176
     1
 77
     6
176
     1
 78
     2
176
     1
 67
     7
176
     1
 79
     5
176
     1
170
     0
176
     1
171
     0
176
     1
290
     0
176
     1
 93
        1
176
     1
 44
50.0
176
     1
173
     0
176
     1
  0
VISUALSTYLE
  5
3A
102
{ACAD_REACTORS
330
2A
102
}
330
2A
100
AcDbVisualStyle
  2
ColorChange
 70
    16
177
     2
291
     1
 71
     2
176
     1
 72
     2
176
     1
 73
     3
176
     1
 90
        0
176
     1
 40
-0.6
176
     1
 41
-30.0
176
     1
 62
     5
 63
     8
421
  8421504
176
     1
 74
     1
176
     1
 91
        4
176
     1
 64
     7
176
     1
 65
   257
176
     1
 75
     1
176
     1
175
     1
176
     1
 42
1.0
176
     1
 92
        8
176
     1
 66
     8
424
  8421504
176
     1
 43
1.0
176
     1
 76
     1
176
     1
 77
     6
176
     1
 78
     2
176
     1
 67
     7
176
     1
 79
     5
176
     1
170
     0
176
     1
171
     0
176
     1
290
     0
176
     1
 93
        1
176
     1
 44
0.0
176
     1
173
     0
176
     1
  0
VISUALSTYLE
  5
34
102
{ACAD_REACTORS
330
2A
102
}
330
2A
100
AcDbVisualStyle
  2
Conceptual
 70
     9
177
     2
291
     0
 71
     3
176
     1
 72
     2
176
     1
 73
     0
176
     1
 90
        0
176
     1
 40
-0.6
176
     1
 41
-30.0
176
     1
 62
     5
 63
     7
421
 16777215
176
     1
 74
     2
176
     1
 91
        2
176
     1
 64
     7
176
     1
 65
   257
176
     1
 75
     1
176
     1
175
     1
176
     1
 42
40.0
176
     1
 92
        8
176
     1
 66
     7
176
     1
 43
1.0
176
     1
 76
     1
176
     1
 77
     6
176
     1
 78
     2
176
     1
 67
     7
176
     1
 79
     3
176
     1
170
     0
176
     1
171
     0
176
     1
290
     0
176
     1
 93
        1
176
     1
 44
0.0
176
     1
173
     0
176
     1
  0
VISUALSTYLE
  5
35
102
{ACAD_REACTORS
330
2A
102
}
330
2A
100
AcDbVisualStyle
  2
Dim
 70
    11
177
     2
291
     1
 71
     2
176
     1
 72
     2
176
     1
 73
     0
176
     1
 90
        0
176
     1
 40
-0.6
176
     1
 41
-30.0
176
     1
 62
     5
 63
     7
421
 16777215
176
     1
 74
     1
176
     1
 91
        4
176
     1
 64
     7
176
     1
 65
   257
176
     1
 75
     1
176
     1
175
     1
176
     1
 42
1.0
176
     1
 92
        8
176
     1
 66
     7
176
     1
 43
1.0
176
     1
 76
     1
176
     1
 77
     6
176
     1
 78
     2
176
     1
 67
     7
176
     1
 79
     5
176
     1
170
     0
176
     1
171
     0
176
     1
290
     0
176
     1
 93
        1
176
     1
 44
-50.0
176
     1
173
     0
176
     1
  0
VISUALSTYLE
  5
39
102
{ACAD_REACTORS
330
2A
102
}
330
2A
100
AcDbVisualStyle
  2
Facepattern
 70
    15
177
     2
291
     1
 71
     2
176
     1
 72
     2
176
     1
 73
     0
176
     1
 90
        0
176
     1
 40
-0.6
176
     1
 41
-30.0
176
     1
 62
     5
 63
     7
421
 16777215
176
     1
 74
     1
176
     1
 91
        4
176
     1
 64
     7
176
     1
 65
   257
176
     1
 75
     1
176
     1
175
     1
176
     1
 42
1.0
176
     1
 92
        8
176
     1
 66
     7
176
     1
 43
1.0
176
     1
 76
     1
176
     1
 77
     6
176
     1
 78
     2
176
     1
 67
     7
176
     1
 79
     5
176
     1
170
     0
176
     1
171
     0
176
     1
290
     0
176
     1
 93
        1
176
     1
 44
0.0
176
     1
173
     0
176
     1
  0
VISUALSTYLE
  5
2B
102
{ACAD_REACTORS
330
2A
102
}
330
2A
100
AcDbVisualStyle
  2
Flat
 70
     0
177
     2
291
     1
 71
     2
176
     1
 72
     1
176
     1
 73
     1
176
     1
 90
        2
176
     1
 40
-0.6
176
     1
 41
30.0
176
     1
 62
     5
 63
     7
421
 16777215
176
     1
 74
     0
176
     1
 91
        4
176
     1
 64
     7
176
     1
 65
   257
176
     1
 75
     1
176
     1
175
     1
176
     1
 42
1.0
176
     1
 92
        8
176
     1
 66
     7
176
     1
 43
1.0
176
     1
 76
     1
176
     1
 77
     6
176
     1
 78
     2
176
     1
 67
     7
176
     1
 79
     5
176
     1
170
     0
176
     1
171
     0
176
     1
290
     0
176
     1
 93
       13
176
     1
 44
0.0
176
     1
173
     0
176
     1
  0
VISUALSTYLE
  5
2C
102
{ACAD_REACTORS
330
2A
102
}
330
2A
100
AcDbVisualStyle
  2
FlatWithEdges
 70
     1
177
     2
291
     1
 71
     2
176
     1
 72
     1
176
     1
 73
     1
176
     1
 90
        2
176
     1
 40
-0.6
176
     1
 41
30.0
176
     1
 62
     5
 63
     7
421
 16777215
176
     1
 74
     1
176
     1
 91
        4
176
     1
 64
     7
176
     1
 65
   257
176
     1
 75
     1
176
     1
175
     1
176
     1
 42
1.0
176
     1
 92
        0
176
     1
 66
   257
176
     1
 43
1.0
176
     1
 76
     1
176
     1
 77
     6
176
     1
 78
     2
176
     1
 67
     7
176
     1
 79
     5
176
     1
170
     0
176
     1
171
     0
176
     1
290
     0
176
     1
 93
       13
176
     1
 44
0.0
176
     1
173
     0
176
     1
  0
VISUALSTYLE
  5
2D
102
{ACAD_REACTORS
330
2A
102
}
330
2A
100
AcDbVisualStyle
  2
Gouraud
 70
     2
177
     2
291
     1
 71
     2
176
     1
 72
     2
176
     1
 73
     1
176
     1
 90
        2
176
     1
 40
-0.6
176
     1
 41
30.0
176
     1
 62
     5
 63
     7
421
 16777215
176
     1
 74
     0
176
     1
 91
        4
176
     1
 64
     7
176
     1
 65
   257
176
     1
 75
     1
176
     1
175
     1
176
     1
 42
1.0
176
     1
 92
        0
176
     1
 66
     7
176
     1
 43
1.0
176
     1
 76
     1
176
     1
 77
     6
176
     1
 78
     2
176
     1
 67
     7
176
     1
 79
     5
176
     1
170
     0
176
     1
171
     0
176
     1
290
     0
176
     1
 93
       13
176
     1
 44
0.0
176
     1
173
     0
176
     1
  0
VISUALSTYLE
  5
2E
102
{ACAD_REACTORS
330
2A
102
}
330
2A
100
AcDbVisualStyle
  2
GouraudWithEdges
 70
     3
177
     2
291
     1
 71
     2
176
     1
 72
     2
176
     1
 73
     1
176
     1
 90
        2
176
     1
 40
-0.6
176
     1
 41
30.0
176
     1
 62
     5
 63
     7
421
 16777215
176
     1
 74
     1
176
     1
 91
        4
176
     1
 64
     7
176
     1
 65
   257
176
     1
 75
     1
176
     1
175
     1
176
     1
 42
1.0
176
     1
 92
        0
176
     1
 66
   257
176
     1
 43
1.0
176
     1
 76
     1
176
     1
 77
     6
176
     1
 78
     2
176
     1
 67
     7
176
     1
 79
     5
176
     1
170
     0
176
     1
171
     0
176
     1
290
     0
176
     1
 93
       13
176
     1
 44
0.0
176
     1
173
     0
176
     1
  0
VISUALSTYLE
  5
38
102
{ACAD_REACTORS
330
2A
102
}
330
2A
100
AcDbVisualStyle
  2
Linepattern
 70
    14
177
     2
291
     1
 71
     2
176
     1
 72
     2
176
     1
 73
     0
176
     1
 90
        0
176
     1
 40
-0.6
176
     1
 41
-30.0
176
     1
 62
     5
 63
     7
421
 16777215
176
     1
 74
     1
176
     1
 91
        4
176
     1
 64
     7
176
     1
 65
   257
176
     1
 75
     7
176
     1
175
     7
176
     1
 42
1.0
176
     1
 92
        8
176
     1
 66
     7
176
     1
 43
1.0
176
     1
 76
     1
176
     1
 77
     6
176
     1
 78
     2
176
     1
 67
     7
176
     1
 79
     5
176
     1
170
     0
176
     1
171
     0
176
     1
290
     0
176
     1
 93
        1
176
     1
 44
0.0
176
     1
173
     0
176
     1
  0
VISUALSTYLE
  5
33
102
{ACAD_REACTORS
330
2A
102
}
330
2A
100
AcDbVisualStyle
  2
Realistic
 70
     8
177
     2
291
     0
 71
     2
176
     1
 72
     2
176
     1
 73
     0
176
     1
 90
        0
176
     1
 40
-0.6
176
     1
 41
-30.0
176
     1
 62
     5
 63
     7
421
 16777215
176
     1
 74
     1
176
     1
 91
        0
176
     1
 64
     7
176
     1
 65
   257
176
     1
 75
     1
176
     1
175
     1
176
     1
 42
1.0
176
     1
 92
        8
176
     1
 66
     8
424
  7895160
176
     1
 43
1.0
176
     1
 76
     1
176
     1
 77
     6
176
     1
 78
     2
176
     1
 67
     7
176
     1
 79
     5
176
     1
170
     0
176
     1
171
     0
176
     1
290
     0
176
     1
 93
       13
176
     1
 44
0.0
176
     1
173
     0
176
     1
  0
VISUALSTYLE
  5
37
102
{ACAD_REACTORS
330
2A
102
}
330
2A
100
AcDbVisualStyle
  2
Thicken
 70
    13
177
     2
291
     1
 71
     2
176
     1
 72
     2
176
     1
 73
     0
176
     1
 90
        0
176
     1
 40
-0.6
176
     1
 41
-30.0
176
     1
 62
     5
 63
     7
421
 16777215
176
     1
 74
     1
176
     1
 91
        4
176
     1
 64
     7
176
     1
 65
   257
176
     1
 75
     1
176
     1
175
     1
176
     1
 42
1.0
176
     1
 92
       12
176
     1
 66
     7
176
     1
 43
1.0
176
     1
 76
     1
176
     1
 77
     6
176
     1
 78
     2
176
     1
 67
     7
176
     1
 79
     5
176
     1
170
     0
176
     1
171
     0
176
     1
290
     0
176
     1
 93
        1
176
     1
 44
0.0
176
     1
173
     0
176
     1
  0
ENDSEC
  0
EOF
