  0
SECTION
  2
HEADER
  9
$ACADVER
  1
AC1024
  9
$ACADMAINTVER
 70
     6
  9
$DWGCODEPAGE
  3
ANSI_932
  9
$INSBASE
 10
0.0
 20
0.0
 30
0.0
  9
$EXTMIN
 10
-8910.0
 20
-6300.0
 30
0.0
  9
$EXTMAX
 10
8910.0
 20
6300.0
 30
0.0
  9
$LIMMIN
 10
-8910.0
 20
-6300.0
  9
$LIMMAX
 10
8910.0
 20
6300.0
  9
$ORTHOMODE
 70
     0
  9
$REGENMODE
 70
     1
  9
$FILLMODE
 70
     1
  9
$QTEXTMODE
 70
     0
  9
$MIRRTEXT
 70
     1
  9
$LTSCALE
 40
30.0
  9
$ATTMODE
 70
     1
  9
$TEXTSIZE
 40
2.5
  9
$TRACEWID
 40
1.0
  9
$TEXTSTYLE
  7
Standard
  9
$CLAYER
  8
0
  9
$CELTYPE
  6
ByLayer
  9
$CECOLOR
 62
   256
  9
$CELTSCALE
 40
1.0
  9
$DISPSILH
 70
     0
  9
$DIMSCALE
 40
1.0
  9
$DIMASZ
 40
2.5
  9
$DIMEXO
 40
0.625
  9
$DIMDLI
 40
3.75
  9
$DIMRND
 40
0.0
  9
$DIMDLE
 40
0.0
  9
$DIMEXE
 40
1.25
  9
$DIMTP
 40
0.0
  9
$DIMTM
 40
0.0
  9
$DIMTXT
 40
2.5
  9
$DIMCEN
 40
2.5
  9
$DIMTSZ
 40
0.0
  9
$DIMTOL
 70
     0
  9
$DIMLIM
 70
     0
  9
$DIMTIH
 70
     0
  9
$DIMTOH
 70
     0
  9
$DIMSE1
 70
     0
  9
$DIMSE2
 70
     0
  9
$DIMTAD
 70
     1
  9
$DIMZIN
 70
     8
  9
$DIMBLK
  1

  9
$DIMASO
 70
     1
  9
$DIMSHO
 70
     1
  9
$DIMPOST
  1

  9
$DIMAPOST
  1

  9
$DIMALT
 70
     0
  9
$DIMALTD
 70
     3
  9
$DIMALTF
 40
0.03937007874016
  9
$DIMLFAC
 40
1.0
  9
$DIMTOFL
 70
     1
  9
$DIMTVP
 40
0.0
  9
$DIMTIX
 70
     0
  9
$DIMSOXD
 70
     0
  9
$DIMSAH
 70
     0
  9
$DIMBLK1
  1

  9
$DIMBLK2
  1

  9
$DIMSTYLE
  2
ISO-25
  9
$DIMCLRD
 70
     0
  9
$DIMCLRE
 70
     0
  9
$DIMCLRT
 70
     0
  9
$DIMTFAC
 40
1.0
  9
$DIMGAP
 40
0.625
  9
$DIMJUST
 70
     0
  9
$DIMSD1
 70
     0
  9
$DIMSD2
 70
     0
  9
$DIMTOLJ
 70
     0
  9
$DIMTZIN
 70
     8
  9
$DIMALTZ
 70
     0
  9
$DIMALTTZ
 70
     0
  9
$DIMUPT
 70
     0
  9
$DIMDEC
 70
     2
  9
$DIMTDEC
 70
     2
  9
$DIMALTU
 70
     2
  9
$DIMALTTD
 70
     3
  9
$DIMTXSTY
  7
Standard
  9
$DIMAUNIT
 70
     0
  9
$DIMADEC
 70
     0
  9
$DIMALTRND
 40
0.0
  9
$DIMAZIN
 70
     0
  9
$DIMDSEP
 70
    44
  9
$DIMATFIT
 70
     3
  9
$DIMFRAC
 70
     0
  9
$DIMLDRBLK
  1

  9
$DIMLUNIT
 70
     2
  9
$DIMLWD
 70
    -2
  9
$DIMLWE
 70
    -2
  9
$DIMTMOVE
 70
     0
  9
$DIMFXL
 40
1.0
  9
$DIMFXLON
 70
     0
  9
$DIMJOGANG
 40
0.7853981633974483
  9
$DIMTFILL
 70
     0
  9
$DIMTFILLCLR
 70
     0
  9
$DIMARCSYM
 70
     0
  9
$DIMLTYPE
  6

  9
$DIMLTEX1
  6

  9
$DIMLTEX2
  6

  9
$DIMTXTDIRECTION
 70
     0
  9
$LUNITS
 70
     2
  9
$LUPREC
 70
     4
  9
$SKETCHINC
 40
1.0
  9
$FILLETRAD
 40
10.0
  9
$AUNITS
 70
     0
  9
$AUPREC
 70
     0
  9
$MENU
  1
.
  9
$ELEVATION
 40
0.0
  9
$PELEVATION
 40
0.0
  9
$THICKNESS
 40
0.0
  9
$LIMCHECK
 70
     0
  9
$CHAMFERA
 40
10.0
  9
$CHAMFERB
 40
10.0
  9
$CHAMFERC
 40
20.0
  9
$CHAMFERD
 40
0.0
  9
$SKPOLY
 70
     0
  9
$TDCREATE
 40
2459720.732224259
  9
$TDUCREATE
 40
2459720.357224259
  9
$TDUPDATE
 40
2459720.732224271
  9
$TDUUPDATE
 40
2459720.357224271
  9
$TDINDWG
 40
0.0000000116
  9
$TDUSRTIMER
 40
0.0000000116
  9
$USRTIMER
 70
     1
  9
$ANGBASE
 50
0.0
  9
$ANGDIR
 70
     0
  9
$PDMODE
 70
     0
  9
$PDSIZE
 40
0.0
  9
$PLINEWID
 40
0.0
  9
$SPLFRAME
 70
     0
  9
$SPLINETYPE
 70
     6
  9
$SPLINESEGS
 70
     8
  9
$HANDSEED
  5
4B3
  9
$SURFTAB1
 70
     6
  9
$SURFTAB2
 70
     6
  9
$SURFTYPE
 70
     6
  9
$SURFU
 70
     6
  9
$SURFV
 70
     6
  9
$UCSBASE
  2

  9
$UCSNAME
  2

  9
$UCSORG
 10
0.0
 20
0.0
 30
0.0
  9
$UCSXDIR
 10
1.0
 20
0.0
 30
0.0
  9
$UCSYDIR
 10
0.0
 20
1.0
 30
0.0
  9
$UCSORTHOREF
  2

  9
$UCSORTHOVIEW
 70
     0
  9
$UCSORGTOP
 10
0.0
 20
0.0
 30
0.0
  9
$UCSORGBOTTOM
 10
0.0
 20
0.0
 30
0.0
  9
$UCSORGLEFT
 10
0.0
 20
0.0
 30
0.0
  9
$UCSORGRIGHT
 10
0.0
 20
0.0
 30
0.0
  9
$UCSORGFRONT
 10
0.0
 20
0.0
 30
0.0
  9
$UCSORGBACK
 10
0.0
 20
0.0
 30
0.0
  9
$PUCSBASE
  2

  9
$PUCSNAME
  2

  9
$PUCSORG
 10
0.0
 20
0.0
 30
0.0
  9
$PUCSXDIR
 10
1.0
 20
0.0
 30
0.0
  9
$PUCSYDIR
 10
0.0
 20
1.0
 30
0.0
  9
$PUCSORTHOREF
  2

  9
$PUCSORTHOVIEW
 70
     0
  9
$PUCSORGTOP
 10
0.0
 20
0.0
 30
0.0
  9
$PUCSORGBOTTOM
 10
0.0
 20
0.0
 30
0.0
  9
$PUCSORGLEFT
 10
0.0
 20
0.0
 30
0.0
  9
$PUCSORGRIGHT
 10
0.0
 20
0.0
 30
0.0
  9
$PUCSORGFRONT
 10
0.0
 20
0.0
 30
0.0
  9
$PUCSORGBACK
 10
0.0
 20
0.0
 30
0.0
  9
$USERI1
 70
     0
  9
$USERI2
 70
     0
  9
$USERI3
 70
     0
  9
$USERI4
 70
     0
  9
$USERI5
 70
     0
  9
$USERR1
 40
0.0
  9
$USERR2
 40
0.0
  9
$USERR3
 40
0.0
  9
$USERR4
 40
0.0
  9
$USERR5
 40
0.0
  9
$WORLDVIEW
 70
     1
  9
$SHADEDGE
 70
     3
  9
$SHADEDIF
 70
    70
  9
$TILEMODE
 70
     1
  9
$MAXACTVP
 70
    64
  9
$PINSBASE
 10
0.0
 20
0.0
 30
0.0
  9
$PLIMCHECK
 70
     0
  9
$PEXTMIN
 10
1.000000000000000E+20
 20
1.000000000000000E+20
 30
1.000000000000000E+20
  9
$PEXTMAX
 10
-1.000000000000000E+20
 20
-1.000000000000000E+20
 30
-1.000000000000000E+20
  9
$PLIMMIN
 10
0.0
 20
0.0
  9
$PLIMMAX
 10
420.0
 20
297.0
  9
$UNITMODE
 70
     0
  9
$VISRETAIN
 70
     1
  9
$PLINEGEN
 70
     0
  9
$PSLTSCALE
 70
     1
  9
$TREEDEPTH
 70
  3020
  9
$CMLSTYLE
  2
Standard
  9
$CMLJUST
 70
     0
  9
$CMLSCALE
 40
20.0
  9
$PROXYGRAPHICS
 70
     1
  9
$MEASUREMENT
 70
     1
  9
$CELWEIGHT
370
    -1
  9
$ENDCAPS
280
     0
  9
$JOINSTYLE
280
     0
  9
$LWDISPLAY
290
     0
  9
$INSUNITS
 70
     4
  9
$HYPERLINKBASE
  1

  9
$STYLESHEET
  1

  9
$XEDIT
290
     1
  9
$CEPSNTYPE
380
     0
  9
$PSTYLEMODE
290
     1
  9
$FINGERPRINTGUID
  2
{CC334569-7999-49AE-9F0E-D0032D1D7E3D}
  9
$VERSIONGUID
  2
{FAEB1C32-E019-11D5-929B-00C0DF256EC4}
  9
$EXTNAMES
290
     1
  9
$PSVPSCALE
 40
0.0
  9
$OLESTARTUP
290
     0
  9
$SORTENTS
280
   127
  9
$INDEXCTL
280
     0
  9
$HIDETEXT
280
     1
  9
$XCLIPFRAME
280
     2
  9
$HALOGAP
280
     0
  9
$OBSCOLOR
 70
   257
  9
$OBSLTYPE
280
     0
  9
$INTERSECTIONDISPLAY
280
     0
  9
$INTERSECTIONCOLOR
 70
   257
  9
$DIMASSOC
280
     2
  9
$PROJECTNAME
  1

  9
$CAMERADISPLAY
290
     0
  9
$LENSLENGTH
 40
50.0
  9
$CAMERAHEIGHT
 40
0.0
  9
$STEPSPERSEC
 40
2.0
  9
$STEPSIZE
 40
6.0
  9
$3DDWFPREC
 40
2.0
  9
$PSOLWIDTH
 40
5.0
  9
$PSOLHEIGHT
 40
80.0
  9
$LOFTANG1
 40
1.570796326794897
  9
$LOFTANG2
 40
1.570796326794897
  9
$LOFTMAG1
 40
0.0
  9
$LOFTMAG2
 40
0.0
  9
$LOFTPARAM
 70
     7
  9
$LOFTNORMALS
280
     1
  9
$LATITUDE
 40
37.795
  9
$LONGITUDE
 40
-122.394
  9
$NORTHDIRECTION
 40
0.0
  9
$TIMEZONE
 70
 -8000
  9
$LIGHTGLYPHDISPLAY
280
     1
  9
$TILEMODELIGHTSYNCH
280
     1
  9
$SOLIDHIST
280
     1
  9
$SHOWHIST
280
     1
  9
$DWFFRAME
280
     2
  9
$DGNFRAME
280
     2
  9
$REALWORLDSCALE
290
     1
  9
$INTERFERECOLOR
 62
   256
  9
$CSHADOW
280
     0
  9
$SHADOWPLANELOCATION
 40
0.0
  0
ENDSEC
  0
SECTION
  2
CLASSES
  0
CLASS
  1
ACDBDICTIONARYWDFLT
  2
AcDbDictionaryWithDefault
  3
ObjectDBX Classes
 90
        0
 91
        4
280
     0
281
     0
  0
CLASS
  1
VISUALSTYLE
  2
AcDbVisualStyle
  3
ObjectDBX Classes
 90
     4095
 91
        4
280
     0
281
     0
  0
CLASS
  1
MATERIAL
  2
AcDbMaterial
  3
ObjectDBX Classes
 90
     1153
 91
        4
280
     0
281
     0
  0
ENDSEC
  0
SECTION
  2
TABLES
  0
TABLE
  2
VPORT
  5
8
330
0
100
AcDbSymbolTable
 70
     1
  0
VPORT
  5
29
330
8
100
AcDbSymbolTableRecord
100
AcDbViewportTableRecord
  2
*Active
 70
     0
 10
0.0
 20
0.0
 11
1.0
 21
1.0
 12
0.0
 22
0.0
 13
0.0
 23
0.0
 14
10.0
 24
10.0
 15
10.0
 25
10.0
 16
0.0
 26
0.0
 36
1.0
 17
0.0
 27
0.0
 37
0.0
 40
13860.0
 41
1.414285714285714
 42
50.0
 43
0.0
 44
0.0
 50
0.0
 51
0.0
 71
     0
 72
 10000
 73
     1
 74
     3
 75
     0
 76
     0
 77
     0
 78
     0
281
     0
 65
     1
110
0.0
120
0.0
130
0.0
111
1.0
121
0.0
131
0.0
112
0.0
122
1.0
132
0.0
 79
     0
146
0.0
 60
     3
 61
     5
292
     1
282
     1
141
0.0
142
0.0
 63
   250
  0
ENDTAB
  0
TABLE
  2
LTYPE
  5
5
330
0
100
AcDbSymbolTable
 70
     5
  0
LTYPE
  5
14
330
5
100
AcDbSymbolTableRecord
100
AcDbLinetypeTableRecord
  2
ByBlock
 70
     0
  3

 72
    65
 73
     0
 40
0.0
  0
LTYPE
  5
15
330
5
100
AcDbSymbolTableRecord
100
AcDbLinetypeTableRecord
  2
ByLayer
 70
     0
  3

 72
    65
 73
     0
 40
0.0
  0
LTYPE
  5
16
330
5
100
AcDbSymbolTableRecord
100
AcDbLinetypeTableRecord
  2
Continuous
 70
     0
  3
Solid line
 72
    65
 73
     0
 40
0.0
  0
LTYPE
  5
3F
330
5
100
AcDbSymbolTableRecord
100
AcDbLinetypeTableRecord
  2
JWW_HOJO
 70
     0
  3
  -   -   -   -   -   -   -   - 
 72
    65
 73
     2
 40
1.693333333333333
 49
-1.27
 74
     0
 49
0.4233333333333333
 74
     0
  0
LTYPE
  5
40
330
5
100
AcDbSymbolTableRecord
100
AcDbLinetypeTableRecord
  2
JWW_CENTER1
 70
     0
  3
-----  --  ----------  --  -----
 72
    65
 73
     4
 40
6.773333333333333
 49
4.233333333333333
 74
     0
 49
-0.8466666666666667
 74
     0
 49
0.8466666666666667
 74
     0
 49
-0.8466666666666667
 74
     0
  0
LTYPE
  5
41
330
5
100
AcDbSymbolTableRecord
100
AcDbLinetypeTableRecord
  2
JWW_DASHED1
 70
     0
  3
-  --  --  --  --  --  --  --  -
 72
    65
 73
     2
 40
1.693333333333333
 49
0.8466666666666667
 74
     0
 49
-0.8466666666666667
 74
     0
  0
LTYPE
  5
42
330
5
100
AcDbSymbolTableRecord
100
AcDbLinetypeTableRecord
  2
JWW_DASHED2
 70
     0
  3
--    ----    ----    ----    --
 72
    65
 73
     2
 40
3.386666666666667
 49
1.693333333333333
 74
     0
 49
-1.693333333333333
 74
     0
  0
ENDTAB
  0
TABLE
  2
LAYER
  5
2
330
0
100
AcDbSymbolTable
 70
    18
  0
LAYER
  5
10
330
2
100
AcDbSymbolTableRecord
100
AcDbLayerTableRecord
  2
0
 70
     0
 62
     7
  6
Continuous
370
    -3
390
F
347
3E
  0
LAYER
  5
43
330
2
100
AcDbSymbolTableRecord
100
AcDbLayerTableRecord
  2
仕上げ
 70
     0
 62
     7
  6
Continuous
370
    -3
390
F
347
3E
  0
LAYER
  5
44
330
2
100
AcDbSymbolTableRecord
100
AcDbLayerTableRecord
  2
0-A_文字
 70
     0
 62
     7
  6
Continuous
370
    -3
390
F
347
3E
  0
LAYER
  5
45
330
2
100
AcDbSymbolTableRecord
100
AcDbLayerTableRecord
  2
1-B_ﾊｯﾁ
 70
     0
 62
     7
  6
Continuous
370
    -3
390
F
347
3E
  0
LAYER
  5
46
330
2
100
AcDbSymbolTableRecord
100
AcDbLayerTableRecord
  2
1-4_枠
 70
     0
 62
     7
  6
Continuous
370
    -3
390
F
347
3E
  0
LAYER
  5
47
330
2
100
AcDbSymbolTableRecord
100
AcDbLayerTableRecord
  2
1-0_補助線
 70
     0
 62
     7
  6
Continuous
370
    -3
390
F
347
3E
  0
LAYER
  5
48
330
2
100
AcDbSymbolTableRecord
100
AcDbLayerTableRecord
  2
0-1_通り芯
 70
     0
 62
     7
  6
Continuous
370
    -3
390
F
347
3E
  0
LAYER
  5
49
330
2
100
AcDbSymbolTableRecord
100
AcDbLayerTableRecord
  2
F-0_補助線
 70
     0
 62
     7
  6
Continuous
370
    -3
390
F
347
3E
  0
LAYER
  5
4A
330
2
100
AcDbSymbolTableRecord
100
AcDbLayerTableRecord
  2
F-1_枠
 70
     0
 62
     7
  6
Continuous
370
    -3
390
F
347
3E
  0
LAYER
  5
4B
330
2
100
AcDbSymbolTableRecord
100
AcDbLayerTableRecord
  2
F-A_文字
 70
     0
 62
     7
  6
Continuous
370
    -3
390
F
347
3E
  0
LAYER
  5
4C
330
2
100
AcDbSymbolTableRecord
100
AcDbLayerTableRecord
  2
0-6_扉
 70
     0
 62
     7
  6
Continuous
370
    -3
390
F
347
3E
  0
LAYER
  5
4D
330
2
100
AcDbSymbolTableRecord
100
AcDbLayerTableRecord
  2
ハッチ
 70
     0
 62
     7
  6
Continuous
370
    -3
390
F
347
3E
  0
LAYER
  5
4E
330
2
100
AcDbSymbolTableRecord
100
AcDbLayerTableRecord
  2
0-7_金物
 70
     0
 62
     7
  6
Continuous
370
    -3
390
F
347
3E
  0
LAYER
  5
4F
330
2
100
AcDbSymbolTableRecord
100
AcDbLayerTableRecord
  2
0-2_柱
 70
     0
 62
     7
  6
Continuous
370
    -3
390
F
347
3E
  0
LAYER
  5
50
330
2
100
AcDbSymbolTableRecord
100
AcDbLayerTableRecord
  2
0-0_補助線
 70
     0
 62
     7
  6
Continuous
370
    -3
390
F
347
3E
  0
LAYER
  5
51
330
2
100
AcDbSymbolTableRecord
100
AcDbLayerTableRecord
  2
0-4_枠
 70
     0
 62
     7
  6
Continuous
370
    -3
390
F
347
3E
  0
LAYER
  5
52
330
2
100
AcDbSymbolTableRecord
100
AcDbLayerTableRecord
  2
0-B_寸法
 70
     0
 62
     7
  6
Continuous
370
    -3
390
F
347
3E
  0
LAYER
  5
53
330
2
100
AcDbSymbolTableRecord
100
AcDbLayerTableRecord
  2
1-7_金物
 70
     0
 62
     7
  6
Continuous
370
    -3
390
F
347
3E
  0
ENDTAB
  0
TABLE
  2
STYLE
  5
3
330
0
100
AcDbSymbolTable
 70
     1
  0
STYLE
  5
11
330
3
100
AcDbSymbolTableRecord
100
AcDbTextStyleTableRecord
  2
Standard
 70
     0
 40
0.0
 41
1.0
 50
0.0
 71
     0
 42
2.5
  3
txt
  4

  0
ENDTAB
  0
TABLE
  2
VIEW
  5
6
330
0
100
AcDbSymbolTable
 70
     0
  0
ENDTAB
  0
TABLE
  2
UCS
  5
7
330
0
100
AcDbSymbolTable
 70
     0
  0
ENDTAB
  0
TABLE
  2
APPID
  5
9
330
0
100
AcDbSymbolTable
 70
     1
  0
APPID
  5
12
330
9
100
AcDbSymbolTableRecord
100
AcDbRegAppTableRecord
  2
ACAD
 70
     0
  0
ENDTAB
  0
TABLE
  2
DIMSTYLE
  5
A
330
0
100
AcDbSymbolTable
 70
     1
100
AcDbDimStyleTable
  0
DIMSTYLE
105
27
330
A
100
AcDbSymbolTableRecord
100
AcDbDimStyleTableRecord
  2
ISO-25
 70
     0
 41
2.5
 42
0.625
 43
3.75
 44
1.25
 73
     0
 74
     0
 77
     1
 78
     8
140
2.5
141
2.5
143
0.03937007874016
147
0.625
171
     3
172
     1
178
     0
271
     2
272
     2
274
     3
278
    44
283
     0
284
     8
340
11
  0
ENDTAB
  0
TABLE
  2
BLOCK_RECORD
  5
1
330
0
100
AcDbSymbolTable
 70
     1
  0
BLOCK_RECORD
  5
1F
330
1
100
AcDbSymbolTableRecord
100
AcDbBlockTableRecord
  2
*Model_Space
340
22
 70
     0
280
     1
281
     0
  0
BLOCK_RECORD
  5
1B
330
1
100
AcDbSymbolTableRecord
100
AcDbBlockTableRecord
  2
*Paper_Space
340
1E
 70
     0
280
     1
281
     0
  0
BLOCK_RECORD
  5
23
330
1
100
AcDbSymbolTableRecord
100
AcDbBlockTableRecord
  2
*Paper_Space0
340
26
 70
     0
280
     1
281
     0
  0
ENDTAB
  0
ENDSEC
  0
SECTION
  2
BLOCKS
  0
BLOCK
  5
20
330
1F
100
AcDbEntity
  8
0
100
AcDbBlockBegin
  2
*Model_Space
 70
     0
 10
0.0
 20
0.0
 30
0.0
  3
*Model_Space
  1

  0
ENDBLK
  5
21
330
1F
100
AcDbEntity
  8
0
100
AcDbBlockEnd
  0
BLOCK
  5
1C
330
1B
100
AcDbEntity
 67
     1
  8
0
100
AcDbBlockBegin
  2
*Paper_Space
 70
     0
 10
0.0
 20
0.0
 30
0.0
  3
*Paper_Space
  1

  0
ENDBLK
  5
1D
330
1B
100
AcDbEntity
 67
     1
  8
0
100
AcDbBlockEnd
  0
BLOCK
  5
24
330
23
100
AcDbEntity
  8
0
100
AcDbBlockBegin
  2
*Paper_Space0
 70
     0
 10
0.0
 20
0.0
 30
0.0
  3
*Paper_Space0
  1

  0
ENDBLK
  5
25
330
23
100
AcDbEntity
  8
0
100
AcDbBlockEnd
  0
ENDSEC
  0
SECTION
  2
ENTITIES
  0
LINE
  5
54
330
1F
100
AcDbEntity
  8
仕上げ
  6
Continuous
 62
    40
370
     5
100
AcDbLine
 10
1229.918584083289
 20
-1038.848713002971
 30
0.0
 11
1229.918584083289
 21
-2097.890269882559
 31
0.0
  0
LINE
  5
55
330
1F
100
AcDbEntity
  8
仕上げ
  6
Continuous
 62
   120
370
     5
100
AcDbLine
 10
2099.918584083289
 20
-1439.437426310935
 30
0.0
 11
2669.918584083288
 21
-1439.437426310935
 31
0.0
  0
LINE
  5
56
330
1F
100
AcDbEntity
  8
仕上げ
  6
Continuous
 62
   120
370
     5
100
AcDbLine
 10
2099.918584083289
 20
-1639.245737686854
 30
0.0
 11
2669.918584083288
 21
-1639.245737686854
 31
0.0
  0
LINE
  5
57
330
1F
100
AcDbEntity
  8
仕上げ
  6
Continuous
 62
   120
370
     5
100
AcDbLine
 10
2099.918584083289
 20
-2038.862360438687
 30
0.0
 11
2669.918584083288
 21
-2038.862360438687
 31
0.0
  0
LINE
  5
58
330
1F
100
AcDbEntity
  8
仕上げ
  6
Continuous
 62
   120
370
     5
100
AcDbLine
 10
2099.918584083289
 20
-1839.05404906277
 30
0.0
 11
2669.918584083288
 21
-1839.05404906277
 31
0.0
  0
LINE
  5
59
330
1F
100
AcDbEntity
  8
0-A_文字
  6
Continuous
 62
    92
370
     5
100
AcDbLine
 10
509.9185840832865
 20
-2458.002927642972
 30
0.0
 11
2909.918584083287
 21
-2458.002927642972
 31
0.0
  0
LINE
  5
5A
330
1F
100
AcDbEntity
  8
0-A_文字
  6
Continuous
 62
    92
370
     5
100
AcDbLine
 10
2909.918584083287
 20
-558.8487130029711
 30
0.0
 11
2909.918584083287
 21
-3426.848918996622
 31
0.0
  0
LINE
  5
5B
330
1F
100
AcDbEntity
  8
0-A_文字
  6
Continuous
 62
    92
370
     5
100
AcDbLine
 10
2909.918584083287
 20
-3426.848918996622
 30
0.0
 11
509.9185840832865
 21
-3426.848918996622
 31
0.0
  0
MTEXT
  5
5C
330
1F
100
AcDbEntity
  8
0-A_文字
  6
Continuous
 62
     7
370
     0
100
AcDbMText
 10
1109.918584083289
 20
-723.128713002971
 30
0.0
 40
91.43999999999998
 41
1200.0
 46
0.0
 71
     7
 72
     1
  1
{\fＭＳ ゴシック|b0|i0|c128|p49;フロアー貼り込み位置}
 73
     1
 44
1.0
  0
MTEXT
  5
5D
330
1F
100
AcDbEntity
  8
0-A_文字
  6
Continuous
 62
     7
370
     0
100
AcDbMText
 10
1199.918584083287
 20
-2442.226598762765
 30
0.0
 40
91.43999999999997
 41
1080.0
 46
0.0
 71
     7
 72
     1
  1
{\fＭＳ ゴシック|b0|i0|c128|p49;敷居詳細図 (S=1/2)}
 73
     1
 44
1.0
  0
LINE
  5
5E
330
1F
100
AcDbEntity
  8
0-A_文字
  6
Continuous
 62
    92
370
     5
100
AcDbLine
 10
2909.918584083287
 20
-2277.890269882558
 30
0.0
 11
509.9185840832865
 21
-2277.890269882558
 31
0.0
  0
LINE
  5
5F
330
1F
100
AcDbEntity
  8
0-A_文字
  6
Continuous
 62
    92
370
     5
100
AcDbLine
 10
2909.918584083287
 20
-738.8487130029711
 30
0.0
 11
509.9185840832865
 21
-738.8487130029711
 31
0.0
  0
LINE
  5
60
330
1F
100
AcDbEntity
  8
0-A_文字
  6
Continuous
 62
    92
370
     5
100
AcDbLine
 10
2909.918584083287
 20
-558.8487130029711
 30
0.0
 11
509.9185840832865
 21
-558.8487130029711
 31
0.0
  0
LINE
  5
61
330
1F
100
AcDbEntity
  8
0-A_文字
  6
Continuous
 62
    92
370
     5
100
AcDbLine
 10
509.9185840832865
 20
-3426.848918996622
 30
0.0
 11
509.9185840832865
 21
-558.8487130029708
 31
0.0
  0
LWPOLYLINE
  5
62
330
1F
100
AcDbEntity
  8
1-B_ﾊｯﾁ
  6
Continuous
 62
     7
370
     5
100
AcDbPolyline
 90
        4
 70
     1
 43
3.0
 10
820.0541114488581
 20
-2835.568395668809
 42
0.4142135623731
 10
818.5541114488581
 20
-2834.068395668809
 42
0.4142135623731
 10
817.0541114488581
 20
-2835.568395668809
 42
0.4142135623731
 10
818.5541114488581
 20
-2837.068395668809
 42
0.4142135623731
  0
LINE
  5
63
330
1F
100
AcDbEntity
  8
1-B_ﾊｯﾁ
  6
Continuous
 62
   120
370
     5
100
AcDbLine
 10
818.5541114488581
 20
-2670.568395668809
 30
0.0
 11
818.5541114488581
 21
-2940.568395668809
 31
0.0
  0
LINE
  5
64
330
1F
100
AcDbEntity
  8
1-B_ﾊｯﾁ
  6
Continuous
 62
   120
370
     5
100
AcDbLine
 10
2768.554111448858
 20
-2670.568395668809
 30
0.0
 11
2768.554111448858
 21
-2940.568395668809
 31
0.0
  0
LWPOLYLINE
  5
65
330
1F
100
AcDbEntity
  8
1-B_ﾊｯﾁ
  6
Continuous
 62
     7
370
     5
100
AcDbPolyline
 90
        4
 70
     1
 43
3.0
 10
820.0541114488581
 20
-2670.568395668809
 42
0.4142135623731
 10
818.5541114488581
 20
-2669.068395668809
 42
0.4142135623731
 10
817.0541114488581
 20
-2670.568395668809
 42
0.4142135623731
 10
818.5541114488581
 20
-2672.068395668809
 42
0.4142135623731
  0
LWPOLYLINE
  5
66
330
1F
100
AcDbEntity
  8
1-B_ﾊｯﾁ
  6
Continuous
 62
     7
370
     5
100
AcDbPolyline
 90
        4
 70
     1
 43
3.0
 10
2770.054111448858
 20
-2670.568395668809
 42
0.4142135623731
 10
2768.554111448858
 20
-2669.068395668809
 42
0.4142135623731
 10
2767.054111448859
 20
-2670.568395668809
 42
0.4142135623731
 10
2768.554111448858
 20
-2672.068395668809
 42
0.4142135623731
  0
LINE
  5
67
330
1F
100
AcDbEntity
  8
1-B_ﾊｯﾁ
  6
Continuous
 62
   120
370
     5
100
AcDbLine
 10
2768.554111448858
 20
-2670.568395668809
 30
0.0
 11
818.5541114488581
 21
-2670.568395668809
 31
0.0
  0
LINE
  5
68
330
1F
100
AcDbEntity
  8
1-4_枠
  6
Continuous
 62
    92
370
     5
100
AcDbLine
 10
818.5541114488581
 20
-2996.175511699664
 30
0.0
 11
818.5541114488581
 21
-3210.569668152945
 31
0.0
  0
LINE
  5
69
330
1F
100
AcDbEntity
  8
1-4_枠
  6
Continuous
 62
    92
370
     5
100
AcDbLine
 10
826.0541114488581
 20
-3210.570183137084
 30
0.0
 11
826.0541114488581
 21
-2993.068194726126
 31
0.0
  0
LINE
  5
6A
330
1F
100
AcDbEntity
  8
1-4_枠
  6
Continuous
 62
    92
370
     5
100
AcDbLine
 10
829.1607131666547
 20
-2985.568909981867
 30
0.0
 11
818.5541114488581
 21
-2996.175511699664
 31
0.0
  0
LINE
  5
6B
330
1F
100
AcDbEntity
  8
1-4_枠
  6
Continuous
 62
    92
370
     5
100
AcDbLine
 10
2768.554111448858
 20
-3210.569668152945
 30
0.0
 11
818.5541114488581
 21
-3210.569668152945
 31
0.0
  0
LINE
  5
6C
330
1F
100
AcDbEntity
  8
1-4_枠
  6
Continuous
 62
    92
370
     5
100
AcDbLine
 10
2768.554111448858
 20
-2996.175511699664
 30
0.0
 11
2757.947509731062
 21
-2985.568909981867
 31
0.0
  0
LINE
  5
6D
330
1F
100
AcDbEntity
  8
1-4_枠
  6
Continuous
 62
    92
370
     5
100
AcDbLine
 10
2761.054111448857
 20
-3210.570183137084
 30
0.0
 11
2761.054111448857
 21
-2993.068194726126
 31
0.0
  0
LINE
  5
6E
330
1F
100
AcDbEntity
  8
1-4_枠
  6
Continuous
 62
    92
370
     5
100
AcDbLine
 10
2768.554111448858
 20
-2996.175511699664
 30
0.0
 11
2768.554111448858
 21
-3210.569668152945
 31
0.0
  0
LINE
  5
6F
330
1F
100
AcDbEntity
  8
1-B_ﾊｯﾁ
  6
Continuous
 62
   120
370
     5
100
AcDbLine
 10
818.5541114488581
 20
-2835.568395668809
 30
0.0
 11
1508.554111448845
 21
-2835.568395668809
 31
0.0
  0
LINE
  5
70
330
1F
100
AcDbEntity
  8
1-4_枠
  6
Continuous
 62
    92
370
     5
100
AcDbLine
 10
1574.554111448846
 20
-3075.568909981871
 30
0.0
 11
1442.554111448844
 21
-3075.568909981871
 31
0.0
  0
LINE
  5
71
330
1F
100
AcDbEntity
  8
1-4_枠
  6
Continuous
 62
    92
370
     5
100
AcDbLine
 10
826.0541114488581
 20
-2993.068194726126
 30
0.0
 11
1442.554111448844
 21
-2993.068194726126
 31
0.0
  0
LINE
  5
72
330
1F
100
AcDbEntity
  8
1-4_枠
  6
Continuous
 62
    92
370
     5
100
AcDbLine
 10
829.1607131666547
 20
-2985.568909981867
 30
0.0
 11
1442.554111448844
 21
-2985.568909981867
 31
0.0
  0
LINE
  5
73
330
1F
100
AcDbEntity
  8
1-4_枠
  6
Continuous
 62
    92
370
     5
100
AcDbLine
 10
1442.554111448844
 20
-3075.568909981871
 30
0.0
 11
1442.554111448844
 21
-2985.568909981867
 31
0.0
  0
LINE
  5
74
330
1F
100
AcDbEntity
  8
1-4_枠
  6
Continuous
 62
    92
370
     5
100
AcDbLine
 10
1574.554111448846
 20
-3075.568909981871
 30
0.0
 11
1574.554111448846
 21
-2985.568909981867
 31
0.0
  0
LINE
  5
75
330
1F
100
AcDbEntity
  8
1-0_補助線
  6
JWW_HOJO
 62
   120
370
     5
100
AcDbLine
 10
1508.554111448845
 20
-2940.568395668809
 30
0.0
 11
1508.554111448845
 21
-3255.569668824021
 31
0.0
  0
MTEXT
  5
76
330
1F
100
AcDbEntity
  8
1-B_ﾊｯﾁ
  6
Continuous
 62
     7
370
   211
100
AcDbMText
 10
1696.054111448859
 20
-2666.038395668808
 30
0.0
 40
99.06
 41
195.0
 46
0.0
 71
     7
 72
     1
  1
{\fＭＳ ゴシック|b0|i0|c128|p49;130}
 73
     1
 44
1.0
  0
MTEXT
  5
77
330
1F
100
AcDbEntity
  8
1-B_ﾊｯﾁ
  6
Continuous
 62
     7
370
   211
100
AcDbMText
 10
1107.304111448859
 20
-2831.990895668809
 30
0.0
 40
97.15499999999999
 41
127.5
 46
0.0
 71
     7
 72
     1
  1
{\fＭＳ ゴシック|b0|i0|c128|p49;46}
 73
     1
 44
1.0
  0
LINE
  5
78
330
1F
100
AcDbEntity
  8
1-B_ﾊｯﾁ
  6
Continuous
 62
   120
370
     5
100
AcDbLine
 10
2768.554111448858
 20
-2835.568395668809
 30
0.0
 11
1508.554111448845
 21
-2835.568395668809
 31
0.0
  0
LWPOLYLINE
  5
79
330
1F
100
AcDbEntity
  8
1-B_ﾊｯﾁ
  6
Continuous
 62
     7
370
     5
100
AcDbPolyline
 90
        4
 70
     1
 43
3.0
 10
2770.054111448858
 20
-2835.568395668809
 42
0.4142135623731
 10
2768.554111448858
 20
-2834.068395668809
 42
0.4142135623731
 10
2767.054111448859
 20
-2835.568395668809
 42
0.4142135623731
 10
2768.554111448858
 20
-2837.068395668809
 42
0.4142135623731
  0
LWPOLYLINE
  5
7A
330
1F
100
AcDbEntity
  8
1-B_ﾊｯﾁ
  6
Continuous
 62
     7
370
     5
100
AcDbPolyline
 90
        4
 70
     1
 43
3.0
 10
1510.054111448845
 20
-2835.568395668809
 42
0.4142135623731
 10
1508.554111448845
 20
-2834.068395668809
 42
0.4142135623731
 10
1507.054111448845
 20
-2835.568395668809
 42
0.4142135623731
 10
1508.554111448845
 20
-2837.068395668809
 42
0.4142135623731
  0
LINE
  5
7B
330
1F
100
AcDbEntity
  8
1-B_ﾊｯﾁ
  6
Continuous
 62
   120
370
     5
100
AcDbLine
 10
1508.554111448845
 20
-2835.568395668809
 30
0.0
 11
1508.554111448845
 21
-2940.568395668809
 31
0.0
  0
MTEXT
  5
7C
330
1F
100
AcDbEntity
  8
1-B_ﾊｯﾁ
  6
Continuous
 62
     7
370
   211
100
AcDbMText
 10
2074.804111448851
 20
-2831.990895668809
 30
0.0
 40
97.15499999999999
 41
127.5
 46
0.0
 71
     7
 72
     1
  1
{\fＭＳ ゴシック|b0|i0|c128|p49;84}
 73
     1
 44
1.0
  0
LINE
  5
7D
330
1F
100
AcDbEntity
  8
1-4_枠
  6
Continuous
 62
    92
370
     5
100
AcDbLine
 10
2757.947509731062
 20
-2985.568909981867
 30
0.0
 11
1574.554111448846
 21
-2985.568909981867
 31
0.0
  0
LINE
  5
7E
330
1F
100
AcDbEntity
  8
1-4_枠
  6
Continuous
 62
    92
370
     5
100
AcDbLine
 10
2761.054111448857
 20
-2993.068194726126
 30
0.0
 11
1574.554111448846
 21
-2993.068194726126
 31
0.0
  0
LINE
  5
7F
330
1F
100
AcDbEntity
  8
1-B_ﾊｯﾁ
  6
Continuous
 62
   120
370
     5
100
AcDbLine
 10
670.913827336085
 20
-3210.569668152945
 30
0.0
 11
670.913827336085
 21
-2985.568909981867
 31
0.0
  0
LWPOLYLINE
  5
80
330
1F
100
AcDbEntity
  8
1-B_ﾊｯﾁ
  6
Continuous
 62
     7
370
     5
100
AcDbPolyline
 90
        4
 70
     1
 43
3.0
 10
672.413827336085
 20
-3210.569668152945
 42
0.4142135623731
 10
670.913827336085
 20
-3209.069668152945
 42
0.4142135623731
 10
669.413827336085
 20
-3210.569668152945
 42
0.4142135623731
 10
670.913827336085
 20
-3212.069668152945
 42
0.4142135623731
  0
LWPOLYLINE
  5
81
330
1F
100
AcDbEntity
  8
1-B_ﾊｯﾁ
  6
Continuous
 62
     7
370
     5
100
AcDbPolyline
 90
        4
 70
     1
 43
3.0
 10
672.413827336085
 20
-2985.568909981867
 42
0.4142135623731
 10
670.913827336085
 20
-2984.068909981867
 42
0.4142135623731
 10
669.413827336085
 20
-2985.568909981867
 42
0.4142135623731
 10
670.913827336085
 20
-2987.068909981867
 42
0.4142135623731
  0
LINE
  5
82
330
1F
100
AcDbEntity
  8
1-B_ﾊｯﾁ
  6
Continuous
 62
   120
370
     5
100
AcDbLine
 10
670.913827336085
 20
-3210.569668152945
 30
0.0
 11
773.5541114488581
 21
-3210.569668152945
 31
0.0
  0
LINE
  5
83
330
1F
100
AcDbEntity
  8
1-B_ﾊｯﾁ
  6
Continuous
 62
   120
370
     5
100
AcDbLine
 10
670.913827336085
 20
-2985.568909981867
 30
0.0
 11
773.5541114488581
 21
-2985.568909981867
 31
0.0
  0
MTEXT
  5
84
330
1F
100
AcDbEntity
  8
1-B_ﾊｯﾁ
  6
Continuous
 62
     7
370
   211
100
AcDbMText
 10
655.913827336085
 20
-3173.241789067406
 30
0.0
 40
97.15499999999999
 41
127.5
 46
0.0
 71
     7
 72
     1
  1
{\fＭＳ ゴシック|b0|i0|c128|p49;15}
 11
6.123031769111886E-17
 21
1.0
 31
0.0
 73
     1
 44
1.0
  0
LINE
  5
85
330
1F
100
AcDbEntity
  8
0-A_文字
  6
Continuous
 62
     7
370
     5
100
AcDbLine
 10
1280.91858408329
 20
-1881.941721056148
 30
0.0
 11
1154.441305857526
 21
-1976.79967972547
 31
0.0
  0
LINE
  5
86
330
1F
100
AcDbEntity
  8
0-A_文字
  6
Continuous
 62
     7
370
     5
100
AcDbLine
 10
1095.372772298688
 20
-1976.79967972547
 30
0.0
 11
1154.441305857526
 21
-1976.79967972547
 31
0.0
  0
LINE
  5
87
330
1F
100
AcDbEntity
  8
0-1_通り芯
  6
JWW_CENTER1
 62
   120
370
     5
100
AcDbLine
 10
1709.918584083289
 20
-978.8487130029711
 30
0.0
 11
1709.918584083289
 21
-2157.890269882559
 31
0.0
  0
MTEXT
  5
88
330
1F
100
AcDbEntity
  8
0-A_文字
  6
Continuous
 62
     7
370
     0
100
AcDbMText
 10
834.8087422916592
 20
-2053.727093482231
 30
0.0
 40
91.43999999999994
 41
239.9999999999999
 46
0.0
 71
     7
 72
     1
  1
{\fＭＳ ゴシック|b0|i0|c128|p49;畳寄}
 73
     1
 44
1.0
  0
MTEXT
  5
89
330
1F
100
AcDbEntity
  8
0-A_文字
  6
Continuous
 62
     7
370
     0
100
AcDbMText
 10
2319.31038606756
 20
-1812.457802818682
 30
0.0
 40
91.44
 41
120.0
 46
0.0
 71
     7
 72
     1
  1
{\fＭＳ ゴシック|b0|i0|c128|p49;床}
 73
     1
 44
1.0
  0
MTEXT
  5
8A
330
1F
100
AcDbEntity
  8
0-A_文字
  6
Continuous
 62
     7
370
     5
100
AcDbMText
 10
2080.449599278792
 20
-1145.497320249633
 30
0.0
 40
91.44
 41
600.0
 46
0.0
 71
     7
 72
     1
  1
{\fＭＳ ゴシック|b0|i0|c128|p49;（洋室側）}
 73
     1
 44
1.0
  0
MTEXT
  5
8B
330
1F
100
AcDbEntity
  8
0-A_文字
  6
Continuous
 62
     7
370
     5
100
AcDbMText
 10
622.4794987358007
 20
-1162.311152873967
 30
0.0
 40
91.44000000000005
 41
600.0000000000003
 46
0.0
 71
     7
 72
     1
  1
{\fＭＳ ゴシック|b0|i0|c128|p49;（和室側）}
 73
     1
 44
1.0
  0
MTEXT
  5
8C
330
1F
100
AcDbEntity
  8
0-A_文字
  6
Continuous
 62
     7
370
     0
100
AcDbMText
 10
1289.918584083289
 20
-993.128713002971
 30
0.0
 40
91.44
 41
840.0
 46
0.0
 71
     7
 72
     1
  1
{\fＭＳ ゴシック|b0|i0|c128|p49;壁(枠)センター}
 73
     1
 44
1.0
  0
LINE
  5
8D
330
1F
100
AcDbEntity
  8
F-0_補助線
  6
JWW_HOJO
 62
   120
370
     5
100
AcDbLine
 10
-6140.081333436773
 20
-4455.0
 30
0.0
 11
-6140.081333436773
 21
4424.999604096284
 31
0.0
  0
LINE
  5
8E
330
1F
100
AcDbEntity
  8
F-0_補助線
  6
JWW_HOJO
 62
   120
370
     5
100
AcDbLine
 10
-6140.081333436773
 20
4424.999604096284
 30
0.0
 11
6159.917676803936
 21
4424.999604096284
 31
0.0
  0
LINE
  5
8F
330
1F
100
AcDbEntity
  8
F-0_補助線
  6
JWW_HOJO
 62
   120
370
     5
100
AcDbLine
 10
6159.917676803936
 20
4424.999604096284
 30
0.0
 11
6159.917676803936
 21
-4455.0
 31
0.0
  0
LINE
  5
90
330
1F
100
AcDbEntity
  8
F-0_補助線
  6
JWW_HOJO
 62
   120
370
     5
100
AcDbLine
 10
6159.917676803936
 20
-4455.0
 30
0.0
 11
-6140.081333436773
 21
-4455.0
 31
0.0
  0
LINE
  5
91
330
1F
100
AcDbEntity
  8
F-0_補助線
  6
JWW_HOJO
 62
     7
370
     5
100
AcDbLine
 10
509.9185840832865
 20
-3795.000003092998
 30
0.0
 11
509.9185840832865
 21
-4195.000008247994
 31
0.0
  0
LINE
  5
92
330
1F
100
AcDbEntity
  8
F-1_枠
  6
Continuous
 62
   200
370
     5
100
AcDbLine
 10
5859.917429364114
 20
4174.999769056166
 30
0.0
 11
5859.917429364114
 21
-4205.000164959882
 31
0.0
  0
LINE
  5
93
330
1F
100
AcDbEntity
  8
F-1_枠
  6
Continuous
 62
   200
370
     5
100
AcDbLine
 10
-5840.081317971782
 20
4174.999769056166
 30
0.0
 11
-5840.081317971782
 21
-4205.000164959882
 31
0.0
  0
LINE
  5
94
330
1F
100
AcDbEntity
  8
F-1_枠
  6
Continuous
 62
   200
370
     5
100
AcDbLine
 10
5859.917429364114
 20
-4205.000002577498
 30
0.0
 11
-5840.081085996952
 21
-4205.000002577498
 31
0.0
  0
LINE
  5
95
330
1F
100
AcDbEntity
  8
F-1_枠
  6
Continuous
 62
   200
370
     5
100
AcDbLine
 10
-5830.081323642279
 20
4174.999769056166
 30
0.0
 11
-5830.081323642279
 21
-4205.000164959882
 31
0.0
  0
LINE
  5
96
330
1F
100
AcDbEntity
  8
F-1_枠
  6
Continuous
 62
   200
370
     5
100
AcDbLine
 10
-5835.081309208291
 20
4174.999769056166
 30
0.0
 11
-5835.081309208291
 21
-4205.000164959882
 31
0.0
  0
LINE
  5
97
330
1F
100
AcDbEntity
  8
F-1_枠
  6
Continuous
 62
   200
370
     5
100
AcDbLine
 10
5854.917165428304
 20
4174.999769056166
 30
0.0
 11
5854.917165428304
 21
-4205.000164959882
 31
0.0
  0
LINE
  5
98
330
1F
100
AcDbEntity
  8
F-1_枠
  6
Continuous
 62
   200
370
     5
100
AcDbLine
 10
5849.917643811961
 20
4174.999769056166
 30
0.0
 11
5849.917643811961
 21
-4205.000164959882
 31
0.0
  0
LINE
  5
99
330
1F
100
AcDbEntity
  8
F-1_枠
  6
Continuous
 62
   200
370
     5
100
AcDbLine
 10
5859.917429364114
 20
-4199.999993814004
 30
0.0
 11
-5840.081085996952
 21
-4199.999993814004
 31
0.0
  0
LINE
  5
9A
330
1F
100
AcDbEntity
  8
F-1_枠
  6
Continuous
 62
   200
370
     5
100
AcDbLine
 10
5859.917429364114
 20
-4195.000008247994
 30
0.0
 11
-5840.081085996952
 21
-4195.000008247994
 31
0.0
  0
LINE
  5
9B
330
1F
100
AcDbEntity
  8
F-1_枠
  6
Continuous
 62
   200
370
     5
100
AcDbLine
 10
4349.917891251784
 20
-3795.000003092998
 30
0.0
 11
4349.917891251784
 21
-4195.000008247994
 31
0.0
  0
LINE
  5
9C
330
1F
100
AcDbEntity
  8
F-1_枠
  6
Continuous
 62
   200
370
     5
100
AcDbLine
 10
2849.917396372139
 20
-3795.000003092998
 30
0.0
 11
2849.917396372139
 21
-4195.000008247994
 31
0.0
  0
LINE
  5
9D
330
1F
100
AcDbEntity
  8
F-1_枠
  6
Continuous
 62
   200
370
     5
100
AcDbLine
 10
9.918542843316231
 20
-3795.000003092998
 30
0.0
 11
9.918542843316231
 21
-4195.000008247994
 31
0.0
  0
LINE
  5
9E
330
1F
100
AcDbEntity
  8
F-1_枠
  6
Continuous
 62
   200
370
     5
100
AcDbLine
 10
9.918542843316231
 20
-3994.999936078046
 30
0.0
 11
5849.917643811961
 21
-3995.005364289155
 31
0.0
  0
LINE
  5
9F
330
1F
100
AcDbEntity
  8
F-1_枠
  6
Continuous
 62
   200
370
     5
100
AcDbLine
 10
-5840.081085996952
 20
4174.999769056166
 30
0.0
 11
5859.917429364114
 21
4174.999769056166
 31
0.0
  0
LINE
  5
A0
330
1F
100
AcDbEntity
  8
F-1_枠
  6
Continuous
 62
   200
370
     5
100
AcDbLine
 10
-5840.081085996952
 20
4164.999983504013
 30
0.0
 11
5859.917429364114
 21
4164.999983504013
 31
0.0
  0
LINE
  5
A1
330
1F
100
AcDbEntity
  8
F-1_枠
  6
Continuous
 62
   200
370
     5
100
AcDbLine
 10
-5840.081085996952
 20
4169.999505120355
 30
0.0
 11
5859.917429364114
 21
4169.999505120355
 31
0.0
  0
LINE
  5
A2
330
1F
100
AcDbEntity
  8
F-0_補助線
  6
JWW_HOJO
 62
     7
370
     5
100
AcDbLine
 10
-5830.081323642279
 20
-3994.99993607839
 30
0.0
 11
9.918542843316231
 21
-3994.99993607839
 31
0.0
  0
LINE
  5
A3
330
1F
100
AcDbEntity
  8
F-0_補助線
  6
JWW_HOJO
 62
     7
370
     5
100
AcDbLine
 10
-5830.081323642279
 20
-3904.99993607839
 30
0.0
 11
9.918542843316231
 21
-3904.99993607839
 31
0.0
  0
LINE
  5
A4
330
1F
100
AcDbEntity
  8
F-0_補助線
  6
JWW_HOJO
 62
     7
370
     5
100
AcDbLine
 10
-5830.081323642279
 20
-4084.99993607839
 30
0.0
 11
9.918542843316231
 21
-4084.99993607839
 31
0.0
  0
LINE
  5
A5
330
1F
100
AcDbEntity
  8
F-0_補助線
  6
JWW_HOJO
 62
     7
370
     5
100
AcDbLine
 10
9.918408067688347
 20
-4139.999739777983
 30
0.0
 11
5849.917509036332
 21
-4140.005167989091
 31
0.0
  0
LINE
  5
A6
330
1F
100
AcDbEntity
  8
F-0_補助線
  6
JWW_HOJO
 62
     7
370
     5
100
AcDbLine
 10
9.918491721639953
 20
-4049.999739778022
 30
0.0
 11
5849.917592690284
 21
-4050.005167989131
 31
0.0
  0
LINE
  5
A7
330
1F
100
AcDbEntity
  8
F-0_補助線
  6
JWW_HOJO
 62
     7
370
     5
100
AcDbLine
 10
9.918593965360003
 20
-3939.99973721807
 30
0.0
 11
5849.917694934004
 21
-3940.005165429179
 31
0.0
  0
LINE
  5
A8
330
1F
100
AcDbEntity
  8
F-0_補助線
  6
JWW_HOJO
 62
     7
370
     5
100
AcDbLine
 10
9.918677619311609
 20
-3849.999737218109
 30
0.0
 11
5849.917778587956
 21
-3850.005165429218
 31
0.0
  0
LINE
  5
A9
330
1F
100
AcDbEntity
  8
F-0_補助線
  6
JWW_HOJO
 62
     7
370
     5
100
AcDbLine
 10
2939.917396372139
 20
-3795.000003092998
 30
0.0
 11
2939.917396372139
 21
-4195.000008247994
 31
0.0
  0
LINE
  5
AA
330
1F
100
AcDbEntity
  8
F-0_補助線
  6
JWW_HOJO
 62
     7
370
     5
100
AcDbLine
 10
99.91854284331623
 20
-3795.000003092998
 30
0.0
 11
99.91854284331623
 21
-4195.000008247994
 31
0.0
  0
LINE
  5
AB
330
1F
100
AcDbEntity
  8
F-0_補助線
  6
JWW_HOJO
 62
     7
370
     5
100
AcDbLine
 10
4439.917891251784
 20
-3795.000003092998
 30
0.0
 11
4439.917891251784
 21
-4195.000008247994
 31
0.0
  0
MTEXT
  5
AC
330
1F
100
AcDbEntity
  8
F-A_文字
  6
Continuous
 62
     7
370
     0
100
AcDbMText
 10
4439.917891251784
 20
-3887.143854850754
 30
0.0
 40
45.72
 41
240.0
 46
0.0
 71
     7
 72
     1
  1
{\fＭＳ ゴシック|b0|i0|c128|p49;ＤＡＴＥ}
 73
     1
 44
1.0
  0
MTEXT
  5
AD
330
1F
100
AcDbEntity
  8
F-A_文字
  6
Continuous
 62
     7
370
     0
100
AcDbMText
 10
4439.917891251784
 20
-4087.143857410839
 30
0.0
 40
45.72
 41
180.0
 46
0.0
 71
     7
 72
     1
  1
{\fＭＳ ゴシック|b0|i0|c128|p49;ＮＯ．}
 73
     1
 44
1.0
  0
MTEXT
  5
AE
330
1F
100
AcDbEntity
  8
F-A_文字
  6
Continuous
 62
     7
370
     0
100
AcDbMText
 10
2939.917396372139
 20
-3887.142460617774
 30
0.0
 40
45.72
 41
300.0
 46
0.0
 71
     7
 72
     1
  1
{\fＭＳ ゴシック|b0|i0|c128|p49;ＳＣＡＬＥ}
 73
     1
 44
1.0
  0
MTEXT
  5
AF
330
1F
100
AcDbEntity
  8
F-A_文字
  6
Continuous
 62
     7
370
     0
100
AcDbMText
 10
2939.917396372139
 20
-4087.14246317786
 30
0.0
 40
45.72
 41
240.0
 46
0.0
 71
     7
 72
     1
  1
{\fＭＳ ゴシック|b0|i0|c128|p49;ＦＩＬＥ}
 73
     1
 44
1.0
  0
MTEXT
  5
B0
330
1F
100
AcDbEntity
  8
F-A_文字
  6
Continuous
 62
     7
370
     0
100
AcDbMText
 10
99.91854284331623
 20
-3887.139820871936
 30
0.0
 40
45.72
 41
180.0
 46
0.0
 71
     7
 72
     1
  1
{\fＭＳ ゴシック|b0|i0|c128|p49;図面名}
 73
     1
 44
1.0
  0
MTEXT
  5
B1
330
1F
100
AcDbEntity
  8
F-A_文字
  6
Continuous
 62
     7
370
     0
100
AcDbMText
 10
1604.917396372138
 20
-4164.281754523929
 30
0.0
 40
101.44125
 41
1065.0
 46
0.0
 71
     7
 72
     1
  1
{\fＭＳ ゴシック|b0|i0|c128|p49;ウッドワン・・・}
 73
     1
 44
1.0
  0
MTEXT
  5
B2
330
1F
100
AcDbEntity
  8
F-A_文字
  6
Continuous
 62
     7
370
     0
100
AcDbMText
 10
1394.917396372138
 20
-4096.140669266149
 30
0.0
 40
45.72
 41
120.0
 46
0.0
 71
     7
 72
     1
  1
{\fＭＳ ゴシック|b0|i0|c128|p49;株式}
 73
     1
 44
1.0
  0
MTEXT
  5
B3
330
1F
100
AcDbEntity
  8
F-A_文字
  6
Continuous
 62
     7
370
     0
100
AcDbMText
 10
1394.917396372138
 20
-4168.140669266187
 30
0.0
 40
45.72
 41
120.0
 46
0.0
 71
     7
 72
     1
  1
{\fＭＳ ゴシック|b0|i0|c128|p49;会社}
 73
     1
 44
1.0
  0
LINE
  5
B4
330
1F
100
AcDbEntity
  8
F-1_枠
  6
Continuous
 62
   200
370
     5
100
AcDbLine
 10
5859.917429364114
 20
-3795.000003092998
 30
0.0
 11
-5840.081085996952
 21
-3795.000003092998
 31
0.0
  0
LINE
  5
B5
330
1F
100
AcDbEntity
  8
F-1_枠
  6
Continuous
 62
   200
370
     5
100
AcDbLine
 10
5859.917429364114
 20
-3790.000017526987
 30
0.0
 11
-5840.081085996952
 21
-3790.000017526987
 31
0.0
  0
LINE
  5
B6
330
1F
100
AcDbEntity
  8
F-0_補助線
  6
JWW_HOJO
 62
     7
370
     5
100
AcDbLine
 10
-5087.628710189611
 20
-3795.000003092999
 30
0.0
 11
-5087.628710189611
 21
-4205.000164959882
 31
0.0
  0
LINE
  5
B7
330
1F
100
AcDbEntity
  8
F-0_補助線
  6
JWW_HOJO
 62
     7
370
     5
100
AcDbLine
 10
-50.08145715668377
 20
-3795.000003092998
 30
0.0
 11
-50.08145715668377
 21
-4195.000008247994
 31
0.0
  0
LINE
  5
B8
330
1F
100
AcDbEntity
  8
仕上げ
  6
Continuous
 62
    40
370
     5
100
AcDbLine
 10
548.282511488871
 20
2861.962168973789
 30
0.0
 11
1562.259528081815
 21
2861.962168973789
 31
0.0
  0
LINE
  5
B9
330
1F
100
AcDbEntity
  8
仕上げ
  6
Continuous
 62
    40
370
     5
100
AcDbLine
 10
-394.7191607527877
 20
2861.962168973789
 30
0.0
 11
428.282511488871
 21
2861.962168973789
 31
0.0
  0
LINE
  5
BA
330
1F
100
AcDbEntity
  8
仕上げ
  6
Continuous
 62
    40
370
     5
100
AcDbLine
 10
-1438.719160172431
 20
2861.962168973789
 30
0.0
 11
-514.7191607527877
 21
2861.962168973789
 31
0.0
  0
LINE
  5
BB
330
1F
100
AcDbEntity
  8
0-6_扉
  6
Continuous
 62
   200
370
     5
100
AcDbLine
 10
10.95956973693617
 20
2585.962168973788
 30
0.0
 11
10.95956973693617
 21
2405.962168973788
 31
0.0
  0
LINE
  5
BC
330
1F
100
AcDbEntity
  8
ハッチ
  6
JWW_DASHED1
 62
   120
370
     5
100
AcDbLine
 10
2569.320093267656
 20
2696.962168973785
 30
0.0
 11
2591.216312891613
 21
2718.858388597736
 31
0.0
  0
LINE
  5
BD
330
1F
100
AcDbEntity
  8
ハッチ
  6
JWW_DASHED1
 62
   120
370
     5
100
AcDbLine
 10
2526.893686396463
 20
2696.962168973789
 30
0.0
 11
2591.216312891616
 21
2761.284795468939
 31
0.0
  0
LINE
  5
BE
330
1F
100
AcDbEntity
  8
ハッチ
  6
JWW_DASHED1
 62
   120
370
     5
100
AcDbLine
 10
2484.467279525266
 20
2696.962168973792
 30
0.0
 11
2559.467279525263
 21
2771.962168973789
 31
0.0
  0
LINE
  5
BF
330
1F
100
AcDbEntity
  8
ハッチ
  6
JWW_DASHED1
 62
   120
370
     5
100
AcDbLine
 10
2442.04087265407
 20
2696.962168973796
 30
0.0
 11
2517.040872654066
 21
2771.962168973792
 31
0.0
  0
LINE
  5
C0
330
1F
100
AcDbEntity
  8
ハッチ
  6
JWW_DASHED1
 62
   120
370
     5
100
AcDbLine
 10
2399.614465782918
 20
2696.962168973789
 30
0.0
 11
2474.614465782911
 21
2771.962168973785
 31
0.0
  0
LINE
  5
C1
330
1F
100
AcDbEntity
  8
ハッチ
  6
JWW_DASHED1
 62
   120
370
     5
100
AcDbLine
 10
2357.188058911721
 20
2696.962168973792
 30
0.0
 11
2432.188058911718
 21
2771.962168973789
 31
0.0
  0
LINE
  5
C2
330
1F
100
AcDbEntity
  8
ハッチ
  6
JWW_DASHED1
 62
   120
370
     5
100
AcDbLine
 10
2314.761652040511
 20
2696.962168973782
 30
0.0
 11
2389.761652040521
 21
2771.962168973792
 31
0.0
  0
LINE
  5
C3
330
1F
100
AcDbEntity
  8
ハッチ
  6
JWW_DASHED1
 62
   120
370
     5
100
AcDbLine
 10
2272.33524516931
 20
2696.962168973785
 30
0.0
 11
2347.335245169324
 21
2771.962168973796
 31
0.0
  0
LINE
  5
C4
330
1F
100
AcDbEntity
  8
ハッチ
  6
JWW_DASHED1
 62
   120
370
     5
100
AcDbLine
 10
2073.730190378611
 20
2246.962168973787
 30
0.0
 11
2081.299750059788
 21
2254.531728654962
 31
0.0
  0
LINE
  5
C5
330
1F
100
AcDbEntity
  8
ハッチ
  6
JWW_DASHED1
 62
   120
370
     5
100
AcDbLine
 10
2031.303783507399
 20
2246.962168973776
 30
0.0
 11
2081.299750059797
 21
2296.958135526173
 31
0.0
  0
LINE
  5
C6
330
1F
100
AcDbEntity
  8
ハッチ
  6
JWW_DASHED1
 62
   120
370
     5
100
AcDbLine
 10
1988.877376636203
 20
2246.962168973779
 30
0.0
 11
2060.877376636202
 21
2318.962168973778
 31
0.0
  0
LINE
  5
C7
330
1F
100
AcDbEntity
  8
ハッチ
  6
JWW_DASHED1
 62
   120
370
     5
100
AcDbLine
 10
1946.450969765006
 20
2246.962168973783
 30
0.0
 11
2018.450969765006
 21
2318.962168973781
 31
0.0
  0
LINE
  5
C8
330
1F
100
AcDbEntity
  8
ハッチ
  6
JWW_DASHED1
 62
   120
370
     5
100
AcDbLine
 10
1904.024562893812
 20
2246.962168973787
 30
0.0
 11
1976.024562893812
 21
2318.962168973786
 31
0.0
  0
LINE
  5
C9
330
1F
100
AcDbEntity
  8
ハッチ
  6
JWW_DASHED1
 62
   120
370
     5
100
AcDbLine
 10
1861.598156022617
 20
2246.962168973792
 30
0.0
 11
1933.598156022614
 21
2318.96216897379
 31
0.0
  0
LINE
  5
CA
330
1F
100
AcDbEntity
  8
ハッチ
  6
JWW_DASHED1
 62
   120
370
     5
100
AcDbLine
 10
1819.171749151418
 20
2246.962168973794
 30
0.0
 11
1891.171749151419
 21
2318.962168973795
 31
0.0
  0
LINE
  5
CB
330
1F
100
AcDbEntity
  8
ハッチ
  6
JWW_DASHED1
 62
   120
370
     5
100
AcDbLine
 10
1776.745342280268
 20
2246.962168973789
 30
0.0
 11
1848.74534228025
 21
2318.962168973772
 31
0.0
  0
LINE
  5
CC
330
1F
100
AcDbEntity
  8
ハッチ
  6
JWW_DASHED1
 62
   120
370
     5
100
AcDbLine
 10
1734.318935409058
 20
2246.962168973778
 30
0.0
 11
1806.318935409055
 21
2318.962168973776
 31
0.0
  0
LINE
  5
CD
330
1F
100
AcDbEntity
  8
0-7_金物
  6
Continuous
 62
     7
370
     5
100
AcDbLine
 10
-2125.380610585909
 20
2480.962168973788
 30
0.0
 11
-2125.380610585909
 21
2510.962168973788
 31
0.0
  0
LINE
  5
CE
330
1F
100
AcDbEntity
  8
0-7_金物
  6
Continuous
 62
     7
370
     5
100
AcDbLine
 10
-2095.380610585909
 20
2450.962168973788
 30
0.0
 11
-2077.380610585909
 21
2450.962168973788
 31
0.0
  0
LINE
  5
CF
330
1F
100
AcDbEntity
  8
0-7_金物
  6
Continuous
 62
     7
370
     5
100
AcDbLine
 10
-2077.380610585909
 20
2540.962168973788
 30
0.0
 11
-2095.380610585909
 21
2540.962168973788
 31
0.0
  0
LINE
  5
D0
330
1F
100
AcDbEntity
  8
0-7_金物
  6
Continuous
 62
     7
370
     5
100
AcDbLine
 10
-2095.380610585909
 20
2540.962168973788
 30
0.0
 11
-2095.380610585909
 21
2450.962168973788
 31
0.0
  0
LINE
  5
D1
330
1F
100
AcDbEntity
  8
0-7_金物
  6
Continuous
 62
     7
370
     5
100
AcDbLine
 10
-2095.380610585909
 20
2480.962168973788
 30
0.0
 11
-2125.380610585909
 21
2480.962168973788
 31
0.0
  0
LINE
  5
D2
330
1F
100
AcDbEntity
  8
0-7_金物
  6
Continuous
 62
     7
370
     5
100
AcDbLine
 10
-2125.380610585909
 20
2510.962168973788
 30
0.0
 11
-2095.380610585909
 21
2510.962168973788
 31
0.0
  0
ARC
  5
D3
330
1F
100
AcDbEntity
  8
0-7_金物
  6
Continuous
 62
     7
370
     5
100
AcDbCircle
 10
-2243.13061058591
 20
2495.962168973788
 30
0.0
 40
171.7499999999977
100
AcDbArc
 50
344.8107132628169
 51
15.1892867371831
  0
LINE
  5
D4
330
1F
100
AcDbEntity
  8
0-7_金物
  6
Continuous
 62
     7
370
     5
100
AcDbLine
 10
2147.299750059783
 20
2480.962168973788
 30
0.0
 11
2147.299750059783
 21
2510.962168973788
 31
0.0
  0
LINE
  5
D5
330
1F
100
AcDbEntity
  8
0-7_金物
  6
Continuous
 62
     7
370
     5
100
AcDbLine
 10
2117.299750059783
 20
2450.962168973788
 30
0.0
 11
2099.299750059782
 21
2450.962168973788
 31
0.0
  0
LINE
  5
D6
330
1F
100
AcDbEntity
  8
0-7_金物
  6
Continuous
 62
     7
370
     5
100
AcDbLine
 10
2099.299750059782
 20
2540.962168973788
 30
0.0
 11
2117.299750059783
 21
2540.962168973788
 31
0.0
  0
LINE
  5
D7
330
1F
100
AcDbEntity
  8
0-7_金物
  6
Continuous
 62
     7
370
     5
100
AcDbLine
 10
2117.299750059783
 20
2540.962168973788
 30
0.0
 11
2117.299750059783
 21
2450.962168973788
 31
0.0
  0
LINE
  5
D8
330
1F
100
AcDbEntity
  8
0-7_金物
  6
Continuous
 62
     7
370
     5
100
AcDbLine
 10
2117.299750059783
 20
2480.962168973788
 30
0.0
 11
2147.299750059783
 21
2480.962168973788
 31
0.0
  0
LINE
  5
D9
330
1F
100
AcDbEntity
  8
0-7_金物
  6
Continuous
 62
     7
370
     5
100
AcDbLine
 10
2147.299750059783
 20
2510.962168973788
 30
0.0
 11
2117.299750059783
 21
2510.962168973788
 31
0.0
  0
ARC
  5
DA
330
1F
100
AcDbEntity
  8
0-7_金物
  6
Continuous
 62
     7
370
     5
100
AcDbCircle
 10
2265.049750059783
 20
2495.962168973788
 30
0.0
 40
171.7499999999977
100
AcDbArc
 50
164.8107132628169
 51
195.1892867371831
  0
LINE
  5
DB
330
1F
100
AcDbEntity
  8
0-6_扉
  6
Continuous
 62
   200
370
     5
100
AcDbLine
 10
-1123.210520424487
 20
2585.962168973788
 30
0.0
 11
-1123.210520424487
 21
2405.962168973788
 31
0.0
  0
LINE
  5
DC
330
1F
100
AcDbEntity
  8
0-6_扉
  6
Continuous
 62
   200
370
     5
100
AcDbLine
 10
1145.129659898359
 20
2585.962168973788
 30
0.0
 11
1145.129659898359
 21
2405.962168973788
 31
0.0
  0
LINE
  5
DD
330
1F
100
AcDbEntity
  8
仕上げ
  6
Continuous
 62
    40
370
     5
100
AcDbLine
 10
2081.299750059785
 20
2318.962168973789
 30
0.0
 11
1682.259528081815
 21
2318.962168973789
 31
0.0
  0
LINE
  5
DE
330
1F
100
AcDbEntity
  8
仕上げ
  6
Continuous
 62
    40
370
     5
100
AcDbLine
 10
2591.21631289161
 20
1991.962168973789
 30
0.0
 11
1682.259528081815
 21
1991.962168973789
 31
0.0
  0
LINE
  5
DF
330
1F
100
AcDbEntity
  8
ハッチ
  6
JWW_DASHED1
 62
   120
370
     5
100
AcDbLine
 10
1682.259528081815
 20
2279.755575388936
 30
0.0
 11
1721.46612166666
 21
2318.962168973781
 31
0.0
  0
LINE
  5
E0
330
1F
100
AcDbEntity
  8
仕上げ
  6
Continuous
 62
    40
370
     5
100
AcDbLine
 10
2081.299750059785
 20
2246.962168973787
 30
0.0
 11
1682.259528081815
 21
2246.962168973787
 31
0.0
  0
LINE
  5
E1
330
1F
100
AcDbEntity
  8
仕上げ
  6
Continuous
 62
    40
370
     5
100
AcDbLine
 10
2591.21631289161
 20
2066.962168973789
 30
0.0
 11
1682.259528081815
 21
2066.962168973789
 31
0.0
  0
LINE
  5
E2
330
1F
100
AcDbEntity
  8
ハッチ
  6
JWW_DASHED1
 62
   120
370
     5
100
AcDbLine
 10
1691.892528537866
 20
2246.962168973787
 30
0.0
 11
1763.892528537857
 21
2318.962168973778
 31
0.0
  0
LINE
  5
E3
330
1F
100
AcDbEntity
  8
ハッチ
  6
JWW_DASHED1
 62
   120
370
     5
100
AcDbLine
 10
1450.23493947087
 20
2246.962168973792
 30
0.0
 11
1522.234939470867
 21
2318.96216897379
 31
0.0
  0
LINE
  5
E4
330
1F
100
AcDbEntity
  8
ハッチ
  6
JWW_DASHED1
 62
   120
370
     5
100
AcDbLine
 10
1407.808532599671
 20
2246.962168973796
 30
0.0
 11
1479.808532599672
 21
2318.962168973795
 31
0.0
  0
LINE
  5
E5
330
1F
100
AcDbEntity
  8
ハッチ
  6
JWW_DASHED1
 62
   120
370
     5
100
AcDbLine
 10
1365.382125728476
 20
2246.9621689738
 30
0.0
 11
1437.382125728474
 21
2318.962168973799
 31
0.0
  0
LINE
  5
E6
330
1F
100
AcDbEntity
  8
ハッチ
  6
JWW_DASHED1
 62
   120
370
     5
100
AcDbLine
 10
1322.955718857333
 20
2246.962168973803
 30
0.0
 11
1394.955718857317
 21
2318.962168973785
 31
0.0
  0
LINE
  5
E7
330
1F
100
AcDbEntity
  8
ハッチ
  6
JWW_DASHED1
 62
   120
370
     5
100
AcDbLine
 10
1280.529311986111
 20
2246.962168973779
 30
0.0
 11
1352.52931198611
 21
2318.962168973778
 31
0.0
  0
LINE
  5
E8
330
1F
100
AcDbEntity
  8
ハッチ
  6
JWW_DASHED1
 62
   120
370
     5
100
AcDbLine
 10
1238.102905114914
 20
2246.962168973783
 30
0.0
 11
1310.102905114913
 21
2318.962168973781
 31
0.0
  0
LINE
  5
E9
330
1F
100
AcDbEntity
  8
ハッチ
  6
JWW_DASHED1
 62
   120
370
     5
100
AcDbLine
 10
1195.676498243717
 20
2246.962168973786
 30
0.0
 11
1267.676498243717
 21
2318.962168973786
 31
0.0
  0
LINE
  5
EA
330
1F
100
AcDbEntity
  8
ハッチ
  6
JWW_DASHED1
 62
   120
370
     5
100
AcDbLine
 10
1153.250091372521
 20
2246.962168973792
 30
0.0
 11
1225.25009137252
 21
2318.96216897379
 31
0.0
  0
LINE
  5
EB
330
1F
100
AcDbEntity
  8
ハッチ
  6
JWW_DASHED1
 62
   120
370
     5
100
AcDbLine
 10
1535.087753213259
 20
2246.962168973783
 30
0.0
 11
1562.259528081815
 21
2274.133943842338
 31
0.0
  0
LINE
  5
EC
330
1F
100
AcDbEntity
  8
ハッチ
  6
JWW_DASHED1
 62
   120
370
     5
100
AcDbLine
 10
1492.661346342063
 20
2246.962168973787
 30
0.0
 11
1562.259528081815
 21
2316.560350713538
 31
0.0
  0
LINE
  5
ED
330
1F
100
AcDbEntity
  8
仕上げ
  6
Continuous
 62
    40
370
     5
100
AcDbLine
 10
1562.259528081815
 20
2318.962168973789
 30
0.0
 11
1145.129659898359
 21
2318.962168973789
 31
0.0
  0
LINE
  5
EE
330
1F
100
AcDbEntity
  8
ハッチ
  6
JWW_DASHED1
 62
   120
370
     5
100
AcDbLine
 10
1145.129659898359
 20
2281.268144370829
 30
0.0
 11
1182.823684501323
 21
2318.962168973795
 31
0.0
  0
LINE
  5
EF
330
1F
100
AcDbEntity
  8
仕上げ
  6
Continuous
 62
    40
370
     5
100
AcDbLine
 10
1562.259528081815
 20
2246.962168973787
 30
0.0
 11
1145.129659898359
 21
2246.962168973787
 31
0.0
  0
LINE
  5
F0
330
1F
100
AcDbEntity
  8
仕上げ
  6
Continuous
 62
    40
370
     5
100
AcDbLine
 10
1562.259528081815
 20
2066.962168973789
 30
0.0
 11
1145.129659898359
 21
2066.962168973789
 31
0.0
  0
LINE
  5
F1
330
1F
100
AcDbEntity
  8
仕上げ
  6
Continuous
 62
    40
370
     5
100
AcDbLine
 10
1562.259528081815
 20
1991.962168973789
 30
0.0
 11
1145.129659898359
 21
1991.962168973789
 31
0.0
  0
LINE
  5
F2
330
1F
100
AcDbEntity
  8
仕上げ
  6
Continuous
 62
    40
370
     5
100
AcDbLine
 10
1145.129659898359
 20
1991.962168973789
 30
0.0
 11
1145.129659898359
 21
2066.962168973789
 31
0.0
  0
LINE
  5
F3
330
1F
100
AcDbEntity
  8
0-6_扉
  6
JWW_DASHED2
 62
    40
370
     5
100
AcDbLine
 10
-2077.380610585909
 20
2585.962168973788
 30
0.0
 11
-2077.380610585909
 21
2405.962168973788
 31
0.0
  0
LINE
  5
F4
330
1F
100
AcDbEntity
  8
0-6_扉
  6
JWW_DASHED2
 62
    40
370
     5
100
AcDbLine
 10
-943.2105204244867
 20
2585.962168973788
 30
0.0
 11
-943.2105204244867
 21
2405.962168973788
 31
0.0
  0
LINE
  5
F5
330
1F
100
AcDbEntity
  8
0-6_扉
  6
JWW_DASHED2
 62
    40
370
     5
100
AcDbLine
 10
965.129659898359
 20
2585.962168973788
 30
0.0
 11
965.129659898359
 21
2405.962168973788
 31
0.0
  0
LINE
  5
F6
330
1F
100
AcDbEntity
  8
0-6_扉
  6
JWW_DASHED2
 62
    40
370
     5
100
AcDbLine
 10
2099.299750059782
 20
2585.962168973788
 30
0.0
 11
2099.299750059782
 21
2405.962168973788
 31
0.0
  0
LINE
  5
F7
330
1F
100
AcDbEntity
  8
仕上げ
  6
Continuous
 62
    40
370
     5
100
AcDbLine
 10
-1123.210520424485
 20
1991.962168973789
 30
0.0
 11
-1123.210520424485
 21
2066.962168973789
 31
0.0
  0
LINE
  5
F8
330
1F
100
AcDbEntity
  8
仕上げ
  6
Continuous
 62
    40
370
     5
100
AcDbLine
 10
-1123.210520424485
 20
2318.962168973789
 30
0.0
 11
-1123.210520424485
 21
2246.962168973787
 31
0.0
  0
LINE
  5
F9
330
1F
100
AcDbEntity
  8
仕上げ
  6
Continuous
 62
    40
370
     5
100
AcDbLine
 10
-1438.719160172431
 20
2318.962168973789
 30
0.0
 11
-1123.210520424485
 21
2318.962168973789
 31
0.0
  0
LINE
  5
FA
330
1F
100
AcDbEntity
  8
仕上げ
  6
Continuous
 62
    40
370
     5
100
AcDbLine
 10
-1438.719160172431
 20
1991.962168973789
 30
0.0
 11
-1123.210520424485
 21
1991.962168973789
 31
0.0
  0
LINE
  5
FB
330
1F
100
AcDbEntity
  8
仕上げ
  6
Continuous
 62
    40
370
     5
100
AcDbLine
 10
-1438.719160172431
 20
2246.962168973787
 30
0.0
 11
-1123.210520424485
 21
2246.962168973787
 31
0.0
  0
LINE
  5
FC
330
1F
100
AcDbEntity
  8
仕上げ
  6
Continuous
 62
    40
370
     5
100
AcDbLine
 10
-1438.719160172431
 20
2066.962168973789
 30
0.0
 11
-1123.210520424485
 21
2066.962168973789
 31
0.0
  0
LINE
  5
FD
330
1F
100
AcDbEntity
  8
仕上げ
  6
Continuous
 62
    40
370
     5
100
AcDbLine
 10
-2569.808460143302
 20
2066.962168973789
 30
0.0
 11
-1558.719160172431
 21
2066.962168973789
 31
0.0
  0
LINE
  5
FE
330
1F
100
AcDbEntity
  8
仕上げ
  6
Continuous
 62
    40
370
     5
100
AcDbLine
 10
-2569.93019507796
 20
1991.962168973789
 30
0.0
 11
-1558.719160172431
 21
1991.962168973789
 31
0.0
  0
LINE
  5
FF
330
1F
100
AcDbEntity
  8
仕上げ
  6
Continuous
 62
    40
370
     5
100
AcDbLine
 10
-2059.380610585912
 20
2318.962168973789
 30
0.0
 11
-1558.719160172431
 21
2318.962168973789
 31
0.0
  0
LINE
  5
100
330
1F
100
AcDbEntity
  8
仕上げ
  6
Continuous
 62
    40
370
     5
100
AcDbLine
 10
-2059.380610585912
 20
2246.962168973787
 30
0.0
 11
-1558.719160172431
 21
2246.962168973787
 31
0.0
  0
LINE
  5
101
330
1F
100
AcDbEntity
  8
ハッチ
  6
JWW_DASHED1
 62
   120
370
     5
100
AcDbLine
 10
2582.405514060054
 20
1991.962168973793
 30
0.0
 11
2591.299750059782
 21
2000.856404973521
 31
0.0
  0
LINE
  5
102
330
1F
100
AcDbEntity
  8
ハッチ
  6
JWW_DASHED1
 62
   120
370
     5
100
AcDbLine
 10
2539.979107188842
 20
1991.96216897378
 30
0.0
 11
2591.299750059788
 21
2043.282811844725
 31
0.0
  0
LINE
  5
103
330
1F
100
AcDbEntity
  8
ハッチ
  6
JWW_DASHED1
 62
   120
370
     5
100
AcDbLine
 10
2497.552700317705
 20
1991.962168973789
 30
0.0
 11
2572.552700317715
 21
2066.9621689738
 31
0.0
  0
LINE
  5
104
330
1F
100
AcDbEntity
  8
ハッチ
  6
JWW_DASHED1
 62
   120
370
     5
100
AcDbLine
 10
2455.126293446508
 20
1991.962168973792
 30
0.0
 11
2530.126293446503
 21
2066.962168973786
 31
0.0
  0
LINE
  5
105
330
1F
100
AcDbEntity
  8
ハッチ
  6
JWW_DASHED1
 62
   120
370
     5
100
AcDbLine
 10
2412.699886575298
 20
1991.962168973782
 30
0.0
 11
2487.699886575291
 21
2066.962168973776
 31
0.0
  0
LINE
  5
106
330
1F
100
AcDbEntity
  8
ハッチ
  6
JWW_DASHED1
 62
   120
370
     5
100
AcDbLine
 10
2370.273479704101
 20
1991.962168973786
 30
0.0
 11
2445.273479704096
 21
2066.96216897378
 31
0.0
  0
LINE
  5
107
330
1F
100
AcDbEntity
  8
ハッチ
  6
JWW_DASHED1
 62
   120
370
     5
100
AcDbLine
 10
2327.847072832905
 20
1991.96216897379
 30
0.0
 11
2402.847072832901
 21
2066.962168973783
 31
0.0
  0
LINE
  5
108
330
1F
100
AcDbEntity
  8
ハッチ
  6
JWW_DASHED1
 62
   120
370
     5
100
AcDbLine
 10
2285.420665961708
 20
1991.962168973792
 30
0.0
 11
2360.420665961701
 21
2066.962168973786
 31
0.0
  0
LINE
  5
109
330
1F
100
AcDbEntity
  8
ハッチ
  6
JWW_DASHED1
 62
   120
370
     5
100
AcDbLine
 10
2242.994259090509
 20
1991.962168973793
 30
0.0
 11
2317.994259090505
 21
2066.962168973789
 31
0.0
  0
LINE
  5
10A
330
1F
100
AcDbEntity
  8
ハッチ
  6
JWW_DASHED1
 62
   120
370
     5
100
AcDbLine
 10
2200.567852219297
 20
1991.962168973782
 30
0.0
 11
2275.567852219307
 21
2066.962168973792
 31
0.0
  0
LINE
  5
10B
330
1F
100
AcDbEntity
  8
ハッチ
  6
JWW_DASHED1
 62
   120
370
     5
100
AcDbLine
 10
2158.141445348159
 20
1991.96216897379
 30
0.0
 11
2233.141445348155
 21
2066.962168973786
 31
0.0
  0
LINE
  5
10C
330
1F
100
AcDbEntity
  8
ハッチ
  6
JWW_DASHED1
 62
   120
370
     5
100
AcDbLine
 10
2115.715038476952
 20
1991.962168973783
 30
0.0
 11
2190.715038476948
 21
2066.962168973778
 31
0.0
  0
LINE
  5
10D
330
1F
100
AcDbEntity
  8
ハッチ
  6
JWW_DASHED1
 62
   120
370
     5
100
AcDbLine
 10
2073.288631605757
 20
1991.962168973787
 30
0.0
 11
2148.288631605752
 21
2066.962168973782
 31
0.0
  0
LINE
  5
10E
330
1F
100
AcDbEntity
  8
ハッチ
  6
JWW_DASHED1
 62
   120
370
     5
100
AcDbLine
 10
2030.862224734562
 20
1991.962168973792
 30
0.0
 11
2105.862224734555
 21
2066.962168973786
 31
0.0
  0
LINE
  5
10F
330
1F
100
AcDbEntity
  8
ハッチ
  6
JWW_DASHED1
 62
   120
370
     5
100
AcDbLine
 10
1988.435817863365
 20
1991.962168973796
 30
0.0
 11
2063.435817863359
 21
2066.96216897379
 31
0.0
  0
LINE
  5
110
330
1F
100
AcDbEntity
  8
ハッチ
  6
JWW_DASHED1
 62
   120
370
     5
100
AcDbLine
 10
1946.009410992162
 20
1991.962168973793
 30
0.0
 11
2021.009410992157
 21
2066.962168973786
 31
0.0
  0
LINE
  5
111
330
1F
100
AcDbEntity
  8
ハッチ
  6
JWW_DASHED1
 62
   120
370
     5
100
AcDbLine
 10
1903.58300412095
 20
1991.96216897378
 30
0.0
 11
1978.583004120962
 21
2066.962168973792
 31
0.0
  0
LINE
  5
112
330
1F
100
AcDbEntity
  8
ハッチ
  6
JWW_DASHED1
 62
   120
370
     5
100
AcDbLine
 10
1861.156597249813
 20
1991.962168973789
 30
0.0
 11
1936.156597249823
 21
2066.9621689738
 31
0.0
  0
LINE
  5
113
330
1F
100
AcDbEntity
  8
ハッチ
  6
JWW_DASHED1
 62
   120
370
     5
100
AcDbLine
 10
1818.730190378617
 20
1991.962168973793
 30
0.0
 11
1893.730190378612
 21
2066.962168973786
 31
0.0
  0
LINE
  5
114
330
1F
100
AcDbEntity
  8
ハッチ
  6
JWW_DASHED1
 62
   120
370
     5
100
AcDbLine
 10
1776.303783507413
 20
1991.962168973789
 30
0.0
 11
1851.303783507406
 21
2066.962168973783
 31
0.0
  0
LINE
  5
115
330
1F
100
AcDbEntity
  8
ハッチ
  6
JWW_DASHED1
 62
   120
370
     5
100
AcDbLine
 10
1733.877376636217
 20
1991.962168973793
 30
0.0
 11
1808.877376636212
 21
2066.962168973786
 31
0.0
  0
LINE
  5
116
330
1F
100
AcDbEntity
  8
ハッチ
  6
JWW_DASHED1
 62
   120
370
     5
100
AcDbLine
 10
1682.259528081815
 20
2025.197134161791
 30
0.0
 11
1724.02456289381
 21
2066.962168973786
 31
0.0
  0
LINE
  5
117
330
1F
100
AcDbEntity
  8
ハッチ
  6
JWW_DASHED1
 62
   120
370
     5
100
AcDbLine
 10
1691.450969765013
 20
1991.962168973789
 30
0.0
 11
1766.450969765017
 21
2066.962168973792
 31
0.0
  0
LINE
  5
118
330
1F
100
AcDbEntity
  8
ハッチ
  6
JWW_DASHED1
 62
   120
370
     5
100
AcDbLine
 10
1534.646194440429
 20
1991.962168973805
 30
0.0
 11
1562.259528081802
 21
2019.575502615178
 31
0.0
  0
LINE
  5
119
330
1F
100
AcDbEntity
  8
ハッチ
  6
JWW_DASHED1
 62
   120
370
     5
100
AcDbLine
 10
1492.219787569215
 20
1991.962168973793
 30
0.0
 11
1562.259528081815
 21
2062.001909486393
 31
0.0
  0
LINE
  5
11A
330
1F
100
AcDbEntity
  8
ハッチ
  6
JWW_DASHED1
 62
   120
370
     5
100
AcDbLine
 10
1449.793380698005
 20
1991.962168973782
 30
0.0
 11
1524.793380698015
 21
2066.962168973792
 31
0.0
  0
LINE
  5
11B
330
1F
100
AcDbEntity
  8
ハッチ
  6
JWW_DASHED1
 62
   120
370
     5
100
AcDbLine
 10
1407.366973826866
 20
1991.962168973792
 30
0.0
 11
1482.366973826877
 21
2066.9621689738
 31
0.0
  0
LINE
  5
11C
330
1F
100
AcDbEntity
  8
ハッチ
  6
JWW_DASHED1
 62
   120
370
     5
100
AcDbLine
 10
1364.940566955672
 20
1991.962168973796
 30
0.0
 11
1439.940566955666
 21
2066.962168973789
 31
0.0
  0
LINE
  5
11D
330
1F
100
AcDbEntity
  8
ハッチ
  6
JWW_DASHED1
 62
   120
370
     5
100
AcDbLine
 10
1322.51416008447
 20
1991.962168973793
 30
0.0
 11
1397.514160084466
 21
2066.962168973792
 31
0.0
  0
LINE
  5
11E
330
1F
100
AcDbEntity
  8
ハッチ
  6
JWW_DASHED1
 62
   120
370
     5
100
AcDbLine
 10
1280.087753213273
 20
1991.962168973797
 30
0.0
 11
1355.08775321327
 21
2066.962168973792
 31
0.0
  0
LINE
  5
11F
330
1F
100
AcDbEntity
  8
ハッチ
  6
JWW_DASHED1
 62
   120
370
     5
100
AcDbLine
 10
1237.661346342077
 20
1991.962168973799
 30
0.0
 11
1312.661346342073
 21
2066.962168973797
 31
0.0
  0
LINE
  5
120
330
1F
100
AcDbEntity
  8
ハッチ
  6
JWW_DASHED1
 62
   120
370
     5
100
AcDbLine
 10
1195.23493947088
 20
1991.962168973804
 30
0.0
 11
1270.234939470876
 21
2066.9621689738
 31
0.0
  0
LINE
  5
121
330
1F
100
AcDbEntity
  8
ハッチ
  6
JWW_DASHED1
 62
   120
370
     5
100
AcDbLine
 10
1152.808532599676
 20
1991.962168973799
 30
0.0
 11
1227.80853259967
 21
2066.962168973793
 31
0.0
  0
LINE
  5
122
330
1F
100
AcDbEntity
  8
ハッチ
  6
JWW_DASHED1
 62
   120
370
     5
100
AcDbLine
 10
1145.129659898359
 20
2026.709703143683
 30
0.0
 11
1185.382125728476
 21
2066.962168973797
 31
0.0
  0
LINE
  5
123
330
1F
100
AcDbEntity
  8
ハッチ
  6
JWW_DASHED1
 62
   120
370
     5
100
AcDbLine
 10
-1218.466694342315
 20
2246.9621689738
 30
0.0
 11
-1146.466694342316
 21
2318.962168973799
 31
0.0
  0
LINE
  5
124
330
1F
100
AcDbEntity
  8
ハッチ
  6
JWW_DASHED1
 62
   120
370
     5
100
AcDbLine
 10
-1260.893101213457
 20
2246.962168973803
 30
0.0
 11
-1188.893101213475
 21
2318.962168973785
 31
0.0
  0
LINE
  5
125
330
1F
100
AcDbEntity
  8
ハッチ
  6
JWW_DASHED1
 62
   120
370
     5
100
AcDbLine
 10
-1303.319508084681
 20
2246.962168973779
 30
0.0
 11
-1231.319508084682
 21
2318.962168973778
 31
0.0
  0
LINE
  5
126
330
1F
100
AcDbEntity
  8
ハッチ
  6
JWW_DASHED1
 62
   120
370
     5
100
AcDbLine
 10
-1345.745914955876
 20
2246.962168973783
 30
0.0
 11
-1273.745914955877
 21
2318.962168973781
 31
0.0
  0
LINE
  5
127
330
1F
100
AcDbEntity
  8
ハッチ
  6
JWW_DASHED1
 62
   120
370
     5
100
AcDbLine
 10
-1388.172321827073
 20
2246.962168973786
 30
0.0
 11
-1316.172321827074
 21
2318.962168973786
 31
0.0
  0
LINE
  5
128
330
1F
100
AcDbEntity
  8
ハッチ
  6
JWW_DASHED1
 62
   120
370
     5
100
AcDbLine
 10
-1430.598728698269
 20
2246.962168973792
 30
0.0
 11
-1358.59872869827
 21
2318.96216897379
 31
0.0
  0
LINE
  5
129
330
1F
100
AcDbEntity
  8
ハッチ
  6
JWW_DASHED1
 62
   120
370
     5
100
AcDbLine
 10
-1218.90825311512
 20
1991.962168973796
 30
0.0
 11
-1143.908253115124
 21
2066.962168973789
 31
0.0
  0
LINE
  5
12A
330
1F
100
AcDbEntity
  8
ハッチ
  6
JWW_DASHED1
 62
   120
370
     5
100
AcDbLine
 10
-1261.334659986321
 20
1991.962168973793
 30
0.0
 11
-1186.334659986324
 21
2066.962168973792
 31
0.0
  0
LINE
  5
12B
330
1F
100
AcDbEntity
  8
ハッチ
  6
JWW_DASHED1
 62
   120
370
     5
100
AcDbLine
 10
-1303.761066857517
 20
1991.962168973797
 30
0.0
 11
-1228.761066857521
 21
2066.962168973792
 31
0.0
  0
LINE
  5
12C
330
1F
100
AcDbEntity
  8
ハッチ
  6
JWW_DASHED1
 62
   120
370
     5
100
AcDbLine
 10
-1346.187473728714
 20
1991.962168973799
 30
0.0
 11
-1271.187473728717
 21
2066.962168973797
 31
0.0
  0
LINE
  5
12D
330
1F
100
AcDbEntity
  8
ハッチ
  6
JWW_DASHED1
 62
   120
370
     5
100
AcDbLine
 10
-1388.61388059991
 20
1991.962168973804
 30
0.0
 11
-1313.613880599914
 21
2066.9621689738
 31
0.0
  0
LINE
  5
12E
330
1F
100
AcDbEntity
  8
ハッチ
  6
JWW_DASHED1
 62
   120
370
     5
100
AcDbLine
 10
-1431.040287471115
 20
1991.962168973799
 30
0.0
 11
-1356.040287471121
 21
2066.962168973793
 31
0.0
  0
LINE
  5
12F
330
1F
100
AcDbEntity
  8
ハッチ
  6
JWW_DASHED1
 62
   120
370
     5
100
AcDbLine
 10
-1438.719160172431
 20
2281.268144370829
 30
0.0
 11
-1401.025135569467
 21
2318.962168973795
 31
0.0
  0
LINE
  5
130
330
1F
100
AcDbEntity
  8
ハッチ
  6
JWW_DASHED1
 62
   120
370
     5
100
AcDbLine
 10
-1438.719160172431
 20
2026.709703143683
 30
0.0
 11
-1398.466694342317
 21
2066.962168973797
 31
0.0
  0
LINE
  5
131
330
1F
100
AcDbEntity
  8
ハッチ
  6
JWW_DASHED1
 62
   120
370
     5
100
AcDbLine
 10
-1133.613880599922
 20
2246.962168973792
 30
0.0
 11
-1123.210520424485
 21
2257.365529149229
 31
0.0
  0
LINE
  5
132
330
1F
100
AcDbEntity
  8
ハッチ
  6
JWW_DASHED1
 62
   120
370
     5
100
AcDbLine
 10
-1176.040287471119
 20
2246.962168973796
 30
0.0
 11
-1123.210520424485
 21
2299.791936020429
 31
0.0
  0
LINE
  5
133
330
1F
100
AcDbEntity
  8
ハッチ
  6
JWW_DASHED1
 62
   120
370
     5
100
AcDbLine
 10
-1134.055439372787
 20
1991.962168973782
 30
0.0
 11
-1123.210520424485
 21
2002.807087922084
 31
0.0
  0
LINE
  5
134
330
1F
100
AcDbEntity
  8
ハッチ
  6
JWW_DASHED1
 62
   120
370
     5
100
AcDbLine
 10
-1176.481846243924
 20
1991.962168973792
 30
0.0
 11
-1123.210520424485
 21
2045.23349479323
 31
0.0
  0
LINE
  5
135
330
1F
100
AcDbEntity
  8
ハッチ
  6
JWW_DASHED1
 62
   120
370
     5
100
AcDbLine
 10
-1568.684781157826
 20
1991.962168973783
 30
0.0
 11
-1558.719160172426
 21
2001.927789959185
 31
0.0
  0
LINE
  5
136
330
1F
100
AcDbEntity
  8
ハッチ
  6
JWW_DASHED1
 62
   120
370
     5
100
AcDbLine
 10
-1611.111188029022
 20
1991.962168973787
 30
0.0
 11
-1558.719160172428
 21
2044.354196830384
 31
0.0
  0
LINE
  5
137
330
1F
100
AcDbEntity
  8
ハッチ
  6
JWW_DASHED1
 62
   120
370
     5
100
AcDbLine
 10
-1653.537594900219
 20
1991.962168973792
 30
0.0
 11
-1578.537594900224
 21
2066.962168973786
 31
0.0
  0
LINE
  5
138
330
1F
100
AcDbEntity
  8
ハッチ
  6
JWW_DASHED1
 62
   120
370
     5
100
AcDbLine
 10
-1695.964001771414
 20
1991.962168973796
 30
0.0
 11
-1620.964001771419
 21
2066.96216897379
 31
0.0
  0
LINE
  5
139
330
1F
100
AcDbEntity
  8
ハッチ
  6
JWW_DASHED1
 62
   120
370
     5
100
AcDbLine
 10
-1738.39040864261
 20
1991.962168973799
 30
0.0
 11
-1663.390408642616
 21
2066.962168973793
 31
0.0
  0
LINE
  5
13A
330
1F
100
AcDbEntity
  8
ハッチ
  6
JWW_DASHED1
 62
   120
370
     5
100
AcDbLine
 10
-1780.816815513822
 20
1991.962168973787
 30
0.0
 11
-1705.816815513829
 21
2066.962168973782
 31
0.0
  0
LINE
  5
13B
330
1F
100
AcDbEntity
  8
ハッチ
  6
JWW_DASHED1
 62
   120
370
     5
100
AcDbLine
 10
-1823.243222385034
 20
1991.962168973776
 30
0.0
 11
-1748.243222385024
 21
2066.962168973786
 31
0.0
  0
LINE
  5
13C
330
1F
100
AcDbEntity
  8
ハッチ
  6
JWW_DASHED1
 62
   120
370
     5
100
AcDbLine
 10
-1568.243222385027
 20
2246.962168973783
 30
0.0
 11
-1558.719160172426
 21
2256.486231186384
 31
0.0
  0
LINE
  5
13D
330
1F
100
AcDbEntity
  8
ハッチ
  6
JWW_DASHED1
 62
   120
370
     5
100
AcDbLine
 10
-1865.669629256171
 20
1991.962168973783
 30
0.0
 11
-1790.669629256178
 21
2066.962168973778
 31
0.0
  0
LINE
  5
13E
330
1F
100
AcDbEntity
  8
ハッチ
  6
JWW_DASHED1
 62
   120
370
     5
100
AcDbLine
 10
-1610.669629256164
 20
2246.962168973792
 30
0.0
 11
-1558.719160172422
 21
2298.912638057533
 31
0.0
  0
LINE
  5
13F
330
1F
100
AcDbEntity
  8
ハッチ
  6
JWW_DASHED1
 62
   120
370
     5
100
AcDbLine
 10
-1908.096036127368
 20
1991.962168973789
 30
0.0
 11
-1833.096036127373
 21
2066.962168973782
 31
0.0
  0
LINE
  5
140
330
1F
100
AcDbEntity
  8
ハッチ
  6
JWW_DASHED1
 62
   120
370
     5
100
AcDbLine
 10
-1653.096036127376
 20
2246.962168973779
 30
0.0
 11
-1581.096036127377
 21
2318.962168973778
 31
0.0
  0
LINE
  5
141
330
1F
100
AcDbEntity
  8
ハッチ
  6
JWW_DASHED1
 62
   120
370
     5
100
AcDbLine
 10
-1950.522442998564
 20
1991.962168973792
 30
0.0
 11
-1875.522442998569
 21
2066.962168973786
 31
0.0
  0
LINE
  5
142
330
1F
100
AcDbEntity
  8
ハッチ
  6
JWW_DASHED1
 62
   120
370
     5
100
AcDbLine
 10
-1695.522442998573
 20
2246.962168973782
 30
0.0
 11
-1623.522442998574
 21
2318.962168973781
 31
0.0
  0
LINE
  5
143
330
1F
100
AcDbEntity
  8
ハッチ
  6
JWW_DASHED1
 62
   120
370
     5
100
AcDbLine
 10
-1992.94884986976
 20
1991.962168973796
 30
0.0
 11
-1917.948849869766
 21
2066.96216897379
 31
0.0
  0
LINE
  5
144
330
1F
100
AcDbEntity
  8
ハッチ
  6
JWW_DASHED1
 62
   120
370
     5
100
AcDbLine
 10
-1737.948849869769
 20
2246.962168973786
 30
0.0
 11
-1665.94884986977
 21
2318.962168973785
 31
0.0
  0
LINE
  5
145
330
1F
100
AcDbEntity
  8
ハッチ
  6
JWW_DASHED1
 62
   120
370
     5
100
AcDbLine
 10
-2035.375256740956
 20
1991.962168973799
 30
0.0
 11
-1960.375256740963
 21
2066.962168973792
 31
0.0
  0
LINE
  5
146
330
1F
100
AcDbEntity
  8
ハッチ
  6
JWW_DASHED1
 62
   120
370
     5
100
AcDbLine
 10
-1780.375256740964
 20
2246.96216897379
 30
0.0
 11
-1708.375256740965
 21
2318.962168973789
 31
0.0
  0
LINE
  5
147
330
1F
100
AcDbEntity
  8
ハッチ
  6
JWW_DASHED1
 62
   120
370
     5
100
AcDbLine
 10
-2077.801663612152
 20
1991.962168973804
 30
0.0
 11
-2002.801663612159
 21
2066.962168973797
 31
0.0
  0
LINE
  5
148
330
1F
100
AcDbEntity
  8
ハッチ
  6
JWW_DASHED1
 62
   120
370
     5
100
AcDbLine
 10
-1822.801663612171
 20
2246.962168973786
 30
0.0
 11
-1750.801663612169
 21
2318.962168973786
 31
0.0
  0
LINE
  5
149
330
1F
100
AcDbEntity
  8
ハッチ
  6
JWW_DASHED1
 62
   120
370
     5
100
AcDbLine
 10
-2120.228070483364
 20
1991.962168973792
 30
0.0
 11
-2045.22807048337
 21
2066.962168973785
 31
0.0
  0
LINE
  5
14A
330
1F
100
AcDbEntity
  8
ハッチ
  6
JWW_DASHED1
 62
   120
370
     5
100
AcDbLine
 10
-1865.228070483374
 20
2246.962168973782
 30
0.0
 11
-1793.228070483375
 21
2318.962168973781
 31
0.0
  0
LINE
  5
14B
330
1F
100
AcDbEntity
  8
ハッチ
  6
JWW_DASHED1
 62
   120
370
     5
100
AcDbLine
 10
-2162.654477354576
 20
1991.962168973779
 30
0.0
 11
-2087.654477354566
 21
2066.962168973789
 31
0.0
  0
LINE
  5
14C
330
1F
100
AcDbEntity
  8
ハッチ
  6
JWW_DASHED1
 62
   120
370
     5
100
AcDbLine
 10
-1907.654477354571
 20
2246.962168973786
 30
0.0
 11
-1835.654477354587
 21
2318.962168973768
 31
0.0
  0
LINE
  5
14D
330
1F
100
AcDbEntity
  8
ハッチ
  6
JWW_DASHED1
 62
   120
370
     5
100
AcDbLine
 10
-2205.080884225713
 20
1991.962168973787
 30
0.0
 11
-2130.08088422572
 21
2066.962168973782
 31
0.0
  0
LINE
  5
14E
330
1F
100
AcDbEntity
  8
ハッチ
  6
JWW_DASHED1
 62
   120
370
     5
100
AcDbLine
 10
-1950.080884225708
 20
2246.962168973792
 30
0.0
 11
-1878.080884225724
 21
2318.962168973776
 31
0.0
  0
LINE
  5
14F
330
1F
100
AcDbEntity
  8
ハッチ
  6
JWW_DASHED1
 62
   120
370
     5
100
AcDbLine
 10
-2247.507291096909
 20
1991.962168973793
 30
0.0
 11
-2172.507291096916
 21
2066.962168973785
 31
0.0
  0
LINE
  5
150
330
1F
100
AcDbEntity
  8
ハッチ
  6
JWW_DASHED1
 62
   120
370
     5
100
AcDbLine
 10
-1992.50729109692
 20
2246.962168973781
 30
0.0
 11
-1920.507291096921
 21
2318.962168973781
 31
0.0
  0
LINE
  5
151
330
1F
100
AcDbEntity
  8
ハッチ
  6
JWW_DASHED1
 62
   120
370
     5
100
AcDbLine
 10
-2289.933697968105
 20
1991.962168973796
 30
0.0
 11
-2214.933697968112
 21
2066.962168973789
 31
0.0
  0
LINE
  5
152
330
1F
100
AcDbEntity
  8
ハッチ
  6
JWW_DASHED1
 62
   120
370
     5
100
AcDbLine
 10
-2034.933697968117
 20
2246.962168973783
 30
0.0
 11
-1962.933697968117
 21
2318.962168973783
 31
0.0
  0
LINE
  5
153
330
1F
100
AcDbEntity
  8
ハッチ
  6
JWW_DASHED1
 62
   120
370
     5
100
AcDbLine
 10
-2332.360104839302
 20
1991.962168973799
 30
0.0
 11
-2257.360104839308
 21
2066.962168973792
 31
0.0
  0
LINE
  5
154
330
1F
100
AcDbEntity
  8
ハッチ
  6
JWW_DASHED1
 62
   120
370
     5
100
AcDbLine
 10
-2059.380610585912
 20
2264.94166322719
 30
0.0
 11
-2005.360104839314
 21
2318.962168973788
 31
0.0
  0
LINE
  5
155
330
1F
100
AcDbEntity
  8
ハッチ
  6
JWW_DASHED1
 62
   120
370
     5
100
AcDbLine
 10
-2374.786511710498
 20
1991.962168973805
 30
0.0
 11
-2299.786511710504
 21
2066.962168973797
 31
0.0
  0
LINE
  5
156
330
1F
100
AcDbEntity
  8
ハッチ
  6
JWW_DASHED1
 62
   120
370
     5
100
AcDbLine
 10
-2059.380610585915
 20
2307.368070098387
 30
0.0
 11
-2047.78651171051
 21
2318.962168973792
 31
0.0
  0
LINE
  5
157
330
1F
100
AcDbEntity
  8
ハッチ
  6
JWW_DASHED1
 62
   120
370
     5
100
AcDbLine
 10
-2417.212918581709
 20
1991.962168973792
 30
0.0
 11
-2342.212918581717
 21
2066.962168973785
 31
0.0
  0
LINE
  5
158
330
1F
100
AcDbEntity
  8
ハッチ
  6
JWW_DASHED1
 62
   120
370
     5
100
AcDbLine
 10
-2459.63932545292
 20
1991.96216897378
 30
0.0
 11
-2384.639325452913
 21
2066.962168973789
 31
0.0
  0
LINE
  5
159
330
1F
100
AcDbEntity
  8
ハッチ
  6
JWW_DASHED1
 62
   120
370
     5
100
AcDbLine
 10
-2502.065732324088
 20
1991.962168973786
 30
0.0
 11
-2427.065732324079
 21
2066.962168973793
 31
0.0
  0
LINE
  5
15A
330
1F
100
AcDbEntity
  8
ハッチ
  6
JWW_DASHED1
 62
   120
370
     5
100
AcDbLine
 10
-2544.492139195254
 20
1991.962168973793
 30
0.0
 11
-2469.492139195262
 21
2066.962168973783
 31
0.0
  0
LINE
  5
15B
330
1F
100
AcDbEntity
  8
ハッチ
  6
JWW_DASHED1
 62
   120
370
     5
100
AcDbLine
 10
-2569.902575904422
 20
2008.978139135826
 30
0.0
 11
-2511.918546066458
 21
2066.962168973789
 31
0.0
  0
LINE
  5
15C
330
1F
100
AcDbEntity
  8
ハッチ
  6
JWW_DASHED1
 62
   120
370
     5
100
AcDbLine
 10
-2569.833600269586
 20
2051.473521641861
 30
0.0
 11
-2554.344952937655
 21
2066.962168973792
 31
0.0
  0
LINE
  5
15D
330
1F
100
AcDbEntity
  8
ハッチ
  6
JWW_DASHED1
 62
   120
370
     5
100
AcDbLine
 10
-2348.609021649601
 20
2696.962168973792
 30
0.0
 11
-2273.609021649605
 21
2771.962168973789
 31
0.0
  0
LINE
  5
15E
330
1F
100
AcDbEntity
  8
ハッチ
  6
JWW_DASHED1
 62
   120
370
     5
100
AcDbLine
 10
-2391.035428520797
 20
2696.962168973796
 30
0.0
 11
-2316.035428520799
 21
2771.962168973792
 31
0.0
  0
LINE
  5
15F
330
1F
100
AcDbEntity
  8
ハッチ
  6
JWW_DASHED1
 62
   120
370
     5
100
AcDbLine
 10
-2433.461835391993
 20
2696.9621689738
 30
0.0
 11
-2358.461835391993
 21
2771.9621689738
 31
0.0
  0
LINE
  5
160
330
1F
100
AcDbEntity
  8
ハッチ
  6
JWW_DASHED1
 62
   120
370
     5
100
AcDbLine
 10
-2475.888242263159
 20
2696.962168973779
 30
0.0
 11
-2400.888242263145
 21
2771.962168973792
 31
0.0
  0
LINE
  5
161
330
1F
100
AcDbEntity
  8
ハッチ
  6
JWW_DASHED1
 62
   120
370
     5
100
AcDbLine
 10
-2518.314649134358
 20
2696.962168973779
 30
0.0
 11
-2443.314649134365
 21
2771.962168973772
 31
0.0
  0
LINE
  5
162
330
1F
100
AcDbEntity
  8
ハッチ
  6
JWW_DASHED1
 62
   120
370
     5
100
AcDbLine
 10
-2560.741056005553
 20
2696.962168973783
 30
0.0
 11
-2485.741056005561
 21
2771.962168973776
 31
0.0
  0
LINE
  5
163
330
1F
100
AcDbEntity
  8
ハッチ
  6
JWW_DASHED1
 62
   120
370
     5
100
AcDbLine
 10
-2568.729990112211
 20
2731.399641738327
 30
0.0
 11
-2528.167462876758
 21
2771.962168973781
 31
0.0
  0
LINE
  5
164
330
1F
100
AcDbEntity
  8
0-6_扉
  6
JWW_DASHED2
 62
    40
370
     5
100
AcDbLine
 10
-1438.719160172431
 20
2585.962168973788
 30
0.0
 11
-943.2105204244867
 21
2585.962168973788
 31
0.0
  0
LINE
  5
165
330
1F
100
AcDbEntity
  8
0-6_扉
  6
JWW_DASHED2
 62
    40
370
     5
100
AcDbLine
 10
-1438.719160172431
 20
2405.962168973788
 30
0.0
 11
-943.2105204244867
 21
2405.962168973788
 31
0.0
  0
LINE
  5
166
330
1F
100
AcDbEntity
  8
0-6_扉
  6
JWW_DASHED2
 62
    40
370
     5
100
AcDbLine
 10
-2077.380610585909
 20
2585.962168973788
 30
0.0
 11
-1558.719160172431
 21
2585.962168973788
 31
0.0
  0
LINE
  5
167
330
1F
100
AcDbEntity
  8
0-6_扉
  6
JWW_DASHED2
 62
    40
370
     5
100
AcDbLine
 10
-2077.380610585909
 20
2405.962168973788
 30
0.0
 11
-1558.719160172431
 21
2405.962168973788
 31
0.0
  0
LINE
  5
168
330
1F
100
AcDbEntity
  8
0-6_扉
  6
JWW_DASHED2
 62
    40
370
     5
100
AcDbLine
 10
965.129659898359
 20
2585.962168973788
 30
0.0
 11
1562.259528081815
 21
2585.962168973788
 31
0.0
  0
LINE
  5
169
330
1F
100
AcDbEntity
  8
0-6_扉
  6
JWW_DASHED2
 62
    40
370
     5
100
AcDbLine
 10
965.129659898359
 20
2405.962168973788
 30
0.0
 11
1562.259528081815
 21
2405.962168973788
 31
0.0
  0
LINE
  5
16A
330
1F
100
AcDbEntity
  8
0-6_扉
  6
JWW_DASHED2
 62
    40
370
     5
100
AcDbLine
 10
1682.259528081815
 20
2585.962168973788
 30
0.0
 11
2099.299750059782
 21
2585.962168973788
 31
0.0
  0
LINE
  5
16B
330
1F
100
AcDbEntity
  8
0-6_扉
  6
JWW_DASHED2
 62
    40
370
     5
100
AcDbLine
 10
1682.259528081815
 20
2405.962168973788
 30
0.0
 11
2099.299750059782
 21
2405.962168973788
 31
0.0
  0
LINE
  5
16C
330
1F
100
AcDbEntity
  8
0-6_扉
  6
Continuous
 62
   200
370
     5
100
AcDbLine
 10
-1123.210520424487
 20
2585.962168973788
 30
0.0
 11
-514.7191607527877
 21
2585.962168973788
 31
0.0
  0
LINE
  5
16D
330
1F
100
AcDbEntity
  8
0-6_扉
  6
Continuous
 62
   200
370
     5
100
AcDbLine
 10
-394.7191607527877
 20
2585.962168973788
 30
0.0
 11
428.282511488871
 21
2585.962168973788
 31
0.0
  0
LINE
  5
16E
330
1F
100
AcDbEntity
  8
0-6_扉
  6
Continuous
 62
   200
370
     5
100
AcDbLine
 10
-394.7191607527877
 20
2405.962168973788
 30
0.0
 11
428.282511488871
 21
2405.962168973788
 31
0.0
  0
LINE
  5
16F
330
1F
100
AcDbEntity
  8
0-6_扉
  6
Continuous
 62
   200
370
     5
100
AcDbLine
 10
548.282511488871
 20
2585.962168973788
 30
0.0
 11
1145.129659898359
 21
2585.962168973788
 31
0.0
  0
LINE
  5
170
330
1F
100
AcDbEntity
  8
ハッチ
  6
JWW_DASHED1
 62
   120
370
     5
100
AcDbLine
 10
2261.300343915346
 20
2728.353674591018
 30
0.0
 11
2304.90883829811
 21
2771.962168973782
 31
0.0
  0
LINE
  5
171
330
1F
100
AcDbEntity
  8
仕上げ
  6
Continuous
 62
    40
370
     5
100
AcDbLine
 10
2591.21631289161
 20
2696.962168973789
 30
0.0
 11
2261.300343915346
 21
2696.962168973789
 31
0.0
  0
LINE
  5
172
330
1F
100
AcDbEntity
  8
仕上げ
  6
Continuous
 62
    40
370
     5
100
AcDbLine
 10
2591.21631289161
 20
2771.962168973789
 30
0.0
 11
2261.300343915346
 21
2771.962168973789
 31
0.0
  0
LINE
  5
173
330
1F
100
AcDbEntity
  8
仕上げ
  6
Continuous
 62
    40
370
     5
100
AcDbLine
 10
2261.300343915346
 20
2696.962168973789
 30
0.0
 11
2261.300343915346
 21
2771.962168973789
 31
0.0
  0
LINE
  5
174
330
1F
100
AcDbEntity
  8
0-2_柱
  6
Continuous
 62
     7
370
     5
100
AcDbLine
 10
2261.300343915346
 20
2066.962168973789
 30
0.0
 11
2261.300343915346
 21
2696.962168973789
 31
0.0
  0
LINE
  5
175
330
1F
100
AcDbEntity
  8
0-2_柱
  6
Continuous
 62
     7
370
     5
100
AcDbLine
 10
2423.300343915348
 20
2066.962168973789
 30
0.0
 11
2261.300343915346
 21
2066.962168973789
 31
0.0
  0
LINE
  5
176
330
1F
100
AcDbEntity
  8
0-2_柱
  6
Continuous
 62
     7
370
     5
100
AcDbLine
 10
2423.300343915348
 20
2696.962168973789
 30
0.0
 11
2423.300343915348
 21
2066.962168973789
 31
0.0
  0
LINE
  5
177
330
1F
100
AcDbEntity
  8
0-2_柱
  6
Continuous
 62
     7
370
     5
100
AcDbLine
 10
2261.300343915346
 20
2696.962168973789
 30
0.0
 11
2423.300343915348
 21
2696.962168973789
 31
0.0
  0
LINE
  5
178
330
1F
100
AcDbEntity
  8
0-2_柱
  6
Continuous
 62
     7
370
     5
100
AcDbLine
 10
2261.300343915346
 20
2066.962168973789
 30
0.0
 11
2099.300343915345
 21
2066.962168973789
 31
0.0
  0
LINE
  5
179
330
1F
100
AcDbEntity
  8
0-2_柱
  6
Continuous
 62
     7
370
     5
100
AcDbLine
 10
2261.300343915346
 20
2066.962168973789
 30
0.0
 11
2423.300343915348
 21
2696.962168973789
 31
0.0
  0
LINE
  5
17A
330
1F
100
AcDbEntity
  8
0-2_柱
  6
Continuous
 62
     7
370
     5
100
AcDbLine
 10
2099.300343915345
 20
2066.962168973789
 30
0.0
 11
2099.300343915345
 21
2246.962168973787
 31
0.0
  0
LINE
  5
17B
330
1F
100
AcDbEntity
  8
0-2_柱
  6
Continuous
 62
     7
370
     5
100
AcDbLine
 10
2099.300343915345
 20
2246.962168973787
 30
0.0
 11
2261.300343915346
 21
2246.962168973787
 31
0.0
  0
LINE
  5
17C
330
1F
100
AcDbEntity
  8
0-2_柱
  6
Continuous
 62
     7
370
     5
100
AcDbLine
 10
2261.300343915346
 20
2246.962168973787
 30
0.0
 11
2099.300343915345
 21
2066.962168973789
 31
0.0
  0
LINE
  5
17D
330
1F
100
AcDbEntity
  8
0-2_柱
  6
Continuous
 62
    92
370
     5
100
AcDbLine
 10
1145.129659898359
 20
2066.961797968706
 30
0.0
 11
1145.129659898359
 21
2246.961550528884
 31
0.0
  0
LINE
  5
17E
330
1F
100
AcDbEntity
  8
0-2_柱
  6
Continuous
 62
     7
370
     5
100
AcDbLine
 10
1307.129659898359
 20
2246.962168973787
 30
0.0
 11
1145.129659898359
 21
2066.962168973789
 31
0.0
  0
LINE
  5
17F
330
1F
100
AcDbEntity
  8
0-2_柱
  6
Continuous
 62
     7
370
     5
100
AcDbLine
 10
1307.129659898359
 20
2246.962168973787
 30
0.0
 11
1307.129659898359
 21
2066.962168973789
 31
0.0
  0
LINE
  5
180
330
1F
100
AcDbEntity
  8
0-2_柱
  6
Continuous
 62
     7
370
     5
100
AcDbLine
 10
1145.129659898359
 20
2246.962168973787
 30
0.0
 11
1307.129659898359
 21
2246.962168973787
 31
0.0
  0
LINE
  5
181
330
1F
100
AcDbEntity
  8
0-2_柱
  6
Continuous
 62
     7
370
     5
100
AcDbLine
 10
1145.129659898359
 20
2066.962168973789
 30
0.0
 11
1145.129659898359
 21
2246.962168973787
 31
0.0
  0
LINE
  5
182
330
1F
100
AcDbEntity
  8
0-2_柱
  6
Continuous
 62
     7
370
     5
100
AcDbLine
 10
1307.129659898359
 20
2066.962168973789
 30
0.0
 11
1145.129659898359
 21
2066.962168973789
 31
0.0
  0
LINE
  5
183
330
1F
100
AcDbEntity
  8
ハッチ
  6
Continuous
 62
   120
370
     5
100
AcDbLine
 10
-2181.698819673953
 20
2843.962168973785
 30
0.0
 11
-2236.381204441489
 21
2789.279784206249
 31
0.0
  0
LINE
  5
184
330
1F
100
AcDbEntity
  8
ハッチ
  6
Continuous
 62
   120
370
     5
100
AcDbLine
 10
-2113.816568680062
 20
2843.962168973776
 30
0.0
 11
-2239.381204441483
 21
2718.397533212356
 31
0.0
  0
LINE
  5
185
330
1F
100
AcDbEntity
  8
ハッチ
  6
Continuous
 62
   120
370
     5
100
AcDbLine
 10
-2062.380610585902
 20
2827.515876074038
 30
0.0
 11
-2239.381204441487
 21
2650.515282218453
 31
0.0
  0
LINE
  5
186
330
1F
100
AcDbEntity
  8
ハッチ
  6
Continuous
 62
   120
370
     5
100
AcDbLine
 10
-2062.380610585905
 20
2759.633625080138
 30
0.0
 11
-2239.381204441494
 21
2582.63303122455
 31
0.0
  0
LINE
  5
187
330
1F
100
AcDbEntity
  8
ハッチ
  6
Continuous
 62
   120
370
     5
100
AcDbLine
 10
-2062.380610585905
 20
2691.751374086185
 30
0.0
 11
-2239.381204441504
 21
2514.750780230586
 31
0.0
  0
LINE
  5
188
330
1F
100
AcDbEntity
  8
ハッチ
  6
Continuous
 62
   120
370
     5
100
AcDbLine
 10
-2095.380610585916
 20
2590.869123092276
 30
0.0
 11
-2239.38120444148
 21
2446.868529236711
 31
0.0
  0
LINE
  5
189
330
1F
100
AcDbEntity
  8
ハッチ
  6
Continuous
 62
   120
370
     5
100
AcDbLine
 10
-2095.380610585896
 20
2522.986872098398
 30
0.0
 11
-2239.381204441483
 21
2378.986278242811
 31
0.0
  0
LINE
  5
18A
330
1F
100
AcDbEntity
  8
ハッチ
  6
Continuous
 62
   120
370
     5
100
AcDbLine
 10
-2095.380610585904
 20
2455.104621104491
 30
0.0
 11
-2236.381204441476
 21
2314.10402724892
 31
0.0
  0
LINE
  5
18B
330
1F
100
AcDbEntity
  8
ハッチ
  6
Continuous
 62
   120
370
     5
100
AcDbLine
 10
-2095.380610585913
 20
2387.222370110583
 30
0.0
 11
-2235.640811722714
 21
2246.962168973783
 31
0.0
  0
LINE
  5
18C
330
1F
100
AcDbEntity
  8
ハッチ
  6
Continuous
 62
   120
370
     5
100
AcDbLine
 10
-2062.380175710411
 20
2352.340553992134
 30
0.0
 11
-2167.758560728752
 21
2246.962168973792
 31
0.0
  0
LINE
  5
18D
330
1F
100
AcDbEntity
  8
ハッチ
  6
Continuous
 62
   120
370
     5
100
AcDbLine
 10
-2062.380175710419
 20
2284.458302998226
 30
0.0
 11
-2099.876309734851
 21
2246.962168973794
 31
0.0
  0
LINE
  5
18E
330
1F
100
AcDbEntity
  8
ハッチ
  6
Continuous
 62
   120
370
     5
100
AcDbLine
 10
-2062.380610585895
 20
2623.869123092295
 30
0.0
 11
-2067.287564704404
 21
2618.962168973789
 31
0.0
  0
LINE
  5
18F
330
1F
100
AcDbEntity
  8
ハッチ
  6
Continuous
 62
   120
370
     5
100
AcDbLine
 10
-946.2102977286604
 20
2329.990561001357
 30
0.0
 11
-1123.210520424494
 21
2152.990338305524
 31
0.0
  0
LINE
  5
190
330
1F
100
AcDbEntity
  8
ハッチ
  6
Continuous
 62
   120
370
     5
100
AcDbLine
 10
-946.2102977286519
 20
2262.108310007414
 30
0.0
 11
-1123.2105204245
 21
2085.108087311565
 31
0.0
  0
LINE
  5
191
330
1F
100
AcDbEntity
  8
ハッチ
  6
Continuous
 62
   120
370
     5
100
AcDbLine
 10
-946.2102977286553
 20
2194.226059013512
 30
0.0
 11
-1123.210520424509
 21
2017.225836317658
 31
0.0
  0
LINE
  5
192
330
1F
100
AcDbEntity
  8
ハッチ
  6
Continuous
 62
   120
370
     5
100
AcDbLine
 10
-946.2102977286604
 20
2126.34380801961
 30
0.0
 11
-1120.210520424508
 21
1952.343585323762
 31
0.0
  0
LINE
  5
193
330
1F
100
AcDbEntity
  8
ハッチ
  6
Continuous
 62
   120
370
     5
100
AcDbLine
 10
-946.2102977286621
 20
2058.461557025708
 30
0.0
 11
-1084.70968578057
 21
1919.962168973801
 31
0.0
  0
LINE
  5
194
330
1F
100
AcDbEntity
  8
ハッチ
  6
Continuous
 62
   120
370
     5
100
AcDbLine
 10
-946.2102977286655
 20
1990.579306031808
 30
0.0
 11
-1016.827434786695
 21
1919.96216897378
 31
0.0
  0
LINE
  5
195
330
1F
100
AcDbEntity
  8
0-2_柱
  6
Continuous
 62
     7
370
     5
100
AcDbLine
 10
-1285.2105204245
 20
2246.962168973787
 30
0.0
 11
-1285.2105204245
 21
2066.962168973789
 31
0.0
  0
LINE
  5
196
330
1F
100
AcDbEntity
  8
0-2_柱
  6
Continuous
 62
     7
370
     5
100
AcDbLine
 10
-1123.2105204245
 20
2246.962168973787
 30
0.0
 11
-1285.2105204245
 21
2246.962168973787
 31
0.0
  0
LINE
  5
197
330
1F
100
AcDbEntity
  8
0-2_柱
  6
Continuous
 62
     7
370
     5
100
AcDbLine
 10
-1123.2105204245
 20
2066.962168973789
 30
0.0
 11
-1123.2105204245
 21
2246.962168973787
 31
0.0
  0
LINE
  5
198
330
1F
100
AcDbEntity
  8
0-2_柱
  6
Continuous
 62
     7
370
     5
100
AcDbLine
 10
-1285.2105204245
 20
2066.962168973789
 30
0.0
 11
-1123.2105204245
 21
2066.962168973789
 31
0.0
  0
LINE
  5
199
330
1F
100
AcDbEntity
  8
仕上げ
  6
Continuous
 62
    40
370
     5
100
AcDbLine
 10
-2569.297173417737
 20
2771.962168973789
 30
0.0
 11
-2239.38120444148
 21
2771.962168973789
 31
0.0
  0
LINE
  5
19A
330
1F
100
AcDbEntity
  8
仕上げ
  6
Continuous
 62
    40
370
     5
100
AcDbLine
 10
-2569.297173417737
 20
2696.962168973789
 30
0.0
 11
-2239.38120444148
 21
2696.962168973789
 31
0.0
  0
LINE
  5
19B
330
1F
100
AcDbEntity
  8
仕上げ
  6
Continuous
 62
    40
370
     5
100
AcDbLine
 10
-2239.38120444148
 20
2696.962168973789
 30
0.0
 11
-2239.38120444148
 21
2771.962168973789
 31
0.0
  0
LINE
  5
19C
330
1F
100
AcDbEntity
  8
ハッチ
  6
JWW_DASHED1
 62
   120
370
     5
100
AcDbLine
 10
-2306.182614778405
 20
2696.962168973787
 30
0.0
 11
-2239.38120444148
 21
2763.763579310712
 31
0.0
  0
LINE
  5
19D
330
1F
100
AcDbEntity
  8
ハッチ
  6
JWW_DASHED1
 62
   120
370
     5
100
AcDbLine
 10
-2263.756207907209
 20
2696.962168973783
 30
0.0
 11
-2239.38120444148
 21
2721.337172439512
 31
0.0
  0
LINE
  5
19E
330
1F
100
AcDbEntity
  8
0-0_補助線
  6
JWW_HOJO
 62
   120
370
     5
100
AcDbLine
 10
-2568.454767300413
 20
2966.962168973789
 30
0.0
 11
2591.299750059785
 21
2966.962168973789
 31
0.0
  0
MTEXT
  5
19F
330
1F
100
AcDbEntity
  8
0-A_文字
  6
Continuous
 62
     7
370
     5
100
AcDbMText
 10
-2568.454767300413
 20
2952.682168973789
 30
0.0
 40
91.44
 41
600.0
 46
0.0
 71
     7
 72
     1
  1
{\fＭＳ ゴシック|b0|i0|c128|p49;■横断面図}
 73
     1
 44
1.0
  0
LINE
  5
1A0
330
1F
100
AcDbEntity
  8
0-2_柱
  6
Continuous
 62
     7
370
     5
100
AcDbLine
 10
-2239.38120444148
 20
2066.962168973789
 30
0.0
 11
-2239.38120444148
 21
2696.962168973789
 31
0.0
  0
LINE
  5
1A1
330
1F
100
AcDbEntity
  8
0-2_柱
  6
Continuous
 62
     7
370
     5
100
AcDbLine
 10
-2401.38120444148
 20
2696.962168973789
 30
0.0
 11
-2401.38120444148
 21
2066.962168973789
 31
0.0
  0
LINE
  5
1A2
330
1F
100
AcDbEntity
  8
0-2_柱
  6
Continuous
 62
     7
370
     5
100
AcDbLine
 10
-2239.38120444148
 20
2696.962168973789
 30
0.0
 11
-2401.38120444148
 21
2696.962168973789
 31
0.0
  0
LINE
  5
1A3
330
1F
100
AcDbEntity
  8
0-2_柱
  6
Continuous
 62
     7
370
     5
100
AcDbLine
 10
-2239.38120444148
 20
2066.962168973789
 30
0.0
 11
-2077.381204441479
 21
2066.962168973789
 31
0.0
  0
LINE
  5
1A4
330
1F
100
AcDbEntity
  8
0-2_柱
  6
Continuous
 62
     7
370
     5
100
AcDbLine
 10
-2077.381204441479
 20
2066.962168973789
 30
0.0
 11
-2077.381204441479
 21
2246.962168973787
 31
0.0
  0
LINE
  5
1A5
330
1F
100
AcDbEntity
  8
0-2_柱
  6
Continuous
 62
     7
370
     5
100
AcDbLine
 10
-2077.381204441479
 20
2246.962168973787
 30
0.0
 11
-2239.38120444148
 21
2246.962168973787
 31
0.0
  0
LINE
  5
1A6
330
1F
100
AcDbEntity
  8
0-2_柱
  6
Continuous
 62
     7
370
     5
100
AcDbLine
 10
-2401.38120444148
 20
2066.962168973789
 30
0.0
 11
-2239.38120444148
 21
2066.962168973789
 31
0.0
  0
LINE
  5
1A7
330
1F
100
AcDbEntity
  8
0-2_柱
  6
Continuous
 62
     7
370
     5
100
AcDbLine
 10
-2239.38120444148
 20
2696.962168973789
 30
0.0
 11
-2401.38120444148
 21
2066.962168973789
 31
0.0
  0
LINE
  5
1A8
330
1F
100
AcDbEntity
  8
0-2_柱
  6
Continuous
 62
     7
370
     5
100
AcDbLine
 10
-2239.38120444148
 20
2066.962168973789
 30
0.0
 11
-2077.381204441479
 21
2246.962168973789
 31
0.0
  0
LINE
  5
1A9
330
1F
100
AcDbEntity
  8
0-2_柱
  6
Continuous
 62
     7
370
     5
100
AcDbLine
 10
-1285.2105204245
 20
2066.962168973789
 30
0.0
 11
-1123.2105204245
 21
2246.962168973787
 31
0.0
  0
LINE
  5
1AA
330
1F
100
AcDbEntity
  8
0-4_枠
  6
Continuous
 62
    92
370
     5
100
AcDbLine
 10
1145.129659898359
 20
2006.96216897379
 30
0.0
 11
1142.129659898359
 21
2006.96216897379
 31
0.0
  0
LINE
  5
1AB
330
1F
100
AcDbEntity
  8
0-4_枠
  6
Continuous
 62
    92
370
     5
100
AcDbLine
 10
1142.129659898359
 20
2006.96216897379
 30
0.0
 11
1142.129659898359
 21
1919.96216897379
 31
0.0
  0
LINE
  5
1AC
330
1F
100
AcDbEntity
  8
0-4_枠
  6
Continuous
 62
    92
370
     5
100
AcDbLine
 10
1145.129659898359
 20
2276.96216897379
 30
0.0
 11
1142.129659898359
 21
2276.96216897379
 31
0.0
  0
LINE
  5
1AD
330
1F
100
AcDbEntity
  8
0-4_枠
  6
Continuous
 62
    92
370
     5
100
AcDbLine
 10
1142.129659898359
 20
2276.96216897379
 30
0.0
 11
1142.129659898359
 21
2363.96216897379
 31
0.0
  0
LINE
  5
1AE
330
1F
100
AcDbEntity
  8
0-4_枠
  6
Continuous
 62
    92
370
     5
100
AcDbLine
 10
1145.129659898359
 20
1916.96216897379
 30
0.0
 11
1145.129659898359
 21
2366.96216897379
 31
0.0
  0
LINE
  5
1AF
330
1F
100
AcDbEntity
  8
ハッチ
  6
Continuous
 62
   120
370
     5
100
AcDbLine
 10
1142.129659898354
 20
1990.578687586904
 30
0.0
 11
1071.512522840325
 21
1919.961550528874
 31
0.0
  0
LINE
  5
1B0
330
1F
100
AcDbEntity
  8
ハッチ
  6
Continuous
 62
   120
370
     5
100
AcDbLine
 10
1145.129659898359
 20
2061.460938580807
 30
0.0
 11
1003.630271846447
 21
1919.961550528895
 31
0.0
  0
LINE
  5
1B1
330
1F
100
AcDbEntity
  8
ハッチ
  6
Continuous
 62
   120
370
     5
100
AcDbLine
 10
1028.3373843279
 20
2351.96216897379
 30
0.0
 11
968.1294372025191
 21
2291.75422184841
 31
0.0
  0
LINE
  5
1B2
330
1F
100
AcDbEntity
  8
ハッチ
  6
Continuous
 62
   120
370
     5
100
AcDbLine
 10
1145.129659898359
 20
2129.343189574705
 30
0.0
 11
968.1294372025191
 21
1952.342966878865
 31
0.0
  0
LINE
  5
1B3
330
1F
100
AcDbEntity
  8
ハッチ
  6
Continuous
 62
   120
370
     5
100
AcDbLine
 10
1142.129659898357
 20
2329.989942556454
 30
0.0
 11
968.1294372025191
 21
2155.989719860614
 31
0.0
  0
LINE
  5
1B4
330
1F
100
AcDbEntity
  8
ハッチ
  6
Continuous
 62
   120
370
     5
100
AcDbLine
 10
1145.129659898359
 20
2265.107691562501
 30
0.0
 11
968.1294372025191
 21
2088.107468866661
 31
0.0
  0
LINE
  5
1B5
330
1F
100
AcDbEntity
  8
ハッチ
  6
Continuous
 62
   120
370
     5
100
AcDbLine
 10
1145.129659898359
 20
2197.225440568604
 30
0.0
 11
968.1294372025191
 21
2020.225217872763
 31
0.0
  0
LINE
  5
1B6
330
1F
100
AcDbEntity
  8
ハッチ
  6
Continuous
 62
   120
370
     5
100
AcDbLine
 10
1108.219635321796
 20
2363.96216897379
 30
0.0
 11
968.1294372025191
 21
2223.871970854502
 31
0.0
  0
LINE
  5
1B7
330
1F
100
AcDbEntity
  8
0-4_枠
  6
Continuous
 62
    92
370
     5
100
AcDbLine
 10
965.1294372025184
 20
1929.690091035148
 30
0.0
 11
965.1294372025184
 21
2366.96216897379
 31
0.0
  0
LINE
  5
1B8
330
1F
100
AcDbEntity
  8
0-4_枠
  6
Continuous
 62
    92
370
     5
100
AcDbLine
 10
977.8573592638762
 20
1916.96216897379
 30
0.0
 11
1145.129659898359
 21
1916.96216897379
 31
0.0
  0
LINE
  5
1B9
330
1F
100
AcDbEntity
  8
0-4_枠
  6
Continuous
 62
    92
370
     5
100
AcDbLine
 10
965.1294372025184
 20
1929.690091035148
 30
0.0
 11
977.8573592638762
 21
1916.96216897379
 31
0.0
  0
LINE
  5
1BA
330
1F
100
AcDbEntity
  8
0-4_枠
  6
Continuous
 62
    92
370
     5
100
AcDbLine
 10
1019.129659898363
 20
2366.96216897379
 30
0.0
 11
965.1294372025184
 21
2366.96216897379
 31
0.0
  0
LINE
  5
1BB
330
1F
100
AcDbEntity
  8
0-4_枠
  6
Continuous
 62
    92
370
     5
100
AcDbLine
 10
1019.129659898363
 20
2363.96216897379
 30
0.0
 11
968.1294372025191
 21
2363.96216897379
 31
0.0
  0
LINE
  5
1BC
330
1F
100
AcDbEntity
  8
0-4_枠
  6
Continuous
 62
    92
370
     5
100
AcDbLine
 10
1019.129659898363
 20
2366.96216897379
 30
0.0
 11
1019.129659898363
 21
2351.96216897379
 31
0.0
  0
LINE
  5
1BD
330
1F
100
AcDbEntity
  8
0-4_枠
  6
Continuous
 62
    92
370
     5
100
AcDbLine
 10
1091.129659898362
 20
2351.96216897379
 30
0.0
 11
1091.129659898362
 21
2366.96216897379
 31
0.0
  0
LINE
  5
1BE
330
1F
100
AcDbEntity
  8
0-4_枠
  6
Continuous
 62
    92
370
     5
100
AcDbLine
 10
1091.129659898362
 20
2366.96216897379
 30
0.0
 11
1145.129659898359
 21
2366.96216897379
 31
0.0
  0
LINE
  5
1BF
330
1F
100
AcDbEntity
  8
0-4_枠
  6
Continuous
 62
    92
370
     5
100
AcDbLine
 10
1091.129659898362
 20
2363.96216897379
 30
0.0
 11
1142.129659898359
 21
2363.96216897379
 31
0.0
  0
LINE
  5
1C0
330
1F
100
AcDbEntity
  8
0-4_枠
  6
Continuous
 62
    92
370
     5
100
AcDbLine
 10
1091.129659898362
 20
2351.96216897379
 30
0.0
 11
1019.129659898363
 21
2351.96216897379
 31
0.0
  0
LINE
  5
1C1
330
1F
100
AcDbEntity
  8
0-4_枠
  6
Continuous
 62
    92
370
     5
100
AcDbLine
 10
979.0999999509959
 20
1919.96216897379
 30
0.0
 11
1142.129659898359
 21
1919.96216897379
 31
0.0
  0
LINE
  5
1C2
330
1F
100
AcDbEntity
  8
0-4_枠
  6
Continuous
 62
    92
370
     5
100
AcDbLine
 10
968.1294372025191
 20
1930.932731722266
 30
0.0
 11
968.1294372025191
 21
2363.96216897379
 31
0.0
  0
LINE
  5
1C3
330
1F
100
AcDbEntity
  8
0-4_枠
  6
Continuous
 62
    92
370
     5
100
AcDbLine
 10
968.1294372025191
 20
1930.932731722266
 30
0.0
 11
979.0999999509959
 21
1919.96216897379
 31
0.0
  0
LINE
  5
1C4
330
1F
100
AcDbEntity
  8
0-4_枠
  6
Continuous
 62
    92
370
     5
100
AcDbLine
 10
2081.299750059774
 20
2834.234246912429
 30
0.0
 11
2094.027672121133
 21
2846.962168973787
 31
0.0
  0
LINE
  5
1C5
330
1F
100
AcDbEntity
  8
0-4_枠
  6
Continuous
 62
    92
370
     5
100
AcDbLine
 10
2081.299750059774
 20
2246.962168973787
 30
0.0
 11
2261.300343915346
 21
2246.962168973787
 31
0.0
  0
LINE
  5
1C6
330
1F
100
AcDbEntity
  8
0-4_枠
  6
Continuous
 62
    92
370
     5
100
AcDbLine
 10
2261.300343915346
 20
2246.962168973787
 30
0.0
 11
2261.300343915346
 21
2846.962168973787
 31
0.0
  0
LINE
  5
1C7
330
1F
100
AcDbEntity
  8
0-4_枠
  6
Continuous
 62
    92
370
     5
100
AcDbLine
 10
2258.300343915349
 20
2843.962168973786
 30
0.0
 11
2258.300343915349
 21
2756.962168973787
 31
0.0
  0
LINE
  5
1C8
330
1F
100
AcDbEntity
  8
0-4_枠
  6
Continuous
 62
    92
370
     5
100
AcDbLine
 10
2261.300343915346
 20
2756.962168973787
 30
0.0
 11
2258.300343915349
 21
2756.962168973787
 31
0.0
  0
LINE
  5
1C9
330
1F
100
AcDbEntity
  8
0-4_枠
  6
Continuous
 62
    92
370
     5
100
AcDbLine
 10
2258.300343915349
 20
2246.962168973787
 30
0.0
 11
2258.300343915349
 21
2336.962168973787
 31
0.0
  0
LINE
  5
1CA
330
1F
100
AcDbEntity
  8
0-4_枠
  6
Continuous
 62
    92
370
     5
100
AcDbLine
 10
2258.300343915349
 20
2336.962168973787
 30
0.0
 11
2261.300343915346
 21
2336.962168973787
 31
0.0
  0
LINE
  5
1CB
330
1F
100
AcDbEntity
  8
0-4_枠
  6
Continuous
 62
    92
370
     5
100
AcDbLine
 10
2117.299750059776
 20
2372.962168973787
 30
0.0
 11
2081.299750059774
 21
2372.962168973787
 31
0.0
  0
LINE
  5
1CC
330
1F
100
AcDbEntity
  8
0-4_枠
  6
Continuous
 62
    92
370
     5
100
AcDbLine
 10
2084.299315184286
 20
2246.962168973787
 30
0.0
 11
2084.299315184286
 21
2372.962168973787
 31
0.0
  0
LINE
  5
1CD
330
1F
100
AcDbEntity
  8
0-4_枠
  6
Continuous
 62
    92
370
     5
100
AcDbLine
 10
2081.299750059774
 20
2246.962168973787
 30
0.0
 11
2081.299750059774
 21
2372.962168973787
 31
0.0
  0
LINE
  5
1CE
330
1F
100
AcDbEntity
  8
0-4_枠
  6
Continuous
 62
    92
370
     5
100
AcDbLine
 10
2117.299750059776
 20
2372.962168973787
 30
0.0
 11
2117.299750059776
 21
2618.962168973788
 31
0.0
  0
LINE
  5
1CF
330
1F
100
AcDbEntity
  8
0-4_枠
  6
Continuous
 62
    92
370
     5
100
AcDbLine
 10
2117.299750059776
 20
2618.962168973788
 30
0.0
 11
2081.299750059774
 21
2618.962168973788
 31
0.0
  0
LINE
  5
1D0
330
1F
100
AcDbEntity
  8
ハッチ
  6
JWW_DASHED1
 62
   120
370
     5
100
AcDbLine
 10
2261.300343915346
 20
2770.780081462216
 30
0.0
 11
2262.48243142691
 21
2771.962168973781
 31
0.0
  0
LINE
  5
1D1
330
1F
100
AcDbEntity
  8
ハッチ
  6
Continuous
 62
   120
370
     5
100
AcDbLine
 10
2258.300778790835
 20
2284.458302998224
 30
0.0
 11
2220.804644766403
 21
2246.962168973792
 31
0.0
  0
LINE
  5
1D2
330
1F
100
AcDbEntity
  8
ハッチ
  6
Continuous
 62
   120
370
     5
100
AcDbLine
 10
2261.300343915346
 20
2355.340119116634
 30
0.0
 11
2152.922393772502
 21
2246.96216897379
 31
0.0
  0
LINE
  5
1D3
330
1F
100
AcDbEntity
  8
ハッチ
  6
Continuous
 62
   120
370
     5
100
AcDbLine
 10
2261.300343915346
 20
2491.104621104485
 30
0.0
 11
2084.299750059778
 21
2314.104027248919
 31
0.0
  0
LINE
  5
1D4
330
1F
100
AcDbEntity
  8
ハッチ
  6
Continuous
 62
   120
370
     5
100
AcDbLine
 10
2261.300343915346
 20
2423.222370110586
 30
0.0
 11
2085.04014277854
 21
2246.962168973782
 31
0.0
  0
LINE
  5
1D5
330
1F
100
AcDbEntity
  8
ハッチ
  6
Continuous
 62
   120
370
     5
100
AcDbLine
 10
2261.300343915346
 20
2558.986872098384
 30
0.0
 11
2117.299750059776
 21
2414.986278242814
 31
0.0
  0
LINE
  5
1D6
330
1F
100
AcDbEntity
  8
ハッチ
  6
Continuous
 62
   120
370
     5
100
AcDbLine
 10
2261.300343915346
 20
2694.751374086182
 30
0.0
 11
2117.299750059776
 21
2550.75078023061
 31
0.0
  0
LINE
  5
1D7
330
1F
100
AcDbEntity
  8
ハッチ
  6
Continuous
 62
   120
370
     5
100
AcDbLine
 10
2261.300343915346
 20
2626.869123092284
 30
0.0
 11
2117.299750059776
 21
2482.868529236712
 31
0.0
  0
LINE
  5
1D8
330
1F
100
AcDbEntity
  8
ハッチ
  6
Continuous
 62
   120
370
     5
100
AcDbLine
 10
2258.300343915349
 20
2759.633625080136
 30
0.0
 11
2117.299750059776
 21
2618.633031224563
 31
0.0
  0
LINE
  5
1D9
330
1F
100
AcDbEntity
  8
ハッチ
  6
Continuous
 62
   120
370
     5
100
AcDbLine
 10
2138.982134827301
 20
2843.962168973783
 30
0.0
 11
2084.299750059775
 21
2789.279784206256
 31
0.0
  0
LINE
  5
1DA
330
1F
100
AcDbEntity
  8
ハッチ
  6
Continuous
 62
   120
370
     5
100
AcDbLine
 10
2258.300343915352
 20
2827.515876074036
 30
0.0
 11
2084.299750059775
 21
2653.515282218459
 31
0.0
  0
LINE
  5
1DB
330
1F
100
AcDbEntity
  8
ハッチ
  6
Continuous
 62
   120
370
     5
100
AcDbLine
 10
2206.864385821193
 20
2843.962168973774
 30
0.0
 11
2084.299750059775
 21
2721.397533212358
 31
0.0
  0
LINE
  5
1DC
330
1F
100
AcDbEntity
  8
0-4_枠
  6
Continuous
 62
    92
370
     5
100
AcDbLine
 10
2081.299750059774
 20
2834.234246912429
 30
0.0
 11
2081.299750059774
 21
2618.962168973788
 31
0.0
  0
LINE
  5
1DD
330
1F
100
AcDbEntity
  8
0-4_枠
  6
Continuous
 62
    92
370
     5
100
AcDbLine
 10
2094.027672121133
 20
2846.962168973787
 30
0.0
 11
2261.300343915346
 21
2846.962168973787
 31
0.0
  0
LINE
  5
1DE
330
1F
100
AcDbEntity
  8
0-4_枠
  6
Continuous
 62
    92
370
     5
100
AcDbLine
 10
2095.270312808251
 20
2843.962168973786
 30
0.0
 11
2258.300343915349
 21
2843.962168973786
 31
0.0
  0
LINE
  5
1DF
330
1F
100
AcDbEntity
  8
0-4_枠
  6
Continuous
 62
    92
370
     5
100
AcDbLine
 10
2084.299750059775
 20
2832.991606225312
 30
0.0
 11
2095.270312808251
 21
2843.962168973786
 31
0.0
  0
LINE
  5
1E0
330
1F
100
AcDbEntity
  8
0-4_枠
  6
Continuous
 62
    92
370
     5
100
AcDbLine
 10
2084.299750059775
 20
2832.991606225312
 30
0.0
 11
2084.299750059775
 21
2618.962168973788
 31
0.0
  0
LINE
  5
1E1
330
1F
100
AcDbEntity
  8
0-4_枠
  6
Continuous
 62
    92
370
     5
100
AcDbLine
 10
-1123.210520424487
 20
2006.96216897379
 30
0.0
 11
-1120.210520424486
 21
2006.96216897379
 31
0.0
  0
LINE
  5
1E2
330
1F
100
AcDbEntity
  8
0-4_枠
  6
Continuous
 62
    92
370
     5
100
AcDbLine
 10
-1120.210520424486
 20
2006.96216897379
 30
0.0
 11
-1120.210520424486
 21
1919.96216897379
 31
0.0
  0
LINE
  5
1E3
330
1F
100
AcDbEntity
  8
0-4_枠
  6
Continuous
 62
    92
370
     5
100
AcDbLine
 10
-1123.210520424487
 20
2276.96216897379
 30
0.0
 11
-1120.210520424486
 21
2276.96216897379
 31
0.0
  0
LINE
  5
1E4
330
1F
100
AcDbEntity
  8
0-4_枠
  6
Continuous
 62
    92
370
     5
100
AcDbLine
 10
-1120.210520424486
 20
2276.96216897379
 30
0.0
 11
-1120.210520424486
 21
2363.96216897379
 31
0.0
  0
LINE
  5
1E5
330
1F
100
AcDbEntity
  8
0-4_枠
  6
Continuous
 62
    92
370
     5
100
AcDbLine
 10
-1123.210520424487
 20
1916.96216897379
 30
0.0
 11
-1123.210520424487
 21
2366.96216897379
 31
0.0
  0
LINE
  5
1E6
330
1F
100
AcDbEntity
  8
0-4_枠
  6
Continuous
 62
    92
370
     5
100
AcDbLine
 10
-943.2102977286461
 20
1929.690091035148
 30
0.0
 11
-943.2102977286461
 21
2366.96216897379
 31
0.0
  0
LINE
  5
1E7
330
1F
100
AcDbEntity
  8
0-4_枠
  6
Continuous
 62
    92
370
     5
100
AcDbLine
 10
-955.938219790004
 20
1916.96216897379
 30
0.0
 11
-1123.210520424487
 21
1916.96216897379
 31
0.0
  0
LINE
  5
1E8
330
1F
100
AcDbEntity
  8
0-4_枠
  6
Continuous
 62
    92
370
     5
100
AcDbLine
 10
-943.2102977286461
 20
1929.690091035148
 30
0.0
 11
-955.938219790004
 21
1916.96216897379
 31
0.0
  0
LINE
  5
1E9
330
1F
100
AcDbEntity
  8
0-4_枠
  6
Continuous
 62
    92
370
     5
100
AcDbLine
 10
-997.2105204244905
 20
2366.96216897379
 30
0.0
 11
-943.2102977286461
 21
2366.96216897379
 31
0.0
  0
LINE
  5
1EA
330
1F
100
AcDbEntity
  8
0-4_枠
  6
Continuous
 62
    92
370
     5
100
AcDbLine
 10
-997.2105204244905
 20
2363.96216897379
 30
0.0
 11
-946.2102977286468
 21
2363.96216897379
 31
0.0
  0
LINE
  5
1EB
330
1F
100
AcDbEntity
  8
0-4_枠
  6
Continuous
 62
    92
370
     5
100
AcDbLine
 10
-997.2105204244905
 20
2366.96216897379
 30
0.0
 11
-997.2105204244905
 21
2351.96216897379
 31
0.0
  0
LINE
  5
1EC
330
1F
100
AcDbEntity
  8
0-4_枠
  6
Continuous
 62
    92
370
     5
100
AcDbLine
 10
-1069.21052042449
 20
2351.96216897379
 30
0.0
 11
-1069.21052042449
 21
2366.96216897379
 31
0.0
  0
LINE
  5
1ED
330
1F
100
AcDbEntity
  8
0-4_枠
  6
Continuous
 62
    92
370
     5
100
AcDbLine
 10
-1069.21052042449
 20
2366.96216897379
 30
0.0
 11
-1123.210520424487
 21
2366.96216897379
 31
0.0
  0
LINE
  5
1EE
330
1F
100
AcDbEntity
  8
0-4_枠
  6
Continuous
 62
    92
370
     5
100
AcDbLine
 10
-1069.21052042449
 20
2363.96216897379
 30
0.0
 11
-1120.210520424486
 21
2363.96216897379
 31
0.0
  0
LINE
  5
1EF
330
1F
100
AcDbEntity
  8
0-4_枠
  6
Continuous
 62
    92
370
     5
100
AcDbLine
 10
-1069.21052042449
 20
2351.96216897379
 30
0.0
 11
-997.2105204244905
 21
2351.96216897379
 31
0.0
  0
LINE
  5
1F0
330
1F
100
AcDbEntity
  8
0-4_枠
  6
Continuous
 62
    92
370
     5
100
AcDbLine
 10
-957.1808604771234
 20
1919.96216897379
 30
0.0
 11
-1120.210520424486
 21
1919.96216897379
 31
0.0
  0
LINE
  5
1F1
330
1F
100
AcDbEntity
  8
0-4_枠
  6
Continuous
 62
    92
370
     5
100
AcDbLine
 10
-946.2102977286468
 20
1930.932731722266
 30
0.0
 11
-946.2102977286468
 21
2363.96216897379
 31
0.0
  0
LINE
  5
1F2
330
1F
100
AcDbEntity
  8
0-4_枠
  6
Continuous
 62
    92
370
     5
100
AcDbLine
 10
-946.2102977286468
 20
1930.932731722266
 30
0.0
 11
-957.1808604771234
 21
1919.96216897379
 31
0.0
  0
LINE
  5
1F3
330
1F
100
AcDbEntity
  8
0-4_枠
  6
Continuous
 62
    92
370
     5
100
AcDbLine
 10
-2059.380610585902
 20
2834.234246912429
 30
0.0
 11
-2072.10853264726
 21
2846.962168973787
 31
0.0
  0
LINE
  5
1F4
330
1F
100
AcDbEntity
  8
0-4_枠
  6
Continuous
 62
    92
370
     5
100
AcDbLine
 10
-2059.380610585902
 20
2246.962168973787
 30
0.0
 11
-2239.381204441474
 21
2246.962168973787
 31
0.0
  0
LINE
  5
1F5
330
1F
100
AcDbEntity
  8
0-4_枠
  6
Continuous
 62
    92
370
     5
100
AcDbLine
 10
-2239.381204441474
 20
2246.962168973787
 30
0.0
 11
-2239.381204441474
 21
2846.962168973787
 31
0.0
  0
LINE
  5
1F6
330
1F
100
AcDbEntity
  8
0-4_枠
  6
Continuous
 62
    92
370
     5
100
AcDbLine
 10
-2236.381204441476
 20
2843.962168973786
 30
0.0
 11
-2236.381204441476
 21
2756.962168973787
 31
0.0
  0
LINE
  5
1F7
330
1F
100
AcDbEntity
  8
0-4_枠
  6
Continuous
 62
    92
370
     5
100
AcDbLine
 10
-2239.381204441474
 20
2756.962168973787
 30
0.0
 11
-2236.381204441476
 21
2756.962168973787
 31
0.0
  0
LINE
  5
1F8
330
1F
100
AcDbEntity
  8
0-4_枠
  6
Continuous
 62
    92
370
     5
100
AcDbLine
 10
-2236.381204441476
 20
2246.962168973787
 30
0.0
 11
-2236.381204441476
 21
2336.962168973787
 31
0.0
  0
LINE
  5
1F9
330
1F
100
AcDbEntity
  8
0-4_枠
  6
Continuous
 62
    92
370
     5
100
AcDbLine
 10
-2236.381204441476
 20
2336.962168973787
 30
0.0
 11
-2239.381204441474
 21
2336.962168973787
 31
0.0
  0
LINE
  5
1FA
330
1F
100
AcDbEntity
  8
0-4_枠
  6
Continuous
 62
    92
370
     5
100
AcDbLine
 10
-2095.380610585903
 20
2372.962168973787
 30
0.0
 11
-2059.380610585902
 21
2372.962168973787
 31
0.0
  0
LINE
  5
1FB
330
1F
100
AcDbEntity
  8
0-4_枠
  6
Continuous
 62
    92
370
     5
100
AcDbLine
 10
-2062.380175710413
 20
2246.962168973787
 30
0.0
 11
-2062.380175710413
 21
2372.962168973787
 31
0.0
  0
LINE
  5
1FC
330
1F
100
AcDbEntity
  8
0-4_枠
  6
Continuous
 62
    92
370
     5
100
AcDbLine
 10
-2059.380610585902
 20
2246.962168973787
 30
0.0
 11
-2059.380610585902
 21
2372.962168973787
 31
0.0
  0
LINE
  5
1FD
330
1F
100
AcDbEntity
  8
0-4_枠
  6
Continuous
 62
    92
370
     5
100
AcDbLine
 10
-2095.380610585903
 20
2372.962168973787
 30
0.0
 11
-2095.380610585903
 21
2618.962168973788
 31
0.0
  0
LINE
  5
1FE
330
1F
100
AcDbEntity
  8
0-4_枠
  6
Continuous
 62
    92
370
     5
100
AcDbLine
 10
-2095.380610585903
 20
2618.962168973788
 30
0.0
 11
-2059.380610585902
 21
2618.962168973788
 31
0.0
  0
LINE
  5
1FF
330
1F
100
AcDbEntity
  8
0-4_枠
  6
Continuous
 62
    92
370
     5
100
AcDbLine
 10
-2059.380610585902
 20
2834.234246912429
 30
0.0
 11
-2059.380610585902
 21
2618.962168973788
 31
0.0
  0
LINE
  5
200
330
1F
100
AcDbEntity
  8
0-4_枠
  6
Continuous
 62
    92
370
     5
100
AcDbLine
 10
-2072.10853264726
 20
2846.962168973787
 30
0.0
 11
-2239.381204441474
 21
2846.962168973787
 31
0.0
  0
LINE
  5
201
330
1F
100
AcDbEntity
  8
0-4_枠
  6
Continuous
 62
    92
370
     5
100
AcDbLine
 10
-2073.351173334378
 20
2843.962168973786
 30
0.0
 11
-2236.381204441476
 21
2843.962168973786
 31
0.0
  0
LINE
  5
202
330
1F
100
AcDbEntity
  8
0-4_枠
  6
Continuous
 62
    92
370
     5
100
AcDbLine
 10
-2062.380610585903
 20
2832.991606225312
 30
0.0
 11
-2073.351173334378
 21
2843.962168973786
 31
0.0
  0
LINE
  5
203
330
1F
100
AcDbEntity
  8
0-4_枠
  6
Continuous
 62
    92
370
     5
100
AcDbLine
 10
-2062.380610585903
 20
2832.991606225312
 30
0.0
 11
-2062.380610585903
 21
2618.962168973788
 31
0.0
  0
LINE
  5
204
330
1F
100
AcDbEntity
  8
ハッチ
  6
Continuous
 62
   120
370
     5
100
AcDbLine
 10
-1060.003191744025
 20
2351.96216897379
 30
0.0
 11
-1120.210520424505
 21
2291.754840293309
 31
0.0
  0
LINE
  5
205
330
1F
100
AcDbEntity
  8
ハッチ
  6
Continuous
 62
   120
370
     5
100
AcDbLine
 10
-980.1209407501283
 20
2363.96216897379
 30
0.0
 11
-1123.210520424485
 21
2220.872589299423
 31
0.0
  0
LINE
  5
206
330
1F
100
AcDbEntity
  8
ハッチ
  6
Continuous
 62
   120
370
     5
100
AcDbLine
 10
972.4551333339911
 20
2363.96216897379
 30
0.0
 11
968.1294372025191
 21
2359.636472842317
 31
0.0
  0
LINE
  5
207
330
1F
100
AcDbEntity
  8
ハッチ
  6
Continuous
 62
   120
370
     5
100
AcDbLine
 10
-1115.885442737914
 20
2363.96216897379
 30
0.0
 11
-1120.210520424496
 21
2359.637091287207
 31
0.0
  0
LWPOLYLINE
  5
208
330
1F
100
AcDbEntity
  8
0-B_寸法
  6
Continuous
 62
     7
370
     5
100
AcDbPolyline
 90
        4
 70
     1
 43
3.0
 10
-757.4823058512694
 20
2366.962168973787
 42
0.4142135623731
 10
-758.9823058512694
 20
2368.462168973787
 42
0.4142135623731
 10
-760.4823058512694
 20
2366.962168973787
 42
0.4142135623731
 10
-758.9823058512694
 20
2365.462168973787
 42
0.4142135623731
  0
LWPOLYLINE
  5
209
330
1F
100
AcDbEntity
  8
0-B_寸法
  6
Continuous
 62
     7
370
     5
100
AcDbPolyline
 90
        4
 70
     1
 43
3.0
 10
-757.4823058512694
 20
2405.963653612724
 42
0.4142135623731
 10
-758.9823058512694
 20
2407.463653612724
 42
0.4142135623731
 10
-760.4823058512694
 20
2405.963653612724
 42
0.4142135623731
 10
-758.9823058512694
 20
2404.463653612724
 42
0.4142135623731
  0
LWPOLYLINE
  5
20A
330
1F
100
AcDbEntity
  8
0-B_寸法
  6
Continuous
 62
     7
370
     5
100
AcDbPolyline
 90
        4
 70
     1
 43
3.0
 10
-757.4823058512694
 20
2585.964395932192
 42
0.4142135623731
 10
-758.9823058512694
 20
2587.464395932192
 42
0.4142135623731
 10
-760.4823058512694
 20
2585.964395932192
 42
0.4142135623731
 10
-758.9823058512694
 20
2584.464395932192
 42
0.4142135623731
  0
LINE
  5
20B
330
1F
100
AcDbEntity
  8
0-B_寸法
  6
Continuous
 62
   120
370
     5
100
AcDbLine
 10
-758.9823058512694
 20
2585.964395932192
 30
0.0
 11
-758.9823058512694
 21
1916.96216897379
 31
0.0
  0
LWPOLYLINE
  5
20C
330
1F
100
AcDbEntity
  8
0-B_寸法
  6
Continuous
 62
     7
370
     5
100
AcDbPolyline
 90
        4
 70
     1
 43
3.0
 10
-757.4823058512694
 20
1916.96216897379
 42
0.4142135623731
 10
-758.9823058512694
 20
1918.46216897379
 42
0.4142135623731
 10
-760.4823058512694
 20
1916.96216897379
 42
0.4142135623731
 10
-758.9823058512694
 20
1915.46216897379
 42
0.4142135623731
  0
LINE
  5
20D
330
1F
100
AcDbEntity
  8
0-B_寸法
  6
Continuous
 62
   120
370
     5
100
AcDbLine
 10
-909.2600570521789
 20
1916.96216897379
 30
0.0
 11
-758.9823058512694
 21
1916.96216897379
 31
0.0
  0
LINE
  5
20E
330
1F
100
AcDbEntity
  8
0-B_寸法
  6
Continuous
 62
   120
370
     5
100
AcDbLine
 10
-1815.534109308095
 20
2246.962168973801
 30
0.0
 11
-1969.3806105859
 21
2246.962168973801
 31
0.0
  0
LWPOLYLINE
  5
20F
330
1F
100
AcDbEntity
  8
0-B_寸法
  6
Continuous
 62
     7
370
     5
100
AcDbPolyline
 90
        4
 70
     1
 43
3.0
 10
-1814.034109308095
 20
2246.962168973801
 42
0.4142135623731
 10
-1815.534109308095
 20
2248.462168973801
 42
0.4142135623731
 10
-1817.034109308095
 20
2246.962168973801
 42
0.4142135623731
 10
-1815.534109308095
 20
2245.462168973801
 42
0.4142135623731
  0
LINE
  5
210
330
1F
100
AcDbEntity
  8
0-B_寸法
  6
Continuous
 62
   120
370
     5
100
AcDbLine
 10
-1815.534109308095
 20
2846.962168973789
 30
0.0
 11
-1969.3806105859
 21
2846.962168973789
 31
0.0
  0
LWPOLYLINE
  5
211
330
1F
100
AcDbEntity
  8
0-B_寸法
  6
Continuous
 62
     7
370
     5
100
AcDbPolyline
 90
        4
 70
     1
 43
3.0
 10
-1814.034109308095
 20
2846.962168973789
 42
0.4142135623731
 10
-1815.534109308095
 20
2848.462168973789
 42
0.4142135623731
 10
-1817.034109308095
 20
2846.962168973789
 42
0.4142135623731
 10
-1815.534109308095
 20
2845.462168973789
 42
0.4142135623731
  0
LINE
  5
212
330
1F
100
AcDbEntity
  8
0-B_寸法
  6
Continuous
 62
   120
370
     5
100
AcDbLine
 10
-1815.534109308095
 20
2846.962168973789
 30
0.0
 11
-1815.534109308095
 21
2246.962168973801
 31
0.0
  0
MTEXT
  5
213
330
1F
100
AcDbEntity
  8
0-B_寸法
  6
Continuous
 62
     7
370
     0
100
AcDbMText
 10
206.6383002266618
 20
2415.682168973789
 30
0.0
 40
91.43999999999998
 41
540.0
 46
0.0
 71
     7
 72
     1
  1
{\fＭＳ ゴシック|b0|i0|c128|p49;ＤＷ＝810}
 73
     1
 44
1.0
  0
MTEXT
  5
214
330
1F
100
AcDbEntity
  8
0-B_寸法
  6
Continuous
 62
     7
370
     0
100
AcDbMText
 10
-773.9823553392317
 20
2067.682168973789
 30
0.0
 40
91.44
 41
120.0
 46
0.0
 71
     7
 72
     1
  1
{\fＭＳ ゴシック|b0|i0|c128|p49;75}
 11
6.123031769111886E-17
 21
1.0
 31
0.0
 73
     1
 44
1.0
  0
MTEXT
  5
215
330
1F
100
AcDbEntity
  8
0-B_寸法
  6
Continuous
 62
     7
370
     0
100
AcDbMText
 10
-773.9823553392317
 20
2421.684826477484
 30
0.0
 40
91.44
 41
120.0
 46
0.0
 71
     7
 72
     1
  1
{\fＭＳ ゴシック|b0|i0|c128|p49;30}
 11
6.123031769111886E-17
 21
1.0
 31
0.0
 73
     1
 44
1.0
  0
MTEXT
  5
216
330
1F
100
AcDbEntity
  8
0-B_寸法
  6
Continuous
 62
     7
370
   211
100
AcDbMText
 10
-631.187812287685
 20
2273.574232816244
 30
0.0
 40
91.44
 41
180.0
 46
0.0
 71
     7
 72
     1
  1
{\fＭＳ ゴシック|b0|i0|c128|p49;6.5}
 11
6.123031769111886E-17
 21
1.0
 31
0.0
 73
     1
 44
1.0
  0
LINE
  5
217
330
1F
100
AcDbEntity
  8
0-6_扉
  6
Continuous
 62
   200
370
     5
100
AcDbLine
 10
-1123.210520424487
 20
2405.962168973788
 30
0.0
 11
-514.7191607527877
 21
2405.962168973788
 31
0.0
  0
LINE
  5
218
330
1F
100
AcDbEntity
  8
0-B_寸法
  6
Continuous
 62
   120
370
     5
100
AcDbLine
 10
-909.2600570521789
 20
2366.962168973787
 30
0.0
 11
-758.9823058512694
 21
2366.962168973787
 31
0.0
  0
LINE
  5
219
330
1F
100
AcDbEntity
  8
0-B_寸法
  6
Continuous
 62
   120
370
     5
100
AcDbLine
 10
-909.2600570521789
 20
2405.963653612724
 30
0.0
 11
-758.9823058512694
 21
2405.963653612724
 31
0.0
  0
LINE
  5
21A
330
1F
100
AcDbEntity
  8
0-4_枠
  6
Continuous
 62
   120
370
     5
100
AcDbLine
 10
-1438.719160172431
 20
2771.962168973789
 30
0.0
 11
-514.7191607527877
 21
2771.962168973789
 31
0.0
  0
LINE
  5
21B
330
1F
100
AcDbEntity
  8
0-4_枠
  6
Continuous
 62
   120
370
     5
100
AcDbLine
 10
-394.7191607527877
 20
2771.962168973789
 30
0.0
 11
428.282511488871
 21
2771.962168973789
 31
0.0
  0
LINE
  5
21C
330
1F
100
AcDbEntity
  8
0-4_枠
  6
Continuous
 62
   120
370
     5
100
AcDbLine
 10
548.282511488871
 20
2771.962168973789
 30
0.0
 11
1562.259528081815
 21
2771.962168973789
 31
0.0
  0
LINE
  5
21D
330
1F
100
AcDbEntity
  8
0-4_枠
  6
Continuous
 62
   120
370
     5
100
AcDbLine
 10
-2059.380610585902
 20
2771.962168973789
 30
0.0
 11
-1558.719160172431
 21
2771.962168973789
 31
0.0
  0
LINE
  5
21E
330
1F
100
AcDbEntity
  8
0-4_枠
  6
Continuous
 62
   120
370
     5
100
AcDbLine
 10
1682.259528081815
 20
2771.962168973789
 30
0.0
 11
2081.299750059774
 21
2771.962168973789
 31
0.0
  0
LINE
  5
21F
330
1F
100
AcDbEntity
  8
0-4_枠
  6
Continuous
 62
   120
370
     5
100
AcDbLine
 10
-943.2105204244816
 20
1991.962168973789
 30
0.0
 11
-514.7191607527877
 21
1991.962168973789
 31
0.0
  0
LINE
  5
220
330
1F
100
AcDbEntity
  8
0-4_枠
  6
Continuous
 62
   120
370
     5
100
AcDbLine
 10
-394.7191607527877
 20
1991.962168973789
 30
0.0
 11
428.282511488871
 21
1991.962168973789
 31
0.0
  0
LINE
  5
221
330
1F
100
AcDbEntity
  8
0-4_枠
  6
Continuous
 62
   120
370
     5
100
AcDbLine
 10
548.282511488871
 20
1991.962168973789
 30
0.0
 11
965.1296598983556
 21
1991.962168973789
 31
0.0
  0
LINE
  5
222
330
1F
100
AcDbEntity
  8
仕上げ
  6
Continuous
 62
    40
370
     5
100
AcDbLine
 10
1682.259528081815
 20
2861.962168973789
 30
0.0
 11
2591.253782084962
 21
2861.962168973789
 31
0.0
  0
LINE
  5
223
330
1F
100
AcDbEntity
  8
仕上げ
  6
Continuous
 62
    40
370
     5
100
AcDbLine
 10
-2568.454767300413
 20
2861.962168973789
 30
0.0
 11
-1558.719160172431
 21
2861.962168973789
 31
0.0
  0
MTEXT
  5
224
330
1F
100
AcDbEntity
  8
0-A_文字
  6
Continuous
 62
     7
370
     0
100
AcDbMText
 10
2645.817143732294
 20
2901.571860969676
 30
0.0
 40
91.44
 41
240.0
 46
0.0
 71
     7
 72
     1
  1
{\fＭＳ ゴシック|b0|i0|c128|p49;畳寄}
 73
     1
 44
1.0
  0
LINE
  5
225
330
1F
100
AcDbEntity
  8
0-A_文字
  6
Continuous
 62
     7
370
     5
100
AcDbLine
 10
2655.377776565771
 20
2975.851860969676
 30
0.0
 11
2615.817143732294
 21
2975.851860969676
 31
0.0
  0
LINE
  5
226
330
1F
100
AcDbEntity
  8
0-A_文字
  6
Continuous
 62
     7
370
     5
100
AcDbLine
 10
2556.039006053906
 20
2833.522082745772
 30
0.0
 11
2615.817143732294
 21
2975.851860969676
 31
0.0
  0
MTEXT
  5
227
330
1F
100
AcDbEntity
  8
0-A_文字
  6
Continuous
 62
     7
370
     5
100
AcDbMText
 10
-223.5585037940982
 20
2997.682168973789
 30
0.0
 40
91.44
 41
480.0
 46
0.0
 71
     7
 72
     1
  1
{\fＭＳ ゴシック|b0|i0|c128|p49;和室側・}
 73
     1
 44
1.0
  0
LINE
  5
228
330
1F
100
AcDbEntity
  8
0-A_文字
  6
Continuous
 62
     7
370
     5
100
AcDbLine
 10
-283.5585037940982
 20
3191.962168973789
 30
0.0
 11
-283.5585037940982
 21
2951.962168973789
 31
0.0
  0
LINE
  5
229
330
1F
100
AcDbEntity
  8
0-A_文字
  6
Continuous
 62
     7
370
     5
100
AcDbLine
 10
316.4414962059027
 20
3191.962168973789
 30
0.0
 11
-283.5585037940982
 21
3191.962168973789
 31
0.0
  0
LINE
  5
22A
330
1F
100
AcDbEntity
  8
0-A_文字
  6
Continuous
 62
     7
370
     5
100
AcDbLine
 10
-283.5585037940982
 20
2951.962168973789
 30
0.0
 11
316.4414962059027
 21
2951.962168973789
 31
0.0
  0
LINE
  5
22B
330
1F
100
AcDbEntity
  8
0-A_文字
  6
Continuous
 62
     7
370
     5
100
AcDbLine
 10
316.4414962059027
 20
2951.962168973789
 30
0.0
 11
316.4414962059027
 21
3191.962168973789
 31
0.0
  0
MTEXT
  5
22C
330
1F
100
AcDbEntity
  8
0-A_文字
  6
Continuous
 62
     7
370
     5
100
AcDbMText
 10
-223.5585037940982
 20
1712.408419510912
 30
0.0
 40
91.44
 41
480.0
 46
0.0
 71
     7
 72
     1
  1
{\fＭＳ ゴシック|b0|i0|c128|p49;洋室側・}
 73
     1
 44
1.0
  0
LINE
  5
22D
330
1F
100
AcDbEntity
  8
0-A_文字
  6
Continuous
 62
     7
370
     5
100
AcDbLine
 10
316.4414962059027
 20
1906.688419510912
 30
0.0
 11
-283.5585037940982
 21
1906.688419510912
 31
0.0
  0
LINE
  5
22E
330
1F
100
AcDbEntity
  8
0-A_文字
  6
Continuous
 62
     7
370
     5
100
AcDbLine
 10
-283.5585037940982
 20
1666.688419510912
 30
0.0
 11
316.4414962059027
 21
1666.688419510912
 31
0.0
  0
LINE
  5
22F
330
1F
100
AcDbEntity
  8
0-A_文字
  6
Continuous
 62
     7
370
     5
100
AcDbLine
 10
316.4414962059027
 20
1666.688419510912
 30
0.0
 11
316.4414962059027
 21
1906.688419510912
 31
0.0
  0
LINE
  5
230
330
1F
100
AcDbEntity
  8
0-A_文字
  6
Continuous
 62
     7
370
     5
100
AcDbLine
 10
-283.5585037940982
 20
1906.688419510912
 30
0.0
 11
-283.5585037940982
 21
1666.688419510912
 31
0.0
  0
LINE
  5
231
330
1F
100
AcDbEntity
  8
0-B_寸法
  6
Continuous
 62
   120
370
     5
100
AcDbLine
 10
-2059.380610585912
 20
1246.688419510911
 30
0.0
 11
-1123.210520424485
 21
1246.688419510911
 31
0.0
  0
LWPOLYLINE
  5
232
330
1F
100
AcDbEntity
  8
0-B_寸法
  6
Continuous
 62
     7
370
     5
100
AcDbPolyline
 90
        4
 70
     1
 43
3.0
 10
-2057.880610585912
 20
1246.688419510911
 42
0.4142135623731
 10
-2059.380610585912
 20
1248.188419510911
 42
0.4142135623731
 10
-2060.880610585911
 20
1246.688419510911
 42
0.4142135623731
 10
-2059.380610585912
 20
1245.188419510911
 42
0.4142135623731
  0
LWPOLYLINE
  5
233
330
1F
100
AcDbEntity
  8
0-B_寸法
  6
Continuous
 62
     7
370
     5
100
AcDbPolyline
 90
        4
 70
     1
 43
3.0
 10
-1121.710520424485
 20
1246.688419510911
 42
0.4142135623731
 10
-1123.210520424485
 20
1248.188419510911
 42
0.4142135623731
 10
-1124.710520424485
 20
1246.688419510911
 42
0.4142135623731
 10
-1123.210520424485
 20
1245.188419510911
 42
0.4142135623731
  0
LINE
  5
234
330
1F
100
AcDbEntity
  8
0-B_寸法
  6
Continuous
 62
   120
370
     5
100
AcDbLine
 10
-2059.380610585912
 20
1036.688419510911
 30
0.0
 11
-2059.380610585912
 21
1606.688419510912
 31
0.0
  0
LINE
  5
235
330
1F
100
AcDbEntity
  8
0-B_寸法
  6
Continuous
 62
   120
370
     5
100
AcDbLine
 10
-1123.210520424485
 20
1246.688419510911
 30
0.0
 11
-1123.210520424485
 21
1606.688419510912
 31
0.0
  0
LINE
  5
236
330
1F
100
AcDbEntity
  8
0-B_寸法
  6
Continuous
 62
   120
370
     5
100
AcDbLine
 10
-1123.210520424485
 20
1246.688419510911
 30
0.0
 11
-943.2105204244816
 21
1246.688419510911
 31
0.0
  0
LWPOLYLINE
  5
237
330
1F
100
AcDbEntity
  8
0-B_寸法
  6
Continuous
 62
     7
370
     5
100
AcDbPolyline
 90
        4
 70
     1
 43
3.0
 10
-941.7105204244816
 20
1246.688419510911
 42
0.4142135623731
 10
-943.2105204244816
 20
1248.188419510911
 42
0.4142135623731
 10
-944.7105204244816
 20
1246.688419510911
 42
0.4142135623731
 10
-943.2105204244816
 20
1245.188419510911
 42
0.4142135623731
  0
LINE
  5
238
330
1F
100
AcDbEntity
  8
0-B_寸法
  6
Continuous
 62
   120
370
     5
100
AcDbLine
 10
-943.2105204244816
 20
1246.688419510911
 30
0.0
 11
-943.2105204244816
 21
1606.688419510912
 31
0.0
  0
MTEXT
  5
239
330
1F
100
AcDbEntity
  8
0-B_寸法
  6
Continuous
 62
     7
370
   211
100
AcDbMText
 10
-1096.960520424483
 20
1250.265919510911
 30
0.0
 40
97.15499999999999
 41
127.5
 46
0.0
 71
     7
 72
     1
  1
{\fＭＳ ゴシック|b0|i0|c128|p49;30}
 73
     1
 44
1.0
  0
LINE
  5
23A
330
1F
100
AcDbEntity
  8
0-B_寸法
  6
Continuous
 62
   120
370
     5
100
AcDbLine
 10
-943.2105204244816
 20
1246.688419510911
 30
0.0
 11
965.1296598983556
 21
1246.688419510911
 31
0.0
  0
LWPOLYLINE
  5
23B
330
1F
100
AcDbEntity
  8
0-B_寸法
  6
Continuous
 62
     7
370
     5
100
AcDbPolyline
 90
        4
 70
     1
 43
3.0
 10
966.6296598983556
 20
1246.688419510911
 42
0.4142135623731
 10
965.1296598983556
 20
1248.188419510911
 42
0.4142135623731
 10
963.6296598983557
 20
1246.688419510911
 42
0.4142135623731
 10
965.1296598983556
 20
1245.188419510911
 42
0.4142135623731
  0
LINE
  5
23C
330
1F
100
AcDbEntity
  8
0-B_寸法
  6
Continuous
 62
   120
370
     5
100
AcDbLine
 10
965.1296598983556
 20
1246.688419510911
 30
0.0
 11
965.1296598983556
 21
1606.688419510912
 31
0.0
  0
LINE
  5
23D
330
1F
100
AcDbEntity
  8
0-B_寸法
  6
Continuous
 62
   120
370
     5
100
AcDbLine
 10
965.1296598983556
 20
1246.688419510911
 30
0.0
 11
1145.129659898359
 21
1246.688419510911
 31
0.0
  0
LWPOLYLINE
  5
23E
330
1F
100
AcDbEntity
  8
0-B_寸法
  6
Continuous
 62
     7
370
     5
100
AcDbPolyline
 90
        4
 70
     1
 43
3.0
 10
1146.629659898359
 20
1246.688419510911
 42
0.4142135623731
 10
1145.129659898359
 20
1248.188419510911
 42
0.4142135623731
 10
1143.629659898359
 20
1246.688419510911
 42
0.4142135623731
 10
1145.129659898359
 20
1245.188419510911
 42
0.4142135623731
  0
LINE
  5
23F
330
1F
100
AcDbEntity
  8
0-B_寸法
  6
Continuous
 62
   120
370
     5
100
AcDbLine
 10
1145.129659898359
 20
1246.688419510911
 30
0.0
 11
1145.129659898359
 21
1606.688419510912
 31
0.0
  0
MTEXT
  5
240
330
1F
100
AcDbEntity
  8
0-B_寸法
  6
Continuous
 62
     7
370
   211
100
AcDbMText
 10
991.379659898359
 20
1250.265919510911
 30
0.0
 40
97.15499999999999
 41
127.5
 46
0.0
 71
     7
 72
     1
  1
{\fＭＳ ゴシック|b0|i0|c128|p49;30}
 73
     1
 44
1.0
  0
LINE
  5
241
330
1F
100
AcDbEntity
  8
0-B_寸法
  6
Continuous
 62
   120
370
     5
100
AcDbLine
 10
1145.129659898359
 20
1246.688419510911
 30
0.0
 11
2081.299750059785
 21
1246.688419510911
 31
0.0
  0
LWPOLYLINE
  5
242
330
1F
100
AcDbEntity
  8
0-B_寸法
  6
Continuous
 62
     7
370
     5
100
AcDbPolyline
 90
        4
 70
     1
 43
3.0
 10
2082.799750059784
 20
1246.688419510911
 42
0.4142135623731
 10
2081.299750059785
 20
1248.188419510911
 42
0.4142135623731
 10
2079.799750059785
 20
1246.688419510911
 42
0.4142135623731
 10
2081.299750059785
 20
1245.188419510911
 42
0.4142135623731
  0
LINE
  5
243
330
1F
100
AcDbEntity
  8
0-B_寸法
  6
Continuous
 62
   120
370
     5
100
AcDbLine
 10
2081.299750059785
 20
1036.688419510911
 30
0.0
 11
2081.299750059785
 21
1606.688419510912
 31
0.0
  0
LINE
  5
244
330
1F
100
AcDbEntity
  8
0-B_寸法
  6
Continuous
 62
   120
370
     5
100
AcDbLine
 10
-2239.380610585912
 20
1036.688419510911
 30
0.0
 11
-2059.380610585912
 21
1036.688419510911
 31
0.0
  0
LWPOLYLINE
  5
245
330
1F
100
AcDbEntity
  8
0-B_寸法
  6
Continuous
 62
     7
370
     5
100
AcDbPolyline
 90
        4
 70
     1
 43
3.0
 10
-2237.880610585912
 20
1036.688419510911
 42
0.4142135623731
 10
-2239.380610585912
 20
1038.188419510911
 42
0.4142135623731
 10
-2240.880610585911
 20
1036.688419510911
 42
0.4142135623731
 10
-2239.380610585912
 20
1035.188419510911
 42
0.4142135623731
  0
LWPOLYLINE
  5
246
330
1F
100
AcDbEntity
  8
0-B_寸法
  6
Continuous
 62
     7
370
     5
100
AcDbPolyline
 90
        4
 70
     1
 43
3.0
 10
-2057.880610585912
 20
1036.688419510911
 42
0.4142135623731
 10
-2059.380610585912
 20
1038.188419510911
 42
0.4142135623731
 10
-2060.880610585911
 20
1036.688419510911
 42
0.4142135623731
 10
-2059.380610585912
 20
1035.188419510911
 42
0.4142135623731
  0
LINE
  5
247
330
1F
100
AcDbEntity
  8
0-B_寸法
  6
Continuous
 62
   120
370
     5
100
AcDbLine
 10
-2239.380610585912
 20
826.6884195109111
 30
0.0
 11
-2239.380610585912
 21
1606.688419510912
 31
0.0
  0
MTEXT
  5
248
330
1F
100
AcDbEntity
  8
0-B_寸法
  6
Continuous
 62
     7
370
   211
100
AcDbMText
 10
-2213.130610585912
 20
1040.265919510911
 30
0.0
 40
97.15499999999999
 41
127.5
 46
0.0
 71
     7
 72
     1
  1
{\fＭＳ ゴシック|b0|i0|c128|p49;30}
 73
     1
 44
1.0
  0
LINE
  5
249
330
1F
100
AcDbEntity
  8
0-B_寸法
  6
Continuous
 62
   120
370
     5
100
AcDbLine
 10
-2059.380610585912
 20
1036.688419510911
 30
0.0
 11
2081.299750059785
 21
1036.688419510911
 31
0.0
  0
LWPOLYLINE
  5
24A
330
1F
100
AcDbEntity
  8
0-B_寸法
  6
Continuous
 62
     7
370
     5
100
AcDbPolyline
 90
        4
 70
     1
 43
3.0
 10
2082.799750059784
 20
1036.688419510911
 42
0.4142135623731
 10
2081.299750059785
 20
1038.188419510911
 42
0.4142135623731
 10
2079.799750059785
 20
1036.688419510911
 42
0.4142135623731
 10
2081.299750059785
 20
1035.188419510911
 42
0.4142135623731
  0
LINE
  5
24B
330
1F
100
AcDbEntity
  8
0-B_寸法
  6
Continuous
 62
   120
370
     5
100
AcDbLine
 10
2081.299750059785
 20
1036.688419510911
 30
0.0
 11
2261.299750059785
 21
1036.688419510911
 31
0.0
  0
LWPOLYLINE
  5
24C
330
1F
100
AcDbEntity
  8
0-B_寸法
  6
Continuous
 62
     7
370
     5
100
AcDbPolyline
 90
        4
 70
     1
 43
3.0
 10
2262.799750059784
 20
1036.688419510911
 42
0.4142135623731
 10
2261.299750059785
 20
1038.188419510911
 42
0.4142135623731
 10
2259.799750059785
 20
1036.688419510911
 42
0.4142135623731
 10
2261.299750059785
 20
1035.188419510911
 42
0.4142135623731
  0
LINE
  5
24D
330
1F
100
AcDbEntity
  8
0-B_寸法
  6
Continuous
 62
   120
370
     5
100
AcDbLine
 10
2261.299750059785
 20
826.6884195109111
 30
0.0
 11
2261.299750059785
 21
1606.688419510912
 31
0.0
  0
MTEXT
  5
24E
330
1F
100
AcDbEntity
  8
0-B_寸法
  6
Continuous
 62
     7
370
   211
100
AcDbMText
 10
2107.549750059785
 20
1040.265919510911
 30
0.0
 40
97.15499999999999
 41
127.5
 46
0.0
 71
     7
 72
     1
  1
{\fＭＳ ゴシック|b0|i0|c128|p49;30}
 73
     1
 44
1.0
  0
LWPOLYLINE
  5
24F
330
1F
100
AcDbEntity
  8
0-B_寸法
  6
Continuous
 62
     7
370
     5
100
AcDbPolyline
 90
        4
 70
     1
 43
3.0
 10
-2237.880610585912
 20
826.6884195109111
 42
0.4142135623731
 10
-2239.380610585912
 20
828.1884195109111
 42
0.4142135623731
 10
-2240.880610585911
 20
826.6884195109111
 42
0.4142135623731
 10
-2239.380610585912
 20
825.1884195109111
 42
0.4142135623731
  0
LINE
  5
250
330
1F
100
AcDbEntity
  8
0-B_寸法
  6
Continuous
 62
   120
370
     5
100
AcDbLine
 10
-2239.380610585912
 20
826.6884195109111
 30
0.0
 11
2261.299750059785
 21
826.6884195109111
 31
0.0
  0
LWPOLYLINE
  5
251
330
1F
100
AcDbEntity
  8
0-B_寸法
  6
Continuous
 62
     7
370
     5
100
AcDbPolyline
 90
        4
 70
     1
 43
3.0
 10
2262.799750059784
 20
826.6884195109111
 42
0.4142135623731
 10
2261.299750059785
 20
828.1884195109111
 42
0.4142135623731
 10
2259.799750059785
 20
826.6884195109111
 42
0.4142135623731
 10
2261.299750059785
 20
825.1884195109111
 42
0.4142135623731
  0
MTEXT
  5
252
330
1F
100
AcDbEntity
  8
0-B_寸法
  6
Continuous
 62
     7
370
   211
100
AcDbMText
 10
-626.5404302630621
 20
1252.822630037227
 30
0.0
 40
102.2684210526316
 41
1275.0
 46
0.0
 71
     7
 72
     1
  1
{\fＭＳ ゴシック|b0|i0|c128|p49;有効開口寸法＝1,560}
 73
     1
 44
1.0
  0
MTEXT
  5
253
330
1F
100
AcDbEntity
  8
0-B_寸法
  6
Continuous
 62
     7
370
   211
100
AcDbMText
 10
-356.5404302630621
 20
1042.603874056366
 30
0.0
 40
101.8309090909091
 41
735.0
 46
0.0
 71
     7
 72
     1
  1
{\fＭＳ ゴシック|b0|i0|c128|p49;枠内＝3,174}
 73
     1
 44
1.0
  0
MTEXT
  5
254
330
1F
100
AcDbEntity
  8
0-B_寸法
  6
Continuous
 62
     7
370
   211
100
AcDbMText
 10
-356.5404302630621
 20
832.6038740563656
 30
0.0
 40
101.8309090909091
 41
735.0
 46
0.0
 71
     7
 72
     1
  1
{\fＭＳ ゴシック|b0|i0|c128|p49;枠外＝3,234}
 73
     1
 44
1.0
  0
MTEXT
  5
255
330
1F
100
AcDbEntity
  8
0-B_寸法
  6
Continuous
 62
     7
370
   211
100
AcDbMText
 10
-1688.795565505198
 20
1251.218419510911
 30
0.0
 40
99.06
 41
195.0
 46
0.0
 71
     7
 72
     1
  1
{\fＭＳ ゴシック|b0|i0|c128|p49;777}
 73
     1
 44
1.0
  0
MTEXT
  5
256
330
1F
100
AcDbEntity
  8
0-B_寸法
  6
Continuous
 62
     7
370
   211
100
AcDbMText
 10
1515.714704979072
 20
1251.218419510911
 30
0.0
 40
99.06
 41
195.0
 46
0.0
 71
     7
 72
     1
  1
{\fＭＳ ゴシック|b0|i0|c128|p49;777}
 73
     1
 44
1.0
  0
LINE
  5
257
330
1F
100
AcDbEntity
  8
0-0_補助線
  6
JWW_HOJO
 62
   120
370
     5
100
AcDbLine
 10
-2570.139579535061
 20
1606.688419510912
 30
0.0
 11
2591.299750059785
 21
1606.688419510912
 31
0.0
  0
LINE
  5
258
330
1F
100
AcDbEntity
  8
0-0_補助線
  6
JWW_HOJO
 62
   120
370
     5
100
AcDbLine
 10
-2570.139579535061
 20
1246.688419510911
 30
0.0
 11
2591.299750059785
 21
1246.688419510911
 31
0.0
  0
LINE
  5
259
330
1F
100
AcDbEntity
  8
0-0_補助線
  6
JWW_HOJO
 62
   120
370
     5
100
AcDbLine
 10
-2570.139579535061
 20
1036.688419510911
 30
0.0
 11
2591.299750059785
 21
1036.688419510911
 31
0.0
  0
LINE
  5
25A
330
1F
100
AcDbEntity
  8
0-0_補助線
  6
JWW_HOJO
 62
   120
370
     5
100
AcDbLine
 10
-2568.454767300413
 20
2966.962168973789
 30
0.0
 11
-2571.705710426587
 21
826.6884195109111
 31
0.0
  0
LINE
  5
25B
330
1F
100
AcDbEntity
  8
0-0_補助線
  6
JWW_HOJO
 62
   120
370
     5
100
AcDbLine
 10
-2571.705710426587
 20
826.6884195109111
 30
0.0
 11
2591.253782084962
 21
826.6884195109111
 31
0.0
  0
LINE
  5
25C
330
1F
100
AcDbEntity
  8
0-0_補助線
  6
JWW_HOJO
 62
   120
370
     5
100
AcDbLine
 10
2591.253782084962
 20
826.6884195109111
 30
0.0
 11
2591.253782084962
 21
2966.962168973789
 31
0.0
  0
LINE
  5
25D
330
1F
100
AcDbEntity
  8
0-0_補助線
  6
JWW_HOJO
 62
   120
370
     5
100
AcDbLine
 10
-1558.719160172431
 20
1606.688419510912
 30
0.0
 11
-1558.719160172431
 21
2966.962168973789
 31
0.0
  0
LINE
  5
25E
330
1F
100
AcDbEntity
  8
0-0_補助線
  6
JWW_HOJO
 62
   120
370
     5
100
AcDbLine
 10
1682.259528081815
 20
1606.688419510912
 30
0.0
 11
1682.259528081815
 21
2966.962168973789
 31
0.0
  0
LINE
  5
25F
330
1F
100
AcDbEntity
  8
0-0_補助線
  6
JWW_HOJO
 62
   120
370
     5
100
AcDbLine
 10
-1438.719160172431
 20
1606.688419510912
 30
0.0
 11
-1438.719160172431
 21
2966.962168973789
 31
0.0
  0
LINE
  5
260
330
1F
100
AcDbEntity
  8
0-0_補助線
  6
JWW_HOJO
 62
   120
370
     5
100
AcDbLine
 10
-514.7191607527877
 20
1606.688419510912
 30
0.0
 11
-514.7191607527877
 21
2966.962168973789
 31
0.0
  0
LINE
  5
261
330
1F
100
AcDbEntity
  8
0-0_補助線
  6
JWW_HOJO
 62
   120
370
     5
100
AcDbLine
 10
-394.7191607527877
 20
1606.688419510912
 30
0.0
 11
-394.7191607527877
 21
2966.962168973789
 31
0.0
  0
LINE
  5
262
330
1F
100
AcDbEntity
  8
0-0_補助線
  6
JWW_HOJO
 62
   120
370
     5
100
AcDbLine
 10
428.282511488871
 20
1606.688419510912
 30
0.0
 11
428.282511488871
 21
2966.962168973789
 31
0.0
  0
LINE
  5
263
330
1F
100
AcDbEntity
  8
0-0_補助線
  6
JWW_HOJO
 62
   120
370
     5
100
AcDbLine
 10
548.282511488871
 20
1606.688419510912
 30
0.0
 11
548.282511488871
 21
2966.962168973789
 31
0.0
  0
LINE
  5
264
330
1F
100
AcDbEntity
  8
0-0_補助線
  6
JWW_HOJO
 62
   120
370
     5
100
AcDbLine
 10
1562.259528081815
 20
1606.688419510912
 30
0.0
 11
1562.259528081815
 21
2966.962168973789
 31
0.0
  0
LINE
  5
265
330
1F
100
AcDbEntity
  8
0-6_扉
  6
Continuous
 62
   200
370
     5
100
AcDbLine
 10
548.282511488871
 20
2405.962168973788
 30
0.0
 11
1145.129659898359
 21
2405.962168973788
 31
0.0
  0
MTEXT
  5
266
330
1F
100
AcDbEntity
  8
0-B_寸法
  6
Continuous
 62
     7
370
   211
100
AcDbMText
 10
-1003.380610585914
 20
-1028.318712718386
 30
0.0
 40
99.06
 41
195.0
 46
0.0
 71
     7
 72
     1
  1
{\fＭＳ ゴシック|b0|i0|c128|p49;6.8}
 11
6.123031769111886E-17
 21
1.0
 31
0.0
 73
     1
 44
1.0
  0
MTEXT
  5
267
330
1F
100
AcDbEntity
  8
0-B_寸法
  6
Continuous
 62
     7
370
   211
100
AcDbMText
 10
-793.3806105859139
 20
-961.7712127183862
 30
0.0
 40
97.15499999999999
 41
127.5
 46
0.0
 71
     7
 72
     1
  1
{\fＭＳ ゴシック|b0|i0|c128|p49;14}
 11
6.123031769111886E-17
 21
1.0
 31
0.0
 73
     1
 44
1.0
  0
LINE
  5
268
330
1F
100
AcDbEntity
  8
0-0_補助線
  6
JWW_HOJO
 62
   120
370
     5
100
AcDbLine
 10
-1198.380610585914
 20
-3258.848713002946
 30
0.0
 11
-1198.380610585914
 21
-210.8487130029491
 31
0.0
  0
LINE
  5
269
330
1F
100
AcDbEntity
  8
0-0_補助線
  6
JWW_HOJO
 62
   120
370
     5
100
AcDbLine
 10
-988.3806105859139
 20
-3258.848713002945
 30
0.0
 11
-988.3806105859139
 21
-210.8487130029491
 31
0.0
  0
LINE
  5
26A
330
1F
100
AcDbEntity
  8
0-0_補助線
  6
JWW_HOJO
 62
   120
370
     5
100
AcDbLine
 10
-778.3806105859135
 20
-3258.848713271379
 30
0.0
 11
-778.3806105859135
 21
-210.8487130029491
 31
0.0
  0
LINE
  5
26B
330
1F
100
AcDbEntity
  8
0-0_補助線
  6
JWW_HOJO
 62
   120
370
     5
100
AcDbLine
 10
-568.3806105859135
 20
-3258.848713002945
 30
0.0
 11
-568.3806105859135
 21
-210.8487130029491
 31
0.0
  0
LINE
  5
26C
330
1F
100
AcDbEntity
  8
0-B_寸法
  6
Continuous
 62
   120
370
     5
100
AcDbLine
 10
-988.3806105859139
 20
-782.0487127183867
 30
0.0
 11
-988.3806105859139
 21
-822.8487127183862
 31
0.0
  0
LWPOLYLINE
  5
26D
330
1F
100
AcDbEntity
  8
0-B_寸法
  6
Continuous
 62
     7
370
     5
100
AcDbPolyline
 90
        4
 70
     1
 43
3.0
 10
-986.880610585914
 20
-782.0487127183867
 42
0.4142135623731
 10
-988.3806105859139
 20
-780.5487127183867
 42
0.4142135623731
 10
-989.8806105859138
 20
-782.0487127183867
 42
0.4142135623731
 10
-988.3806105859139
 20
-783.5487127183867
 42
0.4142135623731
  0
LWPOLYLINE
  5
26E
330
1F
100
AcDbEntity
  8
0-B_寸法
  6
Continuous
 62
     7
370
     5
100
AcDbPolyline
 90
        4
 70
     1
 43
3.0
 10
-986.880610585914
 20
-822.8487127183862
 42
0.4142135623731
 10
-988.3806105859139
 20
-821.3487127183862
 42
0.4142135623731
 10
-989.8806105859138
 20
-822.8487127183862
 42
0.4142135623731
 10
-988.3806105859139
 20
-824.3487127183863
 42
0.4142135623731
  0
LINE
  5
26F
330
1F
100
AcDbEntity
  8
0-B_寸法
  6
Continuous
 62
   120
370
     5
100
AcDbLine
 10
-988.3806105859139
 20
-782.0487127183867
 30
0.0
 11
-1198.380610585914
 21
-782.0487127183867
 31
0.0
  0
LINE
  5
270
330
1F
100
AcDbEntity
  8
0-B_寸法
  6
Continuous
 62
   120
370
     5
100
AcDbLine
 10
-778.3806105859135
 20
-822.8487127183862
 30
0.0
 11
-1198.380610585914
 21
-822.8487127183862
 31
0.0
  0
LINE
  5
271
330
1F
100
AcDbEntity
  8
0-B_寸法
  6
Continuous
 62
   120
370
     5
100
AcDbLine
 10
-778.3806105859135
 20
-738.8487130029711
 30
0.0
 11
-778.3806105859135
 21
-822.8487127183862
 31
0.0
  0
LWPOLYLINE
  5
272
330
1F
100
AcDbEntity
  8
0-B_寸法
  6
Continuous
 62
     7
370
     5
100
AcDbPolyline
 90
        4
 70
     1
 43
3.0
 10
-776.8806105859135
 20
-738.8487130029711
 42
0.4142135623731
 10
-778.3806105859135
 20
-737.3487130029711
 42
0.4142135623731
 10
-779.8806105859135
 20
-738.8487130029711
 42
0.4142135623731
 10
-778.3806105859135
 20
-740.3487130029711
 42
0.4142135623731
  0
LWPOLYLINE
  5
273
330
1F
100
AcDbEntity
  8
0-B_寸法
  6
Continuous
 62
     7
370
     5
100
AcDbPolyline
 90
        4
 70
     1
 43
3.0
 10
-776.8806105859135
 20
-822.8487127183862
 42
0.4142135623731
 10
-778.3806105859135
 20
-821.3487127183862
 42
0.4142135623731
 10
-779.8806105859135
 20
-822.8487127183862
 42
0.4142135623731
 10
-778.3806105859135
 20
-824.3487127183863
 42
0.4142135623731
  0
LINE
  5
274
330
1F
100
AcDbEntity
  8
0-B_寸法
  6
Continuous
 62
   120
370
     5
100
AcDbLine
 10
-568.3806105859135
 20
-738.8487130029711
 30
0.0
 11
-1198.380610585914
 21
-738.8487130029711
 31
0.0
  0
LINE
  5
275
330
1F
100
AcDbEntity
  8
0-B_寸法
  6
Continuous
 62
   120
370
     5
100
AcDbLine
 10
-778.3806105859135
 20
-822.8487127183862
 30
0.0
 11
-778.3806105859135
 21
-3138.849313002966
 31
0.0
  0
LWPOLYLINE
  5
276
330
1F
100
AcDbEntity
  8
0-B_寸法
  6
Continuous
 62
     7
370
     5
100
AcDbPolyline
 90
        4
 70
     1
 43
3.0
 10
-776.8806105859135
 20
-3138.849313002966
 42
0.4142135623731
 10
-778.3806105859135
 20
-3137.349313002966
 42
0.4142135623731
 10
-779.8806105859135
 20
-3138.849313002966
 42
0.4142135623731
 10
-778.3806105859135
 20
-3140.349313002966
 42
0.4142135623731
  0
LINE
  5
277
330
1F
100
AcDbEntity
  8
0-B_寸法
  6
Continuous
 62
   120
370
     5
100
AcDbLine
 10
-778.3806105859135
 20
-3138.849313002966
 30
0.0
 11
-1198.380610585914
 21
-3138.849313002966
 31
0.0
  0
LINE
  5
278
330
1F
100
AcDbEntity
  8
0-B_寸法
  6
Continuous
 62
   120
370
     5
100
AcDbLine
 10
-778.3806105859135
 20
-3138.849313002966
 30
0.0
 11
-778.3806105859135
 21
-3168.849313002966
 31
0.0
  0
LWPOLYLINE
  5
279
330
1F
100
AcDbEntity
  8
0-B_寸法
  6
Continuous
 62
     7
370
     5
100
AcDbPolyline
 90
        4
 70
     1
 43
3.0
 10
-776.8806105859135
 20
-3168.849313002966
 42
0.4142135623731
 10
-778.3806105859135
 20
-3167.349313002966
 42
0.4142135623731
 10
-779.8806105859135
 20
-3168.849313002966
 42
0.4142135623731
 10
-778.3806105859135
 20
-3170.349313002966
 42
0.4142135623731
  0
LINE
  5
27A
330
1F
100
AcDbEntity
  8
0-B_寸法
  6
Continuous
 62
   120
370
     5
100
AcDbLine
 10
-568.3806105859135
 20
-3168.849313002966
 30
0.0
 11
-1198.380610585914
 21
-3168.849313002966
 31
0.0
  0
LINE
  5
27B
330
1F
100
AcDbEntity
  8
0-B_寸法
  6
Continuous
 62
   120
370
     5
100
AcDbLine
 10
-568.3806105859135
 20
-3258.848713002946
 30
0.0
 11
-568.3806105859135
 21
-738.8487130029711
 31
0.0
  0
LWPOLYLINE
  5
27C
330
1F
100
AcDbEntity
  8
0-B_寸法
  6
Continuous
 62
     7
370
     5
100
AcDbPolyline
 90
        4
 70
     1
 43
3.0
 10
-566.8806105859135
 20
-3186.848713002946
 42
0.4142135623731
 10
-568.3806105859135
 20
-3185.348713002946
 42
0.4142135623731
 10
-569.8806105859135
 20
-3186.848713002946
 42
0.4142135623731
 10
-568.3806105859135
 20
-3188.348713002946
 42
0.4142135623731
  0
LWPOLYLINE
  5
27D
330
1F
100
AcDbEntity
  8
0-B_寸法
  6
Continuous
 62
     7
370
     5
100
AcDbPolyline
 90
        4
 70
     1
 43
3.0
 10
-566.8806105859135
 20
-3168.849313002966
 42
0.4142135623731
 10
-568.3806105859135
 20
-3167.349313002966
 42
0.4142135623731
 10
-569.8806105859135
 20
-3168.849313002966
 42
0.4142135623731
 10
-568.3806105859135
 20
-3170.349313002966
 42
0.4142135623731
  0
LWPOLYLINE
  5
27E
330
1F
100
AcDbEntity
  8
0-B_寸法
  6
Continuous
 62
     7
370
     5
100
AcDbPolyline
 90
        4
 70
     1
 43
3.0
 10
-566.8806105859135
 20
-738.8487130029711
 42
0.4142135623731
 10
-568.3806105859135
 20
-737.3487130029711
 42
0.4142135623731
 10
-569.8806105859135
 20
-738.8487130029711
 42
0.4142135623731
 10
-568.3806105859135
 20
-740.3487130029711
 42
0.4142135623731
  0
LINE
  5
27F
330
1F
100
AcDbEntity
  8
0-B_寸法
  6
Continuous
 62
   120
370
     5
100
AcDbLine
 10
-568.3806105859135
 20
-558.8487130029711
 30
0.0
 11
-568.3806105859135
 21
-738.8487130029711
 31
0.0
  0
LWPOLYLINE
  5
280
330
1F
100
AcDbEntity
  8
0-B_寸法
  6
Continuous
 62
     7
370
     5
100
AcDbPolyline
 90
        4
 70
     1
 43
3.0
 10
-566.8806105859135
 20
-558.8487130029711
 42
0.4142135623731
 10
-568.3806105859135
 20
-557.3487130029711
 42
0.4142135623731
 10
-569.8806105859135
 20
-558.8487130029711
 42
0.4142135623731
 10
-568.3806105859135
 20
-560.3487130029711
 42
0.4142135623731
  0
LINE
  5
281
330
1F
100
AcDbEntity
  8
0-B_寸法
  6
Continuous
 62
   120
370
     5
100
AcDbLine
 10
-358.3806105859135
 20
-558.8487130029711
 30
0.0
 11
-1198.380610585914
 21
-558.8487130029711
 31
0.0
  0
MTEXT
  5
282
330
1F
100
AcDbEntity
  8
0-B_寸法
  6
Continuous
 62
     7
370
   211
100
AcDbMText
 10
-583.3806105859135
 20
-724.0212130029698
 30
0.0
 40
97.15499999999999
 41
127.5
 46
0.0
 71
     7
 72
     1
  1
{\fＭＳ ゴシック|b0|i0|c128|p49;30}
 11
6.123031769111886E-17
 21
1.0
 31
0.0
 73
     1
 44
1.0
  0
LINE
  5
283
330
1F
100
AcDbEntity
  8
0-B_寸法
  6
Continuous
 62
   120
370
     5
100
AcDbLine
 10
-358.3806105859135
 20
-3258.848713002946
 30
0.0
 11
-1198.380610585914
 21
-3258.848713002946
 31
0.0
  0
MTEXT
  5
284
330
1F
100
AcDbEntity
  8
0-B_寸法
  6
Continuous
 62
     7
370
   211
100
AcDbMText
 10
-793.3806105859139
 20
-3141.129313002966
 30
0.0
 40
91.44
 41
60.0
 46
0.0
 71
     7
 72
     1
  1
{\fＭＳ ゴシック|b0|i0|c128|p49;5}
 11
6.123031769111886E-17
 21
1.0
 31
0.0
 73
     1
 44
1.0
  0
MTEXT
  5
285
330
1F
100
AcDbEntity
  8
0-B_寸法
  6
Continuous
 62
     7
370
   211
100
AcDbMText
 10
-583.3806105859135
 20
-3171.129313002966
 30
0.0
 40
91.44
 41
60.0
 46
0.0
 71
     7
 72
     1
  1
{\fＭＳ ゴシック|b0|i0|c128|p49;3}
 11
6.123031769111886E-17
 21
1.0
 31
0.0
 73
     1
 44
1.0
  0
MTEXT
  5
286
330
1F
100
AcDbEntity
  8
0-B_寸法
  6
Continuous
 62
     7
370
   211
100
AcDbMText
 10
-793.3806105859139
 20
-2557.481213002966
 30
0.0
 40
102.235
 41
1207.5
 46
0.0
 71
     7
 72
     1
  1
{\fＭＳ ゴシック|b0|i0|c128|p49;ＤＨ＝1,983(2,183)}
 11
6.123031769111886E-17
 21
1.0
 31
0.0
 73
     1
 44
1.0
  0
MTEXT
  5
287
330
1F
100
AcDbEntity
  8
0-B_寸法
  6
Continuous
 62
     7
370
   211
100
AcDbMText
 10
-583.3806105859135
 20
-2557.481213002966
 30
0.0
 40
102.235
 41
1207.5
 46
0.0
 71
     7
 72
     1
  1
{\fＭＳ ゴシック|b0|i0|c128|p49;枠内＝2,002(2,202)}
 11
6.123031769111886E-17
 21
1.0
 31
0.0
 73
     1
 44
1.0
  0
LINE
  5
288
330
1F
100
AcDbEntity
  8
0-0_補助線
  6
JWW_HOJO
 62
   120
370
     5
100
AcDbLine
 10
-358.3806105859135
 20
-3258.848713002945
 30
0.0
 11
-358.3806105859135
 21
-210.8487130029491
 31
0.0
  0
LWPOLYLINE
  5
289
330
1F
100
AcDbEntity
  8
0-B_寸法
  6
Continuous
 62
     7
370
     5
100
AcDbPolyline
 90
        4
 70
     1
 43
3.0
 10
-356.8806105859135
 20
-558.8487130029711
 42
0.4142135623731
 10
-358.3806105859135
 20
-557.3487130029711
 42
0.4142135623731
 10
-359.8806105859135
 20
-558.8487130029711
 42
0.4142135623731
 10
-358.3806105859135
 20
-560.3487130029711
 42
0.4142135623731
  0
LWPOLYLINE
  5
28A
330
1F
100
AcDbEntity
  8
0-B_寸法
  6
Continuous
 62
     7
370
     5
100
AcDbPolyline
 90
        4
 70
     1
 43
3.0
 10
-566.8806105859135
 20
-3258.848713002946
 42
0.4142135623731
 10
-568.3806105859135
 20
-3257.348713002947
 42
0.4142135623731
 10
-569.8806105859135
 20
-3258.848713002946
 42
0.4142135623731
 10
-568.3806105859135
 20
-3260.348713002946
 42
0.4142135623731
  0
MTEXT
  5
28B
330
1F
100
AcDbEntity
  8
0-B_寸法
  6
Continuous
 62
     7
370
   211
100
AcDbMText
 10
-583.3806105859135
 20
-3409.771213002947
 30
0.0
 40
97.15499999999999
 41
127.5
 46
0.0
 71
     7
 72
     1
  1
{\fＭＳ ゴシック|b0|i0|c128|p49;12}
 11
6.123031769111886E-17
 21
1.0
 31
0.0
 73
     1
 44
1.0
  0
LINE
  5
28C
330
1F
100
AcDbEntity
  8
0-B_寸法
  6
Continuous
 62
   120
370
     5
100
AcDbLine
 10
-568.3806105859135
 20
-3186.848713002946
 30
0.0
 11
-1198.380610585914
 21
-3186.848713002946
 31
0.0
  0
LWPOLYLINE
  5
28D
330
1F
100
AcDbEntity
  8
0-B_寸法
  6
Continuous
 62
     7
370
     5
100
AcDbPolyline
 90
        4
 70
     1
 43
3.0
 10
-356.8806105859135
 20
-3258.848713002946
 42
0.4142135623731
 10
-358.3806105859135
 20
-3257.348713002947
 42
0.4142135623731
 10
-359.8806105859135
 20
-3258.848713002946
 42
0.4142135623731
 10
-358.3806105859135
 20
-3260.348713002946
 42
0.4142135623731
  0
MTEXT
  5
28E
330
1F
100
AcDbEntity
  8
0-A_文字
  6
Continuous
 62
     7
370
     0
100
AcDbMText
 10
-1498.380610585913
 20
-3554.200069581009
 30
0.0
 40
78.97090909090909
 41
1140.0
 46
0.0
 71
     7
 72
     1
  1
{\fＭＳ ゴシック|b0|i0|c128|p49;※(　)内寸法はハイドア}
 73
     1
 44
1.0
  0
LINE
  5
28F
330
1F
100
AcDbEntity
  8
0-0_補助線
  6
JWW_HOJO
 62
   120
370
     5
100
AcDbLine
 10
-3406.380610585906
 20
-3258.848713002946
 30
0.0
 11
-3406.380610585906
 21
-210.8487130029491
 31
0.0
  0
LINE
  5
290
330
1F
100
AcDbEntity
  8
0-1_通り芯
  6
JWW_CENTER1
 62
   120
370
     5
100
AcDbLine
 10
-3406.380610585906
 20
-3258.848713271376
 30
0.0
 11
-244.380610585908
 21
-3258.848713002946
 31
0.0
  0
LINE
  5
291
330
1F
100
AcDbEntity
  8
0-0_補助線
  6
JWW_HOJO
 62
   120
370
     5
100
AcDbLine
 10
-358.3806105859135
 20
-3258.848713002946
 30
0.0
 11
-3406.380610585906
 21
-3258.848713002946
 31
0.0
  0
LINE
  5
292
330
1F
100
AcDbEntity
  8
0-1_通り芯
  6
JWW_CENTER1
 62
   120
370
     5
100
AcDbLine
 10
-3406.380610585906
 20
-558.8487130029711
 30
0.0
 11
-244.380610585908
 21
-558.8487130029711
 31
0.0
  0
LINE
  5
293
330
1F
100
AcDbEntity
  8
0-0_補助線
  6
JWW_HOJO
 62
   120
370
     5
100
AcDbLine
 10
-3406.380610585906
 20
-210.8487130029491
 30
0.0
 11
-358.3806105859135
 21
-210.8487130029491
 31
0.0
  0
MTEXT
  5
294
330
1F
100
AcDbEntity
  8
0-A_文字
  6
Continuous
 62
     7
370
     5
100
AcDbMText
 10
-3408.550575023394
 20
-64.21205741321704
 30
0.0
 40
91.43999999999997
 41
1140.0
 46
0.0
 71
     7
 72
     1
  1
{\fＭＳ ゴシック|b0|i0|c128|p49;■縦断面図[ﾚｰﾙﾀｲﾌﾟ]}
 73
     1
 44
1.0
  0
MTEXT
  5
295
330
1F
100
AcDbEntity
  8
0-B_寸法
  6
Continuous
 62
     7
370
   211
100
AcDbMText
 10
-373.3806105859135
 20
-2557.481213002966
 30
0.0
 40
102.235
 41
1207.5
 46
0.0
 71
     7
 72
     1
  1
{\fＭＳ ゴシック|b0|i0|c128|p49;枠外＝2,047(2,247)}
 11
6.123031769111886E-17
 21
1.0
 31
0.0
 73
     1
 44
1.0
  0
LINE
  5
296
330
1F
100
AcDbEntity
  8
0-B_寸法
  6
Continuous
 62
   120
370
     5
100
AcDbLine
 10
-358.3806105859135
 20
-3258.848713002946
 30
0.0
 11
-358.3806105859135
 21
-558.8487130029711
 31
0.0
  0
LINE
  5
297
330
1F
100
AcDbEntity
  8
0-6_扉
  6
Continuous
 62
   200
370
     5
100
AcDbLine
 10
-2443.380611139267
 20
-2004.848713002965
 30
0.0
 11
-2443.380611139267
 21
-3138.849313002966
 31
0.0
  0
LINE
  5
298
330
1F
100
AcDbEntity
  8
0-6_扉
  6
Continuous
 62
   200
370
     5
100
AcDbLine
 10
-2263.380611139267
 20
-2004.848713002965
 30
0.0
 11
-2263.380611139267
 21
-3138.849313002966
 31
0.0
  0
LWPOLYLINE
  5
299
330
1F
100
AcDbEntity
  8
0-B_寸法
  6
Continuous
 62
     7
370
     5
100
AcDbPolyline
 90
        4
 70
     1
 43
3.0
 10
-2441.880611139267
 20
-1524.848839851541
 42
0.4142135623731
 10
-2443.380611139267
 20
-1523.348839851541
 42
0.4142135623731
 10
-2444.880611139267
 20
-1524.848839851541
 42
0.4142135623731
 10
-2443.380611139267
 20
-1526.348839851541
 42
0.4142135623731
  0
LWPOLYLINE
  5
29A
330
1F
100
AcDbEntity
  8
0-B_寸法
  6
Continuous
 62
     7
370
     5
100
AcDbPolyline
 90
        4
 70
     1
 43
3.0
 10
-2261.880611139267
 20
-1524.848839851541
 42
0.4142135623731
 10
-2263.380611139267
 20
-1523.348839851541
 42
0.4142135623731
 10
-2264.880611139267
 20
-1524.848839851541
 42
0.4142135623731
 10
-2263.380611139267
 20
-1526.348839851541
 42
0.4142135623731
  0
MTEXT
  5
29B
330
1F
100
AcDbEntity
  8
0-B_寸法
  6
Continuous
 62
     7
370
   211
100
AcDbMText
 10
-2413.380611139267
 20
-1524.128839851541
 30
0.0
 40
91.44
 41
120.0
 46
0.0
 71
     7
 72
     1
  1
{\fＭＳ ゴシック|b0|i0|c128|p49;30}
 73
     1
 44
1.0
  0
LINE
  5
29C
330
1F
100
AcDbEntity
  8
ハッチ
  6
JWW_DASHED1
 62
   120
370
     5
100
AcDbLine
 10
-2554.380610585898
 20
-365.7479952201484
 30
0.0
 11
-2629.380610585898
 21
-290.7479952201527
 31
0.0
  0
LINE
  5
29D
330
1F
100
AcDbEntity
  8
ハッチ
  6
JWW_DASHED1
 62
   120
370
     5
100
AcDbLine
 10
-1851.310196606399
 20
-474.8487130029588
 30
0.0
 11
-1924.380610585898
 21
-401.7782990234574
 31
0.0
  0
LINE
  5
29E
330
1F
100
AcDbEntity
  8
ハッチ
  6
JWW_DASHED1
 62
   120
370
     5
100
AcDbLine
 10
-1849.380610585898
 20
-434.3518921522573
 30
0.0
 11
-1924.380610585898
 21
-359.3518921522621
 31
0.0
  0
LINE
  5
29F
330
1F
100
AcDbEntity
  8
ハッチ
  6
JWW_DASHED1
 62
   120
370
     5
100
AcDbLine
 10
-1849.380610585911
 20
-391.9254852810484
 30
0.0
 11
-1924.380610585905
 21
-316.9254852810518
 31
0.0
  0
LINE
  5
2A0
330
1F
100
AcDbEntity
  8
ハッチ
  6
JWW_DASHED1
 62
   120
370
     5
100
AcDbLine
 10
-1849.380610585905
 20
-349.4990784098505
 30
0.0
 11
-1924.380610585918
 21
-274.4990784098411
 31
0.0
  0
LINE
  5
2A1
330
1F
100
AcDbEntity
  8
ハッチ
  6
JWW_DASHED1
 62
   120
370
     5
100
AcDbLine
 10
-1849.380610585905
 20
-307.0726715386484
 30
0.0
 11
-1924.380610585918
 21
-232.0726715386368
 31
0.0
  0
LINE
  5
2A2
330
1F
100
AcDbEntity
  8
ハッチ
  6
JWW_DASHED1
 62
   120
370
     5
100
AcDbLine
 10
-2554.380610585905
 20
-450.6008089625442
 30
0.0
 11
-2629.380610585898
 21
-375.6008089625471
 31
0.0
  0
LINE
  5
2A3
330
1F
100
AcDbEntity
  8
ハッチ
  6
JWW_DASHED1
 62
   120
370
     5
100
AcDbLine
 10
-2554.380610585905
 20
-408.1744020913463
 30
0.0
 11
-2629.380610585898
 21
-333.1744020913497
 31
0.0
  0
LINE
  5
2A4
330
1F
100
AcDbEntity
  8
ハッチ
  6
JWW_DASHED1
 62
   120
370
     5
100
AcDbLine
 10
-2554.380610585905
 20
-323.3215883489395
 30
0.0
 11
-2629.380610585918
 21
-248.3215883489297
 31
0.0
  0
LINE
  5
2A5
330
1F
100
AcDbEntity
  8
ハッチ
  6
JWW_DASHED1
 62
   120
370
     5
100
AcDbLine
 10
-1849.212070708375
 20
-519.3732457721825
 30
0.0
 11
-1924.380610585905
 21
-444.2047058946553
 31
0.0
  0
LINE
  5
2A6
330
1F
100
AcDbEntity
  8
ハッチ
  6
Continuous
 62
   120
370
     5
100
AcDbLine
 10
-2653.168476227225
 20
-735.8487130029768
 30
0.0
 11
-2677.380450368633
 21
-711.6367388615713
 31
0.0
  0
LINE
  5
2A7
330
1F
100
AcDbEntity
  8
ハッチ
  6
Continuous
 62
   120
370
     5
100
AcDbLine
 10
-2593.77150660753
 20
-735.8487130029725
 30
0.0
 11
-2677.380450368633
 21
-652.2397692418695
 31
0.0
  0
LINE
  5
2A8
330
1F
100
AcDbEntity
  8
ハッチ
  6
Continuous
 62
   120
370
     5
100
AcDbLine
 10
-2534.374536987876
 20
-735.8487130029794
 30
0.0
 11
-2677.380450368647
 21
-592.8427996222098
 31
0.0
  0
LINE
  5
2A9
330
1F
100
AcDbEntity
  8
0-4_枠
  6
Continuous
 62
    92
370
     5
100
AcDbLine
 10
-2677.380450368626
 20
-735.8487130029725
 30
0.0
 11
-2439.780610585914
 21
-735.8487130029725
 31
0.0
  0
LINE
  5
2AA
330
1F
100
AcDbEntity
  8
0-4_枠
  6
Continuous
 62
    92
370
     5
100
AcDbLine
 10
-2680.380610585913
 20
-738.8487130029711
 30
0.0
 11
-2439.780610585914
 21
-738.8487130029711
 31
0.0
  0
LINE
  5
2AB
330
1F
100
AcDbEntity
  8
0-4_枠
  6
Continuous
 62
    92
370
     5
100
AcDbLine
 10
-2266.980610585914
 20
-738.8487130029711
 30
0.0
 11
-2266.980610585914
 21
-642.8487130029714
 31
0.0
  0
LINE
  5
2AC
330
1F
100
AcDbEntity
  8
0-4_枠
  6
Continuous
 62
    92
370
     5
100
AcDbLine
 10
-2439.780610585914
 20
-642.8487130029714
 30
0.0
 11
-2266.980610585914
 21
-642.8487130029714
 31
0.0
  0
LINE
  5
2AD
330
1F
100
AcDbEntity
  8
0-4_枠
  6
Continuous
 62
    92
370
     5
100
AcDbLine
 10
-2439.780610585914
 20
-738.8487130029711
 30
0.0
 11
-2439.780610585914
 21
-642.8487130029714
 31
0.0
  0
LINE
  5
2AE
330
1F
100
AcDbEntity
  8
ハッチ
  6
Continuous
 62
   120
370
     5
100
AcDbLine
 10
-2237.389688889535
 20
-735.8487130029725
 30
0.0
 11
-2266.980610585914
 21
-706.2577913065935
 31
0.0
  0
LINE
  5
2AF
330
1F
100
AcDbEntity
  8
ハッチ
  6
JWW_DASHED1
 62
   120
370
     5
100
AcDbLine
 10
-1849.380610585918
 20
-264.6462646674351
 30
0.0
 11
-1903.178162250404
 21
-210.8487130029491
 31
0.0
  0
LINE
  5
2B0
330
1F
100
AcDbEntity
  8
ハッチ
  6
JWW_DASHED1
 62
   120
370
     5
100
AcDbLine
 10
-1849.380610585918
 20
-222.2198577962385
 30
0.0
 11
-1860.751755379204
 21
-210.8487130029491
 31
0.0
  0
LINE
  5
2B1
330
1F
100
AcDbEntity
  8
ハッチ
  6
JWW_DASHED1
 62
   120
370
     5
100
AcDbLine
 10
-2554.380610585912
 20
-280.895181477739
 30
0.0
 11
-2624.427079060702
 21
-210.8487130029491
 31
0.0
  0
LINE
  5
2B2
330
1F
100
AcDbEntity
  8
ハッチ
  6
JWW_DASHED1
 62
   120
370
     5
100
AcDbLine
 10
-2554.380610585925
 20
-238.4687746065262
 30
0.0
 11
-2582.000672189496
 21
-210.8487130029491
 31
0.0
  0
LINE
  5
2B3
330
1F
100
AcDbEntity
  8
0-B_寸法
  6
Continuous
 62
   120
370
     5
100
AcDbLine
 10
-2680.380610585913
 20
-1274.673709344067
 30
0.0
 11
-2680.380610585913
 21
-1151.324276069585
 31
0.0
  0
LWPOLYLINE
  5
2B4
330
1F
100
AcDbEntity
  8
0-B_寸法
  6
Continuous
 62
     7
370
     5
100
AcDbPolyline
 90
        4
 70
     1
 43
3.0
 10
-2678.880610585913
 20
-1274.673709344067
 42
0.4142135623731
 10
-2680.380610585913
 20
-1273.173709344067
 42
0.4142135623731
 10
-2681.880610585913
 20
-1274.673709344067
 42
0.4142135623731
 10
-2680.380610585913
 20
-1276.173709344067
 42
0.4142135623731
  0
LINE
  5
2B5
330
1F
100
AcDbEntity
  8
0-B_寸法
  6
Continuous
 62
   120
370
     5
100
AcDbLine
 10
-1798.380610585914
 20
-1274.673709344067
 30
0.0
 11
-1798.380610585914
 21
-1130.32427606959
 31
0.0
  0
LWPOLYLINE
  5
2B6
330
1F
100
AcDbEntity
  8
0-B_寸法
  6
Continuous
 62
     7
370
     5
100
AcDbPolyline
 90
        4
 70
     1
 43
3.0
 10
-1796.880610585914
 20
-1274.673709344067
 42
0.4142135623731
 10
-1798.380610585914
 20
-1273.173709344067
 42
0.4142135623731
 10
-1799.880610585914
 20
-1274.673709344067
 42
0.4142135623731
 10
-1798.380610585914
 20
-1276.173709344067
 42
0.4142135623731
  0
LINE
  5
2B7
330
1F
100
AcDbEntity
  8
0-B_寸法
  6
Continuous
 62
   120
370
     5
100
AcDbLine
 10
-1798.380610585914
 20
-1274.673709344067
 30
0.0
 11
-2680.380610585913
 21
-1274.673709344067
 31
0.0
  0
LINE
  5
2B8
330
1F
100
AcDbEntity
  8
0-6_扉
  6
Continuous
 62
   200
370
     5
100
AcDbLine
 10
-2443.380611139267
 20
-822.8487127183862
 30
0.0
 11
-2263.380611139267
 21
-822.8487127183862
 31
0.0
  0
LINE
  5
2B9
330
1F
100
AcDbEntity
  8
0-4_枠
  6
Continuous
 62
    92
370
     5
100
AcDbLine
 10
-1888.380610585914
 20
-558.8487130029711
 30
0.0
 11
-1888.380610585914
 21
-561.84871300297
 31
0.0
  0
LINE
  5
2BA
330
1F
100
AcDbEntity
  8
0-4_枠
  6
Continuous
 62
    92
370
     5
100
AcDbLine
 10
-2590.380610585913
 20
-561.84871300297
 30
0.0
 11
-2590.380610585913
 21
-558.8487130029711
 31
0.0
  0
LINE
  5
2BB
330
1F
100
AcDbEntity
  8
0-4_枠
  6
Continuous
 62
    92
370
     5
100
AcDbLine
 10
-2680.380610585913
 20
-738.8487130029711
 30
0.0
 11
-2680.380610585913
 21
-558.8487130029711
 31
0.0
  0
LINE
  5
2BC
330
1F
100
AcDbEntity
  8
0-4_枠
  6
Continuous
 62
    92
370
     5
100
AcDbLine
 10
-2677.380450368626
 20
-735.8487130029725
 30
0.0
 11
-2677.380450368626
 21
-561.84871300297
 31
0.0
  0
LINE
  5
2BD
330
1F
100
AcDbEntity
  8
0-4_枠
  6
Continuous
 62
    92
370
     5
100
AcDbLine
 10
-2590.380610585913
 20
-561.84871300297
 30
0.0
 11
-2677.380450368626
 21
-561.84871300297
 31
0.0
  0
LINE
  5
2BE
330
1F
100
AcDbEntity
  8
0-4_枠
  6
Continuous
 62
   120
370
     5
100
AcDbLine
 10
-2704.380610585912
 20
-558.8487130029711
 30
0.0
 11
-2680.380610585913
 21
-558.8487130029711
 31
0.0
  0
LINE
  5
2BF
330
1F
100
AcDbEntity
  8
0-4_枠
  6
Continuous
 62
    92
370
     5
100
AcDbLine
 10
-1798.380610585914
 20
-738.8487130029711
 30
0.0
 11
-1798.380610585914
 21
-558.8487130029711
 31
0.0
  0
LINE
  5
2C0
330
1F
100
AcDbEntity
  8
0-4_枠
  6
Continuous
 62
    92
370
     5
100
AcDbLine
 10
-1801.380175710425
 20
-735.8487130029725
 30
0.0
 11
-1801.380175710425
 21
-561.84871300297
 31
0.0
  0
LINE
  5
2C1
330
1F
100
AcDbEntity
  8
0-4_枠
  6
Continuous
 62
    92
370
     5
100
AcDbLine
 10
-1888.380610585914
 20
-561.84871300297
 30
0.0
 11
-1801.380175710425
 21
-561.84871300297
 31
0.0
  0
LINE
  5
2C2
330
1F
100
AcDbEntity
  8
0-4_枠
  6
Continuous
 62
    92
370
     5
100
AcDbLine
 10
-2680.380610585913
 20
-558.8487130029711
 30
0.0
 11
-1798.380610585914
 21
-558.8487130029711
 31
0.0
  0
LINE
  5
2C3
330
1F
100
AcDbEntity
  8
0-4_枠
  6
Continuous
 62
   120
370
     5
100
AcDbLine
 10
-1774.380610585911
 20
-558.8487130029711
 30
0.0
 11
-1798.380610585914
 21
-558.8487130029711
 31
0.0
  0
LINE
  5
2C4
330
1F
100
AcDbEntity
  8
ハッチ
  6
Continuous
 62
   120
370
     5
100
AcDbLine
 10
-1801.380175710425
 20
-577.8885299853941
 30
0.0
 11
-1817.419992692849
 21
-561.84871300297
 31
0.0
  0
LINE
  5
2C5
330
1F
100
AcDbEntity
  8
ハッチ
  6
Continuous
 62
   120
370
     5
100
AcDbLine
 10
-1801.380175710431
 20
-637.2854996050346
 30
0.0
 11
-1876.816962312496
 21
-561.84871300297
 31
0.0
  0
LINE
  5
2C6
330
1F
100
AcDbEntity
  8
ハッチ
  6
Continuous
 62
   120
370
     5
100
AcDbLine
 10
-1801.380175710418
 20
-696.6824692247535
 30
0.0
 11
-1939.213931932195
 21
-558.8487130029711
 31
0.0
  0
LINE
  5
2C7
330
1F
100
AcDbEntity
  8
ハッチ
  6
Continuous
 62
   120
370
     5
100
AcDbLine
 10
-2439.780610585914
 20
-652.2517305459451
 30
0.0
 11
-2533.183628128887
 21
-558.8487130029711
 31
0.0
  0
LINE
  5
2C8
330
1F
100
AcDbEntity
  8
ハッチ
  6
Continuous
 62
   120
370
     5
100
AcDbLine
 10
-1881.00787117149
 20
-735.8487130029725
 30
0.0
 11
-2058.007871171493
 21
-558.8487130029711
 31
0.0
  0
LINE
  5
2C9
330
1F
100
AcDbEntity
  8
ハッチ
  6
Continuous
 62
   120
370
     5
100
AcDbLine
 10
-1821.610901551829
 20
-735.8487130029828
 30
0.0
 11
-1998.610901551842
 21
-558.8487130029711
 31
0.0
  0
LINE
  5
2CA
330
1F
100
AcDbEntity
  8
ハッチ
  6
Continuous
 62
   120
370
     5
100
AcDbLine
 10
-2389.786658509182
 20
-642.8487130029714
 30
0.0
 11
-2473.786658509185
 21
-558.8487130029711
 31
0.0
  0
LINE
  5
2CB
330
1F
100
AcDbEntity
  8
ハッチ
  6
Continuous
 62
   120
370
     5
100
AcDbLine
 10
-2270.992719269833
 20
-642.8487130029714
 30
0.0
 11
-2354.992719269838
 21
-558.8487130029711
 31
0.0
  0
LINE
  5
2CC
330
1F
100
AcDbEntity
  8
ハッチ
  6
Continuous
 62
   120
370
     5
100
AcDbLine
 10
-2330.389688889535
 20
-642.8487130029714
 30
0.0
 11
-2414.38968888954
 21
-558.8487130029711
 31
0.0
  0
LINE
  5
2CD
330
1F
100
AcDbEntity
  8
ハッチ
  6
Continuous
 62
   120
370
     5
100
AcDbLine
 10
-2439.780610585914
 20
-711.6487001655928
 30
0.0
 11
-2590.380610585913
 21
-561.0487001655899
 31
0.0
  0
LINE
  5
2CE
330
1F
100
AcDbEntity
  8
ハッチ
  6
Continuous
 62
   120
370
     5
100
AcDbLine
 10
-2648.977567368241
 20
-561.84871300297
 30
0.0
 11
-2474.977567368242
 21
-735.8487130029691
 31
0.0
  0
LINE
  5
2CF
330
1F
100
AcDbEntity
  8
仕上げ
  6
Continuous
 62
    40
370
     5
100
AcDbLine
 10
-1849.380610585911
 20
-558.8487130029711
 30
0.0
 11
-1849.380610585911
 21
-210.8487130029491
 31
0.0
  0
LINE
  5
2D0
330
1F
100
AcDbEntity
  8
仕上げ
  6
Continuous
 62
    40
370
     5
100
AcDbLine
 10
-2629.380610585912
 20
-558.8487130029711
 30
0.0
 11
-2629.380610585912
 21
-210.8487130029491
 31
0.0
  0
LINE
  5
2D1
330
1F
100
AcDbEntity
  8
仕上げ
  6
Continuous
 62
    40
370
     5
100
AcDbLine
 10
-1924.380610585911
 20
-558.8487130029711
 30
0.0
 11
-1924.380610585911
 21
-210.8487130029491
 31
0.0
  0
LINE
  5
2D2
330
1F
100
AcDbEntity
  8
仕上げ
  6
Continuous
 62
    40
370
     5
100
AcDbLine
 10
-2554.380610585912
 20
-558.8487130029711
 30
0.0
 11
-2554.380610585912
 21
-210.8487130029491
 31
0.0
  0
LINE
  5
2D3
330
1F
100
AcDbEntity
  8
ハッチ
  6
JWW_DASHED1
 62
   120
370
     5
100
AcDbLine
 10
-1852.163010348793
 20
-558.8487130029711
 30
0.0
 11
-1924.380610585905
 21
-486.6311127658668
 31
0.0
  0
LINE
  5
2D4
330
1F
100
AcDbEntity
  8
ハッチ
  6
JWW_DASHED1
 62
   120
370
     5
100
AcDbLine
 10
-2554.380610585912
 20
-493.0272158336803
 30
0.0
 11
-2629.380610585905
 21
-418.0272158336858
 31
0.0
  0
LINE
  5
2D5
330
1F
100
AcDbEntity
  8
ハッチ
  6
JWW_DASHED1
 62
   120
370
     5
100
AcDbLine
 10
-2554.380610585912
 20
-535.453622704887
 30
0.0
 11
-2629.380610585912
 21
-460.4536227048828
 31
0.0
  0
LINE
  5
2D6
330
1F
100
AcDbEntity
  8
ハッチ
  6
JWW_DASHED1
 62
   120
370
     5
100
AcDbLine
 10
-2573.411927159023
 20
-558.8487130029711
 30
0.0
 11
-2629.380610585898
 21
-502.8800295760948
 31
0.0
  0
LINE
  5
2D7
330
1F
100
AcDbEntity
  8
ハッチ
  6
JWW_DASHED1
 62
   120
370
     5
100
AcDbLine
 10
-2615.838334030237
 20
-558.8487130029711
 30
0.0
 11
-2629.380610585898
 21
-545.3064364473101
 31
0.0
  0
LINE
  5
2D8
330
1F
100
AcDbEntity
  8
ハッチ
  6
JWW_DASHED1
 62
   120
370
     5
100
AcDbLine
 10
-1894.589417220007
 20
-558.8487130029711
 30
0.0
 11
-1924.380610585905
 21
-529.0575196370792
 31
0.0
  0
LINE
  5
2D9
330
1F
100
AcDbEntity
  8
0-4_枠
  6
Continuous
 62
   120
370
     5
100
AcDbLine
 10
-1774.380610585911
 20
-2004.848713002965
 30
0.0
 11
-1774.380610585911
 21
-3186.84891926503
 31
0.0
  0
LINE
  5
2DA
330
1F
100
AcDbEntity
  8
0-4_枠
  6
Continuous
 62
   120
370
     5
100
AcDbLine
 10
-2704.380610585912
 20
-3186.84891926503
 30
0.0
 11
-2704.380610585912
 21
-2004.848713002965
 31
0.0
  0
LINE
  5
2DB
330
1F
100
AcDbEntity
  8
0-4_枠
  6
Continuous
 62
   120
370
     5
100
AcDbLine
 10
-1774.380610585911
 20
-558.8487130029711
 30
0.0
 11
-1774.380610585911
 21
-1884.848713002965
 31
0.0
  0
LINE
  5
2DC
330
1F
100
AcDbEntity
  8
0-4_枠
  6
Continuous
 62
   120
370
     5
100
AcDbLine
 10
-2704.380610585912
 20
-1884.848713002965
 30
0.0
 11
-2704.380610585912
 21
-558.8487130029711
 31
0.0
  0
LINE
  5
2DD
330
1F
100
AcDbEntity
  8
0-4_枠
  6
Continuous
 62
    92
370
     5
100
AcDbLine
 10
-2266.980610585914
 20
-735.8487130029725
 30
0.0
 11
-1801.380175710425
 21
-735.8487130029725
 31
0.0
  0
LINE
  5
2DE
330
1F
100
AcDbEntity
  8
0-4_枠
  6
Continuous
 62
    92
370
     5
100
AcDbLine
 10
-2266.980610585914
 20
-738.8487130029711
 30
0.0
 11
-1798.380610585914
 21
-738.8487130029711
 31
0.0
  0
LINE
  5
2DF
330
1F
100
AcDbEntity
  8
ハッチ
  6
Continuous
 62
   120
370
     5
100
AcDbLine
 10
-2176.801810410834
 20
-558.848713002963
 30
0.0
 11
-1999.801810410836
 21
-735.848713002976
 31
0.0
  0
LINE
  5
2E0
330
1F
100
AcDbEntity
  8
ハッチ
  6
Continuous
 62
   120
370
     5
100
AcDbLine
 10
-1940.404840791178
 20
-735.8487130029874
 30
0.0
 11
-2117.404840791195
 21
-558.8487130029711
 31
0.0
  0
LINE
  5
2E1
330
1F
100
AcDbEntity
  8
ハッチ
  6
Continuous
 62
   120
370
     5
100
AcDbLine
 10
-2059.19878003055
 20
-735.8487130029725
 30
0.0
 11
-2236.198780030541
 21
-558.8487130029711
 31
0.0
  0
LINE
  5
2E2
330
1F
100
AcDbEntity
  8
ハッチ
  6
Continuous
 62
   120
370
     5
100
AcDbLine
 10
-2177.992719269824
 20
-735.8487130029725
 30
0.0
 11
-2266.980610585914
 21
-646.8608216868943
 31
0.0
  0
LINE
  5
2E3
330
1F
100
AcDbEntity
  8
ハッチ
  6
Continuous
 62
   120
370
     5
100
AcDbLine
 10
-2118.595749650183
 20
-735.8487130029725
 30
0.0
 11
-2295.595749650188
 21
-558.8487130029711
 31
0.0
  0
LINE
  5
2E4
330
1F
100
AcDbEntity
  8
0-B_寸法
  6
Continuous
 62
   120
370
     5
100
AcDbLine
 10
-2263.380611139267
 20
-1524.848839851541
 30
0.0
 11
-2443.380611139267
 21
-1524.848839851541
 31
0.0
  0
LINE
  5
2E5
330
1F
100
AcDbEntity
  8
0-6_扉
  6
Continuous
 62
   200
370
     5
100
AcDbLine
 10
-2443.380611139267
 20
-822.8487127183862
 30
0.0
 11
-2443.380611139267
 21
-1884.848713002965
 31
0.0
  0
LINE
  5
2E6
330
1F
100
AcDbEntity
  8
0-2_柱
  6
Continuous
 62
    92
370
     5
100
AcDbLine
 10
-1924.380610585911
 20
-558.8487130029711
 30
0.0
 11
-2554.380610585912
 21
-558.8487130029711
 31
0.0
  0
LINE
  5
2E7
330
1F
100
AcDbEntity
  8
0-2_柱
  6
Continuous
 62
     7
370
     5
100
AcDbLine
 10
-1924.380610585911
 20
-558.8487130029711
 30
0.0
 11
-2554.380610585912
 21
-396.84871300297
 31
0.0
  0
LINE
  5
2E8
330
1F
100
AcDbEntity
  8
0-2_柱
  6
Continuous
 62
    92
370
     5
100
AcDbLine
 10
-1924.380610585911
 20
-396.84871300297
 30
0.0
 11
-2554.380610585912
 21
-396.84871300297
 31
0.0
  0
LINE
  5
2E9
330
1F
100
AcDbEntity
  8
0-7_金物
  6
Continuous
 62
     7
370
     5
100
AcDbLine
 10
-2400.780611139264
 20
-1033.448712718386
 30
0.0
 11
-2400.780611139264
 21
-963.2487127183861
 31
0.0
  0
ARC
  5
2EA
330
1F
100
AcDbEntity
  8
0-7_金物
  6
Continuous
 62
     7
370
     5
100
AcDbCircle
 10
-2353.380611139263
 20
-1033.448712718386
 30
0.0
 40
47.40000000000003
100
AcDbArc
 50
180.0
 51
0.0
  0
LINE
  5
2EB
330
1F
100
AcDbEntity
  8
0-7_金物
  6
Continuous
 62
     7
370
     5
100
AcDbLine
 10
-2305.980611139264
 20
-963.2487127183861
 30
0.0
 11
-2305.980611139264
 21
-1033.448712718386
 31
0.0
  0
ARC
  5
2EC
330
1F
100
AcDbEntity
  8
0-7_金物
  6
Continuous
 62
     7
370
     5
100
AcDbCircle
 10
-2353.380611139263
 20
-1033.448712718386
 30
0.0
 40
41.40000000000003
100
AcDbArc
 50
180.0
 51
0.0
  0
LINE
  5
2ED
330
1F
100
AcDbEntity
  8
0-7_金物
  6
Continuous
 62
     7
370
     5
100
AcDbLine
 10
-2311.980611139263
 20
-1033.448712718386
 30
0.0
 11
-2311.980611139263
 21
-963.2487127183861
 31
0.0
  0
LINE
  5
2EE
330
1F
100
AcDbEntity
  8
0-7_金物
  6
Continuous
 62
     7
370
     5
100
AcDbLine
 10
-2400.780611139264
 20
-963.2487127183861
 30
0.0
 11
-2394.780611139265
 21
-963.2487127183861
 31
0.0
  0
LINE
  5
2EF
330
1F
100
AcDbEntity
  8
0-7_金物
  6
Continuous
 62
     7
370
     5
100
AcDbLine
 10
-2394.780611139265
 20
-963.2487127183861
 30
0.0
 11
-2394.780611139265
 21
-1033.448712718386
 31
0.0
  0
LINE
  5
2F0
330
1F
100
AcDbEntity
  8
0-7_金物
  6
Continuous
 62
     7
370
     5
100
AcDbLine
 10
-2311.980611139263
 20
-963.2487127183861
 30
0.0
 11
-2305.980611139264
 21
-963.2487127183861
 31
0.0
  0
LINE
  5
2F1
330
1F
100
AcDbEntity
  8
0-7_金物
  6
Continuous
 62
     7
370
     5
100
AcDbLine
 10
-2328.180611139264
 20
-963.2487127183861
 30
0.0
 11
-2328.180611139264
 21
-969.248712718384
 31
0.0
  0
LINE
  5
2F2
330
1F
100
AcDbEntity
  8
0-7_金物
  6
Continuous
 62
     7
370
     5
100
AcDbLine
 10
-2316.780611139265
 20
-969.248712718384
 30
0.0
 11
-2328.180611139264
 21
-969.248712718384
 31
0.0
  0
LINE
  5
2F3
330
1F
100
AcDbEntity
  8
0-7_金物
  6
Continuous
 62
     7
370
     5
100
AcDbLine
 10
-2316.780611139265
 20
-969.248712718384
 30
0.0
 11
-2316.780611139265
 21
-997.4487127183843
 31
0.0
  0
LINE
  5
2F4
330
1F
100
AcDbEntity
  8
0-7_金物
  6
Continuous
 62
     7
370
     5
100
AcDbLine
 10
-2328.180611139264
 20
-997.4487127183843
 30
0.0
 11
-2316.780611139265
 21
-997.4487127183843
 31
0.0
  0
LINE
  5
2F5
330
1F
100
AcDbEntity
  8
0-7_金物
  6
Continuous
 62
     7
370
     5
100
AcDbLine
 10
-2328.180611139264
 20
-997.4487127183843
 30
0.0
 11
-2328.180611139264
 21
-1008.848712718386
 31
0.0
  0
LINE
  5
2F6
330
1F
100
AcDbEntity
  8
0-7_金物
  6
Continuous
 62
     7
370
     5
100
AcDbLine
 10
-2378.580611139264
 20
-1008.848712718386
 30
0.0
 11
-2378.580611139264
 21
-997.4487127183843
 31
0.0
  0
LINE
  5
2F7
330
1F
100
AcDbEntity
  8
0-7_金物
  6
Continuous
 62
     7
370
     5
100
AcDbLine
 10
-2389.980611139264
 20
-997.4487127183843
 30
0.0
 11
-2378.580611139264
 21
-997.4487127183843
 31
0.0
  0
LINE
  5
2F8
330
1F
100
AcDbEntity
  8
0-7_金物
  6
Continuous
 62
     7
370
     5
100
AcDbLine
 10
-2389.980611139264
 20
-997.4487127183843
 30
0.0
 11
-2389.980611139264
 21
-969.248712718384
 31
0.0
  0
LINE
  5
2F9
330
1F
100
AcDbEntity
  8
0-7_金物
  6
Continuous
 62
     7
370
     5
100
AcDbLine
 10
-2378.580611139264
 20
-969.248712718384
 30
0.0
 11
-2389.980611139264
 21
-969.248712718384
 31
0.0
  0
LINE
  5
2FA
330
1F
100
AcDbEntity
  8
0-7_金物
  6
Continuous
 62
     7
370
     5
100
AcDbLine
 10
-2378.580611139264
 20
-969.248712718384
 30
0.0
 11
-2378.580611139264
 21
-963.2487127183861
 31
0.0
  0
LINE
  5
2FB
330
1F
100
AcDbEntity
  8
0-7_金物
  6
Continuous
 62
     7
370
     5
100
AcDbLine
 10
-2394.780611139265
 20
-963.2487127183861
 30
0.0
 11
-2378.580611139264
 21
-963.2487127183861
 31
0.0
  0
LINE
  5
2FC
330
1F
100
AcDbEntity
  8
0-7_金物
  6
Continuous
 62
     7
370
     5
100
AcDbLine
 10
-2328.180611139264
 20
-963.2487127183861
 30
0.0
 11
-2311.980611139263
 21
-963.2487127183861
 31
0.0
  0
LINE
  5
2FD
330
1F
100
AcDbEntity
  8
0-7_金物
  6
Continuous
 62
     7
370
     5
100
AcDbLine
 10
-2389.980611139264
 20
-975.2487127183854
 30
0.0
 11
-2378.580611139264
 21
-975.2487127183854
 31
0.0
  0
LINE
  5
2FE
330
1F
100
AcDbEntity
  8
0-7_金物
  6
Continuous
 62
     7
370
     5
100
AcDbLine
 10
-2378.580611139264
 20
-975.2487127183854
 30
0.0
 11
-2378.580611139264
 21
-969.248712718384
 31
0.0
  0
LINE
  5
2FF
330
1F
100
AcDbEntity
  8
0-7_金物
  6
Continuous
 62
     7
370
     5
100
AcDbLine
 10
-2328.180611139264
 20
-975.2487127183854
 30
0.0
 11
-2316.780611139265
 21
-975.2487127183854
 31
0.0
  0
LINE
  5
300
330
1F
100
AcDbEntity
  8
0-7_金物
  6
Continuous
 62
     7
370
     5
100
AcDbLine
 10
-2328.180611139264
 20
-969.248712718384
 30
0.0
 11
-2328.180611139264
 21
-975.2487127183854
 31
0.0
  0
LINE
  5
301
330
1F
100
AcDbEntity
  8
0-7_金物
  6
Continuous
 62
     7
370
     5
100
AcDbLine
 10
-2378.580611139264
 20
-991.4487127183843
 30
0.0
 11
-2389.980611139264
 21
-991.4487127183843
 31
0.0
  0
LINE
  5
302
330
1F
100
AcDbEntity
  8
0-7_金物
  6
Continuous
 62
     7
370
     5
100
AcDbLine
 10
-2378.580611139264
 20
-997.4487127183843
 30
0.0
 11
-2378.580611139264
 21
-991.4487127183843
 31
0.0
  0
LINE
  5
303
330
1F
100
AcDbEntity
  8
0-7_金物
  6
Continuous
 62
     7
370
     5
100
AcDbLine
 10
-2316.780611139265
 20
-991.4487127183843
 30
0.0
 11
-2328.180611139264
 21
-991.4487127183843
 31
0.0
  0
LINE
  5
304
330
1F
100
AcDbEntity
  8
0-7_金物
  6
Continuous
 62
     7
370
     5
100
AcDbLine
 10
-2328.180611139264
 20
-991.4487127183843
 30
0.0
 11
-2328.180611139264
 21
-997.4487127183843
 31
0.0
  0
LINE
  5
305
330
1F
100
AcDbEntity
  8
0-7_金物
  6
Continuous
 62
     7
370
     5
100
AcDbLine
 10
-2382.780611139263
 20
-962.6487127183852
 30
0.0
 11
-2382.780611139263
 21
-963.2487127183861
 31
0.0
  0
LINE
  5
306
330
1F
100
AcDbEntity
  8
0-7_金物
  6
Continuous
 62
     7
370
     5
100
AcDbLine
 10
-2400.780611139264
 20
-962.6487127183852
 30
0.0
 11
-2400.780611139264
 21
-963.2487127183861
 31
0.0
  0
LINE
  5
307
330
1F
100
AcDbEntity
  8
0-7_金物
  6
Continuous
 62
     7
370
     5
100
AcDbLine
 10
-2323.980611139265
 20
-963.2487127183861
 30
0.0
 11
-2323.980611139265
 21
-962.6487127183852
 31
0.0
  0
LINE
  5
308
330
1F
100
AcDbEntity
  8
0-7_金物
  6
Continuous
 62
     7
370
     5
100
AcDbLine
 10
-2305.980611139264
 20
-962.6487127183852
 30
0.0
 11
-2305.980611139264
 21
-963.2487127183861
 31
0.0
  0
ARC
  5
309
330
1F
100
AcDbEntity
  8
0-7_金物
  6
Continuous
 62
     7
370
     5
100
AcDbCircle
 10
-2344.380611139264
 20
-873.8487127183855
 30
0.0
 40
6.0
100
AcDbArc
 50
180.0
 51
270.0
  0
LINE
  5
30A
330
1F
100
AcDbEntity
  8
0-7_金物
  6
Continuous
 62
     7
370
     5
100
AcDbLine
 10
-2338.380611139263
 20
-885.8487127183848
 30
0.0
 11
-2344.380611139264
 21
-885.8487127183848
 31
0.0
  0
ARC
  5
30B
330
1F
100
AcDbEntity
  8
0-7_金物
  6
Continuous
 62
     7
370
     5
100
AcDbCircle
 10
-2344.380611139264
 20
-891.8487127183848
 30
0.0
 40
6.0
100
AcDbArc
 50
90.0
 51
180.0
  0
LINE
  5
30C
330
1F
100
AcDbEntity
  8
0-7_金物
  6
Continuous
 62
     7
370
     5
100
AcDbLine
 10
-2350.380611139265
 20
-891.8487127183848
 30
0.0
 11
-2350.380611139265
 21
-897.8487127183862
 31
0.0
  0
ARC
  5
30D
330
1F
100
AcDbEntity
  8
0-7_金物
  6
Continuous
 62
     7
370
     5
100
AcDbCircle
 10
-2368.380611139263
 20
-882.8487127183862
 30
0.0
 40
3.0
100
AcDbArc
 50
90.0
 51
180.0
  0
LINE
  5
30E
330
1F
100
AcDbEntity
  8
0-7_金物
  6
Continuous
 62
     7
370
     5
100
AcDbLine
 10
-2356.380611139264
 20
-873.8487127183855
 30
0.0
 11
-2356.380611139264
 21
-867.8487127183862
 31
0.0
  0
ARC
  5
30F
330
1F
100
AcDbEntity
  8
0-7_金物
  6
Continuous
 62
     7
370
     5
100
AcDbCircle
 10
-2353.380611139263
 20
-867.8487127183862
 30
0.0
 40
3.0
100
AcDbArc
 50
90.0
 51
180.0
  0
ARC
  5
310
330
1F
100
AcDbEntity
  8
0-7_金物
  6
Continuous
 62
     7
370
     5
100
AcDbCircle
 10
-2362.380611139264
 20
-891.8487127183848
 30
0.0
 40
6.0
100
AcDbArc
 50
0.0
 51
90.0
  0
LINE
  5
311
330
1F
100
AcDbEntity
  8
0-7_金物
  6
Continuous
 62
     7
370
     5
100
AcDbLine
 10
-2362.380611139264
 20
-885.8487127183848
 30
0.0
 11
-2368.380611139263
 21
-885.8487127183848
 31
0.0
  0
LINE
  5
312
330
1F
100
AcDbEntity
  8
0-7_金物
  6
Continuous
 62
     7
370
     5
100
AcDbLine
 10
-2368.380611139263
 20
-879.8487127183855
 30
0.0
 11
-2362.380611139264
 21
-879.8487127183855
 31
0.0
  0
ARC
  5
313
330
1F
100
AcDbEntity
  8
0-7_金物
  6
Continuous
 62
     7
370
     5
100
AcDbCircle
 10
-2362.380611139264
 20
-873.8487127183855
 30
0.0
 40
6.0
100
AcDbArc
 50
270.0
 51
0.0
  0
ARC
  5
314
330
1F
100
AcDbEntity
  8
0-7_金物
  6
Continuous
 62
     7
370
     5
100
AcDbCircle
 10
-2353.380611139263
 20
-867.8487127183862
 30
0.0
 40
3.0
100
AcDbArc
 50
0.0
 51
90.0
  0
ARC
  5
315
330
1F
100
AcDbEntity
  8
0-7_金物
  6
Continuous
 62
     7
370
     5
100
AcDbCircle
 10
-2338.380611139263
 20
-882.8487127183862
 30
0.0
 40
3.0
100
AcDbArc
 50
270.0
 51
0.0
  0
LINE
  5
316
330
1F
100
AcDbEntity
  8
0-7_金物
  6
Continuous
 62
     7
370
     5
100
AcDbLine
 10
-2350.380611139265
 20
-867.8487127183862
 30
0.0
 11
-2350.380611139265
 21
-873.8487127183855
 31
0.0
  0
ARC
  5
317
330
1F
100
AcDbEntity
  8
0-7_金物
  6
Continuous
 62
     7
370
     5
100
AcDbCircle
 10
-2368.380611139263
 20
-882.8487127183862
 30
0.0
 40
3.0
100
AcDbArc
 50
180.0
 51
270.0
  0
ARC
  5
318
330
1F
100
AcDbEntity
  8
0-7_金物
  6
Continuous
 62
     7
370
     5
100
AcDbCircle
 10
-2353.380611139263
 20
-897.8487127183862
 30
0.0
 40
3.0
100
AcDbArc
 50
270.0
 51
0.0
  0
LINE
  5
319
330
1F
100
AcDbEntity
  8
0-7_金物
  6
Continuous
 62
     7
370
     5
100
AcDbLine
 10
-2356.380611139264
 20
-897.8487127183862
 30
0.0
 11
-2356.380611139264
 21
-891.8487127183848
 31
0.0
  0
LINE
  5
31A
330
1F
100
AcDbEntity
  8
0-7_金物
  6
Continuous
 62
     7
370
     5
100
AcDbLine
 10
-2344.380611139264
 20
-879.8487127183855
 30
0.0
 11
-2338.380611139263
 21
-879.8487127183855
 31
0.0
  0
ARC
  5
31B
330
1F
100
AcDbEntity
  8
0-7_金物
  6
Continuous
 62
     7
370
     5
100
AcDbCircle
 10
-2338.380611139263
 20
-882.8487127183862
 30
0.0
 40
3.0
100
AcDbArc
 50
0.0
 51
90.0
  0
ARC
  5
31C
330
1F
100
AcDbEntity
  8
0-7_金物
  6
Continuous
 62
     7
370
     5
100
AcDbCircle
 10
-2353.380611139263
 20
-897.8487127183862
 30
0.0
 40
3.0
100
AcDbArc
 50
180.0
 51
270.0
  0
LINE
  5
31D
330
1F
100
AcDbEntity
  8
0-7_金物
  6
Continuous
 62
     7
370
     5
100
AcDbLine
 10
-2388.780611139265
 20
-1008.848712718386
 30
0.0
 11
-2388.780611139265
 21
-1026.848712718385
 31
0.0
  0
LINE
  5
31E
330
1F
100
AcDbEntity
  8
0-7_金物
  6
Continuous
 62
     7
370
     5
100
AcDbLine
 10
-2382.780611139263
 20
-1026.848712718385
 30
0.0
 11
-2382.780611139263
 21
-1008.848712718386
 31
0.0
  0
LINE
  5
31F
330
1F
100
AcDbEntity
  8
0-7_金物
  6
Continuous
 62
     7
370
     5
100
AcDbLine
 10
-2388.780611139265
 20
-1026.848712718385
 30
0.0
 11
-2382.780611139263
 21
-1026.848712718385
 31
0.0
  0
LINE
  5
320
330
1F
100
AcDbEntity
  8
0-7_金物
  6
Continuous
 62
     7
370
     5
100
AcDbLine
 10
-2382.780611139263
 20
-1008.848712718386
 30
0.0
 11
-2388.780611139265
 21
-1008.848712718386
 31
0.0
  0
LINE
  5
321
330
1F
100
AcDbEntity
  8
0-7_金物
  6
Continuous
 62
     7
370
     5
100
AcDbLine
 10
-2323.980611139265
 20
-1008.848712718386
 30
0.0
 11
-2323.980611139265
 21
-1026.848712718385
 31
0.0
  0
LINE
  5
322
330
1F
100
AcDbEntity
  8
0-7_金物
  6
Continuous
 62
     7
370
     5
100
AcDbLine
 10
-2382.780611139263
 20
-1026.848712718385
 30
0.0
 11
-2323.980611139265
 21
-1026.848712718385
 31
0.0
  0
LINE
  5
323
330
1F
100
AcDbEntity
  8
0-7_金物
  6
Continuous
 62
     7
370
     5
100
AcDbLine
 10
-2323.980611139265
 20
-1008.848712718386
 30
0.0
 11
-2382.780611139263
 21
-1008.848712718386
 31
0.0
  0
LINE
  5
324
330
1F
100
AcDbEntity
  8
0-7_金物
  6
Continuous
 62
     7
370
     5
100
AcDbLine
 10
-2305.980611139264
 20
-822.8487127183862
 30
0.0
 11
-2305.980611139264
 21
-962.6487127183852
 31
0.0
  0
LINE
  5
325
330
1F
100
AcDbEntity
  8
0-7_金物
  6
Continuous
 62
     7
370
     5
100
AcDbLine
 10
-2400.780611139264
 20
-822.8487127183862
 30
0.0
 11
-2400.780611139264
 21
-962.6487127183852
 31
0.0
  0
CIRCLE
  5
326
330
1F
100
AcDbEntity
  8
0-7_金物
  6
Continuous
 62
     7
370
     5
100
AcDbCircle
 10
-2353.380611139263
 20
-882.8487127183862
 30
0.0
 40
21.00000000000001
  0
LINE
  5
327
330
1F
100
AcDbEntity
  8
0-7_金物
  6
Continuous
 62
     7
370
     5
100
AcDbLine
 10
-2400.780611139264
 20
-962.6487127183852
 30
0.0
 11
-2305.980611139264
 21
-962.6487127183852
 31
0.0
  0
LINE
  5
328
330
1F
100
AcDbEntity
  8
0-7_金物
  6
Continuous
 62
     7
370
     5
100
AcDbLine
 10
-2317.980611139265
 20
-1026.848712718385
 30
0.0
 11
-2317.980611139265
 21
-1008.848712718386
 31
0.0
  0
LINE
  5
329
330
1F
100
AcDbEntity
  8
0-7_金物
  6
Continuous
 62
     7
370
     5
100
AcDbLine
 10
-2323.980611139265
 20
-1026.848712718385
 30
0.0
 11
-2317.980611139265
 21
-1026.848712718385
 31
0.0
  0
LINE
  5
32A
330
1F
100
AcDbEntity
  8
0-7_金物
  6
Continuous
 62
     7
370
     5
100
AcDbLine
 10
-2317.980611139265
 20
-1008.848712718386
 30
0.0
 11
-2323.980611139265
 21
-1008.848712718386
 31
0.0
  0
LINE
  5
32B
330
1F
100
AcDbEntity
  8
0-7_金物
  6
Continuous
 62
     7
370
     5
100
AcDbLine
 10
-2388.780611139265
 20
-990.8487127183848
 30
0.0
 11
-2317.980611139265
 21
-990.8487127183848
 31
0.0
  0
LINE
  5
32C
330
1F
100
AcDbEntity
  8
0-7_金物
  6
Continuous
 62
     7
370
     5
100
AcDbLine
 10
-2317.980611139265
 20
-990.8487127183848
 30
0.0
 11
-2317.980611139265
 21
-978.8487127183855
 31
0.0
  0
LINE
  5
32D
330
1F
100
AcDbEntity
  8
0-7_金物
  6
Continuous
 62
     7
370
     5
100
AcDbLine
 10
-2317.980611139265
 20
-978.8487127183855
 30
0.0
 11
-2388.780611139265
 21
-978.8487127183855
 31
0.0
  0
LINE
  5
32E
330
1F
100
AcDbEntity
  8
0-7_金物
  6
Continuous
 62
     7
370
     5
100
AcDbLine
 10
-2388.780611139265
 20
-978.8487127183855
 30
0.0
 11
-2388.780611139265
 21
-990.8487127183848
 31
0.0
  0
LINE
  5
32F
330
1F
100
AcDbEntity
  8
0-7_金物
  6
Continuous
 62
     7
370
     5
100
AcDbLine
 10
-2329.380611139264
 20
-975.8487127183848
 30
0.0
 11
-2317.980611139265
 21
-975.8487127183848
 31
0.0
  0
LINE
  5
330
330
1F
100
AcDbEntity
  8
0-7_金物
  6
Continuous
 62
     7
370
     5
100
AcDbLine
 10
-2329.380611139264
 20
-975.8487127183848
 30
0.0
 11
-2329.380611139264
 21
-962.6487127183852
 31
0.0
  0
LINE
  5
331
330
1F
100
AcDbEntity
  8
0-7_金物
  6
Continuous
 62
     7
370
     5
100
AcDbLine
 10
-2388.780611139265
 20
-975.8487127183848
 30
0.0
 11
-2377.380611139264
 21
-975.8487127183848
 31
0.0
  0
LINE
  5
332
330
1F
100
AcDbEntity
  8
0-7_金物
  6
Continuous
 62
     7
370
     5
100
AcDbLine
 10
-2377.380611139264
 20
-962.6487127183852
 30
0.0
 11
-2377.380611139264
 21
-975.8487127183848
 31
0.0
  0
LINE
  5
333
330
1F
100
AcDbEntity
  8
0-7_金物
  6
Continuous
 62
     7
370
     5
100
AcDbLine
 10
-2388.780611139265
 20
-978.8487127183855
 30
0.0
 11
-2388.780611139265
 21
-975.8487127183848
 31
0.0
  0
LINE
  5
334
330
1F
100
AcDbEntity
  8
0-7_金物
  6
Continuous
 62
     7
370
     5
100
AcDbLine
 10
-2317.980611139265
 20
-975.8487127183848
 30
0.0
 11
-2317.980611139265
 21
-978.8487127183855
 31
0.0
  0
LINE
  5
335
330
1F
100
AcDbEntity
  8
0-7_金物
  6
Continuous
 62
     7
370
     5
100
AcDbLine
 10
-2344.380611139264
 20
-990.8487127183848
 30
0.0
 11
-2344.380611139264
 21
-1008.848712718386
 31
0.0
  0
LINE
  5
336
330
1F
100
AcDbEntity
  8
0-7_金物
  6
Continuous
 62
     7
370
     5
100
AcDbLine
 10
-2362.380611139264
 20
-990.8487127183848
 30
0.0
 11
-2362.380611139264
 21
-1008.848712718386
 31
0.0
  0
LINE
  5
337
330
1F
100
AcDbEntity
  8
0-7_金物
  6
Continuous
 62
     7
370
     5
100
AcDbLine
 10
-2329.380611139264
 20
-1002.848712718386
 30
0.0
 11
-2344.380611139264
 21
-1002.848712718386
 31
0.0
  0
LINE
  5
338
330
1F
100
AcDbEntity
  8
0-7_金物
  6
Continuous
 62
     7
370
     5
100
AcDbLine
 10
-2329.380611139264
 20
-1008.848712718386
 30
0.0
 11
-2329.380611139264
 21
-1002.848712718386
 31
0.0
  0
LINE
  5
339
330
1F
100
AcDbEntity
  8
0-7_金物
  6
Continuous
 62
     7
370
     5
100
AcDbLine
 10
-2362.380611139264
 20
-1002.848712718386
 30
0.0
 11
-2377.380611139264
 21
-1002.848712718386
 31
0.0
  0
LINE
  5
33A
330
1F
100
AcDbEntity
  8
0-7_金物
  6
Continuous
 62
     7
370
     5
100
AcDbLine
 10
-2377.380611139264
 20
-1002.848712718386
 30
0.0
 11
-2377.380611139264
 21
-1008.848712718386
 31
0.0
  0
LINE
  5
33B
330
1F
100
AcDbEntity
  8
0-7_金物
  6
Continuous
 62
     7
370
     5
100
AcDbLine
 10
-2377.380611139264
 20
-990.8487127183848
 30
0.0
 11
-2377.380611139264
 21
-1002.848712718386
 31
0.0
  0
LINE
  5
33C
330
1F
100
AcDbEntity
  8
0-7_金物
  6
Continuous
 62
     7
370
     5
100
AcDbLine
 10
-2329.380611139264
 20
-1002.848712718386
 30
0.0
 11
-2329.380611139264
 21
-990.8487127183848
 31
0.0
  0
LINE
  5
33D
330
1F
100
AcDbEntity
  8
0-7_金物
  6
Continuous
 62
     7
370
     5
100
AcDbLine
 10
-2321.88061113927
 20
-725.0487127183865
 30
0.0
 11
-2321.88061113927
 21
-794.6487127183846
 31
0.0
  0
LINE
  5
33E
330
1F
100
AcDbEntity
  8
0-7_金物
  6
Continuous
 62
     7
370
     5
100
AcDbLine
 10
-2321.88061113927
 20
-707.0487127183858
 30
0.0
 11
-2321.88061113927
 21
-725.0487127183865
 31
0.0
  0
LINE
  5
33F
330
1F
100
AcDbEntity
  8
0-7_金物
  6
Continuous
 62
     7
370
     5
100
AcDbLine
 10
-2384.88061113927
 20
-725.0487127183865
 30
0.0
 11
-2384.88061113927
 21
-707.0487127183858
 31
0.0
  0
LINE
  5
340
330
1F
100
AcDbEntity
  8
0-7_金物
  6
Continuous
 62
     7
370
     5
100
AcDbLine
 10
-2321.88061113927
 20
-794.6487127183846
 30
0.0
 11
-2321.88061113927
 21
-821.0487127183858
 31
0.0
  0
LINE
  5
341
330
1F
100
AcDbEntity
  8
0-7_金物
  6
Continuous
 62
     7
370
     5
100
AcDbLine
 10
-2384.88061113927
 20
-821.0487127183858
 30
0.0
 11
-2384.88061113927
 21
-794.6487127183846
 31
0.0
  0
LINE
  5
342
330
1F
100
AcDbEntity
  8
0-7_金物
  6
Continuous
 62
     7
370
     5
100
AcDbLine
 10
-2377.38061113927
 20
-821.0487127183858
 30
0.0
 11
-2329.38061113927
 21
-821.0487127183858
 31
0.0
  0
LINE
  5
343
330
1F
100
AcDbEntity
  8
0-7_金物
  6
Continuous
 62
     7
370
     5
100
AcDbLine
 10
-2329.38061113927
 20
-821.0487127183858
 30
0.0
 11
-2329.38061113927
 21
-822.8487127183862
 31
0.0
  0
LINE
  5
344
330
1F
100
AcDbEntity
  8
0-7_金物
  6
Continuous
 62
     7
370
     5
100
AcDbLine
 10
-2377.38061113927
 20
-822.8487127183862
 30
0.0
 11
-2377.38061113927
 21
-821.0487127183858
 31
0.0
  0
LINE
  5
345
330
1F
100
AcDbEntity
  8
0-7_金物
  6
Continuous
 62
     7
370
     5
100
AcDbLine
 10
-2302.38061113927
 20
-683.0487127183851
 30
0.0
 11
-2302.38061113927
 21
-707.0487127183858
 31
0.0
  0
LINE
  5
346
330
1F
100
AcDbEntity
  8
0-7_金物
  6
Continuous
 62
     7
370
     5
100
AcDbLine
 10
-2326.380611139271
 20
-683.0487127183851
 30
0.0
 11
-2302.38061113927
 21
-683.0487127183851
 31
0.0
  0
LINE
  5
347
330
1F
100
AcDbEntity
  8
0-7_金物
  6
Continuous
 62
     7
370
     5
100
AcDbLine
 10
-2326.380611139271
 20
-695.0487127183865
 30
0.0
 11
-2326.380611139271
 21
-683.0487127183851
 31
0.0
  0
LINE
  5
348
330
1F
100
AcDbEntity
  8
0-7_金物
  6
Continuous
 62
     7
370
     5
100
AcDbLine
 10
-2380.380611139269
 20
-695.0487127183865
 30
0.0
 11
-2326.380611139271
 21
-695.0487127183865
 31
0.0
  0
LINE
  5
349
330
1F
100
AcDbEntity
  8
0-7_金物
  6
Continuous
 62
     7
370
     5
100
AcDbLine
 10
-2380.380611139269
 20
-683.0487127183851
 30
0.0
 11
-2380.380611139269
 21
-695.0487127183865
 31
0.0
  0
LINE
  5
34A
330
1F
100
AcDbEntity
  8
0-7_金物
  6
Continuous
 62
     7
370
     5
100
AcDbLine
 10
-2404.38061113927
 20
-707.0487127183858
 30
0.0
 11
-2404.38061113927
 21
-683.0487127183851
 31
0.0
  0
LINE
  5
34B
330
1F
100
AcDbEntity
  8
0-7_金物
  6
Continuous
 62
     7
370
     5
100
AcDbLine
 10
-2353.38061113927
 20
-707.0487127183858
 30
0.0
 11
-2404.38061113927
 21
-707.0487127183858
 31
0.0
  0
LINE
  5
34C
330
1F
100
AcDbEntity
  8
0-7_金物
  6
Continuous
 62
     7
370
     5
100
AcDbLine
 10
-2302.38061113927
 20
-707.0487127183858
 30
0.0
 11
-2353.38061113927
 21
-707.0487127183858
 31
0.0
  0
LINE
  5
34D
330
1F
100
AcDbEntity
  8
0-7_金物
  6
Continuous
 62
     7
370
     5
100
AcDbLine
 10
-2404.38061113927
 20
-683.0487127183851
 30
0.0
 11
-2380.380611139269
 21
-683.0487127183851
 31
0.0
  0
LINE
  5
34E
330
1F
100
AcDbEntity
  8
0-7_金物
  6
Continuous
 62
     7
370
     5
100
AcDbLine
 10
-2384.88061113927
 20
-794.6487127183846
 30
0.0
 11
-2353.38061113927
 21
-794.6487127183846
 31
0.0
  0
LINE
  5
34F
330
1F
100
AcDbEntity
  8
0-7_金物
  6
Continuous
 62
     7
370
     5
100
AcDbLine
 10
-2353.38061113927
 20
-725.0487127183865
 30
0.0
 11
-2384.88061113927
 21
-725.0487127183865
 31
0.0
  0
LINE
  5
350
330
1F
100
AcDbEntity
  8
0-7_金物
  6
Continuous
 62
     7
370
     5
100
AcDbLine
 10
-2353.38061113927
 20
-794.6487127183846
 30
0.0
 11
-2321.88061113927
 21
-794.6487127183846
 31
0.0
  0
LINE
  5
351
330
1F
100
AcDbEntity
  8
0-7_金物
  6
Continuous
 62
     7
370
     5
100
AcDbLine
 10
-2321.88061113927
 20
-725.0487127183865
 30
0.0
 11
-2353.38061113927
 21
-725.0487127183865
 31
0.0
  0
LINE
  5
352
330
1F
100
AcDbEntity
  8
0-7_金物
  6
Continuous
 62
     7
370
     5
100
AcDbLine
 10
-2384.88061113927
 20
-794.6487127183846
 30
0.0
 11
-2384.88061113927
 21
-725.0487127183865
 31
0.0
  0
LINE
  5
353
330
1F
100
AcDbEntity
  8
0-7_金物
  6
Continuous
 62
     7
370
     5
100
AcDbLine
 10
-2377.38061113927
 20
-821.0487127183858
 30
0.0
 11
-2384.88061113927
 21
-821.0487127183858
 31
0.0
  0
LINE
  5
354
330
1F
100
AcDbEntity
  8
0-7_金物
  6
Continuous
 62
     7
370
     5
100
AcDbLine
 10
-2321.88061113927
 20
-821.0487127183858
 30
0.0
 11
-2329.38061113927
 21
-821.0487127183858
 31
0.0
  0
LINE
  5
355
330
1F
100
AcDbEntity
  8
0-7_金物
  6
Continuous
 62
     7
370
     5
100
AcDbLine
 10
-2319.480385557139
 20
-642.8487127183876
 30
0.0
 11
-2387.2808367214
 21
-642.8487127183862
 31
0.0
  0
LINE
  5
356
330
1F
100
AcDbEntity
  8
0-7_金物
  6
Continuous
 62
     7
370
     5
100
AcDbLine
 10
-2434.381150140819
 20
-642.8487127183876
 30
0.0
 11
-2433.180611139269
 21
-642.8487127183862
 31
0.0
  0
LINE
  5
357
330
1F
100
AcDbEntity
  8
0-7_金物
  6
Continuous
 62
     7
370
     5
100
AcDbLine
 10
-2272.38061113927
 20
-642.8487127183862
 30
0.0
 11
-2273.58061113927
 21
-642.8487127183862
 31
0.0
  0
LINE
  5
358
330
1F
100
AcDbEntity
  8
0-7_金物
  6
Continuous
 62
     7
370
     5
100
AcDbLine
 10
-2400.78061113927
 20
-822.8487127183862
 30
0.0
 11
-2305.980611139269
 21
-822.8487127183862
 31
0.0
  0
LINE
  5
359
330
1F
100
AcDbEntity
  8
0-7_金物
  6
Continuous
 62
     7
370
     5
100
AcDbLine
 10
-2235.7800521747
 20
-851.0493994462856
 30
0.0
 11
-2235.7800521747
 21
-743.049399446285
 31
0.0
  0
ARC
  5
35A
330
1F
100
AcDbEntity
  8
0-7_金物
  6
Continuous
 62
     7
370
     5
100
AcDbCircle
 10
-2238.7800521747
 20
-851.0493994462856
 30
0.0
 40
2.999999999999915
100
AcDbArc
 50
180.0
 51
0.0
  0
LINE
  5
35B
330
1F
100
AcDbEntity
  8
0-7_金物
  6
Continuous
 62
     7
370
     5
100
AcDbLine
 10
-2430.181122192591
 20
-760.5873486444252
 30
0.0
 11
-2430.181122192591
 21
-675.8489323116082
 31
0.0
  0
ARC
  5
35C
330
1F
100
AcDbEntity
  8
0-7_金物
  6
Continuous
 62
     7
370
     5
100
AcDbCircle
 10
-2404.98095450322
 20
-744.8493914610792
 30
0.0
 40
30.00019963020328
100
AcDbArc
 50
213.9231120032596
 51
301.890791801846
  0
ARC
  5
35D
330
1F
100
AcDbEntity
  8
0-7_金物
  6
Continuous
 62
     7
370
     5
100
AcDbCircle
 10
-2388.180842710306
 20
-771.849571128261
 30
0.0
 40
1.800011977811773
100
AcDbArc
 50
0.0000000000000064
 51
121.8907918018636
  0
ARC
  5
35E
330
1F
100
AcDbEntity
  8
0-7_金物
  6
Continuous
 62
     7
370
     5
100
AcDbCircle
 10
-2428.381110214775
 20
-760.5873486444252
 30
0.0
 40
1.800011977815348
100
AcDbArc
 50
180.0
 51
213.923112003242
  0
LINE
  5
35F
330
1F
100
AcDbEntity
  8
0-7_金物
  6
Continuous
 62
     7
370
     5
100
AcDbLine
 10
-2381.280796795359
 20
-662.0488404817154
 30
0.0
 11
-2381.280796795359
 21
-653.6487845852575
 31
0.0
  0
LINE
  5
360
330
1F
100
AcDbEntity
  8
0-7_金物
  6
Continuous
 62
     7
370
     5
100
AcDbLine
 10
-2390.280856684419
 20
-651.8487726074459
 30
0.0
 11
-2390.280856684419
 21
-645.848732681407
 31
0.0
  0
LINE
  5
361
330
1F
100
AcDbEntity
  8
0-7_金物
  6
Continuous
 62
     7
370
     5
100
AcDbLine
 10
-2427.18110222957
 20
-654.8487925704674
 30
0.0
 11
-2393.280876647441
 21
-654.8487925704674
 31
0.0
  0
LINE
  5
362
330
1F
100
AcDbEntity
  8
0-7_金物
  6
Continuous
 62
     7
370
     5
100
AcDbLine
 10
-2418.181042340509
 20
-663.8488524595291
 30
0.0
 11
-2383.080808773171
 21
-663.8488524595291
 31
0.0
  0
LINE
  5
363
330
1F
100
AcDbEntity
  8
0-7_金物
  6
Continuous
 62
     7
370
     5
100
AcDbLine
 10
-2430.181122192591
 20
-651.8487726074459
 30
0.0
 11
-2430.181122192591
 21
-645.848732681407
 31
0.0
  0
ARC
  5
364
330
1F
100
AcDbEntity
  8
0-7_金物
  6
Continuous
 62
     7
370
     5
100
AcDbCircle
 10
-2387.2808367214
 20
-645.8487326814056
 30
0.0
 40
3.000019963019752
100
AcDbArc
 50
89.99999999999837
 51
180.0
  0
ARC
  5
365
330
1F
100
AcDbEntity
  8
0-7_金物
  6
Continuous
 62
     7
370
     5
100
AcDbCircle
 10
-2393.28087664744
 20
-651.8487726074459
 30
0.0
 40
3.000019963020116
100
AcDbArc
 50
269.9999999999951
 51
0.0000000000000127
  0
ARC
  5
366
330
1F
100
AcDbEntity
  8
0-7_金物
  6
Continuous
 62
     7
370
     5
100
AcDbCircle
 10
-2427.18110222957
 20
-651.8487726074459
 30
0.0
 40
3.000019963020043
100
AcDbArc
 50
180.0
 51
270.0000000000049
  0
ARC
  5
367
330
1F
100
AcDbEntity
  8
0-7_金物
  6
Continuous
 62
     7
370
     5
100
AcDbCircle
 10
-2433.181142155611
 20
-645.8487326814056
 30
0.0
 40
3.000019963019753
100
AcDbArc
 50
0.0000000000000127
 51
90.00000000000979
  0
ARC
  5
368
330
1F
100
AcDbEntity
  8
0-7_金物
  6
Continuous
 62
     7
370
     5
100
AcDbCircle
 10
-2434.381150140819
 20
-645.848732681407
 30
0.0
 40
3.000019963020626
100
AcDbArc
 50
90.00000000000654
 51
180.0
  0
ARC
  5
369
330
1F
100
AcDbEntity
  8
0-7_金物
  6
Continuous
 62
     7
370
     5
100
AcDbCircle
 10
-2418.181042340509
 20
-675.8489323116103
 30
0.0
 40
12.00007985208206
100
AcDbArc
 50
90.00000000000159
 51
180.0
  0
ARC
  5
36A
330
1F
100
AcDbEntity
  8
0-7_金物
  6
Continuous
 62
     7
370
     5
100
AcDbCircle
 10
-2383.080808773171
 20
-662.0488404817154
 30
0.0
 40
1.800011977812318
100
AcDbArc
 50
270.0000000000032
 51
359.9999999999999
  0
LINE
  5
36B
330
1F
100
AcDbEntity
  8
0-7_金物
  6
Continuous
 62
     7
370
     5
100
AcDbLine
 10
-2276.580100085948
 20
-760.5873486444252
 30
0.0
 11
-2276.580100085948
 21
-675.8489323116082
 31
0.0
  0
ARC
  5
36C
330
1F
100
AcDbEntity
  8
0-7_金物
  6
Continuous
 62
     7
370
     5
100
AcDbCircle
 10
-2278.380112063752
 20
-760.5873486444266
 30
0.0
 40
1.80001197780369
100
AcDbArc
 50
326.0768879966443
 51
0.0000000000000318
  0
LINE
  5
36D
330
1F
100
AcDbEntity
  8
0-7_金物
  6
Continuous
 62
     7
370
     5
100
AcDbLine
 10
-2288.580179938029
 20
-663.8488524595291
 30
0.0
 11
-2323.680413505368
 21
-663.8488524595291
 31
0.0
  0
LINE
  5
36E
330
1F
100
AcDbEntity
  8
0-7_金物
  6
Continuous
 62
     7
370
     5
100
AcDbLine
 10
-2279.580120048969
 20
-654.8487925704674
 30
0.0
 11
-2313.480345631097
 21
-654.8487925704674
 31
0.0
  0
ARC
  5
36F
330
1F
100
AcDbEntity
  8
0-7_金物
  6
Continuous
 62
     7
370
     5
100
AcDbCircle
 10
-2288.580179938029
 20
-675.8489323116082
 30
0.0
 40
12.00007985208111
100
AcDbArc
 50
0.0000000000000127
 51
90.00000000000001
  0
ARC
  5
370
330
1F
100
AcDbEntity
  8
0-7_金物
  6
Continuous
 62
     7
370
     5
100
AcDbCircle
 10
-2272.380072137721
 20
-645.848732681407
 30
0.0
 40
3.000019963020699
100
AcDbArc
 50
0.0000000000000127
 51
89.99999999999187
  0
LINE
  5
371
330
1F
100
AcDbEntity
  8
0-7_金物
  6
Continuous
 62
     7
370
     5
100
AcDbLine
 10
-2276.580100085948
 20
-651.8487726074459
 30
0.0
 11
-2276.580100085948
 21
-645.848732681407
 31
0.0
  0
ARC
  5
372
330
1F
100
AcDbEntity
  8
0-7_金物
  6
Continuous
 62
     7
370
     5
100
AcDbCircle
 10
-2273.580080122928
 20
-645.848732681407
 30
0.0
 40
3.000019963020699
100
AcDbArc
 50
90.00000000000654
 51
180.0
  0
ARC
  5
373
330
1F
100
AcDbEntity
  8
0-7_金物
  6
Continuous
 62
     7
370
     5
100
AcDbCircle
 10
-2279.580120048969
 20
-651.8487726074459
 30
0.0
 40
3.000019963020043
100
AcDbArc
 50
269.9999999999951
 51
0.0000000000000127
  0
LINE
  5
374
330
1F
100
AcDbEntity
  8
0-7_金物
  6
Continuous
 62
     7
370
     5
100
AcDbLine
 10
-2327.280437460993
 20
-651.8487726074459
 30
0.0
 11
-2351.580599161457
 21
-651.8487726074459
 31
0.0
  0
LINE
  5
375
330
1F
100
AcDbEntity
  8
0-7_金物
  6
Continuous
 62
     7
370
     5
100
AcDbLine
 10
-2325.480425483179
 20
-662.0488404817154
 30
0.0
 11
-2325.480425483179
 21
-653.6487845852575
 31
0.0
  0
ARC
  5
376
330
1F
100
AcDbEntity
  8
0-7_金物
  6
Continuous
 62
     7
370
     5
100
AcDbCircle
 10
-2323.680413505368
 20
-662.0488404817188
 30
0.0
 40
1.800011977811371
100
AcDbArc
 50
180.0
 51
270.0000000000098
  0
ARC
  5
377
330
1F
100
AcDbEntity
  8
0-7_金物
  6
Continuous
 62
     7
370
     5
100
AcDbCircle
 10
-2319.480385557139
 20
-645.8487326814056
 30
0.0
 40
3.000019963019753
100
AcDbArc
 50
0.0000000000000127
 51
90.00000000000162
  0
LINE
  5
378
330
1F
100
AcDbEntity
  8
0-7_金物
  6
Continuous
 62
     7
370
     5
100
AcDbLine
 10
-2316.48036559412
 20
-651.8487726074459
 30
0.0
 11
-2316.48036559412
 21
-645.848732681407
 31
0.0
  0
ARC
  5
379
330
1F
100
AcDbEntity
  8
0-7_金物
  6
Continuous
 62
     7
370
     5
100
AcDbCircle
 10
-2313.480345631099
 20
-651.8487726074459
 30
0.0
 40
3.000019963020116
100
AcDbArc
 50
180.0
 51
270.0000000000033
  0
LINE
  5
37A
330
1F
100
AcDbEntity
  8
0-7_金物
  6
Continuous
 62
     7
370
     5
100
AcDbLine
 10
-2355.180623117081
 20
-651.8487726074459
 30
0.0
 11
-2379.480784817547
 21
-651.8487726074459
 31
0.0
  0
ARC
  5
37B
330
1F
100
AcDbEntity
  8
0-7_金物
  6
Continuous
 62
     7
370
     5
100
AcDbCircle
 10
-2379.480784817547
 20
-653.6487845852575
 30
0.0
 40
1.800011977812318
100
AcDbArc
 50
90.00000000000325
 51
180.0
  0
ARC
  5
37C
330
1F
100
AcDbEntity
  8
0-7_金物
  6
Continuous
 62
     7
370
     5
100
AcDbCircle
 10
-2327.280437460993
 20
-653.6487845852575
 30
0.0
 40
1.800011977812317
100
AcDbArc
 50
0.0000000000000127
 51
89.99999999999675
  0
LINE
  5
37D
330
1F
100
AcDbEntity
  8
0-7_金物
  6
Continuous
 62
     7
370
     5
100
AcDbLine
 10
-2386.380830732511
 20
-775.3493923889121
 30
0.0
 11
-2386.380830732494
 21
-771.849571128261
 31
0.0
  0
ARC
  5
37E
330
1F
100
AcDbEntity
  8
0-7_金物
  6
Continuous
 62
     7
370
     5
100
AcDbCircle
 10
-2392.380830732511
 20
-775.3493923888814
 30
0.0
 40
6.000000000000762
100
AcDbArc
 50
292.4464399032286
 51
0.0
  0
ARC
  5
37F
330
1F
100
AcDbEntity
  8
0-7_金物
  6
Continuous
 62
     7
370
     5
100
AcDbCircle
 10
-2404.980954503219
 20
-744.8493914610792
 30
0.0
 40
39.00019963020362
100
AcDbArc
 50
220.9258727638374
 51
292.4464399032235
  0
ARC
  5
380
330
1F
100
AcDbEntity
  8
0-7_金物
  6
Continuous
 62
     7
370
     5
100
AcDbCircle
 10
-2301.780267775318
 20
-744.8493914610792
 30
0.0
 40
30.00019963020324
100
AcDbArc
 50
238.1092081981539
 51
326.0768879967404
  0
ARC
  5
381
330
1F
100
AcDbEntity
  8
0-7_金物
  6
Continuous
 62
     7
370
     5
100
AcDbCircle
 10
-2318.580379568234
 20
-771.849571128261
 30
0.0
 40
1.800011977811815
100
AcDbArc
 50
58.10920819813862
 51
180.0
  0
LINE
  5
382
330
1F
100
AcDbEntity
  8
0-7_金物
  6
Continuous
 62
     7
370
     5
100
AcDbLine
 10
-2320.380391546028
 20
-775.3493923889121
 30
0.0
 11
-2320.380391546046
 21
-771.849571128261
 31
0.0
  0
ARC
  5
383
330
1F
100
AcDbEntity
  8
0-7_金物
  6
Continuous
 62
     7
370
     5
100
AcDbCircle
 10
-2314.380391546027
 20
-775.3493923888814
 30
0.0
 40
6.000000000000811
100
AcDbArc
 50
180.0
 51
247.5535600967714
  0
ARC
  5
384
330
1F
100
AcDbEntity
  8
0-7_金物
  6
Continuous
 62
     7
370
     5
100
AcDbCircle
 10
-2301.780267775319
 20
-744.8493914610792
 30
0.0
 40
39.00019963020364
100
AcDbArc
 50
247.5535600967767
 51
319.0741272361627
  0
ARC
  5
385
330
1F
100
AcDbEntity
  8
0-7_金物
  6
Continuous
 62
     7
370
     5
100
AcDbCircle
 10
-2448.781170103839
 20
-749.6493994462858
 30
0.0
 40
3.59999999999971
100
AcDbArc
 50
0.0000000000000064
 51
180.0
  0
ARC
  5
386
330
1F
100
AcDbEntity
  8
0-7_金物
  6
Continuous
 62
     7
370
     5
100
AcDbCircle
 10
-2425.381164156985
 20
-762.5367379594459
 30
0.0
 40
11.99999999999909
100
AcDbArc
 50
211.739273711589
 51
220.9258727638443
  0
ARC
  5
387
330
1F
100
AcDbEntity
  8
0-7_金物
  6
Continuous
 62
     7
370
     5
100
AcDbCircle
 10
-2445.181170103841
 20
-750.8493994462847
 30
0.0
 40
1.200000000000017
100
AcDbArc
 50
269.9999999999739
 51
89.99999999997551
  0
ARC
  5
388
330
1F
100
AcDbEntity
  8
0-7_金物
  6
Continuous
 62
     7
370
     5
100
AcDbCircle
 10
-2257.980052174699
 20
-749.6493994462858
 30
0.0
 40
3.59999999999971
100
AcDbArc
 50
0.0000000000000064
 51
180.0
  0
ARC
  5
389
330
1F
100
AcDbEntity
  8
0-7_金物
  6
Continuous
 62
     7
370
     5
100
AcDbCircle
 10
-2261.580052174698
 20
-750.8493994462847
 30
0.0
 40
1.200000000000017
100
AcDbArc
 50
90.00000000002441
 51
270.0000000000277
  0
ARC
  5
38A
330
1F
100
AcDbEntity
  8
0-7_金物
  6
Continuous
 62
     7
370
     5
100
AcDbCircle
 10
-2281.380058121555
 20
-762.5367379594459
 30
0.0
 40
11.99999999999904
100
AcDbArc
 50
319.0741272361557
 51
328.2607262884101
  0
LINE
  5
38B
330
1F
100
AcDbEntity
  8
0-7_金物
  6
Continuous
 62
     7
370
     5
100
AcDbLine
 10
-2452.381170103839
 20
-765.8494395748896
 30
0.0
 11
-2452.381170103839
 21
-749.6493994462858
 31
0.0
  0
LINE
  5
38C
330
1F
100
AcDbEntity
  8
0-7_金物
  6
Continuous
 62
     7
370
     5
100
AcDbLine
 10
-2449.381160324824
 20
-768.8494395748733
 30
0.0
 11
-2435.586572822209
 21
-768.8493946090459
 31
0.0
  0
ARC
  5
38D
330
1F
100
AcDbEntity
  8
0-7_金物
  6
Continuous
 62
     7
370
     5
100
AcDbCircle
 10
-2449.381170103839
 20
-765.8494395748896
 30
0.0
 40
3.000000000000129
100
AcDbArc
 50
180.0
 51
270.0001867654294
  0
LINE
  5
38E
330
1F
100
AcDbEntity
  8
0-7_金物
  6
Continuous
 62
     7
370
     5
100
AcDbLine
 10
-2254.3800521747
 20
-767.0494395748715
 30
0.0
 11
-2254.3800521747
 21
-749.6493994462858
 31
0.0
  0
LINE
  5
38F
330
1F
100
AcDbEntity
  8
0-7_金物
  6
Continuous
 62
     7
370
     5
100
AcDbLine
 10
-2257.380061953716
 20
-768.8494395748733
 30
0.0
 11
-2271.174649456331
 21
-768.8493946090459
 31
0.0
  0
ARC
  5
390
330
1F
100
AcDbEntity
  8
0-7_金物
  6
Continuous
 62
     7
370
     5
100
AcDbCircle
 10
-2257.3800521747
 20
-765.8494395748896
 30
0.0
 40
3.000000000000171
100
AcDbArc
 50
269.9998132345673
 51
0.0
  0
LINE
  5
391
330
1F
100
AcDbEntity
  8
0-7_金物
  6
Continuous
 62
     7
370
     5
100
AcDbLine
 10
-2445.181170103839
 20
-758.6493994462858
 30
0.0
 11
-2445.181170103839
 21
-752.049399446285
 31
0.0
  0
ARC
  5
392
330
1F
100
AcDbEntity
  8
0-7_金物
  6
Continuous
 62
     7
370
     5
100
AcDbCircle
 10
-2442.18117010384
 20
-758.6493994462858
 30
0.0
 40
2.999999999999745
100
AcDbArc
 50
180.0
 51
270.0000000000049
  0
LINE
  5
393
330
1F
100
AcDbEntity
  8
0-7_金物
  6
Continuous
 62
     7
370
     5
100
AcDbLine
 10
-2437.381170103839
 20
-758.6493994462858
 30
0.0
 11
-2437.381170103839
 21
-645.848732681407
 31
0.0
  0
LINE
  5
394
330
1F
100
AcDbEntity
  8
0-7_金物
  6
Continuous
 62
     7
370
     5
100
AcDbLine
 10
-2440.381170103838
 20
-761.6493994462865
 30
0.0
 11
-2442.18117010384
 21
-761.6493994462865
 31
0.0
  0
ARC
  5
395
330
1F
100
AcDbEntity
  8
0-7_金物
  6
Continuous
 62
     7
370
     5
100
AcDbCircle
 10
-2440.381170103838
 20
-758.6493994462858
 30
0.0
 40
3.000000000000129
100
AcDbArc
 50
270.0000000000065
 51
0.0
  0
LINE
  5
396
330
1F
100
AcDbEntity
  8
0-7_金物
  6
Continuous
 62
     7
370
     5
100
AcDbLine
 10
-2269.3800521747
 20
-758.6493994462858
 30
0.0
 11
-2269.3800521747
 21
-645.848732681407
 31
0.0
  0
ARC
  5
397
330
1F
100
AcDbEntity
  8
0-7_金物
  6
Continuous
 62
     7
370
     5
100
AcDbCircle
 10
-2266.3800521747
 20
-758.6493994462858
 30
0.0
 40
3.0
100
AcDbArc
 50
180.0
 51
269.9999999999985
  0
LINE
  5
398
330
1F
100
AcDbEntity
  8
0-7_金物
  6
Continuous
 62
     7
370
     5
100
AcDbLine
 10
-2266.3800521747
 20
-761.6493994462865
 30
0.0
 11
-2264.5800521747
 21
-761.6493994462865
 31
0.0
  0
LINE
  5
399
330
1F
100
AcDbEntity
  8
0-7_金物
  6
Continuous
 62
     7
370
     5
100
AcDbLine
 10
-2261.580052174701
 20
-758.6493994462858
 30
0.0
 11
-2261.580052174701
 21
-752.049399446285
 31
0.0
  0
ARC
  5
39A
330
1F
100
AcDbEntity
  8
0-7_金物
  6
Continuous
 62
     7
370
     5
100
AcDbCircle
 10
-2264.5800521747
 20
-758.6493994462858
 30
0.0
 40
3.0
100
AcDbArc
 50
270.0
 51
0.0
  0
ARC
  5
39B
330
1F
100
AcDbEntity
  8
0-7_金物
  6
Continuous
 62
     7
370
     5
100
AcDbCircle
 10
-2266.3800521747
 20
-758.049399446285
 30
0.0
 40
3.000000000000171
100
AcDbArc
 50
180.0
 51
0.0
  0
ARC
  5
39C
330
1F
100
AcDbEntity
  8
0-7_金物
  6
Continuous
 62
     7
370
     5
100
AcDbCircle
 10
-2263.3800521747
 20
-756.849399446286
 30
0.0
 40
1.200000000000017
100
AcDbArc
 50
270.0
 51
89.99999999999677
  0
ARC
  5
39D
330
1F
100
AcDbEntity
  8
0-7_金物
  6
Continuous
 62
     7
370
     5
100
AcDbCircle
 10
-2266.3800521747
 20
-743.049399446285
 30
0.0
 40
3.0
100
AcDbArc
 50
90.0
 51
180.0
  0
LINE
  5
39E
330
1F
100
AcDbEntity
  8
0-7_金物
  6
Continuous
 62
     7
370
     5
100
AcDbLine
 10
-2263.380052174699
 20
-749.0493994462863
 30
0.0
 11
-2263.380052174699
 21
-755.6493994462871
 31
0.0
  0
ARC
  5
39F
330
1F
100
AcDbEntity
  8
0-7_金物
  6
Continuous
 62
     7
370
     5
100
AcDbCircle
 10
-2260.380052174699
 20
-749.0493994462863
 30
0.0
 40
3.0
100
AcDbArc
 50
90.0
 51
180.0
  0
LINE
  5
3A0
330
1F
100
AcDbEntity
  8
0-7_金物
  6
Continuous
 62
     7
370
     5
100
AcDbLine
 10
-2244.7800521747
 20
-746.0493994462856
 30
0.0
 11
-2260.380052174699
 21
-746.0493994462856
 31
0.0
  0
ARC
  5
3A1
330
1F
100
AcDbEntity
  8
0-7_金物
  6
Continuous
 62
     7
370
     5
100
AcDbCircle
 10
-2244.7800521747
 20
-749.0493994462863
 30
0.0
 40
3.000000000000171
100
AcDbArc
 50
0.0000000000000127
 51
90.00000000000001
  0
LINE
  5
3A2
330
1F
100
AcDbEntity
  8
0-7_金物
  6
Continuous
 62
     7
370
     5
100
AcDbLine
 10
-2238.7800521747
 20
-740.0493994462856
 30
0.0
 11
-2266.3800521747
 21
-740.0493994462856
 31
0.0
  0
ARC
  5
3A3
330
1F
100
AcDbEntity
  8
0-7_金物
  6
Continuous
 62
     7
370
     5
100
AcDbCircle
 10
-2238.7800521747
 20
-743.049399446285
 30
0.0
 40
3.0
100
AcDbArc
 50
0.0000000000000127
 51
90.00000000000001
  0
ARC
  5
3A4
330
1F
100
AcDbEntity
  8
0-7_金物
  6
Continuous
 62
     7
370
     5
100
AcDbCircle
 10
-2251.3800521747
 20
-762.8494395748739
 30
0.0
 40
2.999999999999829
100
AcDbArc
 50
0.0000000000000064
 51
180.0
  0
ARC
  5
3A5
330
1F
100
AcDbEntity
  8
0-7_金物
  6
Continuous
 62
     7
370
     5
100
AcDbCircle
 10
-2252.5800521747
 20
-767.0494395748715
 30
0.0
 40
1.800000000000153
100
AcDbArc
 50
180.0
 51
270.0000000000033
  0
LINE
  5
3A6
330
1F
100
AcDbEntity
  8
0-7_金物
  6
Continuous
 62
     7
370
     5
100
AcDbLine
 10
-2241.780052174699
 20
-761.0494395748722
 30
0.0
 11
-2241.780052174699
 21
-749.0493994462863
 31
0.0
  0
LINE
  5
3A7
330
1F
100
AcDbEntity
  8
0-7_金物
  6
Continuous
 62
     7
370
     5
100
AcDbLine
 10
-2243.5800521747
 20
-762.8494395748739
 30
0.0
 11
-2248.3800521747
 21
-762.8494395748739
 31
0.0
  0
ARC
  5
3A8
330
1F
100
AcDbEntity
  8
0-7_金物
  6
Continuous
 62
     7
370
     5
100
AcDbCircle
 10
-2243.5800521747
 20
-761.0494395748722
 30
0.0
 40
1.800000000000069
100
AcDbArc
 50
270.0000000000081
 51
0.0000000000000127
  0
LINE
  5
3A9
330
1F
100
AcDbEntity
  8
0-7_金物
  6
Continuous
 62
     7
370
     5
100
AcDbLine
 10
-2243.5800521747
 20
-768.8494395748719
 30
0.0
 11
-2252.5800521747
 21
-768.8494395748719
 31
0.0
  0
LINE
  5
3AA
330
1F
100
AcDbEntity
  8
0-7_金物
  6
Continuous
 62
     7
370
     5
100
AcDbLine
 10
-2241.780052174699
 20
-851.0493994462856
 30
0.0
 11
-2241.780052174699
 21
-770.6494395748716
 31
0.0
  0
ARC
  5
3AB
330
1F
100
AcDbEntity
  8
0-7_金物
  6
Continuous
 62
     7
370
     5
100
AcDbCircle
 10
-2243.5800521747
 20
-770.6494395748716
 30
0.0
 40
1.799999999999898
100
AcDbArc
 50
0.0000000000000127
 51
90.00000000000001
  0
LINE
  5
3AC
330
1F
100
AcDbEntity
  8
0-7_金物
  6
Continuous
 62
     7
370
     5
100
AcDbLine
 10
-2355.180623117084
 20
-651.8487726074459
 30
0.0
 11
-2353.38061113927
 21
-650.0487606296342
 31
0.0
  0
LINE
  5
3AD
330
1F
100
AcDbEntity
  8
0-7_金物
  6
Continuous
 62
     7
370
     5
100
AcDbLine
 10
-2353.380611139271
 20
-650.0487606296342
 30
0.0
 11
-2351.580599161457
 21
-651.8487726074459
 31
0.0
  0
MTEXT
  5
3AE
330
1F
100
AcDbEntity
  8
0-A_文字
  6
Continuous
 62
     7
370
     5
100
AcDbMText
 10
-1655.880611692618
 20
-2019.128713002966
 30
0.0
 40
91.44
 41
480.0
 46
0.0
 71
     7
 72
     1
  1
{\fＭＳ ゴシック|b0|i0|c128|p49;洋室側・}
 73
     1
 44
1.0
  0
MTEXT
  5
3AF
330
1F
100
AcDbEntity
  8
0-A_文字
  6
Continuous
 62
     7
370
     5
100
AcDbMText
 10
-3332.615120207025
 20
-2019.128713002966
 30
0.0
 40
91.44
 41
480.0
 46
0.0
 71
     7
 72
     1
  1
{\fＭＳ ゴシック|b0|i0|c128|p49;和室側・}
 73
     1
 44
1.0
  0
LINE
  5
3B0
330
1F
100
AcDbEntity
  8
0-0_補助線
  6
JWW_HOJO
 62
   120
370
     5
100
AcDbLine
 10
-2878.380611692623
 20
-2004.848713002965
 30
0.0
 11
-1696.380611692623
 21
-2004.848713002965
 31
0.0
  0
LINE
  5
3B1
330
1F
100
AcDbEntity
  8
0-0_補助線
  6
JWW_HOJO
 62
   120
370
     5
100
AcDbLine
 10
-2878.380611692623
 20
-1884.848713002965
 30
0.0
 11
-1696.380611692623
 21
-1884.848713002965
 31
0.0
  0
LINE
  5
3B2
330
1F
100
AcDbEntity
  8
0-A_文字
  6
Continuous
 62
     7
370
     5
100
AcDbLine
 10
-1115.880611692618
 20
-1824.848713002964
 30
0.0
 11
-1715.880611692618
 21
-1824.848713002964
 31
0.0
  0
LINE
  5
3B3
330
1F
100
AcDbEntity
  8
0-A_文字
  6
Continuous
 62
     7
370
     5
100
AcDbLine
 10
-1715.880611692618
 20
-2064.848713002966
 30
0.0
 11
-1115.880611692618
 21
-2064.848713002966
 31
0.0
  0
LINE
  5
3B4
330
1F
100
AcDbEntity
  8
0-A_文字
  6
Continuous
 62
     7
370
     5
100
AcDbLine
 10
-1115.880611692618
 20
-2064.848713002966
 30
0.0
 11
-1115.880611692618
 21
-1824.848713002964
 31
0.0
  0
LINE
  5
3B5
330
1F
100
AcDbEntity
  8
0-A_文字
  6
Continuous
 62
     7
370
     5
100
AcDbLine
 10
-1715.880611692618
 20
-1824.848713002964
 30
0.0
 11
-1715.880611692618
 21
-2064.848713002966
 31
0.0
  0
LINE
  5
3B6
330
1F
100
AcDbEntity
  8
0-A_文字
  6
Continuous
 62
     7
370
     5
100
AcDbLine
 10
-2792.615120207019
 20
-1824.848713002964
 30
0.0
 11
-3392.615120207019
 21
-1824.848713002964
 31
0.0
  0
LINE
  5
3B7
330
1F
100
AcDbEntity
  8
0-A_文字
  6
Continuous
 62
     7
370
     5
100
AcDbLine
 10
-3392.615120207019
 20
-2064.848713002966
 30
0.0
 11
-2792.615120207019
 21
-2064.848713002966
 31
0.0
  0
LINE
  5
3B8
330
1F
100
AcDbEntity
  8
0-A_文字
  6
Continuous
 62
     7
370
     5
100
AcDbLine
 10
-2792.615120207019
 20
-2064.848713002966
 30
0.0
 11
-2792.615120207019
 21
-1824.848713002964
 31
0.0
  0
LINE
  5
3B9
330
1F
100
AcDbEntity
  8
0-A_文字
  6
Continuous
 62
     7
370
     5
100
AcDbLine
 10
-3392.615120207019
 20
-1824.848713002964
 30
0.0
 11
-3392.615120207019
 21
-2064.848713002966
 31
0.0
  0
LINE
  5
3BA
330
1F
100
AcDbEntity
  8
0-7_金物
  6
Continuous
 62
     7
370
     5
100
AcDbLine
 10
-2326.380611139271
 20
-3168.849313002966
 30
0.0
 11
-2329.638011139267
 21
-3168.849313002966
 31
0.0
  0
LINE
  5
3BB
330
1F
100
AcDbEntity
  8
0-7_金物
  6
Continuous
 62
     7
370
     5
100
AcDbLine
 10
-2326.380611139271
 20
-3174.849313002966
 30
0.0
 11
-2326.380611139271
 21
-3168.849313002966
 31
0.0
  0
LINE
  5
3BC
330
1F
100
AcDbEntity
  8
0-7_金物
  6
Continuous
 62
     7
370
     5
100
AcDbLine
 10
-2362.980611139269
 20
-3194.048713002965
 30
0.0
 11
-2362.980611139269
 21
-3179.049313002966
 31
0.0
  0
LINE
  5
3BD
330
1F
100
AcDbEntity
  8
0-7_金物
  6
Continuous
 62
     7
370
     5
100
AcDbLine
 10
-2343.780611139269
 20
-3194.048713002965
 30
0.0
 11
-2343.780611139269
 21
-3179.049313002966
 31
0.0
  0
LINE
  5
3BE
330
1F
100
AcDbEntity
  8
0-7_金物
  6
Continuous
 62
     7
370
     5
100
AcDbLine
 10
-2367.180611139268
 20
-3204.848713002966
 30
0.0
 11
-2339.580611139266
 21
-3204.848713002966
 31
0.0
  0
LINE
  5
3BF
330
1F
100
AcDbEntity
  8
0-7_金物
  6
Continuous
 62
     7
370
     5
100
AcDbLine
 10
-2353.380611139267
 20
-3197.648713002967
 30
0.0
 11
-2355.180611139266
 21
-3195.848713002966
 31
0.0
  0
LINE
  5
3C0
330
1F
100
AcDbEntity
  8
0-7_金物
  6
Continuous
 62
     7
370
     5
100
AcDbLine
 10
-2330.580611139268
 20
-3204.848713002966
 30
0.0
 11
-2327.665211139268
 21
-3197.490913002965
 31
0.0
  0
LINE
  5
3C1
330
1F
100
AcDbEntity
  8
0-7_金物
  6
Continuous
 62
     7
370
     5
100
AcDbLine
 10
-2337.180611139268
 20
-3204.848713002966
 30
0.0
 11
-2330.580611139268
 21
-3204.848713002966
 31
0.0
  0
LINE
  5
3C2
330
1F
100
AcDbEntity
  8
0-7_金物
  6
Continuous
 62
     7
370
     5
100
AcDbLine
 10
-2338.380611139267
 20
-3203.648713002967
 30
0.0
 11
-2339.580611139266
 21
-3204.848713002966
 31
0.0
  0
LINE
  5
3C3
330
1F
100
AcDbEntity
  8
0-7_金物
  6
Continuous
 62
     7
370
     5
100
AcDbLine
 10
-2337.180611139268
 20
-3204.848713002966
 30
0.0
 11
-2338.380611139267
 21
-3203.648713002967
 31
0.0
  0
LINE
  5
3C4
330
1F
100
AcDbEntity
  8
0-7_金物
  6
Continuous
 62
     7
370
     5
100
AcDbLine
 10
-2332.380611139269
 20
-3195.848713002966
 30
0.0
 11
-2332.380611139269
 21
-3188.265313002966
 31
0.0
  0
LINE
  5
3C5
330
1F
100
AcDbEntity
  8
0-7_金物
  6
Continuous
 62
     7
370
     5
100
AcDbLine
 10
-2332.380611139269
 20
-3195.848713002966
 30
0.0
 11
-2328.780611139269
 21
-3195.848713002966
 31
0.0
  0
LINE
  5
3C6
330
1F
100
AcDbEntity
  8
0-7_金物
  6
Continuous
 62
     7
370
     5
100
AcDbLine
 10
-2345.580611139268
 20
-3195.848713002966
 30
0.0
 11
-2351.580611139269
 21
-3195.848713002966
 31
0.0
  0
LINE
  5
3C7
330
1F
100
AcDbEntity
  8
0-7_金物
  6
Continuous
 62
     7
370
     5
100
AcDbLine
 10
-2351.580611139269
 20
-3195.848713002966
 30
0.0
 11
-2353.380611139267
 21
-3197.648713002967
 31
0.0
  0
LINE
  5
3C8
330
1F
100
AcDbEntity
  8
0-7_金物
  6
Continuous
 62
     7
370
     5
100
AcDbLine
 10
-2376.180611139267
 20
-3204.848713002966
 30
0.0
 11
-2379.096011139266
 21
-3197.490913002965
 31
0.0
  0
LINE
  5
3C9
330
1F
100
AcDbEntity
  8
0-7_金物
  6
Continuous
 62
     7
370
     5
100
AcDbLine
 10
-2368.380611139267
 20
-3203.648713002967
 30
0.0
 11
-2367.180611139268
 21
-3204.848713002966
 31
0.0
  0
LINE
  5
3CA
330
1F
100
AcDbEntity
  8
0-7_金物
  6
Continuous
 62
     7
370
     5
100
AcDbLine
 10
-2369.580611139266
 20
-3204.848713002966
 30
0.0
 11
-2376.180611139267
 21
-3204.848713002966
 31
0.0
  0
LINE
  5
3CB
330
1F
100
AcDbEntity
  8
0-7_金物
  6
Continuous
 62
     7
370
     5
100
AcDbLine
 10
-2369.580611139266
 20
-3204.848713002966
 30
0.0
 11
-2368.380611139267
 21
-3203.648713002967
 31
0.0
  0
LINE
  5
3CC
330
1F
100
AcDbEntity
  8
0-7_金物
  6
Continuous
 62
     7
370
     5
100
AcDbLine
 10
-2355.180611139266
 20
-3195.848713002966
 30
0.0
 11
-2361.180611139267
 21
-3195.848713002966
 31
0.0
  0
LINE
  5
3CD
330
1F
100
AcDbEntity
  8
0-7_金物
  6
Continuous
 62
     7
370
     5
100
AcDbLine
 10
-2374.380611139269
 20
-3195.848713002966
 30
0.0
 11
-2374.380611139269
 21
-3188.265313002966
 31
0.0
  0
LINE
  5
3CE
330
1F
100
AcDbEntity
  8
0-7_金物
  6
Continuous
 62
     7
370
     5
100
AcDbLine
 10
-2374.380611139269
 20
-3195.848713002966
 30
0.0
 11
-2377.980611139269
 21
-3195.848713002966
 31
0.0
  0
LINE
  5
3CF
330
1F
100
AcDbEntity
  8
0-7_金物
  6
Continuous
 62
     7
370
     5
100
AcDbLine
 10
-2339.353211139267
 20
-3177.321913002966
 30
0.0
 11
-2331.759611139272
 21
-3169.727713002965
 31
0.0
  0
LINE
  5
3D0
330
1F
100
AcDbEntity
  8
0-7_金物
  6
Continuous
 62
     7
370
     5
100
AcDbLine
 10
-2340.626411139269
 20
-3177.849313002965
 30
0.0
 11
-2342.58061113927
 21
-3177.849313002965
 31
0.0
  0
LINE
  5
3D1
330
1F
100
AcDbEntity
  8
0-7_金物
  6
Continuous
 62
     7
370
     5
100
AcDbLine
 10
-2367.407411139269
 20
-3177.321913002966
 30
0.0
 11
-2375.00161113927
 21
-3169.727713002965
 31
0.0
  0
LINE
  5
3D2
330
1F
100
AcDbEntity
  8
0-7_金物
  6
Continuous
 62
     7
370
     5
100
AcDbLine
 10
-2366.134811139269
 20
-3177.849313002965
 30
0.0
 11
-2364.180611139271
 21
-3177.849313002965
 31
0.0
  0
LINE
  5
3D3
330
1F
100
AcDbEntity
  8
0-7_金物
  6
Continuous
 62
     7
370
     5
100
AcDbLine
 10
-2380.38061113927
 20
-3174.849313002966
 30
0.0
 11
-2380.38061113927
 21
-3168.849313002966
 31
0.0
  0
LINE
  5
3D4
330
1F
100
AcDbEntity
  8
0-7_金物
  6
Continuous
 62
     7
370
     5
100
AcDbLine
 10
-2380.38061113927
 20
-3168.849313002966
 30
0.0
 11
-2377.123211139268
 21
-3168.849313002966
 31
0.0
  0
ARC
  5
3D5
330
1F
100
AcDbEntity
  8
0-7_金物
  6
Continuous
 62
     7
370
     5
100
AcDbCircle
 10
-2314.380611139269
 20
-3188.265313002966
 30
0.0
 40
18.00000000000051
100
AcDbArc
 50
131.81
 51
180.0
  0
ARC
  5
3D6
330
1F
100
AcDbEntity
  8
0-7_金物
  6
Continuous
 62
     7
370
     5
100
AcDbCircle
 10
-2392.380011139267
 20
-3188.265313002966
 30
0.0
 40
18.00000000000051
100
AcDbArc
 50
0.0
 51
48.18999999999998
  0
ARC
  5
3D7
330
1F
100
AcDbEntity
  8
0-7_金物
  6
Continuous
 62
     7
370
     5
100
AcDbCircle
 10
-2328.780611139269
 20
-3197.048713002966
 30
0.0
 40
1.200000000000034
100
AcDbArc
 50
338.384
 51
89.99999999999997
  0
ARC
  5
3D8
330
1F
100
AcDbEntity
  8
0-7_金物
  6
Continuous
 62
     7
370
     5
100
AcDbCircle
 10
-2345.580611139268
 20
-3194.048713002965
 30
0.0
 40
1.800000000000052
100
AcDbArc
 50
269.9999999999999
 51
359.9999999999999
  0
ARC
  5
3D9
330
1F
100
AcDbEntity
  8
0-7_金物
  6
Continuous
 62
     7
370
     5
100
AcDbCircle
 10
-2361.180611139267
 20
-3194.048713002965
 30
0.0
 40
1.800000000000052
100
AcDbArc
 50
179.9999999999999
 51
269.9999999999999
  0
ARC
  5
3DA
330
1F
100
AcDbEntity
  8
0-7_金物
  6
Continuous
 62
     7
370
     5
100
AcDbCircle
 10
-2377.980611139269
 20
-3197.048713002966
 30
0.0
 40
1.200000000000034
100
AcDbArc
 50
89.99999999999987
 51
201.6159999999999
  0
ARC
  5
3DB
330
1F
100
AcDbEntity
  8
0-7_金物
  6
Continuous
 62
     7
370
     5
100
AcDbCircle
 10
-2340.626411139269
 20
-3176.049313002966
 30
0.0
 40
1.800000000000052
100
AcDbArc
 50
270.0
 51
315.0
  0
ARC
  5
3DC
330
1F
100
AcDbEntity
  8
0-7_金物
  6
Continuous
 62
     7
370
     5
100
AcDbCircle
 10
-2329.638011139267
 20
-3171.849313002966
 30
0.0
 40
3.000000000000086
100
AcDbArc
 50
89.99999999999996
 51
135.0
  0
ARC
  5
3DD
330
1F
100
AcDbEntity
  8
0-7_金物
  6
Continuous
 62
     7
370
     5
100
AcDbCircle
 10
-2342.58061113927
 20
-3179.049313002966
 30
0.0
 40
1.200000000000034
100
AcDbArc
 50
89.99999999999997
 51
180.0
  0
ARC
  5
3DE
330
1F
100
AcDbEntity
  8
0-7_金物
  6
Continuous
 62
     7
370
     5
100
AcDbCircle
 10
-2364.180611139271
 20
-3179.049313002966
 30
0.0
 40
1.200000000000034
100
AcDbArc
 50
359.9999999999999
 51
89.99999999999997
  0
ARC
  5
3DF
330
1F
100
AcDbEntity
  8
0-7_金物
  6
Continuous
 62
     7
370
     5
100
AcDbCircle
 10
-2366.134811139269
 20
-3176.049313002966
 30
0.0
 40
1.800000000000052
100
AcDbArc
 50
224.9999999999999
 51
269.9999999999999
  0
ARC
  5
3E0
330
1F
100
AcDbEntity
  8
0-7_金物
  6
Continuous
 62
     7
370
     5
100
AcDbCircle
 10
-2377.123211139268
 20
-3171.849313002966
 30
0.0
 40
3.000000000000086
100
AcDbArc
 50
44.99999999999995
 51
89.99999999999996
  0
LINE
  5
3E1
330
1F
100
AcDbEntity
  8
0-7_金物
  6
Continuous
 62
     7
370
     5
100
AcDbLine
 10
-2305.38061113927
 20
-3138.849313002966
 30
0.0
 11
-2305.38061113927
 21
-2898.849313002966
 31
0.0
  0
LINE
  5
3E2
330
1F
100
AcDbEntity
  8
0-7_金物
  6
Continuous
 62
     7
370
     5
100
AcDbLine
 10
-2401.380611139271
 20
-3138.849313002966
 30
0.0
 11
-2305.38061113927
 21
-3138.849313002966
 31
0.0
  0
LINE
  5
3E3
330
1F
100
AcDbEntity
  8
0-7_金物
  6
Continuous
 62
     7
370
     5
100
AcDbLine
 10
-2401.380611139271
 20
-2898.849313002966
 30
0.0
 11
-2401.380611139271
 21
-3138.849313002966
 31
0.0
  0
ARC
  5
3E4
330
1F
100
AcDbEntity
  8
0-7_金物
  6
Continuous
 62
     7
370
     5
100
AcDbCircle
 10
-2353.380611139267
 20
-2898.849313002966
 30
0.0
 40
47.99999999999999
100
AcDbArc
 50
0.0000000000000064
 51
180.0
  0
ARC
  5
3E5
330
1F
100
AcDbEntity
  8
0-7_金物
  6
Continuous
 62
     7
370
     5
100
AcDbCircle
 10
-2353.380611139267
 20
-2892.849313002967
 30
0.0
 40
24.9
100
AcDbArc
 50
91.36450306982846
 51
208.6354969301637
  0
ARC
  5
3E6
330
1F
100
AcDbEntity
  8
0-7_金物
  6
Continuous
 62
     7
370
     5
100
AcDbCircle
 10
-2353.380611139267
 20
-2892.849313002967
 30
0.0
 40
24.9
100
AcDbArc
 50
211.3645030698352
 51
328.6354969301648
  0
ARC
  5
3E7
330
1F
100
AcDbEntity
  8
0-7_金物
  6
Continuous
 62
     7
370
     5
100
AcDbCircle
 10
-2353.380611139267
 20
-2892.849313002967
 30
0.0
 40
24.9
100
AcDbArc
 50
331.3645030698363
 51
88.63549693017154
  0
CIRCLE
  5
3E8
330
1F
100
AcDbEntity
  8
0-7_金物
  6
Continuous
 62
     7
370
     5
100
AcDbCircle
 10
-2353.380611139267
 20
-3066.849313002967
 30
0.0
 40
21.00000000000001
  0
LINE
  5
3E9
330
1F
100
AcDbEntity
  8
0-7_金物
  6
Continuous
 62
     7
370
     5
100
AcDbLine
 10
-2353.973550360657
 20
-2867.956373781577
 30
0.0
 11
-2353.380611139267
 21
-2868.549313002965
 31
0.0
  0
LINE
  5
3EA
330
1F
100
AcDbEntity
  8
0-7_金物
  6
Continuous
 62
     7
370
     5
100
AcDbLine
 10
-2352.787671917878
 20
-2867.956373781577
 30
0.0
 11
-2353.380611139267
 21
-2868.549313002965
 31
0.0
  0
LINE
  5
3EB
330
1F
100
AcDbEntity
  8
0-7_金物
  6
Continuous
 62
     7
370
     5
100
AcDbLine
 10
-2374.642059269157
 20
-2905.809283042285
 30
0.0
 11
-2374.425028451231
 21
-2904.999313002964
 31
0.0
  0
LINE
  5
3EC
330
1F
100
AcDbEntity
  8
0-7_金物
  6
Continuous
 62
     7
370
     5
100
AcDbLine
 10
-2375.234998490547
 20
-2904.782282185037
 30
0.0
 11
-2374.425028451231
 21
-2904.999313002964
 31
0.0
  0
LINE
  5
3ED
330
1F
100
AcDbEntity
  8
0-7_金物
  6
Continuous
 62
     7
370
     5
100
AcDbLine
 10
-2331.526223787988
 20
-2904.782282185037
 30
0.0
 11
-2332.33619382731
 21
-2904.999313002964
 31
0.0
  0
LINE
  5
3EE
330
1F
100
AcDbEntity
  8
0-7_金物
  6
Continuous
 62
     7
370
     5
100
AcDbLine
 10
-2332.119163009378
 20
-2905.809283042286
 30
0.0
 11
-2332.33619382731
 21
-2904.999313002964
 31
0.0
  0
CIRCLE
  5
3EF
330
1F
100
AcDbEntity
  8
0-7_金物
  6
Continuous
 62
     7
370
     5
100
AcDbCircle
 10
-2353.380611139267
 20
-2964.849313002966
 30
0.0
 40
32.09999999999997
  0
LINE
  5
3F0
330
1F
100
AcDbEntity
  8
0-7_金物
  6
Continuous
 62
     7
370
     5
100
AcDbLine
 10
-2356.380611139271
 20
-3052.449313002966
 30
0.0
 11
-2356.380611139271
 21
-3056.049313002966
 31
0.0
  0
LINE
  5
3F1
330
1F
100
AcDbEntity
  8
0-7_金物
  6
Continuous
 62
     7
370
     5
100
AcDbLine
 10
-2356.380611139261
 20
-3081.249313002967
 30
0.0
 11
-2350.380611139277
 21
-3081.249313002967
 31
0.0
  0
LINE
  5
3F2
330
1F
100
AcDbEntity
  8
0-7_金物
  6
Continuous
 62
     7
370
     5
100
AcDbLine
 10
-2364.180611139271
 20
-3063.849313002966
 30
0.0
 11
-2367.780611139268
 21
-3063.849313002966
 31
0.0
  0
ARC
  5
3F3
330
1F
100
AcDbEntity
  8
0-7_金物
  6
Continuous
 62
     7
370
     5
100
AcDbCircle
 10
-2364.180611139271
 20
-3056.049313002966
 30
0.0
 40
7.800000000000001
100
AcDbArc
 50
270.0
 51
0.0
  0
LINE
  5
3F4
330
1F
100
AcDbEntity
  8
0-7_金物
  6
Continuous
 62
     7
370
     5
100
AcDbLine
 10
-2350.38061113927
 20
-3052.449313002966
 30
0.0
 11
-2356.380611139271
 21
-3052.449313002966
 31
0.0
  0
LINE
  5
3F5
330
1F
100
AcDbEntity
  8
0-7_金物
  6
Continuous
 62
     7
370
     5
100
AcDbLine
 10
-2367.780611139268
 20
-3063.849313002966
 30
0.0
 11
-2367.780611139268
 21
-3069.84931300298
 31
0.0
  0
LINE
  5
3F6
330
1F
100
AcDbEntity
  8
0-7_金物
  6
Continuous
 62
     7
370
     5
100
AcDbLine
 10
-2367.780611139261
 20
-3069.84931300298
 30
0.0
 11
-2364.180611139264
 21
-3069.84931300298
 31
0.0
  0
LINE
  5
3F7
330
1F
100
AcDbEntity
  8
0-7_金物
  6
Continuous
 62
     7
370
     5
100
AcDbLine
 10
-2356.380611139261
 20
-3077.649313002979
 30
0.0
 11
-2356.380611139261
 21
-3081.249313002977
 31
0.0
  0
ARC
  5
3F8
330
1F
100
AcDbEntity
  8
0-7_金物
  6
Continuous
 62
     7
370
     5
100
AcDbCircle
 10
-2364.180611139258
 20
-3077.64931300298
 30
0.0
 40
7.800000000000001
100
AcDbArc
 50
0.0000000000065265
 51
90.00000000000651
  0
LINE
  5
3F9
330
1F
100
AcDbEntity
  8
0-7_金物
  6
Continuous
 62
     7
370
     5
100
AcDbLine
 10
-2350.38061113927
 20
-3052.449313002966
 30
0.0
 11
-2350.38061113927
 21
-3056.049313002966
 31
0.0
  0
LINE
  5
3FA
330
1F
100
AcDbEntity
  8
0-7_金物
  6
Continuous
 62
     7
370
     5
100
AcDbLine
 10
-2342.58061113927
 20
-3063.849313002966
 30
0.0
 11
-2338.980611139267
 21
-3063.849313002966
 31
0.0
  0
ARC
  5
3FB
330
1F
100
AcDbEntity
  8
0-7_金物
  6
Continuous
 62
     7
370
     5
100
AcDbCircle
 10
-2342.58061113927
 20
-3056.049313002966
 30
0.0
 40
7.800000000000001
100
AcDbArc
 50
180.0
 51
270.0
  0
LINE
  5
3FC
330
1F
100
AcDbEntity
  8
0-7_金物
  6
Continuous
 62
     7
370
     5
100
AcDbLine
 10
-2338.980611139267
 20
-3063.849313002966
 30
0.0
 11
-2338.980611139267
 21
-3069.84931300298
 31
0.0
  0
LINE
  5
3FD
330
1F
100
AcDbEntity
  8
0-7_金物
  6
Continuous
 62
     7
370
     5
100
AcDbLine
 10
-2350.380611139277
 20
-3077.649313002979
 30
0.0
 11
-2350.380611139277
 21
-3081.249313002977
 31
0.0
  0
LINE
  5
3FE
330
1F
100
AcDbEntity
  8
0-7_金物
  6
Continuous
 62
     7
370
     5
100
AcDbLine
 10
-2338.980611139274
 20
-3069.84931300298
 30
0.0
 11
-2342.580611139277
 21
-3069.84931300298
 31
0.0
  0
ARC
  5
3FF
330
1F
100
AcDbEntity
  8
0-7_金物
  6
Continuous
 62
     7
370
     5
100
AcDbCircle
 10
-2342.580611139277
 20
-3077.64931300298
 30
0.0
 40
7.800000000000001
100
AcDbArc
 50
89.99999999999352
 51
179.9999999999935
  0
LINE
  5
400
330
1F
100
AcDbEntity
  8
0-7_金物
  6
Continuous
 62
     7
370
     5
100
AcDbLine
 10
-2332.380611139269
 20
-3165.376389255307
 30
0.0
 11
-2332.380611139269
 21
-3138.849313002966
 31
0.0
  0
LINE
  5
401
330
1F
100
AcDbEntity
  8
0-7_金物
  6
Continuous
 62
     7
370
     5
100
AcDbLine
 10
-2362.380611139269
 20
-3138.849313002966
 30
0.0
 11
-2362.380611139269
 21
-3184.576389255309
 31
0.0
  0
LINE
  5
402
330
1F
100
AcDbEntity
  8
0-7_金物
  6
Continuous
 62
     7
370
     5
100
AcDbLine
 10
-2344.380611139269
 20
-3138.849313002966
 30
0.0
 11
-2344.380611139269
 21
-3184.576389255309
 31
0.0
  0
LINE
  5
403
330
1F
100
AcDbEntity
  8
0-7_金物
  6
Continuous
 62
     7
370
     5
100
AcDbLine
 10
-2374.380611139269
 20
-3165.376389255307
 30
0.0
 11
-2374.380611139269
 21
-3138.849313002966
 31
0.0
  0
ARC
  5
404
330
1F
100
AcDbEntity
  8
0-7_金物
  6
Continuous
 62
     7
370
     5
100
AcDbCircle
 10
-2343.18061113927
 20
-3178.521729255309
 30
0.0
 40
1.2
100
AcDbArc
 50
95.21590900000078
 51
180.0
  0
ARC
  5
405
330
1F
100
AcDbEntity
  8
0-7_金物
  6
Continuous
 62
     7
370
     5
100
AcDbCircle
 10
-2346.180611139267
 20
-3184.576389255309
 30
0.0
 40
1.8
100
AcDbArc
 50
270.0
 51
0.0
  0
ARC
  5
406
330
1F
100
AcDbEntity
  8
0-7_金物
  6
Continuous
 62
     7
370
     5
100
AcDbCircle
 10
-2363.580611139272
 20
-3178.521729255309
 30
0.0
 40
1.2
100
AcDbArc
 50
0.0000000000000127
 51
84.7840909999992
  0
ARC
  5
407
330
1F
100
AcDbEntity
  8
0-7_金物
  6
Continuous
 62
     7
370
     5
100
AcDbCircle
 10
-2360.580611139268
 20
-3184.576389255309
 30
0.0
 40
1.8
100
AcDbArc
 50
180.0
 51
270.0
  0
ARC
  5
408
330
1F
100
AcDbEntity
  8
0-7_金物
  6
Continuous
 62
     7
370
     5
100
AcDbCircle
 10
-2344.380611139269
 20
-3165.376389255307
 30
0.0
 40
12.0
100
AcDbArc
 50
275.2159090000008
 51
0.0000000000000254
  0
ARC
  5
409
330
1F
100
AcDbEntity
  8
0-7_金物
  6
Continuous
 62
     7
370
     5
100
AcDbCircle
 10
-2362.380611139269
 20
-3165.376389255307
 30
0.0
 40
12.0
100
AcDbArc
 50
180.0
 51
264.7840909999994
  0
LINE
  5
40A
330
1F
100
AcDbEntity
  8
0-7_金物
  6
Continuous
 62
     7
370
     5
100
AcDbLine
 10
-2360.580611139268
 20
-3186.376389255309
 30
0.0
 11
-2346.180611139267
 21
-3186.376389255309
 31
0.0
  0
ARC
  5
40B
330
1F
100
AcDbEntity
  8
0-7_金物
  6
Continuous
 62
     7
370
     5
100
AcDbCircle
 10
-2366.580611139269
 20
-2978.049313002968
 30
0.0
 40
10.2
100
AcDbArc
 50
0.0000000000000127
 51
90.00000000000001
  0
ARC
  5
40C
330
1F
100
AcDbEntity
  8
0-7_金物
  6
Continuous
 62
     7
370
     5
100
AcDbCircle
 10
-2340.180611139266
 20
-2978.049313002968
 30
0.0
 40
10.2
100
AcDbArc
 50
90.0
 51
180.0
  0
ARC
  5
40D
330
1F
100
AcDbEntity
  8
0-7_金物
  6
Continuous
 62
     7
370
     5
100
AcDbCircle
 10
-2366.580611139269
 20
-2951.649313002966
 30
0.0
 40
10.2
100
AcDbArc
 50
270.0
 51
0.0
  0
LINE
  5
40E
330
1F
100
AcDbEntity
  8
0-7_金物
  6
Continuous
 62
     7
370
     5
100
AcDbLine
 10
-2372.280611139271
 20
-2961.849313002967
 30
0.0
 11
-2366.580611139269
 21
-2961.849313002967
 31
0.0
  0
LINE
  5
40F
330
1F
100
AcDbEntity
  8
0-7_金物
  6
Continuous
 62
     7
370
     5
100
AcDbLine
 10
-2372.280611139271
 20
-2967.849313002967
 30
0.0
 11
-2372.280611139271
 21
-2961.849313002967
 31
0.0
  0
LINE
  5
410
330
1F
100
AcDbEntity
  8
0-7_金物
  6
Continuous
 62
     7
370
     5
100
AcDbLine
 10
-2366.580611139269
 20
-2967.849313002967
 30
0.0
 11
-2372.280611139271
 21
-2967.849313002967
 31
0.0
  0
LINE
  5
411
330
1F
100
AcDbEntity
  8
0-7_金物
  6
Continuous
 62
     7
370
     5
100
AcDbLine
 10
-2356.380611139271
 20
-2951.649313002966
 30
0.0
 11
-2356.380611139271
 21
-2945.949313002968
 31
0.0
  0
LINE
  5
412
330
1F
100
AcDbEntity
  8
0-7_金物
  6
Continuous
 62
     7
370
     5
100
AcDbLine
 10
-2350.38061113927
 20
-2945.949313002968
 30
0.0
 11
-2350.38061113927
 21
-2951.649313002966
 31
0.0
  0
LINE
  5
413
330
1F
100
AcDbEntity
  8
0-7_金物
  6
Continuous
 62
     7
370
     5
100
AcDbLine
 10
-2356.380611139271
 20
-2945.949313002968
 30
0.0
 11
-2350.38061113927
 21
-2945.949313002968
 31
0.0
  0
LINE
  5
414
330
1F
100
AcDbEntity
  8
0-7_金物
  6
Continuous
 62
     7
370
     5
100
AcDbLine
 10
-2334.480611139271
 20
-2967.849313002967
 30
0.0
 11
-2340.180611139266
 21
-2967.849313002967
 31
0.0
  0
LINE
  5
415
330
1F
100
AcDbEntity
  8
0-7_金物
  6
Continuous
 62
     7
370
     5
100
AcDbLine
 10
-2340.180611139266
 20
-2961.849313002967
 30
0.0
 11
-2334.480611139271
 21
-2961.849313002967
 31
0.0
  0
ARC
  5
416
330
1F
100
AcDbEntity
  8
0-7_金物
  6
Continuous
 62
     7
370
     5
100
AcDbCircle
 10
-2340.180611139266
 20
-2951.649313002966
 30
0.0
 40
10.2
100
AcDbArc
 50
180.0
 51
270.0
  0
LINE
  5
417
330
1F
100
AcDbEntity
  8
0-7_金物
  6
Continuous
 62
     7
370
     5
100
AcDbLine
 10
-2334.480611139271
 20
-2961.849313002967
 30
0.0
 11
-2334.480611139271
 21
-2967.849313002967
 31
0.0
  0
LINE
  5
418
330
1F
100
AcDbEntity
  8
0-7_金物
  6
Continuous
 62
     7
370
     5
100
AcDbLine
 10
-2356.380611139271
 20
-2983.749313002967
 30
0.0
 11
-2356.380611139271
 21
-2978.049313002968
 31
0.0
  0
LINE
  5
419
330
1F
100
AcDbEntity
  8
0-7_金物
  6
Continuous
 62
     7
370
     5
100
AcDbLine
 10
-2350.38061113927
 20
-2978.049313002968
 30
0.0
 11
-2350.38061113927
 21
-2983.749313002967
 31
0.0
  0
LINE
  5
41A
330
1F
100
AcDbEntity
  8
0-7_金物
  6
Continuous
 62
     7
370
     5
100
AcDbLine
 10
-2350.38061113927
 20
-2983.749313002967
 30
0.0
 11
-2356.380611139271
 21
-2983.749313002967
 31
0.0
  0
LINE
  5
41B
330
1F
100
AcDbEntity
  8
0-7_金物
  6
Continuous
 62
     7
370
     5
100
AcDbLine
 10
-2313.780611139269
 20
-3146.049313002966
 30
0.0
 11
-2332.57508215035
 21
-3146.049313002966
 31
0.0
  0
LINE
  5
41C
330
1F
100
AcDbEntity
  8
0-7_金物
  6
Continuous
 62
     7
370
     5
100
AcDbLine
 10
-2374.186140128184
 20
-3146.049313002966
 30
0.0
 11
-2392.980611139269
 21
-3146.049313002966
 31
0.0
  0
LINE
  5
41D
330
1F
100
AcDbEntity
  8
0-7_金物
  6
Continuous
 62
     7
370
     5
100
AcDbLine
 10
-2313.780611139269
 20
-3138.849313002966
 30
0.0
 11
-2313.780611139269
 21
-3146.049313002966
 31
0.0
  0
LINE
  5
41E
330
1F
100
AcDbEntity
  8
0-7_金物
  6
Continuous
 62
     7
370
     5
100
AcDbLine
 10
-2392.980611139269
 20
-3138.849313002966
 30
0.0
 11
-2392.980611139269
 21
-3146.049313002966
 31
0.0
  0
LINE
  5
41F
330
1F
100
AcDbEntity
  8
0-6_扉
  6
Continuous
 62
   200
370
     5
100
AcDbLine
 10
-2263.380611139267
 20
-3138.849313002966
 30
0.0
 11
-2443.380611139267
 21
-3138.849313002966
 31
0.0
  0
LINE
  5
420
330
1F
100
AcDbEntity
  8
0-4_枠
  6
Continuous
 62
    92
370
     5
100
AcDbLine
 10
-2629.380610585908
 20
-3173.091353690083
 30
0.0
 11
-2629.380610585908
 21
-3258.849016271396
 31
0.0
  0
LINE
  5
421
330
1F
100
AcDbEntity
  8
0-4_枠
  6
Continuous
 62
    92
370
     5
100
AcDbLine
 10
-2626.38061058591
 20
-3258.849222265051
 30
0.0
 11
-2626.38061058591
 21
-3171.848426900669
 31
0.0
  0
LINE
  5
422
330
1F
100
AcDbEntity
  8
0-4_枠
  6
Continuous
 62
    92
370
     5
100
AcDbLine
 10
-2625.137969898789
 20
-3168.848713002964
 30
0.0
 11
-2629.380610585908
 21
-3173.091353690083
 31
0.0
  0
LINE
  5
423
330
1F
100
AcDbEntity
  8
0-4_枠
  6
Continuous
 62
    92
370
     5
100
AcDbLine
 10
-1849.380610585908
 20
-3258.849016271396
 30
0.0
 11
-2629.380610585908
 21
-3258.849016271396
 31
0.0
  0
LINE
  5
424
330
1F
100
AcDbEntity
  8
0-4_枠
  6
Continuous
 62
    92
370
     5
100
AcDbLine
 10
-1849.380610585908
 20
-3173.091353690083
 30
0.0
 11
-1853.623251273027
 21
-3168.848713002964
 31
0.0
  0
LINE
  5
425
330
1F
100
AcDbEntity
  8
0-4_枠
  6
Continuous
 62
    92
370
     5
100
AcDbLine
 10
-1852.380610585909
 20
-3258.849222265051
 30
0.0
 11
-1852.380610585909
 21
-3171.848426900669
 31
0.0
  0
LINE
  5
426
330
1F
100
AcDbEntity
  8
0-4_枠
  6
Continuous
 62
    92
370
     5
100
AcDbLine
 10
-1849.380610585908
 20
-3173.091353690083
 30
0.0
 11
-1849.380610585908
 21
-3258.849016271396
 31
0.0
  0
LINE
  5
427
330
1F
100
AcDbEntity
  8
ハッチ
  6
Continuous
 62
   120
370
     5
100
AcDbLine
 10
-2349.547602977349
 20
-3258.849016271401
 30
0.0
 11
-2436.548192348087
 21
-3171.848426900669
 31
0.0
  0
LINE
  5
428
330
1F
100
AcDbEntity
  8
ハッチ
  6
Continuous
 62
   120
370
     5
100
AcDbLine
 10
-2307.121196106156
 20
-3258.849016271397
 30
0.0
 11
-2361.121499374582
 21
-3204.848713002973
 31
0.0
  0
LINE
  5
429
330
1F
100
AcDbEntity
  8
ハッチ
  6
Continuous
 62
   120
370
     5
100
AcDbLine
 10
-2222.268382363814
 20
-3258.849016271394
 30
0.0
 11
-2309.268971734538
 21
-3171.848426900669
 31
0.0
  0
LINE
  5
42A
330
1F
100
AcDbEntity
  8
ハッチ
  6
Continuous
 62
   120
370
     5
100
AcDbLine
 10
-2179.841975492601
 20
-3258.849016271408
 30
0.0
 11
-2266.842564863335
 21
-3171.848426900674
 31
0.0
  0
LINE
  5
42B
330
1F
100
AcDbEntity
  8
ハッチ
  6
Continuous
 62
   120
370
     5
100
AcDbLine
 10
-2137.415568621404
 20
-3258.849016271404
 30
0.0
 11
-2224.416157992136
 21
-3171.848426900674
 31
0.0
  0
LINE
  5
42C
330
1F
100
AcDbEntity
  8
ハッチ
  6
Continuous
 62
   120
370
     5
100
AcDbLine
 10
-1967.709941136618
 20
-3258.849016271396
 30
0.0
 11
-2054.710530507346
 21
-3171.848426900663
 31
0.0
  0
LINE
  5
42D
330
1F
100
AcDbEntity
  8
ハッチ
  6
Continuous
 62
   120
370
     5
100
AcDbLine
 10
-1925.283534265432
 20
-3258.849016271396
 30
0.0
 11
-2012.284123636156
 21
-3171.848426900663
 31
0.0
  0
LINE
  5
42E
330
1F
100
AcDbEntity
  8
ハッチ
  6
Continuous
 62
   120
370
     5
100
AcDbLine
 10
-1882.857127394242
 20
-3258.849016271396
 30
0.0
 11
-1969.857716764966
 21
-3171.848426900663
 31
0.0
  0
LINE
  5
42F
330
1F
100
AcDbEntity
  8
ハッチ
  6
Continuous
 62
   120
370
     5
100
AcDbLine
 10
-2391.974009848549
 20
-3258.849016271408
 30
0.0
 11
-2478.974599219284
 21
-3171.848426900669
 31
0.0
  0
LINE
  5
430
330
1F
100
AcDbEntity
  8
ハッチ
  6
Continuous
 62
   120
370
     5
100
AcDbLine
 10
-2434.400416719746
 20
-3258.849016271408
 30
0.0
 11
-2521.401006090481
 21
-3171.848426900669
 31
0.0
  0
LINE
  5
431
330
1F
100
AcDbEntity
  8
ハッチ
  6
Continuous
 62
   120
370
     5
100
AcDbLine
 10
-2476.826823590943
 20
-3258.849016271408
 30
0.0
 11
-2563.827412961677
 21
-3171.848426900669
 31
0.0
  0
LINE
  5
432
330
1F
100
AcDbEntity
  8
ハッチ
  6
Continuous
 62
   120
370
     5
100
AcDbLine
 10
-2519.25323046214
 20
-3258.849016271408
 30
0.0
 11
-2606.253819832877
 21
-3171.848426900669
 31
0.0
  0
LINE
  5
433
330
1F
100
AcDbEntity
  8
ハッチ
  6
Continuous
 62
   120
370
     5
100
AcDbLine
 10
-2604.106044204536
 20
-3258.849016271408
 30
0.0
 11
-2626.38061058591
 21
-3236.574449890033
 31
0.0
  0
LINE
  5
434
330
1F
100
AcDbEntity
  8
ハッチ
  6
Continuous
 62
   120
370
     5
100
AcDbLine
 10
-2561.679637333339
 20
-3258.849016271408
 30
0.0
 11
-2626.38061058591
 21
-3194.148043018833
 31
0.0
  0
LINE
  5
435
330
1F
100
AcDbEntity
  8
ハッチ
  6
Continuous
 62
   120
370
     5
100
AcDbLine
 10
-1852.380610585909
 20
-3204.472719337346
 30
0.0
 11
-1885.004903022586
 21
-3171.848426900663
 31
0.0
  0
LINE
  5
436
330
1F
100
AcDbEntity
  8
ハッチ
  6
Continuous
 62
   120
370
     5
100
AcDbLine
 10
-1852.380610585909
 20
-3246.899126208537
 30
0.0
 11
-1927.431309893776
 21
-3171.848426900663
 31
0.0
  0
LINE
  5
437
330
1F
100
AcDbEntity
  8
ハッチ
  6
Continuous
 62
   120
370
     5
100
AcDbLine
 10
-2010.136348007808
 20
-3258.849016271396
 30
0.0
 11
-2097.136937378539
 21
-3171.848426900669
 31
0.0
  0
LINE
  5
438
330
1F
100
AcDbEntity
  8
ハッチ
  6
Continuous
 62
   120
370
     5
100
AcDbLine
 10
-2094.989161750204
 20
-3258.849016271403
 30
0.0
 11
-2181.989751120943
 21
-3171.848426900673
 31
0.0
  0
LINE
  5
439
330
1F
100
AcDbEntity
  8
ハッチ
  6
Continuous
 62
   120
370
     5
100
AcDbLine
 10
-2052.562754879011
 20
-3258.849016271401
 30
0.0
 11
-2139.563344249736
 21
-3171.848426900669
 31
0.0
  0
LINE
  5
43A
330
1F
100
AcDbEntity
  8
仕上げ
  6
Continuous
 62
    40
370
     5
100
AcDbLine
 10
-1849.380610585911
 20
-3258.848713271376
 30
0.0
 11
-1849.380610585911
 21
-3186.84891926503
 31
0.0
  0
MTEXT
  5
43B
330
1F
100
AcDbEntity
  8
0-A_文字
  6
Continuous
 62
     7
370
     0
100
AcDbMText
 10
-3013.898004258425
 20
-3147.23932427551
 30
0.0
 40
91.44
 41
240.0
 46
0.0
 71
     7
 72
     1
  1
{\fＭＳ ゴシック|b0|i0|c128|p49;畳寄}
 73
     1
 44
1.0
  0
LINE
  5
43C
330
1F
100
AcDbEntity
  8
0-A_文字
  6
Continuous
 62
     7
370
     5
100
AcDbLine
 10
-2783.458637091904
 20
-3072.95932427551
 30
0.0
 11
-2743.898004258425
 21
-3072.95932427551
 31
0.0
  0
LINE
  5
43D
330
1F
100
AcDbEntity
  8
0-A_文字
  6
Continuous
 62
     7
370
     5
100
AcDbLine
 10
-2684.119866580037
 20
-3215.289102499413
 30
0.0
 11
-2743.898004258425
 21
-3072.95932427551
 31
0.0
  0
LINE
  5
43E
330
1F
100
AcDbEntity
  8
仕上げ
  6
Continuous
 62
    40
370
     5
100
AcDbLine
 10
-2719.380610585914
 20
-3258.849016271396
 30
0.0
 11
-2719.380610585918
 21
-3186.84891926503
 31
0.0
  0
LINE
  5
43F
330
1F
100
AcDbEntity
  8
仕上げ
  6
Continuous
 62
    40
370
     5
100
AcDbLine
 10
-2629.380610585914
 20
-3258.849016271396
 30
0.0
 11
-2629.380610585914
 21
-3186.84891926503
 31
0.0
  0
LINE
  5
440
330
1F
100
AcDbEntity
  8
仕上げ
  6
Continuous
 62
    40
370
     5
100
AcDbLine
 10
-2629.380610585914
 20
-3186.849016271395
 30
0.0
 11
-2719.380610585914
 21
-3186.849016271395
 31
0.0
  0
LINE
  5
441
330
1F
100
AcDbEntity
  8
仕上げ
  6
Continuous
 62
    40
370
     5
100
AcDbLine
 10
-2719.380610585914
 20
-3258.849016271396
 30
0.0
 11
-2629.380610585914
 21
-3258.849016271396
 31
0.0
  0
LINE
  5
442
330
1F
100
AcDbEntity
  8
ハッチ
  6
Continuous
 62
   120
370
     5
100
AcDbLine
 10
-2648.085934386673
 20
-3258.849016271404
 30
0.0
 11
-2629.380610585911
 21
-3240.143692470641
 31
0.0
  0
LINE
  5
443
330
1F
100
AcDbEntity
  8
ハッチ
  6
Continuous
 62
   120
370
     5
100
AcDbLine
 10
-2707.482904006306
 20
-3258.849016271391
 30
0.0
 11
-2635.482904006314
 21
-3186.849016271398
 31
0.0
  0
LINE
  5
444
330
1F
100
AcDbEntity
  8
ハッチ
  6
Continuous
 62
   120
370
     5
100
AcDbLine
 10
-2719.380610585911
 20
-3211.349753231294
 30
0.0
 11
-2694.879873626006
 21
-3186.849016271388
 31
0.0
  0
LINE
  5
445
330
1F
100
AcDbEntity
  8
0-4_枠
  6
Continuous
 62
    92
370
     5
100
AcDbLine
 10
-1853.623251273027
 20
-3168.848713002964
 30
0.0
 11
-2326.980610585914
 21
-3168.848713002964
 31
0.0
  0
LINE
  5
446
330
1F
100
AcDbEntity
  8
0-4_枠
  6
Continuous
 62
    92
370
     5
100
AcDbLine
 10
-1852.380610585909
 20
-3171.848426900669
 30
0.0
 11
-2326.980610585914
 21
-3171.848426900669
 31
0.0
  0
LINE
  5
447
330
1F
100
AcDbEntity
  8
0-4_枠
  6
Continuous
 62
    92
370
     5
100
AcDbLine
 10
-2326.980610585914
 20
-3204.848713002966
 30
0.0
 11
-2326.980610585914
 21
-3168.848713002964
 31
0.0
  0
LINE
  5
448
330
1F
100
AcDbEntity
  8
0-4_枠
  6
Continuous
 62
    92
370
     5
100
AcDbLine
 10
-2626.38061058591
 20
-3171.848426900669
 30
0.0
 11
-2379.780610585914
 21
-3171.848426900669
 31
0.0
  0
LINE
  5
449
330
1F
100
AcDbEntity
  8
0-4_枠
  6
Continuous
 62
    92
370
     5
100
AcDbLine
 10
-2625.137969898789
 20
-3168.848713002964
 30
0.0
 11
-2379.780610585914
 21
-3168.848713002964
 31
0.0
  0
LINE
  5
44A
330
1F
100
AcDbEntity
  8
0-4_枠
  6
Continuous
 62
    92
370
     5
100
AcDbLine
 10
-2326.980610585914
 20
-3204.848713002966
 30
0.0
 11
-2379.780610585914
 21
-3204.848713002966
 31
0.0
  0
LINE
  5
44B
330
1F
100
AcDbEntity
  8
0-4_枠
  6
Continuous
 62
    92
370
     5
100
AcDbLine
 10
-2379.780610585914
 20
-3204.848713002966
 30
0.0
 11
-2379.780610585914
 21
-3168.848713002964
 31
0.0
  0
LINE
  5
44C
330
1F
100
AcDbEntity
  8
ハッチ
  6
Continuous
 62
   120
370
     5
100
AcDbLine
 10
-2379.780610585914
 20
-3186.189601791641
 30
0.0
 11
-2394.121785476884
 21
-3171.84842690067
 31
0.0
  0
LINE
  5
44D
330
1F
100
AcDbEntity
  8
ハッチ
  6
Continuous
 62
   120
370
     5
100
AcDbLine
 10
-2264.69478923496
 20
-3258.849016271394
 30
0.0
 11
-2326.980610585914
 21
-3196.56319492044
 31
0.0
  0
LINE
  5
44E
330
1F
100
AcDbEntity
  8
0-B_寸法
  6
Continuous
 62
   120
370
     5
100
AcDbLine
 10
-1849.380610585911
 20
-3498.848713002946
 30
0.0
 11
-2629.380610585912
 21
-3498.848713002946
 31
0.0
  0
LWPOLYLINE
  5
44F
330
1F
100
AcDbEntity
  8
0-B_寸法
  6
Continuous
 62
     7
370
     5
100
AcDbPolyline
 90
        4
 70
     1
 43
3.0
 10
-1847.880610585911
 20
-3498.848713002946
 42
0.4142135623731
 10
-1849.380610585911
 20
-3497.348713002947
 42
0.4142135623731
 10
-1850.880610585911
 20
-3498.848713002946
 42
0.4142135623731
 10
-1849.380610585911
 20
-3500.348713002946
 42
0.4142135623731
  0
LWPOLYLINE
  5
450
330
1F
100
AcDbEntity
  8
0-B_寸法
  6
Continuous
 62
     7
370
     5
100
AcDbPolyline
 90
        4
 70
     1
 43
3.0
 10
-2627.880610585912
 20
-3498.848713002946
 42
0.4142135623731
 10
-2629.380610585912
 20
-3497.348713002947
 42
0.4142135623731
 10
-2630.880610585911
 20
-3498.848713002946
 42
0.4142135623731
 10
-2629.380610585912
 20
-3500.348713002946
 42
0.4142135623731
  0
LINE
  5
451
330
1F
100
AcDbEntity
  8
0-B_寸法
  6
Continuous
 62
   120
370
     5
100
AcDbLine
 10
-1849.380610585911
 20
-3498.848713002946
 30
0.0
 11
-1849.380610585911
 21
-3318.848713002946
 31
0.0
  0
LINE
  5
452
330
1F
100
AcDbEntity
  8
0-B_寸法
  6
Continuous
 62
   120
370
     5
100
AcDbLine
 10
-2629.380610585912
 20
-3498.848713002946
 30
0.0
 11
-2629.380610585912
 21
-3318.848713002946
 31
0.0
  0
MTEXT
  5
453
330
1F
100
AcDbEntity
  8
0-B_寸法
  6
Continuous
 62
     7
370
   211
100
AcDbMText
 10
-2336.880610585911
 20
-3494.318713002946
 30
0.0
 40
99.05999999999977
 41
194.9999999999996
 46
0.0
 71
     7
 72
     1
  1
{\fＭＳ ゴシック|b0|i0|c128|p49;130}
 73
     1
 44
1.0
  0
LINE
  5
454
330
1F
100
AcDbEntity
  8
仕上げ
  6
Continuous
 62
     7
370
     5
100
AcDbLine
 10
-1849.380610585911
 20
-3249.84891926503
 30
0.0
 11
-1198.380610585914
 21
-3249.84891926503
 31
0.0
  0
LINE
  5
455
330
1F
100
AcDbEntity
  8
仕上げ
  6
Continuous
 62
     7
370
     5
100
AcDbLine
 10
-1849.380610585911
 20
-3195.848919265031
 30
0.0
 11
-1198.380610585914
 21
-3195.848919265031
 31
0.0
  0
LINE
  5
456
330
1F
100
AcDbEntity
  8
仕上げ
  6
Continuous
 62
     7
370
     5
100
AcDbLine
 10
-1849.380610585911
 20
-3204.84891926503
 30
0.0
 11
-1198.380610585914
 21
-3204.84891926503
 31
0.0
  0
LINE
  5
457
330
1F
100
AcDbEntity
  8
仕上げ
  6
Continuous
 62
     7
370
     5
100
AcDbLine
 10
-1849.380610585911
 20
-3213.848919265028
 30
0.0
 11
-1198.380610585914
 21
-3213.848919265028
 31
0.0
  0
LINE
  5
458
330
1F
100
AcDbEntity
  8
仕上げ
  6
Continuous
 62
     7
370
     5
100
AcDbLine
 10
-1849.380610585911
 20
-3222.848919265029
 30
0.0
 11
-1198.380610585914
 21
-3222.848919265029
 31
0.0
  0
LINE
  5
459
330
1F
100
AcDbEntity
  8
仕上げ
  6
Continuous
 62
     7
370
     5
100
AcDbLine
 10
-1849.380610585911
 20
-3231.84891926503
 30
0.0
 11
-1198.380610585914
 21
-3231.84891926503
 31
0.0
  0
LINE
  5
45A
330
1F
100
AcDbEntity
  8
仕上げ
  6
Continuous
 62
     7
370
     5
100
AcDbLine
 10
-1849.380610585911
 20
-3240.848919265031
 30
0.0
 11
-1198.380610585914
 21
-3240.848919265031
 31
0.0
  0
LINE
  5
45B
330
1F
100
AcDbEntity
  8
仕上げ
  6
Continuous
 62
    40
370
     5
100
AcDbLine
 10
-1849.380610585911
 20
-3186.84891926503
 30
0.0
 11
-1198.380610585914
 21
-3186.84891926503
 31
0.0
  0
LINE
  5
45C
330
1F
100
AcDbEntity
  8
仕上げ
  6
Continuous
 62
    40
370
     5
100
AcDbLine
 10
-1849.380610585911
 20
-3258.848919265031
 30
0.0
 11
-1198.380610585914
 21
-3258.848919265031
 31
0.0
  0
LINE
  5
45D
330
1F
100
AcDbEntity
  8
0-A_文字
  6
Continuous
 62
     7
370
     5
100
AcDbLine
 10
-1231.767714586328
 20
-3133.967215070359
 30
0.0
 11
-1261.767714586328
 21
-3185.928739297425
 31
0.0
  0
LINE
  5
45E
330
1F
100
AcDbEntity
  8
0-A_文字
  6
Continuous
 62
     7
370
     5
100
AcDbLine
 10
-1231.767714586328
 20
-3133.967215070359
 30
0.0
 11
-1291.767714586328
 21
-3133.967215070359
 31
0.0
  0
LINE
  5
45F
330
1F
100
AcDbEntity
  8
0-A_文字
  6
Continuous
 62
     7
370
     5
100
AcDbLine
 10
-1291.767714586328
 20
-3133.967215070359
 30
0.0
 11
-1261.767714586331
 21
-3185.928739297425
 31
0.0
  0
MTEXT
  5
460
330
1F
100
AcDbEntity
  8
F-A_文字
  6
Continuous
 62
     7
370
     0
100
AcDbMText
 10
3569.917643811961
 20
-3946.903115907308
 30
0.0
 40
76.19999999999999
 41
150.0
 46
0.0
 71
     7
 72
     1
  1
{\fＭＳ ゴシック|b0|i0|c128|p49;1/5}
 73
     1
 44
1.0
  0
MTEXT
  5
461
330
1F
100
AcDbEntity
  8
F-A_文字
  6
Continuous
 62
     7
370
     5
100
AcDbMText
 10
5096.167767531872
 20
-4147.857012699985
 30
0.0
 40
74.295
 41
97.5
 46
0.0
 71
     7
 72
     1
  1
{\fＭＳ ゴシック|b0|i0|c128|p49;01}
 73
     1
 44
1.0
  0
LINE
  5
462
330
1F
100
AcDbEntity
  8
1-7_金物
  6
Continuous
 62
     7
370
     5
100
AcDbLine
 10
1576.054110065452
 20
-2985.57116815295
 30
0.0
 11
1567.910610065457
 21
-2985.57116815295
 31
0.0
  0
LINE
  5
463
330
1F
100
AcDbEntity
  8
1-7_金物
  6
Continuous
 62
     7
370
     5
100
AcDbLine
 10
1576.054110065452
 20
-3000.57116815295
 30
0.0
 11
1576.054110065452
 21
-2985.57116815295
 31
0.0
  0
LINE
  5
464
330
1F
100
AcDbEntity
  8
1-7_金物
  6
Continuous
 62
     7
370
     5
100
AcDbLine
 10
1484.554110065454
 20
-3048.569668152948
 30
0.0
 11
1484.554110065454
 21
-3011.071168152949
 31
0.0
  0
LINE
  5
465
330
1F
100
AcDbEntity
  8
1-7_金物
  6
Continuous
 62
     7
370
     5
100
AcDbLine
 10
1532.554110065454
 20
-3048.569668152948
 30
0.0
 11
1532.554110065454
 21
-3011.071168152949
 31
0.0
  0
LINE
  5
466
330
1F
100
AcDbEntity
  8
1-7_金物
  6
Continuous
 62
     7
370
     5
100
AcDbLine
 10
1474.054110065453
 20
-3075.569668152948
 30
0.0
 11
1543.054110065458
 21
-3075.569668152948
 31
0.0
  0
LINE
  5
467
330
1F
100
AcDbEntity
  8
1-7_金物
  6
Continuous
 62
     7
370
     5
100
AcDbLine
 10
1508.554110065456
 20
-3057.569668152953
 30
0.0
 11
1504.054110065453
 21
-3053.069668152948
 31
0.0
  0
LINE
  5
468
330
1F
100
AcDbEntity
  8
1-7_金物
  6
Continuous
 62
     7
370
     5
100
AcDbLine
 10
1565.554110065452
 20
-3075.569668152948
 30
0.0
 11
1572.842610065454
 21
-3057.175168152946
 31
0.0
  0
LINE
  5
469
330
1F
100
AcDbEntity
  8
1-7_金物
  6
Continuous
 62
     7
370
     5
100
AcDbLine
 10
1549.054110065453
 20
-3075.569668152948
 30
0.0
 11
1565.554110065452
 21
-3075.569668152948
 31
0.0
  0
LINE
  5
46A
330
1F
100
AcDbEntity
  8
1-7_金物
  6
Continuous
 62
     7
370
     5
100
AcDbLine
 10
1546.054110065456
 20
-3072.569668152951
 30
0.0
 11
1543.054110065458
 21
-3075.569668152948
 31
0.0
  0
LINE
  5
46B
330
1F
100
AcDbEntity
  8
1-7_金物
  6
Continuous
 62
     7
370
     5
100
AcDbLine
 10
1549.054110065453
 20
-3075.569668152948
 30
0.0
 11
1546.054110065456
 21
-3072.569668152951
 31
0.0
  0
LINE
  5
46C
330
1F
100
AcDbEntity
  8
1-7_金物
  6
Continuous
 62
     7
370
     5
100
AcDbLine
 10
1561.054110065452
 20
-3053.069668152948
 30
0.0
 11
1561.054110065452
 21
-3034.11116815295
 31
0.0
  0
LINE
  5
46D
330
1F
100
AcDbEntity
  8
1-7_金物
  6
Continuous
 62
     7
370
     5
100
AcDbLine
 10
1561.054110065452
 20
-3053.069668152948
 30
0.0
 11
1570.054110065454
 21
-3053.069668152948
 31
0.0
  0
LINE
  5
46E
330
1F
100
AcDbEntity
  8
1-7_金物
  6
Continuous
 62
     7
370
     5
100
AcDbLine
 10
1528.054110065452
 20
-3053.069668152948
 30
0.0
 11
1513.054110065455
 21
-3053.069668152948
 31
0.0
  0
LINE
  5
46F
330
1F
100
AcDbEntity
  8
1-7_金物
  6
Continuous
 62
     7
370
     5
100
AcDbLine
 10
1513.054110065455
 20
-3053.069668152948
 30
0.0
 11
1508.554110065456
 21
-3057.569668152953
 31
0.0
  0
LINE
  5
470
330
1F
100
AcDbEntity
  8
1-7_金物
  6
Continuous
 62
     7
370
     5
100
AcDbLine
 10
1451.554110065453
 20
-3075.569668152948
 30
0.0
 11
1444.265610065458
 21
-3057.175168152946
 31
0.0
  0
LINE
  5
471
330
1F
100
AcDbEntity
  8
1-7_金物
  6
Continuous
 62
     7
370
     5
100
AcDbLine
 10
1471.054110065456
 20
-3072.569668152951
 30
0.0
 11
1474.054110065453
 21
-3075.569668152948
 31
0.0
  0
LINE
  5
472
330
1F
100
AcDbEntity
  8
1-7_金物
  6
Continuous
 62
     7
370
     5
100
AcDbLine
 10
1468.054110065458
 20
-3075.569668152948
 30
0.0
 11
1451.554110065453
 21
-3075.569668152948
 31
0.0
  0
LINE
  5
473
330
1F
100
AcDbEntity
  8
1-7_金物
  6
Continuous
 62
     7
370
     5
100
AcDbLine
 10
1468.054110065458
 20
-3075.569668152948
 30
0.0
 11
1471.054110065456
 21
-3072.569668152951
 31
0.0
  0
LINE
  5
474
330
1F
100
AcDbEntity
  8
1-7_金物
  6
Continuous
 62
     7
370
     5
100
AcDbLine
 10
1504.054110065453
 20
-3053.069668152948
 30
0.0
 11
1489.054110065453
 21
-3053.069668152948
 31
0.0
  0
LINE
  5
475
330
1F
100
AcDbEntity
  8
1-7_金物
  6
Continuous
 62
     7
370
     5
100
AcDbLine
 10
1456.054110065449
 20
-3053.069668152948
 30
0.0
 11
1456.054110065449
 21
-3034.11116815295
 31
0.0
  0
LINE
  5
476
330
1F
100
AcDbEntity
  8
1-7_金物
  6
Continuous
 62
     7
370
     5
100
AcDbLine
 10
1456.054110065449
 20
-3053.069668152948
 30
0.0
 11
1447.054110065454
 21
-3053.069668152948
 31
0.0
  0
LINE
  5
477
330
1F
100
AcDbEntity
  8
1-7_金物
  6
Continuous
 62
     7
370
     5
100
AcDbLine
 10
1543.622610065456
 20
-3006.75266815295
 30
0.0
 11
1562.606610065451
 21
-2987.767168152948
 31
0.0
  0
LINE
  5
478
330
1F
100
AcDbEntity
  8
1-7_金物
  6
Continuous
 62
     7
370
     5
100
AcDbLine
 10
1540.439610065453
 20
-3008.071168152946
 30
0.0
 11
1535.554110065455
 21
-3008.071168152946
 31
0.0
  0
LINE
  5
479
330
1F
100
AcDbEntity
  8
1-7_金物
  6
Continuous
 62
     7
370
     5
100
AcDbLine
 10
1473.487110065452
 20
-3006.75266815295
 30
0.0
 11
1454.501610065457
 21
-2987.767168152948
 31
0.0
  0
LINE
  5
47A
330
1F
100
AcDbEntity
  8
1-7_金物
  6
Continuous
 62
     7
370
     5
100
AcDbLine
 10
1476.668610065455
 20
-3008.071168152946
 30
0.0
 11
1481.554110065453
 21
-3008.071168152946
 31
0.0
  0
LINE
  5
47B
330
1F
100
AcDbEntity
  8
1-7_金物
  6
Continuous
 62
     7
370
     5
100
AcDbLine
 10
1441.054110065456
 20
-3000.57116815295
 30
0.0
 11
1441.054110065456
 21
-2985.57116815295
 31
0.0
  0
LINE
  5
47C
330
1F
100
AcDbEntity
  8
1-7_金物
  6
Continuous
 62
     7
370
     5
100
AcDbLine
 10
1441.054110065456
 20
-2985.57116815295
 30
0.0
 11
1449.197610065454
 21
-2985.57116815295
 31
0.0
  0
ARC
  5
47D
330
1F
100
AcDbEntity
  8
1-7_金物
  6
Continuous
 62
     7
370
     5
100
AcDbCircle
 10
1606.054110065449
 20
-3034.11116815295
 30
0.0
 40
45.00000000000128
100
AcDbArc
 50
131.81
 51
180.0
  0
ARC
  5
47E
330
1F
100
AcDbEntity
  8
1-7_金物
  6
Continuous
 62
     7
370
     5
100
AcDbCircle
 10
1411.055610065452
 20
-3034.11116815295
 30
0.0
 40
45.00000000000128
100
AcDbArc
 50
359.9999999999999
 51
48.18999999999996
  0
ARC
  5
47F
330
1F
100
AcDbEntity
  8
1-7_金物
  6
Continuous
 62
     7
370
     5
100
AcDbCircle
 10
1570.054110065454
 20
-3056.069668152949
 30
0.0
 40
3.000000000000086
100
AcDbArc
 50
338.384
 51
89.99999999999997
  0
ARC
  5
480
330
1F
100
AcDbEntity
  8
1-7_金物
  6
Continuous
 62
     7
370
     5
100
AcDbCircle
 10
1528.054110065452
 20
-3048.569668152948
 30
0.0
 40
4.500000000000129
100
AcDbArc
 50
269.9999999999999
 51
359.9999999999999
  0
ARC
  5
481
330
1F
100
AcDbEntity
  8
1-7_金物
  6
Continuous
 62
     7
370
     5
100
AcDbCircle
 10
1489.054110065453
 20
-3048.569668152948
 30
0.0
 40
4.500000000000129
100
AcDbArc
 50
179.9999999999999
 51
270.0
  0
ARC
  5
482
330
1F
100
AcDbEntity
  8
1-7_金物
  6
Continuous
 62
     7
370
     5
100
AcDbCircle
 10
1447.054110065454
 20
-3056.069668152949
 30
0.0
 40
3.000000000000086
100
AcDbArc
 50
89.99999999999989
 51
201.6159999999999
  0
ARC
  5
483
330
1F
100
AcDbEntity
  8
1-7_金物
  6
Continuous
 62
     7
370
     5
100
AcDbCircle
 10
1540.439610065453
 20
-3003.571168152951
 30
0.0
 40
4.500000000000129
100
AcDbArc
 50
269.9999999999999
 51
315.0
  0
ARC
  5
484
330
1F
100
AcDbEntity
  8
1-7_金物
  6
Continuous
 62
     7
370
     5
100
AcDbCircle
 10
1567.910610065457
 20
-2993.071168152948
 30
0.0
 40
7.500000000000215
100
AcDbArc
 50
89.99999999999997
 51
135.0
  0
ARC
  5
485
330
1F
100
AcDbEntity
  8
1-7_金物
  6
Continuous
 62
     7
370
     5
100
AcDbCircle
 10
1535.554110065455
 20
-3011.071168152949
 30
0.0
 40
3.000000000000086
100
AcDbArc
 50
89.99999999999999
 51
180.0
  0
ARC
  5
486
330
1F
100
AcDbEntity
  8
1-7_金物
  6
Continuous
 62
     7
370
     5
100
AcDbCircle
 10
1481.554110065453
 20
-3011.071168152949
 30
0.0
 40
3.000000000000086
100
AcDbArc
 50
359.9999999999999
 51
89.99999999999997
  0
ARC
  5
487
330
1F
100
AcDbEntity
  8
1-7_金物
  6
Continuous
 62
     7
370
     5
100
AcDbCircle
 10
1476.668610065455
 20
-3003.571168152951
 30
0.0
 40
4.500000000000129
100
AcDbArc
 50
224.9999999999999
 51
269.9999999999999
  0
ARC
  5
488
330
1F
100
AcDbEntity
  8
1-7_金物
  6
Continuous
 62
     7
370
     5
100
AcDbCircle
 10
1449.197610065454
 20
-2993.071168152948
 30
0.0
 40
7.500000000000215
100
AcDbArc
 50
44.99999999999995
 51
89.99999999999996
  0
LINE
  5
489
330
1F
100
AcDbEntity
  8
0-A_文字
  6
Continuous
 62
    92
370
     5
100
AcDbLine
 10
-5659.999495325863
 20
4000.00018145587
 30
0.0
 11
-5659.999495325863
 21
3730.00018145587
 31
0.0
  0
LINE
  5
48A
330
1F
100
AcDbEntity
  8
0-4_枠
  6
Continuous
 62
    92
370
     5
100
AcDbLine
 10
1319.918584083289
 20
-1038.848713002971
 30
0.0
 11
1319.918584083289
 21
-2097.890269882559
 31
0.0
  0
LINE
  5
48B
330
1F
100
AcDbEntity
  8
0-4_枠
  6
Continuous
 62
    92
370
     5
100
AcDbLine
 10
2099.918584083289
 20
-1038.848713002971
 30
0.0
 11
2099.918584083289
 21
-2097.890269882559
 31
0.0
  0
LINE
  5
48C
330
1F
100
AcDbEntity
  8
仕上げ
  6
Continuous
 62
   120
370
     5
100
AcDbLine
 10
2099.918584083289
 20
-1239.629114935016
 30
0.0
 11
2669.918584083288
 21
-1239.629114935016
 31
0.0
  0
LINE
  5
48D
330
1F
100
AcDbEntity
  8
0-B_寸法
  6
Continuous
 62
   120
370
     5
100
AcDbLine
 10
1319.918584083289
 20
-1374.96717788393
 30
0.0
 11
1709.918584083289
 21
-1374.96717788393
 31
0.0
  0
LWPOLYLINE
  5
48E
330
1F
100
AcDbEntity
  8
0-B_寸法
  6
Continuous
 62
     7
370
     5
100
AcDbPolyline
 90
        4
 70
     1
 43
3.0
 10
1321.418584083289
 20
-1374.96717788393
 42
0.4142135623731
 10
1319.918584083289
 20
-1373.46717788393
 42
0.4142135623731
 10
1318.418584083289
 20
-1374.96717788393
 42
0.4142135623731
 10
1319.918584083289
 20
-1376.46717788393
 42
0.4142135623731
  0
LWPOLYLINE
  5
48F
330
1F
100
AcDbEntity
  8
0-B_寸法
  6
Continuous
 62
     7
370
     5
100
AcDbPolyline
 90
        4
 70
     1
 43
3.0
 10
1711.418584083289
 20
-1374.96717788393
 42
0.4142135623731
 10
1709.918584083289
 20
-1373.46717788393
 42
0.4142135623731
 10
1708.418584083289
 20
-1374.96717788393
 42
0.4142135623731
 10
1709.918584083289
 20
-1376.46717788393
 42
0.4142135623731
  0
LINE
  5
490
330
1F
100
AcDbEntity
  8
0-B_寸法
  6
Continuous
 62
   120
370
     5
100
AcDbLine
 10
1709.918584083289
 20
-1374.96717788393
 30
0.0
 11
2099.918584083289
 21
-1374.96717788393
 31
0.0
  0
LWPOLYLINE
  5
491
330
1F
100
AcDbEntity
  8
0-B_寸法
  6
Continuous
 62
     7
370
     5
100
AcDbPolyline
 90
        4
 70
     1
 43
3.0
 10
2101.418584083289
 20
-1374.96717788393
 42
0.4142135623731
 10
2099.918584083289
 20
-1373.46717788393
 42
0.4142135623731
 10
2098.418584083289
 20
-1374.96717788393
 42
0.4142135623731
 10
2099.918584083289
 20
-1376.46717788393
 42
0.4142135623731
  0
LINE
  5
492
330
1F
100
AcDbEntity
  8
0-B_寸法
  6
Continuous
 62
   120
370
     5
100
AcDbLine
 10
1319.918584083289
 20
-1563.275031295715
 30
0.0
 11
2099.918584083289
 21
-1563.275031295715
 31
0.0
  0
LWPOLYLINE
  5
493
330
1F
100
AcDbEntity
  8
0-B_寸法
  6
Continuous
 62
     7
370
     5
100
AcDbPolyline
 90
        4
 70
     1
 43
3.0
 10
1321.418584083289
 20
-1563.275031295715
 42
0.4142135623731
 10
1319.918584083289
 20
-1561.775031295715
 42
0.4142135623731
 10
1318.418584083289
 20
-1563.275031295715
 42
0.4142135623731
 10
1319.918584083289
 20
-1564.775031295715
 42
0.4142135623731
  0
LWPOLYLINE
  5
494
330
1F
100
AcDbEntity
  8
0-B_寸法
  6
Continuous
 62
     7
370
     5
100
AcDbPolyline
 90
        4
 70
     1
 43
3.0
 10
2101.418584083289
 20
-1563.275031295715
 42
0.4142135623731
 10
2099.918584083289
 20
-1561.775031295715
 42
0.4142135623731
 10
2098.418584083289
 20
-1563.275031295715
 42
0.4142135623731
 10
2099.918584083289
 20
-1564.775031295715
 42
0.4142135623731
  0
MTEXT
  5
495
330
1F
100
AcDbEntity
  8
0-B_寸法
  6
Continuous
 62
     7
370
   211
100
AcDbMText
 10
1451.168584083289
 20
-1371.38967788393
 30
0.0
 40
97.15499999999999
 41
127.5
 46
0.0
 71
     7
 72
     1
  1
{\fＭＳ ゴシック|b0|i0|c128|p49;65}
 73
     1
 44
1.0
  0
MTEXT
  5
496
330
1F
100
AcDbEntity
  8
0-B_寸法
  6
Continuous
 62
     7
370
   211
100
AcDbMText
 10
1841.168584083289
 20
-1371.38967788393
 30
0.0
 40
97.15500000000064
 41
127.5000000000009
 46
0.0
 71
     7
 72
     1
  1
{\fＭＳ ゴシック|b0|i0|c128|p49;65}
 73
     1
 44
1.0
  0
MTEXT
  5
497
330
1F
100
AcDbEntity
  8
0-B_寸法
  6
Continuous
 62
     7
370
   211
100
AcDbMText
 10
1612.418584083289
 20
-1558.745031295715
 30
0.0
 40
99.06
 41
195.0
 46
0.0
 71
     7
 72
     1
  1
{\fＭＳ ゴシック|b0|i0|c128|p49;130}
 73
     1
 44
1.0
  0
MTEXT
  5
498
330
1F
100
AcDbEntity
  8
0-A_文字
  6
Continuous
 62
    92
370
     5
100
AcDbMText
 10
-5573.749495325863
 20
3758.986262536951
 30
0.0
 40
147.9721621621622
 41
3592.5
 46
0.0
 71
     7
 72
     1
  1
{\fＭＳ ゴシック|b0|i0|c128|p49;引き分け戸　レールタイプ　固定枠155巾}
 73
     1
 44
1.0
  0
LINE
  5
499
330
1F
100
AcDbEntity
  8
0-A_文字
  6
Continuous
 62
    92
370
     5
100
AcDbLine
 10
-5659.999495325863
 20
4000.00018145587
 30
0.0
 11
-1900.0
 21
4000.00018145587
 31
0.0
  0
LINE
  5
49A
330
1F
100
AcDbEntity
  8
0-A_文字
  6
Continuous
 62
    92
370
     5
100
AcDbLine
 10
-5659.999495325863
 20
3730.00018145587
 30
0.0
 11
-1900.0
 21
3730.00018145587
 31
0.0
  0
LINE
  5
49B
330
1F
100
AcDbEntity
  8
0-A_文字
  6
Continuous
 62
    92
370
     5
100
AcDbLine
 10
-1900.0
 20
4000.00018145587
 30
0.0
 11
-1900.0
 21
3730.00018145587
 31
0.0
  0
MTEXT
  5
49C
330
1F
100
AcDbEntity
  8
F-A_文字
  6
Continuous
 62
     7
370
     0
100
AcDbMText
 10
-5080.081323642279
 20
-4045.077762165347
 30
0.0
 40
79.84434782608693
 41
3615.0
 46
0.0
 71
     7
 72
     1
  1
{\fＭＳ ゴシック|b0|i0|c128|p49;ドレタス　引き分け戸　レールタイプ　固定枠155巾　幅広敷居　枠外W3,234}
 73
     1
 44
1.0
  0
LINE
  5
49D
330
1F
100
AcDbEntity
  8
F-0_補助線
  6
JWW_HOJO
 62
     7
370
     5
100
AcDbLine
 10
1109.918584083287
 20
-3795.000003092998
 30
0.0
 11
1109.918584083287
 21
-4195.000008247994
 31
0.0
  0
LINE
  5
49E
330
1F
100
AcDbEntity
  8
F-0_補助線
  6
JWW_HOJO
 62
     7
370
     5
100
AcDbLine
 10
4889.917891251784
 20
-3795.000003092998
 30
0.0
 11
4889.917891251784
 21
-4195.000008247994
 31
0.0
  0
MTEXT
  5
49F
330
1F
100
AcDbEntity
  8
F-0_補助線
  6
Continuous
 62
     7
370
     0
100
AcDbMText
 10
1109.918584083287
 20
-3945.948259655243
 30
0.0
 40
78.105
 41
615.0
 46
0.0
 71
     7
 72
     1
  1
{\fＭＳ ゴシック|b0|i0|c128|p49;建具納まり図}
 73
     1
 44
1.0
  0
MTEXT
  5
4A0
330
1F
100
AcDbEntity
  8
F-0_補助線
  6
Continuous
 62
     7
370
     0
100
AcDbMText
 10
509.9185840832865
 20
-3945.709576962234
 30
0.0
 40
78.58125
 41
412.5
 46
0.0
 71
     7
 72
     1
  1
{\fＭＳ ゴシック|b0|i0|c128|p49;DOORETUS}
 73
     1
 44
1.0
  0
LINE
  5
4A1
330
1F
100
AcDbEntity
  8
0-1_通り芯
  6
JWW_CENTER1
 62
   120
370
     5
100
AcDbLine
 10
-2125.380610585909
 20
2495.962168973788
 30
0.0
 11
2147.299750059783
 21
2495.962168973788
 31
0.0
  0
LINE
  5
4A2
330
1F
100
AcDbEntity
  8
0-1_通り芯
  6
JWW_CENTER1
 62
   120
370
     5
100
AcDbLine
 10
-2353.380610585914
 20
-3258.848713002946
 30
0.0
 11
-2353.380610585914
 21
-642.8487127183867
 31
0.0
  0
LINE
  5
4A3
330
1F
100
AcDbEntity
  8
0-1_通り芯
  6
JWW_CENTER1
 62
   120
370
     5
100
AcDbLine
 10
-2239.380610585912
 20
-3318.848713002946
 30
0.0
 11
-2239.380610585912
 21
-210.8487130029491
 31
0.0
  0
LINE
  5
4A4
330
1F
100
AcDbEntity
  8
0-B_寸法
  6
JWW_CENTER1
 62
   120
370
     5
100
AcDbLine
 10
2591.21631289161
 20
2381.962168973789
 30
0.0
 11
-2569.552816780519
 21
2381.962168973789
 31
0.0
  0
LWPOLYLINE
  5
4A5
330
1F
100
AcDbEntity
  8
0-B_寸法
  6
Continuous
 62
     7
370
     5
100
AcDbPolyline
 90
        4
 70
     1
 43
3.0
 10
-190.3797955079258
 20
2381.962168973789
 42
0.4142135623731
 10
-191.8797955079258
 20
2383.462168973789
 42
0.4142135623731
 10
-193.3797955079258
 20
2381.962168973789
 42
0.4142135623731
 10
-191.8797955079258
 20
2380.462168973789
 42
0.4142135623731
  0
LWPOLYLINE
  5
4A6
330
1F
100
AcDbEntity
  8
0-B_寸法
  6
Continuous
 62
     7
370
     5
100
AcDbPolyline
 90
        4
 70
     1
 43
3.0
 10
-190.3797955079258
 20
2495.962168973788
 42
0.4142135623731
 10
-191.8797955079258
 20
2497.462168973788
 42
0.4142135623731
 10
-193.3797955079258
 20
2495.962168973788
 42
0.4142135623731
 10
-191.8797955079258
 20
2494.462168973788
 42
0.4142135623731
  0
LWPOLYLINE
  5
4A7
330
1F
100
AcDbEntity
  8
0-B_寸法
  6
Continuous
 62
     7
370
     5
100
AcDbPolyline
 90
        4
 70
     1
 43
3.0
 10
-2351.880610585914
 20
-1824.848839851541
 42
0.4142135623731
 10
-2353.380610585914
 20
-1823.348839851541
 42
0.4142135623731
 10
-2354.880610585914
 20
-1824.848839851541
 42
0.4142135623731
 10
-2353.380610585914
 20
-1826.348839851541
 42
0.4142135623731
  0
LWPOLYLINE
  5
4A8
330
1F
100
AcDbEntity
  8
0-B_寸法
  6
Continuous
 62
     7
370
     5
100
AcDbPolyline
 90
        4
 70
     1
 43
3.0
 10
-2237.880610585912
 20
-1824.848839851541
 42
0.4142135623731
 10
-2239.380610585912
 20
-1823.348839851541
 42
0.4142135623731
 10
-2240.880610585911
 20
-1824.848839851541
 42
0.4142135623731
 10
-2239.380610585912
 20
-1826.348839851541
 42
0.4142135623731
  0
MTEXT
  5
4A9
330
1F
100
AcDbEntity
  8
F-A_文字
  6
Continuous
 62
     7
370
     0
100
AcDbMText
 10
4889.917891251784
 20
-3945.570773120548
 30
0.0
 40
78.86699999999999
 41
517.5
 46
0.0
 71
     7
 72
     1
  1
{\fＭＳ ゴシック|b0|i0|c128|p49;2022.04.01}
 73
     1
 44
1.0
  0
MTEXT
  5
4AA
330
1F
100
AcDbEntity
  8
0-B_寸法
  6
Continuous
 62
     7
370
   211
100
AcDbMText
 10
-206.8797955079258
 20
2231.789668973788
 30
0.0
 40
97.15499999999999
 41
127.5
 46
0.0
 71
     7
 72
     1
  1
{\fＭＳ ゴシック|b0|i0|c128|p49;19}
 11
6.123031769111886E-17
 21
1.0
 31
0.0
 73
     1
 44
1.0
  0
LINE
  5
4AB
330
1F
100
AcDbEntity
  8
0-B_寸法
  6
Continuous
 62
   120
370
     5
100
AcDbLine
 10
-191.8797955079258
 20
2249.962168973789
 30
0.0
 11
-191.8797955079258
 21
2495.962168973788
 31
0.0
  0
LINE
  5
4AC
330
1F
100
AcDbEntity
  8
0-6_扉
  6
Continuous
 62
   200
370
     5
100
AcDbLine
 10
-2263.380611139267
 20
-822.8487127183862
 30
0.0
 11
-2263.380611139267
 21
-1884.848713002965
 31
0.0
  0
MTEXT
  5
4AD
330
1F
100
AcDbEntity
  8
0-B_寸法
  6
Continuous
 62
     7
370
     0
100
AcDbMText
 10
-2233.100112144922
 20
-1273.953709344067
 30
0.0
 40
91.44
 41
180.0
 46
0.0
 71
     7
 72
     1
  1
{\fＭＳ ゴシック|b0|i0|c128|p49;147}
 73
     1
 44
1.0
  0
MTEXT
  5
4AE
330
1F
100
AcDbEntity
  8
0-B_寸法
  6
Continuous
 62
     7
370
   211
100
AcDbMText
 10
-2228.130610585913
 20
-1821.27133985154
 30
0.0
 40
97.15499999999999
 41
127.5
 46
0.0
 71
     7
 72
     1
  1
{\fＭＳ ゴシック|b0|i0|c128|p49;19}
 73
     1
 44
1.0
  0
LINE
  5
4AF
330
1F
100
AcDbEntity
  8
0-B_寸法
  6
Continuous
 62
   120
370
     5
100
AcDbLine
 10
-2353.380610585914
 20
-1824.848839851541
 30
0.0
 11
-2107.380610585911
 21
-1824.848839851541
 31
0.0
  0
MTEXT
  5
4B0
330
1F
100
AcDbEntity
  8
0-B_寸法
  6
Continuous
 62
     7
370
     0
100
AcDbMText
 10
-1823.034109308095
 20
2391.682168973788
 30
0.0
 40
91.44
 41
180.0
 46
0.0
 71
     7
 72
     1
  1
{\fＭＳ ゴシック|b0|i0|c128|p49;100}
 11
6.123031769111886E-17
 21
1.0
 31
0.0
 73
     1
 44
1.0
  0
ENDSEC
  0
SECTION
  2
OBJECTS
  0
DICTIONARY
  5
C
330
0
100
AcDbDictionary
281
     1
  3
ACAD_GROUP
350
D
  3
ACAD_LAYOUT
350
1A
  3
ACAD_MATERIAL
350
3B
  3
ACAD_MLEADERSTYLE
350
4B2
  3
ACAD_MLINESTYLE
350
17
  3
ACAD_PLOTSETTINGS
350
19
  3
ACAD_PLOTSTYLENAME
350
E
  3
ACAD_TABLESTYLE
350
4B1
  3
ACAD_VISUALSTYLE
350
2A
  0
DICTIONARY
  5
D
102
{ACAD_REACTORS
330
C
102
}
330
C
100
AcDbDictionary
281
     1
  0
DICTIONARY
  5
1A
102
{ACAD_REACTORS
330
C
102
}
330
C
100
AcDbDictionary
281
     1
  3
Layout1
350
1E
  3
Layout2
350
26
  3
Model
350
22
  0
DICTIONARY
  5
3B
102
{ACAD_REACTORS
330
C
102
}
330
C
100
AcDbDictionary
281
     1
  3
ByBlock
350
3D
  3
ByLayer
350
3C
  3
Global
350
3E
  0
DICTIONARY
  5
4B2
102
{ACAD_REACTORS
330
C
102
}
330
C
100
AcDbDictionary
281
     1
  0
DICTIONARY
  5
17
102
{ACAD_REACTORS
330
C
102
}
330
C
100
AcDbDictionary
281
     1
  3
Standard
350
18
  0
DICTIONARY
  5
19
102
{ACAD_REACTORS
330
C
102
}
330
C
100
AcDbDictionary
281
     1
  0
ACDBDICTIONARYWDFLT
  5
E
102
{ACAD_REACTORS
330
C
102
}
330
C
100
AcDbDictionary
281
     1
  3
Normal
350
F
100
AcDbDictionaryWithDefault
340
F
  0
DICTIONARY
  5
4B1
102
{ACAD_REACTORS
330
C
102
}
330
C
100
AcDbDictionary
281
     1
  0
DICTIONARY
  5
2A
102
{ACAD_REACTORS
330
C
102
}
330
C
100
AcDbDictionary
281
     1
  3
2dWireframe
350
2F
  3
3D Hidden
350
31
  3
3dWireframe
350
30
  3
Basic
350
32
  3
Brighten
350
36
  3
ColorChange
350
3A
  3
Conceptual
350
34
  3
Dim
350
35
  3
Facepattern
350
39
  3
Flat
350
2B
  3
FlatWithEdges
350
2C
  3
Gouraud
350
2D
  3
GouraudWithEdges
350
2E
  3
Linepattern
350
38
  3
Realistic
350
33
  3
Thicken
350
37
  0
LAYOUT
  5
1E
102
{ACAD_REACTORS
330
1A
102
}
330
1A
100
AcDbPlotSettings
  1

  2
none_device
  4

  6

 40
0.0
 41
0.0
 42
0.0
 43
0.0
 44
0.0
 45
0.0
 46
0.0
 47
0.0
 48
0.0
 49
0.0
140
0.0
141
0.0
142
1.0
143
1.0
 70
   688
 72
     0
 73
     0
 74
     5
  7

 75
    16
 76
     0
 77
     5
 78
   300
147
1.0
148
0.0
149
0.0
100
AcDbLayout
  1
Layout1
 70
     1
 71
     1
 10
0.0
 20
0.0
 11
420.0
 21
297.0
 12
0.0
 22
0.0
 32
0.0
 14
1.000000000000000E+20
 24
1.000000000000000E+20
 34
1.000000000000000E+20
 15
-1.000000000000000E+20
 25
-1.000000000000000E+20
 35
-1.000000000000000E+20
146
0.0
 13
0.0
 23
0.0
 33
0.0
 16
1.0
 26
0.0
 36
0.0
 17
0.0
 27
1.0
 37
0.0
 76
     0
330
1B
  0
LAYOUT
  5
26
102
{ACAD_REACTORS
330
1A
102
}
330
1A
100
AcDbPlotSettings
  1

  2
none_device
  4

  6

 40
0.0
 41
0.0
 42
0.0
 43
0.0
 44
0.0
 45
0.0
 46
0.0
 47
0.0
 48
0.0
 49
0.0
140
0.0
141
0.0
142
1.0
143
1.0
 70
   688
 72
     0
 73
     0
 74
     5
  7

 75
    16
 76
     0
 77
     5
 78
   300
147
1.0
148
0.0
149
0.0
100
AcDbLayout
  1
Layout2
 70
     1
 71
     2
 10
0.0
 20
0.0
 11
0.0
 21
0.0
 12
0.0
 22
0.0
 32
0.0
 14
0.0
 24
0.0
 34
0.0
 15
0.0
 25
0.0
 35
0.0
146
0.0
 13
0.0
 23
0.0
 33
0.0
 16
1.0
 26
0.0
 36
0.0
 17
0.0
 27
1.0
 37
0.0
 76
     0
330
23
  0
LAYOUT
  5
22
102
{ACAD_REACTORS
330
1A
102
}
330
1A
100
AcDbPlotSettings
  1

  2
none_device
  4

  6

 40
0.0
 41
0.0
 42
0.0
 43
0.0
 44
0.0
 45
0.0
 46
0.0
 47
0.0
 48
0.0
 49
0.0
140
0.0
141
0.0
142
1.0
143
1.0
 70
  1712
 72
     0
 73
     0
 74
     0
  7

 75
     0
 76
     0
 77
     5
 78
   300
147
1.0
148
0.0
149
0.0
100
AcDbLayout
  1
Model
 70
     1
 71
     0
 10
-8910.0
 20
-6300.0
 11
8910.0
 21
6300.0
 12
0.0
 22
0.0
 32
0.0
 14
-8910.0
 24
-6300.0
 34
0.0
 15
8910.0
 25
6300.0
 35
0.0
146
0.0
 13
0.0
 23
0.0
 33
0.0
 16
1.0
 26
0.0
 36
0.0
 17
0.0
 27
1.0
 37
0.0
 76
     0
330
1F
331
29
  0
MATERIAL
  5
3D
102
{ACAD_REACTORS
330
3B
102
}
330
3B
100
AcDbMaterial
  1
ByBlock
 72
     1
 94
      127
  0
MATERIAL
  5
3C
102
{ACAD_REACTORS
330
3B
102
}
330
3B
100
AcDbMaterial
  1
ByLayer
 72
     1
 94
      127
  0
MATERIAL
  5
3E
102
{ACAD_REACTORS
330
3B
102
}
330
3B
100
AcDbMaterial
  1
Global
 72
     1
 94
      127
  0
MLINESTYLE
  5
18
102
{ACAD_REACTORS
330
17
102
}
330
17
100
AcDbMlineStyle
  2
Standard
 70
     0
  3

 62
   256
 51
90.0
 52
90.0
 71
     2
 49
0.5
 62
   256
  6
BYLAYER
 49
-0.5
 62
   256
  6
BYLAYER
  0
ACDBPLACEHOLDER
  5
F
102
{ACAD_REACTORS
330
E
102
}
330
E
  0
VISUALSTYLE
  5
2F
102
{ACAD_REACTORS
330
2A
102
}
330
2A
100
AcDbVisualStyle
  2
2dWireframe
 70
     4
177
     2
291
     0
 71
     0
176
     1
 72
     2
176
     1
 73
     0
176
     1
 90
        0
176
     1
 40
-0.6
176
     1
 41
-30.0
176
     1
 62
     5
 63
     7
421
 16777215
176
     1
 74
     1
176
     1
 91
        4
176
     1
 64
     7
176
     1
 65
   257
176
     1
 75
     1
176
     1
175
     1
176
     1
 42
1.0
176
     1
 92
        0
176
     1
 66
   257
176
     1
 43
1.0
176
     1
 76
     1
176
     1
 77
     6
176
     1
 78
     2
176
     1
 67
     7
176
     1
 79
     5
176
     1
170
     0
176
     1
171
     0
176
     1
290
     0
176
     1
 93
        1
176
     1
 44
0.0
176
     1
173
     0
176
     1
  0
VISUALSTYLE
  5
31
102
{ACAD_REACTORS
330
2A
102
}
330
2A
100
AcDbVisualStyle
  2
3D Hidden
 70
     6
177
     2
291
     0
 71
     1
176
     1
 72
     2
176
     1
 73
     2
176
     1
 90
        0
176
     1
 40
-0.6
176
     1
 41
-30.0
176
     1
 62
     5
 63
     7
421
 16777215
176
     1
 74
     2
176
     1
 91
        2
176
     1
 64
     7
176
     1
 65
   257
176
     1
 75
     2
176
     1
175
     1
176
     1
 42
40.0
176
     1
 92
        0
176
     1
 66
   257
176
     1
 43
1.0
176
     1
 76
     1
176
     1
 77
     6
176
     1
 78
     2
176
     1
 67
     7
176
     1
 79
     3
176
     1
170
     0
176
     1
171
     0
176
     1
290
     0
176
     1
 93
        1
176
     1
 44
0.0
176
     1
173
     0
176
     1
  0
VISUALSTYLE
  5
30
102
{ACAD_REACTORS
330
2A
102
}
330
2A
100
AcDbVisualStyle
  2
3dWireframe
 70
     5
177
     2
291
     0
 71
     0
176
     1
 72
     2
176
     1
 73
     0
176
     1
 90
        0
176
     1
 40
-0.6
176
     1
 41
-30.0
176
     1
 62
     5
 63
     7
421
 16777215
176
     1
 74
     1
176
     1
 91
        4
176
     1
 64
     7
176
     1
 65
   257
176
     1
 75
     1
176
     1
175
     1
176
     1
 42
1.0
176
     1
 92
        0
176
     1
 66
   257
176
     1
 43
1.0
176
     1
 76
     1
176
     1
 77
     6
176
     1
 78
     2
176
     1
 67
     7
176
     1
 79
     5
176
     1
170
     0
176
     1
171
     0
176
     1
290
     0
176
     1
 93
        1
176
     1
 44
0.0
176
     1
173
     0
176
     1
  0
VISUALSTYLE
  5
32
102
{ACAD_REACTORS
330
2A
102
}
330
2A
100
AcDbVisualStyle
  2
Basic
 70
     7
177
     2
291
     1
 71
     1
176
     1
 72
     0
176
     1
 73
     1
176
     1
 90
        0
176
     1
 40
-0.6
176
     1
 41
-30.0
176
     1
 62
     5
 63
     7
421
 16777215
176
     1
 74
     0
176
     1
 91
        4
176
     1
 64
     7
176
     1
 65
   257
176
     1
 75
     1
176
     1
175
     1
176
     1
 42
1.0
176
     1
 92
        8
176
     1
 66
     7
176
     1
 43
1.0
176
     1
 76
     1
176
     1
 77
     6
176
     1
 78
     2
176
     1
 67
     7
176
     1
 79
     5
176
     1
170
     0
176
     1
171
     0
176
     1
290
     0
176
     1
 93
        1
176
     1
 44
0.0
176
     1
173
     0
176
     1
  0
VISUALSTYLE
  5
36
102
{ACAD_REACTORS
330
2A
102
}
330
2A
100
AcDbVisualStyle
  2
Brighten
 70
    12
177
     2
291
     1
 71
     2
176
     1
 72
     2
176
     1
 73
     0
176
     1
 90
        0
176
     1
 40
-0.6
176
     1
 41
-30.0
176
     1
 62
     5
 63
     7
421
 16777215
176
     1
 74
     1
176
     1
 91
        4
176
     1
 64
     7
176
     1
 65
   257
176
     1
 75
     1
176
     1
175
     1
176
     1
 42
1.0
176
     1
 92
        8
176
     1
 66
     7
176
     1
 43
1.0
176
     1
 76
     1
176
     1
 77
     6
176
     1
 78
     2
176
     1
 67
     7
176
     1
 79
     5
176
     1
170
     0
176
     1
171
     0
176
     1
290
     0
176
     1
 93
        1
176
     1
 44
50.0
176
     1
173
     0
176
     1
  0
VISUALSTYLE
  5
3A
102
{ACAD_REACTORS
330
2A
102
}
330
2A
100
AcDbVisualStyle
  2
ColorChange
 70
    16
177
     2
291
     1
 71
     2
176
     1
 72
     2
176
     1
 73
     3
176
     1
 90
        0
176
     1
 40
-0.6
176
     1
 41
-30.0
176
     1
 62
     5
 63
     8
421
  8421504
176
     1
 74
     1
176
     1
 91
        4
176
     1
 64
     7
176
     1
 65
   257
176
     1
 75
     1
176
     1
175
     1
176
     1
 42
1.0
176
     1
 92
        8
176
     1
 66
     8
424
  8421504
176
     1
 43
1.0
176
     1
 76
     1
176
     1
 77
     6
176
     1
 78
     2
176
     1
 67
     7
176
     1
 79
     5
176
     1
170
     0
176
     1
171
     0
176
     1
290
     0
176
     1
 93
        1
176
     1
 44
0.0
176
     1
173
     0
176
     1
  0
VISUALSTYLE
  5
34
102
{ACAD_REACTORS
330
2A
102
}
330
2A
100
AcDbVisualStyle
  2
Conceptual
 70
     9
177
     2
291
     0
 71
     3
176
     1
 72
     2
176
     1
 73
     0
176
     1
 90
        0
176
     1
 40
-0.6
176
     1
 41
-30.0
176
     1
 62
     5
 63
     7
421
 16777215
176
     1
 74
     2
176
     1
 91
        2
176
     1
 64
     7
176
     1
 65
   257
176
     1
 75
     1
176
     1
175
     1
176
     1
 42
40.0
176
     1
 92
        8
176
     1
 66
     7
176
     1
 43
1.0
176
     1
 76
     1
176
     1
 77
     6
176
     1
 78
     2
176
     1
 67
     7
176
     1
 79
     3
176
     1
170
     0
176
     1
171
     0
176
     1
290
     0
176
     1
 93
        1
176
     1
 44
0.0
176
     1
173
     0
176
     1
  0
VISUALSTYLE
  5
35
102
{ACAD_REACTORS
330
2A
102
}
330
2A
100
AcDbVisualStyle
  2
Dim
 70
    11
177
     2
291
     1
 71
     2
176
     1
 72
     2
176
     1
 73
     0
176
     1
 90
        0
176
     1
 40
-0.6
176
     1
 41
-30.0
176
     1
 62
     5
 63
     7
421
 16777215
176
     1
 74
     1
176
     1
 91
        4
176
     1
 64
     7
176
     1
 65
   257
176
     1
 75
     1
176
     1
175
     1
176
     1
 42
1.0
176
     1
 92
        8
176
     1
 66
     7
176
     1
 43
1.0
176
     1
 76
     1
176
     1
 77
     6
176
     1
 78
     2
176
     1
 67
     7
176
     1
 79
     5
176
     1
170
     0
176
     1
171
     0
176
     1
290
     0
176
     1
 93
        1
176
     1
 44
-50.0
176
     1
173
     0
176
     1
  0
VISUALSTYLE
  5
39
102
{ACAD_REACTORS
330
2A
102
}
330
2A
100
AcDbVisualStyle
  2
Facepattern
 70
    15
177
     2
291
     1
 71
     2
176
     1
 72
     2
176
     1
 73
     0
176
     1
 90
        0
176
     1
 40
-0.6
176
     1
 41
-30.0
176
     1
 62
     5
 63
     7
421
 16777215
176
     1
 74
     1
176
     1
 91
        4
176
     1
 64
     7
176
     1
 65
   257
176
     1
 75
     1
176
     1
175
     1
176
     1
 42
1.0
176
     1
 92
        8
176
     1
 66
     7
176
     1
 43
1.0
176
     1
 76
     1
176
     1
 77
     6
176
     1
 78
     2
176
     1
 67
     7
176
     1
 79
     5
176
     1
170
     0
176
     1
171
     0
176
     1
290
     0
176
     1
 93
        1
176
     1
 44
0.0
176
     1
173
     0
176
     1
  0
VISUALSTYLE
  5
2B
102
{ACAD_REACTORS
330
2A
102
}
330
2A
100
AcDbVisualStyle
  2
Flat
 70
     0
177
     2
291
     1
 71
     2
176
     1
 72
     1
176
     1
 73
     1
176
     1
 90
        2
176
     1
 40
-0.6
176
     1
 41
30.0
176
     1
 62
     5
 63
     7
421
 16777215
176
     1
 74
     0
176
     1
 91
        4
176
     1
 64
     7
176
     1
 65
   257
176
     1
 75
     1
176
     1
175
     1
176
     1
 42
1.0
176
     1
 92
        8
176
     1
 66
     7
176
     1
 43
1.0
176
     1
 76
     1
176
     1
 77
     6
176
     1
 78
     2
176
     1
 67
     7
176
     1
 79
     5
176
     1
170
     0
176
     1
171
     0
176
     1
290
     0
176
     1
 93
       13
176
     1
 44
0.0
176
     1
173
     0
176
     1
  0
VISUALSTYLE
  5
2C
102
{ACAD_REACTORS
330
2A
102
}
330
2A
100
AcDbVisualStyle
  2
FlatWithEdges
 70
     1
177
     2
291
     1
 71
     2
176
     1
 72
     1
176
     1
 73
     1
176
     1
 90
        2
176
     1
 40
-0.6
176
     1
 41
30.0
176
     1
 62
     5
 63
     7
421
 16777215
176
     1
 74
     1
176
     1
 91
        4
176
     1
 64
     7
176
     1
 65
   257
176
     1
 75
     1
176
     1
175
     1
176
     1
 42
1.0
176
     1
 92
        0
176
     1
 66
   257
176
     1
 43
1.0
176
     1
 76
     1
176
     1
 77
     6
176
     1
 78
     2
176
     1
 67
     7
176
     1
 79
     5
176
     1
170
     0
176
     1
171
     0
176
     1
290
     0
176
     1
 93
       13
176
     1
 44
0.0
176
     1
173
     0
176
     1
  0
VISUALSTYLE
  5
2D
102
{ACAD_REACTORS
330
2A
102
}
330
2A
100
AcDbVisualStyle
  2
Gouraud
 70
     2
177
     2
291
     1
 71
     2
176
     1
 72
     2
176
     1
 73
     1
176
     1
 90
        2
176
     1
 40
-0.6
176
     1
 41
30.0
176
     1
 62
     5
 63
     7
421
 16777215
176
     1
 74
     0
176
     1
 91
        4
176
     1
 64
     7
176
     1
 65
   257
176
     1
 75
     1
176
     1
175
     1
176
     1
 42
1.0
176
     1
 92
        0
176
     1
 66
     7
176
     1
 43
1.0
176
     1
 76
     1
176
     1
 77
     6
176
     1
 78
     2
176
     1
 67
     7
176
     1
 79
     5
176
     1
170
     0
176
     1
171
     0
176
     1
290
     0
176
     1
 93
       13
176
     1
 44
0.0
176
     1
173
     0
176
     1
  0
VISUALSTYLE
  5
2E
102
{ACAD_REACTORS
330
2A
102
}
330
2A
100
AcDbVisualStyle
  2
GouraudWithEdges
 70
     3
177
     2
291
     1
 71
     2
176
     1
 72
     2
176
     1
 73
     1
176
     1
 90
        2
176
     1
 40
-0.6
176
     1
 41
30.0
176
     1
 62
     5
 63
     7
421
 16777215
176
     1
 74
     1
176
     1
 91
        4
176
     1
 64
     7
176
     1
 65
   257
176
     1
 75
     1
176
     1
175
     1
176
     1
 42
1.0
176
     1
 92
        0
176
     1
 66
   257
176
     1
 43
1.0
176
     1
 76
     1
176
     1
 77
     6
176
     1
 78
     2
176
     1
 67
     7
176
     1
 79
     5
176
     1
170
     0
176
     1
171
     0
176
     1
290
     0
176
     1
 93
       13
176
     1
 44
0.0
176
     1
173
     0
176
     1
  0
VISUALSTYLE
  5
38
102
{ACAD_REACTORS
330
2A
102
}
330
2A
100
AcDbVisualStyle
  2
Linepattern
 70
    14
177
     2
291
     1
 71
     2
176
     1
 72
     2
176
     1
 73
     0
176
     1
 90
        0
176
     1
 40
-0.6
176
     1
 41
-30.0
176
     1
 62
     5
 63
     7
421
 16777215
176
     1
 74
     1
176
     1
 91
        4
176
     1
 64
     7
176
     1
 65
   257
176
     1
 75
     7
176
     1
175
     7
176
     1
 42
1.0
176
     1
 92
        8
176
     1
 66
     7
176
     1
 43
1.0
176
     1
 76
     1
176
     1
 77
     6
176
     1
 78
     2
176
     1
 67
     7
176
     1
 79
     5
176
     1
170
     0
176
     1
171
     0
176
     1
290
     0
176
     1
 93
        1
176
     1
 44
0.0
176
     1
173
     0
176
     1
  0
VISUALSTYLE
  5
33
102
{ACAD_REACTORS
330
2A
102
}
330
2A
100
AcDbVisualStyle
  2
Realistic
 70
     8
177
     2
291
     0
 71
     2
176
     1
 72
     2
176
     1
 73
     0
176
     1
 90
        0
176
     1
 40
-0.6
176
     1
 41
-30.0
176
     1
 62
     5
 63
     7
421
 16777215
176
     1
 74
     1
176
     1
 91
        0
176
     1
 64
     7
176
     1
 65
   257
176
     1
 75
     1
176
     1
175
     1
176
     1
 42
1.0
176
     1
 92
        8
176
     1
 66
     8
424
  7895160
176
     1
 43
1.0
176
     1
 76
     1
176
     1
 77
     6
176
     1
 78
     2
176
     1
 67
     7
176
     1
 79
     5
176
     1
170
     0
176
     1
171
     0
176
     1
290
     0
176
     1
 93
       13
176
     1
 44
0.0
176
     1
173
     0
176
     1
  0
VISUALSTYLE
  5
37
102
{ACAD_REACTORS
330
2A
102
}
330
2A
100
AcDbVisualStyle
  2
Thicken
 70
    13
177
     2
291
     1
 71
     2
176
     1
 72
     2
176
     1
 73
     0
176
     1
 90
        0
176
     1
 40
-0.6
176
     1
 41
-30.0
176
     1
 62
     5
 63
     7
421
 16777215
176
     1
 74
     1
176
     1
 91
        4
176
     1
 64
     7
176
     1
 65
   257
176
     1
 75
     1
176
     1
175
     1
176
     1
 42
1.0
176
     1
 92
       12
176
     1
 66
     7
176
     1
 43
1.0
176
     1
 76
     1
176
     1
 77
     6
176
     1
 78
     2
176
     1
 67
     7
176
     1
 79
     5
176
     1
170
     0
176
     1
171
     0
176
     1
290
     0
176
     1
 93
        1
176
     1
 44
0.0
176
     1
173
     0
176
     1
  0
ENDSEC
  0
EOF
