  0
SECTION
  2
HEADER
  9
$ACADVER
  1
AC1024
  9
$ACADMAINTVER
 70
     6
  9
$DWGCODEPAGE
  3
ANSI_932
  9
$INSBASE
 10
0.0
 20
0.0
 30
0.0
  9
$EXTMIN
 10
-8910.0
 20
-6300.0
 30
0.0
  9
$EXTMAX
 10
8910.0
 20
6300.0
 30
0.0
  9
$LIMMIN
 10
-8910.0
 20
-6300.0
  9
$LIMMAX
 10
8910.0
 20
6300.0
  9
$ORTHOMODE
 70
     0
  9
$REGENMODE
 70
     1
  9
$FILLMODE
 70
     1
  9
$QTEXTMODE
 70
     0
  9
$MIRRTEXT
 70
     1
  9
$LTSCALE
 40
30.0
  9
$ATTMODE
 70
     1
  9
$TEXTSIZE
 40
2.5
  9
$TRACEWID
 40
1.0
  9
$TEXTSTYLE
  7
Standard
  9
$CLAYER
  8
0
  9
$CELTYPE
  6
ByLayer
  9
$CECOLOR
 62
   256
  9
$CELTSCALE
 40
1.0
  9
$DISPSILH
 70
     0
  9
$DIMSCALE
 40
1.0
  9
$DIMASZ
 40
2.5
  9
$DIMEXO
 40
0.625
  9
$DIMDLI
 40
3.75
  9
$DIMRND
 40
0.0
  9
$DIMDLE
 40
0.0
  9
$DIMEXE
 40
1.25
  9
$DIMTP
 40
0.0
  9
$DIMTM
 40
0.0
  9
$DIMTXT
 40
2.5
  9
$DIMCEN
 40
2.5
  9
$DIMTSZ
 40
0.0
  9
$DIMTOL
 70
     0
  9
$DIMLIM
 70
     0
  9
$DIMTIH
 70
     0
  9
$DIMTOH
 70
     0
  9
$DIMSE1
 70
     0
  9
$DIMSE2
 70
     0
  9
$DIMTAD
 70
     1
  9
$DIMZIN
 70
     8
  9
$DIMBLK
  1

  9
$DIMASO
 70
     1
  9
$DIMSHO
 70
     1
  9
$DIMPOST
  1

  9
$DIMAPOST
  1

  9
$DIMALT
 70
     0
  9
$DIMALTD
 70
     3
  9
$DIMALTF
 40
0.03937007874016
  9
$DIMLFAC
 40
1.0
  9
$DIMTOFL
 70
     1
  9
$DIMTVP
 40
0.0
  9
$DIMTIX
 70
     0
  9
$DIMSOXD
 70
     0
  9
$DIMSAH
 70
     0
  9
$DIMBLK1
  1

  9
$DIMBLK2
  1

  9
$DIMSTYLE
  2
ISO-25
  9
$DIMCLRD
 70
     0
  9
$DIMCLRE
 70
     0
  9
$DIMCLRT
 70
     0
  9
$DIMTFAC
 40
1.0
  9
$DIMGAP
 40
0.625
  9
$DIMJUST
 70
     0
  9
$DIMSD1
 70
     0
  9
$DIMSD2
 70
     0
  9
$DIMTOLJ
 70
     0
  9
$DIMTZIN
 70
     8
  9
$DIMALTZ
 70
     0
  9
$DIMALTTZ
 70
     0
  9
$DIMUPT
 70
     0
  9
$DIMDEC
 70
     2
  9
$DIMTDEC
 70
     2
  9
$DIMALTU
 70
     2
  9
$DIMALTTD
 70
     3
  9
$DIMTXSTY
  7
Standard
  9
$DIMAUNIT
 70
     0
  9
$DIMADEC
 70
     0
  9
$DIMALTRND
 40
0.0
  9
$DIMAZIN
 70
     0
  9
$DIMDSEP
 70
    44
  9
$DIMATFIT
 70
     3
  9
$DIMFRAC
 70
     0
  9
$DIMLDRBLK
  1

  9
$DIMLUNIT
 70
     2
  9
$DIMLWD
 70
    -2
  9
$DIMLWE
 70
    -2
  9
$DIMTMOVE
 70
     0
  9
$DIMFXL
 40
1.0
  9
$DIMFXLON
 70
     0
  9
$DIMJOGANG
 40
0.7853981633974483
  9
$DIMTFILL
 70
     0
  9
$DIMTFILLCLR
 70
     0
  9
$DIMARCSYM
 70
     0
  9
$DIMLTYPE
  6

  9
$DIMLTEX1
  6

  9
$DIMLTEX2
  6

  9
$DIMTXTDIRECTION
 70
     0
  9
$LUNITS
 70
     2
  9
$LUPREC
 70
     4
  9
$SKETCHINC
 40
1.0
  9
$FILLETRAD
 40
10.0
  9
$AUNITS
 70
     0
  9
$AUPREC
 70
     0
  9
$MENU
  1
.
  9
$ELEVATION
 40
0.0
  9
$PELEVATION
 40
0.0
  9
$THICKNESS
 40
0.0
  9
$LIMCHECK
 70
     0
  9
$CHAMFERA
 40
10.0
  9
$CHAMFERB
 40
10.0
  9
$CHAMFERC
 40
20.0
  9
$CHAMFERD
 40
0.0
  9
$SKPOLY
 70
     0
  9
$TDCREATE
 40
2459720.725040845
  9
$TDUCREATE
 40
2459720.350040845
  9
$TDUPDATE
 40
2459720.725040856
  9
$TDUUPDATE
 40
2459720.350040856
  9
$TDINDWG
 40
0.0000000116
  9
$TDUSRTIMER
 40
0.0000000116
  9
$USRTIMER
 70
     1
  9
$ANGBASE
 50
0.0
  9
$ANGDIR
 70
     0
  9
$PDMODE
 70
     0
  9
$PDSIZE
 40
0.0
  9
$PLINEWID
 40
0.0
  9
$SPLFRAME
 70
     0
  9
$SPLINETYPE
 70
     6
  9
$SPLINESEGS
 70
     8
  9
$HANDSEED
  5
5C8
  9
$SURFTAB1
 70
     6
  9
$SURFTAB2
 70
     6
  9
$SURFTYPE
 70
     6
  9
$SURFU
 70
     6
  9
$SURFV
 70
     6
  9
$UCSBASE
  2

  9
$UCSNAME
  2

  9
$UCSORG
 10
0.0
 20
0.0
 30
0.0
  9
$UCSXDIR
 10
1.0
 20
0.0
 30
0.0
  9
$UCSYDIR
 10
0.0
 20
1.0
 30
0.0
  9
$UCSORTHOREF
  2

  9
$UCSORTHOVIEW
 70
     0
  9
$UCSORGTOP
 10
0.0
 20
0.0
 30
0.0
  9
$UCSORGBOTTOM
 10
0.0
 20
0.0
 30
0.0
  9
$UCSORGLEFT
 10
0.0
 20
0.0
 30
0.0
  9
$UCSORGRIGHT
 10
0.0
 20
0.0
 30
0.0
  9
$UCSORGFRONT
 10
0.0
 20
0.0
 30
0.0
  9
$UCSORGBACK
 10
0.0
 20
0.0
 30
0.0
  9
$PUCSBASE
  2

  9
$PUCSNAME
  2

  9
$PUCSORG
 10
0.0
 20
0.0
 30
0.0
  9
$PUCSXDIR
 10
1.0
 20
0.0
 30
0.0
  9
$PUCSYDIR
 10
0.0
 20
1.0
 30
0.0
  9
$PUCSORTHOREF
  2

  9
$PUCSORTHOVIEW
 70
     0
  9
$PUCSORGTOP
 10
0.0
 20
0.0
 30
0.0
  9
$PUCSORGBOTTOM
 10
0.0
 20
0.0
 30
0.0
  9
$PUCSORGLEFT
 10
0.0
 20
0.0
 30
0.0
  9
$PUCSORGRIGHT
 10
0.0
 20
0.0
 30
0.0
  9
$PUCSORGFRONT
 10
0.0
 20
0.0
 30
0.0
  9
$PUCSORGBACK
 10
0.0
 20
0.0
 30
0.0
  9
$USERI1
 70
     0
  9
$USERI2
 70
     0
  9
$USERI3
 70
     0
  9
$USERI4
 70
     0
  9
$USERI5
 70
     0
  9
$USERR1
 40
0.0
  9
$USERR2
 40
0.0
  9
$USERR3
 40
0.0
  9
$USERR4
 40
0.0
  9
$USERR5
 40
0.0
  9
$WORLDVIEW
 70
     1
  9
$SHADEDGE
 70
     3
  9
$SHADEDIF
 70
    70
  9
$TILEMODE
 70
     1
  9
$MAXACTVP
 70
    64
  9
$PINSBASE
 10
0.0
 20
0.0
 30
0.0
  9
$PLIMCHECK
 70
     0
  9
$PEXTMIN
 10
1.000000000000000E+20
 20
1.000000000000000E+20
 30
1.000000000000000E+20
  9
$PEXTMAX
 10
-1.000000000000000E+20
 20
-1.000000000000000E+20
 30
-1.000000000000000E+20
  9
$PLIMMIN
 10
0.0
 20
0.0
  9
$PLIMMAX
 10
420.0
 20
297.0
  9
$UNITMODE
 70
     0
  9
$VISRETAIN
 70
     1
  9
$PLINEGEN
 70
     0
  9
$PSLTSCALE
 70
     1
  9
$TREEDEPTH
 70
  3020
  9
$CMLSTYLE
  2
Standard
  9
$CMLJUST
 70
     0
  9
$CMLSCALE
 40
20.0
  9
$PROXYGRAPHICS
 70
     1
  9
$MEASUREMENT
 70
     1
  9
$CELWEIGHT
370
    -1
  9
$ENDCAPS
280
     0
  9
$JOINSTYLE
280
     0
  9
$LWDISPLAY
290
     0
  9
$INSUNITS
 70
     4
  9
$HYPERLINKBASE
  1

  9
$STYLESHEET
  1

  9
$XEDIT
290
     1
  9
$CEPSNTYPE
380
     0
  9
$PSTYLEMODE
290
     1
  9
$FINGERPRINTGUID
  2
{1C12B786-1E25-481A-8A5E-1FDCA104EB1B}
  9
$VERSIONGUID
  2
{FAEB1C32-E019-11D5-929B-00C0DF256EC4}
  9
$EXTNAMES
290
     1
  9
$PSVPSCALE
 40
0.0
  9
$OLESTARTUP
290
     0
  9
$SORTENTS
280
   127
  9
$INDEXCTL
280
     0
  9
$HIDETEXT
280
     1
  9
$XCLIPFRAME
280
     2
  9
$HALOGAP
280
     0
  9
$OBSCOLOR
 70
   257
  9
$OBSLTYPE
280
     0
  9
$INTERSECTIONDISPLAY
280
     0
  9
$INTERSECTIONCOLOR
 70
   257
  9
$DIMASSOC
280
     2
  9
$PROJECTNAME
  1

  9
$CAMERADISPLAY
290
     0
  9
$LENSLENGTH
 40
50.0
  9
$CAMERAHEIGHT
 40
0.0
  9
$STEPSPERSEC
 40
2.0
  9
$STEPSIZE
 40
6.0
  9
$3DDWFPREC
 40
2.0
  9
$PSOLWIDTH
 40
5.0
  9
$PSOLHEIGHT
 40
80.0
  9
$LOFTANG1
 40
1.570796326794897
  9
$LOFTANG2
 40
1.570796326794897
  9
$LOFTMAG1
 40
0.0
  9
$LOFTMAG2
 40
0.0
  9
$LOFTPARAM
 70
     7
  9
$LOFTNORMALS
280
     1
  9
$LATITUDE
 40
37.795
  9
$LONGITUDE
 40
-122.394
  9
$NORTHDIRECTION
 40
0.0
  9
$TIMEZONE
 70
 -8000
  9
$LIGHTGLYPHDISPLAY
280
     1
  9
$TILEMODELIGHTSYNCH
280
     1
  9
$SOLIDHIST
280
     1
  9
$SHOWHIST
280
     1
  9
$DWFFRAME
280
     2
  9
$DGNFRAME
280
     2
  9
$REALWORLDSCALE
290
     1
  9
$INTERFERECOLOR
 62
   256
  9
$CSHADOW
280
     0
  9
$SHADOWPLANELOCATION
 40
0.0
  0
ENDSEC
  0
SECTION
  2
CLASSES
  0
CLASS
  1
ACDBDICTIONARYWDFLT
  2
AcDbDictionaryWithDefault
  3
ObjectDBX Classes
 90
        0
 91
        4
280
     0
281
     0
  0
CLASS
  1
VISUALSTYLE
  2
AcDbVisualStyle
  3
ObjectDBX Classes
 90
     4095
 91
        4
280
     0
281
     0
  0
CLASS
  1
MATERIAL
  2
AcDbMaterial
  3
ObjectDBX Classes
 90
     1153
 91
        4
280
     0
281
     0
  0
ENDSEC
  0
SECTION
  2
TABLES
  0
TABLE
  2
VPORT
  5
8
330
0
100
AcDbSymbolTable
 70
     1
  0
VPORT
  5
29
330
8
100
AcDbSymbolTableRecord
100
AcDbViewportTableRecord
  2
*Active
 70
     0
 10
0.0
 20
0.0
 11
1.0
 21
1.0
 12
0.0
 22
0.0
 13
0.0
 23
0.0
 14
10.0
 24
10.0
 15
10.0
 25
10.0
 16
0.0
 26
0.0
 36
1.0
 17
0.0
 27
0.0
 37
0.0
 40
13860.0
 41
1.414285714285714
 42
50.0
 43
0.0
 44
0.0
 50
0.0
 51
0.0
 71
     0
 72
 10000
 73
     1
 74
     3
 75
     0
 76
     0
 77
     0
 78
     0
281
     0
 65
     1
110
0.0
120
0.0
130
0.0
111
1.0
121
0.0
131
0.0
112
0.0
122
1.0
132
0.0
 79
     0
146
0.0
 60
     3
 61
     5
292
     1
282
     1
141
0.0
142
0.0
 63
   250
  0
ENDTAB
  0
TABLE
  2
LTYPE
  5
5
330
0
100
AcDbSymbolTable
 70
     5
  0
LTYPE
  5
14
330
5
100
AcDbSymbolTableRecord
100
AcDbLinetypeTableRecord
  2
ByBlock
 70
     0
  3

 72
    65
 73
     0
 40
0.0
  0
LTYPE
  5
15
330
5
100
AcDbSymbolTableRecord
100
AcDbLinetypeTableRecord
  2
ByLayer
 70
     0
  3

 72
    65
 73
     0
 40
0.0
  0
LTYPE
  5
16
330
5
100
AcDbSymbolTableRecord
100
AcDbLinetypeTableRecord
  2
Continuous
 70
     0
  3
Solid line
 72
    65
 73
     0
 40
0.0
  0
LTYPE
  5
3F
330
5
100
AcDbSymbolTableRecord
100
AcDbLinetypeTableRecord
  2
JWW_HOJO
 70
     0
  3
  -   -   -   -   -   -   -   - 
 72
    65
 73
     2
 40
1.693333333333333
 49
-1.27
 74
     0
 49
0.4233333333333333
 74
     0
  0
LTYPE
  5
40
330
5
100
AcDbSymbolTableRecord
100
AcDbLinetypeTableRecord
  2
JWW_CENTER1
 70
     0
  3
-----  --  ----------  --  -----
 72
    65
 73
     4
 40
6.773333333333333
 49
4.233333333333333
 74
     0
 49
-0.8466666666666667
 74
     0
 49
0.8466666666666667
 74
     0
 49
-0.8466666666666667
 74
     0
  0
LTYPE
  5
41
330
5
100
AcDbSymbolTableRecord
100
AcDbLinetypeTableRecord
  2
JWW_DASHED1
 70
     0
  3
-  --  --  --  --  --  --  --  -
 72
    65
 73
     2
 40
1.693333333333333
 49
0.8466666666666667
 74
     0
 49
-0.8466666666666667
 74
     0
  0
LTYPE
  5
42
330
5
100
AcDbSymbolTableRecord
100
AcDbLinetypeTableRecord
  2
JWW_DASHED2
 70
     0
  3
--    ----    ----    ----    --
 72
    65
 73
     2
 40
3.386666666666667
 49
1.693333333333333
 74
     0
 49
-1.693333333333333
 74
     0
  0
ENDTAB
  0
TABLE
  2
LAYER
  5
2
330
0
100
AcDbSymbolTable
 70
    21
  0
LAYER
  5
10
330
2
100
AcDbSymbolTableRecord
100
AcDbLayerTableRecord
  2
0
 70
     0
 62
     7
  6
Continuous
370
    -3
390
F
347
3E
  0
LAYER
  5
43
330
2
100
AcDbSymbolTableRecord
100
AcDbLayerTableRecord
  2
F-0_補助線
 70
     0
 62
     7
  6
Continuous
370
    -3
390
F
347
3E
  0
LAYER
  5
44
330
2
100
AcDbSymbolTableRecord
100
AcDbLayerTableRecord
  2
F-1_枠
 70
     0
 62
     7
  6
Continuous
370
    -3
390
F
347
3E
  0
LAYER
  5
45
330
2
100
AcDbSymbolTableRecord
100
AcDbLayerTableRecord
  2
F-A_文字
 70
     0
 62
     7
  6
Continuous
370
    -3
390
F
347
3E
  0
LAYER
  5
46
330
2
100
AcDbSymbolTableRecord
100
AcDbLayerTableRecord
  2
0-A_文字
 70
     0
 62
     7
  6
Continuous
370
    -3
390
F
347
3E
  0
LAYER
  5
47
330
2
100
AcDbSymbolTableRecord
100
AcDbLayerTableRecord
  2
0-1_通り芯
 70
     0
 62
     7
  6
Continuous
370
    -3
390
F
347
3E
  0
LAYER
  5
48
330
2
100
AcDbSymbolTableRecord
100
AcDbLayerTableRecord
  2
0-0_補助線
 70
     0
 62
     7
  6
Continuous
370
    -3
390
F
347
3E
  0
LAYER
  5
49
330
2
100
AcDbSymbolTableRecord
100
AcDbLayerTableRecord
  2
0-4_枠
 70
     0
 62
     7
  6
Continuous
370
    -3
390
F
347
3E
  0
LAYER
  5
4A
330
2
100
AcDbSymbolTableRecord
100
AcDbLayerTableRecord
  2
0-B_寸法
 70
     0
 62
     7
  6
Continuous
370
    -3
390
F
347
3E
  0
LAYER
  5
4B
330
2
100
AcDbSymbolTableRecord
100
AcDbLayerTableRecord
  2
0-2_柱
 70
     0
 62
     7
  6
Continuous
370
    -3
390
F
347
3E
  0
LAYER
  5
4C
330
2
100
AcDbSymbolTableRecord
100
AcDbLayerTableRecord
  2
ハッチ
 70
     0
 62
     7
  6
Continuous
370
    -3
390
F
347
3E
  0
LAYER
  5
4D
330
2
100
AcDbSymbolTableRecord
100
AcDbLayerTableRecord
  2
仕上げ
 70
     0
 62
     7
  6
Continuous
370
    -3
390
F
347
3E
  0
LAYER
  5
4E
330
2
100
AcDbSymbolTableRecord
100
AcDbLayerTableRecord
  2
0-7_金物
 70
     0
 62
     7
  6
Continuous
370
    -3
390
F
347
3E
  0
LAYER
  5
4F
330
2
100
AcDbSymbolTableRecord
100
AcDbLayerTableRecord
  2
0-6_扉
 70
     0
 62
     7
  6
Continuous
370
    -3
390
F
347
3E
  0
LAYER
  5
50
330
2
100
AcDbSymbolTableRecord
100
AcDbLayerTableRecord
  2
1-6_扉
 70
     0
 62
     7
  6
Continuous
370
    -3
390
F
347
3E
  0
LAYER
  5
51
330
2
100
AcDbSymbolTableRecord
100
AcDbLayerTableRecord
  2
1-B_ﾊｯﾁ
 70
     0
 62
     7
  6
Continuous
370
    -3
390
F
347
3E
  0
LAYER
  5
52
330
2
100
AcDbSymbolTableRecord
100
AcDbLayerTableRecord
  2
1-3_仕上
 70
     0
 62
     7
  6
Continuous
370
    -3
390
F
347
3E
  0
LAYER
  5
53
330
2
100
AcDbSymbolTableRecord
100
AcDbLayerTableRecord
  2
1-4_枠
 70
     0
 62
     7
  6
Continuous
370
    -3
390
F
347
3E
  0
LAYER
  5
54
330
2
100
AcDbSymbolTableRecord
100
AcDbLayerTableRecord
  2
1-0_補助線
 70
     0
 62
     7
  6
Continuous
370
    -3
390
F
347
3E
  0
LAYER
  5
55
330
2
100
AcDbSymbolTableRecord
100
AcDbLayerTableRecord
  2
1-A_寸法
 70
     0
 62
     7
  6
Continuous
370
    -3
390
F
347
3E
  0
LAYER
  5
56
330
2
100
AcDbSymbolTableRecord
100
AcDbLayerTableRecord
  2
1-7_金物
 70
     0
 62
     7
  6
Continuous
370
    -3
390
F
347
3E
  0
ENDTAB
  0
TABLE
  2
STYLE
  5
3
330
0
100
AcDbSymbolTable
 70
     1
  0
STYLE
  5
11
330
3
100
AcDbSymbolTableRecord
100
AcDbTextStyleTableRecord
  2
Standard
 70
     0
 40
0.0
 41
1.0
 50
0.0
 71
     0
 42
2.5
  3
txt
  4

  0
ENDTAB
  0
TABLE
  2
VIEW
  5
6
330
0
100
AcDbSymbolTable
 70
     0
  0
ENDTAB
  0
TABLE
  2
UCS
  5
7
330
0
100
AcDbSymbolTable
 70
     0
  0
ENDTAB
  0
TABLE
  2
APPID
  5
9
330
0
100
AcDbSymbolTable
 70
     1
  0
APPID
  5
12
330
9
100
AcDbSymbolTableRecord
100
AcDbRegAppTableRecord
  2
ACAD
 70
     0
  0
ENDTAB
  0
TABLE
  2
DIMSTYLE
  5
A
330
0
100
AcDbSymbolTable
 70
     1
100
AcDbDimStyleTable
  0
DIMSTYLE
105
27
330
A
100
AcDbSymbolTableRecord
100
AcDbDimStyleTableRecord
  2
ISO-25
 70
     0
 41
2.5
 42
0.625
 43
3.75
 44
1.25
 73
     0
 74
     0
 77
     1
 78
     8
140
2.5
141
2.5
143
0.03937007874016
147
0.625
171
     3
172
     1
178
     0
271
     2
272
     2
274
     3
278
    44
283
     0
284
     8
340
11
  0
ENDTAB
  0
TABLE
  2
BLOCK_RECORD
  5
1
330
0
100
AcDbSymbolTable
 70
     1
  0
BLOCK_RECORD
  5
1F
330
1
100
AcDbSymbolTableRecord
100
AcDbBlockTableRecord
  2
*Model_Space
340
22
 70
     0
280
     1
281
     0
  0
BLOCK_RECORD
  5
1B
330
1
100
AcDbSymbolTableRecord
100
AcDbBlockTableRecord
  2
*Paper_Space
340
1E
 70
     0
280
     1
281
     0
  0
BLOCK_RECORD
  5
23
330
1
100
AcDbSymbolTableRecord
100
AcDbBlockTableRecord
  2
*Paper_Space0
340
26
 70
     0
280
     1
281
     0
  0
ENDTAB
  0
ENDSEC
  0
SECTION
  2
BLOCKS
  0
BLOCK
  5
20
330
1F
100
AcDbEntity
  8
0
100
AcDbBlockBegin
  2
*Model_Space
 70
     0
 10
0.0
 20
0.0
 30
0.0
  3
*Model_Space
  1

  0
ENDBLK
  5
21
330
1F
100
AcDbEntity
  8
0
100
AcDbBlockEnd
  0
BLOCK
  5
1C
330
1B
100
AcDbEntity
 67
     1
  8
0
100
AcDbBlockBegin
  2
*Paper_Space
 70
     0
 10
0.0
 20
0.0
 30
0.0
  3
*Paper_Space
  1

  0
ENDBLK
  5
1D
330
1B
100
AcDbEntity
 67
     1
  8
0
100
AcDbBlockEnd
  0
BLOCK
  5
24
330
23
100
AcDbEntity
  8
0
100
AcDbBlockBegin
  2
*Paper_Space0
 70
     0
 10
0.0
 20
0.0
 30
0.0
  3
*Paper_Space0
  1

  0
ENDBLK
  5
25
330
23
100
AcDbEntity
  8
0
100
AcDbBlockEnd
  0
ENDSEC
  0
SECTION
  2
ENTITIES
  0
LINE
  5
57
330
1F
100
AcDbEntity
  8
F-0_補助線
  6
JWW_HOJO
 62
   120
370
     5
100
AcDbLine
 10
-6140.081333436773
 20
4424.999604096284
 30
0.0
 11
6159.917676803936
 21
4424.999604096284
 31
0.0
  0
LINE
  5
58
330
1F
100
AcDbEntity
  8
F-0_補助線
  6
JWW_HOJO
 62
   120
370
     5
100
AcDbLine
 10
-6140.081333436773
 20
-4455.0
 30
0.0
 11
-6140.081333436773
 21
4424.999604096284
 31
0.0
  0
LINE
  5
59
330
1F
100
AcDbEntity
  8
F-0_補助線
  6
JWW_HOJO
 62
   120
370
     5
100
AcDbLine
 10
6159.917676803936
 20
4424.999604096284
 30
0.0
 11
6159.917676803936
 21
-4455.0
 31
0.0
  0
LINE
  5
5A
330
1F
100
AcDbEntity
  8
F-0_補助線
  6
JWW_HOJO
 62
   120
370
     5
100
AcDbLine
 10
6159.917676803936
 20
-4455.0
 30
0.0
 11
-6140.081333436773
 21
-4455.0
 31
0.0
  0
LINE
  5
5B
330
1F
100
AcDbEntity
  8
F-0_補助線
  6
JWW_HOJO
 62
     7
370
     9
100
AcDbLine
 10
509.9185840832865
 20
-3795.000003092998
 30
0.0
 11
509.9185840832865
 21
-4195.000008247994
 31
0.0
  0
LINE
  5
5C
330
1F
100
AcDbEntity
  8
F-1_枠
  6
Continuous
 62
   200
370
    20
100
AcDbLine
 10
5859.917429364114
 20
4174.999769056166
 30
0.0
 11
5859.917429364114
 21
-4205.000164959882
 31
0.0
  0
LINE
  5
5D
330
1F
100
AcDbEntity
  8
F-1_枠
  6
Continuous
 62
   200
370
    20
100
AcDbLine
 10
-5840.081317971782
 20
4174.999769056166
 30
0.0
 11
-5840.081317971782
 21
-4205.000164959882
 31
0.0
  0
LINE
  5
5E
330
1F
100
AcDbEntity
  8
F-1_枠
  6
Continuous
 62
   200
370
    20
100
AcDbLine
 10
5859.917429364114
 20
-4205.000002577498
 30
0.0
 11
-5840.081085996952
 21
-4205.000002577498
 31
0.0
  0
LINE
  5
5F
330
1F
100
AcDbEntity
  8
F-1_枠
  6
Continuous
 62
   200
370
    20
100
AcDbLine
 10
-5830.081323642279
 20
4174.999769056166
 30
0.0
 11
-5830.081323642279
 21
-4205.000164959882
 31
0.0
  0
LINE
  5
60
330
1F
100
AcDbEntity
  8
F-1_枠
  6
Continuous
 62
   200
370
    20
100
AcDbLine
 10
-5835.081309208291
 20
4174.999769056166
 30
0.0
 11
-5835.081309208291
 21
-4205.000164959882
 31
0.0
  0
LINE
  5
61
330
1F
100
AcDbEntity
  8
F-1_枠
  6
Continuous
 62
   200
370
    20
100
AcDbLine
 10
5854.917165428304
 20
4174.999769056166
 30
0.0
 11
5854.917165428304
 21
-4205.000164959882
 31
0.0
  0
LINE
  5
62
330
1F
100
AcDbEntity
  8
F-1_枠
  6
Continuous
 62
   200
370
    20
100
AcDbLine
 10
5849.917643811961
 20
4174.999769056166
 30
0.0
 11
5849.917643811961
 21
-4205.000164959882
 31
0.0
  0
LINE
  5
63
330
1F
100
AcDbEntity
  8
F-1_枠
  6
Continuous
 62
   200
370
    20
100
AcDbLine
 10
5859.917429364114
 20
-4199.999993814004
 30
0.0
 11
-5840.081085996952
 21
-4199.999993814004
 31
0.0
  0
LINE
  5
64
330
1F
100
AcDbEntity
  8
F-1_枠
  6
Continuous
 62
   200
370
    20
100
AcDbLine
 10
5859.917429364114
 20
-4195.000008247994
 30
0.0
 11
-5840.081085996952
 21
-4195.000008247994
 31
0.0
  0
LINE
  5
65
330
1F
100
AcDbEntity
  8
F-1_枠
  6
Continuous
 62
   200
370
    20
100
AcDbLine
 10
4349.917891251784
 20
-3795.000003092998
 30
0.0
 11
4349.917891251784
 21
-4195.000008247994
 31
0.0
  0
LINE
  5
66
330
1F
100
AcDbEntity
  8
F-1_枠
  6
Continuous
 62
   200
370
    20
100
AcDbLine
 10
2849.917396372139
 20
-3795.000003092998
 30
0.0
 11
2849.917396372139
 21
-4195.000008247994
 31
0.0
  0
LINE
  5
67
330
1F
100
AcDbEntity
  8
F-1_枠
  6
Continuous
 62
   200
370
    20
100
AcDbLine
 10
9.918542843316231
 20
-3795.000003092998
 30
0.0
 11
9.918542843316231
 21
-4195.000008247994
 31
0.0
  0
LINE
  5
68
330
1F
100
AcDbEntity
  8
F-1_枠
  6
Continuous
 62
   200
370
    20
100
AcDbLine
 10
9.918542843316231
 20
-3994.999936078046
 30
0.0
 11
5849.917643811961
 21
-3995.005364289155
 31
0.0
  0
LINE
  5
69
330
1F
100
AcDbEntity
  8
F-1_枠
  6
Continuous
 62
   200
370
    20
100
AcDbLine
 10
-5840.081085996952
 20
4174.999769056166
 30
0.0
 11
5859.917429364114
 21
4174.999769056166
 31
0.0
  0
LINE
  5
6A
330
1F
100
AcDbEntity
  8
F-1_枠
  6
Continuous
 62
   200
370
    20
100
AcDbLine
 10
-5840.081085996952
 20
4164.999983504013
 30
0.0
 11
5859.917429364114
 21
4164.999983504013
 31
0.0
  0
LINE
  5
6B
330
1F
100
AcDbEntity
  8
F-1_枠
  6
Continuous
 62
   200
370
    20
100
AcDbLine
 10
-5840.081085996952
 20
4169.999505120355
 30
0.0
 11
5859.917429364114
 21
4169.999505120355
 31
0.0
  0
LINE
  5
6C
330
1F
100
AcDbEntity
  8
F-0_補助線
  6
JWW_HOJO
 62
     7
370
     9
100
AcDbLine
 10
-5830.081323642279
 20
-3994.99993607839
 30
0.0
 11
9.918542843316231
 21
-3994.99993607839
 31
0.0
  0
LINE
  5
6D
330
1F
100
AcDbEntity
  8
F-0_補助線
  6
JWW_HOJO
 62
     7
370
     9
100
AcDbLine
 10
-5830.081323642279
 20
-3904.99993607839
 30
0.0
 11
9.918542843316231
 21
-3904.99993607839
 31
0.0
  0
LINE
  5
6E
330
1F
100
AcDbEntity
  8
F-0_補助線
  6
JWW_HOJO
 62
     7
370
     9
100
AcDbLine
 10
-5830.081323642279
 20
-4084.99993607839
 30
0.0
 11
9.918542843316231
 21
-4084.99993607839
 31
0.0
  0
LINE
  5
6F
330
1F
100
AcDbEntity
  8
F-0_補助線
  6
JWW_HOJO
 62
     7
370
     9
100
AcDbLine
 10
9.918408067688347
 20
-4139.999739777983
 30
0.0
 11
5849.917509036332
 21
-4140.005167989091
 31
0.0
  0
LINE
  5
70
330
1F
100
AcDbEntity
  8
F-0_補助線
  6
JWW_HOJO
 62
     7
370
     9
100
AcDbLine
 10
9.918491721639953
 20
-4049.999739778022
 30
0.0
 11
5849.917592690284
 21
-4050.005167989131
 31
0.0
  0
LINE
  5
71
330
1F
100
AcDbEntity
  8
F-0_補助線
  6
JWW_HOJO
 62
     7
370
     9
100
AcDbLine
 10
9.918593965360003
 20
-3939.99973721807
 30
0.0
 11
5849.917694934004
 21
-3940.005165429179
 31
0.0
  0
LINE
  5
72
330
1F
100
AcDbEntity
  8
F-0_補助線
  6
JWW_HOJO
 62
     7
370
     9
100
AcDbLine
 10
9.918677619311609
 20
-3849.999737218109
 30
0.0
 11
5849.917778587956
 21
-3850.005165429218
 31
0.0
  0
LINE
  5
73
330
1F
100
AcDbEntity
  8
F-0_補助線
  6
JWW_HOJO
 62
     7
370
     9
100
AcDbLine
 10
2939.917396372139
 20
-3795.000003092998
 30
0.0
 11
2939.917396372139
 21
-4195.000008247994
 31
0.0
  0
LINE
  5
74
330
1F
100
AcDbEntity
  8
F-0_補助線
  6
JWW_HOJO
 62
     7
370
     9
100
AcDbLine
 10
99.91854284331623
 20
-3795.000003092998
 30
0.0
 11
99.91854284331623
 21
-4195.000008247994
 31
0.0
  0
LINE
  5
75
330
1F
100
AcDbEntity
  8
F-0_補助線
  6
JWW_HOJO
 62
     7
370
     9
100
AcDbLine
 10
4439.917891251784
 20
-3795.000003092998
 30
0.0
 11
4439.917891251784
 21
-4195.000008247994
 31
0.0
  0
LINE
  5
76
330
1F
100
AcDbEntity
  8
F-1_枠
  6
Continuous
 62
   200
370
    20
100
AcDbLine
 10
5859.917429364114
 20
-3795.000003092998
 30
0.0
 11
-5840.081085996952
 21
-3795.000003092998
 31
0.0
  0
LINE
  5
77
330
1F
100
AcDbEntity
  8
F-1_枠
  6
Continuous
 62
   200
370
    20
100
AcDbLine
 10
5859.917429364114
 20
-3790.000017526987
 30
0.0
 11
-5840.081085996952
 21
-3790.000017526987
 31
0.0
  0
LINE
  5
78
330
1F
100
AcDbEntity
  8
F-0_補助線
  6
JWW_HOJO
 62
     7
370
     9
100
AcDbLine
 10
-5087.628710189611
 20
-3795.000003092999
 30
0.0
 11
-5087.628710189611
 21
-4205.000164959882
 31
0.0
  0
LINE
  5
79
330
1F
100
AcDbEntity
  8
F-0_補助線
  6
JWW_HOJO
 62
     7
370
     9
100
AcDbLine
 10
-50.08145715668377
 20
-3795.000003092998
 30
0.0
 11
-50.08145715668377
 21
-4195.000008247994
 31
0.0
  0
MTEXT
  5
7A
330
1F
100
AcDbEntity
  8
F-A_文字
  6
Continuous
 62
     7
370
     0
100
AcDbMText
 10
99.91854284331623
 20
-3887.139820871936
 30
0.0
 40
45.72
 41
180.0
 46
0.0
 71
     7
 72
     1
  1
{\fＭＳ ゴシック|b0|i0|c128|p49;図面名}
 73
     1
 44
1.0
  0
MTEXT
  5
7B
330
1F
100
AcDbEntity
  8
F-A_文字
  6
Continuous
 62
     7
370
     0
100
AcDbMText
 10
2939.917396372139
 20
-3887.142460617774
 30
0.0
 40
45.72
 41
300.0
 46
0.0
 71
     7
 72
     1
  1
{\fＭＳ ゴシック|b0|i0|c128|p49;ＳＣＡＬＥ}
 73
     1
 44
1.0
  0
MTEXT
  5
7C
330
1F
100
AcDbEntity
  8
F-A_文字
  6
Continuous
 62
     7
370
     0
100
AcDbMText
 10
4439.917891251784
 20
-3887.143854850754
 30
0.0
 40
45.72
 41
240.0
 46
0.0
 71
     7
 72
     1
  1
{\fＭＳ ゴシック|b0|i0|c128|p49;ＤＡＴＥ}
 73
     1
 44
1.0
  0
MTEXT
  5
7D
330
1F
100
AcDbEntity
  8
F-A_文字
  6
Continuous
 62
     7
370
     0
100
AcDbMText
 10
3569.917643811961
 20
-3946.903115907308
 30
0.0
 40
76.19999999999999
 41
150.0
 46
0.0
 71
     7
 72
     1
  1
{\fＭＳ ゴシック|b0|i0|c128|p49;1/5}
 73
     1
 44
1.0
  0
MTEXT
  5
7E
330
1F
100
AcDbEntity
  8
F-A_文字
  6
Continuous
 62
     7
370
     0
100
AcDbMText
 10
2939.917396372139
 20
-4087.14246317786
 30
0.0
 40
45.72
 41
240.0
 46
0.0
 71
     7
 72
     1
  1
{\fＭＳ ゴシック|b0|i0|c128|p49;ＦＩＬＥ}
 73
     1
 44
1.0
  0
MTEXT
  5
7F
330
1F
100
AcDbEntity
  8
F-A_文字
  6
Continuous
 62
     7
370
     0
100
AcDbMText
 10
4439.917891251784
 20
-4087.143857410839
 30
0.0
 40
45.72
 41
180.0
 46
0.0
 71
     7
 72
     1
  1
{\fＭＳ ゴシック|b0|i0|c128|p49;ＮＯ．}
 73
     1
 44
1.0
  0
MTEXT
  5
80
330
1F
100
AcDbEntity
  8
F-A_文字
  6
Continuous
 62
     7
370
     0
100
AcDbMText
 10
1394.917396372138
 20
-4096.140669266149
 30
0.0
 40
45.72
 41
120.0
 46
0.0
 71
     7
 72
     1
  1
{\fＭＳ ゴシック|b0|i0|c128|p49;株式}
 73
     1
 44
1.0
  0
MTEXT
  5
81
330
1F
100
AcDbEntity
  8
F-A_文字
  6
Continuous
 62
     7
370
     0
100
AcDbMText
 10
1604.917396372138
 20
-4164.281754523929
 30
0.0
 40
101.44125
 41
1065.0
 46
0.0
 71
     7
 72
     1
  1
{\fＭＳ ゴシック|b0|i0|c128|p49;ウッドワン・・・}
 73
     1
 44
1.0
  0
MTEXT
  5
82
330
1F
100
AcDbEntity
  8
F-A_文字
  6
Continuous
 62
     7
370
     0
100
AcDbMText
 10
1394.917396372138
 20
-4168.140669266187
 30
0.0
 40
45.72
 41
120.0
 46
0.0
 71
     7
 72
     1
  1
{\fＭＳ ゴシック|b0|i0|c128|p49;会社}
 73
     1
 44
1.0
  0
MTEXT
  5
83
330
1F
100
AcDbEntity
  8
F-A_文字
  6
Continuous
 62
     7
370
     0
100
AcDbMText
 10
5768.321977672939
 20
-4314.841419020919
 30
0.0
 40
68.58
 41
90.0
 46
0.0
 71
     7
 72
     1
  1
{\fＭＳ ゴシック|b0|i0|c128|p49;）}
 73
     1
 44
1.0
  0
MTEXT
  5
84
330
1F
100
AcDbEntity
  8
F-A_文字
  6
Continuous
 62
     7
370
     0
100
AcDbMText
 10
5350.114617405298
 20
-4316.235443869856
 30
0.0
 40
68.58
 41
45.0
 46
0.0
 71
     7
 72
     1
  1
{\fＭＳ ゴシック|b0|i0|c128|p49;,}
 73
     1
 44
1.0
  0
MTEXT
  5
85
330
1F
100
AcDbEntity
  8
F-A_文字
  6
Continuous
 62
     7
370
     0
100
AcDbMText
 10
5083.855928478601
 20
-4314.771967288282
 30
0.0
 40
74.295
 41
97.5
 46
0.0
 71
     7
 72
     1
  1
{\fＭＳ ゴシック|b0|i0|c128|p49;$y}
 73
     1
 44
1.0
  0
MTEXT
  5
86
330
1F
100
AcDbEntity
  8
F-A_文字
  6
Continuous
 62
     7
370
     0
100
AcDbMText
 10
5238.592649517422
 20
-4314.771967288282
 30
0.0
 40
74.295
 41
97.5
 46
0.0
 71
     7
 72
     1
  1
{\fＭＳ ゴシック|b0|i0|c128|p49;$m}
 73
     1
 44
1.0
  0
MTEXT
  5
87
330
1F
100
AcDbEntity
  8
F-A_文字
  6
Continuous
 62
     7
370
     0
100
AcDbMText
 10
5393.32938200033
 20
-4314.771967288282
 30
0.0
 40
74.295
 41
97.5
 46
0.0
 71
     7
 72
     1
  1
{\fＭＳ ゴシック|b0|i0|c128|p49;$d}
 73
     1
 44
1.0
  0
MTEXT
  5
88
330
1F
100
AcDbEntity
  8
F-A_文字
  6
Continuous
 62
     7
370
     0
100
AcDbMText
 10
5548.066114483239
 20
-4314.771967288282
 30
0.0
 40
74.295
 41
195.0
 46
0.0
 71
     7
 72
     1
  1
{\fＭＳ ゴシック|b0|i0|c128|p49;印刷}
 73
     1
 44
1.0
  0
MTEXT
  5
89
330
1F
100
AcDbEntity
  8
F-A_文字
  6
Continuous
 62
     7
370
     0
100
AcDbMText
 10
4943.952040816226
 20
-4319.023493567732
 30
0.0
 40
68.58
 41
90.0
 46
0.0
 71
     7
 72
     1
  1
{\fＭＳ ゴシック|b0|i0|c128|p49;（}
 73
     1
 44
1.0
  0
MTEXT
  5
8A
330
1F
100
AcDbEntity
  8
F-A_文字
  6
Continuous
 62
     7
370
     0
100
AcDbMText
 10
5191.195810375571
 20
-4319.023493567732
 30
0.0
 40
68.58
 41
45.0
 46
0.0
 71
     7
 72
     1
  1
{\fＭＳ ゴシック|b0|i0|c128|p49;,}
 73
     1
 44
1.0
  0
LINE
  5
8B
330
1F
100
AcDbEntity
  8
0-A_文字
  6
Continuous
 62
    92
370
    13
100
AcDbLine
 10
-5659.999495325861
 20
3730.00018145587
 30
0.0
 11
-5659.999495325861
 21
4000.00018145587
 31
0.0
  0
LINE
  5
8C
330
1F
100
AcDbEntity
  8
0-A_文字
  6
JWW_HOJO
 62
   120
370
     5
100
AcDbLine
 10
-6140.081333436773
 20
2438.999683277028
 30
0.0
 11
6159.917676803938
 21
2438.999683277028
 31
0.0
  0
LINE
  5
8D
330
1F
100
AcDbEntity
  8
0-A_文字
  6
JWW_HOJO
 62
   120
370
     5
100
AcDbLine
 10
-6140.081333436773
 20
194.9998020481414
 30
0.0
 11
6159.917676803938
 21
194.9998020481414
 31
0.0
  0
LINE
  5
8E
330
1F
100
AcDbEntity
  8
0-A_文字
  6
JWW_HOJO
 62
   120
370
     5
100
AcDbLine
 10
-5659.999495325861
 20
4424.999604096284
 30
0.0
 11
-5659.999495325861
 21
-4455.000000000002
 31
0.0
  0
LINE
  5
8F
330
1F
100
AcDbEntity
  8
0-A_文字
  6
JWW_HOJO
 62
   120
370
     5
100
AcDbLine
 10
-6140.081333436773
 20
-3159.000197951857
 30
0.0
 11
6159.917676803938
 21
-3159.000197951857
 31
0.0
  0
LINE
  5
90
330
1F
100
AcDbEntity
  8
0-A_文字
  6
JWW_HOJO
 62
   120
370
     5
100
AcDbLine
 10
-6140.081333436773
 20
3730.000181455871
 30
0.0
 11
6159.917676803938
 21
3730.000181455871
 31
0.0
  0
LINE
  5
91
330
1F
100
AcDbEntity
  8
0-A_文字
  6
JWW_HOJO
 62
   120
370
     5
100
AcDbLine
 10
-6140.081333436773
 20
4000.000181455871
 30
0.0
 11
6159.917676803938
 21
4000.000181455871
 31
0.0
  0
LINE
  5
92
330
1F
100
AcDbEntity
  8
0-A_文字
  6
JWW_HOJO
 62
   120
370
     5
100
AcDbLine
 10
9.91817168358267
 20
-4455.000000000002
 30
0.0
 11
9.91817168358267
 21
4424.999604096284
 31
0.0
  0
LINE
  5
93
330
1F
100
AcDbEntity
  8
0-A_文字
  6
JWW_HOJO
 62
   120
370
     5
100
AcDbLine
 10
5679.835838693025
 20
4424.999604096284
 30
0.0
 11
5679.835838693025
 21
-4455.000000000002
 31
0.0
  0
LINE
  5
94
330
1F
100
AcDbEntity
  8
0-A_文字
  6
JWW_HOJO
 62
   120
370
     5
100
AcDbLine
 10
-200.0818283164173
 20
-4455.000000000002
 30
0.0
 11
-200.0818283164173
 21
194.9998020481414
 31
0.0
  0
LINE
  5
95
330
1F
100
AcDbEntity
  8
0-A_文字
  6
JWW_HOJO
 62
   120
370
     5
100
AcDbLine
 10
219.9181716835827
 20
-4455.000000000002
 30
0.0
 11
219.9181716835827
 21
194.9998020481414
 31
0.0
  0
LINE
  5
96
330
1F
100
AcDbEntity
  8
0-1_通り芯
  6
JWW_CENTER1
 62
   120
370
     5
100
AcDbLine
 10
-2570.338200311359
 20
2438.999683277028
 30
0.0
 11
2590.258723166164
 21
2438.999683277028
 31
0.0
  0
LINE
  5
97
330
1F
100
AcDbEntity
  8
0-0_補助線
  6
JWW_HOJO
 62
   120
370
     5
100
AcDbLine
 10
-2569.495794194035
 20
2957.999910917028
 30
0.0
 11
2590.258723166164
 21
2957.999910917028
 31
0.0
  0
LINE
  5
98
330
1F
100
AcDbEntity
  8
0-4_枠
  6
Continuous
 62
    92
370
    13
100
AcDbLine
 10
2140.258723166164
 20
2774.999683277029
 30
0.0
 11
2083.258723166163
 21
2774.999683277029
 31
0.0
  0
LINE
  5
99
330
1F
100
AcDbEntity
  8
0-4_枠
  6
Continuous
 62
    92
370
    13
100
AcDbLine
 10
2080.258723166164
 20
2303.999683277028
 30
0.0
 11
2080.258723166164
 21
2429.999683277027
 31
0.0
  0
LINE
  5
9A
330
1F
100
AcDbEntity
  8
0-B_寸法
  6
Continuous
 62
   120
370
     5
100
AcDbLine
 10
1912.591844489549
 20
2777.999683277028
 30
0.0
 11
2025.573011120606
 21
2777.999683277028
 31
0.0
  0
LWPOLYLINE
  5
9B
330
1F
100
AcDbEntity
  8
0-B_寸法
  6
Continuous
 62
     7
370
     9
100
AcDbPolyline
 90
        4
 70
     1
 43
3.0
 10
1914.091844489549
 20
2777.999683277028
 42
0.4142135623731
 10
1912.591844489549
 20
2779.499683277028
 42
0.4142135623731
 10
1911.091844489549
 20
2777.999683277028
 42
0.4142135623731
 10
1912.591844489549
 20
2776.499683277028
 42
0.4142135623731
  0
LINE
  5
9C
330
1F
100
AcDbEntity
  8
0-B_寸法
  6
Continuous
 62
   120
370
     5
100
AcDbLine
 10
1912.591844489549
 20
2303.999683277028
 30
0.0
 11
2025.573011120606
 21
2303.999683277028
 31
0.0
  0
LWPOLYLINE
  5
9D
330
1F
100
AcDbEntity
  8
0-B_寸法
  6
Continuous
 62
     7
370
     9
100
AcDbPolyline
 90
        4
 70
     1
 43
3.0
 10
1914.091844489549
 20
2303.999683277028
 42
0.4142135623731
 10
1912.591844489549
 20
2305.499683277027
 42
0.4142135623731
 10
1911.091844489549
 20
2303.999683277028
 42
0.4142135623731
 10
1912.591844489549
 20
2302.499683277028
 42
0.4142135623731
  0
LINE
  5
9E
330
1F
100
AcDbEntity
  8
0-B_寸法
  6
Continuous
 62
   120
370
     5
100
AcDbLine
 10
1912.591844489549
 20
2303.999683277028
 30
0.0
 11
1912.591844489549
 21
2777.999683277028
 31
0.0
  0
LINE
  5
9F
330
1F
100
AcDbEntity
  8
0-2_柱
  6
Continuous
 62
     7
370
     9
100
AcDbLine
 10
2290.175285998009
 20
2123.999683277028
 30
0.0
 11
2290.175285998009
 21
2753.999683277028
 31
0.0
  0
LINE
  5
A0
330
1F
100
AcDbEntity
  8
0-2_柱
  6
Continuous
 62
     7
370
     9
100
AcDbLine
 10
2452.175285998007
 20
2123.999683277028
 30
0.0
 11
2290.175285998009
 21
2123.999683277028
 31
0.0
  0
LINE
  5
A1
330
1F
100
AcDbEntity
  8
0-2_柱
  6
Continuous
 62
     7
370
     9
100
AcDbLine
 10
2452.175285998007
 20
2753.999683277028
 30
0.0
 11
2452.175285998007
 21
2123.999683277028
 31
0.0
  0
LINE
  5
A2
330
1F
100
AcDbEntity
  8
0-2_柱
  6
Continuous
 62
     7
370
     9
100
AcDbLine
 10
2290.175285998009
 20
2753.999683277028
 30
0.0
 11
2452.175285998007
 21
2753.999683277028
 31
0.0
  0
LINE
  5
A3
330
1F
100
AcDbEntity
  8
0-4_枠
  6
Continuous
 62
    92
370
    13
100
AcDbLine
 10
2140.258723166164
 20
2717.999683277028
 30
0.0
 11
2140.258723166164
 21
2777.999683277028
 31
0.0
  0
LINE
  5
A4
330
1F
100
AcDbEntity
  8
0-4_枠
  6
Continuous
 62
    92
370
    13
100
AcDbLine
 10
2194.258723166161
 20
2717.999683277028
 30
0.0
 11
2194.258723166161
 21
2777.999683277028
 31
0.0
  0
LINE
  5
A5
330
1F
100
AcDbEntity
  8
0-4_枠
  6
Continuous
 62
    92
370
    13
100
AcDbLine
 10
2140.258723166164
 20
2717.999683277028
 30
0.0
 11
2194.258723166161
 21
2717.999683277028
 31
0.0
  0
LINE
  5
A6
330
1F
100
AcDbEntity
  8
0-4_枠
  6
Continuous
 62
    92
370
    13
100
AcDbLine
 10
2230.258723166164
 20
2735.999683277028
 30
0.0
 11
2260.258723166164
 21
2735.999683277028
 31
0.0
  0
LINE
  5
A7
330
1F
100
AcDbEntity
  8
0-4_枠
  6
Continuous
 62
    92
370
    13
100
AcDbLine
 10
2230.258723166164
 20
2735.999683277028
 30
0.0
 11
2230.258723166164
 21
2777.999683277028
 31
0.0
  0
LINE
  5
A8
330
1F
100
AcDbEntity
  8
0-4_枠
  6
Continuous
 62
    92
370
    13
100
AcDbLine
 10
2194.258723166161
 20
2777.999683277028
 30
0.0
 11
2230.258723166164
 21
2777.999683277028
 31
0.0
  0
LINE
  5
A9
330
1F
100
AcDbEntity
  8
0-4_枠
  6
Continuous
 62
    92
370
    13
100
AcDbLine
 10
2140.258723166164
 20
2777.999683277028
 30
0.0
 11
2080.258723166164
 21
2777.999683277028
 31
0.0
  0
LINE
  5
AA
330
1F
100
AcDbEntity
  8
0-4_枠
  6
Continuous
 62
    92
370
    13
100
AcDbLine
 10
2080.258723166164
 20
2777.999683277028
 30
0.0
 11
2080.258723166164
 21
2675.999683277026
 31
0.0
  0
LINE
  5
AB
330
1F
100
AcDbEntity
  8
0-4_枠
  6
Continuous
 62
    92
370
    13
100
AcDbLine
 10
2083.258723166163
 20
2774.999683277029
 30
0.0
 11
2083.258723166163
 21
2678.999683277026
 31
0.0
  0
LINE
  5
AC
330
1F
100
AcDbEntity
  8
0-4_枠
  6
Continuous
 62
    92
370
    13
100
AcDbLine
 10
2116.25872316616
 20
2675.999683277026
 30
0.0
 11
2080.258723166164
 21
2675.999683277026
 31
0.0
  0
LINE
  5
AD
330
1F
100
AcDbEntity
  8
0-4_枠
  6
Continuous
 62
    92
370
    13
100
AcDbLine
 10
2119.258723166161
 20
2678.999683277026
 30
0.0
 11
2083.258723166163
 21
2678.999683277026
 31
0.0
  0
LINE
  5
AE
330
1F
100
AcDbEntity
  8
0-4_枠
  6
Continuous
 62
    92
370
    13
100
AcDbLine
 10
2116.25872316616
 20
2675.999683277026
 30
0.0
 11
2116.25872316616
 21
2429.999683277027
 31
0.0
  0
LINE
  5
AF
330
1F
100
AcDbEntity
  8
0-4_枠
  6
Continuous
 62
    92
370
    13
100
AcDbLine
 10
2119.258723166161
 20
2678.999683277026
 30
0.0
 11
2119.258723166161
 21
2426.999683277027
 31
0.0
  0
LINE
  5
B0
330
1F
100
AcDbEntity
  8
0-4_枠
  6
Continuous
 62
    92
370
    13
100
AcDbLine
 10
2116.25872316616
 20
2429.999683277027
 30
0.0
 11
2080.258723166164
 21
2429.999683277027
 31
0.0
  0
LINE
  5
B1
330
1F
100
AcDbEntity
  8
0-4_枠
  6
Continuous
 62
    92
370
    13
100
AcDbLine
 10
2119.258723166161
 20
2426.999683277027
 30
0.0
 11
2083.258723166163
 21
2426.999683277027
 31
0.0
  0
LINE
  5
B2
330
1F
100
AcDbEntity
  8
0-4_枠
  6
Continuous
 62
    92
370
    13
100
AcDbLine
 10
2260.258723166164
 20
2303.999683277028
 30
0.0
 11
2080.258723166164
 21
2303.999683277028
 31
0.0
  0
LINE
  5
B3
330
1F
100
AcDbEntity
  8
0-4_枠
  6
Continuous
 62
    92
370
    13
100
AcDbLine
 10
2260.258723166164
 20
2735.999683277028
 30
0.0
 11
2260.258723166164
 21
2303.999683277028
 31
0.0
  0
LINE
  5
B4
330
1F
100
AcDbEntity
  8
0-4_枠
  6
Continuous
 62
    92
370
    13
100
AcDbLine
 10
2083.258723166163
 20
2303.999683277028
 30
0.0
 11
2083.258723166163
 21
2426.999683277027
 31
0.0
  0
LINE
  5
B5
330
1F
100
AcDbEntity
  8
ハッチ
  6
JWW_DASHED1
 62
   120
370
     5
100
AcDbLine
 10
2568.279066374033
 20
2753.999683277025
 30
0.0
 11
2590.17528599799
 21
2775.895902900976
 31
0.0
  0
LINE
  5
B6
330
1F
100
AcDbEntity
  8
ハッチ
  6
JWW_DASHED1
 62
   120
370
     5
100
AcDbLine
 10
2525.85265950284
 20
2753.999683277028
 30
0.0
 11
2590.175285997995
 21
2818.322309772178
 31
0.0
  0
LINE
  5
B7
330
1F
100
AcDbEntity
  8
ハッチ
  6
JWW_DASHED1
 62
   120
370
     5
100
AcDbLine
 10
2483.426252631645
 20
2753.999683277032
 30
0.0
 11
2558.42625263164
 21
2828.999683277028
 31
0.0
  0
LINE
  5
B8
330
1F
100
AcDbEntity
  8
ハッチ
  6
JWW_DASHED1
 62
   120
370
     5
100
AcDbLine
 10
2440.999845760447
 20
2753.999683277034
 30
0.0
 11
2515.999845760445
 21
2828.999683277032
 31
0.0
  0
LINE
  5
B9
330
1F
100
AcDbEntity
  8
ハッチ
  6
JWW_DASHED1
 62
   120
370
     5
100
AcDbLine
 10
2398.573438889295
 20
2753.999683277028
 30
0.0
 11
2473.573438889288
 21
2828.999683277025
 31
0.0
  0
LINE
  5
BA
330
1F
100
AcDbEntity
  8
ハッチ
  6
JWW_DASHED1
 62
   120
370
     5
100
AcDbLine
 10
2356.1470320181
 20
2753.999683277033
 30
0.0
 11
2431.147032018095
 21
2828.999683277028
 31
0.0
  0
LINE
  5
BB
330
1F
100
AcDbEntity
  8
ハッチ
  6
JWW_DASHED1
 62
   120
370
     5
100
AcDbLine
 10
2313.720625146888
 20
2753.999683277021
 30
0.0
 11
2388.7206251469
 21
2828.999683277032
 31
0.0
  0
LINE
  5
BC
330
1F
100
AcDbEntity
  8
ハッチ
  6
JWW_DASHED1
 62
   120
370
     5
100
AcDbLine
 10
2271.294218275688
 20
2753.999683277025
 30
0.0
 11
2346.294218275701
 21
2828.999683277034
 31
0.0
  0
LINE
  5
BD
330
1F
100
AcDbEntity
  8
ハッチ
  6
JWW_DASHED1
 62
   120
370
     5
100
AcDbLine
 10
2230.175285997988
 20
2755.307157870521
 30
0.0
 11
2303.867811404488
 21
2828.999683277021
 31
0.0
  0
LINE
  5
BE
330
1F
100
AcDbEntity
  8
ハッチ
  6
Continuous
 62
   120
370
     5
100
AcDbLine
 10
2235.72489669229
 20
2303.999683277028
 30
0.0
 11
2260.258723166172
 21
2328.53350975091
 31
0.0
  0
LINE
  5
BF
330
1F
100
AcDbEntity
  8
ハッチ
  6
Continuous
 62
   120
370
     5
100
AcDbLine
 10
2119.258723166161
 20
2662.709266708239
 30
0.0
 11
2174.549139734946
 21
2717.999683277026
 31
0.0
  0
LINE
  5
C0
330
1F
100
AcDbEntity
  8
ハッチ
  6
Continuous
 62
   120
370
     5
100
AcDbLine
 10
2119.258723166161
 20
2543.915327468892
 30
0.0
 11
2260.258723166164
 21
2684.915327468891
 31
0.0
  0
LINE
  5
C1
330
1F
100
AcDbEntity
  8
ハッチ
  6
Continuous
 62
   120
370
     5
100
AcDbLine
 10
2176.327927072643
 20
2303.999683277028
 30
0.0
 11
2260.258723166164
 21
2387.930479370548
 31
0.0
  0
LINE
  5
C2
330
1F
100
AcDbEntity
  8
ハッチ
  6
Continuous
 62
   120
370
     5
100
AcDbLine
 10
2083.25872316618
 20
2389.121388229617
 30
0.0
 11
2260.258723166164
 21
2566.121388229599
 31
0.0
  0
LINE
  5
C3
330
1F
100
AcDbEntity
  8
ハッチ
  6
Continuous
 62
   120
370
     5
100
AcDbLine
 10
2083.258723166165
 20
2329.724418609899
 30
0.0
 11
2260.258723166164
 21
2506.724418609897
 31
0.0
  0
LINE
  5
C4
330
1F
100
AcDbEntity
  8
ハッチ
  6
Continuous
 62
   120
370
     5
100
AcDbLine
 10
2116.930957452941
 20
2303.999683277028
 30
0.0
 11
2260.258723166164
 21
2447.327448990251
 31
0.0
  0
LINE
  5
C5
330
1F
100
AcDbEntity
  8
ハッチ
  6
Continuous
 62
   120
370
     5
100
AcDbLine
 10
2119.258723166161
 20
2484.518357849245
 30
0.0
 11
2260.258723166164
 21
2625.518357849246
 31
0.0
  0
LINE
  5
C6
330
1F
100
AcDbEntity
  8
ハッチ
  6
Continuous
 62
   120
370
     5
100
AcDbLine
 10
2119.258723166161
 20
2603.312297088592
 30
0.0
 11
2251.946109354598
 21
2735.999683277028
 31
0.0
  0
LINE
  5
C7
330
1F
100
AcDbEntity
  8
ハッチ
  6
Continuous
 62
   120
370
     5
100
AcDbLine
 10
2194.258723166161
 20
2737.709266708241
 30
0.0
 11
2230.175285997988
 21
2773.625829540067
 31
0.0
  0
LINE
  5
C8
330
1F
100
AcDbEntity
  8
ハッチ
  6
Continuous
 62
   120
370
     5
100
AcDbLine
 10
2083.25872316618
 20
2686.106236327962
 30
0.0
 11
2140.258723166164
 21
2743.106236327942
 31
0.0
  0
LINE
  5
C9
330
1F
100
AcDbEntity
  8
ハッチ
  6
Continuous
 62
   120
370
     5
100
AcDbLine
 10
2083.258723166163
 20
2745.503205947624
 30
0.0
 11
2112.755200495597
 21
2774.999683277029
 31
0.0
  0
LINE
  5
CA
330
1F
100
AcDbEntity
  8
0-2_柱
  6
Continuous
 62
     7
370
     9
100
AcDbLine
 10
2290.175285998009
 20
2123.999683277028
 30
0.0
 11
2128.175285998006
 21
2123.999683277028
 31
0.0
  0
LINE
  5
CB
330
1F
100
AcDbEntity
  8
0-2_柱
  6
Continuous
 62
     7
370
     9
100
AcDbLine
 10
2290.175285998009
 20
2123.999683277028
 30
0.0
 11
2452.175285998007
 21
2753.999683277028
 31
0.0
  0
LINE
  5
CC
330
1F
100
AcDbEntity
  8
0-2_柱
  6
Continuous
 62
     7
370
     9
100
AcDbLine
 10
2128.175285998006
 20
2123.999683277028
 30
0.0
 11
2128.175285998006
 21
2303.999683277028
 31
0.0
  0
LINE
  5
CD
330
1F
100
AcDbEntity
  8
0-2_柱
  6
Continuous
 62
     7
370
     9
100
AcDbLine
 10
2128.175285998006
 20
2303.999683277028
 30
0.0
 11
2290.175285998009
 21
2303.999683277028
 31
0.0
  0
LINE
  5
CE
330
1F
100
AcDbEntity
  8
0-2_柱
  6
Continuous
 62
     7
370
     9
100
AcDbLine
 10
2290.175285998009
 20
2303.999683277028
 30
0.0
 11
2128.175285998006
 21
2123.999683277028
 31
0.0
  0
LINE
  5
CF
330
1F
100
AcDbEntity
  8
ハッチ
  6
JWW_DASHED1
 62
   120
370
     5
100
AcDbLine
 10
2072.689163484991
 20
2303.999683277028
 30
0.0
 11
2080.258723166166
 21
2311.569242958201
 31
0.0
  0
LINE
  5
D0
330
1F
100
AcDbEntity
  8
ハッチ
  6
JWW_DASHED1
 62
   120
370
     5
100
AcDbLine
 10
2030.262756613779
 20
2303.999683277016
 30
0.0
 11
2080.258723166177
 21
2353.995649829413
 31
0.0
  0
LINE
  5
D1
330
1F
100
AcDbEntity
  8
ハッチ
  6
JWW_DASHED1
 62
   120
370
     5
100
AcDbLine
 10
1987.836349742582
 20
2303.999683277019
 30
0.0
 11
2059.836349742581
 21
2375.999683277019
 31
0.0
  0
LINE
  5
D2
330
1F
100
AcDbEntity
  8
ハッチ
  6
JWW_DASHED1
 62
   120
370
     5
100
AcDbLine
 10
1945.409942871386
 20
2303.999683277022
 30
0.0
 11
2017.409942871385
 21
2375.999683277022
 31
0.0
  0
LINE
  5
D3
330
1F
100
AcDbEntity
  8
ハッチ
  6
JWW_DASHED1
 62
   120
370
     5
100
AcDbLine
 10
1902.983536000189
 20
2303.999683277026
 30
0.0
 11
1974.983536000188
 21
2375.999683277025
 31
0.0
  0
LINE
  5
D4
330
1F
100
AcDbEntity
  8
ハッチ
  6
JWW_DASHED1
 62
   120
370
     5
100
AcDbLine
 10
1860.557129128994
 20
2303.99968327703
 30
0.0
 11
1932.557129128993
 21
2375.999683277028
 31
0.0
  0
LINE
  5
D5
330
1F
100
AcDbEntity
  8
ハッチ
  6
JWW_DASHED1
 62
   120
370
     5
100
AcDbLine
 10
1818.130722257799
 20
2303.999683277034
 30
0.0
 11
1890.130722257797
 21
2375.999683277033
 31
0.0
  0
LINE
  5
D6
330
1F
100
AcDbEntity
  8
ハッチ
  6
JWW_DASHED1
 62
   120
370
     5
100
AcDbLine
 10
1775.704315386647
 20
2303.99968327703
 30
0.0
 11
1847.704315386629
 21
2375.999683277011
 31
0.0
  0
LINE
  5
D7
330
1F
100
AcDbEntity
  8
ハッチ
  6
JWW_DASHED1
 62
   120
370
     5
100
AcDbLine
 10
1733.277908515435
 20
2303.999683277018
 30
0.0
 11
1805.277908515433
 21
2375.999683277017
 31
0.0
  0
LINE
  5
D8
330
1F
100
AcDbEntity
  8
0-4_枠
  6
Continuous
 62
    92
370
    13
100
AcDbLine
 10
-2120.421637479531
 20
2774.999683277029
 30
0.0
 11
-2063.421637479532
 21
2774.999683277029
 31
0.0
  0
LINE
  5
D9
330
1F
100
AcDbEntity
  8
0-4_枠
  6
Continuous
 62
    92
370
    13
100
AcDbLine
 10
-2060.421637479531
 20
2303.999683277028
 30
0.0
 11
-2060.421637479531
 21
2429.999683277027
 31
0.0
  0
LINE
  5
DA
330
1F
100
AcDbEntity
  8
0-4_枠
  6
Continuous
 62
    92
370
    13
100
AcDbLine
 10
-2120.421637479531
 20
2717.999683277028
 30
0.0
 11
-2120.421637479531
 21
2777.999683277028
 31
0.0
  0
LINE
  5
DB
330
1F
100
AcDbEntity
  8
0-4_枠
  6
Continuous
 62
    92
370
    13
100
AcDbLine
 10
-2174.42163747953
 20
2717.999683277028
 30
0.0
 11
-2174.42163747953
 21
2777.999683277028
 31
0.0
  0
LINE
  5
DC
330
1F
100
AcDbEntity
  8
0-4_枠
  6
Continuous
 62
    92
370
    13
100
AcDbLine
 10
-2120.421637479531
 20
2717.999683277028
 30
0.0
 11
-2174.42163747953
 21
2717.999683277028
 31
0.0
  0
LINE
  5
DD
330
1F
100
AcDbEntity
  8
0-4_枠
  6
Continuous
 62
    92
370
    13
100
AcDbLine
 10
-2210.421637479531
 20
2735.999683277028
 30
0.0
 11
-2240.421637479531
 21
2735.999683277028
 31
0.0
  0
LINE
  5
DE
330
1F
100
AcDbEntity
  8
0-4_枠
  6
Continuous
 62
    92
370
    13
100
AcDbLine
 10
-2210.421637479531
 20
2735.999683277028
 30
0.0
 11
-2210.421637479531
 21
2777.999683277028
 31
0.0
  0
LINE
  5
DF
330
1F
100
AcDbEntity
  8
0-4_枠
  6
Continuous
 62
    92
370
    13
100
AcDbLine
 10
-2174.42163747953
 20
2777.999683277028
 30
0.0
 11
-2210.421637479531
 21
2777.999683277028
 31
0.0
  0
LINE
  5
E0
330
1F
100
AcDbEntity
  8
0-4_枠
  6
Continuous
 62
    92
370
    13
100
AcDbLine
 10
-2120.421637479531
 20
2777.999683277028
 30
0.0
 11
-2060.421637479531
 21
2777.999683277028
 31
0.0
  0
LINE
  5
E1
330
1F
100
AcDbEntity
  8
0-4_枠
  6
Continuous
 62
    92
370
    13
100
AcDbLine
 10
-2060.421637479531
 20
2777.999683277028
 30
0.0
 11
-2060.421637479531
 21
2675.999683277026
 31
0.0
  0
LINE
  5
E2
330
1F
100
AcDbEntity
  8
0-4_枠
  6
Continuous
 62
    92
370
    13
100
AcDbLine
 10
-2063.421637479532
 20
2774.999683277029
 30
0.0
 11
-2063.421637479532
 21
2678.999683277026
 31
0.0
  0
LINE
  5
E3
330
1F
100
AcDbEntity
  8
0-4_枠
  6
Continuous
 62
    92
370
    13
100
AcDbLine
 10
-2096.421637479531
 20
2675.999683277026
 30
0.0
 11
-2060.421637479531
 21
2675.999683277026
 31
0.0
  0
LINE
  5
E4
330
1F
100
AcDbEntity
  8
0-4_枠
  6
Continuous
 62
    92
370
    13
100
AcDbLine
 10
-2099.42163747953
 20
2678.999683277026
 30
0.0
 11
-2063.421637479532
 21
2678.999683277026
 31
0.0
  0
LINE
  5
E5
330
1F
100
AcDbEntity
  8
0-4_枠
  6
Continuous
 62
    92
370
    13
100
AcDbLine
 10
-2096.421637479531
 20
2675.999683277026
 30
0.0
 11
-2096.421637479531
 21
2429.999683277027
 31
0.0
  0
LINE
  5
E6
330
1F
100
AcDbEntity
  8
0-4_枠
  6
Continuous
 62
    92
370
    13
100
AcDbLine
 10
-2099.42163747953
 20
2678.999683277026
 30
0.0
 11
-2099.42163747953
 21
2426.999683277027
 31
0.0
  0
LINE
  5
E7
330
1F
100
AcDbEntity
  8
0-4_枠
  6
Continuous
 62
    92
370
    13
100
AcDbLine
 10
-2096.421637479531
 20
2429.999683277027
 30
0.0
 11
-2060.421637479531
 21
2429.999683277027
 31
0.0
  0
LINE
  5
E8
330
1F
100
AcDbEntity
  8
0-4_枠
  6
Continuous
 62
    92
370
    13
100
AcDbLine
 10
-2099.42163747953
 20
2426.999683277027
 30
0.0
 11
-2063.421637479532
 21
2426.999683277027
 31
0.0
  0
LINE
  5
E9
330
1F
100
AcDbEntity
  8
0-4_枠
  6
Continuous
 62
    92
370
    13
100
AcDbLine
 10
-2240.421637479531
 20
2303.999683277028
 30
0.0
 11
-2060.421637479531
 21
2303.999683277028
 31
0.0
  0
LINE
  5
EA
330
1F
100
AcDbEntity
  8
0-4_枠
  6
Continuous
 62
    92
370
    13
100
AcDbLine
 10
-2240.421637479531
 20
2735.999683277028
 30
0.0
 11
-2240.421637479531
 21
2303.999683277028
 31
0.0
  0
LINE
  5
EB
330
1F
100
AcDbEntity
  8
0-4_枠
  6
Continuous
 62
    92
370
    13
100
AcDbLine
 10
-2063.421637479532
 20
2303.999683277028
 30
0.0
 11
-2063.421637479532
 21
2426.999683277027
 31
0.0
  0
LINE
  5
EC
330
1F
100
AcDbEntity
  8
ハッチ
  6
Continuous
 62
   120
370
     5
100
AcDbLine
 10
-2240.421637479531
 20
2623.70926670824
 30
0.0
 11
-2146.131220910749
 21
2717.999683277026
 31
0.0
  0
LINE
  5
ED
330
1F
100
AcDbEntity
  8
ハッチ
  6
Continuous
 62
   120
370
     5
100
AcDbLine
 10
-2237.421637479514
 20
2389.121388229617
 30
0.0
 11
-2099.42163747953
 21
2527.1213882296
 31
0.0
  0
LINE
  5
EE
330
1F
100
AcDbEntity
  8
ハッチ
  6
Continuous
 62
   120
370
     5
100
AcDbLine
 10
-2240.421637479531
 20
2445.518357849247
 30
0.0
 11
-2099.42163747953
 21
2586.518357849247
 31
0.0
  0
LINE
  5
EF
330
1F
100
AcDbEntity
  8
ハッチ
  6
Continuous
 62
   120
370
     5
100
AcDbLine
 10
-2066.337281671398
 20
2678.999683277026
 30
0.0
 11
-2063.421637479532
 21
2681.915327468892
 31
0.0
  0
LINE
  5
F0
330
1F
100
AcDbEntity
  8
ハッチ
  6
Continuous
 62
   120
370
     5
100
AcDbLine
 10
-2240.421637479531
 20
2504.915327468893
 30
0.0
 11
-2099.42163747953
 21
2645.915327468893
 31
0.0
  0
LINE
  5
F1
330
1F
100
AcDbEntity
  8
ハッチ
  6
Continuous
 62
   120
370
     5
100
AcDbLine
 10
-2203.749403192756
 20
2303.999683277028
 30
0.0
 11
-2080.749403192757
 21
2426.999683277027
 31
0.0
  0
LINE
  5
F2
330
1F
100
AcDbEntity
  8
ハッチ
  6
Continuous
 62
   120
370
     5
100
AcDbLine
 10
-2144.352433573053
 20
2303.999683277028
 30
0.0
 11
-2063.421637479532
 21
2384.930479370548
 31
0.0
  0
LINE
  5
F3
330
1F
100
AcDbEntity
  8
ハッチ
  6
Continuous
 62
   120
370
     5
100
AcDbLine
 10
-2084.955463953407
 20
2303.999683277028
 30
0.0
 11
-2063.421637479532
 21
2325.533509750901
 31
0.0
  0
LINE
  5
F4
330
1F
100
AcDbEntity
  8
ハッチ
  6
Continuous
 62
   120
370
     5
100
AcDbLine
 10
-2210.338200311359
 20
2772.586643115771
 30
0.0
 11
-2204.925160150096
 21
2777.999683277028
 31
0.0
  0
LINE
  5
F5
330
1F
100
AcDbEntity
  8
ハッチ
  6
Continuous
 62
   120
370
     5
100
AcDbLine
 10
-2237.421637479514
 20
2686.106236327962
 30
0.0
 11
-2174.42163747953
 21
2749.106236327944
 31
0.0
  0
LINE
  5
F6
330
1F
100
AcDbEntity
  8
ハッチ
  6
Continuous
 62
   120
370
     5
100
AcDbLine
 10
-2240.421637479531
 20
2564.312297088592
 30
0.0
 11
-2063.421637479532
 21
2741.312297088592
 31
0.0
  0
LINE
  5
F7
330
1F
100
AcDbEntity
  8
ハッチ
  6
Continuous
 62
   120
370
     5
100
AcDbLine
 10
-2120.421637479531
 20
2743.709266708242
 30
0.0
 11
-2089.131220910746
 21
2774.999683277029
 31
0.0
  0
LINE
  5
F8
330
1F
100
AcDbEntity
  8
仕上げ
  6
Continuous
 62
    40
370
    15
100
AcDbLine
 10
2590.175285997988
 20
2753.999683277028
 30
0.0
 11
2230.258723166164
 21
2753.999683277028
 31
0.0
  0
LINE
  5
F9
330
1F
100
AcDbEntity
  8
仕上げ
  6
Continuous
 62
    40
370
    15
100
AcDbLine
 10
2590.175285997988
 20
2828.999683277028
 30
0.0
 11
2230.258723166164
 21
2828.999683277028
 31
0.0
  0
LINE
  5
FA
330
1F
100
AcDbEntity
  8
仕上げ
  6
Continuous
 62
    40
370
    15
100
AcDbLine
 10
2230.258723166164
 20
2753.999683277028
 30
0.0
 11
2230.258723166164
 21
2828.999683277028
 31
0.0
  0
LINE
  5
FB
330
1F
100
AcDbEntity
  8
ハッチ
  6
JWW_DASHED1
 62
   120
370
     5
100
AcDbLine
 10
2230.258723166164
 20
2797.817001909896
 30
0.0
 11
2261.441404533288
 21
2828.999683277021
 31
0.0
  0
LINE
  5
FC
330
1F
100
AcDbEntity
  8
仕上げ
  6
Continuous
 62
    40
370
    15
100
AcDbLine
 10
-2570.338200311359
 20
2828.999683277028
 30
0.0
 11
-2210.421637479531
 21
2828.999683277028
 31
0.0
  0
LINE
  5
FD
330
1F
100
AcDbEntity
  8
仕上げ
  6
Continuous
 62
    40
370
    15
100
AcDbLine
 10
-2570.338200311359
 20
2753.999683277028
 30
0.0
 11
-2210.421637479531
 21
2753.999683277028
 31
0.0
  0
LINE
  5
FE
330
1F
100
AcDbEntity
  8
仕上げ
  6
Continuous
 62
    40
370
    15
100
AcDbLine
 10
-2210.421637479531
 20
2753.999683277028
 30
0.0
 11
-2210.421637479531
 21
2828.999683277028
 31
0.0
  0
LINE
  5
FF
330
1F
100
AcDbEntity
  8
0-7_金物
  6
Continuous
 62
     7
370
     9
100
AcDbLine
 10
-2126.421637479531
 20
2537.999683277026
 30
0.0
 11
-2126.421637479531
 21
2567.999683277026
 31
0.0
  0
LINE
  5
100
330
1F
100
AcDbEntity
  8
0-7_金物
  6
Continuous
 62
     7
370
     9
100
AcDbLine
 10
-2096.421637479531
 20
2507.999683277026
 30
0.0
 11
-2078.421637479529
 21
2507.999683277026
 31
0.0
  0
LINE
  5
101
330
1F
100
AcDbEntity
  8
0-7_金物
  6
Continuous
 62
     7
370
     9
100
AcDbLine
 10
-2078.421637479529
 20
2597.999683277026
 30
0.0
 11
-2096.421637479531
 21
2597.999683277026
 31
0.0
  0
LINE
  5
102
330
1F
100
AcDbEntity
  8
0-7_金物
  6
Continuous
 62
     7
370
     9
100
AcDbLine
 10
-2096.421637479531
 20
2597.999683277026
 30
0.0
 11
-2096.421637479531
 21
2507.999683277026
 31
0.0
  0
LINE
  5
103
330
1F
100
AcDbEntity
  8
0-7_金物
  6
Continuous
 62
     7
370
     9
100
AcDbLine
 10
-2096.421637479531
 20
2537.999683277026
 30
0.0
 11
-2126.421637479531
 21
2537.999683277026
 31
0.0
  0
LINE
  5
104
330
1F
100
AcDbEntity
  8
0-7_金物
  6
Continuous
 62
     7
370
     9
100
AcDbLine
 10
-2126.421637479531
 20
2567.999683277026
 30
0.0
 11
-2096.421637479531
 21
2567.999683277026
 31
0.0
  0
ARC
  5
105
330
1F
100
AcDbEntity
  8
0-7_金物
  6
Continuous
 62
     7
370
     9
100
AcDbCircle
 10
-2244.171637479531
 20
2552.999683277026
 30
0.0
 40
171.7499999999977
100
AcDbArc
 50
344.8107132628169
 51
15.1892867371831
  0
LINE
  5
106
330
1F
100
AcDbEntity
  8
0-7_金物
  6
Continuous
 62
     7
370
     9
100
AcDbLine
 10
2146.25872316616
 20
2537.999683277026
 30
0.0
 11
2146.25872316616
 21
2567.999683277026
 31
0.0
  0
LINE
  5
107
330
1F
100
AcDbEntity
  8
0-7_金物
  6
Continuous
 62
     7
370
     9
100
AcDbLine
 10
2116.25872316616
 20
2507.999683277026
 30
0.0
 11
2098.258723166161
 21
2507.999683277026
 31
0.0
  0
LINE
  5
108
330
1F
100
AcDbEntity
  8
0-7_金物
  6
Continuous
 62
     7
370
     9
100
AcDbLine
 10
2098.258723166161
 20
2597.999683277026
 30
0.0
 11
2116.25872316616
 21
2597.999683277026
 31
0.0
  0
LINE
  5
109
330
1F
100
AcDbEntity
  8
0-7_金物
  6
Continuous
 62
     7
370
     9
100
AcDbLine
 10
2116.25872316616
 20
2597.999683277026
 30
0.0
 11
2116.25872316616
 21
2507.999683277026
 31
0.0
  0
LINE
  5
10A
330
1F
100
AcDbEntity
  8
0-7_金物
  6
Continuous
 62
     7
370
     9
100
AcDbLine
 10
2116.25872316616
 20
2537.999683277026
 30
0.0
 11
2146.25872316616
 21
2537.999683277026
 31
0.0
  0
LINE
  5
10B
330
1F
100
AcDbEntity
  8
0-7_金物
  6
Continuous
 62
     7
370
     9
100
AcDbLine
 10
2146.25872316616
 20
2567.999683277026
 30
0.0
 11
2116.25872316616
 21
2567.999683277026
 31
0.0
  0
ARC
  5
10C
330
1F
100
AcDbEntity
  8
0-7_金物
  6
Continuous
 62
     7
370
     9
100
AcDbCircle
 10
2264.008723166164
 20
2552.999683277026
 30
0.0
 40
171.7499999999977
100
AcDbArc
 50
164.8107132628169
 51
195.1892867371831
  0
LINE
  5
10D
330
1F
100
AcDbEntity
  8
0-7_金物
  6
Continuous
 62
     7
370
     9
100
AcDbLine
 10
2278.258386648003
 20
2463.407290896853
 30
0.0
 11
2278.258386648003
 21
2643.407142432959
 31
0.0
  0
LINE
  5
10E
330
1F
100
AcDbEntity
  8
0-7_金物
  6
Continuous
 62
     7
370
     9
100
AcDbLine
 10
2290.258723166164
 20
2643.407142432959
 30
0.0
 11
2278.258386648003
 21
2643.407142432959
 31
0.0
  0
LINE
  5
10F
330
1F
100
AcDbEntity
  8
0-7_金物
  6
Continuous
 62
     7
370
     9
100
AcDbLine
 10
2290.258723166164
 20
2463.407290896853
 30
0.0
 11
2278.258386648003
 21
2463.407290896853
 31
0.0
  0
LINE
  5
110
330
1F
100
AcDbEntity
  8
0-7_金物
  6
Continuous
 62
     7
370
     9
100
AcDbLine
 10
2290.258723166164
 20
2463.407290896853
 30
0.0
 11
2290.258723166164
 21
2643.407142432959
 31
0.0
  0
LINE
  5
111
330
1F
100
AcDbEntity
  8
0-7_金物
  6
Continuous
 62
     7
370
     9
100
AcDbLine
 10
2278.258386648003
 20
2493.407389872782
 30
0.0
 11
2266.258792449314
 21
2493.407389872782
 31
0.0
  0
LINE
  5
112
330
1F
100
AcDbEntity
  8
0-7_金物
  6
Continuous
 62
     7
370
     9
100
AcDbLine
 10
2278.258386648003
 20
2613.407043457031
 30
0.0
 11
2266.258792449314
 21
2613.407043457031
 31
0.0
  0
LINE
  5
113
330
1F
100
AcDbEntity
  8
0-7_金物
  6
Continuous
 62
     7
370
     9
100
AcDbLine
 10
2266.258792449314
 20
2493.407389872782
 30
0.0
 11
2266.258792449314
 21
2613.407043457031
 31
0.0
  0
LINE
  5
114
330
1F
100
AcDbEntity
  8
0-7_金物
  6
Continuous
 62
     7
370
     9
100
AcDbLine
 10
2266.258792449314
 20
2607.40761751742
 30
0.0
 11
2260.216633652332
 21
2607.40761751742
 31
0.0
  0
LINE
  5
115
330
1F
100
AcDbEntity
  8
0-7_金物
  6
Continuous
 62
     7
370
     9
100
AcDbLine
 10
2266.258792449314
 20
2499.407558131861
 30
0.0
 11
2260.216633652332
 21
2499.407558131861
 31
0.0
  0
LINE
  5
116
330
1F
100
AcDbEntity
  8
0-6_扉
  6
Continuous
 62
   200
370
    20
100
AcDbLine
 10
9.918542843317084
 20
2642.999683277026
 30
0.0
 11
9.918542843317084
 21
2462.999683277026
 31
0.0
  0
LINE
  5
117
330
1F
100
AcDbEntity
  8
0-6_扉
  6
Continuous
 62
   200
370
    20
100
AcDbLine
 10
-1124.251547318107
 20
2642.999683277026
 30
0.0
 11
-1124.251547318107
 21
2462.999683277026
 31
0.0
  0
LINE
  5
118
330
1F
100
AcDbEntity
  8
0-6_扉
  6
Continuous
 62
   200
370
    20
100
AcDbLine
 10
1144.088633004738
 20
2642.999683277026
 30
0.0
 11
1144.088633004738
 21
2462.999683277026
 31
0.0
  0
LINE
  5
119
330
1F
100
AcDbEntity
  8
仕上げ
  6
Continuous
 62
    40
370
    15
100
AcDbLine
 10
2080.258723166164
 20
2375.999683277028
 30
0.0
 11
1681.218501188192
 21
2375.999683277028
 31
0.0
  0
LINE
  5
11A
330
1F
100
AcDbEntity
  8
仕上げ
  6
Continuous
 62
    40
370
    15
100
AcDbLine
 10
2590.175285997988
 20
2048.999683277028
 30
0.0
 11
1681.218501188192
 21
2048.999683277028
 31
0.0
  0
LINE
  5
11B
330
1F
100
AcDbEntity
  8
ハッチ
  6
JWW_DASHED1
 62
   120
370
     5
100
AcDbLine
 10
1681.218501188192
 20
2336.793089692176
 30
0.0
 11
1720.425094773037
 21
2375.999683277021
 31
0.0
  0
LINE
  5
11C
330
1F
100
AcDbEntity
  8
仕上げ
  6
Continuous
 62
    40
370
    15
100
AcDbLine
 10
2080.258723166164
 20
2303.999683277028
 30
0.0
 11
1681.218501188192
 21
2303.999683277028
 31
0.0
  0
LINE
  5
11D
330
1F
100
AcDbEntity
  8
仕上げ
  6
Continuous
 62
    40
370
    15
100
AcDbLine
 10
2590.175285997988
 20
2123.999683277028
 30
0.0
 11
1681.218501188192
 21
2123.999683277028
 31
0.0
  0
LINE
  5
11E
330
1F
100
AcDbEntity
  8
ハッチ
  6
JWW_DASHED1
 62
   120
370
     5
100
AcDbLine
 10
1690.851501644245
 20
2303.999683277028
 30
0.0
 11
1762.851501644234
 21
2375.999683277017
 31
0.0
  0
LINE
  5
11F
330
1F
100
AcDbEntity
  8
ハッチ
  6
JWW_DASHED1
 62
   120
370
     5
100
AcDbLine
 10
1449.193912577247
 20
2303.999683277032
 30
0.0
 11
1521.193912577245
 21
2375.99968327703
 31
0.0
  0
LINE
  5
120
330
1F
100
AcDbEntity
  8
ハッチ
  6
JWW_DASHED1
 62
   120
370
     5
100
AcDbLine
 10
1406.76750570605
 20
2303.999683277034
 30
0.0
 11
1478.76750570605
 21
2375.999683277034
 31
0.0
  0
LINE
  5
121
330
1F
100
AcDbEntity
  8
ハッチ
  6
JWW_DASHED1
 62
   120
370
     5
100
AcDbLine
 10
1364.341098834854
 20
2303.999683277038
 30
0.0
 11
1436.341098834853
 21
2375.999683277037
 31
0.0
  0
LINE
  5
122
330
1F
100
AcDbEntity
  8
ハッチ
  6
JWW_DASHED1
 62
   120
370
     5
100
AcDbLine
 10
1321.914691963712
 20
2303.999683277041
 30
0.0
 11
1393.914691963694
 21
2375.999683277025
 31
0.0
  0
LINE
  5
123
330
1F
100
AcDbEntity
  8
ハッチ
  6
JWW_DASHED1
 62
   120
370
     5
100
AcDbLine
 10
1279.488285092488
 20
2303.999683277019
 30
0.0
 11
1351.488285092487
 21
2375.999683277018
 31
0.0
  0
LINE
  5
124
330
1F
100
AcDbEntity
  8
ハッチ
  6
JWW_DASHED1
 62
   120
370
     5
100
AcDbLine
 10
1237.061878221291
 20
2303.999683277022
 30
0.0
 11
1309.06187822129
 21
2375.999683277022
 31
0.0
  0
LINE
  5
125
330
1F
100
AcDbEntity
  8
ハッチ
  6
JWW_DASHED1
 62
   120
370
     5
100
AcDbLine
 10
1194.635471350096
 20
2303.999683277026
 30
0.0
 11
1266.635471350094
 21
2375.999683277025
 31
0.0
  0
LINE
  5
126
330
1F
100
AcDbEntity
  8
ハッチ
  6
JWW_DASHED1
 62
   120
370
     5
100
AcDbLine
 10
1152.209064478898
 20
2303.99968327703
 30
0.0
 11
1224.209064478899
 21
2375.999683277028
 31
0.0
  0
LINE
  5
127
330
1F
100
AcDbEntity
  8
ハッチ
  6
JWW_DASHED1
 62
   120
370
     5
100
AcDbLine
 10
1534.046726319639
 20
2303.999683277022
 30
0.0
 11
1561.218501188192
 21
2331.171458145578
 31
0.0
  0
LINE
  5
128
330
1F
100
AcDbEntity
  8
ハッチ
  6
JWW_DASHED1
 62
   120
370
     5
100
AcDbLine
 10
1491.620319448442
 20
2303.999683277028
 30
0.0
 11
1561.218501188192
 21
2373.597865016778
 31
0.0
  0
LINE
  5
129
330
1F
100
AcDbEntity
  8
仕上げ
  6
Continuous
 62
    40
370
    15
100
AcDbLine
 10
1561.218501188192
 20
2375.999683277028
 30
0.0
 11
1144.088633004738
 21
2375.999683277028
 31
0.0
  0
LINE
  5
12A
330
1F
100
AcDbEntity
  8
ハッチ
  6
JWW_DASHED1
 62
   120
370
     5
100
AcDbLine
 10
1144.088633004738
 20
2338.305658674069
 30
0.0
 11
1181.782657607704
 21
2375.999683277033
 31
0.0
  0
LINE
  5
12B
330
1F
100
AcDbEntity
  8
仕上げ
  6
Continuous
 62
    40
370
    15
100
AcDbLine
 10
1561.218501188192
 20
2303.999683277028
 30
0.0
 11
1144.088633004738
 21
2303.999683277028
 31
0.0
  0
LINE
  5
12C
330
1F
100
AcDbEntity
  8
仕上げ
  6
Continuous
 62
    40
370
    15
100
AcDbLine
 10
1561.218501188192
 20
2123.999683277028
 30
0.0
 11
1144.088633004738
 21
2123.999683277028
 31
0.0
  0
LINE
  5
12D
330
1F
100
AcDbEntity
  8
仕上げ
  6
Continuous
 62
    40
370
    15
100
AcDbLine
 10
1561.218501188192
 20
2048.999683277028
 30
0.0
 11
1144.088633004738
 21
2048.999683277028
 31
0.0
  0
LINE
  5
12E
330
1F
100
AcDbEntity
  8
0-4_枠
  6
Continuous
 62
    92
370
    13
100
AcDbLine
 10
967.0886330047406
 20
2420.999683277028
 30
0.0
 11
967.0886330047406
 21
2102.999683277028
 31
0.0
  0
LINE
  5
12F
330
1F
100
AcDbEntity
  8
0-4_枠
  6
Continuous
 62
    92
370
    13
100
AcDbLine
 10
964.0886330047365
 20
2423.999683277028
 30
0.0
 11
964.0886330047365
 21
2099.999683277027
 31
0.0
  0
LINE
  5
130
330
1F
100
AcDbEntity
  8
0-4_枠
  6
Continuous
 62
    92
370
    13
100
AcDbLine
 10
1018.088633004742
 20
2420.999683277028
 30
0.0
 11
967.0886330047406
 21
2420.999683277028
 31
0.0
  0
LINE
  5
131
330
1F
100
AcDbEntity
  8
0-4_枠
  6
Continuous
 62
    92
370
    13
100
AcDbLine
 10
1018.088633004742
 20
2423.999683277028
 30
0.0
 11
964.0886330047365
 21
2423.999683277028
 31
0.0
  0
LINE
  5
132
330
1F
100
AcDbEntity
  8
0-4_枠
  6
Continuous
 62
    92
370
    13
100
AcDbLine
 10
1141.088633004741
 20
2363.999683277028
 30
0.0
 11
1141.088633004741
 21
2420.999683277028
 31
0.0
  0
LINE
  5
133
330
1F
100
AcDbEntity
  8
0-4_枠
  6
Continuous
 62
    92
370
    13
100
AcDbLine
 10
1090.08863300474
 20
2420.999683277028
 30
0.0
 11
1141.088633004741
 21
2420.999683277028
 31
0.0
  0
LINE
  5
134
330
1F
100
AcDbEntity
  8
0-4_枠
  6
Continuous
 62
    92
370
    13
100
AcDbLine
 10
1090.08863300474
 20
2423.999683277028
 30
0.0
 11
1144.088633004738
 21
2423.999683277028
 31
0.0
  0
LINE
  5
135
330
1F
100
AcDbEntity
  8
0-4_枠
  6
Continuous
 62
    92
370
    13
100
AcDbLine
 10
1144.088633004738
 20
2099.999683277027
 30
0.0
 11
1144.088633004738
 21
2423.999683277028
 31
0.0
  0
LINE
  5
136
330
1F
100
AcDbEntity
  8
0-4_枠
  6
Continuous
 62
    92
370
    13
100
AcDbLine
 10
1141.088633004741
 20
2363.999683277028
 30
0.0
 11
1144.088633004738
 21
2363.999683277028
 31
0.0
  0
LINE
  5
137
330
1F
100
AcDbEntity
  8
0-4_枠
  6
Continuous
 62
    92
370
    13
100
AcDbLine
 10
1018.088633004742
 20
2408.999683277028
 30
0.0
 11
1090.08863300474
 21
2408.999683277028
 31
0.0
  0
LINE
  5
138
330
1F
100
AcDbEntity
  8
0-4_枠
  6
Continuous
 62
    92
370
    13
100
AcDbLine
 10
1090.08863300474
 20
2408.999683277028
 30
0.0
 11
1090.08863300474
 21
2423.999683277028
 31
0.0
  0
LINE
  5
139
330
1F
100
AcDbEntity
  8
0-4_枠
  6
Continuous
 62
    92
370
    13
100
AcDbLine
 10
1018.088633004742
 20
2408.999683277028
 30
0.0
 11
1018.088633004742
 21
2423.999683277028
 31
0.0
  0
LWPOLYLINE
  5
13A
330
1F
100
AcDbEntity
  8
0-B_寸法
  6
Continuous
 62
     7
370
     9
100
AcDbPolyline
 90
        4
 70
     1
 43
3.0
 10
781.3604184315227
 20
2423.999683277028
 42
0.4142135623731
 10
779.8604184315227
 20
2425.499683277027
 42
0.4142135623731
 10
778.3604184315226
 20
2423.999683277028
 42
0.4142135623731
 10
779.8604184315227
 20
2422.499683277028
 42
0.4142135623731
  0
LINE
  5
13B
330
1F
100
AcDbEntity
  8
0-B_寸法
  6
Continuous
 62
   120
370
     5
100
AcDbLine
 10
779.8604184315227
 20
2643.001910235431
 30
0.0
 11
779.8604184315227
 21
2099.999683277027
 31
0.0
  0
LWPOLYLINE
  5
13C
330
1F
100
AcDbEntity
  8
0-B_寸法
  6
Continuous
 62
     7
370
     9
100
AcDbPolyline
 90
        4
 70
     1
 43
3.0
 10
781.3604184315227
 20
2463.001167915964
 42
0.4142135623731
 10
779.8604184315227
 20
2464.501167915963
 42
0.4142135623731
 10
778.3604184315226
 20
2463.001167915964
 42
0.4142135623731
 10
779.8604184315227
 20
2461.501167915964
 42
0.4142135623731
  0
LWPOLYLINE
  5
13D
330
1F
100
AcDbEntity
  8
0-B_寸法
  6
Continuous
 62
     7
370
     9
100
AcDbPolyline
 90
        4
 70
     1
 43
3.0
 10
781.3604184315227
 20
2643.001910235431
 42
0.4142135623731
 10
779.8604184315227
 20
2644.501910235431
 42
0.4142135623731
 10
778.3604184315226
 20
2643.001910235431
 42
0.4142135623731
 10
779.8604184315227
 20
2641.501910235431
 42
0.4142135623731
  0
LINE
  5
13E
330
1F
100
AcDbEntity
  8
0-2_柱
  6
Continuous
 62
     7
370
     9
100
AcDbLine
 10
1306.431525403163
 20
2303.999683277028
 30
0.0
 11
1144.431525403162
 21
2123.999683277028
 31
0.0
  0
LINE
  5
13F
330
1F
100
AcDbEntity
  8
0-2_柱
  6
Continuous
 62
     7
370
     9
100
AcDbLine
 10
1306.431525403163
 20
2303.999683277028
 30
0.0
 11
1306.431525403163
 21
2123.999683277028
 31
0.0
  0
LINE
  5
140
330
1F
100
AcDbEntity
  8
0-2_柱
  6
Continuous
 62
     7
370
     9
100
AcDbLine
 10
1144.431525403162
 20
2303.999683277028
 30
0.0
 11
1306.431525403163
 21
2303.999683277028
 31
0.0
  0
LINE
  5
141
330
1F
100
AcDbEntity
  8
0-2_柱
  6
Continuous
 62
     7
370
     9
100
AcDbLine
 10
1144.431525403162
 20
2123.999683277028
 30
0.0
 11
1144.431525403162
 21
2303.999683277028
 31
0.0
  0
LINE
  5
142
330
1F
100
AcDbEntity
  8
0-2_柱
  6
Continuous
 62
     7
370
     9
100
AcDbLine
 10
1306.431525403163
 20
2123.999683277028
 30
0.0
 11
1144.431525403162
 21
2123.999683277028
 31
0.0
  0
LINE
  5
143
330
1F
100
AcDbEntity
  8
仕上げ
  6
Continuous
 62
    40
370
    15
100
AcDbLine
 10
1144.088633004738
 20
2048.999683277028
 30
0.0
 11
1144.088633004738
 21
2123.999683277028
 31
0.0
  0
LINE
  5
144
330
1F
100
AcDbEntity
  8
ハッチ
  6
Continuous
 62
   120
370
     5
100
AcDbLine
 10
1039.16910652746
 20
2159.999683277027
 30
0.0
 11
1144.08863300475
 21
2264.919209754317
 31
0.0
  0
LINE
  5
145
330
1F
100
AcDbEntity
  8
0-4_枠
  6
Continuous
 62
    92
370
    13
100
AcDbLine
 10
1078.088633004742
 20
2159.999683277027
 30
0.0
 11
1078.088633004742
 21
2099.999683277027
 31
0.0
  0
LINE
  5
146
330
1F
100
AcDbEntity
  8
0-4_枠
  6
Continuous
 62
    92
370
    13
100
AcDbLine
 10
1078.088633004742
 20
2159.999683277027
 30
0.0
 11
1024.088633004736
 21
2159.999683277027
 31
0.0
  0
LINE
  5
147
330
1F
100
AcDbEntity
  8
0-4_枠
  6
Continuous
 62
    92
370
    13
100
AcDbLine
 10
1024.088633004736
 20
2099.999683277027
 30
0.0
 11
1024.088633004736
 21
2159.999683277027
 31
0.0
  0
LINE
  5
148
330
1F
100
AcDbEntity
  8
ハッチ
  6
Continuous
 62
   120
370
     5
100
AcDbLine
 10
967.0886330047406
 20
2206.713148993659
 30
0.0
 11
1141.088633004734
 21
2380.713148993652
 31
0.0
  0
LINE
  5
149
330
1F
100
AcDbEntity
  8
ハッチ
  6
Continuous
 62
   120
370
     5
100
AcDbLine
 10
967.088633004756
 20
2147.316179374029
 30
0.0
 11
1144.088633004736
 21
2324.316179374006
 31
0.0
  0
LINE
  5
14A
330
1F
100
AcDbEntity
  8
ハッチ
  6
Continuous
 62
   120
370
     5
100
AcDbLine
 10
982.1691065274504
 20
2102.999683277024
 30
0.0
 11
1024.088633004736
 21
2144.919209754308
 31
0.0
  0
LINE
  5
14B
330
1F
100
AcDbEntity
  8
ハッチ
  6
Continuous
 62
   120
370
     5
100
AcDbLine
 10
1078.088633004742
 20
2139.522240134666
 30
0.0
 11
1144.088633004736
 21
2205.522240134656
 31
0.0
  0
LINE
  5
14C
330
1F
100
AcDbEntity
  8
ハッチ
  6
Continuous
 62
   120
370
     5
100
AcDbLine
 10
1097.963045766754
 20
2099.999683277027
 30
0.0
 11
1144.088633004731
 21
2146.125270515009
 31
0.0
  0
LINE
  5
14D
330
1F
100
AcDbEntity
  8
0-4_枠
  6
Continuous
 62
    92
370
    13
100
AcDbLine
 10
1024.088633004736
 20
2102.999683277028
 30
0.0
 11
967.0886330047406
 21
2102.999683277028
 31
0.0
  0
LINE
  5
14E
330
1F
100
AcDbEntity
  8
0-4_枠
  6
Continuous
 62
    92
370
    13
100
AcDbLine
 10
1024.088633004736
 20
2099.999683277027
 30
0.0
 11
964.0886330047365
 21
2099.999683277027
 31
0.0
  0
LINE
  5
14F
330
1F
100
AcDbEntity
  8
0-4_枠
  6
Continuous
 62
    92
370
    13
100
AcDbLine
 10
1144.088633004738
 20
2099.999683277027
 30
0.0
 11
1078.088633004742
 21
2099.999683277027
 31
0.0
  0
LWPOLYLINE
  5
150
330
1F
100
AcDbEntity
  8
0-B_寸法
  6
Continuous
 62
     7
370
     9
100
AcDbPolyline
 90
        4
 70
     1
 43
3.0
 10
781.3604184315227
 20
2099.999683277027
 42
0.4142135623731
 10
779.8604184315227
 20
2101.499683277027
 42
0.4142135623731
 10
778.3604184315226
 20
2099.999683277027
 42
0.4142135623731
 10
779.8604184315227
 20
2098.499683277027
 42
0.4142135623731
  0
LINE
  5
151
330
1F
100
AcDbEntity
  8
0-B_寸法
  6
Continuous
 62
   120
370
     5
100
AcDbLine
 10
930.1381696324338
 20
2099.999683277027
 30
0.0
 11
779.8604184315227
 21
2099.999683277027
 31
0.0
  0
LINE
  5
152
330
1F
100
AcDbEntity
  8
0-6_扉
  6
JWW_DASHED2
 62
    40
370
    15
100
AcDbLine
 10
-2078.421637479529
 20
2642.999683277026
 30
0.0
 11
-2078.421637479529
 21
2462.999683277026
 31
0.0
  0
LINE
  5
153
330
1F
100
AcDbEntity
  8
0-6_扉
  6
JWW_DASHED2
 62
    40
370
    15
100
AcDbLine
 10
-944.2515473181074
 20
2642.999683277026
 30
0.0
 11
-944.2515473181074
 21
2462.999683277026
 31
0.0
  0
LINE
  5
154
330
1F
100
AcDbEntity
  8
0-6_扉
  6
JWW_DASHED2
 62
    40
370
    15
100
AcDbLine
 10
964.0886330047383
 20
2642.999683277026
 30
0.0
 11
964.0886330047383
 21
2462.999683277026
 31
0.0
  0
LINE
  5
155
330
1F
100
AcDbEntity
  8
0-6_扉
  6
JWW_DASHED2
 62
    40
370
    15
100
AcDbLine
 10
2098.258723166161
 20
2642.999683277026
 30
0.0
 11
2098.258723166161
 21
2462.999683277026
 31
0.0
  0
LINE
  5
156
330
1F
100
AcDbEntity
  8
0-2_柱
  6
Continuous
 62
     7
370
     9
100
AcDbLine
 10
-1286.594439716529
 20
2303.999683277028
 30
0.0
 11
-1124.594439716529
 21
2123.999683277028
 31
0.0
  0
LINE
  5
157
330
1F
100
AcDbEntity
  8
0-2_柱
  6
Continuous
 62
     7
370
     9
100
AcDbLine
 10
-1286.594439716529
 20
2303.999683277028
 30
0.0
 11
-1286.594439716529
 21
2123.999683277028
 31
0.0
  0
LINE
  5
158
330
1F
100
AcDbEntity
  8
0-2_柱
  6
Continuous
 62
     7
370
     9
100
AcDbLine
 10
-1124.594439716529
 20
2303.999683277028
 30
0.0
 11
-1286.594439716529
 21
2303.999683277028
 31
0.0
  0
LINE
  5
159
330
1F
100
AcDbEntity
  8
0-2_柱
  6
Continuous
 62
     7
370
     9
100
AcDbLine
 10
-1124.594439716529
 20
2123.999683277028
 30
0.0
 11
-1124.594439716529
 21
2303.999683277028
 31
0.0
  0
LINE
  5
15A
330
1F
100
AcDbEntity
  8
0-2_柱
  6
Continuous
 62
     7
370
     9
100
AcDbLine
 10
-1286.594439716529
 20
2123.999683277028
 30
0.0
 11
-1124.594439716529
 21
2123.999683277028
 31
0.0
  0
LINE
  5
15B
330
1F
100
AcDbEntity
  8
仕上げ
  6
Continuous
 62
    40
370
    15
100
AcDbLine
 10
-1124.251547318106
 20
2048.999683277028
 30
0.0
 11
-1124.251547318106
 21
2123.999683277028
 31
0.0
  0
LINE
  5
15C
330
1F
100
AcDbEntity
  8
ハッチ
  6
Continuous
 62
   120
370
     5
100
AcDbLine
 10
967.0886330047474
 20
2325.507088233019
 30
0.0
 11
1050.58122804876
 21
2408.999683277028
 31
0.0
  0
LINE
  5
15D
330
1F
100
AcDbEntity
  8
ハッチ
  6
Continuous
 62
   120
370
     5
100
AcDbLine
 10
967.0886330047338
 20
2384.904057852648
 30
0.0
 11
1003.184258429109
 21
2420.999683277028
 31
0.0
  0
LINE
  5
15E
330
1F
100
AcDbEntity
  8
ハッチ
  6
Continuous
 62
   120
370
     5
100
AcDbLine
 10
967.0886330047474
 20
2266.110118613367
 30
0.0
 11
1121.978197668403
 21
2420.999683277028
 31
0.0
  0
LINE
  5
15F
330
1F
100
AcDbEntity
  8
仕上げ
  6
Continuous
 62
    40
370
    15
100
AcDbLine
 10
-1124.251547318106
 20
2375.999683277028
 30
0.0
 11
-1124.251547318106
 21
2303.999683277028
 31
0.0
  0
LINE
  5
160
330
1F
100
AcDbEntity
  8
仕上げ
  6
Continuous
 62
    40
370
    15
100
AcDbLine
 10
-1439.760187066054
 20
2375.999683277028
 30
0.0
 11
-1124.251547318106
 21
2375.999683277028
 31
0.0
  0
LINE
  5
161
330
1F
100
AcDbEntity
  8
仕上げ
  6
Continuous
 62
    40
370
    15
100
AcDbLine
 10
-1439.760187066054
 20
2048.999683277028
 30
0.0
 11
-1124.251547318106
 21
2048.999683277028
 31
0.0
  0
LINE
  5
162
330
1F
100
AcDbEntity
  8
仕上げ
  6
Continuous
 62
    40
370
    15
100
AcDbLine
 10
-1439.760187066054
 20
2303.999683277028
 30
0.0
 11
-1124.251547318106
 21
2303.999683277028
 31
0.0
  0
LINE
  5
163
330
1F
100
AcDbEntity
  8
仕上げ
  6
Continuous
 62
    40
370
    15
100
AcDbLine
 10
-1439.760187066054
 20
2123.999683277028
 30
0.0
 11
-1124.251547318106
 21
2123.999683277028
 31
0.0
  0
LINE
  5
164
330
1F
100
AcDbEntity
  8
仕上げ
  6
Continuous
 62
    40
370
    15
100
AcDbLine
 10
-2570.849487036923
 20
2123.999683277028
 30
0.0
 11
-1559.760187066054
 21
2123.999683277028
 31
0.0
  0
LINE
  5
165
330
1F
100
AcDbEntity
  8
仕上げ
  6
Continuous
 62
    40
370
    15
100
AcDbLine
 10
-2570.971221971582
 20
2048.999683277028
 30
0.0
 11
-1559.760187066054
 21
2048.999683277028
 31
0.0
  0
LINE
  5
166
330
1F
100
AcDbEntity
  8
仕上げ
  6
Continuous
 62
    40
370
    15
100
AcDbLine
 10
-2060.421637479531
 20
2375.999683277028
 30
0.0
 11
-1559.760187066054
 21
2375.999683277028
 31
0.0
  0
LINE
  5
167
330
1F
100
AcDbEntity
  8
仕上げ
  6
Continuous
 62
    40
370
    15
100
AcDbLine
 10
-2060.421637479531
 20
2303.999683277028
 30
0.0
 11
-1559.760187066054
 21
2303.999683277028
 31
0.0
  0
LINE
  5
168
330
1F
100
AcDbEntity
  8
ハッチ
  6
JWW_DASHED1
 62
   120
370
     5
100
AcDbLine
 10
2581.364487166431
 20
2048.999683277032
 30
0.0
 11
2590.258723166161
 21
2057.893919276761
 31
0.0
  0
LINE
  5
169
330
1F
100
AcDbEntity
  8
ハッチ
  6
JWW_DASHED1
 62
   120
370
     5
100
AcDbLine
 10
2538.938080295219
 20
2048.999683277019
 30
0.0
 11
2590.258723166164
 21
2100.320326147964
 31
0.0
  0
LINE
  5
16A
330
1F
100
AcDbEntity
  8
ハッチ
  6
JWW_DASHED1
 62
   120
370
     5
100
AcDbLine
 10
2496.511673424082
 20
2048.999683277028
 30
0.0
 11
2571.511673424092
 21
2123.999683277038
 31
0.0
  0
LINE
  5
16B
330
1F
100
AcDbEntity
  8
ハッチ
  6
JWW_DASHED1
 62
   120
370
     5
100
AcDbLine
 10
2454.085266552885
 20
2048.999683277032
 30
0.0
 11
2529.085266552882
 21
2123.999683277026
 31
0.0
  0
LINE
  5
16C
330
1F
100
AcDbEntity
  8
ハッチ
  6
JWW_DASHED1
 62
   120
370
     5
100
AcDbLine
 10
2411.658859681676
 20
2048.999683277021
 30
0.0
 11
2486.65885968167
 21
2123.999683277016
 31
0.0
  0
LINE
  5
16D
330
1F
100
AcDbEntity
  8
ハッチ
  6
JWW_DASHED1
 62
   120
370
     5
100
AcDbLine
 10
2369.232452810478
 20
2048.999683277025
 30
0.0
 11
2444.232452810476
 21
2123.999683277019
 31
0.0
  0
LINE
  5
16E
330
1F
100
AcDbEntity
  8
ハッチ
  6
JWW_DASHED1
 62
   120
370
     5
100
AcDbLine
 10
2326.806045939283
 20
2048.99968327703
 30
0.0
 11
2401.806045939278
 21
2123.999683277025
 31
0.0
  0
LINE
  5
16F
330
1F
100
AcDbEntity
  8
ハッチ
  6
JWW_DASHED1
 62
   120
370
     5
100
AcDbLine
 10
2284.379639068085
 20
2048.99968327703
 30
0.0
 11
2359.37963906808
 21
2123.999683277025
 31
0.0
  0
LINE
  5
170
330
1F
100
AcDbEntity
  8
ハッチ
  6
JWW_DASHED1
 62
   120
370
     5
100
AcDbLine
 10
2241.95323219689
 20
2048.999683277034
 30
0.0
 11
2316.953232196883
 21
2123.99968327703
 31
0.0
  0
LINE
  5
171
330
1F
100
AcDbEntity
  8
ハッチ
  6
JWW_DASHED1
 62
   120
370
     5
100
AcDbLine
 10
2199.526825325676
 20
2048.999683277022
 30
0.0
 11
2274.526825325687
 21
2123.999683277033
 31
0.0
  0
LINE
  5
172
330
1F
100
AcDbEntity
  8
ハッチ
  6
JWW_DASHED1
 62
   120
370
     5
100
AcDbLine
 10
2157.100418454538
 20
2048.99968327703
 30
0.0
 11
2232.100418454533
 21
2123.999683277025
 31
0.0
  0
LINE
  5
173
330
1F
100
AcDbEntity
  8
ハッチ
  6
JWW_DASHED1
 62
   120
370
     5
100
AcDbLine
 10
2114.674011583331
 20
2048.999683277022
 30
0.0
 11
2189.674011583326
 21
2123.999683277018
 31
0.0
  0
LINE
  5
174
330
1F
100
AcDbEntity
  8
ハッチ
  6
JWW_DASHED1
 62
   120
370
     5
100
AcDbLine
 10
2072.247604712136
 20
2048.999683277028
 30
0.0
 11
2147.247604712131
 21
2123.999683277021
 31
0.0
  0
LINE
  5
175
330
1F
100
AcDbEntity
  8
ハッチ
  6
JWW_DASHED1
 62
   120
370
     5
100
AcDbLine
 10
2029.821197840939
 20
2048.999683277032
 30
0.0
 11
2104.821197840933
 21
2123.999683277025
 31
0.0
  0
LINE
  5
176
330
1F
100
AcDbEntity
  8
ハッチ
  6
JWW_DASHED1
 62
   120
370
     5
100
AcDbLine
 10
1987.394790969745
 20
2048.999683277034
 30
0.0
 11
2062.394790969738
 21
2123.99968327703
 31
0.0
  0
LINE
  5
177
330
1F
100
AcDbEntity
  8
ハッチ
  6
JWW_DASHED1
 62
   120
370
     5
100
AcDbLine
 10
1944.968384098539
 20
2048.999683277032
 30
0.0
 11
2019.968384098536
 21
2123.999683277028
 31
0.0
  0
LINE
  5
178
330
1F
100
AcDbEntity
  8
ハッチ
  6
JWW_DASHED1
 62
   120
370
     5
100
AcDbLine
 10
1902.541977227328
 20
2048.999683277021
 30
0.0
 11
1977.541977227339
 21
2123.999683277032
 31
0.0
  0
LINE
  5
179
330
1F
100
AcDbEntity
  8
ハッチ
  6
JWW_DASHED1
 62
   120
370
     5
100
AcDbLine
 10
1860.115570356191
 20
2048.999683277028
 30
0.0
 11
1935.115570356201
 21
2123.999683277038
 31
0.0
  0
LINE
  5
17A
330
1F
100
AcDbEntity
  8
ハッチ
  6
JWW_DASHED1
 62
   120
370
     5
100
AcDbLine
 10
1817.689163484994
 20
2048.999683277032
 30
0.0
 11
1892.689163484991
 21
2123.999683277028
 31
0.0
  0
LINE
  5
17B
330
1F
100
AcDbEntity
  8
ハッチ
  6
JWW_DASHED1
 62
   120
370
     5
100
AcDbLine
 10
1775.262756613791
 20
2048.999683277028
 30
0.0
 11
1850.262756613786
 21
2123.999683277022
 31
0.0
  0
LINE
  5
17C
330
1F
100
AcDbEntity
  8
ハッチ
  6
JWW_DASHED1
 62
   120
370
     5
100
AcDbLine
 10
1732.836349742596
 20
2048.999683277033
 30
0.0
 11
1807.836349742591
 21
2123.999683277028
 31
0.0
  0
LINE
  5
17D
330
1F
100
AcDbEntity
  8
ハッチ
  6
JWW_DASHED1
 62
   120
370
     5
100
AcDbLine
 10
1681.218501188192
 20
2082.23464846503
 30
0.0
 11
1722.983536000189
 21
2123.999683277026
 31
0.0
  0
LINE
  5
17E
330
1F
100
AcDbEntity
  8
ハッチ
  6
JWW_DASHED1
 62
   120
370
     5
100
AcDbLine
 10
1690.409942871391
 20
2048.999683277028
 30
0.0
 11
1765.409942871394
 21
2123.999683277032
 31
0.0
  0
LINE
  5
17F
330
1F
100
AcDbEntity
  8
ハッチ
  6
JWW_DASHED1
 62
   120
370
     5
100
AcDbLine
 10
1533.605167546806
 20
2048.999683277045
 30
0.0
 11
1561.218501188177
 21
2076.613016918418
 31
0.0
  0
LINE
  5
180
330
1F
100
AcDbEntity
  8
ハッチ
  6
JWW_DASHED1
 62
   120
370
     5
100
AcDbLine
 10
1491.178760675594
 20
2048.999683277034
 30
0.0
 11
1561.218501188192
 21
2119.039423789632
 31
0.0
  0
LINE
  5
181
330
1F
100
AcDbEntity
  8
ハッチ
  6
JWW_DASHED1
 62
   120
370
     5
100
AcDbLine
 10
1448.752353804382
 20
2048.999683277022
 30
0.0
 11
1523.752353804392
 21
2123.999683277033
 31
0.0
  0
LINE
  5
182
330
1F
100
AcDbEntity
  8
ハッチ
  6
JWW_DASHED1
 62
   120
370
     5
100
AcDbLine
 10
1406.325946933245
 20
2048.99968327703
 30
0.0
 11
1481.325946933256
 21
2123.999683277041
 31
0.0
  0
LINE
  5
183
330
1F
100
AcDbEntity
  8
ハッチ
  6
JWW_DASHED1
 62
   120
370
     5
100
AcDbLine
 10
1363.899540062049
 20
2048.999683277034
 30
0.0
 11
1438.899540062045
 21
2123.99968327703
 31
0.0
  0
LINE
  5
184
330
1F
100
AcDbEntity
  8
ハッチ
  6
JWW_DASHED1
 62
   120
370
     5
100
AcDbLine
 10
1321.473133190849
 20
2048.999683277034
 30
0.0
 11
1396.473133190845
 21
2123.99968327703
 31
0.0
  0
LINE
  5
185
330
1F
100
AcDbEntity
  8
ハッチ
  6
JWW_DASHED1
 62
   120
370
     5
100
AcDbLine
 10
1279.04672631965
 20
2048.999683277036
 30
0.0
 11
1354.046726319649
 21
2123.999683277033
 31
0.0
  0
LINE
  5
186
330
1F
100
AcDbEntity
  8
ハッチ
  6
JWW_DASHED1
 62
   120
370
     5
100
AcDbLine
 10
1236.620319448456
 20
2048.999683277039
 30
0.0
 11
1311.62031944845
 21
2123.999683277036
 31
0.0
  0
LINE
  5
187
330
1F
100
AcDbEntity
  8
ハッチ
  6
JWW_DASHED1
 62
   120
370
     5
100
AcDbLine
 10
1194.193912577257
 20
2048.999683277043
 30
0.0
 11
1269.193912577254
 21
2123.999683277039
 31
0.0
  0
LINE
  5
188
330
1F
100
AcDbEntity
  8
ハッチ
  6
JWW_DASHED1
 62
   120
370
     5
100
AcDbLine
 10
1151.767505706054
 20
2048.999683277038
 30
0.0
 11
1226.767505706049
 21
2123.999683277034
 31
0.0
  0
LINE
  5
189
330
1F
100
AcDbEntity
  8
ハッチ
  6
JWW_DASHED1
 62
   120
370
     5
100
AcDbLine
 10
1144.088633004738
 20
2083.747217446922
 30
0.0
 11
1184.341098834854
 21
2123.999683277038
 31
0.0
  0
LINE
  5
18A
330
1F
100
AcDbEntity
  8
ハッチ
  6
JWW_DASHED1
 62
   120
370
     5
100
AcDbLine
 10
-1219.507721235936
 20
2303.999683277038
 30
0.0
 11
-1147.507721235937
 21
2375.999683277037
 31
0.0
  0
LINE
  5
18B
330
1F
100
AcDbEntity
  8
ハッチ
  6
JWW_DASHED1
 62
   120
370
     5
100
AcDbLine
 10
-1261.934128107078
 20
2303.999683277041
 30
0.0
 11
-1189.934128107096
 21
2375.999683277025
 31
0.0
  0
LINE
  5
18C
330
1F
100
AcDbEntity
  8
ハッチ
  6
JWW_DASHED1
 62
   120
370
     5
100
AcDbLine
 10
-1304.360534978302
 20
2303.999683277019
 30
0.0
 11
-1232.360534978303
 21
2375.999683277018
 31
0.0
  0
LINE
  5
18D
330
1F
100
AcDbEntity
  8
ハッチ
  6
JWW_DASHED1
 62
   120
370
     5
100
AcDbLine
 10
-1346.786941849499
 20
2303.999683277022
 30
0.0
 11
-1274.786941849499
 21
2375.999683277022
 31
0.0
  0
LINE
  5
18E
330
1F
100
AcDbEntity
  8
ハッチ
  6
JWW_DASHED1
 62
   120
370
     5
100
AcDbLine
 10
-1389.213348720695
 20
2303.999683277026
 30
0.0
 11
-1317.213348720696
 21
2375.999683277025
 31
0.0
  0
LINE
  5
18F
330
1F
100
AcDbEntity
  8
ハッチ
  6
JWW_DASHED1
 62
   120
370
     5
100
AcDbLine
 10
-1431.639755591892
 20
2303.99968327703
 30
0.0
 11
-1359.639755591893
 21
2375.999683277028
 31
0.0
  0
LINE
  5
190
330
1F
100
AcDbEntity
  8
ハッチ
  6
JWW_DASHED1
 62
   120
370
     5
100
AcDbLine
 10
-1219.94928000874
 20
2048.999683277034
 30
0.0
 11
-1144.949280008746
 21
2123.99968327703
 31
0.0
  0
LINE
  5
191
330
1F
100
AcDbEntity
  8
ハッチ
  6
JWW_DASHED1
 62
   120
370
     5
100
AcDbLine
 10
-1262.375686879943
 20
2048.999683277034
 30
0.0
 11
-1187.375686879946
 21
2123.99968327703
 31
0.0
  0
LINE
  5
192
330
1F
100
AcDbEntity
  8
ハッチ
  6
JWW_DASHED1
 62
   120
370
     5
100
AcDbLine
 10
-1304.80209375114
 20
2048.999683277036
 30
0.0
 11
-1229.802093751143
 21
2123.999683277033
 31
0.0
  0
LINE
  5
193
330
1F
100
AcDbEntity
  8
ハッチ
  6
JWW_DASHED1
 62
   120
370
     5
100
AcDbLine
 10
-1347.228500622336
 20
2048.999683277039
 30
0.0
 11
-1272.22850062234
 21
2123.999683277036
 31
0.0
  0
LINE
  5
194
330
1F
100
AcDbEntity
  8
ハッチ
  6
JWW_DASHED1
 62
   120
370
     5
100
AcDbLine
 10
-1389.654907493533
 20
2048.999683277043
 30
0.0
 11
-1314.654907493536
 21
2123.999683277039
 31
0.0
  0
LINE
  5
195
330
1F
100
AcDbEntity
  8
ハッチ
  6
JWW_DASHED1
 62
   120
370
     5
100
AcDbLine
 10
-1432.081314364736
 20
2048.999683277038
 30
0.0
 11
-1357.081314364743
 21
2123.999683277034
 31
0.0
  0
LINE
  5
196
330
1F
100
AcDbEntity
  8
ハッチ
  6
JWW_DASHED1
 62
   120
370
     5
100
AcDbLine
 10
-1439.760187066054
 20
2338.305658674069
 30
0.0
 11
-1402.066162463089
 21
2375.999683277033
 31
0.0
  0
LINE
  5
197
330
1F
100
AcDbEntity
  8
ハッチ
  6
JWW_DASHED1
 62
   120
370
     5
100
AcDbLine
 10
-1439.760187066054
 20
2083.747217446922
 30
0.0
 11
-1399.507721235938
 21
2123.999683277038
 31
0.0
  0
LINE
  5
198
330
1F
100
AcDbEntity
  8
ハッチ
  6
JWW_DASHED1
 62
   120
370
     5
100
AcDbLine
 10
-1134.654907493543
 20
2303.999683277032
 30
0.0
 11
-1124.251547318106
 21
2314.403043452469
 31
0.0
  0
LINE
  5
199
330
1F
100
AcDbEntity
  8
ハッチ
  6
JWW_DASHED1
 62
   120
370
     5
100
AcDbLine
 10
-1177.08131436474
 20
2303.999683277034
 30
0.0
 11
-1124.251547318106
 21
2356.829450323669
 31
0.0
  0
LINE
  5
19A
330
1F
100
AcDbEntity
  8
ハッチ
  6
JWW_DASHED1
 62
   120
370
     5
100
AcDbLine
 10
-1135.096466266408
 20
2048.999683277022
 30
0.0
 11
-1124.251547318106
 21
2059.844602225324
 31
0.0
  0
LINE
  5
19B
330
1F
100
AcDbEntity
  8
ハッチ
  6
JWW_DASHED1
 62
   120
370
     5
100
AcDbLine
 10
-1177.522873137546
 20
2048.99968327703
 30
0.0
 11
-1124.251547318106
 21
2102.27100909647
 31
0.0
  0
LINE
  5
19C
330
1F
100
AcDbEntity
  8
ハッチ
  6
JWW_DASHED1
 62
   120
370
     5
100
AcDbLine
 10
-1569.725808051448
 20
2048.999683277023
 30
0.0
 11
-1559.760187066047
 21
2058.965304262425
 31
0.0
  0
LINE
  5
19D
330
1F
100
AcDbEntity
  8
ハッチ
  6
JWW_DASHED1
 62
   120
370
     5
100
AcDbLine
 10
-1612.152214922645
 20
2048.999683277028
 30
0.0
 11
-1559.760187066048
 21
2101.391711133622
 31
0.0
  0
LINE
  5
19E
330
1F
100
AcDbEntity
  8
ハッチ
  6
JWW_DASHED1
 62
   120
370
     5
100
AcDbLine
 10
-1654.578621793838
 20
2048.999683277032
 30
0.0
 11
-1579.578621793845
 21
2123.999683277026
 31
0.0
  0
LINE
  5
19F
330
1F
100
AcDbEntity
  8
ハッチ
  6
JWW_DASHED1
 62
   120
370
     5
100
AcDbLine
 10
-1697.005028665035
 20
2048.999683277036
 30
0.0
 11
-1622.005028665041
 21
2123.99968327703
 31
0.0
  0
LINE
  5
1A0
330
1F
100
AcDbEntity
  8
ハッチ
  6
JWW_DASHED1
 62
   120
370
     5
100
AcDbLine
 10
-1739.431435536231
 20
2048.999683277038
 30
0.0
 11
-1664.431435536238
 21
2123.999683277034
 31
0.0
  0
LINE
  5
1A1
330
1F
100
AcDbEntity
  8
ハッチ
  6
JWW_DASHED1
 62
   120
370
     5
100
AcDbLine
 10
-1781.857842407445
 20
2048.999683277028
 30
0.0
 11
-1706.85784240745
 21
2123.999683277021
 31
0.0
  0
LINE
  5
1A2
330
1F
100
AcDbEntity
  8
ハッチ
  6
JWW_DASHED1
 62
   120
370
     5
100
AcDbLine
 10
-1824.284249278655
 20
2048.999683277015
 30
0.0
 11
-1749.284249278645
 21
2123.999683277025
 31
0.0
  0
LINE
  5
1A3
330
1F
100
AcDbEntity
  8
ハッチ
  6
JWW_DASHED1
 62
   120
370
     5
100
AcDbLine
 10
-1569.284249278648
 20
2303.999683277022
 30
0.0
 11
-1559.760187066047
 21
2313.523745489624
 31
0.0
  0
LINE
  5
1A4
330
1F
100
AcDbEntity
  8
ハッチ
  6
JWW_DASHED1
 62
   120
370
     5
100
AcDbLine
 10
-1866.710656149794
 20
2048.999683277023
 30
0.0
 11
-1791.710656149797
 21
2123.999683277018
 31
0.0
  0
LINE
  5
1A5
330
1F
100
AcDbEntity
  8
ハッチ
  6
JWW_DASHED1
 62
   120
370
     5
100
AcDbLine
 10
-1611.710656149787
 20
2303.999683277032
 30
0.0
 11
-1559.760187066043
 21
2355.950152360773
 31
0.0
  0
LINE
  5
1A6
330
1F
100
AcDbEntity
  8
ハッチ
  6
JWW_DASHED1
 62
   120
370
     5
100
AcDbLine
 10
-1909.13706302099
 20
2048.999683277028
 30
0.0
 11
-1834.137063020994
 21
2123.999683277022
 31
0.0
  0
LINE
  5
1A7
330
1F
100
AcDbEntity
  8
ハッチ
  6
JWW_DASHED1
 62
   120
370
     5
100
AcDbLine
 10
-1654.137063020997
 20
2303.999683277018
 30
0.0
 11
-1582.137063020998
 21
2375.999683277018
 31
0.0
  0
LINE
  5
1A8
330
1F
100
AcDbEntity
  8
ハッチ
  6
JWW_DASHED1
 62
   120
370
     5
100
AcDbLine
 10
-1951.563469892184
 20
2048.999683277032
 30
0.0
 11
-1876.56346989219
 21
2123.999683277025
 31
0.0
  0
LINE
  5
1A9
330
1F
100
AcDbEntity
  8
ハッチ
  6
JWW_DASHED1
 62
   120
370
     5
100
AcDbLine
 10
-1696.563469892194
 20
2303.999683277022
 30
0.0
 11
-1624.563469892194
 21
2375.999683277022
 31
0.0
  0
LINE
  5
1AA
330
1F
100
AcDbEntity
  8
ハッチ
  6
JWW_DASHED1
 62
   120
370
     5
100
AcDbLine
 10
-1993.989876763382
 20
2048.999683277034
 30
0.0
 11
-1918.989876763387
 21
2123.99968327703
 31
0.0
  0
LINE
  5
1AB
330
1F
100
AcDbEntity
  8
ハッチ
  6
JWW_DASHED1
 62
   120
370
     5
100
AcDbLine
 10
-1738.98987676339
 20
2303.999683277026
 30
0.0
 11
-1666.989876763391
 21
2375.999683277025
 31
0.0
  0
LINE
  5
1AC
330
1F
100
AcDbEntity
  8
ハッチ
  6
JWW_DASHED1
 62
   120
370
     5
100
AcDbLine
 10
-2036.416283634577
 20
2048.999683277039
 30
0.0
 11
-1961.416283634584
 21
2123.999683277033
 31
0.0
  0
LINE
  5
1AD
330
1F
100
AcDbEntity
  8
ハッチ
  6
JWW_DASHED1
 62
   120
370
     5
100
AcDbLine
 10
-1781.416283634587
 20
2303.99968327703
 30
0.0
 11
-1709.416283634588
 21
2375.999683277028
 31
0.0
  0
LINE
  5
1AE
330
1F
100
AcDbEntity
  8
ハッチ
  6
JWW_DASHED1
 62
   120
370
     5
100
AcDbLine
 10
-2078.842690505773
 20
2048.999683277043
 30
0.0
 11
-2003.84269050578
 21
2123.999683277036
 31
0.0
  0
LINE
  5
1AF
330
1F
100
AcDbEntity
  8
ハッチ
  6
JWW_DASHED1
 62
   120
370
     5
100
AcDbLine
 10
-1823.84269050579
 20
2303.999683277025
 30
0.0
 11
-1751.842690505791
 21
2375.999683277026
 31
0.0
  0
LINE
  5
1B0
330
1F
100
AcDbEntity
  8
ハッチ
  6
JWW_DASHED1
 62
   120
370
     5
100
AcDbLine
 10
-2121.269097376984
 20
2048.999683277032
 30
0.0
 11
-2046.26909737699
 21
2123.999683277025
 31
0.0
  0
LINE
  5
1B1
330
1F
100
AcDbEntity
  8
ハッチ
  6
JWW_DASHED1
 62
   120
370
     5
100
AcDbLine
 10
-1866.269097376995
 20
2303.999683277021
 30
0.0
 11
-1794.269097376995
 21
2375.999683277021
 31
0.0
  0
LINE
  5
1B2
330
1F
100
AcDbEntity
  8
ハッチ
  6
JWW_DASHED1
 62
   120
370
     5
100
AcDbLine
 10
-2163.695504248197
 20
2048.999683277019
 30
0.0
 11
-2088.695504248187
 21
2123.999683277029
 31
0.0
  0
LINE
  5
1B3
330
1F
100
AcDbEntity
  8
ハッチ
  6
JWW_DASHED1
 62
   120
370
     5
100
AcDbLine
 10
-1908.69550424819
 20
2303.999683277025
 30
0.0
 11
-1836.695504248208
 21
2375.999683277008
 31
0.0
  0
LINE
  5
1B4
330
1F
100
AcDbEntity
  8
ハッチ
  6
JWW_DASHED1
 62
   120
370
     5
100
AcDbLine
 10
-2206.121911119336
 20
2048.999683277028
 30
0.0
 11
-2131.121911119343
 21
2123.999683277021
 31
0.0
  0
LINE
  5
1B5
330
1F
100
AcDbEntity
  8
ハッチ
  6
JWW_DASHED1
 62
   120
370
     5
100
AcDbLine
 10
-1951.121911119329
 20
2303.999683277033
 30
0.0
 11
-1879.121911119347
 21
2375.999683277017
 31
0.0
  0
LINE
  5
1B6
330
1F
100
AcDbEntity
  8
ハッチ
  6
JWW_DASHED1
 62
   120
370
     5
100
AcDbLine
 10
-2248.548317990529
 20
2048.999683277032
 30
0.0
 11
-2173.548317990536
 21
2123.999683277025
 31
0.0
  0
LINE
  5
1B7
330
1F
100
AcDbEntity
  8
ハッチ
  6
JWW_DASHED1
 62
   120
370
     5
100
AcDbLine
 10
-1993.548317990543
 20
2303.999683277021
 30
0.0
 11
-1921.548317990543
 21
2375.999683277021
 31
0.0
  0
LINE
  5
1B8
330
1F
100
AcDbEntity
  8
ハッチ
  6
JWW_DASHED1
 62
   120
370
     5
100
AcDbLine
 10
-2290.974724861725
 20
2048.999683277036
 30
0.0
 11
-2215.974724861734
 21
2123.999683277028
 31
0.0
  0
LINE
  5
1B9
330
1F
100
AcDbEntity
  8
ハッチ
  6
JWW_DASHED1
 62
   120
370
     5
100
AcDbLine
 10
-2035.974724861739
 20
2303.999683277025
 30
0.0
 11
-1963.97472486174
 21
2375.999683277023
 31
0.0
  0
LINE
  5
1BA
330
1F
100
AcDbEntity
  8
ハッチ
  6
JWW_DASHED1
 62
   120
370
     5
100
AcDbLine
 10
-2333.401131732922
 20
2048.999683277039
 30
0.0
 11
-2258.401131732929
 21
2123.999683277032
 31
0.0
  0
LINE
  5
1BB
330
1F
100
AcDbEntity
  8
ハッチ
  6
JWW_DASHED1
 62
   120
370
     5
100
AcDbLine
 10
-2060.421637479531
 20
2321.979177530429
 30
0.0
 11
-2006.401131732937
 21
2375.999683277028
 31
0.0
  0
LINE
  5
1BC
330
1F
100
AcDbEntity
  8
ハッチ
  6
JWW_DASHED1
 62
   120
370
     5
100
AcDbLine
 10
-2375.827538604119
 20
2048.999683277043
 30
0.0
 11
-2300.827538604125
 21
2123.999683277036
 31
0.0
  0
LINE
  5
1BD
330
1F
100
AcDbEntity
  8
ハッチ
  6
JWW_DASHED1
 62
   120
370
     5
100
AcDbLine
 10
-2060.421637479536
 20
2364.405584401625
 30
0.0
 11
-2048.827538604131
 21
2375.99968327703
 31
0.0
  0
LINE
  5
1BE
330
1F
100
AcDbEntity
  8
ハッチ
  6
JWW_DASHED1
 62
   120
370
     5
100
AcDbLine
 10
-2418.253945475329
 20
2048.999683277032
 30
0.0
 11
-2343.253945475339
 21
2123.999683277025
 31
0.0
  0
LINE
  5
1BF
330
1F
100
AcDbEntity
  8
ハッチ
  6
JWW_DASHED1
 62
   120
370
     5
100
AcDbLine
 10
-2460.680352346543
 20
2048.999683277021
 30
0.0
 11
-2385.680352346534
 21
2123.999683277028
 31
0.0
  0
LINE
  5
1C0
330
1F
100
AcDbEntity
  8
ハッチ
  6
JWW_DASHED1
 62
   120
370
     5
100
AcDbLine
 10
-2503.106759217709
 20
2048.999683277026
 30
0.0
 11
-2428.106759217702
 21
2123.999683277034
 31
0.0
  0
LINE
  5
1C1
330
1F
100
AcDbEntity
  8
ハッチ
  6
JWW_DASHED1
 62
   120
370
     5
100
AcDbLine
 10
-2545.533166088875
 20
2048.999683277032
 30
0.0
 11
-2470.533166088885
 21
2123.999683277025
 31
0.0
  0
LINE
  5
1C2
330
1F
100
AcDbEntity
  8
ハッチ
  6
JWW_DASHED1
 62
   120
370
     5
100
AcDbLine
 10
-2570.943602798043
 20
2066.015653439065
 30
0.0
 11
-2512.95957296008
 21
2123.999683277028
 31
0.0
  0
LINE
  5
1C3
330
1F
100
AcDbEntity
  8
ハッチ
  6
JWW_DASHED1
 62
   120
370
     5
100
AcDbLine
 10
-2570.874627163207
 20
2108.5110359451
 30
0.0
 11
-2555.385979831276
 21
2123.999683277032
 31
0.0
  0
LINE
  5
1C4
330
1F
100
AcDbEntity
  8
ハッチ
  6
JWW_DASHED1
 62
   120
370
     5
100
AcDbLine
 10
-2222.370827929634
 20
2753.999683277018
 30
0.0
 11
-2210.421637479523
 21
2765.94887372713
 31
0.0
  0
LINE
  5
1C5
330
1F
100
AcDbEntity
  8
ハッチ
  6
JWW_DASHED1
 62
   120
370
     5
100
AcDbLine
 10
-2264.79723480083
 20
2753.999683277022
 30
0.0
 11
-2210.421637479525
 21
2808.37528059833
 31
0.0
  0
LINE
  5
1C6
330
1F
100
AcDbEntity
  8
ハッチ
  6
JWW_DASHED1
 62
   120
370
     5
100
AcDbLine
 10
-2307.223641672027
 20
2753.999683277028
 30
0.0
 11
-2232.22364167203
 21
2828.999683277022
 31
0.0
  0
LINE
  5
1C7
330
1F
100
AcDbEntity
  8
ハッチ
  6
JWW_DASHED1
 62
   120
370
     5
100
AcDbLine
 10
-2349.650048543223
 20
2753.99968327703
 30
0.0
 11
-2274.650048543227
 21
2828.999683277028
 31
0.0
  0
LINE
  5
1C8
330
1F
100
AcDbEntity
  8
ハッチ
  6
JWW_DASHED1
 62
   120
370
     5
100
AcDbLine
 10
-2392.076455414418
 20
2753.999683277034
 30
0.0
 11
-2317.07645541442
 21
2828.999683277033
 31
0.0
  0
LINE
  5
1C9
330
1F
100
AcDbEntity
  8
ハッチ
  6
JWW_DASHED1
 62
   120
370
     5
100
AcDbLine
 10
-2434.502862285613
 20
2753.999683277038
 30
0.0
 11
-2359.502862285613
 21
2828.999683277038
 31
0.0
  0
LINE
  5
1CA
330
1F
100
AcDbEntity
  8
ハッチ
  6
JWW_DASHED1
 62
   120
370
     5
100
AcDbLine
 10
-2476.929269156779
 20
2753.999683277019
 30
0.0
 11
-2401.929269156766
 21
2828.999683277032
 31
0.0
  0
LINE
  5
1CB
330
1F
100
AcDbEntity
  8
ハッチ
  6
JWW_DASHED1
 62
   120
370
     5
100
AcDbLine
 10
-2519.355676027979
 20
2753.999683277019
 30
0.0
 11
-2444.355676027986
 21
2828.999683277012
 31
0.0
  0
LINE
  5
1CC
330
1F
100
AcDbEntity
  8
ハッチ
  6
JWW_DASHED1
 62
   120
370
     5
100
AcDbLine
 10
-2561.782082899176
 20
2753.999683277025
 30
0.0
 11
-2486.782082899183
 21
2828.999683277016
 31
0.0
  0
LINE
  5
1CD
330
1F
100
AcDbEntity
  8
ハッチ
  6
JWW_DASHED1
 62
   120
370
     5
100
AcDbLine
 10
-2569.771017005833
 20
2788.437156041566
 30
0.0
 11
-2529.208489770379
 21
2828.999683277019
 31
0.0
  0
LINE
  5
1CE
330
1F
100
AcDbEntity
  8
0-0_補助線
  6
JWW_HOJO
 62
   120
370
     5
100
AcDbLine
 10
-2571.180606428683
 20
1928.999683277027
 30
0.0
 11
2590.258723166164
 21
1928.999683277027
 31
0.0
  0
LINE
  5
1CF
330
1F
100
AcDbEntity
  8
0-0_補助線
  6
JWW_HOJO
 62
   120
370
     5
100
AcDbLine
 10
-1559.760187066054
 20
1928.999683277027
 30
0.0
 11
-1559.760187066054
 21
2957.999910917028
 31
0.0
  0
LINE
  5
1D0
330
1F
100
AcDbEntity
  8
0-0_補助線
  6
JWW_HOJO
 62
   120
370
     5
100
AcDbLine
 10
1681.218501188192
 20
1928.999683277027
 30
0.0
 11
1681.218501188192
 21
2957.999910917028
 31
0.0
  0
LINE
  5
1D1
330
1F
100
AcDbEntity
  8
0-0_補助線
  6
JWW_HOJO
 62
   120
370
     5
100
AcDbLine
 10
-1439.760187066054
 20
1928.999683277027
 30
0.0
 11
-1439.760187066054
 21
2957.999910917028
 31
0.0
  0
LINE
  5
1D2
330
1F
100
AcDbEntity
  8
0-0_補助線
  6
JWW_HOJO
 62
   120
370
     5
100
AcDbLine
 10
-515.7601876464103
 20
1928.999683277027
 30
0.0
 11
-515.7601876464103
 21
2957.999910917028
 31
0.0
  0
LINE
  5
1D3
330
1F
100
AcDbEntity
  8
0-0_補助線
  6
JWW_HOJO
 62
   120
370
     5
100
AcDbLine
 10
-395.7601876464102
 20
1928.999683277027
 30
0.0
 11
-395.7601876464102
 21
2957.999910917028
 31
0.0
  0
LINE
  5
1D4
330
1F
100
AcDbEntity
  8
0-0_補助線
  6
JWW_HOJO
 62
   120
370
     5
100
AcDbLine
 10
427.2414845952503
 20
1928.999683277027
 30
0.0
 11
427.2414845952503
 21
2957.999910917028
 31
0.0
  0
LINE
  5
1D5
330
1F
100
AcDbEntity
  8
0-0_補助線
  6
JWW_HOJO
 62
   120
370
     5
100
AcDbLine
 10
547.2414845952503
 20
1928.999683277027
 30
0.0
 11
547.2414845952503
 21
2957.999910917028
 31
0.0
  0
LINE
  5
1D6
330
1F
100
AcDbEntity
  8
0-0_補助線
  6
JWW_HOJO
 62
   120
370
     5
100
AcDbLine
 10
1561.218501188192
 20
1928.999683277027
 30
0.0
 11
1561.218501188192
 21
2957.999910917028
 31
0.0
  0
LINE
  5
1D7
330
1F
100
AcDbEntity
  8
0-0_補助線
  6
JWW_HOJO
 62
   120
370
     5
100
AcDbLine
 10
-2571.180606428683
 20
1568.999683277027
 30
0.0
 11
2590.258723166164
 21
1568.999683277027
 31
0.0
  0
LINE
  5
1D8
330
1F
100
AcDbEntity
  8
0-0_補助線
  6
JWW_HOJO
 62
   120
370
     5
100
AcDbLine
 10
-2571.180606428683
 20
1358.999683277027
 30
0.0
 11
2590.258723166164
 21
1358.999683277027
 31
0.0
  0
LINE
  5
1D9
330
1F
100
AcDbEntity
  8
0-0_補助線
  6
JWW_HOJO
 62
   120
370
     5
100
AcDbLine
 10
-2571.180606428683
 20
1148.999683277027
 30
0.0
 11
2590.258723166164
 21
1148.999683277027
 31
0.0
  0
LINE
  5
1DA
330
1F
100
AcDbEntity
  8
0-4_枠
  6
Continuous
 62
    92
370
    13
100
AcDbLine
 10
-1124.251547318106
 20
2099.999683277027
 30
0.0
 11
-1058.251547318108
 21
2099.999683277027
 31
0.0
  0
LINE
  5
1DB
330
1F
100
AcDbEntity
  8
0-4_枠
  6
Continuous
 62
    92
370
    13
100
AcDbLine
 10
-1004.251547318102
 20
2099.999683277027
 30
0.0
 11
-944.2515473181024
 21
2099.999683277027
 31
0.0
  0
LINE
  5
1DC
330
1F
100
AcDbEntity
  8
0-4_枠
  6
Continuous
 62
    92
370
    13
100
AcDbLine
 10
-1004.251547318102
 20
2102.999683277028
 30
0.0
 11
-947.2515473181065
 21
2102.999683277028
 31
0.0
  0
LINE
  5
1DD
330
1F
100
AcDbEntity
  8
0-4_枠
  6
Continuous
 62
    92
370
    13
100
AcDbLine
 10
-1004.251547318102
 20
2099.999683277027
 30
0.0
 11
-1004.251547318102
 21
2159.999683277027
 31
0.0
  0
LINE
  5
1DE
330
1F
100
AcDbEntity
  8
0-4_枠
  6
Continuous
 62
    92
370
    13
100
AcDbLine
 10
-1058.251547318108
 20
2159.999683277027
 30
0.0
 11
-1004.251547318102
 21
2159.999683277027
 31
0.0
  0
LINE
  5
1DF
330
1F
100
AcDbEntity
  8
0-4_枠
  6
Continuous
 62
    92
370
    13
100
AcDbLine
 10
-1058.251547318108
 20
2159.999683277027
 30
0.0
 11
-1058.251547318108
 21
2099.999683277027
 31
0.0
  0
LINE
  5
1E0
330
1F
100
AcDbEntity
  8
0-4_枠
  6
Continuous
 62
    92
370
    13
100
AcDbLine
 10
-998.2515473181079
 20
2408.999683277028
 30
0.0
 11
-998.2515473181079
 21
2423.999683277028
 31
0.0
  0
LINE
  5
1E1
330
1F
100
AcDbEntity
  8
0-4_枠
  6
Continuous
 62
    92
370
    13
100
AcDbLine
 10
-1070.251547318107
 20
2408.999683277028
 30
0.0
 11
-1070.251547318107
 21
2423.999683277028
 31
0.0
  0
LINE
  5
1E2
330
1F
100
AcDbEntity
  8
0-4_枠
  6
Continuous
 62
    92
370
    13
100
AcDbLine
 10
-998.2515473181079
 20
2408.999683277028
 30
0.0
 11
-1070.251547318107
 21
2408.999683277028
 31
0.0
  0
LINE
  5
1E3
330
1F
100
AcDbEntity
  8
0-4_枠
  6
Continuous
 62
    92
370
    13
100
AcDbLine
 10
-1121.251547318109
 20
2363.999683277028
 30
0.0
 11
-1124.251547318106
 21
2363.999683277028
 31
0.0
  0
LINE
  5
1E4
330
1F
100
AcDbEntity
  8
0-4_枠
  6
Continuous
 62
    92
370
    13
100
AcDbLine
 10
-1124.251547318106
 20
2099.999683277027
 30
0.0
 11
-1124.251547318106
 21
2423.999683277028
 31
0.0
  0
LINE
  5
1E5
330
1F
100
AcDbEntity
  8
0-4_枠
  6
Continuous
 62
    92
370
    13
100
AcDbLine
 10
-1070.251547318107
 20
2423.999683277028
 30
0.0
 11
-1124.251547318106
 21
2423.999683277028
 31
0.0
  0
LINE
  5
1E6
330
1F
100
AcDbEntity
  8
0-4_枠
  6
Continuous
 62
    92
370
    13
100
AcDbLine
 10
-1070.251547318107
 20
2420.999683277028
 30
0.0
 11
-1121.251547318109
 21
2420.999683277028
 31
0.0
  0
LINE
  5
1E7
330
1F
100
AcDbEntity
  8
0-4_枠
  6
Continuous
 62
    92
370
    13
100
AcDbLine
 10
-1121.251547318109
 20
2363.999683277028
 30
0.0
 11
-1121.251547318109
 21
2420.999683277028
 31
0.0
  0
LINE
  5
1E8
330
1F
100
AcDbEntity
  8
0-4_枠
  6
Continuous
 62
    92
370
    13
100
AcDbLine
 10
-998.2515473181079
 20
2423.999683277028
 30
0.0
 11
-944.2515473181024
 21
2423.999683277028
 31
0.0
  0
LINE
  5
1E9
330
1F
100
AcDbEntity
  8
0-4_枠
  6
Continuous
 62
    92
370
    13
100
AcDbLine
 10
-998.2515473181079
 20
2420.999683277028
 30
0.0
 11
-947.2515473181065
 21
2420.999683277028
 31
0.0
  0
LINE
  5
1EA
330
1F
100
AcDbEntity
  8
0-4_枠
  6
Continuous
 62
    92
370
    13
100
AcDbLine
 10
-944.2515473181024
 20
2423.999683277028
 30
0.0
 11
-944.2515473181024
 21
2099.999683277027
 31
0.0
  0
LINE
  5
1EB
330
1F
100
AcDbEntity
  8
0-4_枠
  6
Continuous
 62
    92
370
    13
100
AcDbLine
 10
-947.2515473181065
 20
2420.999683277028
 30
0.0
 11
-947.2515473181065
 21
2102.999683277028
 31
0.0
  0
LINE
  5
1EC
330
1F
100
AcDbEntity
  8
ハッチ
  6
Continuous
 62
   120
370
     5
100
AcDbLine
 10
-1124.251547318106
 20
2316.507088233011
 30
0.0
 11
-1031.758952274084
 21
2408.999683277028
 31
0.0
  0
LINE
  5
1ED
330
1F
100
AcDbEntity
  8
ハッチ
  6
Continuous
 62
   120
370
     5
100
AcDbLine
 10
-1124.251547318106
 20
2257.110118613359
 30
0.0
 11
-960.3619826544391
 21
2420.999683277028
 31
0.0
  0
LINE
  5
1EE
330
1F
100
AcDbEntity
  8
ハッチ
  6
Continuous
 62
   120
370
     5
100
AcDbLine
 10
-1124.251547318106
 20
2197.713148993657
 30
0.0
 11
-947.2515473181065
 21
2374.713148993654
 31
0.0
  0
LINE
  5
1EF
330
1F
100
AcDbEntity
  8
ハッチ
  6
Continuous
 62
   120
370
     5
100
AcDbLine
 10
-1004.251547318102
 20
2139.522240134666
 30
0.0
 11
-947.2515473181065
 21
2196.52224013466
 31
0.0
  0
LINE
  5
1F0
330
1F
100
AcDbEntity
  8
ハッチ
  6
Continuous
 62
   120
370
     5
100
AcDbLine
 10
-1043.171073795384
 20
2159.999683277027
 30
0.0
 11
-947.2515473181065
 21
2255.919209754305
 31
0.0
  0
LINE
  5
1F1
330
1F
100
AcDbEntity
  8
ハッチ
  6
Continuous
 62
   120
370
     5
100
AcDbLine
 10
-1124.251547318106
 20
2138.31617937401
 30
0.0
 11
-947.2515473181065
 21
2315.316179374007
 31
0.0
  0
LINE
  5
1F2
330
1F
100
AcDbEntity
  8
ハッチ
  6
Continuous
 62
   120
370
     5
100
AcDbLine
 10
-981.3771345560908
 20
2102.999683277028
 30
0.0
 11
-947.2515473181065
 21
2137.125270515014
 31
0.0
  0
LINE
  5
1F3
330
1F
100
AcDbEntity
  8
ハッチ
  6
Continuous
 62
   120
370
     5
100
AcDbLine
 10
-1103.171073795391
 20
2099.999683277027
 30
0.0
 11
-1058.251547318108
 21
2144.919209754308
 31
0.0
  0
LINE
  5
1F4
330
1F
100
AcDbEntity
  8
ハッチ
  6
Continuous
 62
   120
370
     5
100
AcDbLine
 10
-1121.251547318109
 20
2378.904057852651
 30
0.0
 11
-1079.155921893735
 21
2420.999683277028
 31
0.0
  0
LINE
  5
1F5
330
1F
100
AcDbEntity
  8
0-B_寸法
  6
Continuous
 62
   120
370
     5
100
AcDbLine
 10
-2060.421637479531
 20
1568.999683277027
 30
0.0
 11
-1124.251547318106
 21
1568.999683277027
 31
0.0
  0
LWPOLYLINE
  5
1F6
330
1F
100
AcDbEntity
  8
0-B_寸法
  6
Continuous
 62
     7
370
     9
100
AcDbPolyline
 90
        4
 70
     1
 43
3.0
 10
-2058.921637479531
 20
1568.999683277027
 42
0.4142135623731
 10
-2060.421637479531
 20
1570.499683277027
 42
0.4142135623731
 10
-2061.921637479531
 20
1568.999683277027
 42
0.4142135623731
 10
-2060.421637479531
 20
1567.499683277028
 42
0.4142135623731
  0
LWPOLYLINE
  5
1F7
330
1F
100
AcDbEntity
  8
0-B_寸法
  6
Continuous
 62
     7
370
     9
100
AcDbPolyline
 90
        4
 70
     1
 43
3.0
 10
-1122.751547318106
 20
1568.999683277027
 42
0.4142135623731
 10
-1124.251547318106
 20
1570.499683277027
 42
0.4142135623731
 10
-1125.751547318106
 20
1568.999683277027
 42
0.4142135623731
 10
-1124.251547318106
 20
1567.499683277028
 42
0.4142135623731
  0
LINE
  5
1F8
330
1F
100
AcDbEntity
  8
0-B_寸法
  6
Continuous
 62
   120
370
     5
100
AcDbLine
 10
-2060.421637479531
 20
1358.999683277027
 30
0.0
 11
-2060.421637479531
 21
1928.999683277027
 31
0.0
  0
LINE
  5
1F9
330
1F
100
AcDbEntity
  8
0-B_寸法
  6
Continuous
 62
   120
370
     5
100
AcDbLine
 10
-1124.251547318106
 20
1568.999683277027
 30
0.0
 11
-1124.251547318106
 21
1928.999683277027
 31
0.0
  0
LINE
  5
1FA
330
1F
100
AcDbEntity
  8
0-B_寸法
  6
Continuous
 62
   120
370
     5
100
AcDbLine
 10
-1124.251547318106
 20
1568.999683277027
 30
0.0
 11
-944.2515473181024
 21
1568.999683277027
 31
0.0
  0
LWPOLYLINE
  5
1FB
330
1F
100
AcDbEntity
  8
0-B_寸法
  6
Continuous
 62
     7
370
     9
100
AcDbPolyline
 90
        4
 70
     1
 43
3.0
 10
-942.7515473181023
 20
1568.999683277027
 42
0.4142135623731
 10
-944.2515473181024
 20
1570.499683277027
 42
0.4142135623731
 10
-945.7515473181024
 20
1568.999683277027
 42
0.4142135623731
 10
-944.2515473181024
 20
1567.499683277028
 42
0.4142135623731
  0
LINE
  5
1FC
330
1F
100
AcDbEntity
  8
0-B_寸法
  6
Continuous
 62
   120
370
     5
100
AcDbLine
 10
-944.2515473181024
 20
1568.999683277027
 30
0.0
 11
-944.2515473181024
 21
1928.999683277027
 31
0.0
  0
LINE
  5
1FD
330
1F
100
AcDbEntity
  8
0-B_寸法
  6
Continuous
 62
   120
370
     5
100
AcDbLine
 10
-944.2515473181024
 20
1568.999683277027
 30
0.0
 11
964.0886330047365
 21
1568.999683277027
 31
0.0
  0
LWPOLYLINE
  5
1FE
330
1F
100
AcDbEntity
  8
0-B_寸法
  6
Continuous
 62
     7
370
     9
100
AcDbPolyline
 90
        4
 70
     1
 43
3.0
 10
965.5886330047365
 20
1568.999683277027
 42
0.4142135623731
 10
964.0886330047365
 20
1570.499683277027
 42
0.4142135623731
 10
962.5886330047366
 20
1568.999683277027
 42
0.4142135623731
 10
964.0886330047365
 20
1567.499683277028
 42
0.4142135623731
  0
LINE
  5
1FF
330
1F
100
AcDbEntity
  8
0-B_寸法
  6
Continuous
 62
   120
370
     5
100
AcDbLine
 10
964.0886330047365
 20
1568.999683277027
 30
0.0
 11
964.0886330047365
 21
1928.999683277027
 31
0.0
  0
LINE
  5
200
330
1F
100
AcDbEntity
  8
0-B_寸法
  6
Continuous
 62
   120
370
     5
100
AcDbLine
 10
964.0886330047365
 20
1568.999683277027
 30
0.0
 11
1144.088633004738
 21
1568.999683277027
 31
0.0
  0
LWPOLYLINE
  5
201
330
1F
100
AcDbEntity
  8
0-B_寸法
  6
Continuous
 62
     7
370
     9
100
AcDbPolyline
 90
        4
 70
     1
 43
3.0
 10
1145.588633004738
 20
1568.999683277027
 42
0.4142135623731
 10
1144.088633004738
 20
1570.499683277027
 42
0.4142135623731
 10
1142.588633004738
 20
1568.999683277027
 42
0.4142135623731
 10
1144.088633004738
 20
1567.499683277028
 42
0.4142135623731
  0
LINE
  5
202
330
1F
100
AcDbEntity
  8
0-B_寸法
  6
Continuous
 62
   120
370
     5
100
AcDbLine
 10
1144.088633004738
 20
1568.999683277027
 30
0.0
 11
1144.088633004738
 21
1928.999683277027
 31
0.0
  0
LINE
  5
203
330
1F
100
AcDbEntity
  8
0-B_寸法
  6
Continuous
 62
   120
370
     5
100
AcDbLine
 10
1144.088633004738
 20
1568.999683277027
 30
0.0
 11
2080.258723166164
 21
1568.999683277027
 31
0.0
  0
LWPOLYLINE
  5
204
330
1F
100
AcDbEntity
  8
0-B_寸法
  6
Continuous
 62
     7
370
     9
100
AcDbPolyline
 90
        4
 70
     1
 43
3.0
 10
2081.758723166164
 20
1568.999683277027
 42
0.4142135623731
 10
2080.258723166164
 20
1570.499683277027
 42
0.4142135623731
 10
2078.758723166164
 20
1568.999683277027
 42
0.4142135623731
 10
2080.258723166164
 20
1567.499683277028
 42
0.4142135623731
  0
LINE
  5
205
330
1F
100
AcDbEntity
  8
0-B_寸法
  6
Continuous
 62
   120
370
     5
100
AcDbLine
 10
2080.258723166164
 20
1358.999683277027
 30
0.0
 11
2080.258723166164
 21
1928.999683277027
 31
0.0
  0
LINE
  5
206
330
1F
100
AcDbEntity
  8
0-B_寸法
  6
Continuous
 62
   120
370
     5
100
AcDbLine
 10
-2240.421637479531
 20
1358.999683277027
 30
0.0
 11
-2060.421637479531
 21
1358.999683277027
 31
0.0
  0
LWPOLYLINE
  5
207
330
1F
100
AcDbEntity
  8
0-B_寸法
  6
Continuous
 62
     7
370
     9
100
AcDbPolyline
 90
        4
 70
     1
 43
3.0
 10
-2238.921637479531
 20
1358.999683277027
 42
0.4142135623731
 10
-2240.421637479531
 20
1360.499683277027
 42
0.4142135623731
 10
-2241.921637479531
 20
1358.999683277027
 42
0.4142135623731
 10
-2240.421637479531
 20
1357.499683277028
 42
0.4142135623731
  0
LWPOLYLINE
  5
208
330
1F
100
AcDbEntity
  8
0-B_寸法
  6
Continuous
 62
     7
370
     9
100
AcDbPolyline
 90
        4
 70
     1
 43
3.0
 10
-2058.921637479531
 20
1358.999683277027
 42
0.4142135623731
 10
-2060.421637479531
 20
1360.499683277027
 42
0.4142135623731
 10
-2061.921637479531
 20
1358.999683277027
 42
0.4142135623731
 10
-2060.421637479531
 20
1357.499683277028
 42
0.4142135623731
  0
LINE
  5
209
330
1F
100
AcDbEntity
  8
0-B_寸法
  6
Continuous
 62
   120
370
     5
100
AcDbLine
 10
-2240.421637479531
 20
1148.999683277027
 30
0.0
 11
-2240.421637479531
 21
1928.999683277027
 31
0.0
  0
LINE
  5
20A
330
1F
100
AcDbEntity
  8
0-B_寸法
  6
Continuous
 62
   120
370
     5
100
AcDbLine
 10
-2060.421637479531
 20
1358.999683277027
 30
0.0
 11
2080.258723166164
 21
1358.999683277027
 31
0.0
  0
LWPOLYLINE
  5
20B
330
1F
100
AcDbEntity
  8
0-B_寸法
  6
Continuous
 62
     7
370
     9
100
AcDbPolyline
 90
        4
 70
     1
 43
3.0
 10
2081.758723166164
 20
1358.999683277027
 42
0.4142135623731
 10
2080.258723166164
 20
1360.499683277027
 42
0.4142135623731
 10
2078.758723166164
 20
1358.999683277027
 42
0.4142135623731
 10
2080.258723166164
 20
1357.499683277028
 42
0.4142135623731
  0
LINE
  5
20C
330
1F
100
AcDbEntity
  8
0-B_寸法
  6
Continuous
 62
   120
370
     5
100
AcDbLine
 10
2080.258723166164
 20
1358.999683277027
 30
0.0
 11
2260.258723166164
 21
1358.999683277027
 31
0.0
  0
LWPOLYLINE
  5
20D
330
1F
100
AcDbEntity
  8
0-B_寸法
  6
Continuous
 62
     7
370
     9
100
AcDbPolyline
 90
        4
 70
     1
 43
3.0
 10
2261.758723166164
 20
1358.999683277027
 42
0.4142135623731
 10
2260.258723166164
 20
1360.499683277027
 42
0.4142135623731
 10
2258.758723166164
 20
1358.999683277027
 42
0.4142135623731
 10
2260.258723166164
 20
1357.499683277028
 42
0.4142135623731
  0
LINE
  5
20E
330
1F
100
AcDbEntity
  8
0-B_寸法
  6
Continuous
 62
   120
370
     5
100
AcDbLine
 10
2260.258723166164
 20
1148.999683277027
 30
0.0
 11
2260.258723166164
 21
1928.999683277027
 31
0.0
  0
LINE
  5
20F
330
1F
100
AcDbEntity
  8
0-B_寸法
  6
Continuous
 62
   120
370
     5
100
AcDbLine
 10
-2270.338200311377
 20
1148.999683277027
 30
0.0
 11
-2240.421637479531
 21
1148.999683277027
 31
0.0
  0
LWPOLYLINE
  5
210
330
1F
100
AcDbEntity
  8
0-B_寸法
  6
Continuous
 62
     7
370
     9
100
AcDbPolyline
 90
        4
 70
     1
 43
3.0
 10
-2268.838200311377
 20
1148.999683277027
 42
0.4142135623731
 10
-2270.338200311377
 20
1150.499683277027
 42
0.4142135623731
 10
-2271.838200311377
 20
1148.999683277027
 42
0.4142135623731
 10
-2270.338200311377
 20
1147.499683277028
 42
0.4142135623731
  0
LWPOLYLINE
  5
211
330
1F
100
AcDbEntity
  8
0-B_寸法
  6
Continuous
 62
     7
370
     9
100
AcDbPolyline
 90
        4
 70
     1
 43
3.0
 10
-2238.921637479531
 20
1148.999683277027
 42
0.4142135623731
 10
-2240.421637479531
 20
1150.499683277027
 42
0.4142135623731
 10
-2241.921637479531
 20
1148.999683277027
 42
0.4142135623731
 10
-2240.421637479531
 20
1147.499683277028
 42
0.4142135623731
  0
LINE
  5
212
330
1F
100
AcDbEntity
  8
0-B_寸法
  6
Continuous
 62
   120
370
     5
100
AcDbLine
 10
-2270.338200311377
 20
938.9996832770273
 30
0.0
 11
-2270.338200311377
 21
1928.999683277027
 31
0.0
  0
LINE
  5
213
330
1F
100
AcDbEntity
  8
0-B_寸法
  6
Continuous
 62
   120
370
     5
100
AcDbLine
 10
-2240.421637479531
 20
1148.999683277027
 30
0.0
 11
2260.258723166164
 21
1148.999683277027
 31
0.0
  0
LWPOLYLINE
  5
214
330
1F
100
AcDbEntity
  8
0-B_寸法
  6
Continuous
 62
     7
370
     9
100
AcDbPolyline
 90
        4
 70
     1
 43
3.0
 10
2261.758723166164
 20
1148.999683277027
 42
0.4142135623731
 10
2260.258723166164
 20
1150.499683277027
 42
0.4142135623731
 10
2258.758723166164
 20
1148.999683277027
 42
0.4142135623731
 10
2260.258723166164
 20
1147.499683277028
 42
0.4142135623731
  0
LINE
  5
215
330
1F
100
AcDbEntity
  8
0-B_寸法
  6
Continuous
 62
   120
370
     5
100
AcDbLine
 10
2260.258723166164
 20
1148.999683277027
 30
0.0
 11
2290.175285998009
 21
1148.999683277027
 31
0.0
  0
LWPOLYLINE
  5
216
330
1F
100
AcDbEntity
  8
0-B_寸法
  6
Continuous
 62
     7
370
     9
100
AcDbPolyline
 90
        4
 70
     1
 43
3.0
 10
2291.675285998009
 20
1148.999683277027
 42
0.4142135623731
 10
2290.175285998009
 20
1150.499683277027
 42
0.4142135623731
 10
2288.675285998009
 20
1148.999683277027
 42
0.4142135623731
 10
2290.175285998009
 20
1147.499683277028
 42
0.4142135623731
  0
LINE
  5
217
330
1F
100
AcDbEntity
  8
0-B_寸法
  6
Continuous
 62
   120
370
     5
100
AcDbLine
 10
2290.175285998009
 20
938.9996832770273
 30
0.0
 11
2290.175285998009
 21
1928.999683277027
 31
0.0
  0
LINE
  5
218
330
1F
100
AcDbEntity
  8
0-B_寸法
  6
Continuous
 62
   120
370
     5
100
AcDbLine
 10
-2270.338200311377
 20
938.9996832770273
 30
0.0
 11
2290.175285998009
 21
938.9996832770273
 31
0.0
  0
LWPOLYLINE
  5
219
330
1F
100
AcDbEntity
  8
0-B_寸法
  6
Continuous
 62
     7
370
     9
100
AcDbPolyline
 90
        4
 70
     1
 43
3.0
 10
-2268.838200311377
 20
938.9996832770273
 42
0.4142135623731
 10
-2270.338200311377
 20
940.4996832770274
 42
0.4142135623731
 10
-2271.838200311377
 20
938.9996832770273
 42
0.4142135623731
 10
-2270.338200311377
 20
937.4996832770273
 42
0.4142135623731
  0
LWPOLYLINE
  5
21A
330
1F
100
AcDbEntity
  8
0-B_寸法
  6
Continuous
 62
     7
370
     9
100
AcDbPolyline
 90
        4
 70
     1
 43
3.0
 10
2291.675285998009
 20
938.9996832770273
 42
0.4142135623731
 10
2290.175285998009
 20
940.4996832770274
 42
0.4142135623731
 10
2288.675285998009
 20
938.9996832770273
 42
0.4142135623731
 10
2290.175285998009
 20
937.4996832770273
 42
0.4142135623731
  0
LINE
  5
21B
330
1F
100
AcDbEntity
  8
ハッチ
  6
Continuous
 62
   120
370
     5
100
AcDbLine
 10
-2240.421637479531
 20
2326.724418609897
 30
0.0
 11
-2099.42163747953
 21
2467.724418609898
 31
0.0
  0
LINE
  5
21C
330
1F
100
AcDbEntity
  8
0-7_金物
  6
Continuous
 62
     7
370
     9
100
AcDbLine
 10
-2258.463390475205
 20
2463.407290896853
 30
0.0
 11
-2258.463390475205
 21
2643.407142432959
 31
0.0
  0
LINE
  5
21D
330
1F
100
AcDbEntity
  8
0-7_金物
  6
Continuous
 62
     7
370
     9
100
AcDbLine
 10
-2270.463726993363
 20
2643.407142432959
 30
0.0
 11
-2258.463390475205
 21
2643.407142432959
 31
0.0
  0
LINE
  5
21E
330
1F
100
AcDbEntity
  8
0-7_金物
  6
Continuous
 62
     7
370
     9
100
AcDbLine
 10
-2270.463726993363
 20
2463.407290896853
 30
0.0
 11
-2258.463390475205
 21
2463.407290896853
 31
0.0
  0
LINE
  5
21F
330
1F
100
AcDbEntity
  8
0-7_金物
  6
Continuous
 62
     7
370
     9
100
AcDbLine
 10
-2270.463726993363
 20
2463.407290896853
 30
0.0
 11
-2270.463726993363
 21
2643.407142432959
 31
0.0
  0
LINE
  5
220
330
1F
100
AcDbEntity
  8
0-7_金物
  6
Continuous
 62
     7
370
     9
100
AcDbLine
 10
-2258.463390475205
 20
2493.407389872782
 30
0.0
 11
-2246.463796276513
 21
2493.407389872782
 31
0.0
  0
LINE
  5
221
330
1F
100
AcDbEntity
  8
0-7_金物
  6
Continuous
 62
     7
370
     9
100
AcDbLine
 10
-2258.463390475205
 20
2613.407043457031
 30
0.0
 11
-2246.463796276513
 21
2613.407043457031
 31
0.0
  0
LINE
  5
222
330
1F
100
AcDbEntity
  8
0-7_金物
  6
Continuous
 62
     7
370
     9
100
AcDbLine
 10
-2246.463796276513
 20
2493.407389872782
 30
0.0
 11
-2246.463796276513
 21
2613.407043457031
 31
0.0
  0
LINE
  5
223
330
1F
100
AcDbEntity
  8
0-7_金物
  6
Continuous
 62
     7
370
     9
100
AcDbLine
 10
-2246.463796276513
 20
2607.40761751742
 30
0.0
 11
-2240.421637479531
 21
2607.40761751742
 31
0.0
  0
LINE
  5
224
330
1F
100
AcDbEntity
  8
0-7_金物
  6
Continuous
 62
     7
370
     9
100
AcDbLine
 10
-2246.463796276513
 20
2499.407558131861
 30
0.0
 11
-2240.421637479531
 21
2499.407558131861
 31
0.0
  0
LINE
  5
225
330
1F
100
AcDbEntity
  8
0-2_柱
  6
Continuous
 62
     7
370
     9
100
AcDbLine
 10
-2270.463726993363
 20
2123.999683277028
 30
0.0
 11
-2270.463726993363
 21
2753.999683277028
 31
0.0
  0
LINE
  5
226
330
1F
100
AcDbEntity
  8
0-2_柱
  6
Continuous
 62
     7
370
     9
100
AcDbLine
 10
-2432.463726993366
 20
2753.999683277028
 30
0.0
 11
-2432.463726993366
 21
2123.999683277028
 31
0.0
  0
LINE
  5
227
330
1F
100
AcDbEntity
  8
0-2_柱
  6
Continuous
 62
     7
370
     9
100
AcDbLine
 10
-2270.463726993363
 20
2753.999683277028
 30
0.0
 11
-2432.463726993366
 21
2753.999683277028
 31
0.0
  0
LINE
  5
228
330
1F
100
AcDbEntity
  8
0-2_柱
  6
Continuous
 62
     7
370
     9
100
AcDbLine
 10
-2270.463726993363
 20
2123.999683277028
 30
0.0
 11
-2108.463726993363
 21
2123.999683277028
 31
0.0
  0
LINE
  5
229
330
1F
100
AcDbEntity
  8
0-2_柱
  6
Continuous
 62
     7
370
     9
100
AcDbLine
 10
-2270.463726993363
 20
2123.999683277028
 30
0.0
 11
-2432.463726993366
 21
2753.999683277028
 31
0.0
  0
LINE
  5
22A
330
1F
100
AcDbEntity
  8
0-2_柱
  6
Continuous
 62
     7
370
     9
100
AcDbLine
 10
-2108.463726993363
 20
2123.999683277028
 30
0.0
 11
-2108.463726993363
 21
2303.999683277028
 31
0.0
  0
LINE
  5
22B
330
1F
100
AcDbEntity
  8
0-2_柱
  6
Continuous
 62
     7
370
     9
100
AcDbLine
 10
-2108.463726993363
 20
2303.999683277028
 30
0.0
 11
-2270.463726993363
 21
2303.999683277028
 31
0.0
  0
LINE
  5
22C
330
1F
100
AcDbEntity
  8
0-2_柱
  6
Continuous
 62
     7
370
     9
100
AcDbLine
 10
-2270.463726993363
 20
2303.999683277028
 30
0.0
 11
-2108.463726993363
 21
2123.999683277028
 31
0.0
  0
LINE
  5
22D
330
1F
100
AcDbEntity
  8
0-2_柱
  6
Continuous
 62
     7
370
     9
100
AcDbLine
 10
-2432.463726993366
 20
2123.999683277028
 30
0.0
 11
-2270.463726993363
 21
2123.999683277028
 31
0.0
  0
LINE
  5
22E
330
1F
100
AcDbEntity
  8
0-B_寸法
  6
Continuous
 62
   120
370
     5
100
AcDbLine
 10
-2060.421637479531
 20
3249.000227644636
 30
0.0
 11
-2060.421637479531
 21
2889.000227644636
 31
0.0
  0
LWPOLYLINE
  5
22F
330
1F
100
AcDbEntity
  8
0-B_寸法
  6
Continuous
 62
     7
370
     9
100
AcDbPolyline
 90
        4
 70
     1
 43
3.0
 10
-2058.921637479531
 20
3069.000227644636
 42
0.4142135623731
 10
-2060.421637479531
 20
3070.500227644636
 42
0.4142135623731
 10
-2061.921637479531
 20
3069.000227644636
 42
0.4142135623731
 10
-2060.421637479531
 20
3067.500227644636
 42
0.4142135623731
  0
LWPOLYLINE
  5
230
330
1F
100
AcDbEntity
  8
0-B_寸法
  6
Continuous
 62
     7
370
     9
100
AcDbPolyline
 90
        4
 70
     1
 43
3.0
 10
-2058.921637479531
 20
3249.000227644636
 42
0.4142135623731
 10
-2060.421637479531
 20
3250.500227644636
 42
0.4142135623731
 10
-2061.921637479531
 20
3249.000227644636
 42
0.4142135623731
 10
-2060.421637479531
 20
3247.500227644636
 42
0.4142135623731
  0
LINE
  5
231
330
1F
100
AcDbEntity
  8
0-B_寸法
  6
Continuous
 62
   120
370
     5
100
AcDbLine
 10
-2120.421637479531
 20
3069.000227644636
 30
0.0
 11
-2120.421637479531
 21
2889.000227644636
 31
0.0
  0
LWPOLYLINE
  5
232
330
1F
100
AcDbEntity
  8
0-B_寸法
  6
Continuous
 62
     7
370
     9
100
AcDbPolyline
 90
        4
 70
     1
 43
3.0
 10
-2118.921637479531
 20
3069.000227644636
 42
0.4142135623731
 10
-2120.421637479531
 20
3070.500227644636
 42
0.4142135623731
 10
-2121.921637479531
 20
3069.000227644636
 42
0.4142135623731
 10
-2120.421637479531
 20
3067.500227644636
 42
0.4142135623731
  0
LINE
  5
233
330
1F
100
AcDbEntity
  8
0-B_寸法
  6
Continuous
 62
   120
370
     5
100
AcDbLine
 10
-2174.42163747953
 20
3069.000227644636
 30
0.0
 11
-2174.42163747953
 21
2889.000227644636
 31
0.0
  0
LWPOLYLINE
  5
234
330
1F
100
AcDbEntity
  8
0-B_寸法
  6
Continuous
 62
     7
370
     9
100
AcDbPolyline
 90
        4
 70
     1
 43
3.0
 10
-2172.92163747953
 20
3069.000227644636
 42
0.4142135623731
 10
-2174.42163747953
 20
3070.500227644636
 42
0.4142135623731
 10
-2175.92163747953
 20
3069.000227644636
 42
0.4142135623731
 10
-2174.42163747953
 20
3067.500227644636
 42
0.4142135623731
  0
LINE
  5
235
330
1F
100
AcDbEntity
  8
0-B_寸法
  6
Continuous
 62
   120
370
     5
100
AcDbLine
 10
-2210.421637479531
 20
3069.000227644636
 30
0.0
 11
-2210.421637479531
 21
2889.000227644636
 31
0.0
  0
LWPOLYLINE
  5
236
330
1F
100
AcDbEntity
  8
0-B_寸法
  6
Continuous
 62
     7
370
     9
100
AcDbPolyline
 90
        4
 70
     1
 43
3.0
 10
-2208.921637479531
 20
3069.000227644636
 42
0.4142135623731
 10
-2210.421637479531
 20
3070.500227644636
 42
0.4142135623731
 10
-2211.921637479531
 20
3069.000227644636
 42
0.4142135623731
 10
-2210.421637479531
 20
3067.500227644636
 42
0.4142135623731
  0
LINE
  5
237
330
1F
100
AcDbEntity
  8
0-B_寸法
  6
Continuous
 62
   120
370
     5
100
AcDbLine
 10
-2240.421637479531
 20
3069.000227644636
 30
0.0
 11
-2060.421637479531
 21
3069.000227644636
 31
0.0
  0
LINE
  5
238
330
1F
100
AcDbEntity
  8
0-B_寸法
  6
Continuous
 62
   120
370
     5
100
AcDbLine
 10
-2240.421637479531
 20
3249.000227644636
 30
0.0
 11
-2240.421637479531
 21
2889.000227644636
 31
0.0
  0
LINE
  5
239
330
1F
100
AcDbEntity
  8
0-B_寸法
  6
Continuous
 62
   120
370
     5
100
AcDbLine
 10
-2240.421637479531
 20
3249.000227644636
 30
0.0
 11
-2060.421637479531
 21
3249.000227644636
 31
0.0
  0
LWPOLYLINE
  5
23A
330
1F
100
AcDbEntity
  8
0-B_寸法
  6
Continuous
 62
     7
370
     9
100
AcDbPolyline
 90
        4
 70
     1
 43
3.0
 10
-2238.921637479531
 20
3069.000227644636
 42
0.4142135623731
 10
-2240.421637479531
 20
3070.500227644636
 42
0.4142135623731
 10
-2241.921637479531
 20
3069.000227644636
 42
0.4142135623731
 10
-2240.421637479531
 20
3067.500227644636
 42
0.4142135623731
  0
LWPOLYLINE
  5
23B
330
1F
100
AcDbEntity
  8
0-B_寸法
  6
Continuous
 62
     7
370
     9
100
AcDbPolyline
 90
        4
 70
     1
 43
3.0
 10
-2238.921637479531
 20
3249.000227644636
 42
0.4142135623731
 10
-2240.421637479531
 20
3250.500227644636
 42
0.4142135623731
 10
-2241.921637479531
 20
3249.000227644636
 42
0.4142135623731
 10
-2240.421637479531
 20
3247.500227644636
 42
0.4142135623731
  0
LINE
  5
23C
330
1F
100
AcDbEntity
  8
0-6_扉
  6
JWW_DASHED2
 62
    40
370
    15
100
AcDbLine
 10
-1439.760187066054
 20
2642.999683277026
 30
0.0
 11
-944.2515473181074
 21
2642.999683277026
 31
0.0
  0
LINE
  5
23D
330
1F
100
AcDbEntity
  8
0-6_扉
  6
JWW_DASHED2
 62
    40
370
    15
100
AcDbLine
 10
-1439.760187066054
 20
2462.999683277026
 30
0.0
 11
-944.2515473181074
 21
2462.999683277026
 31
0.0
  0
LINE
  5
23E
330
1F
100
AcDbEntity
  8
0-6_扉
  6
JWW_DASHED2
 62
    40
370
    15
100
AcDbLine
 10
-2078.421637479529
 20
2642.999683277026
 30
0.0
 11
-1559.760187066054
 21
2642.999683277026
 31
0.0
  0
LINE
  5
23F
330
1F
100
AcDbEntity
  8
0-6_扉
  6
JWW_DASHED2
 62
    40
370
    15
100
AcDbLine
 10
-2078.421637479529
 20
2462.999683277026
 30
0.0
 11
-1559.760187066054
 21
2462.999683277026
 31
0.0
  0
LINE
  5
240
330
1F
100
AcDbEntity
  8
0-6_扉
  6
JWW_DASHED2
 62
    40
370
    15
100
AcDbLine
 10
964.0886330047383
 20
2642.999683277026
 30
0.0
 11
1561.218501188192
 21
2642.999683277026
 31
0.0
  0
LINE
  5
241
330
1F
100
AcDbEntity
  8
0-6_扉
  6
JWW_DASHED2
 62
    40
370
    15
100
AcDbLine
 10
964.0886330047383
 20
2462.999683277026
 30
0.0
 11
1561.218501188192
 21
2462.999683277026
 31
0.0
  0
LINE
  5
242
330
1F
100
AcDbEntity
  8
0-6_扉
  6
JWW_DASHED2
 62
    40
370
    15
100
AcDbLine
 10
1681.218501188192
 20
2642.999683277026
 30
0.0
 11
2098.258723166161
 21
2642.999683277026
 31
0.0
  0
LINE
  5
243
330
1F
100
AcDbEntity
  8
0-6_扉
  6
JWW_DASHED2
 62
    40
370
    15
100
AcDbLine
 10
1681.218501188192
 20
2462.999683277026
 30
0.0
 11
2098.258723166161
 21
2462.999683277026
 31
0.0
  0
LINE
  5
244
330
1F
100
AcDbEntity
  8
0-6_扉
  6
Continuous
 62
   200
370
    20
100
AcDbLine
 10
-1124.251547318107
 20
2642.999683277026
 30
0.0
 11
-515.7601876464103
 21
2642.999683277026
 31
0.0
  0
LINE
  5
245
330
1F
100
AcDbEntity
  8
0-6_扉
  6
Continuous
 62
   200
370
    20
100
AcDbLine
 10
-1124.251547318107
 20
2462.999683277026
 30
0.0
 11
-515.7601876464103
 21
2462.999683277026
 31
0.0
  0
LINE
  5
246
330
1F
100
AcDbEntity
  8
0-6_扉
  6
Continuous
 62
   200
370
    20
100
AcDbLine
 10
-395.7601876464102
 20
2642.999683277026
 30
0.0
 11
427.2414845952503
 21
2642.999683277026
 31
0.0
  0
LINE
  5
247
330
1F
100
AcDbEntity
  8
0-6_扉
  6
Continuous
 62
   200
370
    20
100
AcDbLine
 10
-395.7601876464102
 20
2462.999683277026
 30
0.0
 11
427.2414845952503
 21
2462.999683277026
 31
0.0
  0
LINE
  5
248
330
1F
100
AcDbEntity
  8
0-6_扉
  6
Continuous
 62
   200
370
    20
100
AcDbLine
 10
547.2414845952503
 20
2642.999683277026
 30
0.0
 11
1144.088633004738
 21
2642.999683277026
 31
0.0
  0
LINE
  5
249
330
1F
100
AcDbEntity
  8
0-4_枠
  6
Continuous
 62
   120
370
     5
100
AcDbLine
 10
-2096.421637479531
 20
2663.999683277028
 30
0.0
 11
-1559.760187066054
 21
2663.999683277028
 31
0.0
  0
LINE
  5
24A
330
1F
100
AcDbEntity
  8
0-4_枠
  6
Continuous
 62
   120
370
     5
100
AcDbLine
 10
-944.2515473181024
 20
2213.999683277028
 30
0.0
 11
-515.7601876464103
 21
2213.999683277028
 31
0.0
  0
LINE
  5
24B
330
1F
100
AcDbEntity
  8
0-4_枠
  6
Continuous
 62
   120
370
     5
100
AcDbLine
 10
-1439.760187066054
 20
2663.999683277028
 30
0.0
 11
-515.7601876464103
 21
2663.999683277028
 31
0.0
  0
LINE
  5
24C
330
1F
100
AcDbEntity
  8
0-4_枠
  6
Continuous
 62
   120
370
     5
100
AcDbLine
 10
-395.7601876464102
 20
2663.999683277028
 30
0.0
 11
427.2414845952503
 21
2663.999683277028
 31
0.0
  0
LINE
  5
24D
330
1F
100
AcDbEntity
  8
0-4_枠
  6
Continuous
 62
   120
370
     5
100
AcDbLine
 10
-395.7601876464102
 20
2213.999683277028
 30
0.0
 11
427.2414845952503
 21
2213.999683277028
 31
0.0
  0
LINE
  5
24E
330
1F
100
AcDbEntity
  8
0-4_枠
  6
Continuous
 62
   120
370
     5
100
AcDbLine
 10
547.2414845952503
 20
2213.999683277028
 30
0.0
 11
964.0886330047365
 21
2213.999683277028
 31
0.0
  0
LINE
  5
24F
330
1F
100
AcDbEntity
  8
0-4_枠
  6
Continuous
 62
   120
370
     5
100
AcDbLine
 10
547.2414845952503
 20
2663.999683277028
 30
0.0
 11
1561.218501188192
 21
2663.999683277028
 31
0.0
  0
LINE
  5
250
330
1F
100
AcDbEntity
  8
0-4_枠
  6
Continuous
 62
   120
370
     5
100
AcDbLine
 10
1681.218501188192
 20
2663.999683277028
 30
0.0
 11
2116.25872316616
 21
2663.999683277028
 31
0.0
  0
LINE
  5
251
330
1F
100
AcDbEntity
  8
0-0_補助線
  6
JWW_HOJO
 62
   120
370
     5
100
AcDbLine
 10
-2569.495794194035
 20
2957.999910917028
 30
0.0
 11
-2572.801562447447
 21
938.9996832770273
 31
0.0
  0
LINE
  5
252
330
1F
100
AcDbEntity
  8
0-0_補助線
  6
JWW_HOJO
 62
   120
370
     5
100
AcDbLine
 10
2590.21275519134
 20
938.9996832770273
 30
0.0
 11
2590.21275519134
 21
2957.999910917027
 31
0.0
  0
LINE
  5
253
330
1F
100
AcDbEntity
  8
0-0_補助線
  6
JWW_HOJO
 62
   120
370
     5
100
AcDbLine
 10
-2572.801562447447
 20
938.9996832770273
 30
0.0
 11
2590.21275519134
 21
938.9996832770273
 31
0.0
  0
MTEXT
  5
254
330
1F
100
AcDbEntity
  8
0-A_文字
  6
Continuous
 62
     7
370
     9
100
AcDbMText
 10
-2569.741276833838
 20
3414.786051699713
 30
0.0
 40
100.584
 41
660.0
 46
0.0
 71
     7
 72
     1
  1
{\fＭＳ ゴシック|b0|i0|c128|p49;■横断面図}
 73
     1
 44
1.0
  0
MTEXT
  5
255
330
1F
100
AcDbEntity
  8
0-B_寸法
  6
Continuous
 62
     7
370
   211
100
AcDbMText
 10
-2210.421365295727
 20
3249.720227644636
 30
0.0
 40
91.44
 41
120.0
 46
0.0
 71
     7
 72
     1
  1
{\fＭＳ ゴシック|b0|i0|c128|p49;30}
 73
     1
 44
1.0
  0
MTEXT
  5
256
330
1F
100
AcDbEntity
  8
0-B_寸法
  6
Continuous
 62
     7
370
   211
100
AcDbMText
 10
-2222.42144942527
 20
3069.720227644636
 30
0.0
 40
91.44
 41
60.0
 46
0.0
 71
     7
 72
     1
  1
{\fＭＳ ゴシック|b0|i0|c128|p49;6}
 73
     1
 44
1.0
  0
MTEXT
  5
257
330
1F
100
AcDbEntity
  8
0-B_寸法
  6
Continuous
 62
     7
370
   211
100
AcDbMText
 10
-2177.421652325921
 20
2931.680213256172
 30
0.0
 40
91.44
 41
60.0
 46
0.0
 71
     7
 72
     1
  1
{\fＭＳ ゴシック|b0|i0|c128|p49;9}
 73
     1
 44
1.0
  0
MTEXT
  5
258
330
1F
100
AcDbEntity
  8
0-B_寸法
  6
Continuous
 62
     7
370
     0
100
AcDbMText
 10
764.8603689435604
 20
2478.722340780722
 30
0.0
 40
91.44
 41
120.0
 46
0.0
 71
     7
 72
     1
  1
{\fＭＳ ゴシック|b0|i0|c128|p49;30}
 11
6.123031769111886E-17
 21
1.0
 31
0.0
 73
     1
 44
1.0
  0
MTEXT
  5
259
330
1F
100
AcDbEntity
  8
0-B_寸法
  6
Continuous
 62
     7
370
     0
100
AcDbMText
 10
-725.7601876464084
 20
2472.719683277029
 30
0.0
 40
91.43999999999998
 41
540.0
 46
0.0
 71
     7
 72
     1
  1
{\fＭＳ ゴシック|b0|i0|c128|p49;ＤＷ＝810}
 73
     1
 44
1.0
  0
MTEXT
  5
25A
330
1F
100
AcDbEntity
  8
0-B_寸法
  6
Continuous
 62
     7
370
   211
100
AcDbMText
 10
907.6549119951087
 20
2330.611747119484
 30
0.0
 40
91.44
 41
180.0
 46
0.0
 71
     7
 72
     1
  1
{\fＭＳ ゴシック|b0|i0|c128|p49;6.5}
 11
6.123031769111886E-17
 21
1.0
 31
0.0
 73
     1
 44
1.0
  0
MTEXT
  5
25B
330
1F
100
AcDbEntity
  8
0-B_寸法
  6
Continuous
 62
     7
370
   211
100
AcDbMText
 10
-1689.83659239882
 20
1573.529683277027
 30
0.0
 40
99.06
 41
195.0
 46
0.0
 71
     7
 72
     1
  1
{\fＭＳ ゴシック|b0|i0|c128|p49;777}
 73
     1
 44
1.0
  0
MTEXT
  5
25C
330
1F
100
AcDbEntity
  8
0-B_寸法
  6
Continuous
 62
     7
370
   211
100
AcDbMText
 10
-1098.001547318104
 20
1572.577183277027
 30
0.0
 40
97.15499999999999
 41
127.5
 46
0.0
 71
     7
 72
     1
  1
{\fＭＳ ゴシック|b0|i0|c128|p49;30}
 73
     1
 44
1.0
  0
MTEXT
  5
25D
330
1F
100
AcDbEntity
  8
0-B_寸法
  6
Continuous
 62
     7
370
   211
100
AcDbMText
 10
-627.581457156683
 20
1575.133893803343
 30
0.0
 40
102.2684210526316
 41
1275.0
 46
0.0
 71
     7
 72
     1
  1
{\fＭＳ ゴシック|b0|i0|c128|p49;有効開口寸法＝1,560}
 73
     1
 44
1.0
  0
MTEXT
  5
25E
330
1F
100
AcDbEntity
  8
0-B_寸法
  6
Continuous
 62
     7
370
   211
100
AcDbMText
 10
990.3386330047365
 20
1572.577183277027
 30
0.0
 40
97.15499999999999
 41
127.5
 46
0.0
 71
     7
 72
     1
  1
{\fＭＳ ゴシック|b0|i0|c128|p49;30}
 73
     1
 44
1.0
  0
MTEXT
  5
25F
330
1F
100
AcDbEntity
  8
0-B_寸法
  6
Continuous
 62
     7
370
   211
100
AcDbMText
 10
1514.673678085451
 20
1573.529683277027
 30
0.0
 40
99.06
 41
195.0
 46
0.0
 71
     7
 72
     1
  1
{\fＭＳ ゴシック|b0|i0|c128|p49;777}
 73
     1
 44
1.0
  0
MTEXT
  5
260
330
1F
100
AcDbEntity
  8
0-B_寸法
  6
Continuous
 62
     7
370
   211
100
AcDbMText
 10
-2214.171637479533
 20
1362.577183277027
 30
0.0
 40
97.15499999999999
 41
127.5
 46
0.0
 71
     7
 72
     1
  1
{\fＭＳ ゴシック|b0|i0|c128|p49;30}
 73
     1
 44
1.0
  0
MTEXT
  5
261
330
1F
100
AcDbEntity
  8
0-B_寸法
  6
Continuous
 62
     7
370
   211
100
AcDbMText
 10
-357.5814571566846
 20
1364.915137822482
 30
0.0
 40
101.8309090909091
 41
735.0
 46
0.0
 71
     7
 72
     1
  1
{\fＭＳ ゴシック|b0|i0|c128|p49;枠内＝3,174}
 73
     1
 44
1.0
  0
MTEXT
  5
262
330
1F
100
AcDbEntity
  8
0-B_寸法
  6
Continuous
 62
     7
370
   211
100
AcDbMText
 10
2106.508723166162
 20
1362.577183277027
 30
0.0
 40
97.15499999999999
 41
127.5
 46
0.0
 71
     7
 72
     1
  1
{\fＭＳ ゴシック|b0|i0|c128|p49;30}
 73
     1
 44
1.0
  0
MTEXT
  5
263
330
1F
100
AcDbEntity
  8
0-B_寸法
  6
Continuous
 62
     7
370
   211
100
AcDbMText
 10
-2228.421637479532
 20
1149.719683277027
 30
0.0
 40
91.44
 41
60.0
 46
0.0
 71
     7
 72
     1
  1
{\fＭＳ ゴシック|b0|i0|c128|p49;5}
 73
     1
 44
1.0
  0
MTEXT
  5
264
330
1F
100
AcDbEntity
  8
0-B_寸法
  6
Continuous
 62
     7
370
   211
100
AcDbMText
 10
-357.5814571566846
 20
1154.915137822482
 30
0.0
 40
101.8309090909091
 41
735.0
 46
0.0
 71
     7
 72
     1
  1
{\fＭＳ ゴシック|b0|i0|c128|p49;枠外＝3,234}
 73
     1
 44
1.0
  0
MTEXT
  5
265
330
1F
100
AcDbEntity
  8
0-B_寸法
  6
Continuous
 62
     7
370
   211
100
AcDbMText
 10
2188.258723166163
 20
1149.719683277027
 30
0.0
 40
91.44
 41
60.0
 46
0.0
 71
     7
 72
     1
  1
{\fＭＳ ゴシック|b0|i0|c128|p49;5}
 73
     1
 44
1.0
  0
MTEXT
  5
266
330
1F
100
AcDbEntity
  8
0-B_寸法
  6
Continuous
 62
     7
370
   211
100
AcDbMText
 10
-425.0814571566829
 20
944.995067892412
 30
0.0
 40
101.9907692307692
 41
870.0
 46
0.0
 71
     7
 72
     1
  1
{\fＭＳ ゴシック|b0|i0|c128|p49;ＲＯＷ＝3,244}
 73
     1
 44
1.0
  0
MTEXT
  5
267
330
1F
100
AcDbEntity
  8
F-A_文字
  6
Continuous
 62
     7
370
     9
100
AcDbMText
 10
5096.167700144058
 20
-4147.857012699985
 30
0.0
 40
74.295
 41
97.5
 46
0.0
 71
     7
 72
     1
  1
{\fＭＳ ゴシック|b0|i0|c128|p49;01}
 73
     1
 44
1.0
  0
MTEXT
  5
268
330
1F
100
AcDbEntity
  8
F-A_文字
  6
Continuous
 62
     7
370
     0
100
AcDbMText
 10
-5080.081323642279
 20
-4045.100769411724
 30
0.0
 40
79.7983333333333
 41
2827.5
 46
0.0
 71
     7
 72
     1
  1
{\fＭＳ ゴシック|b0|i0|c128|p49;ドレタス　引き分け戸　上吊りタイプ　調整枠　枠外W3,234}
 73
     1
 44
1.0
  0
MTEXT
  5
269
330
1F
100
AcDbEntity
  8
0-A_文字
  6
Continuous
 62
    92
370
    13
100
AcDbMText
 10
-5558.749495325861
 20
3758.93799395587
 30
0.0
 40
147.875625
 41
3105.0
 46
0.0
 71
     7
 72
     1
  1
{\fＭＳ ゴシック|b0|i0|c128|p49;引き分け戸　上吊りタイプ　調整枠}
 73
     1
 44
1.0
  0
LINE
  5
26A
330
1F
100
AcDbEntity
  8
0-A_文字
  6
Continuous
 62
    92
370
    13
100
AcDbLine
 10
-5659.999495325861
 20
3730.00018145587
 30
0.0
 11
-2371.428571428571
 21
3730.00018145587
 31
0.0
  0
LINE
  5
26B
330
1F
100
AcDbEntity
  8
0-A_文字
  6
Continuous
 62
    92
370
    13
100
AcDbLine
 10
-5659.999495325861
 20
4000.00018145587
 30
0.0
 11
-2371.428571428571
 21
4000.00018145587
 31
0.0
  0
LINE
  5
26C
330
1F
100
AcDbEntity
  8
0-A_文字
  6
Continuous
 62
    92
370
    13
100
AcDbLine
 10
-2371.428571428571
 20
3730.00018145587
 30
0.0
 11
-2371.428571428571
 21
4000.00018145587
 31
0.0
  0
LINE
  5
26D
330
1F
100
AcDbEntity
  8
0-B_寸法
  6
Continuous
 62
   120
370
     5
100
AcDbLine
 10
-3259.217896424575
 20
-2781.000403945509
 30
0.0
 11
-3139.217896424575
 21
-2781.000403945509
 31
0.0
  0
LWPOLYLINE
  5
26E
330
1F
100
AcDbEntity
  8
0-B_寸法
  6
Continuous
 62
     7
370
     9
100
AcDbPolyline
 90
        4
 70
     1
 43
3.0
 10
-3257.717896424575
 20
-2781.000403945509
 42
0.4142135623731
 10
-3259.217896424575
 20
-2779.500403945509
 42
0.4142135623731
 10
-3260.717896424575
 20
-2781.000403945509
 42
0.4142135623731
 10
-3259.217896424575
 20
-2782.500403945509
 42
0.4142135623731
  0
LINE
  5
26F
330
1F
100
AcDbEntity
  8
仕上げ
  6
Continuous
 62
     7
370
     9
100
AcDbLine
 10
-3853.217896424574
 20
-2790.000403945507
 30
0.0
 11
-2353.217896424574
 21
-2790.000403945507
 31
0.0
  0
LINE
  5
270
330
1F
100
AcDbEntity
  8
仕上げ
  6
Continuous
 62
     7
370
     9
100
AcDbLine
 10
-3853.217896424574
 20
-2817.00040394551
 30
0.0
 11
-2353.217896424574
 21
-2817.00040394551
 31
0.0
  0
LINE
  5
271
330
1F
100
AcDbEntity
  8
仕上げ
  6
Continuous
 62
     7
370
     9
100
AcDbLine
 10
-3853.217896424574
 20
-2808.00040394551
 30
0.0
 11
-2353.217896424574
 21
-2808.00040394551
 31
0.0
  0
LINE
  5
272
330
1F
100
AcDbEntity
  8
仕上げ
  6
Continuous
 62
     7
370
     9
100
AcDbLine
 10
-3853.217896424574
 20
-2799.000403945508
 30
0.0
 11
-2353.217896424574
 21
-2799.000403945508
 31
0.0
  0
LINE
  5
273
330
1F
100
AcDbEntity
  8
仕上げ
  6
Continuous
 62
     7
370
     9
100
AcDbLine
 10
-3853.217896424574
 20
-2835.000403945507
 30
0.0
 11
-2353.217896424574
 21
-2835.000403945507
 31
0.0
  0
LINE
  5
274
330
1F
100
AcDbEntity
  8
仕上げ
  6
Continuous
 62
     7
370
     9
100
AcDbLine
 10
-3853.217896424574
 20
-2844.000403945508
 30
0.0
 11
-2353.217896424574
 21
-2844.000403945508
 31
0.0
  0
LINE
  5
275
330
1F
100
AcDbEntity
  8
仕上げ
  6
Continuous
 62
    40
370
    15
100
AcDbLine
 10
-3853.217896424574
 20
-2853.00040394551
 30
0.0
 11
-2353.217896424574
 21
-2853.00040394551
 31
0.0
  0
LINE
  5
276
330
1F
100
AcDbEntity
  8
仕上げ
  6
Continuous
 62
    40
370
    15
100
AcDbLine
 10
-3853.217896424574
 20
-2781.000403945509
 30
0.0
 11
-2353.217896424574
 21
-2781.000403945509
 31
0.0
  0
LINE
  5
277
330
1F
100
AcDbEntity
  8
0-1_通り芯
  6
JWW_CENTER1
 62
   120
370
     5
100
AcDbLine
 10
-3867.562658936341
 20
-2853.000197951857
 30
0.0
 11
-1401.653542633548
 21
-2853.000197951857
 31
0.0
  0
LINE
  5
278
330
1F
100
AcDbEntity
  8
仕上げ
  6
Continuous
 62
     7
370
     9
100
AcDbLine
 10
-3853.217896424574
 20
-2826.000403945509
 30
0.0
 11
-2353.217896424574
 21
-2826.000403945509
 31
0.0
  0
LINE
  5
279
330
1F
100
AcDbEntity
  8
0-B_寸法
  6
Continuous
 62
   120
370
     5
100
AcDbLine
 10
-1513.217896424574
 20
-2781.000403945509
 30
0.0
 11
-2353.217896424574
 21
-2781.000403945509
 31
0.0
  0
LINE
  5
27A
330
1F
100
AcDbEntity
  8
0-B_寸法
  6
Continuous
 62
   120
370
     5
100
AcDbLine
 10
-1513.217896424574
 20
-2853.000197951857
 30
0.0
 11
-2353.217896424574
 21
-2853.000197951857
 31
0.0
  0
LWPOLYLINE
  5
27B
330
1F
100
AcDbEntity
  8
0-B_寸法
  6
Continuous
 62
     7
370
     9
100
AcDbPolyline
 90
        4
 70
     1
 43
3.0
 10
-1511.717896424574
 20
-2853.000197951857
 42
0.4142135623731
 10
-1513.217896424574
 20
-2851.500197951858
 42
0.4142135623731
 10
-1514.717896424574
 20
-2853.000197951857
 42
0.4142135623731
 10
-1513.217896424574
 20
-2854.500197951857
 42
0.4142135623731
  0
LWPOLYLINE
  5
27C
330
1F
100
AcDbEntity
  8
0-B_寸法
  6
Continuous
 62
     7
370
     9
100
AcDbPolyline
 90
        4
 70
     1
 43
3.0
 10
-1511.717896424574
 20
-2781.000403945509
 42
0.4142135623731
 10
-1513.217896424574
 20
-2779.500403945509
 42
0.4142135623731
 10
-1514.717896424574
 20
-2781.000403945509
 42
0.4142135623731
 10
-1513.217896424574
 20
-2782.500403945509
 42
0.4142135623731
  0
LWPOLYLINE
  5
27D
330
1F
100
AcDbEntity
  8
0-B_寸法
  6
Continuous
 62
     7
370
     9
100
AcDbPolyline
 90
        4
 70
     1
 43
3.0
 10
-1721.717896424574
 20
-2781.000403945509
 42
0.4142135623731
 10
-1723.217896424574
 20
-2779.500403945509
 42
0.4142135623731
 10
-1724.717896424574
 20
-2781.000403945509
 42
0.4142135623731
 10
-1723.217896424574
 20
-2782.500403945509
 42
0.4142135623731
  0
LINE
  5
27E
330
1F
100
AcDbEntity
  8
0-B_寸法
  6
Continuous
 62
   120
370
     5
100
AcDbLine
 10
-1933.217896424574
 20
-2730.00040394551
 30
0.0
 11
-2353.217896424574
 21
-2730.00040394551
 31
0.0
  0
LWPOLYLINE
  5
27F
330
1F
100
AcDbEntity
  8
0-B_寸法
  6
Continuous
 62
     7
370
     9
100
AcDbPolyline
 90
        4
 70
     1
 43
3.0
 10
-1931.717896424574
 20
-2730.00040394551
 42
0.4142135623731
 10
-1933.217896424574
 20
-2728.50040394551
 42
0.4142135623731
 10
-1934.717896424574
 20
-2730.00040394551
 42
0.4142135623731
 10
-1933.217896424574
 20
-2731.50040394551
 42
0.4142135623731
  0
LWPOLYLINE
  5
280
330
1F
100
AcDbEntity
  8
0-B_寸法
  6
Continuous
 62
     7
370
     9
100
AcDbPolyline
 90
        4
 70
     1
 43
3.0
 10
-1931.717896424574
 20
-2781.000403945509
 42
0.4142135623731
 10
-1933.217896424574
 20
-2779.500403945509
 42
0.4142135623731
 10
-1934.717896424574
 20
-2781.000403945509
 42
0.4142135623731
 10
-1933.217896424574
 20
-2782.500403945509
 42
0.4142135623731
  0
LINE
  5
281
330
1F
100
AcDbEntity
  8
0-B_寸法
  6
Continuous
 62
   120
370
     5
100
AcDbLine
 10
-2584.217896424575
 20
-2622.00040394551
 30
0.0
 11
-2704.217896424575
 21
-2622.00040394551
 31
0.0
  0
LINE
  5
282
330
1F
100
AcDbEntity
  8
0-B_寸法
  6
Continuous
 62
   120
370
     5
100
AcDbLine
 10
-2584.217896424575
 20
-2730.00040394551
 30
0.0
 11
-2704.217896424575
 21
-2730.00040394551
 31
0.0
  0
LWPOLYLINE
  5
283
330
1F
100
AcDbEntity
  8
0-B_寸法
  6
Continuous
 62
     7
370
     9
100
AcDbPolyline
 90
        4
 70
     1
 43
3.0
 10
-2582.717896424575
 20
-2622.00040394551
 42
0.4142135623731
 10
-2584.217896424575
 20
-2620.50040394551
 42
0.4142135623731
 10
-2585.717896424575
 20
-2622.00040394551
 42
0.4142135623731
 10
-2584.217896424575
 20
-2623.50040394551
 42
0.4142135623731
  0
LWPOLYLINE
  5
284
330
1F
100
AcDbEntity
  8
0-B_寸法
  6
Continuous
 62
     7
370
     9
100
AcDbPolyline
 90
        4
 70
     1
 43
3.0
 10
-2582.717896424575
 20
-2730.00040394551
 42
0.4142135623731
 10
-2584.217896424575
 20
-2728.50040394551
 42
0.4142135623731
 10
-2585.717896424575
 20
-2730.00040394551
 42
0.4142135623731
 10
-2584.217896424575
 20
-2731.50040394551
 42
0.4142135623731
  0
LINE
  5
285
330
1F
100
AcDbEntity
  8
0-B_寸法
  6
Continuous
 62
   120
370
     5
100
AcDbLine
 10
-2584.217896424575
 20
-2730.00040394551
 30
0.0
 11
-2584.217896424575
 21
-2622.00040394551
 31
0.0
  0
LINE
  5
286
330
1F
100
AcDbEntity
  8
0-A_文字
  6
Continuous
 62
     7
370
     9
100
AcDbLine
 10
-3759.830792424164
 20
-2728.118906012922
 30
0.0
 11
-3789.830792424163
 21
-2780.080430239987
 31
0.0
  0
LINE
  5
287
330
1F
100
AcDbEntity
  8
0-A_文字
  6
Continuous
 62
     7
370
     9
100
AcDbLine
 10
-3819.830792424164
 20
-2728.118906012922
 30
0.0
 11
-3759.830792424164
 21
-2728.118906012922
 31
0.0
  0
LINE
  5
288
330
1F
100
AcDbEntity
  8
0-A_文字
  6
Continuous
 62
     7
370
     9
100
AcDbLine
 10
-3819.830792424164
 20
-2728.118906012922
 30
0.0
 11
-3789.830792424164
 21
-2780.080430239987
 31
0.0
  0
LINE
  5
289
330
1F
100
AcDbEntity
  8
0-B_寸法
  6
Continuous
 62
   120
370
     5
100
AcDbLine
 10
-4063.217896424573
 20
-2853.000197951857
 30
0.0
 11
-3853.217896424574
 21
-2853.000197951857
 31
0.0
  0
LWPOLYLINE
  5
28A
330
1F
100
AcDbEntity
  8
0-B_寸法
  6
Continuous
 62
     7
370
     9
100
AcDbPolyline
 90
        4
 70
     1
 43
3.0
 10
-4061.717896424573
 20
-2853.000197951857
 42
0.4142135623731
 10
-4063.217896424573
 20
-2851.500197951858
 42
0.4142135623731
 10
-4064.717896424573
 20
-2853.000197951857
 42
0.4142135623731
 10
-4063.217896424573
 20
-2854.500197951857
 42
0.4142135623731
  0
LINE
  5
28B
330
1F
100
AcDbEntity
  8
ハッチ
  6
Continuous
 62
   120
370
     5
100
AcDbLine
 10
-2995.255570433153
 20
-2780.755824531724
 30
0.0
 11
-2980.457898897959
 21
-2765.958152996526
 31
0.0
  0
LINE
  5
28C
330
1F
100
AcDbEntity
  8
ハッチ
  6
Continuous
 62
   120
370
     5
100
AcDbLine
 10
-3020.955993969688
 20
-2781.000403945499
 30
0.0
 11
-3002.956591056964
 21
-2763.001001032779
 31
0.0
  0
LINE
  5
28D
330
1F
100
AcDbEntity
  8
ハッチ
  6
Continuous
 62
   120
370
     5
100
AcDbLine
 10
-2998.217896424581
 20
-2758.262306400391
 30
0.0
 11
-2980.217896424566
 21
-2740.262306400382
 31
0.0
  0
LINE
  5
28E
330
1F
100
AcDbEntity
  8
ハッチ
  6
Continuous
 62
   120
370
     5
100
AcDbLine
 10
-3046.411838092389
 20
-2781.000403945508
 30
0.0
 11
-3028.412435179676
 21
-2763.001001032789
 31
0.0
  0
LINE
  5
28F
330
1F
100
AcDbEntity
  8
ハッチ
  6
Continuous
 62
   120
370
     5
100
AcDbLine
 10
-2998.21789642457
 20
-2732.806462277686
 30
0.0
 11
-2980.217896424563
 21
-2714.806462277681
 31
0.0
  0
LINE
  5
290
330
1F
100
AcDbEntity
  8
ハッチ
  6
Continuous
 62
   120
370
     5
100
AcDbLine
 10
-3071.867682215091
 20
-2781.000403945511
 30
0.0
 11
-3053.868279302381
 21
-2763.001001032799
 31
0.0
  0
LINE
  5
291
330
1F
100
AcDbEntity
  8
ハッチ
  6
Continuous
 62
   120
370
     5
100
AcDbLine
 10
-2998.21789642456
 20
-2707.35061815498
 30
0.0
 11
-2980.217896424556
 21
-2689.350618154975
 31
0.0
  0
LINE
  5
292
330
1F
100
AcDbEntity
  8
ハッチ
  6
Continuous
 62
   120
370
     5
100
AcDbLine
 10
-2998.217896424567
 20
-2681.894774032236
 30
0.0
 11
-2980.21789642456
 21
-2663.894774032226
 31
0.0
  0
LINE
  5
293
330
1F
100
AcDbEntity
  8
ハッチ
  6
Continuous
 62
   120
370
     5
100
AcDbLine
 10
-3088.217896424575
 20
-2771.894774032241
 30
0.0
 11
-3079.324123425116
 21
-2763.001001032781
 31
0.0
  0
LINE
  5
294
330
1F
100
AcDbEntity
  8
0-7_金物
  6
Continuous
 62
     7
370
     9
100
AcDbLine
 10
-3008.717896424575
 20
-2730.00040394551
 30
0.0
 11
-3008.717896424575
 21
-2622.00040394551
 31
0.0
  0
LINE
  5
295
330
1F
100
AcDbEntity
  8
0-7_金物
  6
Continuous
 62
     7
370
     9
100
AcDbLine
 10
-3026.717896424575
 20
-2730.00040394551
 30
0.0
 11
-3008.717896424575
 21
-2730.00040394551
 31
0.0
  0
LINE
  5
296
330
1F
100
AcDbEntity
  8
0-7_金物
  6
Continuous
 62
     7
370
     9
100
AcDbLine
 10
-3026.717896424575
 20
-2736.000403945508
 30
0.0
 11
-3026.717896424575
 21
-2730.00040394551
 31
0.0
  0
LINE
  5
297
330
1F
100
AcDbEntity
  8
0-7_金物
  6
Continuous
 62
     7
370
     9
100
AcDbLine
 10
-3002.717896424573
 20
-2736.000403945508
 30
0.0
 11
-3002.717896424573
 21
-2628.00040394551
 31
0.0
  0
LINE
  5
298
330
1F
100
AcDbEntity
  8
0-7_金物
  6
Continuous
 62
     7
370
     9
100
AcDbLine
 10
-3002.717896424573
 20
-2736.000403945508
 30
0.0
 11
-3026.717896424575
 21
-2736.000403945508
 31
0.0
  0
LINE
  5
299
330
1F
100
AcDbEntity
  8
0-7_金物
  6
Continuous
 62
     7
370
     9
100
AcDbLine
 10
-2969.717896424574
 20
-2622.00040394551
 30
0.0
 11
-2969.717896424574
 21
-2730.00040394551
 31
0.0
  0
LINE
  5
29A
330
1F
100
AcDbEntity
  8
0-7_金物
  6
Continuous
 62
     7
370
     9
100
AcDbLine
 10
-2975.717896424575
 20
-2628.00040394551
 30
0.0
 11
-2975.717896424575
 21
-2736.000403945508
 31
0.0
  0
LINE
  5
29B
330
1F
100
AcDbEntity
  8
0-7_金物
  6
Continuous
 62
     7
370
     9
100
AcDbLine
 10
-3008.717896424575
 20
-2622.00040394551
 30
0.0
 11
-2969.717896424574
 21
-2622.00040394551
 31
0.0
  0
LINE
  5
29C
330
1F
100
AcDbEntity
  8
0-7_金物
  6
Continuous
 62
     7
370
     9
100
AcDbLine
 10
-2975.717896424575
 20
-2628.00040394551
 30
0.0
 11
-3002.717896424573
 21
-2628.00040394551
 31
0.0
  0
LINE
  5
29D
330
1F
100
AcDbEntity
  8
0-7_金物
  6
Continuous
 62
     7
370
     9
100
AcDbLine
 10
-2975.717896424575
 20
-2736.000403945508
 30
0.0
 11
-2951.717896424575
 21
-2736.000403945508
 31
0.0
  0
LINE
  5
29E
330
1F
100
AcDbEntity
  8
0-7_金物
  6
Continuous
 62
     7
370
     9
100
AcDbLine
 10
-2951.717896424575
 20
-2730.00040394551
 30
0.0
 11
-2951.717896424575
 21
-2736.000403945508
 31
0.0
  0
LINE
  5
29F
330
1F
100
AcDbEntity
  8
0-7_金物
  6
Continuous
 62
     7
370
     9
100
AcDbLine
 10
-2969.717896424574
 20
-2730.00040394551
 30
0.0
 11
-2951.717896424575
 21
-2730.00040394551
 31
0.0
  0
LINE
  5
2A0
330
1F
100
AcDbEntity
  8
0-7_金物
  6
Continuous
 62
    92
370
    13
100
AcDbLine
 10
-3088.217896424575
 20
-2763.000403945509
 30
0.0
 11
-3088.217896424575
 21
-2781.000403945508
 31
0.0
  0
LINE
  5
2A1
330
1F
100
AcDbEntity
  8
0-7_金物
  6
Continuous
 62
    92
370
    13
100
AcDbLine
 10
-3088.217896424575
 20
-2763.000403945509
 30
0.0
 11
-2998.217896424566
 21
-2763.000403945509
 31
0.0
  0
LINE
  5
2A2
330
1F
100
AcDbEntity
  8
0-7_金物
  6
Continuous
 62
    92
370
    13
100
AcDbLine
 10
-2998.217896424566
 20
-2661.000403945508
 30
0.0
 11
-2980.217896424566
 21
-2661.000403945508
 31
0.0
  0
LINE
  5
2A3
330
1F
100
AcDbEntity
  8
0-7_金物
  6
Continuous
 62
    92
370
    13
100
AcDbLine
 10
-2998.217896424566
 20
-2661.000403945508
 30
0.0
 11
-2998.217896424566
 21
-2763.000403945509
 31
0.0
  0
LINE
  5
2A4
330
1F
100
AcDbEntity
  8
0-7_金物
  6
Continuous
 62
    92
370
    13
100
AcDbLine
 10
-2998.217896424566
 20
-2781.000403945508
 30
0.0
 11
-3088.217896424575
 21
-2781.000403945508
 31
0.0
  0
LINE
  5
2A5
330
1F
100
AcDbEntity
  8
0-7_金物
  6
Continuous
 62
    92
370
    13
100
AcDbLine
 10
-2980.217896424566
 20
-2763.000403945509
 30
0.0
 11
-2980.217896424566
 21
-2661.000403945508
 31
0.0
  0
ARC
  5
2A6
330
1F
100
AcDbEntity
  8
0-7_金物
  6
Continuous
 62
    92
370
    13
100
AcDbCircle
 10
-2998.217896424566
 20
-2763.000403945509
 30
0.0
 40
18.0
100
AcDbArc
 50
270.0
 51
0.0
  0
LINE
  5
2A7
330
1F
100
AcDbEntity
  8
0-6_扉
  6
Continuous
 62
   200
370
    20
100
AcDbLine
 10
-2969.717896424574
 20
-2622.00040394551
 30
0.0
 11
-2969.717896424574
 21
-2730.00040394551
 31
0.0
  0
LINE
  5
2A8
330
1F
100
AcDbEntity
  8
0-6_扉
  6
Continuous
 62
   200
370
    20
100
AcDbLine
 10
-3008.717896424576
 20
-2622.00040394551
 30
0.0
 11
-3008.717896424576
 21
-2730.00040394551
 31
0.0
  0
LINE
  5
2A9
330
1F
100
AcDbEntity
  8
0-6_扉
  6
Continuous
 62
   200
370
    20
100
AcDbLine
 10
-2969.717896424574
 20
-2622.00040394551
 30
0.0
 11
-3008.717896424576
 21
-2622.00040394551
 31
0.0
  0
LINE
  5
2AA
330
1F
100
AcDbEntity
  8
0-6_扉
  6
Continuous
 62
   200
370
    20
100
AcDbLine
 10
-3008.717896424576
 20
-2730.00040394551
 30
0.0
 11
-3079.217896424575
 21
-2730.00040394551
 31
0.0
  0
LINE
  5
2AB
330
1F
100
AcDbEntity
  8
0-6_扉
  6
Continuous
 62
   200
370
    20
100
AcDbLine
 10
-2899.217896424575
 20
-2730.00040394551
 30
0.0
 11
-2969.717896424574
 21
-2730.00040394551
 31
0.0
  0
LWPOLYLINE
  5
2AC
330
1F
100
AcDbEntity
  8
0-B_寸法
  6
Continuous
 62
     7
370
     9
100
AcDbPolyline
 90
        4
 70
     1
 43
3.0
 10
-2974.217896424565
 20
-2532.000403945509
 42
0.4142135623731
 10
-2975.717896424565
 20
-2530.500403945509
 42
0.4142135623731
 10
-2977.217896424565
 20
-2532.000403945509
 42
0.4142135623731
 10
-2975.717896424565
 20
-2533.500403945509
 42
0.4142135623731
  0
LINE
  5
2AD
330
1F
100
AcDbEntity
  8
0-B_寸法
  6
Continuous
 62
   120
370
     5
100
AcDbLine
 10
-2975.717896424565
 20
-2532.000403945509
 30
0.0
 11
-2975.717896424565
 21
-2592.000403945509
 31
0.0
  0
LWPOLYLINE
  5
2AE
330
1F
100
AcDbEntity
  8
0-B_寸法
  6
Continuous
 62
     7
370
     9
100
AcDbPolyline
 90
        4
 70
     1
 43
3.0
 10
-3001.217896424565
 20
-2532.000403945509
 42
0.4142135623731
 10
-3002.717896424565
 20
-2530.500403945509
 42
0.4142135623731
 10
-3004.217896424565
 20
-2532.000403945509
 42
0.4142135623731
 10
-3002.717896424565
 20
-2533.500403945509
 42
0.4142135623731
  0
LINE
  5
2AF
330
1F
100
AcDbEntity
  8
0-B_寸法
  6
Continuous
 62
   120
370
     5
100
AcDbLine
 10
-3002.717896424565
 20
-2532.000403945509
 30
0.0
 11
-3002.717896424565
 21
-2592.000403945509
 31
0.0
  0
LINE
  5
2B0
330
1F
100
AcDbEntity
  8
0-B_寸法
  6
Continuous
 62
   120
370
     5
100
AcDbLine
 10
-3002.717896424565
 20
-2532.000403945509
 30
0.0
 11
-2975.717896424565
 21
-2532.000403945509
 31
0.0
  0
LINE
  5
2B1
330
1F
100
AcDbEntity
  8
0-B_寸法
  6
Continuous
 62
   120
370
     5
100
AcDbLine
 10
-3259.217896424575
 20
-2661.000403945509
 30
0.0
 11
-3139.217896424575
 21
-2661.000403945509
 31
0.0
  0
LWPOLYLINE
  5
2B2
330
1F
100
AcDbEntity
  8
0-B_寸法
  6
Continuous
 62
     7
370
     9
100
AcDbPolyline
 90
        4
 70
     1
 43
3.0
 10
-3257.717896424575
 20
-2661.000403945509
 42
0.4142135623731
 10
-3259.217896424575
 20
-2659.500403945509
 42
0.4142135623731
 10
-3260.717896424575
 20
-2661.000403945509
 42
0.4142135623731
 10
-3259.217896424575
 20
-2662.500403945509
 42
0.4142135623731
  0
LINE
  5
2B3
330
1F
100
AcDbEntity
  8
0-B_寸法
  6
Continuous
 62
   120
370
     5
100
AcDbLine
 10
-3259.217896424575
 20
-2781.000403945509
 30
0.0
 11
-3259.217896424575
 21
-2661.000403945509
 31
0.0
  0
LINE
  5
2B4
330
1F
100
AcDbEntity
  8
0-0_補助線
  6
JWW_HOJO
 62
   120
370
     5
100
AcDbLine
 10
-2638.217896424575
 20
-1491.00019795186
 30
0.0
 11
-3568.217896424576
 21
-1491.00019795186
 31
0.0
  0
LINE
  5
2B5
330
1F
100
AcDbEntity
  8
0-0_補助線
  6
JWW_HOJO
 62
   120
370
     5
100
AcDbLine
 10
-2638.217896424575
 20
-1611.00019795186
 30
0.0
 11
-3568.217896424576
 21
-1611.00019795186
 31
0.0
  0
LINE
  5
2B6
330
1F
100
AcDbEntity
  8
0-0_補助線
  6
JWW_HOJO
 62
   120
370
     5
100
AcDbLine
 10
-3139.217896424575
 20
-1611.00019795186
 30
0.0
 11
-3139.217896424575
 21
-2853.000197951857
 31
0.0
  0
LINE
  5
2B7
330
1F
100
AcDbEntity
  8
0-4_枠
  6
Continuous
 62
   120
370
     5
100
AcDbLine
 10
-2764.217896424575
 20
-1611.00019795186
 30
0.0
 11
-2764.217896424575
 21
-2781.000403945509
 31
0.0
  0
LINE
  5
2B8
330
1F
100
AcDbEntity
  8
0-4_枠
  6
Continuous
 62
   120
370
     5
100
AcDbLine
 10
-3442.217896424576
 20
-1611.00019795186
 30
0.0
 11
-3442.217896424576
 21
-2781.000403945509
 31
0.0
  0
LINE
  5
2B9
330
1F
100
AcDbEntity
  8
0-6_扉
  6
Continuous
 62
   200
370
    20
100
AcDbLine
 10
-3079.217896424575
 20
-1611.00019795186
 30
0.0
 11
-3079.217896424575
 21
-2730.00040394551
 31
0.0
  0
LINE
  5
2BA
330
1F
100
AcDbEntity
  8
0-6_扉
  6
Continuous
 62
   200
370
    20
100
AcDbLine
 10
-2899.217896424575
 20
-1611.00019795186
 30
0.0
 11
-2899.217896424575
 21
-2730.00040394551
 31
0.0
  0
LINE
  5
2BB
330
1F
100
AcDbEntity
  8
ハッチ
  6
Continuous
 62
   120
370
     5
100
AcDbLine
 10
-2942.717896424573
 20
-192.73525773279
 30
0.0
 11
-2902.982836643642
 21
-153.0001979518606
 31
0.0
  0
LINE
  5
2BC
330
1F
100
AcDbEntity
  8
ハッチ
  6
Continuous
 62
   120
370
     5
100
AcDbLine
 10
-3399.673312226792
 20
-183.0001979518593
 30
0.0
 11
-3369.673312226784
 21
-153.0001979518538
 31
0.0
  0
LINE
  5
2BD
330
1F
100
AcDbEntity
  8
ハッチ
  6
Continuous
 62
   120
370
     5
100
AcDbLine
 10
-2805.703616030098
 20
-183.0001979518593
 30
0.0
 11
-2775.703616030096
 21
-153.0001979518585
 31
0.0
  0
LINE
  5
2BE
330
1F
100
AcDbEntity
  8
ハッチ
  6
Continuous
 62
   120
370
     5
100
AcDbLine
 10
-3433.217896424588
 20
-174.1183752784575
 30
0.0
 11
-3412.099719097981
 21
-153.0001979518504
 31
0.0
  0
LINE
  5
2BF
330
1F
100
AcDbEntity
  8
ハッチ
  6
Continuous
 62
    92
370
    13
100
AcDbLine
 10
-2942.717896424573
 20
-153.0001979518606
 30
0.0
 11
-2942.717896424573
 21
-219.5144836661456
 31
0.0
  0
LINE
  5
2C0
330
1F
100
AcDbEntity
  8
0-B_寸法
  6
Continuous
 62
   120
370
     5
100
AcDbLine
 10
-1933.217896424574
 20
-333.0001979518606
 30
0.0
 11
-1933.217896424574
 21
-2781.000403945509
 31
0.0
  0
LINE
  5
2C1
330
1F
100
AcDbEntity
  8
0-1_通り芯
  6
JWW_CENTER1
 62
   120
370
     5
100
AcDbLine
 10
-4063.217896424573
 20
-105.0001979518599
 30
0.0
 11
-1401.653542633548
 21
-105.0001979518599
 31
0.0
  0
LINE
  5
2C2
330
1F
100
AcDbEntity
  8
0-B_寸法
  6
Continuous
 62
   120
370
     5
100
AcDbLine
 10
-1513.217896424574
 20
-105.0001979518599
 30
0.0
 11
-2353.217896424574
 21
-105.0001979518599
 31
0.0
  0
LINE
  5
2C3
330
1F
100
AcDbEntity
  8
0-B_寸法
  6
Continuous
 62
   120
370
     5
100
AcDbLine
 10
-1513.217896424574
 20
-153.0001979518606
 30
0.0
 11
-2353.217896424574
 21
-153.0001979518606
 31
0.0
  0
LWPOLYLINE
  5
2C4
330
1F
100
AcDbEntity
  8
0-B_寸法
  6
Continuous
 62
     7
370
     9
100
AcDbPolyline
 90
        4
 70
     1
 43
3.0
 10
-1511.717896424574
 20
-105.0001979518599
 42
0.4142135623731
 10
-1513.217896424574
 20
-103.5001979518599
 42
0.4142135623731
 10
-1514.717896424574
 20
-105.0001979518599
 42
0.4142135623731
 10
-1513.217896424574
 20
-106.5001979518599
 42
0.4142135623731
  0
LWPOLYLINE
  5
2C5
330
1F
100
AcDbEntity
  8
0-B_寸法
  6
Continuous
 62
     7
370
     9
100
AcDbPolyline
 90
        4
 70
     1
 43
3.0
 10
-1511.717896424574
 20
-153.0001979518606
 42
0.4142135623731
 10
-1513.217896424574
 20
-151.5001979518606
 42
0.4142135623731
 10
-1514.717896424574
 20
-153.0001979518606
 42
0.4142135623731
 10
-1513.217896424574
 20
-154.5001979518606
 42
0.4142135623731
  0
LINE
  5
2C6
330
1F
100
AcDbEntity
  8
0-B_寸法
  6
Continuous
 62
   120
370
     5
100
AcDbLine
 10
-1513.217896424574
 20
-153.0001979518606
 30
0.0
 11
-1513.217896424574
 21
-105.0001979518599
 31
0.0
  0
LINE
  5
2C7
330
1F
100
AcDbEntity
  8
0-B_寸法
  6
Continuous
 62
   120
370
     5
100
AcDbLine
 10
-1723.217896424574
 20
-153.0001979518606
 30
0.0
 11
-1723.217896424574
 21
-2781.000403945509
 31
0.0
  0
LINE
  5
2C8
330
1F
100
AcDbEntity
  8
0-B_寸法
  6
Continuous
 62
   120
370
     5
100
AcDbLine
 10
-1513.217896424574
 20
-153.0001979518606
 30
0.0
 11
-1513.217896424574
 21
-2853.000197951857
 31
0.0
  0
LINE
  5
2C9
330
1F
100
AcDbEntity
  8
0-B_寸法
  6
Continuous
 62
   120
370
     5
100
AcDbLine
 10
-1723.217896424574
 20
-333.0001979518606
 30
0.0
 11
-2353.217896424574
 21
-333.0001979518606
 31
0.0
  0
LWPOLYLINE
  5
2CA
330
1F
100
AcDbEntity
  8
0-B_寸法
  6
Continuous
 62
     7
370
     9
100
AcDbPolyline
 90
        4
 70
     1
 43
3.0
 10
-1721.717896424574
 20
-153.0001979518606
 42
0.4142135623731
 10
-1723.217896424574
 20
-151.5001979518606
 42
0.4142135623731
 10
-1724.717896424574
 20
-153.0001979518606
 42
0.4142135623731
 10
-1723.217896424574
 20
-154.5001979518606
 42
0.4142135623731
  0
LWPOLYLINE
  5
2CB
330
1F
100
AcDbEntity
  8
0-B_寸法
  6
Continuous
 62
     7
370
     9
100
AcDbPolyline
 90
        4
 70
     1
 43
3.0
 10
-1721.717896424574
 20
-333.0001979518606
 42
0.4142135623731
 10
-1723.217896424574
 20
-331.5001979518606
 42
0.4142135623731
 10
-1724.717896424574
 20
-333.0001979518606
 42
0.4142135623731
 10
-1723.217896424574
 20
-334.5001979518606
 42
0.4142135623731
  0
LWPOLYLINE
  5
2CC
330
1F
100
AcDbEntity
  8
0-B_寸法
  6
Continuous
 62
     7
370
     9
100
AcDbPolyline
 90
        4
 70
     1
 43
3.0
 10
-1931.717896424574
 20
-333.0001979518606
 42
0.4142135623731
 10
-1933.217896424574
 20
-331.5001979518606
 42
0.4142135623731
 10
-1934.717896424574
 20
-333.0001979518606
 42
0.4142135623731
 10
-1933.217896424574
 20
-334.5001979518606
 42
0.4142135623731
  0
LWPOLYLINE
  5
2CD
330
1F
100
AcDbEntity
  8
0-B_寸法
  6
Continuous
 62
     7
370
     9
100
AcDbPolyline
 90
        4
 70
     1
 43
3.0
 10
-1931.717896424574
 20
-414.0001979518598
 42
0.4142135623731
 10
-1933.217896424574
 20
-412.5001979518598
 42
0.4142135623731
 10
-1934.717896424574
 20
-414.0001979518598
 42
0.4142135623731
 10
-1933.217896424574
 20
-415.5001979518598
 42
0.4142135623731
  0
LINE
  5
2CE
330
1F
100
AcDbEntity
  8
0-B_寸法
  6
Continuous
 62
   120
370
     5
100
AcDbLine
 10
-1933.217896424574
 20
-414.0001979518598
 30
0.0
 11
-2353.217896424574
 21
-414.0001979518598
 31
0.0
  0
LINE
  5
2CF
330
1F
100
AcDbEntity
  8
0-B_寸法
  6
Continuous
 62
   120
370
     5
100
AcDbLine
 10
-2143.217896424574
 20
-414.0001979518598
 30
0.0
 11
-2143.217896424574
 21
-376.2001976672771
 31
0.0
  0
LWPOLYLINE
  5
2D0
330
1F
100
AcDbEntity
  8
0-B_寸法
  6
Continuous
 62
     7
370
     9
100
AcDbPolyline
 90
        4
 70
     1
 43
3.0
 10
-2141.717896424574
 20
-414.0001979518598
 42
0.4142135623731
 10
-2143.217896424574
 20
-412.5001979518598
 42
0.4142135623731
 10
-2144.717896424574
 20
-414.0001979518598
 42
0.4142135623731
 10
-2143.217896424574
 20
-415.5001979518598
 42
0.4142135623731
  0
LWPOLYLINE
  5
2D1
330
1F
100
AcDbEntity
  8
0-B_寸法
  6
Continuous
 62
     7
370
     9
100
AcDbPolyline
 90
        4
 70
     1
 43
3.0
 10
-2141.717896424574
 20
-376.2001976672771
 42
0.4142135623731
 10
-2143.217896424574
 20
-374.7001976672771
 42
0.4142135623731
 10
-2144.717896424574
 20
-376.2001976672771
 42
0.4142135623731
 10
-2143.217896424574
 20
-377.7001976672771
 42
0.4142135623731
  0
LINE
  5
2D2
330
1F
100
AcDbEntity
  8
0-B_寸法
  6
Continuous
 62
   120
370
     5
100
AcDbLine
 10
-2143.217896424574
 20
-376.2001976672771
 30
0.0
 11
-2353.217896424574
 21
-376.2001976672771
 31
0.0
  0
LINE
  5
2D3
330
1F
100
AcDbEntity
  8
0-4_枠
  6
Continuous
 62
    92
370
    13
100
AcDbLine
 10
-2902.817896424574
 20
-237.0001979518729
 30
0.0
 11
-2902.817896424574
 21
-333.0001979518606
 31
0.0
  0
LINE
  5
2D4
330
1F
100
AcDbEntity
  8
0-4_枠
  6
Continuous
 62
    92
370
    13
100
AcDbLine
 10
-2776.217896424575
 20
-330.0001979518607
 30
0.0
 11
-2902.817896424574
 21
-330.0001979518607
 31
0.0
  0
LINE
  5
2D5
330
1F
100
AcDbEntity
  8
0-4_枠
  6
Continuous
 62
    92
370
    13
100
AcDbLine
 10
-2773.217896424574
 20
-333.0001979518606
 30
0.0
 11
-2902.817896424574
 21
-333.0001979518606
 31
0.0
  0
LINE
  5
2D6
330
1F
100
AcDbEntity
  8
0-4_枠
  6
Continuous
 62
    92
370
    13
100
AcDbLine
 10
-3075.617896424574
 20
-237.0001979518729
 30
0.0
 11
-2902.817896424574
 21
-237.0001979518729
 31
0.0
  0
LINE
  5
2D7
330
1F
100
AcDbEntity
  8
0-4_枠
  6
Continuous
 62
    92
370
    13
100
AcDbLine
 10
-3075.617896424574
 20
-333.0001979518606
 30
0.0
 11
-3075.617896424574
 21
-237.0001979518729
 31
0.0
  0
LINE
  5
2D8
330
1F
100
AcDbEntity
  8
ハッチ
  6
Continuous
 62
   120
370
     5
100
AcDbLine
 10
-3122.409243514838
 20
-330.0001979518505
 30
0.0
 11
-3075.617896424574
 21
-283.2088508615894
 31
0.0
  0
LINE
  5
2D9
330
1F
100
AcDbEntity
  8
ハッチ
  6
Continuous
 62
   120
370
     5
100
AcDbLine
 10
-3079.982836643638
 20
-330.0001979518539
 30
0.0
 11
-3075.617896424574
 21
-325.6352577327894
 31
0.0
  0
LINE
  5
2DA
330
1F
100
AcDbEntity
  8
ハッチ
  6
Continuous
 62
   120
370
     5
100
AcDbLine
 10
-3164.835650386051
 20
-330.0001979518642
 30
0.0
 11
-3075.617896424574
 21
-240.7824439903894
 31
0.0
  0
LINE
  5
2DB
330
1F
100
AcDbEntity
  8
0-0_補助線
  6
JWW_HOJO
 62
   120
370
     5
100
AcDbLine
 10
-3139.217896424575
 20
-271.0983547663209
 30
0.0
 11
-3139.217896424575
 21
-1491.00019795186
 31
0.0
  0
LINE
  5
2DC
330
1F
100
AcDbEntity
  8
0-6_扉
  6
Continuous
 62
   200
370
    20
100
AcDbLine
 10
-2899.217896424575
 20
-414.0001979518607
 30
0.0
 11
-2899.217896424575
 21
-1491.00019795186
 31
0.0
  0
LINE
  5
2DD
330
1F
100
AcDbEntity
  8
0-6_扉
  6
Continuous
 62
   200
370
    20
100
AcDbLine
 10
-3079.217896424575
 20
-414.0001979518607
 30
0.0
 11
-2899.217896424575
 21
-414.0001979518607
 31
0.0
  0
LINE
  5
2DE
330
1F
100
AcDbEntity
  8
0-0_補助線
  6
Continuous
 62
     7
370
     9
100
AcDbLine
 10
-3079.218199693005
 20
-105.0001979518612
 30
0.0
 11
-3079.218199693005
 21
-117.0005355525693
 31
0.0
  0
LINE
  5
2DF
330
1F
100
AcDbEntity
  8
0-0_補助線
  6
Continuous
 62
     7
370
     9
100
AcDbLine
 10
-3079.218199693005
 20
-117.0005355525693
 30
0.0
 11
-2899.218337022106
 21
-117.0005355525693
 31
0.0
  0
LINE
  5
2E0
330
1F
100
AcDbEntity
  8
0-0_補助線
  6
Continuous
 62
     7
370
     9
100
AcDbLine
 10
-3049.218096696182
 20
-117.0005355525693
 30
0.0
 11
-3049.218096696182
 21
-129.0001292873119
 31
0.0
  0
LINE
  5
2E1
330
1F
100
AcDbEntity
  8
0-0_補助線
  6
Continuous
 62
     7
370
     9
100
AcDbLine
 10
-3043.217930756851
 20
-129.0001292873119
 30
0.0
 11
-3043.217930756851
 21
-153.0001979518606
 31
0.0
  0
LINE
  5
2E2
330
1F
100
AcDbEntity
  8
0-0_補助線
  6
Continuous
 62
     7
370
     9
100
AcDbLine
 10
-3049.218096696182
 20
-129.0001292873119
 30
0.0
 11
-2929.218440018936
 21
-129.0001292873119
 31
0.0
  0
LINE
  5
2E3
330
1F
100
AcDbEntity
  8
0-0_補助線
  6
Continuous
 62
     7
370
     9
100
AcDbLine
 10
-2935.2178620923
 20
-153.0001979518606
 30
0.0
 11
-2935.2178620923
 21
-129.0001292873119
 31
0.0
  0
LINE
  5
2E4
330
1F
100
AcDbEntity
  8
0-0_補助線
  6
Continuous
 62
     7
370
     9
100
AcDbLine
 10
-2929.218440018936
 20
-117.0005355525693
 30
0.0
 11
-2929.218440018936
 21
-129.0001292873119
 31
0.0
  0
LINE
  5
2E5
330
1F
100
AcDbEntity
  8
0-0_補助線
  6
Continuous
 62
     7
370
     9
100
AcDbLine
 10
-2899.218337022106
 20
-105.0001979518612
 30
0.0
 11
-2899.218337022106
 21
-117.0005355525693
 31
0.0
  0
LINE
  5
2E6
330
1F
100
AcDbEntity
  8
0-0_補助線
  6
Continuous
 62
     7
370
     0
100
AcDbLine
 10
-3080.42373428323
 20
-105.0001979518599
 30
0.0
 11
-2900.42373428323
 21
-105.0001979518599
 31
0.0
  0
LINE
  5
2E7
330
1F
100
AcDbEntity
  8
ハッチ
  6
Continuous
 62
   120
370
     5
100
AcDbLine
 10
-2934.703486675922
 20
-227.1472548553382
 30
0.0
 11
-2860.556429772449
 21
-153.0001979518649
 31
0.0
  0
LINE
  5
2E8
330
1F
100
AcDbEntity
  8
ハッチ
  6
Continuous
 62
   120
370
     5
100
AcDbLine
 10
-3071.835650386047
 20
-237.0001979518639
 30
0.0
 11
-3035.717896424574
 21
-200.8824439903894
 31
0.0
  0
LINE
  5
2E9
330
1F
100
AcDbEntity
  8
ハッチ
  6
Continuous
 62
   120
370
     5
100
AcDbLine
 10
-3207.262057257258
 20
-330.0001979518736
 30
0.0
 11
-3035.717896424574
 21
-158.4560371191928
 31
0.0
  0
LINE
  5
2EA
330
1F
100
AcDbEntity
  8
0-4_枠
  6
Continuous
 62
    92
370
    13
100
AcDbLine
 10
-3430.217896424577
 20
-330.0001979518607
 30
0.0
 11
-3075.622771908605
 21
-330.0001979518607
 31
0.0
  0
LINE
  5
2EB
330
1F
100
AcDbEntity
  8
ハッチ
  6
Continuous
 62
   120
370
     5
100
AcDbLine
 10
-2902.822771908605
 20
-322.5457607015666
 30
0.0
 11
-2817.277209158898
 21
-237.0001979518601
 31
0.0
  0
LINE
  5
2EC
330
1F
100
AcDbEntity
  8
ハッチ
  6
Continuous
 62
   120
370
     5
100
AcDbLine
 10
-2902.822771908605
 20
-280.1193538303692
 30
0.0
 11
-2833.217896424577
 21
-210.5144783463358
 31
0.0
  0
LINE
  5
2ED
330
1F
100
AcDbEntity
  8
ハッチ
  6
Continuous
 62
   120
370
     5
100
AcDbLine
 10
-2902.822771908605
 20
-237.6929469591657
 30
0.0
 11
-2818.13002290131
 21
-153.0001979518717
 31
0.0
  0
LINE
  5
2EE
330
1F
100
AcDbEntity
  8
ハッチ
  6
Continuous
 62
   120
370
     5
100
AcDbLine
 10
-3373.217896424574
 20
-198.9711890208413
 30
0.0
 11
-3327.246905355587
 21
-153.000197951858
 31
0.0
  0
LINE
  5
2EF
330
1F
100
AcDbEntity
  8
ハッチ
  6
Continuous
 62
   120
370
     5
100
AcDbLine
 10
-3430.217896424567
 20
-298.3975958920355
 30
0.0
 11
-3284.820498484391
 21
-153.000197951858
 31
0.0
  0
LINE
  5
2F0
330
1F
100
AcDbEntity
  8
ハッチ
  6
Continuous
 62
   120
370
     5
100
AcDbLine
 10
-3430.217896424577
 20
-255.9711890208466
 30
0.0
 11
-3411.246905355591
 21
-237.0001979518601
 31
0.0
  0
LINE
  5
2F1
330
1F
100
AcDbEntity
  8
ハッチ
  6
Continuous
 62
   120
370
     5
100
AcDbLine
 10
-2867.850802287709
 20
-330.000197951868
 30
0.0
 11
-2776.217896424575
 21
-238.3672920887369
 31
0.0
  0
LINE
  5
2F2
330
1F
100
AcDbEntity
  8
0-4_枠
  6
Continuous
 62
    92
370
    13
100
AcDbLine
 10
-2773.217896424574
 20
-183.0001979518593
 30
0.0
 11
-2773.217896424574
 21
-153.0001979518606
 31
0.0
  0
LINE
  5
2F3
330
1F
100
AcDbEntity
  8
0-4_枠
  6
Continuous
 62
    92
370
    13
100
AcDbLine
 10
-2773.217896424574
 20
-237.0001979518601
 30
0.0
 11
-2773.217896424574
 21
-333.0001979518606
 31
0.0
  0
LINE
  5
2F4
330
1F
100
AcDbEntity
  8
0-4_枠
  6
Continuous
 62
    92
370
    13
100
AcDbLine
 10
-2776.217896424575
 20
-237.0001979518601
 30
0.0
 11
-2776.217896424575
 21
-330.0001979518607
 31
0.0
  0
LINE
  5
2F5
330
1F
100
AcDbEntity
  8
0-4_枠
  6
Continuous
 62
    92
370
    13
100
AcDbLine
 10
-2833.217896424574
 20
-237.0001979518601
 30
0.0
 11
-2773.217896424574
 21
-237.0001979518601
 31
0.0
  0
LINE
  5
2F6
330
1F
100
AcDbEntity
  8
0-4_枠
  6
Continuous
 62
    92
370
    13
100
AcDbLine
 10
-2833.217896424574
 20
-183.0001979518593
 30
0.0
 11
-2833.217896424574
 21
-237.0001979518601
 31
0.0
  0
LINE
  5
2F7
330
1F
100
AcDbEntity
  8
0-4_枠
  6
Continuous
 62
    92
370
    13
100
AcDbLine
 10
-2833.217896424574
 20
-183.0001979518593
 30
0.0
 11
-2773.217896424574
 21
-183.0001979518593
 31
0.0
  0
LINE
  5
2F8
330
1F
100
AcDbEntity
  8
0-4_枠
  6
Continuous
 62
    92
370
    13
100
AcDbLine
 10
-3373.217896424574
 20
-237.0001979518601
 30
0.0
 11
-3433.217896424574
 21
-237.0001979518601
 31
0.0
  0
LINE
  5
2F9
330
1F
100
AcDbEntity
  8
0-4_枠
  6
Continuous
 62
    92
370
    13
100
AcDbLine
 10
-3433.217896424574
 20
-237.0001979518601
 30
0.0
 11
-3433.217896424574
 21
-333.0001979518606
 31
0.0
  0
LINE
  5
2FA
330
1F
100
AcDbEntity
  8
0-4_枠
  6
Continuous
 62
    92
370
    13
100
AcDbLine
 10
-3430.217896424577
 20
-237.0001979518601
 30
0.0
 11
-3430.217896424577
 21
-330.0001979518607
 31
0.0
  0
LINE
  5
2FB
330
1F
100
AcDbEntity
  8
0-4_枠
  6
Continuous
 62
    92
370
    13
100
AcDbLine
 10
-3373.217896424574
 20
-183.0001979518593
 30
0.0
 11
-3373.217896424574
 21
-237.0001979518601
 31
0.0
  0
LINE
  5
2FC
330
1F
100
AcDbEntity
  8
0-4_枠
  6
Continuous
 62
    92
370
    13
100
AcDbLine
 10
-3373.217896424574
 20
-183.0001979518593
 30
0.0
 11
-3433.217896424574
 21
-183.0001979518593
 31
0.0
  0
LINE
  5
2FD
330
1F
100
AcDbEntity
  8
0-4_枠
  6
Continuous
 62
    92
370
    13
100
AcDbLine
 10
-3433.217896424574
 20
-183.0001979518593
 30
0.0
 11
-3433.217896424574
 21
-153.0001979518606
 31
0.0
  0
LINE
  5
2FE
330
1F
100
AcDbEntity
  8
仕上げ
  6
Continuous
 62
    40
370
    15
100
AcDbLine
 10
-2788.217896424574
 20
-153.0001979518606
 30
0.0
 11
-2713.217896424574
 21
-153.0001979518606
 31
0.0
  0
LINE
  5
2FF
330
1F
100
AcDbEntity
  8
仕上げ
  6
Continuous
 62
    40
370
    15
100
AcDbLine
 10
-3493.217896424574
 20
-153.0001979518606
 30
0.0
 11
-3418.217896424574
 21
-153.0001979518606
 31
0.0
  0
LINE
  5
300
330
1F
100
AcDbEntity
  8
0-4_枠
  6
Continuous
 62
   120
370
     5
100
AcDbLine
 10
-2764.217896424575
 20
-153.0001979518606
 30
0.0
 11
-2764.217896424575
 21
-1491.00019795186
 31
0.0
  0
LINE
  5
301
330
1F
100
AcDbEntity
  8
0-4_枠
  6
Continuous
 62
   120
370
     5
100
AcDbLine
 10
-3442.217896424576
 20
-153.0001979518606
 30
0.0
 11
-3442.217896424576
 21
-1491.00019795186
 31
0.0
  0
LINE
  5
302
330
1F
100
AcDbEntity
  8
0-4_枠
  6
Continuous
 62
   120
370
     5
100
AcDbLine
 10
-2773.217896424574
 20
-153.0001979518606
 30
0.0
 11
-2764.217896424575
 21
-153.0001979518606
 31
0.0
  0
LINE
  5
303
330
1F
100
AcDbEntity
  8
0-4_枠
  6
Continuous
 62
   120
370
     5
100
AcDbLine
 10
-3433.217896424574
 20
-153.0001979518606
 30
0.0
 11
-3442.217896424576
 21
-153.0001979518606
 31
0.0
  0
LINE
  5
304
330
1F
100
AcDbEntity
  8
0-4_枠
  6
Continuous
 62
    92
370
    13
100
AcDbLine
 10
-2773.217896424574
 20
-153.0001979518606
 30
0.0
 11
-3433.217896424574
 21
-153.0001979518606
 31
0.0
  0
LINE
  5
305
330
1F
100
AcDbEntity
  8
ハッチ
  6
Continuous
 62
   120
370
     5
100
AcDbLine
 10
-2782.997988545299
 20
-330.0001979518634
 30
0.0
 11
-2776.217896424571
 21
-323.2201058311323
 31
0.0
  0
LINE
  5
306
330
1F
100
AcDbEntity
  8
ハッチ
  6
Continuous
 62
   120
370
     5
100
AcDbLine
 10
-2825.424395416513
 20
-330.0001979518744
 30
0.0
 11
-2776.217896424565
 21
-280.7936989599267
 31
0.0
  0
LINE
  5
307
330
1F
100
AcDbEntity
  8
ハッチ
  6
Continuous
 62
   120
370
     5
100
AcDbLine
 10
-3249.688464128455
 20
-330.0001979518676
 30
0.0
 11
-3072.688464128442
 21
-153.0001979518572
 31
0.0
  0
LINE
  5
308
330
1F
100
AcDbEntity
  8
ハッチ
  6
Continuous
 62
   120
370
     5
100
AcDbLine
 10
-3292.114870999648
 20
-330.0001979518634
 30
0.0
 11
-3115.114870999642
 21
-153.0001979518606
 31
0.0
  0
LINE
  5
309
330
1F
100
AcDbEntity
  8
ハッチ
  6
Continuous
 62
   120
370
     5
100
AcDbLine
 10
-3334.541277870786
 20
-330.0001979518544
 30
0.0
 11
-3157.541277870801
 21
-153.0001979518683
 31
0.0
  0
LINE
  5
30A
330
1F
100
AcDbEntity
  8
ハッチ
  6
Continuous
 62
   120
370
     5
100
AcDbLine
 10
-3376.967684741997
 20
-330.0001979518634
 30
0.0
 11
-3199.967684741997
 21
-153.0001979518649
 31
0.0
  0
LINE
  5
30B
330
1F
100
AcDbEntity
  8
ハッチ
  6
Continuous
 62
   120
370
     5
100
AcDbLine
 10
-3419.394091613193
 20
-330.0001979518607
 30
0.0
 11
-3242.394091613194
 21
-153.0001979518615
 31
0.0
  0
LINE
  5
30C
330
1F
100
AcDbEntity
  8
ハッチ
  6
Continuous
 62
    92
370
    13
100
AcDbLine
 10
-3052.817896424574
 20
-235.8001979518603
 30
0.0
 11
-3035.717896424574
 21
-219.5144836661456
 31
0.0
  0
LINE
  5
30D
330
1F
100
AcDbEntity
  8
ハッチ
  6
Continuous
 62
    92
370
    13
100
AcDbLine
 10
-3035.717896424574
 20
-153.0001979518606
 30
0.0
 11
-3035.717896424574
 21
-219.5144836661456
 31
0.0
  0
LINE
  5
30E
330
1F
100
AcDbEntity
  8
ハッチ
  6
Continuous
 62
    92
370
    13
100
AcDbLine
 10
-2925.617896424574
 20
-235.8001979518603
 30
0.0
 11
-2942.717896424573
 21
-219.5144836661456
 31
0.0
  0
LINE
  5
30F
330
1F
100
AcDbEntity
  8
ハッチ
  6
Continuous
 62
    92
370
    13
100
AcDbLine
 10
-2925.617896424574
 20
-235.8001979518603
 30
0.0
 11
-3052.817896424574
 21
-235.8001979518603
 31
0.0
  0
LINE
  5
310
330
1F
100
AcDbEntity
  8
ハッチ
  6
Continuous
 62
    92
370
    13
100
AcDbLine
 10
-2925.617896424574
 20
-235.8001979518603
 30
0.0
 11
-2925.617896424574
 21
-237.0001979518601
 31
0.0
  0
LINE
  5
311
330
1F
100
AcDbEntity
  8
ハッチ
  6
Continuous
 62
    92
370
    13
100
AcDbLine
 10
-3052.817896424574
 20
-237.0001979518601
 30
0.0
 11
-3052.817896424574
 21
-235.8001979518603
 31
0.0
  0
LINE
  5
312
330
1F
100
AcDbEntity
  8
ハッチ
  6
Continuous
 62
    92
370
    13
100
AcDbLine
 10
-3075.622771908605
 20
-237.0001979518601
 30
0.0
 11
-2902.822771908605
 21
-237.0001979518601
 31
0.0
  0
LINE
  5
313
330
1F
100
AcDbEntity
  8
0-2_柱
  6
Continuous
 62
     7
370
     9
100
AcDbLine
 10
-3418.217896424574
 20
-105.0001979518599
 30
0.0
 11
-2788.217896424574
 21
-105.0001979518599
 31
0.0
  0
LINE
  5
314
330
1F
100
AcDbEntity
  8
0-2_柱
  6
Continuous
 62
     7
370
     9
100
AcDbLine
 10
-2788.217896424574
 20
-105.0001979518599
 30
0.0
 11
-2788.217896424574
 21
56.99980204814111
 31
0.0
  0
LINE
  5
315
330
1F
100
AcDbEntity
  8
0-2_柱
  6
Continuous
 62
     7
370
     9
100
AcDbLine
 10
-2788.217896424574
 20
56.99980204814111
 30
0.0
 11
-3418.217896424574
 21
56.99980204814111
 31
0.0
  0
LINE
  5
316
330
1F
100
AcDbEntity
  8
0-2_柱
  6
Continuous
 62
     7
370
     9
100
AcDbLine
 10
-3418.217896424574
 20
56.99980204814111
 30
0.0
 11
-3418.217896424574
 21
-105.0001979518599
 31
0.0
  0
LINE
  5
317
330
1F
100
AcDbEntity
  8
0-2_柱
  6
Continuous
 62
     7
370
     9
100
AcDbLine
 10
-2788.217896424574
 20
56.99980204814111
 30
0.0
 11
-3418.217896424574
 21
-105.0001979518599
 31
0.0
  0
LWPOLYLINE
  5
318
330
1F
100
AcDbEntity
  8
0-B_寸法
  6
Continuous
 62
     7
370
     9
100
AcDbPolyline
 90
        4
 70
     1
 43
3.0
 10
-3431.717896424574
 20
-868.82519429296
 42
0.4142135623731
 10
-3433.217896424574
 20
-867.32519429296
 42
0.4142135623731
 10
-3434.717896424574
 20
-868.82519429296
 42
0.4142135623731
 10
-3433.217896424574
 20
-870.32519429296
 42
0.4142135623731
  0
LINE
  5
319
330
1F
100
AcDbEntity
  8
0-B_寸法
  6
Continuous
 62
   120
370
     5
100
AcDbLine
 10
-3433.217896424574
 20
-868.82519429296
 30
0.0
 11
-3433.217896424574
 21
-703.4757610184812
 31
0.0
  0
LWPOLYLINE
  5
31A
330
1F
100
AcDbEntity
  8
0-B_寸法
  6
Continuous
 62
     7
370
     9
100
AcDbPolyline
 90
        4
 70
     1
 43
3.0
 10
-2771.717896424574
 20
-868.82519429296
 42
0.4142135623731
 10
-2773.217896424574
 20
-867.32519429296
 42
0.4142135623731
 10
-2774.717896424574
 20
-868.82519429296
 42
0.4142135623731
 10
-2773.217896424574
 20
-870.32519429296
 42
0.4142135623731
  0
LINE
  5
31B
330
1F
100
AcDbEntity
  8
0-B_寸法
  6
Continuous
 62
   120
370
     5
100
AcDbLine
 10
-2773.217896424574
 20
-868.82519429296
 30
0.0
 11
-2773.217896424574
 21
-724.4757610184826
 31
0.0
  0
LINE
  5
31C
330
1F
100
AcDbEntity
  8
0-B_寸法
  6
Continuous
 62
   120
370
     5
100
AcDbLine
 10
-3433.217896424574
 20
-868.82519429296
 30
0.0
 11
-2773.217896424574
 21
-868.82519429296
 31
0.0
  0
LWPOLYLINE
  5
31D
330
1F
100
AcDbEntity
  8
0-B_寸法
  6
Continuous
 62
     7
370
     9
100
AcDbPolyline
 90
        4
 70
     1
 43
3.0
 10
-2897.717896424575
 20
-1119.000324800433
 42
0.4142135623731
 10
-2899.217896424575
 20
-1117.500324800433
 42
0.4142135623731
 10
-2900.717896424575
 20
-1119.000324800433
 42
0.4142135623731
 10
-2899.217896424575
 20
-1120.500324800433
 42
0.4142135623731
  0
LWPOLYLINE
  5
31E
330
1F
100
AcDbEntity
  8
0-B_寸法
  6
Continuous
 62
     7
370
     9
100
AcDbPolyline
 90
        4
 70
     1
 43
3.0
 10
-3077.717896424575
 20
-1119.000324800433
 42
0.4142135623731
 10
-3079.217896424575
 20
-1117.500324800433
 42
0.4142135623731
 10
-3080.717896424575
 20
-1119.000324800433
 42
0.4142135623731
 10
-3079.217896424575
 20
-1120.500324800433
 42
0.4142135623731
  0
LINE
  5
31F
330
1F
100
AcDbEntity
  8
0-B_寸法
  6
Continuous
 62
   120
370
     5
100
AcDbLine
 10
-3079.217896424575
 20
-1119.000324800433
 30
0.0
 11
-2899.217896424575
 21
-1119.000324800433
 31
0.0
  0
LINE
  5
320
330
1F
100
AcDbEntity
  8
0-4_枠
  6
Continuous
 62
    92
370
    13
100
AcDbLine
 10
-3433.217896424574
 20
-333.0001979518606
 30
0.0
 11
-3075.622771908605
 21
-333.0001979518606
 31
0.0
  0
LINE
  5
321
330
1F
100
AcDbEntity
  8
0-B_寸法
  6
Continuous
 62
   120
370
     5
100
AcDbLine
 10
-4063.217896424573
 20
-105.0001979518599
 30
0.0
 11
-3853.217896424574
 21
-105.0001979518599
 31
0.0
  0
LINE
  5
322
330
1F
100
AcDbEntity
  8
0-B_寸法
  6
Continuous
 62
   120
370
     5
100
AcDbLine
 10
-4063.217896424573
 20
-105.0001979518599
 30
0.0
 11
-4063.217896424573
 21
-2853.000197951857
 31
0.0
  0
LWPOLYLINE
  5
323
330
1F
100
AcDbEntity
  8
0-B_寸法
  6
Continuous
 62
     7
370
     9
100
AcDbPolyline
 90
        4
 70
     1
 43
3.0
 10
-4061.717896424573
 20
-105.0001979518599
 42
0.4142135623731
 10
-4063.217896424573
 20
-103.5001979518599
 42
0.4142135623731
 10
-4064.717896424573
 20
-105.0001979518599
 42
0.4142135623731
 10
-4063.217896424573
 20
-106.5001979518599
 42
0.4142135623731
  0
LINE
  5
324
330
1F
100
AcDbEntity
  8
0-B_寸法
  6
Continuous
 62
   120
370
     5
100
AcDbLine
 10
-3853.217896424574
 20
-333.0001979518606
 30
0.0
 11
-3664.217896424572
 21
-333.0001979518606
 31
0.0
  0
LWPOLYLINE
  5
325
330
1F
100
AcDbEntity
  8
0-B_寸法
  6
Continuous
 62
     7
370
     9
100
AcDbPolyline
 90
        4
 70
     1
 43
3.0
 10
-3851.717896424574
 20
-333.0001979518606
 42
0.4142135623731
 10
-3853.217896424574
 20
-331.5001979518606
 42
0.4142135623731
 10
-3854.717896424574
 20
-333.0001979518606
 42
0.4142135623731
 10
-3853.217896424574
 20
-334.5001979518606
 42
0.4142135623731
  0
LINE
  5
326
330
1F
100
AcDbEntity
  8
0-B_寸法
  6
Continuous
 62
   120
370
     5
100
AcDbLine
 10
-3853.217896424574
 20
-237.0001979518601
 30
0.0
 11
-3853.217896424574
 21
-333.0001979518606
 31
0.0
  0
LINE
  5
327
330
1F
100
AcDbEntity
  8
0-B_寸法
  6
Continuous
 62
   120
370
     5
100
AcDbLine
 10
-3853.217896424574
 20
-237.0001979518601
 30
0.0
 11
-3664.217896424572
 21
-237.0001979518601
 31
0.0
  0
LWPOLYLINE
  5
328
330
1F
100
AcDbEntity
  8
0-B_寸法
  6
Continuous
 62
     7
370
     9
100
AcDbPolyline
 90
        4
 70
     1
 43
3.0
 10
-3851.717896424574
 20
-237.0001979518601
 42
0.4142135623731
 10
-3853.217896424574
 20
-235.5001979518601
 42
0.4142135623731
 10
-3854.717896424574
 20
-237.0001979518601
 42
0.4142135623731
 10
-3853.217896424574
 20
-238.5001979518601
 42
0.4142135623731
  0
LINE
  5
329
330
1F
100
AcDbEntity
  8
0-B_寸法
  6
Continuous
 62
   120
370
     5
100
AcDbLine
 10
-3853.217896424574
 20
-183.0001979518593
 30
0.0
 11
-3853.217896424574
 21
-237.0001979518601
 31
0.0
  0
LINE
  5
32A
330
1F
100
AcDbEntity
  8
0-B_寸法
  6
Continuous
 62
   120
370
     5
100
AcDbLine
 10
-3853.217896424574
 20
-183.0001979518593
 30
0.0
 11
-3664.217896424572
 21
-183.0001979518593
 31
0.0
  0
LINE
  5
32B
330
1F
100
AcDbEntity
  8
0-B_寸法
  6
Continuous
 62
   120
370
     5
100
AcDbLine
 10
-3853.217896424574
 20
-153.0001979518606
 30
0.0
 11
-3664.217896424572
 21
-153.0001979518606
 31
0.0
  0
LWPOLYLINE
  5
32C
330
1F
100
AcDbEntity
  8
0-B_寸法
  6
Continuous
 62
     7
370
     9
100
AcDbPolyline
 90
        4
 70
     1
 43
3.0
 10
-3851.717896424574
 20
-183.0001979518593
 42
0.4142135623731
 10
-3853.217896424574
 20
-181.5001979518593
 42
0.4142135623731
 10
-3854.717896424574
 20
-183.0001979518593
 42
0.4142135623731
 10
-3853.217896424574
 20
-184.5001979518593
 42
0.4142135623731
  0
LWPOLYLINE
  5
32D
330
1F
100
AcDbEntity
  8
0-B_寸法
  6
Continuous
 62
     7
370
     9
100
AcDbPolyline
 90
        4
 70
     1
 43
3.0
 10
-3851.717896424574
 20
-153.0001979518606
 42
0.4142135623731
 10
-3853.217896424574
 20
-151.5001979518606
 42
0.4142135623731
 10
-3854.717896424574
 20
-153.0001979518606
 42
0.4142135623731
 10
-3853.217896424574
 20
-154.5001979518606
 42
0.4142135623731
  0
LINE
  5
32E
330
1F
100
AcDbEntity
  8
0-B_寸法
  6
Continuous
 62
   120
370
     5
100
AcDbLine
 10
-3853.217896424574
 20
-153.0001979518606
 30
0.0
 11
-3853.217896424574
 21
-183.0001979518593
 31
0.0
  0
CIRCLE
  5
32F
330
1F
100
AcDbEntity
  8
0-7_金物
  6
Continuous
 62
     7
370
     9
100
AcDbCircle
 10
-2989.213020940543
 20
-474.0001972404159
 30
0.0
 40
29.99999980237253
  0
ARC
  5
330
330
1F
100
AcDbEntity
  8
0-7_金物
  6
Continuous
 62
     7
370
     9
100
AcDbCircle
 10
-2989.213020940543
 20
-623.4001962562318
 30
0.0
 40
41.39999972727429
100
AcDbArc
 50
180.0
 51
0.0
  0
LINE
  5
331
330
1F
100
AcDbEntity
  8
0-7_金物
  6
Continuous
 62
     7
370
     9
100
AcDbLine
 10
-2992.331361825033
 20
-554.8818558025671
 30
0.0
 11
-3003.913020843705
 21
-555.084014412716
 31
0.0
  0
LINE
  5
332
330
1F
100
AcDbEntity
  8
0-7_金物
  6
Continuous
 62
     7
370
     9
100
AcDbLine
 10
-2992.331361825033
 20
-561.1185375715488
 30
0.0
 11
-3003.913020843705
 21
-560.9163789614025
 31
0.0
  0
LINE
  5
333
330
1F
100
AcDbEntity
  8
0-7_金物
  6
Continuous
 62
     7
370
     9
100
AcDbLine
 10
-3003.913020843705
 20
-555.084014412716
 30
0.0
 11
-3003.913020843705
 21
-560.9163789614025
 31
0.0
  0
LINE
  5
334
330
1F
100
AcDbEntity
  8
0-7_金物
  6
Continuous
 62
     7
370
     9
100
AcDbLine
 10
-2992.331361825033
 20
-561.1185375715488
 30
0.0
 11
-2992.129203214886
 21
-572.7001965902214
 31
0.0
  0
LINE
  5
335
330
1F
100
AcDbEntity
  8
0-7_金物
  6
Continuous
 62
     7
370
     9
100
AcDbLine
 10
-2986.094680056052
 20
-561.1185375715488
 30
0.0
 11
-2986.296838666199
 21
-572.7001965902214
 31
0.0
  0
LINE
  5
336
330
1F
100
AcDbEntity
  8
0-7_金物
  6
Continuous
 62
     7
370
     9
100
AcDbLine
 10
-2992.129203214886
 20
-572.7001965902214
 30
0.0
 11
-2986.296838666199
 21
-572.7001965902214
 31
0.0
  0
LINE
  5
337
330
1F
100
AcDbEntity
  8
0-7_金物
  6
Continuous
 62
     7
370
     9
100
AcDbLine
 10
-2986.094680056052
 20
-561.1185375715488
 30
0.0
 11
-2974.51302103738
 21
-560.9163789614025
 31
0.0
  0
LINE
  5
338
330
1F
100
AcDbEntity
  8
0-7_金物
  6
Continuous
 62
     7
370
     9
100
AcDbLine
 10
-2986.094680056052
 20
-554.8818558025671
 30
0.0
 11
-2974.51302103738
 21
-555.084014412716
 31
0.0
  0
LINE
  5
339
330
1F
100
AcDbEntity
  8
0-7_金物
  6
Continuous
 62
     7
370
     9
100
AcDbLine
 10
-2974.51302103738
 20
-560.9163789614025
 30
0.0
 11
-2974.51302103738
 21
-555.084014412716
 31
0.0
  0
LINE
  5
33A
330
1F
100
AcDbEntity
  8
0-7_金物
  6
Continuous
 62
     7
370
     9
100
AcDbLine
 10
-2986.094680056052
 20
-554.8818558025671
 30
0.0
 11
-2986.296838666199
 21
-543.3001967838954
 31
0.0
  0
LINE
  5
33B
330
1F
100
AcDbEntity
  8
0-7_金物
  6
Continuous
 62
     7
370
     9
100
AcDbLine
 10
-2992.331361825033
 20
-554.8818558025671
 30
0.0
 11
-2992.129203214886
 21
-543.3001967838954
 31
0.0
  0
LINE
  5
33C
330
1F
100
AcDbEntity
  8
0-7_金物
  6
Continuous
 62
     7
370
     9
100
AcDbLine
 10
-2986.296838666199
 20
-543.3001967838954
 30
0.0
 11
-2992.129203214886
 21
-543.3001967838954
 31
0.0
  0
LINE
  5
33D
330
1F
100
AcDbEntity
  8
0-7_金物
  6
Continuous
 62
     7
370
     9
100
AcDbLine
 10
-2992.331361825033
 20
-470.8818563559246
 30
0.0
 11
-3003.913020843705
 21
-471.0840149660726
 31
0.0
  0
LINE
  5
33E
330
1F
100
AcDbEntity
  8
0-7_金物
  6
Continuous
 62
     7
370
     9
100
AcDbLine
 10
-2992.331361825033
 20
-477.1185381249055
 30
0.0
 11
-3003.913020843705
 21
-476.9163795147575
 31
0.0
  0
LINE
  5
33F
330
1F
100
AcDbEntity
  8
0-7_金物
  6
Continuous
 62
     7
370
     9
100
AcDbLine
 10
-3003.913020843705
 20
-471.0840149660726
 30
0.0
 11
-3003.913020843705
 21
-476.9163795147575
 31
0.0
  0
LINE
  5
340
330
1F
100
AcDbEntity
  8
0-7_金物
  6
Continuous
 62
     7
370
     9
100
AcDbLine
 10
-2992.331361825033
 20
-477.1185381249055
 30
0.0
 11
-2992.129203214886
 21
-488.700197143578
 31
0.0
  0
LINE
  5
341
330
1F
100
AcDbEntity
  8
0-7_金物
  6
Continuous
 62
     7
370
     9
100
AcDbLine
 10
-2986.094680056052
 20
-477.1185381249055
 30
0.0
 11
-2986.296838666199
 21
-488.700197143578
 31
0.0
  0
LINE
  5
342
330
1F
100
AcDbEntity
  8
0-7_金物
  6
Continuous
 62
     7
370
     9
100
AcDbLine
 10
-2992.129203214886
 20
-488.700197143578
 30
0.0
 11
-2986.296838666199
 21
-488.700197143578
 31
0.0
  0
LINE
  5
343
330
1F
100
AcDbEntity
  8
0-7_金物
  6
Continuous
 62
     7
370
     9
100
AcDbLine
 10
-2986.094680056052
 20
-477.1185381249055
 30
0.0
 11
-2974.51302103738
 21
-476.9163795147575
 31
0.0
  0
LINE
  5
344
330
1F
100
AcDbEntity
  8
0-7_金物
  6
Continuous
 62
     7
370
     9
100
AcDbLine
 10
-2986.094680056052
 20
-470.8818563559246
 30
0.0
 11
-2974.51302103738
 21
-471.0840149660726
 31
0.0
  0
LINE
  5
345
330
1F
100
AcDbEntity
  8
0-7_金物
  6
Continuous
 62
     7
370
     9
100
AcDbLine
 10
-2974.51302103738
 20
-476.9163795147575
 30
0.0
 11
-2974.51302103738
 21
-471.0840149660726
 31
0.0
  0
LINE
  5
346
330
1F
100
AcDbEntity
  8
0-7_金物
  6
Continuous
 62
     7
370
     9
100
AcDbLine
 10
-2986.094680056052
 20
-470.8818563559246
 30
0.0
 11
-2986.296838666199
 21
-459.3001973372538
 31
0.0
  0
LINE
  5
347
330
1F
100
AcDbEntity
  8
0-7_金物
  6
Continuous
 62
     7
370
     9
100
AcDbLine
 10
-2992.331361825033
 20
-470.8818563559246
 30
0.0
 11
-2992.129203214886
 21
-459.3001973372538
 31
0.0
  0
LINE
  5
348
330
1F
100
AcDbEntity
  8
0-7_金物
  6
Continuous
 62
     7
370
     9
100
AcDbLine
 10
-2986.296838666199
 20
-459.3001973372538
 30
0.0
 11
-2992.129203214886
 21
-459.3001973372538
 31
0.0
  0
LINE
  5
349
330
1F
100
AcDbEntity
  8
0-7_金物
  6
Continuous
 62
     7
370
     9
100
AcDbLine
 10
-2955.271895667178
 20
-546.0001967661101
 30
0.0
 11
-2944.213021236985
 21
-558.0001966870584
 31
0.0
  0
LINE
  5
34A
330
1F
100
AcDbEntity
  8
0-7_金物
  6
Continuous
 62
     7
370
     9
100
AcDbLine
 10
-2950.813021193507
 20
-558.0001966870584
 30
0.0
 11
-2944.213021236985
 21
-558.0001966870584
 31
0.0
  0
LINE
  5
34B
330
1F
100
AcDbEntity
  8
0-7_金物
  6
Continuous
 62
     7
370
     9
100
AcDbLine
 10
-3027.61302068758
 20
-558.0001966870584
 30
0.0
 11
-3034.213020644102
 21
-558.0001966870584
 31
0.0
  0
LINE
  5
34C
330
1F
100
AcDbEntity
  8
0-7_金物
  6
Continuous
 62
     7
370
     9
100
AcDbLine
 10
-3023.154146213905
 20
-546.0001967661101
 30
0.0
 11
-3034.213020644102
 21
-558.0001966870584
 31
0.0
  0
LINE
  5
34D
330
1F
100
AcDbEntity
  8
0-7_金物
  6
Continuous
 62
     7
370
     9
100
AcDbLine
 10
-3027.61302068758
 20
-474.0001972404159
 30
0.0
 11
-3034.213020644102
 21
-474.0001972404159
 31
0.0
  0
LINE
  5
34E
330
1F
100
AcDbEntity
  8
0-7_金物
  6
Continuous
 62
     7
370
     9
100
AcDbLine
 10
-3023.154146213905
 20
-462.0001973194667
 30
0.0
 11
-3034.213020644102
 21
-474.0001972404159
 31
0.0
  0
LINE
  5
34F
330
1F
100
AcDbEntity
  8
0-7_金物
  6
Continuous
 62
     7
370
     9
100
AcDbLine
 10
-2955.271895667178
 20
-462.0001973194667
 30
0.0
 11
-2944.213021236985
 21
-474.0001972404159
 31
0.0
  0
LINE
  5
350
330
1F
100
AcDbEntity
  8
0-7_金物
  6
Continuous
 62
     7
370
     9
100
AcDbLine
 10
-3012.613020786393
 20
-507.0001970230238
 30
0.0
 11
-3012.613020786393
 21
-510.0001970032634
 31
0.0
  0
LINE
  5
351
330
1F
100
AcDbEntity
  8
0-7_金物
  6
Continuous
 62
     7
370
     9
100
AcDbLine
 10
-3030.613020667816
 20
-501.0001970625496
 30
0.0
 11
-3030.613020667816
 21
-516.0001969637367
 31
0.0
  0
ARC
  5
352
330
1F
100
AcDbEntity
  8
0-7_金物
  6
Continuous
 62
     7
370
     9
100
AcDbCircle
 10
-3018.613020746868
 20
-510.0001970032634
 30
0.0
 40
5.999999960474506
100
AcDbArc
 50
270.0
 51
0.0
  0
ARC
  5
353
330
1F
100
AcDbEntity
  8
0-7_金物
  6
Continuous
 62
     7
370
     9
100
AcDbCircle
 10
-3018.613020746868
 20
-507.0001970230238
 30
0.0
 40
5.999999960474506
100
AcDbArc
 50
0.0
 51
90.0
  0
LINE
  5
354
330
1F
100
AcDbEntity
  8
0-7_金物
  6
Continuous
 62
     7
370
     9
100
AcDbLine
 10
-3018.613020746868
 20
-516.0001969637367
 30
0.0
 11
-3030.613020667816
 21
-516.0001969637367
 31
0.0
  0
LINE
  5
355
330
1F
100
AcDbEntity
  8
0-7_金物
  6
Continuous
 62
     7
370
     9
100
AcDbLine
 10
-3018.613020746868
 20
-501.0001970625496
 30
0.0
 11
-3030.613020667816
 21
-501.0001970625496
 31
0.0
  0
ARC
  5
356
330
1F
100
AcDbEntity
  8
0-7_金物
  6
Continuous
 62
     7
370
     9
100
AcDbCircle
 10
-2959.813021134218
 20
-510.0001970032634
 30
0.0
 40
5.999999960474506
100
AcDbArc
 50
180.0
 51
270.0
  0
ARC
  5
357
330
1F
100
AcDbEntity
  8
0-7_金物
  6
Continuous
 62
     7
370
     9
100
AcDbCircle
 10
-2959.813021134218
 20
-507.0001970230238
 30
0.0
 40
5.999999960474506
100
AcDbArc
 50
90.0
 51
180.0
  0
LINE
  5
358
330
1F
100
AcDbEntity
  8
0-7_金物
  6
Continuous
 62
     7
370
     9
100
AcDbLine
 10
-2965.813021094692
 20
-507.0001970230238
 30
0.0
 11
-2965.813021094692
 21
-510.0001970032634
 31
0.0
  0
LINE
  5
359
330
1F
100
AcDbEntity
  8
0-7_金物
  6
Continuous
 62
     7
370
     9
100
AcDbLine
 10
-2947.813021213269
 20
-501.0001970625496
 30
0.0
 11
-2947.813021213269
 21
-516.0001969637367
 31
0.0
  0
LINE
  5
35A
330
1F
100
AcDbEntity
  8
0-7_金物
  6
Continuous
 62
     7
370
     9
100
AcDbLine
 10
-2959.813021134218
 20
-516.0001969637367
 30
0.0
 11
-2947.813021213269
 21
-516.0001969637367
 31
0.0
  0
LINE
  5
35B
330
1F
100
AcDbEntity
  8
0-7_金物
  6
Continuous
 62
     7
370
     9
100
AcDbLine
 10
-2959.813021134218
 20
-501.0001970625496
 30
0.0
 11
-2947.813021213269
 21
-501.0001970625496
 31
0.0
  0
LINE
  5
35C
330
1F
100
AcDbEntity
  8
0-7_金物
  6
Continuous
 62
     7
370
     9
100
AcDbLine
 10
-3007.382225536523
 20
-660.6001960111732
 30
0.0
 11
-2971.043816344561
 21
-660.6001960111732
 31
0.0
  0
LINE
  5
35D
330
1F
100
AcDbEntity
  8
0-7_金物
  6
Continuous
 62
     7
370
     9
100
AcDbLine
 10
-3027.61302068758
 20
-606.0001963708551
 30
0.0
 11
-2950.813021193507
 21
-606.0001963708551
 31
0.0
  0
LINE
  5
35E
330
1F
100
AcDbEntity
  8
0-7_金物
  6
Continuous
 62
     7
370
     9
100
AcDbLine
 10
-3010.213020802204
 20
-636.0001961732276
 30
0.0
 11
-2968.213021078881
 21
-636.0001961732276
 31
0.0
  0
LINE
  5
35F
330
1F
100
AcDbEntity
  8
0-7_金物
  6
Continuous
 62
     7
370
     9
100
AcDbLine
 10
-3010.213020802204
 20
-615.0001963115662
 30
0.0
 11
-2968.213021078881
 21
-615.0001963115662
 31
0.0
  0
ARC
  5
360
330
1F
100
AcDbEntity
  8
0-7_金物
  6
Continuous
 62
     7
370
     9
100
AcDbCircle
 10
-3027.61302068758
 20
-600.0001964103792
 30
0.0
 40
5.999999960474506
100
AcDbArc
 50
270.0
 51
0.0
  0
ARC
  5
361
330
1F
100
AcDbEntity
  8
0-7_金物
  6
Continuous
 62
     7
370
     9
100
AcDbCircle
 10
-3027.61302068758
 20
-609.0001963510913
 30
0.0
 40
2.999999980237253
100
AcDbArc
 50
90.0
 51
180.0
  0
ARC
  5
362
330
1F
100
AcDbEntity
  8
0-7_金物
  6
Continuous
 62
     7
370
     9
100
AcDbCircle
 10
-3015.613020766632
 20
-600.0001964103792
 30
0.0
 40
5.999999960474506
100
AcDbArc
 50
90.0
 51
180.0
  0
ARC
  5
363
330
1F
100
AcDbEntity
  8
0-7_金物
  6
Continuous
 62
     7
370
     9
100
AcDbCircle
 10
-2950.813021193507
 20
-609.0001963510913
 30
0.0
 40
2.999999980237253
100
AcDbArc
 50
0.0
 51
90.0
  0
ARC
  5
364
330
1F
100
AcDbEntity
  8
0-7_金物
  6
Continuous
 62
     7
370
     9
100
AcDbCircle
 10
-2950.813021193507
 20
-600.0001964103792
 30
0.0
 40
5.999999960474506
100
AcDbArc
 50
180.0
 51
270.0
  0
ARC
  5
365
330
1F
100
AcDbEntity
  8
0-7_金物
  6
Continuous
 62
     7
370
     9
100
AcDbCircle
 10
-2962.813021114455
 20
-600.0001964103792
 30
0.0
 40
5.999999960474506
100
AcDbArc
 50
0.0
 51
90.0
  0
LINE
  5
366
330
1F
100
AcDbEntity
  8
0-7_金物
  6
Continuous
 62
     7
370
     9
100
AcDbLine
 10
-2968.213021078881
 20
-659.0787610147596
 30
0.0
 11
-2968.213021078881
 21
-615.0001963115662
 31
0.0
  0
LINE
  5
367
330
1F
100
AcDbEntity
  8
0-7_金物
  6
Continuous
 62
     7
370
     9
100
AcDbLine
 10
-3010.213020802204
 20
-659.0787610147596
 30
0.0
 11
-3010.213020802204
 21
-615.0001963115662
 31
0.0
  0
LINE
  5
368
330
1F
100
AcDbEntity
  8
0-7_金物
  6
Continuous
 62
     7
370
     9
100
AcDbLine
 10
-2947.813021213269
 20
-623.4001962562318
 30
0.0
 11
-2947.813021213269
 21
-609.0001963510913
 31
0.0
  0
LINE
  5
369
330
1F
100
AcDbEntity
  8
0-7_金物
  6
Continuous
 62
     7
370
     9
100
AcDbLine
 10
-3030.613020667816
 20
-623.4001962562318
 30
0.0
 11
-3030.613020667816
 21
-609.0001963510913
 31
0.0
  0
LINE
  5
36A
330
1F
100
AcDbEntity
  8
0-7_金物
  6
Continuous
 62
     7
370
     9
100
AcDbLine
 10
-3015.613020766632
 20
-594.0001964499058
 30
0.0
 11
-2962.813021114455
 21
-594.0001964499058
 31
0.0
  0
ARC
  5
36B
330
1F
100
AcDbEntity
  8
0-7_金物
  6
Continuous
 62
     7
370
     9
100
AcDbCircle
 10
-2953.813021173743
 20
-423.0001975763822
 30
0.0
 40
5.999999960474506
100
AcDbArc
 50
270.0
 51
0.0
  0
ARC
  5
36C
330
1F
100
AcDbEntity
  8
0-7_金物
  6
Continuous
 62
     7
370
     9
100
AcDbCircle
 10
-3024.613020707342
 20
-423.0001975763822
 30
0.0
 40
5.999999960474506
100
AcDbArc
 50
180.0
 51
270.0
  0
LINE
  5
36D
330
1F
100
AcDbEntity
  8
0-7_金物
  6
Continuous
 62
     7
370
     9
100
AcDbLine
 10
-2947.813021213269
 20
-414.0001976356692
 30
0.0
 11
-2947.813021213269
 21
-423.0001975763822
 31
0.0
  0
LINE
  5
36E
330
1F
100
AcDbEntity
  8
0-7_金物
  6
Continuous
 62
     7
370
     9
100
AcDbLine
 10
-3030.613020667816
 20
-414.0001976356692
 30
0.0
 11
-3030.613020667816
 21
-423.0001975763822
 31
0.0
  0
CIRCLE
  5
36F
330
1F
100
AcDbEntity
  8
0-7_金物
  6
Continuous
 62
     7
370
     9
100
AcDbCircle
 10
-2989.213020940543
 20
-558.0001966870584
 30
0.0
 40
29.99999980237253
  0
LINE
  5
370
330
1F
100
AcDbEntity
  8
0-7_金物
  6
Continuous
 62
     7
370
     9
100
AcDbLine
 10
-3024.613020707342
 20
-429.0001975368563
 30
0.0
 11
-2953.813021173743
 21
-429.0001975368563
 31
0.0
  0
LINE
  5
371
330
1F
100
AcDbEntity
  8
0-7_金物
  6
Continuous
 62
     7
370
     9
100
AcDbLine
 10
-2950.813021193507
 20
-474.0001972404159
 30
0.0
 11
-2944.213021236985
 21
-474.0001972404159
 31
0.0
  0
LINE
  5
372
330
1F
100
AcDbEntity
  8
0-7_金物
  6
Continuous
 62
     7
370
     9
100
AcDbLine
 10
-3036.613020628292
 20
-414.0001976356692
 30
0.0
 11
-3036.613020628292
 21
-623.4001962562318
 31
0.0
  0
LINE
  5
373
330
1F
100
AcDbEntity
  8
0-7_金物
  6
Continuous
 62
     7
370
     9
100
AcDbLine
 10
-2941.813021252793
 20
-414.0001976356692
 30
0.0
 11
-2941.813021252793
 21
-623.4001962562318
 31
0.0
  0
ARC
  5
374
330
1F
100
AcDbEntity
  8
0-7_金物
  6
Continuous
 62
     7
370
     9
100
AcDbCircle
 10
-2989.213020940543
 20
-624.6001962483258
 30
0.0
 40
47.3999996877486
100
AcDbArc
 50
180.0
 51
0.0
  0
ARC
  5
375
330
1F
100
AcDbEntity
  8
0-7_金物
  6
Continuous
 62
     7
370
     9
100
AcDbCircle
 10
-2989.213020940543
 20
-558.0001966870584
 30
0.0
 40
38.39999974703684
100
AcDbArc
 50
341.7900431357177
 51
12.17573410274985
  0
ARC
  5
376
330
1F
100
AcDbEntity
  8
0-7_金物
  6
Continuous
 62
     7
370
     9
100
AcDbCircle
 10
-2989.213020940543
 20
-558.0001966870584
 30
0.0
 40
38.39999974703684
100
AcDbArc
 50
167.8242658972536
 51
198.2099568642824
  0
ARC
  5
377
330
1F
100
AcDbEntity
  8
0-7_金物
  6
Continuous
 62
     7
370
     9
100
AcDbCircle
 10
-2989.213020940543
 20
-474.0001972404159
 30
0.0
 40
38.39999974703684
100
AcDbArc
 50
167.8242658972536
 51
198.2099568642824
  0
ARC
  5
378
330
1F
100
AcDbEntity
  8
0-7_金物
  6
Continuous
 62
     7
370
     9
100
AcDbCircle
 10
-2989.213020940543
 20
-474.0001972404159
 30
0.0
 40
38.39999974703684
100
AcDbArc
 50
341.7900431357177
 51
12.17573410274985
  0
LINE
  5
379
330
1F
100
AcDbEntity
  8
0-7_金物
  6
Continuous
 62
     7
370
     9
100
AcDbLine
 10
-3036.357222336931
 20
-414.0001976356692
 30
0.0
 11
-2941.557222961433
 21
-414.0001976356692
 31
0.0
  0
LINE
  5
37A
330
1F
100
AcDbEntity
  8
0-7_金物
  6
Continuous
 62
     7
370
     9
100
AcDbLine
 10
-3013.217896266469
 20
-376.8001973471318
 30
0.0
 11
-3013.217896266469
 21
-382.8001973076068
 31
0.0
  0
LINE
  5
37B
330
1F
100
AcDbEntity
  8
0-7_金物
  6
Continuous
 62
     7
370
     9
100
AcDbLine
 10
-2965.217896582674
 20
-376.8001973471318
 30
0.0
 11
-3013.217896266469
 21
-376.8001973471318
 31
0.0
  0
LINE
  5
37C
330
1F
100
AcDbEntity
  8
0-7_金物
  6
Continuous
 62
     7
370
     9
100
AcDbLine
 10
-2965.217896582674
 20
-376.8001973471318
 30
0.0
 11
-2965.217896582674
 21
-382.8001973076068
 31
0.0
  0
LINE
  5
37D
330
1F
100
AcDbEntity
  8
0-7_金物
  6
Continuous
 62
     7
370
     9
100
AcDbLine
 10
-3013.217896266469
 20
-382.8001973076068
 30
0.0
 11
-2965.217896582674
 21
-382.8001973076068
 31
0.0
  0
LINE
  5
37E
330
1F
100
AcDbEntity
  8
0-7_金物
  6
Continuous
 62
     7
370
     9
100
AcDbLine
 10
-2958.617896626152
 20
-339.0001975961437
 30
0.0
 11
-2958.617896626152
 21
-315.0001977542454
 31
0.0
  0
LINE
  5
37F
330
1F
100
AcDbEntity
  8
0-7_金物
  6
Continuous
 62
     7
370
     9
100
AcDbLine
 10
-2958.617896626152
 20
-291.0001979123488
 30
0.0
 11
-2958.617896626152
 21
-315.0001977542462
 31
0.0
  0
ARC
  5
380
330
1F
100
AcDbEntity
  8
0-7_金物
  6
Continuous
 62
     7
370
     9
100
AcDbCircle
 10
-2968.21789656291
 20
-288.0001979321108
 30
0.0
 40
5.999999960474506
100
AcDbArc
 50
0.0
 51
90.0
  0
ARC
  5
381
330
1F
100
AcDbEntity
  8
0-7_金物
  6
Continuous
 62
     7
370
     9
100
AcDbCircle
 10
-2968.21789656291
 20
-351.0001975170929
 30
0.0
 40
5.999999960474506
100
AcDbArc
 50
270.0
 51
0.0
  0
LINE
  5
382
330
1F
100
AcDbEntity
  8
0-7_金物
  6
Continuous
 62
     7
370
     9
100
AcDbLine
 10
-2968.21789656291
 20
-357.0001974775653
 30
0.0
 11
-2989.217896424573
 21
-357.0001974775653
 31
0.0
  0
LINE
  5
383
330
1F
100
AcDbEntity
  8
0-7_金物
  6
Continuous
 62
     7
370
     9
100
AcDbLine
 10
-2962.217896602437
 20
-351.0001975170929
 30
0.0
 11
-2962.217896602437
 21
-342.0001975763817
 31
0.0
  0
LINE
  5
384
330
1F
100
AcDbEntity
  8
0-7_金物
  6
Continuous
 62
     7
370
     9
100
AcDbLine
 10
-2959.217896622199
 20
-339.0001975961437
 30
0.0
 11
-2958.617896626152
 21
-339.0001975961437
 31
0.0
  0
LINE
  5
385
330
1F
100
AcDbEntity
  8
0-7_金物
  6
Continuous
 62
     7
370
     9
100
AcDbLine
 10
-2959.217896622199
 20
-291.0001979123488
 30
0.0
 11
-2958.617896626152
 21
-291.0001979123488
 31
0.0
  0
LINE
  5
386
330
1F
100
AcDbEntity
  8
0-7_金物
  6
Continuous
 62
     7
370
     9
100
AcDbLine
 10
-2919.617896883065
 20
-363.0001974380421
 30
0.0
 11
-2919.617896883065
 21
-267.0001980704487
 31
0.0
  0
ARC
  5
387
330
1F
100
AcDbEntity
  8
0-7_金物
  6
Continuous
 62
     7
370
     9
100
AcDbCircle
 10
-2959.217896622199
 20
-288.0001979321108
 30
0.0
 40
2.999999980237253
100
AcDbArc
 50
180.0
 51
270.0
  0
ARC
  5
388
330
1F
100
AcDbEntity
  8
0-7_金物
  6
Continuous
 62
     7
370
     9
100
AcDbCircle
 10
-2959.217896622199
 20
-342.0001975763817
 30
0.0
 40
2.999999980237253
100
AcDbArc
 50
90.0
 51
180.0
  0
LINE
  5
389
330
1F
100
AcDbEntity
  8
0-7_金物
  6
Continuous
 62
     7
370
     9
100
AcDbLine
 10
-2968.21789656291
 20
-282.000197971635
 30
0.0
 11
-2989.217896424573
 21
-282.000197971635
 31
0.0
  0
LINE
  5
38A
330
1F
100
AcDbEntity
  8
0-7_金物
  6
Continuous
 62
     7
370
     9
100
AcDbLine
 10
-2971.217896543149
 20
-375.0001973589895
 30
0.0
 11
-2971.217896543149
 21
-376.8001973471318
 31
0.0
  0
LINE
  5
38B
330
1F
100
AcDbEntity
  8
0-7_金物
  6
Continuous
 62
     7
370
     9
100
AcDbLine
 10
-2955.617896645914
 20
-315.0001977542454
 30
0.0
 11
-2955.617896645914
 21
-363.0001974380421
 31
0.0
  0
LINE
  5
38C
330
1F
100
AcDbEntity
  8
0-7_金物
  6
Continuous
 62
     7
370
     9
100
AcDbLine
 10
-2955.617896645914
 20
-339.0001975961437
 30
0.0
 11
-2957.417896634057
 21
-339.0001975961437
 31
0.0
  0
LINE
  5
38D
330
1F
100
AcDbEntity
  8
0-7_金物
  6
Continuous
 62
     7
370
     9
100
AcDbLine
 10
-2955.617896645914
 20
-291.0001979123488
 30
0.0
 11
-2957.417896634057
 21
-291.0001979123488
 31
0.0
  0
LINE
  5
38E
330
1F
100
AcDbEntity
  8
0-7_金物
  6
Continuous
 62
     7
370
     9
100
AcDbLine
 10
-2958.61789662615
 20
-331.2001976475265
 30
0.0
 11
-2957.417896634057
 21
-330.0001976554316
 31
0.0
  0
LINE
  5
38F
330
1F
100
AcDbEntity
  8
0-7_金物
  6
Continuous
 62
     7
370
     9
100
AcDbLine
 10
-2957.417896634057
 20
-300.0001978530583
 30
0.0
 11
-2958.61789662615
 21
-298.8001978609626
 31
0.0
  0
LINE
  5
390
330
1F
100
AcDbEntity
  8
0-7_金物
  6
Continuous
 62
     7
370
     9
100
AcDbLine
 10
-2955.617896645914
 20
-330.0001976554316
 30
0.0
 11
-2958.617896626152
 21
-330.0001976554316
 31
0.0
  0
LINE
  5
391
330
1F
100
AcDbEntity
  8
0-7_金物
  6
Continuous
 62
     7
370
     9
100
AcDbLine
 10
-2955.617896645914
 20
-300.0001978530583
 30
0.0
 11
-2958.61789662615
 21
-300.0001978530583
 31
0.0
  0
LINE
  5
392
330
1F
100
AcDbEntity
  8
0-7_金物
  6
Continuous
 62
     7
370
     9
100
AcDbLine
 10
-2958.61789662615
 20
-337.8001976040489
 30
0.0
 11
-2957.417896634057
 21
-339.0001975961437
 31
0.0
  0
LINE
  5
393
330
1F
100
AcDbEntity
  8
0-7_金物
  6
Continuous
 62
     7
370
     9
100
AcDbLine
 10
-2958.61789662615
 20
-292.2001979044402
 30
0.0
 11
-2957.417896634057
 21
-291.0001979123488
 31
0.0
  0
ARC
  5
394
330
1F
100
AcDbEntity
  8
0-7_金物
  6
Continuous
 62
     7
370
     9
100
AcDbCircle
 10
-2937.61789676449
 20
-339.0001975961437
 30
0.0
 40
29.99999980237253
100
AcDbArc
 50
233.1301023541541
 51
306.8698976458458
  0
ARC
  5
395
330
1F
100
AcDbEntity
  8
0-7_金物
  6
Continuous
 62
     7
370
     9
100
AcDbCircle
 10
-2937.61789676449
 20
-291.0001979123488
 30
0.0
 40
29.99999980237253
100
AcDbArc
 50
53.13010235415425
 51
126.8698976458457
  0
LINE
  5
396
330
1F
100
AcDbEntity
  8
0-7_金物
  6
Continuous
 62
     7
370
     9
100
AcDbLine
 10
-2955.617896645914
 20
-267.000198070447
 30
0.0
 11
-2955.617896645914
 21
-315.0001977542462
 31
0.0
  0
ARC
  5
397
330
1F
100
AcDbEntity
  8
0-7_金物
  6
Continuous
 62
     7
370
     9
100
AcDbCircle
 10
-2950.217896681488
 20
-369.0001973985171
 30
0.0
 40
11.99999992094901
100
AcDbArc
 50
116.743683950387
 51
180.0
  0
ARC
  5
398
330
1F
100
AcDbEntity
  8
0-7_金物
  6
Continuous
 62
     7
370
     9
100
AcDbCircle
 10
-2968.217896562912
 20
-369.0001973985162
 30
0.0
 40
5.999999960474506
100
AcDbArc
 50
270.0
 51
0.0
  0
LINE
  5
399
330
1F
100
AcDbEntity
  8
0-7_金物
  6
Continuous
 62
     7
370
     9
100
AcDbLine
 10
-2989.217896424573
 20
-375.0001973589895
 30
0.0
 11
-2968.217896562912
 21
-375.0001973589895
 31
0.0
  0
LINE
  5
39A
330
1F
100
AcDbEntity
  8
0-7_金物
  6
Continuous
 62
     7
370
     9
100
AcDbLine
 10
-3019.817896222992
 20
-339.0001975961437
 30
0.0
 11
-3019.817896222992
 21
-315.0001977542454
 31
0.0
  0
LINE
  5
39B
330
1F
100
AcDbEntity
  8
0-7_金物
  6
Continuous
 62
     7
370
     9
100
AcDbLine
 10
-3019.817896222992
 20
-291.0001979123488
 30
0.0
 11
-3019.817896222992
 21
-315.0001977542462
 31
0.0
  0
ARC
  5
39C
330
1F
100
AcDbEntity
  8
0-7_金物
  6
Continuous
 62
     7
370
     9
100
AcDbCircle
 10
-3010.217896286233
 20
-288.0001979321108
 30
0.0
 40
5.999999960474506
100
AcDbArc
 50
90.0
 51
180.0
  0
ARC
  5
39D
330
1F
100
AcDbEntity
  8
0-7_金物
  6
Continuous
 62
     7
370
     9
100
AcDbCircle
 10
-3010.217896286233
 20
-351.0001975170929
 30
0.0
 40
5.999999960474506
100
AcDbArc
 50
180.0
 51
270.0
  0
LINE
  5
39E
330
1F
100
AcDbEntity
  8
0-7_金物
  6
Continuous
 62
     7
370
     9
100
AcDbLine
 10
-3010.217896286233
 20
-357.0001974775653
 30
0.0
 11
-2989.217896424573
 21
-357.0001974775653
 31
0.0
  0
LINE
  5
39F
330
1F
100
AcDbEntity
  8
0-7_金物
  6
Continuous
 62
     7
370
     9
100
AcDbLine
 10
-3016.217896246707
 20
-351.0001975170929
 30
0.0
 11
-3016.217896246707
 21
-342.0001975763817
 31
0.0
  0
LINE
  5
3A0
330
1F
100
AcDbEntity
  8
0-7_金物
  6
Continuous
 62
     7
370
     9
100
AcDbLine
 10
-3019.217896226945
 20
-339.0001975961437
 30
0.0
 11
-3019.817896222992
 21
-339.0001975961437
 31
0.0
  0
LINE
  5
3A1
330
1F
100
AcDbEntity
  8
0-7_金物
  6
Continuous
 62
     7
370
     9
100
AcDbLine
 10
-3019.217896226945
 20
-291.0001979123488
 30
0.0
 11
-3019.817896222992
 21
-291.0001979123488
 31
0.0
  0
LINE
  5
3A2
330
1F
100
AcDbEntity
  8
0-7_金物
  6
Continuous
 62
     7
370
     9
100
AcDbLine
 10
-3058.817895966076
 20
-363.0001974380421
 30
0.0
 11
-3058.817895966076
 21
-267.0001980704487
 31
0.0
  0
ARC
  5
3A3
330
1F
100
AcDbEntity
  8
0-7_金物
  6
Continuous
 62
     7
370
     9
100
AcDbCircle
 10
-3019.217896226945
 20
-288.0001979321108
 30
0.0
 40
2.999999980237253
100
AcDbArc
 50
270.0
 51
0.0
  0
ARC
  5
3A4
330
1F
100
AcDbEntity
  8
0-7_金物
  6
Continuous
 62
     7
370
     9
100
AcDbCircle
 10
-3019.217896226945
 20
-342.0001975763817
 30
0.0
 40
2.999999980237253
100
AcDbArc
 50
0.0
 51
90.0
  0
LINE
  5
3A5
330
1F
100
AcDbEntity
  8
0-7_金物
  6
Continuous
 62
     7
370
     9
100
AcDbLine
 10
-3010.217896286233
 20
-282.000197971635
 30
0.0
 11
-2989.217896424573
 21
-282.000197971635
 31
0.0
  0
LINE
  5
3A6
330
1F
100
AcDbEntity
  8
0-7_金物
  6
Continuous
 62
     7
370
     9
100
AcDbLine
 10
-3007.217896305997
 20
-375.0001973589895
 30
0.0
 11
-3007.217896305997
 21
-376.8001973471318
 31
0.0
  0
LINE
  5
3A7
330
1F
100
AcDbEntity
  8
0-7_金物
  6
Continuous
 62
     7
370
     9
100
AcDbLine
 10
-3022.81789620323
 20
-315.0001977542454
 30
0.0
 11
-3022.81789620323
 21
-363.0001974380421
 31
0.0
  0
LINE
  5
3A8
330
1F
100
AcDbEntity
  8
0-7_金物
  6
Continuous
 62
     7
370
     9
100
AcDbLine
 10
-3022.81789620323
 20
-339.0001975961437
 30
0.0
 11
-3021.017896215087
 21
-339.0001975961437
 31
0.0
  0
LINE
  5
3A9
330
1F
100
AcDbEntity
  8
0-7_金物
  6
Continuous
 62
     7
370
     9
100
AcDbLine
 10
-3022.817896203232
 20
-291.0001979123488
 30
0.0
 11
-3021.017896215087
 21
-291.0001979123488
 31
0.0
  0
LINE
  5
3AA
330
1F
100
AcDbEntity
  8
0-7_金物
  6
Continuous
 62
     7
370
     9
100
AcDbLine
 10
-3019.817896222992
 20
-331.2001976475265
 30
0.0
 11
-3021.017896215087
 21
-330.0001976554316
 31
0.0
  0
LINE
  5
3AB
330
1F
100
AcDbEntity
  8
0-7_金物
  6
Continuous
 62
     7
370
     9
100
AcDbLine
 10
-3021.017896215089
 20
-300.0001978530583
 30
0.0
 11
-3019.817896222992
 21
-298.8001978609626
 31
0.0
  0
LINE
  5
3AC
330
1F
100
AcDbEntity
  8
0-7_金物
  6
Continuous
 62
     7
370
     9
100
AcDbLine
 10
-3022.81789620323
 20
-330.0001976554316
 30
0.0
 11
-3019.817896222992
 21
-330.0001976554316
 31
0.0
  0
LINE
  5
3AD
330
1F
100
AcDbEntity
  8
0-7_金物
  6
Continuous
 62
     7
370
     9
100
AcDbLine
 10
-3022.81789620323
 20
-300.0001978530583
 30
0.0
 11
-3019.817896222992
 21
-300.0001978530583
 31
0.0
  0
LINE
  5
3AE
330
1F
100
AcDbEntity
  8
0-7_金物
  6
Continuous
 62
     7
370
     9
100
AcDbLine
 10
-3019.817896222992
 20
-337.8001976040489
 30
0.0
 11
-3021.017896215087
 21
-339.0001975961437
 31
0.0
  0
LINE
  5
3AF
330
1F
100
AcDbEntity
  8
0-7_金物
  6
Continuous
 62
     7
370
     9
100
AcDbLine
 10
-3019.817896222992
 20
-292.2001979044402
 30
0.0
 11
-3021.017896215087
 21
-291.0001979123488
 31
0.0
  0
ARC
  5
3B0
330
1F
100
AcDbEntity
  8
0-7_金物
  6
Continuous
 62
     7
370
     9
100
AcDbCircle
 10
-3040.817896084652
 20
-339.0001975961437
 30
0.0
 40
29.99999980237253
100
AcDbArc
 50
233.1301023541541
 51
306.8698976458458
  0
ARC
  5
3B1
330
1F
100
AcDbEntity
  8
0-7_金物
  6
Continuous
 62
     7
370
     9
100
AcDbCircle
 10
-3040.817896084652
 20
-291.0001979123488
 30
0.0
 40
29.99999980237253
100
AcDbArc
 50
53.13010235415425
 51
126.8698976458457
  0
LINE
  5
3B2
330
1F
100
AcDbEntity
  8
0-7_金物
  6
Continuous
 62
     7
370
     9
100
AcDbLine
 10
-3022.81789620323
 20
-267.000198070447
 30
0.0
 11
-3022.81789620323
 21
-315.0001977542462
 31
0.0
  0
ARC
  5
3B3
330
1F
100
AcDbEntity
  8
0-7_金物
  6
Continuous
 62
     7
370
     9
100
AcDbCircle
 10
-3028.217896167654
 20
-369.0001973985171
 30
0.0
 40
11.99999992094901
100
AcDbArc
 50
0.0
 51
63.25631604961301
  0
ARC
  5
3B4
330
1F
100
AcDbEntity
  8
0-7_金物
  6
Continuous
 62
     7
370
     9
100
AcDbCircle
 10
-3010.217896286231
 20
-369.0001973985162
 30
0.0
 40
5.999999960474506
100
AcDbArc
 50
180.0
 51
270.0
  0
LINE
  5
3B5
330
1F
100
AcDbEntity
  8
0-7_金物
  6
Continuous
 62
     7
370
     9
100
AcDbLine
 10
-2989.217896424573
 20
-375.0001973589895
 30
0.0
 11
-3010.217896286231
 21
-375.0001973589895
 31
0.0
  0
LINE
  5
3B6
330
1F
100
AcDbEntity
  8
0-7_金物
  6
Continuous
 62
     7
370
     9
100
AcDbLine
 10
-3073.217895871217
 20
-333.0001976356696
 30
0.0
 11
-3073.217895871217
 21
-240.0001982483142
 31
0.0
  0
ARC
  5
3B7
330
1F
100
AcDbEntity
  8
0-7_金物
  6
Continuous
 62
     7
370
     9
100
AcDbCircle
 10
-3070.21789589098
 20
-240.0001982483142
 30
0.0
 40
2.999999980237589
100
AcDbArc
 50
89.99999999999997
 51
180.0
  0
LINE
  5
3B8
330
1F
100
AcDbEntity
  8
0-7_金物
  6
Continuous
 62
     7
370
     9
100
AcDbLine
 10
-3070.21789589098
 20
-237.0001982680771
 30
0.0
 11
-3069.017895898885
 21
-237.0001982680771
 31
0.0
  0
ARC
  5
3B9
330
1F
100
AcDbEntity
  8
0-7_金物
  6
Continuous
 62
     7
370
     9
100
AcDbCircle
 10
-3069.017895898885
 20
-240.0001982483133
 30
0.0
 40
2.999999980236907
100
AcDbArc
 50
359.999999999987
 51
89.99999999998697
  0
LINE
  5
3BA
330
1F
100
AcDbEntity
  8
0-7_金物
  6
Continuous
 62
     7
370
     9
100
AcDbLine
 10
-3066.017895918649
 20
-240.0001982483142
 30
0.0
 11
-3066.017895918649
 21
-246.0001982087883
 31
0.0
  0
ARC
  5
3BB
330
1F
100
AcDbEntity
  8
0-7_金物
  6
Continuous
 62
     7
370
     9
100
AcDbCircle
 10
-3063.017895938411
 20
-246.0001982087883
 30
0.0
 40
2.999999980237248
100
AcDbArc
 50
180.0000000000066
 51
270.0000000000065
  0
LINE
  5
3BC
330
1F
100
AcDbEntity
  8
0-7_金物
  6
Continuous
 62
     7
370
     9
100
AcDbLine
 10
-3063.017895938411
 20
-249.0001981890246
 30
0.0
 11
-3029.117896161729
 21
-249.0001981890246
 31
0.0
  0
ARC
  5
3BD
330
1F
100
AcDbEntity
  8
0-7_金物
  6
Continuous
 62
     7
370
     9
100
AcDbCircle
 10
-3029.117896161729
 20
-246.0001982087883
 30
0.0
 40
2.999999980236565
100
AcDbArc
 50
270.0000000000065
 51
0.0000000000065138
  0
LINE
  5
3BE
330
1F
100
AcDbEntity
  8
0-7_金物
  6
Continuous
 62
     7
370
     9
100
AcDbLine
 10
-3026.117896181493
 20
-246.0001982087883
 30
0.0
 11
-3026.117896181493
 21
-240.0001982483142
 31
0.0
  0
ARC
  5
3BF
330
1F
100
AcDbEntity
  8
0-7_金物
  6
Continuous
 62
     7
370
     9
100
AcDbCircle
 10
-3023.117896201256
 20
-240.0001982483142
 30
0.0
 40
2.999999980237589
100
AcDbArc
 50
89.99999999999997
 51
180.0
  0
LINE
  5
3C0
330
1F
100
AcDbEntity
  8
0-7_金物
  6
Continuous
 62
     7
370
     9
100
AcDbLine
 10
-3023.117896201256
 20
-237.0001982680771
 30
0.0
 11
-2955.317896647893
 21
-237.0001982680771
 31
0.0
  0
ARC
  5
3C1
330
1F
100
AcDbEntity
  8
0-7_金物
  6
Continuous
 62
     7
370
     9
100
AcDbCircle
 10
-2955.317896647893
 20
-240.0001982483142
 30
0.0
 40
2.999999980237589
100
AcDbArc
 50
0.0
 51
90.0
  0
LINE
  5
3C2
330
1F
100
AcDbEntity
  8
0-7_金物
  6
Continuous
 62
     7
370
     9
100
AcDbLine
 10
-2952.317896667655
 20
-240.0001982483142
 30
0.0
 11
-2952.317896667655
 21
-246.0001982087883
 31
0.0
  0
ARC
  5
3C3
330
1F
100
AcDbEntity
  8
0-7_金物
  6
Continuous
 62
     7
370
     9
100
AcDbCircle
 10
-2949.317896687418
 20
-246.0001982087883
 30
0.0
 40
2.999999980236565
100
AcDbArc
 50
179.9999999999935
 51
269.9999999999935
  0
LINE
  5
3C4
330
1F
100
AcDbEntity
  8
0-7_金物
  6
Continuous
 62
     7
370
     9
100
AcDbLine
 10
-2949.317896687418
 20
-249.0001981890246
 30
0.0
 11
-2915.417896910736
 21
-249.0001981890246
 31
0.0
  0
ARC
  5
3C5
330
1F
100
AcDbEntity
  8
0-7_金物
  6
Continuous
 62
     7
370
     9
100
AcDbCircle
 10
-2915.417896910736
 20
-246.0001982087883
 30
0.0
 40
2.999999980237248
100
AcDbArc
 50
269.9999999999935
 51
359.9999999999935
  0
LINE
  5
3C6
330
1F
100
AcDbEntity
  8
0-7_金物
  6
Continuous
 62
     7
370
     9
100
AcDbLine
 10
-2912.417896930499
 20
-246.0001982087883
 30
0.0
 11
-2912.417896930499
 21
-240.0001982483142
 31
0.0
  0
ARC
  5
3C7
330
1F
100
AcDbEntity
  8
0-7_金物
  6
Continuous
 62
     7
370
     9
100
AcDbCircle
 10
-2909.41789695026
 20
-240.0001982483133
 30
0.0
 40
2.999999980236907
100
AcDbArc
 50
90.00000000001303
 51
180.000000000013
  0
LINE
  5
3C8
330
1F
100
AcDbEntity
  8
0-7_金物
  6
Continuous
 62
     7
370
     9
100
AcDbLine
 10
-2909.417896950262
 20
-237.0001982680771
 30
0.0
 11
-2908.217896958167
 21
-237.0001982680771
 31
0.0
  0
ARC
  5
3C9
330
1F
100
AcDbEntity
  8
0-7_金物
  6
Continuous
 62
     7
370
     9
100
AcDbCircle
 10
-2908.217896958167
 20
-240.0001982483142
 30
0.0
 40
2.999999980237589
100
AcDbArc
 50
0.0
 51
90.0
  0
LINE
  5
3CA
330
1F
100
AcDbEntity
  8
0-7_金物
  6
Continuous
 62
     7
370
     9
100
AcDbLine
 10
-2905.217896977931
 20
-240.0001982483142
 30
0.0
 11
-2905.217896977931
 21
-333.0001976356696
 31
0.0
  0
LINE
  5
3CB
330
1F
100
AcDbEntity
  8
0-7_金物
  6
Continuous
 62
     7
370
     9
100
AcDbLine
 10
-2905.217896977931
 20
-333.0001976356696
 30
0.0
 11
-2896.817897033266
 21
-333.0001976356696
 31
0.0
  0
ARC
  5
3CC
330
1F
100
AcDbEntity
  8
0-7_金物
  6
Continuous
 62
     7
370
     9
100
AcDbCircle
 10
-2896.817897033266
 20
-336.6001976119541
 30
0.0
 40
3.599999976284494
100
AcDbArc
 50
270.0
 51
90.0
  0
LINE
  5
3CD
330
1F
100
AcDbEntity
  8
0-7_金物
  6
Continuous
 62
     7
370
     9
100
AcDbLine
 10
-2896.817897033266
 20
-340.2001975882386
 30
0.0
 11
-2905.217896977931
 21
-340.2001975882386
 31
0.0
  0
LINE
  5
3CE
330
1F
100
AcDbEntity
  8
0-7_金物
  6
Continuous
 62
     7
370
     9
100
AcDbLine
 10
-2905.217896977931
 20
-340.2001975882386
 30
0.0
 11
-2905.217896977931
 21
-353.7947911058075
 31
0.0
  0
ARC
  5
3CF
330
1F
100
AcDbEntity
  8
0-7_金物
  6
Continuous
 62
     7
370
     9
100
AcDbCircle
 10
-2917.217896898876
 20
-353.7947911058075
 30
0.0
 40
11.99999992094679
100
AcDbArc
 50
324.0494323803814
 51
359.9999999999989
  0
ARC
  5
3D0
330
1F
100
AcDbEntity
  8
0-7_金物
  6
Continuous
 62
     7
370
     9
100
AcDbCircle
 10
-2937.617896764493
 20
-339.0001975961437
 30
0.0
 40
37.19999975494105
100
AcDbArc
 50
246.1811586065432
 51
324.0494323803861
  0
ARC
  5
3D1
330
1F
100
AcDbEntity
  8
0-7_金物
  6
Continuous
 62
     7
370
     9
100
AcDbCircle
 10
-2950.217896681488
 20
-367.5427971495561
 30
0.0
 40
5.999999960474696
100
AcDbArc
 50
179.9999999999991
 51
246.1811586065413
  0
LINE
  5
3D2
330
1F
100
AcDbEntity
  8
0-7_金物
  6
Continuous
 62
     7
370
     9
100
AcDbLine
 10
-2956.217896641964
 20
-367.5427971495561
 30
0.0
 11
-2956.217896641964
 21
-366.0001974182783
 31
0.0
  0
ARC
  5
3D3
330
1F
100
AcDbEntity
  8
0-7_金物
  6
Continuous
 62
     7
370
     9
100
AcDbCircle
 10
-2954.417896653821
 20
-366.00019741828
 30
0.0
 40
1.799999988143101
100
AcDbArc
 50
58.10920819813321
 51
179.9999999999765
  0
ARC
  5
3D4
330
1F
100
AcDbEntity
  8
0-7_金物
  6
Continuous
 62
     7
370
     9
100
AcDbCircle
 10
-2937.617896764493
 20
-339.0001975961437
 30
0.0
 40
29.99999980237201
100
AcDbArc
 50
238.1092081981562
 51
326.07688799674
  0
ARC
  5
3D5
330
1F
100
AcDbEntity
  8
0-7_金物
  6
Continuous
 62
     7
370
     9
100
AcDbCircle
 10
-2914.217896918643
 20
-354.7380499507915
 30
0.0
 40
1.799999988144312
100
AcDbArc
 50
326.0768879966748
 51
359.9999999999343
  0
LINE
  5
3D6
330
1F
100
AcDbEntity
  8
0-7_金物
  6
Continuous
 62
     7
370
     9
100
AcDbLine
 10
-2912.417896930499
 20
-354.7380499507933
 30
0.0
 11
-2912.417896930499
 21
-270.000198050685
 31
0.0
  0
ARC
  5
3D7
330
1F
100
AcDbEntity
  8
0-7_金物
  6
Continuous
 62
     7
370
     9
100
AcDbCircle
 10
-2924.417896851448
 20
-270.000198050685
 30
0.0
 40
11.99999992094899
100
AcDbArc
 50
0.0
 51
90.00000000000001
  0
LINE
  5
3D8
330
1F
100
AcDbEntity
  8
0-7_金物
  6
Continuous
 62
     7
370
     9
100
AcDbLine
 10
-2924.417896851448
 20
-258.0001981297375
 30
0.0
 11
-2959.517896620225
 21
-258.0001981297375
 31
0.0
  0
ARC
  5
3D9
330
1F
100
AcDbEntity
  8
0-7_金物
  6
Continuous
 62
     7
370
     9
100
AcDbCircle
 10
-2959.517896620225
 20
-256.2001981415944
 30
0.0
 40
1.799999988142076
100
AcDbArc
 50
180.0000000000326
 51
270.0000000000326
  0
LINE
  5
3DA
330
1F
100
AcDbEntity
  8
0-7_金物
  6
Continuous
 62
     7
370
     9
100
AcDbLine
 10
-2961.317896608368
 20
-256.2001981415953
 30
0.0
 11
-2961.317896608368
 21
-247.8001981969297
 31
0.0
  0
ARC
  5
3DB
330
1F
100
AcDbEntity
  8
0-7_金物
  6
Continuous
 62
     7
370
     9
100
AcDbCircle
 10
-2963.11789659651
 20
-247.8001981969297
 30
0.0
 40
1.799999988142416
100
AcDbArc
 50
0.0000000000217168
 51
90.00000000002173
  0
LINE
  5
3DC
330
1F
100
AcDbEntity
  8
0-7_金物
  6
Continuous
 62
     7
370
     9
100
AcDbLine
 10
-2963.117896596511
 20
-246.0001982087883
 30
0.0
 11
-2987.41789643643
 21
-246.0001982087883
 31
0.0
  0
LINE
  5
3DD
330
1F
100
AcDbEntity
  8
0-7_金物
  6
Continuous
 62
     7
370
     9
100
AcDbLine
 10
-2987.41789643643
 20
-246.0001982087883
 30
0.0
 11
-2989.217896424573
 21
-244.2001982206452
 31
0.0
  0
LINE
  5
3DE
330
1F
100
AcDbEntity
  8
0-7_金物
  6
Continuous
 62
     7
370
     9
100
AcDbLine
 10
-2989.217896424573
 20
-244.2001982206452
 30
0.0
 11
-2991.017896412716
 21
-246.0001982087883
 31
0.0
  0
LINE
  5
3DF
330
1F
100
AcDbEntity
  8
0-7_金物
  6
Continuous
 62
     7
370
     9
100
AcDbLine
 10
-2991.017896412716
 20
-246.0001982087883
 30
0.0
 11
-3015.317896252637
 21
-246.0001982087883
 31
0.0
  0
ARC
  5
3E0
330
1F
100
AcDbEntity
  8
0-7_金物
  6
Continuous
 62
     7
370
     9
100
AcDbCircle
 10
-3015.317896252637
 20
-247.8001981969297
 30
0.0
 40
1.799999988142416
100
AcDbArc
 50
89.99999999997829
 51
179.9999999999783
  0
LINE
  5
3E1
330
1F
100
AcDbEntity
  8
0-7_金物
  6
Continuous
 62
     7
370
     9
100
AcDbLine
 10
-3017.11789624078
 20
-247.8001981969297
 30
0.0
 11
-3017.11789624078
 21
-256.2001981415953
 31
0.0
  0
ARC
  5
3E2
330
1F
100
AcDbEntity
  8
0-7_金物
  6
Continuous
 62
     7
370
     9
100
AcDbCircle
 10
-3018.917896228922
 20
-256.2001981415953
 30
0.0
 40
1.799999988141394
100
AcDbArc
 50
269.9999999999891
 51
359.9999999999891
  0
LINE
  5
3E3
330
1F
100
AcDbEntity
  8
0-7_金物
  6
Continuous
 62
     7
370
     9
100
AcDbLine
 10
-3018.917896228922
 20
-258.0001981297375
 30
0.0
 11
-3054.017895997699
 21
-258.0001981297375
 31
0.0
  0
ARC
  5
3E4
330
1F
100
AcDbEntity
  8
0-7_金物
  6
Continuous
 62
     7
370
     9
100
AcDbCircle
 10
-3054.017895997699
 20
-270.000198050685
 30
0.0
 40
11.99999992094899
100
AcDbArc
 50
90.0
 51
180.0
  0
LINE
  5
3E5
330
1F
100
AcDbEntity
  8
0-7_金物
  6
Continuous
 62
     7
370
     9
100
AcDbLine
 10
-3066.017895918649
 20
-270.000198050685
 30
0.0
 11
-3066.017895918649
 21
-354.7380499507933
 31
0.0
  0
ARC
  5
3E6
330
1F
100
AcDbEntity
  8
0-7_金物
  6
Continuous
 62
     7
370
     9
100
AcDbCircle
 10
-3064.217895930504
 20
-354.738049950795
 30
0.0
 40
1.799999988143631
100
AcDbArc
 50
179.9999999999944
 51
213.923112003254
  0
ARC
  5
3E7
330
1F
100
AcDbEntity
  8
0-7_金物
  6
Continuous
 62
     7
370
     9
100
AcDbCircle
 10
-3040.817896084654
 20
-339.0001975961429
 30
0.0
 40
29.99999980237392
100
AcDbArc
 50
213.9231120032609
 51
301.8907918018446
  0
ARC
  5
3E8
330
1F
100
AcDbEntity
  8
0-7_金物
  6
Continuous
 62
     7
370
     9
100
AcDbCircle
 10
-3024.017896195326
 20
-366.0001974182783
 30
0.0
 40
1.799999988141737
100
AcDbArc
 50
359.9999999999994
 51
121.8907918018427
  0
LINE
  5
3E9
330
1F
100
AcDbEntity
  8
0-7_金物
  6
Continuous
 62
     7
370
     9
100
AcDbLine
 10
-3022.217896207185
 20
-366.0001974182783
 30
0.0
 11
-3022.217896207185
 21
-367.5427971495561
 31
0.0
  0
ARC
  5
3EA
330
1F
100
AcDbEntity
  8
0-7_金物
  6
Continuous
 62
     7
370
     9
100
AcDbCircle
 10
-3028.217896167659
 20
-367.5427971495561
 30
0.0
 40
5.999999960474696
100
AcDbArc
 50
293.8188413934587
 51
0.0000000000009542
  0
ARC
  5
3EB
330
1F
100
AcDbEntity
  8
0-7_金物
  6
Continuous
 62
     7
370
     9
100
AcDbCircle
 10
-3040.817896084655
 20
-339.0001975961429
 30
0.0
 40
37.19999975494188
100
AcDbArc
 50
215.9505676196163
 51
293.8188413934565
  0
ARC
  5
3EC
330
1F
100
AcDbEntity
  8
0-7_金物
  6
Continuous
 62
     7
370
     9
100
AcDbCircle
 10
-3061.217895950269
 20
-353.7947911058075
 30
0.0
 40
11.99999992094837
100
AcDbArc
 50
179.9999999999987
 51
215.9505676196161
  0
LINE
  5
3ED
330
1F
100
AcDbEntity
  8
0-7_金物
  6
Continuous
 62
     7
370
     9
100
AcDbLine
 10
-3073.217895871217
 20
-353.7947911058075
 30
0.0
 11
-3073.217895871217
 21
-340.2001975882386
 31
0.0
  0
LINE
  5
3EE
330
1F
100
AcDbEntity
  8
0-7_金物
  6
Continuous
 62
     7
370
     9
100
AcDbLine
 10
-3105.61789565778
 20
-333.0001976356696
 30
0.0
 11
-3073.217895871217
 21
-333.0001976356696
 31
0.0
  0
LINE
  5
3EF
330
1F
100
AcDbEntity
  8
0-7_金物
  6
Continuous
 62
     7
370
     9
100
AcDbLine
 10
-3073.217895871217
 20
-340.2001975882386
 30
0.0
 11
-3098.417895705209
 21
-340.2001975882386
 31
0.0
  0
ARC
  5
3F0
330
1F
100
AcDbEntity
  8
0-7_金物
  6
Continuous
 62
     7
370
     9
100
AcDbCircle
 10
-3105.61789565778
 20
-334.2001976277635
 30
0.0
 40
1.199999992094489
100
AcDbArc
 50
89.99999999999997
 51
180.0
  0
ARC
  5
3F1
330
1F
100
AcDbEntity
  8
0-7_金物
  6
Continuous
 62
     7
370
     9
100
AcDbCircle
 10
-3098.417895705211
 20
-341.4001975803351
 30
0.0
 40
1.199999992095854
100
AcDbArc
 50
89.99999999993486
 51
179.9999999999349
  0
LINE
  5
3F2
330
1F
100
AcDbEntity
  8
0-7_金物
  6
Continuous
 62
     7
370
     9
100
AcDbLine
 10
-3106.817895649875
 20
-443.4001969083992
 30
0.0
 11
-3106.817895649875
 21
-334.2001976277635
 31
0.0
  0
LINE
  5
3F3
330
1F
100
AcDbEntity
  8
0-7_金物
  6
Continuous
 62
     7
370
     9
100
AcDbLine
 10
-3099.617895697306
 20
-341.4001975803334
 30
0.0
 11
-3099.617895697304
 21
-443.4001969083992
 31
0.0
  0
ARC
  5
3F4
330
1F
100
AcDbEntity
  8
0-7_金物
  6
Continuous
 62
     7
370
     9
100
AcDbCircle
 10
-3103.21789567359
 20
-443.4001969083992
 30
0.0
 40
3.599999976284835
100
AcDbArc
 50
180.0
 51
0.0
  0
LINE
  5
3F5
330
1F
100
AcDbEntity
  8
0-7_金物
  6
Continuous
 62
     7
370
     9
100
AcDbLine
 10
-2971.21789587121
 20
-382.8001973076068
 30
0.0
 11
-2971.21789587121
 21
-414.0001976356692
 31
0.0
  0
LINE
  5
3F6
330
1F
100
AcDbEntity
  8
0-7_金物
  6
Continuous
 62
     7
370
     9
100
AcDbLine
 10
-3007.217895871209
 20
-414.0001976356692
 30
0.0
 11
-3007.217895871209
 21
-382.8001973076068
 31
0.0
  0
LINE
  5
3F7
330
1F
100
AcDbEntity
  8
ハッチ
  6
JWW_DASHED1
 62
   120
370
     5
100
AcDbLine
 10
-3418.21789642457
 20
165.8808697704383
 30
0.0
 11
-3493.21789642458
 21
90.88086977042636
 31
0.0
  0
LINE
  5
3F8
330
1F
100
AcDbEntity
  8
ハッチ
  6
JWW_DASHED1
 62
   120
370
     5
100
AcDbLine
 10
-3418.217896424565
 20
123.45446289924
 30
0.0
 11
-3493.217896424576
 21
48.45446289922975
 31
0.0
  0
LINE
  5
3F9
330
1F
100
AcDbEntity
  8
ハッチ
  6
JWW_DASHED1
 62
   120
370
     5
100
AcDbLine
 10
-3418.217896424577
 20
81.02805602802803
 30
0.0
 11
-3493.217896424572
 21
6.028056028033149
 31
0.0
  0
LINE
  5
3FA
330
1F
100
AcDbEntity
  8
ハッチ
  6
JWW_DASHED1
 62
   120
370
     5
100
AcDbLine
 10
-3418.217896424574
 20
38.60164915683143
 30
0.0
 11
-3493.217896424568
 21
-36.39835084316175
 31
0.0
  0
LINE
  5
3FB
330
1F
100
AcDbEntity
  8
ハッチ
  6
JWW_DASHED1
 62
   120
370
     5
100
AcDbLine
 10
-3418.217896424579
 20
-3.824757714319134
 30
0.0
 11
-3493.217896424575
 21
-78.8247577143153
 31
0.0
  0
LINE
  5
3FC
330
1F
100
AcDbEntity
  8
ハッチ
  6
JWW_DASHED1
 62
   120
370
     5
100
AcDbLine
 10
-3418.217896424576
 20
-46.25116458551574
 30
0.0
 11
-3493.217896424572
 21
-121.2511645855119
 31
0.0
  0
LINE
  5
3FD
330
1F
100
AcDbEntity
  8
ハッチ
  6
JWW_DASHED1
 62
   120
370
     5
100
AcDbLine
 10
-3418.217896424573
 20
-88.67757145671192
 30
0.0
 11
-3482.540522919725
 21
-153.0001979518653
 31
0.0
  0
LINE
  5
3FE
330
1F
100
AcDbEntity
  8
ハッチ
  6
JWW_DASHED1
 62
   120
370
     5
100
AcDbLine
 10
-3418.21789642457
 20
-131.1039783279072
 30
0.0
 11
-3440.114116048521
 21
-153.0001979518619
 31
0.0
  0
LINE
  5
3FF
330
1F
100
AcDbEntity
  8
ハッチ
  6
JWW_DASHED1
 62
   120
370
     5
100
AcDbLine
 10
-2713.217896424569
 20
165.8808697704383
 30
0.0
 11
-2788.21789642458
 21
90.88086977042636
 31
0.0
  0
LINE
  5
400
330
1F
100
AcDbEntity
  8
ハッチ
  6
JWW_DASHED1
 62
   120
370
     5
100
AcDbLine
 10
-2713.217896424565
 20
123.45446289924
 30
0.0
 11
-2788.217896424576
 21
48.45446289922975
 31
0.0
  0
LINE
  5
401
330
1F
100
AcDbEntity
  8
ハッチ
  6
JWW_DASHED1
 62
   120
370
     5
100
AcDbLine
 10
-2713.217896424577
 20
81.02805602802803
 30
0.0
 11
-2788.217896424572
 21
6.028056028033149
 31
0.0
  0
LINE
  5
402
330
1F
100
AcDbEntity
  8
ハッチ
  6
JWW_DASHED1
 62
   120
370
     5
100
AcDbLine
 10
-2713.217896424574
 20
38.60164915683143
 30
0.0
 11
-2788.217896424568
 21
-36.39835084316175
 31
0.0
  0
LINE
  5
403
330
1F
100
AcDbEntity
  8
ハッチ
  6
JWW_DASHED1
 62
   120
370
     5
100
AcDbLine
 10
-2713.217896424579
 20
-3.824757714319134
 30
0.0
 11
-2788.217896424575
 21
-78.8247577143153
 31
0.0
  0
LINE
  5
404
330
1F
100
AcDbEntity
  8
ハッチ
  6
JWW_DASHED1
 62
   120
370
     5
100
AcDbLine
 10
-2713.217896424576
 20
-46.25116458551574
 30
0.0
 11
-2788.217896424572
 21
-121.2511645855119
 31
0.0
  0
LINE
  5
405
330
1F
100
AcDbEntity
  8
ハッチ
  6
JWW_DASHED1
 62
   120
370
     5
100
AcDbLine
 10
-2713.217896424573
 20
-88.67757145671192
 30
0.0
 11
-2777.540522919725
 21
-153.0001979518653
 31
0.0
  0
LINE
  5
406
330
1F
100
AcDbEntity
  8
ハッチ
  6
JWW_DASHED1
 62
   120
370
     5
100
AcDbLine
 10
-2713.217896424569
 20
-131.1039783279072
 30
0.0
 11
-2735.114116048521
 21
-153.0001979518619
 31
0.0
  0
LINE
  5
407
330
1F
100
AcDbEntity
  8
0-0_補助線
  6
JWW_HOJO
 62
   120
370
     5
100
AcDbLine
 10
-3853.217896424574
 20
194.9998020481414
 30
0.0
 11
-3853.217896424574
 21
-2853.000197951857
 31
0.0
  0
LINE
  5
408
330
1F
100
AcDbEntity
  8
0-0_補助線
  6
JWW_HOJO
 62
   120
370
     5
100
AcDbLine
 10
-2353.217896424574
 20
194.9998020481414
 30
0.0
 11
-2353.217896424574
 21
-2853.000197951857
 31
0.0
  0
LINE
  5
409
330
1F
100
AcDbEntity
  8
仕上げ
  6
Continuous
 62
    40
370
    15
100
AcDbLine
 10
-2713.217896424574
 20
194.9998020481414
 30
0.0
 11
-2713.217896424574
 21
-153.0001979518606
 31
0.0
  0
LINE
  5
40A
330
1F
100
AcDbEntity
  8
仕上げ
  6
Continuous
 62
    40
370
    15
100
AcDbLine
 10
-2788.217896424574
 20
194.9998020481414
 30
0.0
 11
-2788.217896424574
 21
-153.0001979518606
 31
0.0
  0
LINE
  5
40B
330
1F
100
AcDbEntity
  8
仕上げ
  6
Continuous
 62
    40
370
    15
100
AcDbLine
 10
-3418.217896424574
 20
194.9998020481414
 30
0.0
 11
-3418.217896424574
 21
-153.0001979518606
 31
0.0
  0
LINE
  5
40C
330
1F
100
AcDbEntity
  8
仕上げ
  6
Continuous
 62
    40
370
    15
100
AcDbLine
 10
-3493.217896424574
 20
194.9998020481414
 30
0.0
 11
-3493.217896424574
 21
-153.0001979518606
 31
0.0
  0
LINE
  5
40D
330
1F
100
AcDbEntity
  8
ハッチ
  6
JWW_DASHED1
 62
   120
370
     5
100
AcDbLine
 10
-3473.951777889265
 20
194.9998020481414
 30
0.0
 11
-3493.217896424568
 21
175.7336835128383
 31
0.0
  0
LINE
  5
40E
330
1F
100
AcDbEntity
  8
ハッチ
  6
JWW_DASHED1
 62
   120
370
     5
100
AcDbLine
 10
-3431.525371018065
 20
194.9998020481414
 30
0.0
 11
-3493.217896424568
 21
133.3072766416383
 31
0.0
  0
LINE
  5
40F
330
1F
100
AcDbEntity
  8
ハッチ
  6
JWW_DASHED1
 62
   120
370
     5
100
AcDbLine
 10
-2768.951777889265
 20
194.9998020481414
 30
0.0
 11
-2788.217896424568
 21
175.7336835128383
 31
0.0
  0
LINE
  5
410
330
1F
100
AcDbEntity
  8
ハッチ
  6
JWW_DASHED1
 62
   120
370
     5
100
AcDbLine
 10
-2726.525371018065
 20
194.9998020481414
 30
0.0
 11
-2788.217896424568
 21
133.3072766416383
 31
0.0
  0
LINE
  5
411
330
1F
100
AcDbEntity
  8
0-0_補助線
  6
JWW_HOJO
 62
   120
370
     5
100
AcDbLine
 10
-3853.217896424574
 20
194.9998020481414
 30
0.0
 11
-2353.217896424574
 21
194.9998020481414
 31
0.0
  0
MTEXT
  5
412
330
1F
100
AcDbEntity
  8
0-B_寸法
  6
Continuous
 62
     7
370
   211
100
AcDbMText
 10
-3868.217896424574
 20
-212.2801979518597
 30
0.0
 40
91.44
 41
60.0
 46
0.0
 71
     7
 72
     1
  1
{\fＭＳ ゴシック|b0|i0|c128|p49;5}
 11
6.123031769111886E-17
 21
1.0
 31
0.0
 73
     1
 44
1.0
  0
MTEXT
  5
413
330
1F
100
AcDbEntity
  8
0-B_寸法
  6
Continuous
 62
     7
370
   211
100
AcDbMText
 10
-1528.217896424574
 20
-245.2801979518604
 30
0.0
 40
91.44
 41
60.0
 46
0.0
 71
     7
 72
     1
  1
{\fＭＳ ゴシック|b0|i0|c128|p49;8}
 11
6.123031769111886E-17
 21
1.0
 31
0.0
 73
     1
 44
1.0
  0
MTEXT
  5
414
330
1F
100
AcDbEntity
  8
0-B_寸法
  6
Continuous
 62
     7
370
   211
100
AcDbMText
 10
-3718.217896424574
 20
-254.2801979518599
 30
0.0
 40
91.44
 41
60.0
 46
0.0
 71
     7
 72
     1
  1
{\fＭＳ ゴシック|b0|i0|c128|p49;9}
 11
6.123031769111886E-17
 21
1.0
 31
0.0
 73
     1
 44
1.0
  0
MTEXT
  5
415
330
1F
100
AcDbEntity
  8
0-B_寸法
  6
Continuous
 62
     7
370
   211
100
AcDbMText
 10
-1738.217896424574
 20
-317.2801979518606
 30
0.0
 40
91.44
 41
120.0
 46
0.0
 71
     7
 72
     1
  1
{\fＭＳ ゴシック|b0|i0|c128|p49;30}
 11
6.123031769111886E-17
 21
1.0
 31
0.0
 73
     1
 44
1.0
  0
MTEXT
  5
416
330
1F
100
AcDbEntity
  8
0-B_寸法
  6
Continuous
 62
     7
370
   211
100
AcDbMText
 10
-3868.217896424574
 20
-359.2801979518599
 30
0.0
 40
91.44
 41
120.0
 46
0.0
 71
     7
 72
     1
  1
{\fＭＳ ゴシック|b0|i0|c128|p49;16}
 11
6.123031769111886E-17
 21
1.0
 31
0.0
 73
     1
 44
1.0
  0
MTEXT
  5
417
330
1F
100
AcDbEntity
  8
0-B_寸法
  6
Continuous
 62
     7
370
   211
100
AcDbMText
 10
-2158.217896424574
 20
-626.28019795186
 30
0.0
 40
91.44
 41
180.0
 46
0.0
 71
     7
 72
     1
  1
{\fＭＳ ゴシック|b0|i0|c128|p49;6.3}
 11
6.123031769111886E-17
 21
1.0
 31
0.0
 73
     1
 44
1.0
  0
MTEXT
  5
418
330
1F
100
AcDbEntity
  8
0-B_寸法
  6
Continuous
 62
     7
370
     0
100
AcDbMText
 10
-1945.217896424575
 20
-686.28019795186
 30
0.0
 40
91.44
 41
240.0
 46
0.0
 71
     7
 72
     1
  1
{\fＭＳ ゴシック|b0|i0|c128|p49;13.5}
 11
6.123031769111886E-17
 21
1.0
 31
0.0
 73
     1
 44
1.0
  0
MTEXT
  5
419
330
1F
100
AcDbEntity
  8
0-B_寸法
  6
Continuous
 62
     7
370
   211
100
AcDbMText
 10
-3049.217896424575
 20
-1118.280324800433
 30
0.0
 40
91.44
 41
120.0
 46
0.0
 71
     7
 72
     1
  1
{\fＭＳ ゴシック|b0|i0|c128|p49;30}
 73
     1
 44
1.0
  0
MTEXT
  5
41A
330
1F
100
AcDbEntity
  8
0-B_寸法
  6
Continuous
 62
     7
370
     0
100
AcDbMText
 10
-1945.217896424575
 20
-2135.280197951861
 30
0.0
 40
91.43999999999997
 41
1140.0
 46
0.0
 71
     7
 72
     1
  1
{\fＭＳ ゴシック|b0|i0|c128|p49;ＤＨ＝1,983（2,183)}
 11
6.123031769111886E-17
 21
1.0
 31
0.0
 73
     1
 44
1.0
  0
MTEXT
  5
41B
330
1F
100
AcDbEntity
  8
0-B_寸法
  6
Continuous
 62
     7
370
   211
100
AcDbMText
 10
-1735.217896424575
 20
-2135.280197951861
 30
0.0
 40
91.43999999999997
 41
1140.0
 46
0.0
 71
     7
 72
     1
  1
{\fＭＳ ゴシック|b0|i0|c128|p49;枠内＝2,005（2,205)}
 11
6.123031769111886E-17
 21
1.0
 31
0.0
 73
     1
 44
1.0
  0
MTEXT
  5
41C
330
1F
100
AcDbEntity
  8
0-B_寸法
  6
Continuous
 62
     7
370
     0
100
AcDbMText
 10
-1525.217896424575
 20
-2135.280197951861
 30
0.0
 40
91.43999999999997
 41
1140.0
 46
0.0
 71
     7
 72
     1
  1
{\fＭＳ ゴシック|b0|i0|c128|p49;枠外＝2,035（2,235)}
 11
6.123031769111886E-17
 21
1.0
 31
0.0
 73
     1
 44
1.0
  0
MTEXT
  5
41D
330
1F
100
AcDbEntity
  8
0-B_寸法
  6
Continuous
 62
     7
370
   211
100
AcDbMText
 10
-3067.217896424566
 20
-2523.900403945509
 30
0.0
 40
76.19999999999999
 41
150.0
 46
0.0
 71
     7
 72
     1
  1
{\fＭＳ ゴシック|b0|i0|c128|p49;4.5}
 73
     1
 44
1.0
  0
MTEXT
  5
41E
330
1F
100
AcDbEntity
  8
0-B_寸法
  6
Continuous
 62
     7
370
     0
100
AcDbMText
 10
-1945.217896424575
 20
-2726.28040394551
 30
0.0
 40
91.44
 41
180.0
 46
0.0
 71
     7
 72
     1
  1
{\fＭＳ ゴシック|b0|i0|c128|p49;8.5}
 11
6.123031769111886E-17
 21
1.0
 31
0.0
 73
     1
 44
1.0
  0
MTEXT
  5
41F
330
1F
100
AcDbEntity
  8
0-B_寸法
  6
Continuous
 62
     7
370
   211
100
AcDbMText
 10
-2599.217896424575
 20
-2750.28040394551
 30
0.0
 40
91.44
 41
120.0
 46
0.0
 71
     7
 72
     1
  1
{\fＭＳ ゴシック|b0|i0|c128|p49;18}
 11
6.123031769111886E-17
 21
1.0
 31
0.0
 73
     1
 44
1.0
  0
MTEXT
  5
420
330
1F
100
AcDbEntity
  8
0-B_寸法
  6
Continuous
 62
     7
370
     0
100
AcDbMText
 10
-1528.217896424574
 20
-2777.28040394551
 30
0.0
 40
91.44
 41
120.0
 46
0.0
 71
     7
 72
     1
  1
{\fＭＳ ゴシック|b0|i0|c128|p49;12}
 11
6.123031769111886E-17
 21
1.0
 31
0.0
 73
     1
 44
1.0
  0
MTEXT
  5
421
330
1F
100
AcDbEntity
  8
0-B_寸法
  6
Continuous
 62
     7
370
   211
100
AcDbMText
 10
-3274.217896424575
 20
-2784.520740899824
 30
0.0
 40
91.44
 41
120.0
 46
0.0
 71
     7
 72
     1
  1
{\fＭＳ ゴシック|b0|i0|c128|p49;20}
 11
6.123031769111886E-17
 21
1.0
 31
0.0
 73
     1
 44
1.0
  0
MTEXT
  5
422
330
1F
100
AcDbEntity
  8
0-B_寸法
  6
Continuous
 62
     7
370
     0
100
AcDbMText
 10
-4078.217896424573
 20
-2195.280197951861
 30
0.0
 40
91.43999999999997
 41
1260.0
 46
0.0
 71
     7
 72
     1
  1
{\fＭＳ ゴシック|b0|i0|c128|p49;ＲＯＨ＝2,055（2,255)}
 11
6.123031769111886E-17
 21
1.0
 31
0.0
 73
     1
 44
1.0
  0
MTEXT
  5
423
330
1F
100
AcDbEntity
  8
0-A_文字
  6
Continuous
 62
     7
370
     9
100
AcDbMText
 10
-4063.217896424573
 20
354.3775129854472
 30
0.0
 40
100.584
 41
660.0
 46
0.0
 71
     7
 72
     1
  1
{\fＭＳ ゴシック|b0|i0|c128|p49;■縦断面図}
 73
     1
 44
1.0
  0
MTEXT
  5
424
330
1F
100
AcDbEntity
  8
0-A_文字
  6
Continuous
 62
     7
370
     0
100
AcDbMText
 10
-2617.583624603933
 20
-3255.294222858696
 30
0.0
 40
78.97090909090909
 41
1140.0
 46
0.0
 71
     7
 72
     1
  1
{\fＭＳ ゴシック|b0|i0|c128|p49;※(　)内寸法はハイドア}
 73
     1
 44
1.0
  0
LINE
  5
425
330
1F
100
AcDbEntity
  8
1-6_扉
  6
JWW_DASHED2
 62
     7
370
     9
100
AcDbLine
 10
523.0299864184441
 20
-2113.155803330815
 30
0.0
 11
523.0299864184441
 21
-1843.155803330816
 31
0.0
  0
LINE
  5
426
330
1F
100
AcDbEntity
  8
1-6_扉
  6
JWW_DASHED2
 62
     7
370
     9
100
AcDbLine
 10
620.5321035754274
 20
-1843.155803330816
 30
0.0
 11
620.5321035754274
 21
-2113.155803330815
 31
0.0
  0
LINE
  5
427
330
1F
100
AcDbEntity
  8
1-6_扉
  6
JWW_DASHED2
 62
     7
370
     9
100
AcDbLine
 10
620.5321035754274
 20
-1843.155803330816
 30
0.0
 11
523.0299864184441
 21
-1843.155803330816
 31
0.0
  0
LINE
  5
428
330
1F
100
AcDbEntity
  8
0-A_文字
  6
Continuous
 62
    92
370
    13
100
AcDbLine
 10
-1033.217896424574
 20
-2769.151510249264
 30
0.0
 11
-1033.217896424574
 21
56.99980204814111
 31
0.0
  0
LINE
  5
429
330
1F
100
AcDbEntity
  8
1-B_ﾊｯﾁ
  6
Continuous
 62
   120
370
     5
100
AcDbLine
 10
-560.7178964245704
 20
-1610.655717500126
 30
0.0
 11
-560.7178964245704
 21
-1760.655717500126
 31
0.0
  0
LINE
  5
42A
330
1F
100
AcDbEntity
  8
1-3_仕上
  6
Continuous
 62
    40
370
    15
100
AcDbLine
 10
-754.2556020560132
 20
-2240.655803330816
 30
0.0
 11
1318.7084445787
 21
-2240.655803330816
 31
0.0
  0
LINE
  5
42B
330
1F
100
AcDbEntity
  8
1-3_仕上
  6
Continuous
 62
    40
370
    15
100
AcDbLine
 10
-754.2556020560132
 20
-2420.655803330815
 30
0.0
 11
1318.7084445787
 21
-2420.655803330815
 31
0.0
  0
LINE
  5
42C
330
1F
100
AcDbEntity
  8
1-4_枠
  6
Continuous
 62
    92
370
    13
100
AcDbLine
 10
-560.7178964245704
 20
-421.1528778587724
 30
0.0
 11
-560.7178964245704
 21
-2240.655803330816
 31
0.0
  0
LINE
  5
42D
330
1F
100
AcDbEntity
  8
1-4_枠
  6
Continuous
 62
    92
370
    13
100
AcDbLine
 10
1134.28210357543
 20
-421.1528778587724
 30
0.0
 11
1134.28210357543
 21
-2240.655803330816
 31
0.0
  0
LINE
  5
42E
330
1F
100
AcDbEntity
  8
1-0_補助線
  6
JWW_HOJO
 62
   120
370
     5
100
AcDbLine
 10
571.7821035754299
 20
-2240.655803330816
 30
0.0
 11
571.7821035754299
 21
-421.1528778587724
 31
0.0
  0
LWPOLYLINE
  5
42F
330
1F
100
AcDbEntity
  8
1-B_ﾊｯﾁ
  6
Continuous
 62
     7
370
     9
100
AcDbPolyline
 90
        4
 70
     1
 43
3.0
 10
1135.78210357543
 20
-700.8289358421273
 42
0.4142135623731
 10
1134.28210357543
 20
-699.3289358421273
 42
0.4142135623731
 10
1132.78210357543
 20
-700.8289358421273
 42
0.4142135623731
 10
1134.28210357543
 20
-702.3289358421273
 42
0.4142135623731
  0
LWPOLYLINE
  5
430
330
1F
100
AcDbEntity
  8
1-B_ﾊｯﾁ
  6
Continuous
 62
     7
370
     9
100
AcDbPolyline
 90
        4
 70
     1
 43
3.0
 10
-559.2178964245704
 20
-700.8289358421273
 42
0.4142135623731
 10
-560.7178964245704
 20
-699.3289358421273
 42
0.4142135623731
 10
-562.2178964245705
 20
-700.8289358421273
 42
0.4142135623731
 10
-560.7178964245704
 20
-702.3289358421273
 42
0.4142135623731
  0
LINE
  5
431
330
1F
100
AcDbEntity
  8
1-B_ﾊｯﾁ
  6
Continuous
 62
   120
370
     5
100
AcDbLine
 10
-560.7178964245704
 20
-700.8289358421273
 30
0.0
 11
1134.28210357543
 21
-700.8289358421273
 31
0.0
  0
LWPOLYLINE
  5
432
330
1F
100
AcDbEntity
  8
1-B_ﾊｯﾁ
  6
Continuous
 62
     7
370
     9
100
AcDbPolyline
 90
        4
 70
     1
 43
3.0
 10
-559.2178964245704
 20
-880.8289358421273
 42
0.4142135623731
 10
-560.7178964245704
 20
-879.3289358421273
 42
0.4142135623731
 10
-562.2178964245705
 20
-880.8289358421273
 42
0.4142135623731
 10
-560.7178964245704
 20
-882.3289358421273
 42
0.4142135623731
  0
LINE
  5
433
330
1F
100
AcDbEntity
  8
0-A_文字
  6
Continuous
 62
    92
370
    13
100
AcDbLine
 10
-1033.217896424574
 20
56.99980204814111
 30
0.0
 11
1606.78210357543
 21
56.99980204814111
 31
0.0
  0
LINE
  5
434
330
1F
100
AcDbEntity
  8
0-A_文字
  6
Continuous
 62
    92
370
    13
100
AcDbLine
 10
-1033.217896424574
 20
-123.0001979518589
 30
0.0
 11
1606.78210357543
 21
-123.0001979518589
 31
0.0
  0
LINE
  5
435
330
1F
100
AcDbEntity
  8
0-A_文字
  6
Continuous
 62
    92
370
    13
100
AcDbLine
 10
-1033.217896424574
 20
-2769.151510249264
 30
0.0
 11
1606.78210357543
 21
-2769.151510249264
 31
0.0
  0
LINE
  5
436
330
1F
100
AcDbEntity
  8
0-A_文字
  6
Continuous
 62
    92
370
    13
100
AcDbLine
 10
1606.78210357543
 20
56.99980204814111
 30
0.0
 11
1606.78210357543
 21
-2769.151510249264
 31
0.0
  0
LWPOLYLINE
  5
437
330
1F
100
AcDbEntity
  8
1-B_ﾊｯﾁ
  6
Continuous
 62
     7
370
     9
100
AcDbPolyline
 90
        4
 70
     1
 43
3.0
 10
250.78210357543
 20
-880.8289358421273
 42
0.4142135623731
 10
249.2821035754299
 20
-879.3289358421273
 42
0.4142135623731
 10
247.7821035754299
 20
-880.8289358421273
 42
0.4142135623731
 10
249.2821035754299
 20
-882.3289358421273
 42
0.4142135623731
  0
LINE
  5
438
330
1F
100
AcDbEntity
  8
1-B_ﾊｯﾁ
  6
Continuous
 62
   120
370
     5
100
AcDbLine
 10
249.2821035754299
 20
-880.8289358421273
 30
0.0
 11
-560.7178964245704
 21
-880.8289358421273
 31
0.0
  0
LWPOLYLINE
  5
439
330
1F
100
AcDbEntity
  8
1-B_ﾊｯﾁ
  6
Continuous
 62
     7
370
     9
100
AcDbPolyline
 90
        4
 70
     1
 43
3.0
 10
348.28210357543
 20
-880.8289358421273
 42
0.4142135623731
 10
346.7821035754299
 20
-879.3289358421273
 42
0.4142135623731
 10
345.2821035754299
 20
-880.8289358421273
 42
0.4142135623731
 10
346.7821035754299
 20
-882.3289358421273
 42
0.4142135623731
  0
LINE
  5
43A
330
1F
100
AcDbEntity
  8
1-B_ﾊｯﾁ
  6
Continuous
 62
   120
370
     5
100
AcDbLine
 10
249.2821035754299
 20
-880.8289358421273
 30
0.0
 11
541.7821035754299
 21
-880.8289358421273
 31
0.0
  0
LINE
  5
43B
330
1F
100
AcDbEntity
  8
1-4_枠
  6
Continuous
 62
    92
370
    13
100
AcDbLine
 10
249.2821035754299
 20
-678.3289358421273
 30
0.0
 11
249.2821035754299
 21
-2240.655803330816
 31
0.0
  0
LINE
  5
43C
330
1F
100
AcDbEntity
  8
1-6_扉
  6
JWW_DASHED2
 62
     7
370
     9
100
AcDbLine
 10
346.7821035754316
 20
-678.3289358421273
 30
0.0
 11
346.7821035754316
 21
-2113.155803330815
 31
0.0
  0
LINE
  5
43D
330
1F
100
AcDbEntity
  8
1-4_枠
  6
Continuous
 62
    92
370
    13
100
AcDbLine
 10
249.2821035754299
 20
-421.1528778587724
 30
0.0
 11
249.2821035754299
 21
-565.8289358421273
 31
0.0
  0
LINE
  5
43E
330
1F
100
AcDbEntity
  8
1-6_扉
  6
JWW_DASHED2
 62
     7
370
     9
100
AcDbLine
 10
346.7821035754316
 20
-421.1528778587724
 30
0.0
 11
346.7821035754316
 21
-565.8289358421273
 31
0.0
  0
LINE
  5
43F
330
1F
100
AcDbEntity
  8
1-A_寸法
  6
Continuous
 62
     7
370
     9
100
AcDbLine
 10
162.3286980372534
 20
-2556.972886088492
 30
0.0
 11
87.32869803725336
 21
-2556.972886088492
 31
0.0
  0
LINE
  5
440
330
1F
100
AcDbEntity
  8
1-A_寸法
  6
Continuous
 62
     7
370
     9
100
AcDbLine
 10
356.0797196029192
 20
-2221.386272718386
 30
0.0
 11
162.3286980372534
 21
-2556.972886088492
 31
0.0
  0
LINE
  5
441
330
1F
100
AcDbEntity
  8
1-6_扉
  6
JWW_DASHED2
 62
     7
370
     9
100
AcDbLine
 10
523.02786926146
 20
-2113.155803330815
 30
0.0
 11
346.7821035754316
 21
-2113.155803330815
 31
0.0
  0
LINE
  5
442
330
1F
100
AcDbEntity
  8
1-6_扉
  6
JWW_DASHED2
 62
     7
370
     9
100
AcDbLine
 10
620.5299435031059
 20
-2113.155803330815
 30
0.0
 11
796.7821035754316
 21
-2113.155803330815
 31
0.0
  0
LINE
  5
443
330
1F
100
AcDbEntity
  8
1-7_金物
  6
Continuous
 62
   120
370
     5
100
AcDbLine
 10
556.6900786262817
 20
-2240.044354796354
 30
0.0
 11
593.6842574642678
 21
-2203.050175958359
 31
0.0
  0
LINE
  5
444
330
1F
100
AcDbEntity
  8
1-7_金物
  6
Continuous
 62
   120
370
     5
100
AcDbLine
 10
492.4390197849458
 20
-2240.655803330792
 30
0.0
 11
537.4375270667553
 21
-2195.657296048992
 31
0.0
  0
LINE
  5
445
330
1F
100
AcDbEntity
  8
1-7_金物
  6
Continuous
 62
   120
370
     5
100
AcDbLine
 10
549.2842636477131
 20
-2183.810559468023
 30
0.0
 11
594.284263647749
 21
-2138.810559468
 31
0.0
  0
LINE
  5
446
330
1F
100
AcDbEntity
  8
1-7_金物
  6
Continuous
 62
   120
370
     5
100
AcDbLine
 10
428.7994094781918
 20
-2240.655803330814
 30
0.0
 11
473.7979167599757
 21
-2195.657296049017
 31
0.0
  0
LINE
  5
447
330
1F
100
AcDbEntity
  8
1-7_金物
  6
Continuous
 62
   120
370
     5
100
AcDbLine
 10
549.2842636477387
 20
-2120.170949161261
 30
0.0
 11
594.2842636477575
 21
-2075.170949161246
 31
0.0
  0
LINE
  5
448
330
1F
100
AcDbEntity
  8
1-7_金物
  6
Continuous
 62
   120
370
     5
100
AcDbLine
 10
365.1597991714378
 20
-2240.655803330822
 30
0.0
 11
410.1583064532132
 21
-2195.657296049043
 31
0.0
  0
LINE
  5
449
330
1F
100
AcDbEntity
  8
1-7_金物
  6
Continuous
 62
   120
370
     5
100
AcDbLine
 10
549.2842636477643
 20
-2056.531338854494
 30
0.0
 11
594.2842636477745
 21
-2011.531338854481
 31
0.0
  0
LINE
  5
44A
330
1F
100
AcDbEntity
  8
1-7_金物
  6
Continuous
 62
   120
370
     5
100
AcDbLine
 10
549.2842636477473
 20
-1992.891728547633
 30
0.0
 11
594.284263647766
 21
-1947.89172854761
 31
0.0
  0
LINE
  5
44B
330
1F
100
AcDbEntity
  8
1-7_金物
  6
Continuous
 62
   120
370
     5
100
AcDbLine
 10
324.2842636477259
 20
-2217.891728547646
 30
0.0
 11
346.5186961463739
 21
-2195.657296048998
 31
0.0
  0
LINE
  5
44C
330
1F
100
AcDbEntity
  8
1-7_金物
  6
Continuous
 62
     7
370
     9
100
AcDbLine
 10
523.0342636477285
 20
-2113.155803330819
 30
0.0
 11
523.0342636477285
 21
-1843.155803330819
 31
0.0
  0
LINE
  5
44D
330
1F
100
AcDbEntity
  8
1-7_金物
  6
Continuous
 62
     7
370
     9
100
AcDbLine
 10
478.0342636477268
 20
-2113.155803330819
 30
0.0
 11
523.0342636477285
 21
-2113.155803330819
 31
0.0
  0
LINE
  5
44E
330
1F
100
AcDbEntity
  8
1-7_金物
  6
Continuous
 62
     7
370
     9
100
AcDbLine
 10
478.0342636477268
 20
-2128.155803330816
 30
0.0
 11
478.0342636477268
 21
-2113.155803330819
 31
0.0
  0
LINE
  5
44F
330
1F
100
AcDbEntity
  8
1-7_金物
  6
Continuous
 62
     7
370
     9
100
AcDbLine
 10
538.0342636477319
 20
-2128.155803330816
 30
0.0
 11
538.0342636477319
 21
-1858.155803330819
 31
0.0
  0
LINE
  5
450
330
1F
100
AcDbEntity
  8
1-7_金物
  6
Continuous
 62
     7
370
     9
100
AcDbLine
 10
538.0342636477319
 20
-2128.155803330816
 30
0.0
 11
478.0342636477268
 21
-2128.155803330816
 31
0.0
  0
LINE
  5
451
330
1F
100
AcDbEntity
  8
1-7_金物
  6
Continuous
 62
     7
370
     9
100
AcDbLine
 10
620.5342636477293
 20
-1843.155803330819
 30
0.0
 11
620.5342636477293
 21
-2113.155803330819
 31
0.0
  0
LINE
  5
452
330
1F
100
AcDbEntity
  8
1-7_金物
  6
Continuous
 62
     7
370
     9
100
AcDbLine
 10
605.5342636477259
 20
-1858.155803330819
 30
0.0
 11
605.5342636477259
 21
-2128.155803330816
 31
0.0
  0
LINE
  5
453
330
1F
100
AcDbEntity
  8
1-7_金物
  6
Continuous
 62
     7
370
     9
100
AcDbLine
 10
523.0342636477285
 20
-1843.155803330819
 30
0.0
 11
620.5342636477293
 21
-1843.155803330819
 31
0.0
  0
LINE
  5
454
330
1F
100
AcDbEntity
  8
1-7_金物
  6
Continuous
 62
     7
370
     9
100
AcDbLine
 10
605.5342636477259
 20
-1858.155803330819
 30
0.0
 11
538.0342636477319
 21
-1858.155803330819
 31
0.0
  0
LINE
  5
455
330
1F
100
AcDbEntity
  8
1-7_金物
  6
Continuous
 62
     7
370
     9
100
AcDbLine
 10
605.5342636477259
 20
-2128.155803330816
 30
0.0
 11
665.5342636477268
 21
-2128.155803330816
 31
0.0
  0
LINE
  5
456
330
1F
100
AcDbEntity
  8
1-7_金物
  6
Continuous
 62
     7
370
     9
100
AcDbLine
 10
665.5342636477268
 20
-2113.155803330819
 30
0.0
 11
665.5342636477268
 21
-2128.155803330816
 31
0.0
  0
LINE
  5
457
330
1F
100
AcDbEntity
  8
1-7_金物
  6
Continuous
 62
     7
370
     9
100
AcDbLine
 10
620.5342636477293
 20
-2113.155803330819
 30
0.0
 11
665.5342636477268
 21
-2113.155803330819
 31
0.0
  0
LINE
  5
458
330
1F
100
AcDbEntity
  8
1-7_金物
  6
Continuous
 62
    92
370
    13
100
AcDbLine
 10
324.2842636477259
 20
-2195.655803330816
 30
0.0
 11
324.2842636477259
 21
-2240.655803330816
 31
0.0
  0
LINE
  5
459
330
1F
100
AcDbEntity
  8
1-7_金物
  6
Continuous
 62
    92
370
    13
100
AcDbLine
 10
324.2842636477259
 20
-2195.655803330816
 30
0.0
 11
549.2842636477498
 21
-2195.655803330816
 31
0.0
  0
LINE
  5
45A
330
1F
100
AcDbEntity
  8
1-7_金物
  6
Continuous
 62
    92
370
    13
100
AcDbLine
 10
549.2842636477498
 20
-1940.655803330816
 30
0.0
 11
594.284263647749
 21
-1940.655803330816
 31
0.0
  0
LINE
  5
45B
330
1F
100
AcDbEntity
  8
1-7_金物
  6
Continuous
 62
    92
370
    13
100
AcDbLine
 10
549.2842636477498
 20
-1940.655803330816
 30
0.0
 11
549.2842636477498
 21
-2195.655803330816
 31
0.0
  0
LINE
  5
45C
330
1F
100
AcDbEntity
  8
1-7_金物
  6
Continuous
 62
    92
370
    13
100
AcDbLine
 10
549.2842636477498
 20
-2240.655803330816
 30
0.0
 11
324.2842636477259
 21
-2240.655803330816
 31
0.0
  0
LINE
  5
45D
330
1F
100
AcDbEntity
  8
1-7_金物
  6
Continuous
 62
    92
370
    13
100
AcDbLine
 10
594.284263647749
 20
-2195.655803330816
 30
0.0
 11
594.284263647749
 21
-1940.655803330816
 31
0.0
  0
ARC
  5
45E
330
1F
100
AcDbEntity
  8
1-7_金物
  6
Continuous
 62
    92
370
    13
100
AcDbCircle
 10
549.2842636477498
 20
-2195.655803330816
 30
0.0
 40
45.0
100
AcDbArc
 50
270.0
 51
0.0
  0
LINE
  5
45F
330
1F
100
AcDbEntity
  8
1-6_扉
  6
JWW_DASHED2
 62
     7
370
     9
100
AcDbLine
 10
796.7821035754316
 20
-421.1528778587724
 30
0.0
 11
796.7821035754316
 21
-1913.247470593393
 31
0.0
  0
LINE
  5
460
330
1F
100
AcDbEntity
  8
1-B_ﾊｯﾁ
  6
Continuous
 62
   120
370
     5
100
AcDbLine
 10
740.5342636477268
 20
-2006.228793306413
 30
0.0
 11
740.5342636477268
 21
-2113.155803330815
 31
0.0
  0
LINE
  5
461
330
1F
100
AcDbEntity
  8
1-B_ﾊｯﾁ
  6
Continuous
 62
   120
370
     5
100
AcDbLine
 10
740.5342636477268
 20
-2113.155803330815
 30
0.0
 11
1040.534263647727
 21
-2113.155803330815
 31
0.0
  0
LINE
  5
462
330
1F
100
AcDbEntity
  8
1-B_ﾊｯﾁ
  6
Continuous
 62
   120
370
     5
100
AcDbLine
 10
1040.534263647727
 20
-2240.655803330816
 30
0.0
 11
740.5342636477268
 21
-2240.655803330816
 31
0.0
  0
LINE
  5
463
330
1F
100
AcDbEntity
  8
1-B_ﾊｯﾁ
  6
Continuous
 62
   120
370
     5
100
AcDbLine
 10
740.5342636477268
 20
-2195.655803330816
 30
0.0
 11
890.5342636477268
 21
-2195.655803330816
 31
0.0
  0
LINE
  5
464
330
1F
100
AcDbEntity
  8
1-B_ﾊｯﾁ
  6
Continuous
 62
   120
370
     5
100
AcDbLine
 10
890.5342636477268
 20
-2195.655803330816
 30
0.0
 11
890.5342636477268
 21
-2240.655803330816
 31
0.0
  0
LINE
  5
465
330
1F
100
AcDbEntity
  8
1-B_ﾊｯﾁ
  6
Continuous
 62
   120
370
     5
100
AcDbLine
 10
890.5342636477268
 20
-2195.655803330816
 30
0.0
 11
890.5342636477268
 21
-1922.096364289633
 31
0.0
  0
LINE
  5
466
330
1F
100
AcDbEntity
  8
1-B_ﾊｯﾁ
  6
Continuous
 62
   120
370
     5
100
AcDbLine
 10
1040.534263647727
 20
-1922.096364289633
 30
0.0
 11
1040.534263647727
 21
-2240.655803330816
 31
0.0
  0
LINE
  5
467
330
1F
100
AcDbEntity
  8
1-B_ﾊｯﾁ
  6
Continuous
 62
   120
370
     5
100
AcDbLine
 10
1040.534263647727
 20
-2240.655803330816
 30
0.0
 11
1040.534263647727
 21
-2420.655803330815
 31
0.0
  0
LINE
  5
468
330
1F
100
AcDbEntity
  8
1-B_ﾊｯﾁ
  6
Continuous
 62
   120
370
     5
100
AcDbLine
 10
1040.534263647727
 20
-2420.655803330815
 30
0.0
 11
740.5342636477268
 21
-2420.655803330815
 31
0.0
  0
LWPOLYLINE
  5
469
330
1F
100
AcDbEntity
  8
1-B_ﾊｯﾁ
  6
Continuous
 62
     7
370
     9
100
AcDbPolyline
 90
        4
 70
     1
 43
3.0
 10
892.0342636477268
 20
-2240.655803330816
 42
0.4142135623731
 10
890.5342636477268
 20
-2239.155803330816
 42
0.4142135623731
 10
889.0342636477268
 20
-2240.655803330816
 42
0.4142135623731
 10
890.5342636477268
 20
-2242.155803330816
 42
0.4142135623731
  0
LWPOLYLINE
  5
46A
330
1F
100
AcDbEntity
  8
1-B_ﾊｯﾁ
  6
Continuous
 62
     7
370
     9
100
AcDbPolyline
 90
        4
 70
     1
 43
3.0
 10
892.0342636477268
 20
-2195.655803330816
 42
0.4142135623731
 10
890.5342636477268
 20
-2194.155803330816
 42
0.4142135623731
 10
889.0342636477268
 20
-2195.655803330816
 42
0.4142135623731
 10
890.5342636477268
 20
-2197.155803330816
 42
0.4142135623731
  0
LWPOLYLINE
  5
46B
330
1F
100
AcDbEntity
  8
1-B_ﾊｯﾁ
  6
Continuous
 62
     7
370
     9
100
AcDbPolyline
 90
        4
 70
     1
 43
3.0
 10
892.0342636477268
 20
-2113.155803330815
 42
0.4142135623731
 10
890.5342636477268
 20
-2111.655803330815
 42
0.4142135623731
 10
889.0342636477268
 20
-2113.155803330815
 42
0.4142135623731
 10
890.5342636477268
 20
-2114.655803330815
 42
0.4142135623731
  0
LWPOLYLINE
  5
46C
330
1F
100
AcDbEntity
  8
1-B_ﾊｯﾁ
  6
Continuous
 62
     7
370
     9
100
AcDbPolyline
 90
        4
 70
     1
 43
3.0
 10
1042.034263647727
 20
-2420.655803330815
 42
0.4142135623731
 10
1040.534263647727
 20
-2419.155803330815
 42
0.4142135623731
 10
1039.034263647727
 20
-2420.655803330815
 42
0.4142135623731
 10
1040.534263647727
 20
-2422.155803330815
 42
0.4142135623731
  0
LWPOLYLINE
  5
46D
330
1F
100
AcDbEntity
  8
1-B_ﾊｯﾁ
  6
Continuous
 62
     7
370
     9
100
AcDbPolyline
 90
        4
 70
     1
 43
3.0
 10
1042.034263647727
 20
-2240.655803330816
 42
0.4142135623731
 10
1040.534263647727
 20
-2239.155803330816
 42
0.4142135623731
 10
1039.034263647727
 20
-2240.655803330816
 42
0.4142135623731
 10
1040.534263647727
 20
-2242.155803330816
 42
0.4142135623731
  0
LWPOLYLINE
  5
46E
330
1F
100
AcDbEntity
  8
1-B_ﾊｯﾁ
  6
Continuous
 62
     7
370
     9
100
AcDbPolyline
 90
        4
 70
     1
 43
3.0
 10
1042.034263647727
 20
-2113.155803330815
 42
0.4142135623731
 10
1040.534263647727
 20
-2111.655803330815
 42
0.4142135623731
 10
1039.034263647727
 20
-2113.155803330815
 42
0.4142135623731
 10
1040.534263647727
 20
-2114.655803330815
 42
0.4142135623731
  0
LINE
  5
46F
330
1F
100
AcDbEntity
  8
1-B_ﾊｯﾁ
  6
Continuous
 62
   120
370
     5
100
AcDbLine
 10
594.2842636477498
 20
-1633.155803330816
 30
0.0
 11
324.2842636477259
 21
-1633.155803330816
 31
0.0
  0
LWPOLYLINE
  5
470
330
1F
100
AcDbEntity
  8
1-B_ﾊｯﾁ
  6
Continuous
 62
     7
370
     9
100
AcDbPolyline
 90
        4
 70
     1
 43
3.0
 10
595.7842636477498
 20
-1633.155803330816
 42
0.4142135623731
 10
594.2842636477498
 20
-1631.655803330816
 42
0.4142135623731
 10
592.7842636477498
 20
-1633.155803330816
 42
0.4142135623731
 10
594.2842636477498
 20
-1634.655803330815
 42
0.4142135623731
  0
LWPOLYLINE
  5
471
330
1F
100
AcDbEntity
  8
1-B_ﾊｯﾁ
  6
Continuous
 62
     7
370
     9
100
AcDbPolyline
 90
        4
 70
     1
 43
3.0
 10
325.7842636477259
 20
-1633.155803330816
 42
0.4142135623731
 10
324.2842636477259
 20
-1631.655803330816
 42
0.4142135623731
 10
322.7842636477259
 20
-1633.155803330816
 42
0.4142135623731
 10
324.2842636477259
 20
-1634.655803330815
 42
0.4142135623731
  0
LINE
  5
472
330
1F
100
AcDbEntity
  8
1-B_ﾊｯﾁ
  6
Continuous
 62
   120
370
     5
100
AcDbLine
 10
594.2842636477498
 20
-1633.155803330816
 30
0.0
 11
594.2842636477498
 21
-1783.155803330816
 31
0.0
  0
LINE
  5
473
330
1F
100
AcDbEntity
  8
1-B_ﾊｯﾁ
  6
Continuous
 62
   120
370
     5
100
AcDbLine
 10
324.2842636477259
 20
-1633.155803330816
 30
0.0
 11
324.2842636477259
 21
-1783.155803330816
 31
0.0
  0
LINE
  5
474
330
1F
100
AcDbEntity
  8
1-B_ﾊｯﾁ
  6
Continuous
 62
   120
370
     5
100
AcDbLine
 10
324.2842636477259
 20
-1633.155803330816
 30
0.0
 11
249.2821035754299
 21
-1633.155803330816
 31
0.0
  0
LWPOLYLINE
  5
475
330
1F
100
AcDbEntity
  8
1-B_ﾊｯﾁ
  6
Continuous
 62
     7
370
     9
100
AcDbPolyline
 90
        4
 70
     1
 43
3.0
 10
250.78210357543
 20
-1633.155803330816
 42
0.4142135623731
 10
249.2821035754299
 20
-1631.655803330816
 42
0.4142135623731
 10
247.7821035754299
 20
-1633.155803330816
 42
0.4142135623731
 10
249.2821035754299
 20
-1634.655803330815
 42
0.4142135623731
  0
LINE
  5
476
330
1F
100
AcDbEntity
  8
1-B_ﾊｯﾁ
  6
Continuous
 62
   120
370
     5
100
AcDbLine
 10
249.2821035754299
 20
-1633.155803330816
 30
0.0
 11
249.2821035754299
 21
-1783.155803330816
 31
0.0
  0
LWPOLYLINE
  5
477
330
1F
100
AcDbEntity
  8
1-B_ﾊｯﾁ
  6
Continuous
 62
     7
370
     9
100
AcDbPolyline
 90
        4
 70
     1
 43
3.0
 10
120.1040669697719
 20
-2240.655803330816
 42
0.4142135623731
 10
118.6040669697719
 20
-2239.155803330816
 42
0.4142135623731
 10
117.1040669697719
 20
-2240.655803330816
 42
0.4142135623731
 10
118.6040669697719
 20
-2242.155803330816
 42
0.4142135623731
  0
LINE
  5
478
330
1F
100
AcDbEntity
  8
1-B_ﾊｯﾁ
  6
Continuous
 62
   120
370
     5
100
AcDbLine
 10
118.6040669697719
 20
-2240.655803330816
 30
0.0
 11
211.7821035754299
 21
-2240.655803330816
 31
0.0
  0
LINE
  5
479
330
1F
100
AcDbEntity
  8
1-B_ﾊｯﾁ
  6
Continuous
 62
   120
370
     5
100
AcDbLine
 10
118.6040669697719
 20
-2240.655803330816
 30
0.0
 11
118.6040669697719
 21
-1940.655803330816
 31
0.0
  0
LWPOLYLINE
  5
47A
330
1F
100
AcDbEntity
  8
1-B_ﾊｯﾁ
  6
Continuous
 62
     7
370
     9
100
AcDbPolyline
 90
        4
 70
     1
 43
3.0
 10
120.1040669697719
 20
-1940.655803330816
 42
0.4142135623731
 10
118.6040669697719
 20
-1939.155803330816
 42
0.4142135623731
 10
117.1040669697719
 20
-1940.655803330816
 42
0.4142135623731
 10
118.6040669697719
 20
-1942.155803330816
 42
0.4142135623731
  0
LINE
  5
47B
330
1F
100
AcDbEntity
  8
1-B_ﾊｯﾁ
  6
Continuous
 62
   120
370
     5
100
AcDbLine
 10
118.6040669697719
 20
-1940.655803330816
 30
0.0
 11
211.7821035754299
 21
-1940.655803330816
 31
0.0
  0
LINE
  5
47C
330
1F
100
AcDbEntity
  8
1-B_ﾊｯﾁ
  6
Continuous
 62
   120
370
     5
100
AcDbLine
 10
-39.89295959089858
 20
-2113.155803330815
 30
0.0
 11
-39.89295959089858
 21
-1843.155803330816
 31
0.0
  0
LWPOLYLINE
  5
47D
330
1F
100
AcDbEntity
  8
1-B_ﾊｯﾁ
  6
Continuous
 62
     7
370
     9
100
AcDbPolyline
 90
        4
 70
     1
 43
3.0
 10
-38.39295959089858
 20
-2113.155803330815
 42
0.4142135623731
 10
-39.89295959089858
 20
-2111.655803330815
 42
0.4142135623731
 10
-41.39295959089858
 20
-2113.155803330815
 42
0.4142135623731
 10
-39.89295959089858
 20
-2114.655803330815
 42
0.4142135623731
  0
LWPOLYLINE
  5
47E
330
1F
100
AcDbEntity
  8
1-B_ﾊｯﾁ
  6
Continuous
 62
     7
370
     9
100
AcDbPolyline
 90
        4
 70
     1
 43
3.0
 10
-38.39295959089858
 20
-1843.155803330816
 42
0.4142135623731
 10
-39.89295959089858
 20
-1841.655803330816
 42
0.4142135623731
 10
-41.39295959089858
 20
-1843.155803330816
 42
0.4142135623731
 10
-39.89295959089858
 20
-1844.655803330816
 42
0.4142135623731
  0
LINE
  5
47F
330
1F
100
AcDbEntity
  8
1-B_ﾊｯﾁ
  6
Continuous
 62
   120
370
     5
100
AcDbLine
 10
-39.89295959089858
 20
-1843.155803330816
 30
0.0
 11
211.7821035754299
 21
-1843.155803330816
 31
0.0
  0
LINE
  5
480
330
1F
100
AcDbEntity
  8
1-B_ﾊｯﾁ
  6
Continuous
 62
   120
370
     5
100
AcDbLine
 10
-39.89295959089858
 20
-2113.155803330815
 30
0.0
 11
102.7859089615113
 21
-2113.155803330815
 31
0.0
  0
MTEXT
  5
481
330
1F
100
AcDbEntity
  8
0-A_文字
  6
Continuous
 62
     7
370
     9
100
AcDbMText
 10
-763.217896424572
 20
-107.2801979518589
 30
0.0
 40
91.43999999999998
 41
2100.0
 46
0.0
 71
     7
 72
     1
  1
{\fＭＳ ゴシック|b0|i0|c128|p49;振れ止め金具取り付け位置（Ｓ＝1/2）}
 73
     1
 44
1.0
  0
MTEXT
  5
482
330
1F
100
AcDbEntity
  8
1-A_寸法
  6
Continuous
 62
     7
370
     9
100
AcDbMText
 10
-223.2178964245701
 20
-1076.499937787235
 30
0.0
 40
91.44
 41
360.0
 46
0.0
 71
     7
 72
     1
  1
{\f@ＭＳ ゴシック|b0|i0|c128|p49;中方立}
 11
-1.836909530733566E-16
 21
-1.0
 31
0.0
 73
     1
 44
1.0
  0
MTEXT
  5
483
330
1F
100
AcDbEntity
  8
1-A_寸法
  6
Continuous
 62
     7
370
     9
100
AcDbMText
 10
511.7821035754299
 20
-1076.499937787235
 30
0.0
 40
91.44
 41
360.0
 46
0.0
 71
     7
 72
     1
  1
{\f@ＭＳ ゴシック|b0|i0|c128|p49;引き戸}
 11
-1.836909530733566E-16
 21
-1.0
 31
0.0
 73
     1
 44
1.0
  0
MTEXT
  5
484
330
1F
100
AcDbEntity
  8
1-A_寸法
  6
Continuous
 62
     7
370
     9
100
AcDbMText
 10
-575.0636301894756
 20
-2404.935803330814
 30
0.0
 40
91.44
 41
480.0
 46
0.0
 71
     7
 72
     1
  1
{\fＭＳ ゴシック|b0|i0|c128|p49;フロアー}
 73
     1
 44
1.0
  0
MTEXT
  5
485
330
1F
100
AcDbEntity
  8
1-A_寸法
  6
Continuous
 62
     7
370
     9
100
AcDbMText
 10
-632.6713019627466
 20
-2631.252886088492
 30
0.0
 40
91.44
 41
720.0
 46
0.0
 71
     7
 72
     1
  1
{\fＭＳ ゴシック|b0|i0|c128|p49;振れ止め金具}
 73
     1
 44
1.0
  0
MTEXT
  5
486
330
1F
100
AcDbEntity
  8
1-B_ﾊｯﾁ
  6
Continuous
 62
     7
370
   211
100
AcDbMText
 10
196.7821035754299
 20
-703.108935842127
 30
0.0
 40
91.44
 41
180.0
 46
0.0
 71
     7
 72
     1
  1
{\fＭＳ ゴシック|b0|i0|c128|p49;113}
 73
     1
 44
1.0
  0
MTEXT
  5
487
330
1F
100
AcDbEntity
  8
1-B_ﾊｯﾁ
  6
Continuous
 62
     7
370
   211
100
AcDbMText
 10
-215.7178964245701
 20
-880.1089358421273
 30
0.0
 40
91.44
 41
120.0
 46
0.0
 71
     7
 72
     1
  1
{\fＭＳ ゴシック|b0|i0|c128|p49;54}
 73
     1
 44
1.0
  0
MTEXT
  5
488
330
1F
100
AcDbEntity
  8
1-B_ﾊｯﾁ
  6
Continuous
 62
     7
370
   211
100
AcDbMText
 10
361.7821035754299
 20
-880.1089358421273
 30
0.0
 40
91.44
 41
180.0
 46
0.0
 71
     7
 72
     1
  1
{\fＭＳ ゴシック|b0|i0|c128|p49;6.5}
 73
     1
 44
1.0
  0
MTEXT
  5
489
330
1F
100
AcDbEntity
  8
1-B_ﾊｯﾁ
  6
Continuous
 62
     7
370
   211
100
AcDbMText
 10
256.7831836115779
 20
-1632.435803330816
 30
0.0
 40
91.44
 41
60.0
 46
0.0
 71
     7
 72
     1
  1
{\fＭＳ ゴシック|b0|i0|c128|p49;5}
 73
     1
 44
1.0
  0
MTEXT
  5
48A
330
1F
100
AcDbEntity
  8
1-B_ﾊｯﾁ
  6
Continuous
 62
     7
370
   211
100
AcDbMText
 10
395.5342636477378
 20
-1629.578303330816
 30
0.0
 40
97.15499999999999
 41
127.5
 46
0.0
 71
     7
 72
     1
  1
{\fＭＳ ゴシック|b0|i0|c128|p49;18}
 73
     1
 44
1.0
  0
MTEXT
  5
48B
330
1F
100
AcDbEntity
  8
1-B_ﾊｯﾁ
  6
Continuous
 62
     7
370
   211
100
AcDbMText
 10
-54.89295959089858
 20
-2052.435803330816
 30
0.0
 40
91.44
 41
120.0
 46
0.0
 71
     7
 72
     1
  1
{\fＭＳ ゴシック|b0|i0|c128|p49;18}
 11
6.123031769111886E-17
 21
1.0
 31
0.0
 73
     1
 44
1.0
  0
MTEXT
  5
48C
330
1F
100
AcDbEntity
  8
1-B_ﾊｯﾁ
  6
Continuous
 62
     7
370
   211
100
AcDbMText
 10
103.6040669697719
 20
-2107.336866719228
 30
0.0
 40
91.44
 41
120.0
 46
0.0
 71
     7
 72
     1
  1
{\fＭＳ ゴシック|b0|i0|c128|p49;20}
 11
6.123031769111886E-17
 21
1.0
 31
0.0
 73
     1
 44
1.0
  0
MTEXT
  5
48D
330
1F
100
AcDbEntity
  8
1-B_ﾊｯﾁ
  6
Continuous
 62
     7
370
   211
100
AcDbMText
 10
1025.534263647727
 20
-2114.224921595786
 30
0.0
 40
91.44
 41
180.0
 46
0.0
 71
     7
 72
     1
  1
{\fＭＳ ゴシック|b0|i0|c128|p49;8.5}
 11
6.123031769111886E-17
 21
1.0
 31
0.0
 73
     1
 44
1.0
  0
MTEXT
  5
48E
330
1F
100
AcDbEntity
  8
1-B_ﾊｯﾁ
  6
Continuous
 62
     7
370
   211
100
AcDbMText
 10
875.5342636477268
 20
-2116.376364289633
 30
0.0
 40
91.44
 41
180.0
 46
0.0
 71
     7
 72
     1
  1
{\fＭＳ ゴシック|b0|i0|c128|p49;5.5}
 11
6.123031769111886E-17
 21
1.0
 31
0.0
 73
     1
 44
1.0
  0
MTEXT
  5
48F
330
1F
100
AcDbEntity
  8
1-B_ﾊｯﾁ
  6
Continuous
 62
     7
370
   211
100
AcDbMText
 10
875.5342636477268
 20
-2262.435803330816
 30
0.0
 40
91.44
 41
60.0
 46
0.0
 71
     7
 72
     1
  1
{\fＭＳ ゴシック|b0|i0|c128|p49;3}
 11
6.123031769111886E-17
 21
1.0
 31
0.0
 73
     1
 44
1.0
  0
MTEXT
  5
490
330
1F
100
AcDbEntity
  8
1-B_ﾊｯﾁ
  6
Continuous
 62
     7
370
   211
100
AcDbMText
 10
1025.534263647727
 20
-2404.935803330815
 30
0.0
 40
91.44
 41
120.0
 46
0.0
 71
     7
 72
     1
  1
{\fＭＳ ゴシック|b0|i0|c128|p49;12}
 11
6.123031769111886E-17
 21
1.0
 31
0.0
 73
     1
 44
1.0
  0
LINE
  5
491
330
1F
100
AcDbEntity
  8
0-A_文字
  6
Continuous
 62
   120
370
     5
100
AcDbLine
 10
2914.45245174208
 20
-2673.043923200716
 30
0.0
 11
3682.378660338179
 21
-2673.043923200716
 31
0.0
  0
LINE
  5
492
330
1F
100
AcDbEntity
  8
0-A_文字
  6
Continuous
 62
   120
370
     5
100
AcDbLine
 10
2787.109135047683
 20
-2861.246932575988
 30
0.0
 11
2914.45245174208
 21
-2673.043923200716
 31
0.0
  0
LINE
  5
493
330
1F
100
AcDbEntity
  8
0-6_扉
  6
Continuous
 62
     7
370
     9
100
AcDbLine
 10
2231.421017697704
 20
-900.4288827037441
 30
0.0
 11
2437.181932544132
 21
-1019.225002279033
 31
0.0
  0
LINE
  5
494
330
1F
100
AcDbEntity
  8
0-6_扉
  6
Continuous
 62
     7
370
     9
100
AcDbLine
 10
2659.413365793519
 20
-1147.530380087963
 30
0.0
 11
2749.505789326183
 21
-1199.545265066492
 31
0.0
  0
LINE
  5
495
330
1F
100
AcDbEntity
  8
0-6_扉
  6
Continuous
 62
    40
370
    15
100
AcDbLine
 10
2955.225190018363
 20
-528.628247056308
 30
0.0
 11
2955.225190018363
 21
-1203.360703393877
 31
0.0
  0
LINE
  5
496
330
1F
100
AcDbEntity
  8
0-6_扉
  6
Continuous
 62
    40
370
    15
100
AcDbLine
 10
2981.741694312858
 20
-528.628247056308
 30
0.0
 11
2981.741694312858
 21
-1394.863970895616
 31
0.0
  0
LINE
  5
497
330
1F
100
AcDbEntity
  8
0-6_扉
  6
Continuous
 62
    40
370
    15
100
AcDbLine
 10
3082.504410631939
 20
-528.628247056308
 30
0.0
 11
3082.504410631939
 21
-1483.657974071505
 31
0.0
  0
LINE
  5
498
330
1F
100
AcDbEntity
  8
0-6_扉
  6
Continuous
 62
    40
370
    15
100
AcDbLine
 10
3177.963826092131
 20
-528.628247056308
 30
0.0
 11
3177.963826092131
 21
-1538.77149328413
 31
0.0
  0
LINE
  5
499
330
1F
100
AcDbEntity
  8
0-6_扉
  6
Continuous
 62
    40
370
    15
100
AcDbLine
 10
3750.720318853232
 20
-528.628247056308
 30
0.0
 11
3750.720318853232
 21
-1208.090378008403
 31
0.0
  0
LINE
  5
49A
330
1F
100
AcDbEntity
  8
0-6_扉
  6
Continuous
 62
    40
370
    15
100
AcDbLine
 10
2859.765774558183
 20
-528.628247056308
 30
0.0
 11
2859.765774558183
 21
-1355.059762575392
 31
0.0
  0
LINE
  5
49B
330
1F
100
AcDbEntity
  8
0-6_扉
  6
Continuous
 62
    40
370
    15
100
AcDbLine
 10
2955.225190018363
 20
-1410.173281788011
 30
0.0
 11
2951.098976738372
 21
-1407.791011440074
 31
0.0
  0
LINE
  5
49C
330
1F
100
AcDbEntity
  8
0-6_扉
  6
Continuous
 62
    40
370
    15
100
AcDbLine
 10
2946.752012868793
 20
-1405.281290679814
 30
0.0
 11
2859.765774558183
 21
-1355.059762575392
 31
0.0
  0
LINE
  5
49D
330
1F
100
AcDbEntity
  8
0-6_扉
  6
Continuous
 62
    40
370
    15
100
AcDbLine
 10
2955.225190018363
 20
-1350.766631000499
 30
0.0
 11
2955.225190018363
 21
-1410.173281788011
 31
0.0
  0
LINE
  5
49E
330
1F
100
AcDbEntity
  8
0-6_扉
  6
Continuous
 62
     7
370
     9
100
AcDbLine
 10
2766.041337461528
 20
-1209.092068233632
 30
0.0
 11
2859.765774558183
 21
-1263.203897221032
 31
0.0
  0
LINE
  5
49F
330
1F
100
AcDbEntity
  8
0-B_寸法
  6
JWW_CENTER1
 62
   120
370
     5
100
AcDbLine
 10
3092.197751472131
 20
-1588.288559553325
 30
0.0
 11
3268.578843345235
 21
-1690.122230426221
 31
0.0
  0
LINE
  5
4A0
330
1F
100
AcDbEntity
  8
0-B_寸法
  6
JWW_CENTER1
 62
   120
370
     5
100
AcDbLine
 10
3045.381316604418
 20
-1431.606323956775
 30
0.0
 11
2633.955429603003
 21
-1669.143170568621
 31
0.0
  0
LINE
  5
4A1
330
1F
100
AcDbEntity
  8
0-B_寸法
  6
Continuous
 62
   120
370
     5
100
AcDbLine
 10
2521.251549765151
 20
-1734.212772092899
 30
0.0
 11
2621.113527223934
 21
-1676.557432525263
 31
0.0
  0
LWPOLYLINE
  5
4A2
330
1F
100
AcDbEntity
  8
0-B_寸法
  6
Continuous
 62
     7
370
     9
100
AcDbPolyline
 90
        4
 70
     1
 43
3.0
 10
2522.75154976515
 20
-1734.212772092899
 42
0.4142135623731
 10
2521.251549765151
 20
-1732.7127720929
 42
0.4142135623731
 10
2519.751549765151
 20
-1734.212772092899
 42
0.4142135623731
 10
2521.251549765151
 20
-1735.712772092899
 42
0.4142135623731
  0
LINE
  5
4A3
330
1F
100
AcDbEntity
  8
0-B_寸法
  6
Continuous
 62
   120
370
     5
100
AcDbLine
 10
2521.251549765151
 20
-1734.212772092899
 30
0.0
 11
2680.350644726734
 21
-1826.068677396794
 31
0.0
  0
ELLIPSE
  5
4A4
330
1F
100
AcDbEntity
  8
0-7_金物
  6
Continuous
 62
     7
370
     9
100
AcDbEllipse
 10
2710.888906319105
 20
-1302.123066565262
 30
0.0
 11
3.839167031409308
 21
6.442887280167158
 31
0.0
210
0.0
220
0.0
230
0.9999999999999998
 40
0.6634139481689362
 41
6.22960553505472
 42
7.015003698451609
  0
ELLIPSE
  5
4A5
330
1F
100
AcDbEntity
  8
0-7_金物
  6
Continuous
 62
     7
370
     9
100
AcDbEllipse
 10
2716.634239642497
 20
-1514.053900465587
 30
0.0
 11
23.03500218845609
 21
38.65732368100281
 31
0.0
210
0.0
220
0.0
230
1.0
 40
0.6634139481689381
 41
2.302614718066926
 42
3.088012881464371
  0
LINE
  5
4A6
330
1F
100
AcDbEntity
  8
0-7_金物
  6
Continuous
 62
     7
370
     9
100
AcDbLine
 10
2832.336009386075
 20
-1621.969043516594
 30
0.0
 11
2832.336009386075
 21
-1368.656612909647
 31
0.0
  0
LINE
  5
4A7
330
1F
100
AcDbEntity
  8
0-7_金物
  6
Continuous
 62
     7
370
     9
100
AcDbLine
 10
2797.864009445721
 20
-1383.119334127593
 30
0.0
 11
2682.162239702143
 21
-1314.175334246886
 31
0.0
  0
LINE
  5
4A8
330
1F
100
AcDbEntity
  8
0-7_金物
  6
Continuous
 62
     7
370
     9
100
AcDbLine
 10
2798.05977693141
 20
-1381.35612090476
 30
0.0
 11
2682.358007187832
 21
-1312.412121024051
 31
0.0
  0
LINE
  5
4A9
330
1F
100
AcDbEntity
  8
0-7_金物
  6
Continuous
 62
     7
370
     9
100
AcDbLine
 10
2798.633738157847
 20
-1379.548799324177
 30
0.0
 11
2682.931968414269
 21
-1310.604799443468
 31
0.0
  0
LINE
  5
4AA
330
1F
100
AcDbEntity
  8
0-7_金物
  6
Continuous
 62
     7
370
     9
100
AcDbLine
 10
2799.546778615965
 20
-1377.82053536482
 30
0.0
 11
2683.845008872388
 21
-1308.876535484113
 31
0.0
  0
LINE
  5
4AB
330
1F
100
AcDbEntity
  8
0-7_金物
  6
Continuous
 62
     7
370
     9
100
AcDbLine
 10
2800.736676107418
 20
-1376.289107359431
 30
0.0
 11
2685.034906363839
 21
-1307.345107478722
 31
0.0
  0
LINE
  5
4AC
330
1F
100
AcDbEntity
  8
0-7_金物
  6
Continuous
 62
     7
370
     9
100
AcDbLine
 10
2802.122341084557
 20
-1375.058879595771
 30
0.0
 11
2686.420571340981
 21
-1306.114879715063
 31
0.0
  0
LINE
  5
4AD
330
1F
100
AcDbEntity
  8
0-7_金物
  6
Continuous
 62
     7
370
     9
100
AcDbLine
 10
2803.609342769113
 20
-1374.213690062885
 30
0.0
 11
2687.907573025535
 21
-1305.269690182177
 31
0.0
  0
ELLIPSE
  5
4AE
330
1F
100
AcDbEntity
  8
0-7_金物
  6
Continuous
 62
     7
370
     9
100
AcDbEllipse
 10
2687.907573025535
 20
-1311.764880710561
 30
0.0
 11
3.839167031409303
 21
6.442887280167151
 31
0.0
210
0.0
220
0.0
230
0.9999999999999999
 40
0.6634139481689377
 41
0.7318183912720223
 42
2.302614718066919
  0
ELLIPSE
  5
4AF
330
1F
100
AcDbEntity
  8
0-7_金物
  6
Continuous
 62
     7
370
     9
100
AcDbEllipse
 10
2803.609342769113
 20
-1380.708880591269
 30
0.0
 11
3.839167031409386
 21
6.442887280167133
 31
0.0
210
0.0
220
0.0
230
1.0
 40
0.6634139481689393
 41
0.7318183912720424
 42
2.302614718066939
  0
LINE
  5
4B0
330
1F
100
AcDbEntity
  8
0-7_金物
  6
Continuous
 62
     7
370
     9
100
AcDbLine
 10
2797.864009445721
 20
-1597.460621564242
 30
0.0
 11
2682.162239702143
 21
-1528.516621683534
 31
0.0
  0
LINE
  5
4B1
330
1F
100
AcDbEntity
  8
0-7_金物
  6
Continuous
 62
     7
370
     9
100
AcDbLine
 10
2797.864009445721
 20
-1383.119334127593
 30
0.0
 11
2797.864009445721
 21
-1597.460621564242
 31
0.0
  0
LINE
  5
4B2
330
1F
100
AcDbEntity
  8
0-7_金物
  6
Continuous
 62
     7
370
     9
100
AcDbLine
 10
2682.162239702143
 20
-1314.175334246886
 30
0.0
 11
2682.162239702143
 21
-1528.516621683534
 31
0.0
  0
LINE
  5
4B3
330
1F
100
AcDbEntity
  8
0-7_金物
  6
Continuous
 62
     7
370
     9
100
AcDbLine
 10
2826.590676062683
 20
-1364.571875917587
 30
0.0
 11
2710.888906319105
 21
-1295.62787603688
 31
0.0
  0
LINE
  5
4B4
330
1F
100
AcDbEntity
  8
0-7_金物
  6
Continuous
 62
     7
370
     9
100
AcDbLine
 10
2803.609342769113
 20
-1374.213690062885
 30
0.0
 11
2826.590676062683
 21
-1364.571875917587
 31
0.0
  0
LINE
  5
4B5
330
1F
100
AcDbEntity
  8
0-7_金物
  6
Continuous
 62
     7
370
     9
100
AcDbLine
 10
2687.907573025535
 20
-1305.269690182177
 30
0.0
 11
2710.888906319105
 21
-1295.62787603688
 31
0.0
  0
LINE
  5
4B6
330
1F
100
AcDbEntity
  8
0-7_金物
  6
Continuous
 62
     7
370
     9
100
AcDbLine
 10
2828.077677747239
 20
-1364.169322885401
 30
0.0
 11
2712.375908003661
 21
-1295.225323004694
 31
0.0
  0
LINE
  5
4B7
330
1F
100
AcDbEntity
  8
0-7_金物
  6
Continuous
 62
     7
370
     9
100
AcDbLine
 10
2829.463342724379
 20
-1364.236839677808
 30
0.0
 11
2713.761572980801
 21
-1295.2928397971
 31
0.0
  0
LINE
  5
4B8
330
1F
100
AcDbEntity
  8
0-7_金物
  6
Continuous
 62
     7
370
     9
100
AcDbLine
 10
2830.65324021583
 20
-1364.769825136982
 30
0.0
 11
2714.951470472253
 21
-1295.825825256274
 31
0.0
  0
ELLIPSE
  5
4B9
330
1F
100
AcDbEntity
  8
0-7_金物
  6
Continuous
 62
     7
370
     9
100
AcDbEllipse
 10
2826.590676062683
 20
-1371.06706644597
 30
0.0
 11
3.839167031409386
 21
6.442887280167132
 31
0.0
210
0.0
220
0.0
230
1.0
 40
0.6634139481689387
 41
5.444207371656721
 42
7.015003698451618
  0
LINE
  5
4BA
330
1F
100
AcDbEntity
  8
0-7_金物
  6
Continuous
 62
     7
370
     9
100
AcDbLine
 10
2807.960624467189
 20
-1620.781348200227
 30
0.0
 11
2692.258854723611
 21
-1551.837348319518
 31
0.0
  0
LINE
  5
4BB
330
1F
100
AcDbEntity
  8
0-7_金物
  6
Continuous
 62
     7
370
     9
100
AcDbLine
 10
2802.482381718472
 20
-1615.008555914039
 30
0.0
 11
2686.780611974896
 21
-1546.064556033331
 31
0.0
  0
ELLIPSE
  5
4BC
330
1F
100
AcDbEntity
  8
0-7_金物
  6
Continuous
 62
     7
370
     9
100
AcDbEllipse
 10
2832.336009386075
 20
-1582.997900346295
 30
0.0
 11
23.03500218845613
 21
38.65732368100281
 31
0.0
210
0.0
220
0.0
230
0.9999999999999998
 40
0.6634139481689386
 41
2.302614718066926
 42
3.873411044861822
  0
LINE
  5
4BD
330
1F
100
AcDbEntity
  8
0-7_金物
  6
Continuous
 62
     7
370
     9
100
AcDbLine
 10
2799.038614359853
 20
-1607.054290351019
 30
0.0
 11
2683.336844616274
 21
-1538.110290470311
 31
0.0
  0
LINE
  5
4BE
330
1F
100
AcDbEntity
  8
0-7_金物
  6
Continuous
 62
     7
370
     9
100
AcDbLine
 10
2911.885522269562
 20
-1667.896976193779
 30
0.0
 11
2832.336009386075
 21
-1621.969043516594
 31
0.0
  0
ELLIPSE
  5
4BF
330
1F
100
AcDbEntity
  8
0-7_金物
  6
Continuous
 62
     7
370
     9
100
AcDbEllipse
 10
2933.098725705158
 20
-1606.6597326242
 30
0.0
 11
29.99999999999995
 21
6.661338147750928E-14
 31
0.0
210
0.0
220
0.0
230
1.0
 40
0.5773502691896261
 41
2.356194490192344
 42
2.780225529683081
  0
ELLIPSE
  5
4C0
330
1F
100
AcDbEntity
  8
0-7_金物
  6
Continuous
 62
     7
370
     9
100
AcDbEllipse
 10
2964.918530858553
 20
-1588.288559553325
 30
0.0
 11
30.00000000000003
 21
7.993605777301137E-14
 31
0.0
210
0.0
220
0.0
230
1.0
 40
0.5773502691896266
 41
0.2617993877991396
 42
2.356194490192344
  0
LINE
  5
4C1
330
1F
100
AcDbEntity
  8
0-7_金物
  6
Continuous
 62
     7
370
     9
100
AcDbLine
 10
2975.525132576351
 20
-1594.412283910283
 30
0.0
 11
3007.344937729744
 21
-1576.04111083941
 31
0.0
  0
LINE
  5
4C2
330
1F
100
AcDbEntity
  8
0-7_金物
  6
Continuous
 62
     7
370
     9
100
AcDbLine
 10
2890.672318833965
 20
-1545.42248905462
 30
0.0
 11
2922.49212398736
 21
-1527.051315983747
 31
0.0
  0
LINE
  5
4C3
330
1F
100
AcDbEntity
  8
0-7_金物
  6
Continuous
 62
     7
370
     9
100
AcDbLine
 10
3070.984548036534
 20
-1539.298764697662
 30
0.0
 11
2832.336009386075
 21
-1401.514966666109
 31
0.0
  0
LINE
  5
4C4
330
1F
100
AcDbEntity
  8
0-7_金物
  6
Continuous
 62
     7
370
     9
100
AcDbLine
 10
2636.113877606807
 20
-1447.442899343293
 30
0.0
 11
2682.162239702143
 21
-1420.856865091809
 31
0.0
  0
ELLIPSE
  5
4C5
330
1F
100
AcDbEntity
  8
0-7_金物
  6
Continuous
 62
     7
370
     9
100
AcDbEllipse
 10
2773.999699938185
 20
-1478.061521128083
 30
0.0
 11
60.00000000000006
 21
0.0
 31
0.0
210
0.0
220
0.0
230
1.0
 40
0.5773502691896251
 41
6.047146014440955
 42
6.519224599918218
  0
ELLIPSE
  5
4C6
330
1F
100
AcDbEntity
  8
0-7_金物
  6
Continuous
 62
     7
370
     9
100
AcDbEllipse
 10
2773.999699938185
 20
-1441.319174986335
 30
0.0
 11
60.00000000000006
 21
0.0
 31
0.0
210
0.0
220
0.0
230
1.0
 40
0.5773502691896251
 41
6.047146014440955
 42
6.519224599918218
  0
LINE
  5
4C7
330
1F
100
AcDbEntity
  8
0-7_金物
  6
Continuous
 62
     7
370
     9
100
AcDbLine
 10
2682.162239702143
 20
-1498.523831022609
 30
0.0
 11
2636.113877606807
 21
-1471.937796771125
 31
0.0
  0
LINE
  5
4C8
330
1F
100
AcDbEntity
  8
0-7_金物
  6
Continuous
 62
     7
370
     9
100
AcDbLine
 10
2911.885522269562
 20
-1631.154630052032
 30
0.0
 11
2832.336009386075
 21
-1585.226697374847
 31
0.0
  0
LINE
  5
4C9
330
1F
100
AcDbEntity
  8
0-7_金物
  6
Continuous
 62
     7
370
     9
100
AcDbLine
 10
2682.784216666792
 20
-1535.625275732326
 30
0.0
 11
2636.113877606807
 21
-1508.680142912873
 31
0.0
  0
ELLIPSE
  5
4CA
330
1F
100
AcDbEntity
  8
0-7_金物
  6
Continuous
 62
     7
370
     9
100
AcDbEllipse
 10
3049.771344600937
 20
-1588.288559553325
 30
0.0
 11
-30.00000000000001
 21
3.673819061467133E-15
 31
0.0
210
0.0
220
0.0
230
1.0
 40
0.5773502691896252
 41
2.356194490192344
 42
3.141592653589793
  0
ELLIPSE
  5
4CB
330
1F
100
AcDbEntity
  8
0-7_金物
  6
Continuous
 62
     7
370
     9
100
AcDbEllipse
 10
2657.327081042404
 20
-1496.432694198956
 30
0.0
 11
-30.00000000000001
 21
-1.699649535696902E-14
 31
0.0
210
0.0
220
0.0
230
1.0
 40
0.5773502691896268
 41
0.0
 42
0.7853981633974476
  0
LINE
  5
4CC
330
1F
100
AcDbEntity
  8
0-7_金物
  6
Continuous
 62
     7
370
     9
100
AcDbLine
 10
2943.705327422957
 20
-1576.04111083941
 30
0.0
 11
2911.885522269562
 21
-1594.412283910283
 31
0.0
  0
ELLIPSE
  5
4CD
330
1F
100
AcDbEntity
  8
0-7_金物
  6
Continuous
 62
     7
370
     9
100
AcDbEllipse
 10
2933.098725705158
 20
-1569.917386482452
 30
0.0
 11
59.99999999999998
 21
0.0
 31
0.0
210
0.0
220
0.0
230
1.0
 40
0.5773502691896258
 41
2.356194490192344
 42
5.497787143782136
  0
LINE
  5
4CE
330
1F
100
AcDbEntity
  8
0-7_金物
  6
Continuous
 62
     7
370
     9
100
AcDbLine
 10
2833.999699938185
 20
-1441.319174986335
 30
0.0
 11
2833.999699938185
 21
-1478.061521128083
 31
0.0
  0
ELLIPSE
  5
4CF
330
1F
100
AcDbEntity
  8
0-7_金物
  6
Continuous
 62
     7
370
     9
100
AcDbEllipse
 10
2964.918530858553
 20
-1551.546213411578
 30
0.0
 11
60.00000000000004
 21
0.0
 31
0.0
210
0.0
220
0.0
230
1.0
 40
0.5773502691896252
 41
5.497787143782138
 42
8.63937979737193
  0
LINE
  5
4D0
330
1F
100
AcDbEntity
  8
0-7_金物
  6
Continuous
 62
     7
370
     9
100
AcDbLine
 10
2954.311929140755
 20
-1631.154630052032
 30
0.0
 11
2954.311929140755
 21
-1667.896976193779
 31
0.0
  0
LINE
  5
4D1
330
1F
100
AcDbEntity
  8
0-7_金物
  6
Continuous
 62
     7
370
     9
100
AcDbLine
 10
3070.984548036534
 20
-1563.793662125493
 30
0.0
 11
3070.984548036534
 21
-1600.536008267241
 31
0.0
  0
LINE
  5
4D2
330
1F
100
AcDbEntity
  8
0-7_金物
  6
Continuous
 62
     7
370
     9
100
AcDbLine
 10
3070.984548036534
 20
-1563.793662125493
 30
0.0
 11
2954.311929140755
 21
-1631.154630052032
 31
0.0
  0
LINE
  5
4D3
330
1F
100
AcDbEntity
  8
0-7_金物
  6
Continuous
 62
     7
370
     9
100
AcDbLine
 10
3070.984548036534
 20
-1600.536008267241
 30
0.0
 11
2954.311929140755
 21
-1667.896976193779
 31
0.0
  0
LINE
  5
4D4
330
1F
100
AcDbEntity
  8
0-7_金物
  6
Continuous
 62
     7
370
     9
100
AcDbLine
 10
3079.771344600937
 20
-1551.546213411578
 30
0.0
 11
3079.771344600937
 21
-1588.288559553325
 31
0.0
  0
LINE
  5
4D5
330
1F
100
AcDbEntity
  8
0-7_金物
  6
Continuous
 62
     7
370
     9
100
AcDbLine
 10
3078.74911938961
 20
-1556.029090772419
 30
0.0
 11
3078.74911938961
 21
-1592.771436914166
 31
0.0
  0
LINE
  5
4D6
330
1F
100
AcDbEntity
  8
0-7_金物
  6
Continuous
 62
     7
370
     9
100
AcDbLine
 10
3075.75210671447
 20
-1560.206467449422
 30
0.0
 11
3075.75210671447
 21
-1596.94881359117
 31
0.0
  0
ELLIPSE
  5
4D7
330
1F
100
AcDbEntity
  8
0-7_金物
  6
Continuous
 62
     7
370
     9
100
AcDbEllipse
 10
3049.771344600937
 20
-1551.546213411578
 30
0.0
 11
-30.00000000000001
 21
3.673819061467133E-15
 31
0.0
210
0.0
220
0.0
230
1.0
 40
0.5773502691896252
 41
2.356194490192344
 42
3.92699081698724
  0
LINE
  5
4D8
330
1F
100
AcDbEntity
  8
0-7_金物
  6
Continuous
 62
     7
370
     9
100
AcDbLine
 10
2948.098725705158
 20
-1633.907181338115
 30
0.0
 11
2948.098725705158
 21
-1670.649527479863
 31
0.0
  0
LINE
  5
4D9
330
1F
100
AcDbEntity
  8
0-7_金物
  6
Continuous
 62
     7
370
     9
100
AcDbLine
 10
2940.863297058233
 20
-1635.637507412872
 30
0.0
 11
2940.863297058233
 21
-1672.379853554619
 31
0.0
  0
LINE
  5
4DA
330
1F
100
AcDbEntity
  8
0-7_金物
  6
Continuous
 62
     7
370
     9
100
AcDbLine
 10
2933.098725705158
 20
-1636.227689413804
 30
0.0
 11
2933.098725705158
 21
-1672.970035555552
 31
0.0
  0
LINE
  5
4DB
330
1F
100
AcDbEntity
  8
0-7_金物
  6
Continuous
 62
     7
370
     9
100
AcDbLine
 10
2925.334154352082
 20
-1635.637507412872
 30
0.0
 11
2925.334154352082
 21
-1672.379853554619
 31
0.0
  0
LINE
  5
4DC
330
1F
100
AcDbEntity
  8
0-7_金物
  6
Continuous
 62
     7
370
     9
100
AcDbLine
 10
2918.098725705158
 20
-1633.907181338115
 30
0.0
 11
2918.098725705158
 21
-1670.649527479863
 31
0.0
  0
LINE
  5
4DD
330
1F
100
AcDbEntity
  8
0-7_金物
  6
Continuous
 62
     7
370
     9
100
AcDbLine
 10
2911.885522269562
 20
-1631.154630052032
 30
0.0
 11
2911.885522269562
 21
-1667.896976193779
 31
0.0
  0
ELLIPSE
  5
4DE
330
1F
100
AcDbEntity
  8
0-7_金物
  6
Continuous
 62
     7
370
     9
100
AcDbEllipse
 10
2933.098725705158
 20
-1655.649527479863
 30
0.0
 11
-29.99999999999994
 21
-4.364184794797269E-14
 31
0.0
210
0.0
220
0.0
230
1.0
 40
0.5773502691896277
 41
0.7853981633974488
 42
2.356194490192345
  0
ELLIPSE
  5
4DF
330
1F
100
AcDbEntity
  8
0-7_金物
  6
Continuous
 62
     7
370
     9
100
AcDbEllipse
 10
2933.098725705158
 20
-1618.907181338115
 30
0.0
 11
-29.99999999999994
 21
-4.364184794797269E-14
 31
0.0
210
0.0
220
0.0
230
1.0
 40
0.5773502691896277
 41
0.7853981633974482
 42
2.356194490192345
  0
LINE
  5
4E0
330
1F
100
AcDbEntity
  8
0-7_金物
  6
Continuous
 62
     7
370
     9
100
AcDbLine
 10
2636.113877606807
 20
-1471.937796771125
 30
0.0
 11
2636.113877606807
 21
-1508.680142912873
 31
0.0
  0
LINE
  5
4E1
330
1F
100
AcDbEntity
  8
0-7_金物
  6
Continuous
 62
     7
370
     9
100
AcDbLine
 10
2631.346318928871
 20
-1468.350602095054
 30
0.0
 11
2631.346318928871
 21
-1505.092948236801
 31
0.0
  0
LINE
  5
4E2
330
1F
100
AcDbEntity
  8
0-7_金物
  6
Continuous
 62
     7
370
     9
100
AcDbLine
 10
2628.349306253733
 20
-1464.173225418049
 30
0.0
 11
2628.349306253733
 21
-1500.915571559797
 31
0.0
  0
LINE
  5
4E3
330
1F
100
AcDbEntity
  8
0-7_金物
  6
Continuous
 62
     7
370
     9
100
AcDbLine
 10
2627.327081042404
 20
-1459.690348057208
 30
0.0
 11
2627.327081042404
 21
-1496.432694198956
 31
0.0
  0
ELLIPSE
  5
4E4
330
1F
100
AcDbEntity
  8
0-7_金物
  6
Continuous
 62
     7
370
     9
100
AcDbEllipse
 10
2657.327081042404
 20
-1459.690348057208
 30
0.0
 11
-30.00000000000005
 21
3.673819061467138E-15
 31
0.0
210
0.0
220
0.0
230
1.0
 40
0.5773502691896267
 41
5.497787143782136
 42
7.068583470577034
  0
LINE
  5
4E5
330
1F
100
AcDbEntity
  8
0-7_金物
  6
Continuous
 62
     7
370
     9
100
AcDbLine
 10
2758.573267264886
 20
-1321.819041777791
 30
0.0
 11
2771.055572671666
 21
-1133.404568652902
 31
0.0
  0
LINE
  5
4E6
330
1F
100
AcDbEntity
  8
0-7_金物
  6
Continuous
 62
     7
370
     9
100
AcDbLine
 10
2757.566587409259
 20
-1321.219184610523
 30
0.0
 11
2745.124022051308
 21
-1133.404568652902
 31
0.0
  0
LINE
  5
4E7
330
1F
100
AcDbEntity
  8
0-7_金物
  6
Continuous
 62
     7
370
     9
100
AcDbLine
 10
2754.988123350488
 20
-1103.815109841901
 30
0.0
 11
2754.988123350488
 21
-1094.718854322902
 31
0.0
  0
LINE
  5
4E8
330
1F
100
AcDbEntity
  8
0-7_金物
  6
Continuous
 62
     7
370
     9
100
AcDbLine
 10
2754.988123350488
 20
-1119.114713382901
 30
0.0
 11
2754.988123350488
 21
-1110.018457863902
 31
0.0
  0
LINE
  5
4E9
330
1F
100
AcDbEntity
  8
0-7_金物
  6
Continuous
 62
     7
370
     9
100
AcDbLine
 10
2761.191471372488
 20
-1103.815109841901
 30
0.0
 11
2761.191471372488
 21
-1094.718854322902
 31
0.0
  0
LINE
  5
4EA
330
1F
100
AcDbEntity
  8
0-7_金物
  6
Continuous
 62
     7
370
     9
100
AcDbLine
 10
2761.191471372488
 20
-1119.114713382901
 30
0.0
 11
2761.191471372488
 21
-1110.018457863902
 31
0.0
  0
LINE
  5
4EB
330
1F
100
AcDbEntity
  8
0-7_金物
  6
Continuous
 62
     7
370
     9
100
AcDbLine
 10
2761.191471372488
 20
-1110.018457863902
 30
0.0
 11
2781.369394617488
 21
-1110.018457863902
 31
0.0
  0
LINE
  5
4EC
330
1F
100
AcDbEntity
  8
0-7_金物
  6
Continuous
 62
     7
370
     9
100
AcDbLine
 10
2734.810200104363
 20
-1110.018457863902
 30
0.0
 11
2754.988123350488
 21
-1110.018457863902
 31
0.0
  0
LINE
  5
4ED
330
1F
100
AcDbEntity
  8
0-7_金物
  6
Continuous
 62
     7
370
     9
100
AcDbLine
 10
2761.191471372488
 20
-1103.815109841901
 30
0.0
 11
2781.369394617488
 21
-1103.815109841901
 31
0.0
  0
LINE
  5
4EE
330
1F
100
AcDbEntity
  8
0-7_金物
  6
Continuous
 62
     7
370
     9
100
AcDbLine
 10
2734.810200104363
 20
-1103.815109841901
 30
0.0
 11
2754.988123350488
 21
-1103.815109841901
 31
0.0
  0
LINE
  5
4EF
330
1F
100
AcDbEntity
  8
0-7_金物
  6
Continuous
 62
     7
370
     9
100
AcDbLine
 10
2754.988123350488
 20
-1094.718854322902
 30
0.0
 11
2761.191471372488
 21
-1094.718854322902
 31
0.0
  0
LINE
  5
4F0
330
1F
100
AcDbEntity
  8
0-7_金物
  6
Continuous
 62
     7
370
     9
100
AcDbLine
 10
2754.988123350488
 20
-1119.114713382901
 30
0.0
 11
2761.191471372488
 21
-1119.114713382901
 31
0.0
  0
LINE
  5
4F1
330
1F
100
AcDbEntity
  8
0-7_金物
  6
Continuous
 62
     7
370
     9
100
AcDbLine
 10
2781.369394617488
 20
-1110.018457863902
 30
0.0
 11
2781.369394617488
 21
-1103.815109841901
 31
0.0
  0
LINE
  5
4F2
330
1F
100
AcDbEntity
  8
0-7_金物
  6
Continuous
 62
     7
370
     9
100
AcDbLine
 10
2734.810200104363
 20
-1103.815109841901
 30
0.0
 11
2734.810200104363
 21
-1110.018457863902
 31
0.0
  0
LINE
  5
4F3
330
1F
100
AcDbEntity
  8
0-7_金物
  6
Continuous
 62
     7
370
     9
100
AcDbLine
 10
2760.074915992308
 20
-1299.152367267303
 30
0.0
 11
2756.248203975949
 21
-1301.318812694553
 31
0.0
  0
LINE
  5
4F4
330
1F
100
AcDbEntity
  8
0-7_金物
  6
Continuous
 62
     7
370
     9
100
AcDbLine
 10
2760.722090757522
 20
-1289.383571485294
 30
0.0
 11
2755.647820327134
 21
-1292.25630659668
 31
0.0
  0
LINE
  5
4F5
330
1F
100
AcDbEntity
  8
0-7_金物
  6
Continuous
 62
     7
370
     9
100
AcDbLine
 10
2761.369265522736
 20
-1279.614775703287
 30
0.0
 11
2755.047436678316
 21
-1283.193800498804
 31
0.0
  0
LINE
  5
4F6
330
1F
100
AcDbEntity
  8
0-7_金物
  6
Continuous
 62
     7
370
     9
100
AcDbLine
 10
2762.016440287951
 20
-1269.845979921279
 30
0.0
 11
2754.4470530295
 21
-1274.13129440093
 31
0.0
  0
LINE
  5
4F7
330
1F
100
AcDbEntity
  8
0-7_金物
  6
Continuous
 62
     7
370
     9
100
AcDbLine
 10
2762.663615053164
 20
-1260.077184139271
 30
0.0
 11
2753.846669380685
 21
-1265.068788303057
 31
0.0
  0
LINE
  5
4F8
330
1F
100
AcDbEntity
  8
0-7_金物
  6
Continuous
 62
     7
370
     9
100
AcDbLine
 10
2763.310789818378
 20
-1250.308388357264
 30
0.0
 11
2753.246285731869
 21
-1256.006282205181
 31
0.0
  0
LINE
  5
4F9
330
1F
100
AcDbEntity
  8
0-7_金物
  6
Continuous
 62
     7
370
     9
100
AcDbLine
 10
2763.957964583592
 20
-1240.539592575256
 30
0.0
 11
2752.645902083052
 21
-1246.943776107307
 31
0.0
  0
LINE
  5
4FA
330
1F
100
AcDbEntity
  8
0-7_金物
  6
Continuous
 62
     7
370
     9
100
AcDbLine
 10
2764.605139348806
 20
-1230.770796793248
 30
0.0
 11
2752.045518434236
 21
-1237.881270009433
 31
0.0
  0
LINE
  5
4FB
330
1F
100
AcDbEntity
  8
0-7_金物
  6
Continuous
 62
     7
370
     9
100
AcDbLine
 10
2765.252314114019
 20
-1221.002001011239
 30
0.0
 11
2751.445134785421
 21
-1228.818763911557
 31
0.0
  0
LINE
  5
4FC
330
1F
100
AcDbEntity
  8
0-7_金物
  6
Continuous
 62
     7
370
     9
100
AcDbLine
 10
2765.899488879233
 20
-1211.233205229233
 30
0.0
 11
2750.844751136605
 21
-1219.756257813684
 31
0.0
  0
LINE
  5
4FD
330
1F
100
AcDbEntity
  8
0-7_金物
  6
Continuous
 62
     7
370
     9
100
AcDbLine
 10
2766.546663644446
 20
-1201.464409447223
 30
0.0
 11
2750.244367487788
 21
-1210.693751715809
 31
0.0
  0
LINE
  5
4FE
330
1F
100
AcDbEntity
  8
0-7_金物
  6
Continuous
 62
     7
370
     9
100
AcDbLine
 10
2767.19383840966
 20
-1191.695613665216
 30
0.0
 11
2749.643983838972
 21
-1201.631245617934
 31
0.0
  0
LINE
  5
4FF
330
1F
100
AcDbEntity
  8
0-7_金物
  6
Continuous
 62
     7
370
     9
100
AcDbLine
 10
2767.841013174876
 20
-1181.926817883209
 30
0.0
 11
2749.043600190156
 21
-1192.56873952006
 31
0.0
  0
LINE
  5
500
330
1F
100
AcDbEntity
  8
0-7_金物
  6
Continuous
 62
     7
370
     9
100
AcDbLine
 10
2768.488187940089
 20
-1172.158022101201
 30
0.0
 11
2748.44321654134
 21
-1183.506233422187
 31
0.0
  0
LINE
  5
501
330
1F
100
AcDbEntity
  8
0-7_金物
  6
Continuous
 62
     7
370
     9
100
AcDbLine
 10
2769.135362705303
 20
-1162.389226319194
 30
0.0
 11
2747.842832892523
 21
-1174.443727324311
 31
0.0
  0
LINE
  5
502
330
1F
100
AcDbEntity
  8
0-7_金物
  6
Continuous
 62
     7
370
     9
100
AcDbLine
 10
2769.782537470516
 20
-1152.620430537184
 30
0.0
 11
2747.242449243708
 21
-1165.381221226436
 31
0.0
  0
LINE
  5
503
330
1F
100
AcDbEntity
  8
0-7_金物
  6
Continuous
 62
     7
370
     9
100
AcDbLine
 10
2759.427741227094
 20
-1308.921163049311
 30
0.0
 11
2756.848587624765
 21
-1310.381318792427
 31
0.0
  0
LINE
  5
504
330
1F
100
AcDbEntity
  8
0-7_金物
  6
Continuous
 62
     7
370
     9
100
AcDbLine
 10
2770.42971223573
 20
-1142.851634755178
 30
0.0
 11
2746.642065594892
 21
-1156.318715128562
 31
0.0
  0
LINE
  5
505
330
1F
100
AcDbEntity
  8
0-7_金物
  6
Continuous
 62
     7
370
     9
100
AcDbLine
 10
2782.000840049306
 20
-1114.446809452402
 30
0.0
 11
2771.055572671666
 21
-1133.404568652902
 31
0.0
  0
LINE
  5
506
330
1F
100
AcDbEntity
  8
0-7_金物
  6
Continuous
 62
     7
370
     9
100
AcDbLine
 10
2734.178754673668
 20
-1114.446809452402
 30
0.0
 11
2745.124022051308
 21
-1133.404568652902
 31
0.0
  0
ELLIPSE
  5
507
330
1F
100
AcDbEntity
  8
0-7_金物
  6
Continuous
 62
     7
370
     9
100
AcDbEllipse
 10
2758.089797361487
 20
-1106.916783852902
 30
0.0
 11
28.25850499469571
 21
0.0
 31
0.0
210
0.0
220
0.0
230
1.0
 40
0.5
 41
0.0
 42
6.283185307179586
  0
LINE
  5
508
330
1F
100
AcDbEntity
  8
0-7_金物
  6
Continuous
 62
     7
370
     9
100
AcDbLine
 10
2945.906954270855
 20
-1214.042148267144
 30
0.0
 11
2945.906954270855
 21
-1204.945892748144
 31
0.0
  0
LINE
  5
509
330
1F
100
AcDbEntity
  8
0-7_金物
  6
Continuous
 62
     7
370
     9
100
AcDbLine
 10
2945.906954270855
 20
-1229.341751808143
 30
0.0
 11
2945.906954270855
 21
-1220.245496289144
 31
0.0
  0
LINE
  5
50A
330
1F
100
AcDbEntity
  8
0-7_金物
  6
Continuous
 62
     7
370
     9
100
AcDbLine
 10
2952.110302292856
 20
-1214.042148267144
 30
0.0
 11
2952.110302292856
 21
-1204.945892748144
 31
0.0
  0
LINE
  5
50B
330
1F
100
AcDbEntity
  8
0-7_金物
  6
Continuous
 62
     7
370
     9
100
AcDbLine
 10
2952.110302292856
 20
-1229.341751808143
 30
0.0
 11
2952.110302292856
 21
-1220.245496289144
 31
0.0
  0
LINE
  5
50C
330
1F
100
AcDbEntity
  8
0-7_金物
  6
Continuous
 62
     7
370
     9
100
AcDbLine
 10
2952.110302292856
 20
-1220.245496289144
 30
0.0
 11
2972.288225537855
 21
-1220.245496289144
 31
0.0
  0
LINE
  5
50D
330
1F
100
AcDbEntity
  8
0-7_金物
  6
Continuous
 62
     7
370
     9
100
AcDbLine
 10
2925.72903102473
 20
-1220.245496289144
 30
0.0
 11
2945.906954270855
 21
-1220.245496289144
 31
0.0
  0
LINE
  5
50E
330
1F
100
AcDbEntity
  8
0-7_金物
  6
Continuous
 62
     7
370
     9
100
AcDbLine
 10
2952.110302292856
 20
-1214.042148267144
 30
0.0
 11
2972.288225537855
 21
-1214.042148267144
 31
0.0
  0
LINE
  5
50F
330
1F
100
AcDbEntity
  8
0-7_金物
  6
Continuous
 62
     7
370
     9
100
AcDbLine
 10
2925.72903102473
 20
-1214.042148267144
 30
0.0
 11
2945.906954270855
 21
-1214.042148267144
 31
0.0
  0
LINE
  5
510
330
1F
100
AcDbEntity
  8
0-7_金物
  6
Continuous
 62
     7
370
     9
100
AcDbLine
 10
2945.906954270855
 20
-1204.945892748144
 30
0.0
 11
2952.110302292856
 21
-1204.945892748144
 31
0.0
  0
LINE
  5
511
330
1F
100
AcDbEntity
  8
0-7_金物
  6
Continuous
 62
     7
370
     9
100
AcDbLine
 10
2945.906954270855
 20
-1229.341751808143
 30
0.0
 11
2952.110302292856
 21
-1229.341751808143
 31
0.0
  0
LINE
  5
512
330
1F
100
AcDbEntity
  8
0-7_金物
  6
Continuous
 62
     7
370
     9
100
AcDbLine
 10
2972.288225537855
 20
-1220.245496289144
 30
0.0
 11
2972.288225537855
 21
-1214.042148267144
 31
0.0
  0
LINE
  5
513
330
1F
100
AcDbEntity
  8
0-7_金物
  6
Continuous
 62
     7
370
     9
100
AcDbLine
 10
2925.72903102473
 20
-1214.042148267144
 30
0.0
 11
2925.72903102473
 21
-1220.245496289144
 31
0.0
  0
LINE
  5
514
330
1F
100
AcDbEntity
  8
0-7_金物
  6
Continuous
 62
     7
370
     9
100
AcDbLine
 10
2950.993746912676
 20
-1409.379405692546
 30
0.0
 11
2947.167034896317
 21
-1411.545851119796
 31
0.0
  0
LINE
  5
515
330
1F
100
AcDbEntity
  8
0-7_金物
  6
Continuous
 62
     7
370
     9
100
AcDbLine
 10
2951.640921677889
 20
-1399.610609910538
 30
0.0
 11
2946.566651247501
 21
-1402.483345021923
 31
0.0
  0
LINE
  5
516
330
1F
100
AcDbEntity
  8
0-7_金物
  6
Continuous
 62
     7
370
     9
100
AcDbLine
 10
2952.288096443103
 20
-1389.84181412853
 30
0.0
 11
2945.966267598684
 21
-1393.420838924047
 31
0.0
  0
LINE
  5
517
330
1F
100
AcDbEntity
  8
0-7_金物
  6
Continuous
 62
     7
370
     9
100
AcDbLine
 10
2952.935271208318
 20
-1380.073018346521
 30
0.0
 11
2945.365883949868
 21
-1384.358332826173
 31
0.0
  0
LINE
  5
518
330
1F
100
AcDbEntity
  8
0-7_金物
  6
Continuous
 62
     7
370
     9
100
AcDbLine
 10
2953.582445973532
 20
-1370.304222564514
 30
0.0
 11
2944.765500301052
 21
-1375.2958267283
 31
0.0
  0
LINE
  5
519
330
1F
100
AcDbEntity
  8
0-7_金物
  6
Continuous
 62
     7
370
     9
100
AcDbLine
 10
2954.229620738746
 20
-1360.535426782507
 30
0.0
 11
2944.165116652237
 21
-1366.233320630424
 31
0.0
  0
LINE
  5
51A
330
1F
100
AcDbEntity
  8
0-7_金物
  6
Continuous
 62
     7
370
     9
100
AcDbLine
 10
2954.876795503959
 20
-1350.766631000499
 30
0.0
 11
2943.564733003419
 21
-1357.17081453255
 31
0.0
  0
LINE
  5
51B
330
1F
100
AcDbEntity
  8
0-7_金物
  6
Continuous
 62
     7
370
     9
100
AcDbLine
 10
2955.523970269173
 20
-1340.997835218491
 30
0.0
 11
2942.964349354604
 21
-1348.108308434675
 31
0.0
  0
LINE
  5
51C
330
1F
100
AcDbEntity
  8
0-7_金物
  6
Continuous
 62
     7
370
     9
100
AcDbLine
 10
2956.171145034387
 20
-1331.229039436483
 30
0.0
 11
2942.363965705788
 21
-1339.0458023368
 31
0.0
  0
LINE
  5
51D
330
1F
100
AcDbEntity
  8
0-7_金物
  6
Continuous
 62
     7
370
     9
100
AcDbLine
 10
2956.8183197996
 20
-1321.460243654476
 30
0.0
 11
2941.763582056973
 21
-1329.983296238927
 31
0.0
  0
LINE
  5
51E
330
1F
100
AcDbEntity
  8
0-7_金物
  6
Continuous
 62
     7
370
     9
100
AcDbLine
 10
2957.465494564814
 20
-1311.691447872466
 30
0.0
 11
2941.163198408155
 21
-1320.920790141052
 31
0.0
  0
LINE
  5
51F
330
1F
100
AcDbEntity
  8
0-7_金物
  6
Continuous
 62
     7
370
     9
100
AcDbLine
 10
2958.112669330028
 20
-1301.922652090459
 30
0.0
 11
2940.56281475934
 21
-1311.858284043177
 31
0.0
  0
LINE
  5
520
330
1F
100
AcDbEntity
  8
0-7_金物
  6
Continuous
 62
     7
370
     9
100
AcDbLine
 10
2958.759844095243
 20
-1292.153856308452
 30
0.0
 11
2939.962431110524
 21
-1302.795777945302
 31
0.0
  0
LINE
  5
521
330
1F
100
AcDbEntity
  8
0-7_金物
  6
Continuous
 62
     7
370
     9
100
AcDbLine
 10
2959.407018860457
 20
-1282.385060526444
 30
0.0
 11
2939.362047461708
 21
-1293.733271847429
 31
0.0
  0
LINE
  5
522
330
1F
100
AcDbEntity
  8
0-7_金物
  6
Continuous
 62
     7
370
     9
100
AcDbLine
 10
2960.05419362567
 20
-1272.616264744437
 30
0.0
 11
2938.761663812891
 21
-1284.670765749554
 31
0.0
  0
LINE
  5
523
330
1F
100
AcDbEntity
  8
0-7_金物
  6
Continuous
 62
     7
370
     9
100
AcDbLine
 10
2960.701368390884
 20
-1262.847468962428
 30
0.0
 11
2938.161280164075
 21
-1275.608259651679
 31
0.0
  0
LINE
  5
524
330
1F
100
AcDbEntity
  8
0-7_金物
  6
Continuous
 62
     7
370
     9
100
AcDbLine
 10
2950.346572147462
 20
-1419.148201474554
 30
0.0
 11
2947.767418545132
 21
-1420.608357217671
 31
0.0
  0
LINE
  5
525
330
1F
100
AcDbEntity
  8
0-7_金物
  6
Continuous
 62
     7
370
     9
100
AcDbLine
 10
2961.348543156098
 20
-1253.078673180421
 30
0.0
 11
2937.56089651526
 21
-1266.545753553805
 31
0.0
  0
LINE
  5
526
330
1F
100
AcDbEntity
  8
0-7_金物
  6
Continuous
 62
     7
370
     9
100
AcDbLine
 10
2949.008628281855
 20
-1439.343828828144
 30
0.0
 11
2961.974403592033
 21
-1243.631607078145
 31
0.0
  0
LINE
  5
527
330
1F
100
AcDbEntity
  8
0-7_金物
  6
Continuous
 62
     7
370
     9
100
AcDbLine
 10
2972.919670969674
 20
-1224.673847877644
 30
0.0
 11
2961.974403592033
 21
-1243.631607078145
 31
0.0
  0
LINE
  5
528
330
1F
100
AcDbEntity
  8
0-7_金物
  6
Continuous
 62
     7
370
     9
100
AcDbLine
 10
2949.008628281855
 20
-1439.343828828144
 30
0.0
 11
2936.042852971676
 21
-1243.631607078145
 31
0.0
  0
LINE
  5
529
330
1F
100
AcDbEntity
  8
0-7_金物
  6
Continuous
 62
     7
370
     9
100
AcDbLine
 10
2925.097585594036
 20
-1224.673847877644
 30
0.0
 11
2936.042852971676
 21
-1243.631607078145
 31
0.0
  0
ELLIPSE
  5
52A
330
1F
100
AcDbEntity
  8
0-7_金物
  6
Continuous
 62
     7
370
     9
100
AcDbEllipse
 10
2949.008628281855
 20
-1217.143822278144
 30
0.0
 11
28.25850499469571
 21
0.0
 31
0.0
210
0.0
220
0.0
230
1.0
 40
0.5
 41
0.0
 42
6.283185307179586
  0
LINE
  5
52B
330
1F
100
AcDbEntity
  8
0-0_補助線
  6
JWW_HOJO
 62
   120
370
     5
100
AcDbLine
 10
3007.344937729744
 20
-1563.793662125493
 30
0.0
 11
2890.672318833965
 21
-1631.154630052032
 31
0.0
  0
LINE
  5
52C
330
1F
100
AcDbEntity
  8
0-0_補助線
  6
JWW_HOJO
 62
   120
370
     5
100
AcDbLine
 10
2906.582221410662
 20
-1572.979248660931
 30
0.0
 11
2991.435035153048
 21
-1621.969043516594
 31
0.0
  0
LINE
  5
52D
330
1F
100
AcDbEntity
  8
0-0_補助線
  6
JWW_HOJO
 62
   120
370
     5
100
AcDbLine
 10
3002.754647107464
 20
-1578.691316365842
 30
0.0
 11
3024.918530858553
 21
-1551.546213411578
 31
0.0
  0
LINE
  5
52E
330
1F
100
AcDbEntity
  8
0-0_補助線
  6
JWW_HOJO
 62
   120
370
     5
100
AcDbLine
 10
3022.874080435897
 20
-1560.511968133258
 30
0.0
 11
3011.719518636541
 21
-1573.223140799967
 31
0.0
  0
LINE
  5
52F
330
1F
100
AcDbEntity
  8
0-0_補助線
  6
JWW_HOJO
 62
   120
370
     5
100
AcDbLine
 10
2897.744931031656
 20
-1597.906129470684
 30
0.0
 11
2875.143176127814
 21
-1560.951631760772
 31
0.0
  0
LINE
  5
530
330
1F
100
AcDbEntity
  8
0-0_補助線
  6
JWW_HOJO
 62
   120
370
     5
100
AcDbLine
 10
2873.098725705158
 20
-1569.917386482452
 30
0.0
 11
2892.152783060704
 21
-1595.238193347934
 31
0.0
  0
LINE
  5
531
330
1F
100
AcDbEntity
  8
0-0_補助線
  6
JWW_HOJO
 62
   120
370
     5
100
AcDbLine
 10
2833.999699938185
 20
-1441.319174986335
 30
0.0
 11
2832.336009386075
 21
-1443.356771457613
 31
0.0
  0
LINE
  5
532
330
1F
100
AcDbEntity
  8
0-0_補助線
  6
JWW_HOJO
 62
   120
370
     5
100
AcDbLine
 10
2890.672318833965
 20
-1545.42248905462
 30
0.0
 11
2911.885522269562
 21
-1594.412283910283
 31
0.0
  0
LINE
  5
533
330
1F
100
AcDbEntity
  8
0-0_補助線
  6
JWW_HOJO
 62
   120
370
     5
100
AcDbLine
 10
3022.874080435897
 20
-1542.580458689897
 30
0.0
 11
2993.896305647224
 21
-1583.805682192485
 31
0.0
  0
LINE
  5
534
330
1F
100
AcDbEntity
  8
0-0_補助線
  6
JWW_HOJO
 62
   120
370
     5
100
AcDbLine
 10
2990.899292972086
 20
-1579.628305515482
 30
0.0
 11
3016.880055085618
 21
-1534.225705335889
 31
0.0
  0
LINE
  5
535
330
1F
100
AcDbEntity
  8
0-0_補助線
  6
JWW_HOJO
 62
   120
370
     5
100
AcDbLine
 10
3007.344937729744
 20
-1527.051315983747
 30
0.0
 11
2986.131734294148
 21
-1576.04111083941
 31
0.0
  0
LINE
  5
536
330
1F
100
AcDbEntity
  8
0-0_補助線
  6
JWW_HOJO
 62
   120
370
     5
100
AcDbLine
 10
2979.918530858553
 20
-1573.288559553325
 30
0.0
 11
2994.918530858553
 21
-1521.546213411578
 31
0.0
  0
LINE
  5
537
330
1F
100
AcDbEntity
  8
0-0_補助線
  6
JWW_HOJO
 62
   120
370
     5
100
AcDbLine
 10
2980.447673564704
 20
-1518.085561262065
 30
0.0
 11
2972.683102211628
 21
-1571.558233478569
 31
0.0
  0
LINE
  5
538
330
1F
100
AcDbEntity
  8
0-0_補助線
  6
JWW_HOJO
 62
   120
370
     5
100
AcDbLine
 10
2964.918530858553
 20
-1570.968051477637
 30
0.0
 11
2964.918530858553
 21
-1516.9051972602
 31
0.0
  0
LINE
  5
539
330
1F
100
AcDbEntity
  8
0-0_補助線
  6
JWW_HOJO
 62
   120
370
     5
100
AcDbLine
 10
2949.3893881524
 20
-1518.085561262065
 30
0.0
 11
2957.153959505477
 21
-1571.558233478569
 31
0.0
  0
LINE
  5
53A
330
1F
100
AcDbEntity
  8
0-0_補助線
  6
JWW_HOJO
 62
   120
370
     5
100
AcDbLine
 10
2949.918530858553
 20
-1573.288559553325
 30
0.0
 11
2934.918530858553
 21
-1521.546213411578
 31
0.0
  0
LINE
  5
53B
330
1F
100
AcDbEntity
  8
0-0_補助線
  6
JWW_HOJO
 62
   120
370
     5
100
AcDbLine
 10
2922.49212398736
 20
-1527.051315983747
 30
0.0
 11
2943.705327422957
 21
-1576.04111083941
 31
0.0
  0
LINE
  5
53C
330
1F
100
AcDbEntity
  8
0-B_寸法
  6
Continuous
 62
   120
370
     5
100
AcDbLine
 10
2743.095204020173
 20
-1789.843089198543
 30
0.0
 11
2680.350644726734
 21
-1826.068677396795
 31
0.0
  0
LINE
  5
53D
330
1F
100
AcDbEntity
  8
0-B_寸法
  6
JWW_CENTER1
 62
   120
370
     5
100
AcDbLine
 10
3177.963826092131
 20
-1538.77149328413
 30
0.0
 11
2761.175954973761
 21
-1779.404082869293
 31
0.0
  0
LWPOLYLINE
  5
53E
330
1F
100
AcDbEntity
  8
0-B_寸法
  6
Continuous
 62
     7
370
     9
100
AcDbPolyline
 90
        4
 70
     1
 43
3.0
 10
2681.850644726734
 20
-1826.068677396795
 42
0.4142135623731
 10
2680.350644726734
 20
-1824.568677396795
 42
0.4142135623731
 10
2678.850644726734
 20
-1826.068677396795
 42
0.4142135623731
 10
2680.350644726734
 20
-1827.568677396795
 42
0.4142135623731
  0
LINE
  5
53F
330
1F
100
AcDbEntity
  8
0-B_寸法
  6
Continuous
 62
   120
370
     5
100
AcDbLine
 10
3268.578843345235
 20
-1690.122230426221
 30
0.0
 11
3320.422284132132
 21
-1720.054054920254
 31
0.0
  0
LINE
  5
540
330
1F
100
AcDbEntity
  8
0-B_寸法
  6
Continuous
 62
   120
370
     5
100
AcDbLine
 10
3406.188358741893
 20
-1670.536988656971
 30
0.0
 11
3320.422284132132
 21
-1720.054054920254
 31
0.0
  0
LWPOLYLINE
  5
541
330
1F
100
AcDbEntity
  8
0-B_寸法
  6
Continuous
 62
     7
370
     9
100
AcDbPolyline
 90
        4
 70
     1
 43
3.0
 10
3321.922284132132
 20
-1720.054054920254
 42
0.4142135623731
 10
3320.422284132132
 20
-1718.554054920254
 42
0.4142135623731
 10
3318.922284132132
 20
-1720.054054920254
 42
0.4142135623731
 10
3320.422284132132
 20
-1721.554054920254
 42
0.4142135623731
  0
LINE
  5
542
330
1F
100
AcDbEntity
  8
0-B_寸法
  6
Continuous
 62
   120
370
     5
100
AcDbLine
 10
3406.188358731656
 20
-1670.536988639236
 30
0.0
 11
3352.362118406662
 21
-1639.460394298135
 31
0.0
  0
LWPOLYLINE
  5
543
330
1F
100
AcDbEntity
  8
0-B_寸法
  6
Continuous
 62
     7
370
     9
100
AcDbPolyline
 90
        4
 70
     1
 43
3.0
 10
3407.688358731656
 20
-1670.536988639236
 42
0.4142135623731
 10
3406.188358731656
 20
-1669.036988639236
 42
0.4142135623731
 10
3404.688358731656
 20
-1670.536988639236
 42
0.4142135623731
 10
3406.188358731656
 20
-1672.036988639236
 42
0.4142135623731
  0
LINE
  5
544
330
1F
100
AcDbEntity
  8
0-B_寸法
  6
JWW_CENTER1
 62
   120
370
     5
100
AcDbLine
 10
3177.963826092131
 20
-1538.77149328413
 30
0.0
 11
3340.599920183702
 21
-1632.669485987848
 31
0.0
  0
LINE
  5
545
330
1F
100
AcDbEntity
  8
0-6_扉
  6
Continuous
 62
    40
370
    15
100
AcDbLine
 10
2981.741694312858
 20
-1394.863970895616
 30
0.0
 11
2955.225190018363
 21
-1410.173281788011
 31
0.0
  0
LINE
  5
546
330
1F
100
AcDbEntity
  8
0-6_扉
  6
Continuous
 62
    40
370
    15
100
AcDbLine
 10
3082.504410631939
 20
-1483.657974071505
 30
0.0
 11
3177.963826092131
 21
-1538.77149328413
 31
0.0
  0
LINE
  5
547
330
1F
100
AcDbEntity
  8
0-6_扉
  6
Continuous
 62
    40
370
    15
100
AcDbLine
 10
3177.963826092131
 20
-1538.77149328413
 30
0.0
 11
3750.720318853232
 21
-1208.090378008403
 31
0.0
  0
LINE
  5
548
330
1F
100
AcDbEntity
  8
0-7_金物
  6
Continuous
 62
     7
370
     9
100
AcDbLine
 10
1959.967020447968
 20
-2215.274608983781
 30
0.0
 11
3969.118434757453
 21
-2215.274608983781
 31
0.0
  0
LWPOLYLINE
  5
549
330
1F
100
AcDbEntity
  8
1-B_ﾊｯﾁ
  6
Continuous
 62
     7
370
     9
100
AcDbPolyline
 90
        4
 70
     1
 43
3.0
 10
2936.165823330659
 20
-3402.771559770655
 42
0.4142135623731
 10
2934.66582333066
 20
-3401.271559770655
 42
0.4142135623731
 10
2933.16582333066
 20
-3402.771559770655
 42
0.4142135623731
 10
2934.66582333066
 20
-3404.271559770655
 42
0.4142135623731
  0
LINE
  5
54A
330
1F
100
AcDbEntity
  8
1-B_ﾊｯﾁ
  6
Continuous
 62
   120
370
     5
100
AcDbLine
 10
2934.66582333066
 20
-3402.771559770655
 30
0.0
 11
2934.66582333066
 21
-3282.675423701141
 31
0.0
  0
LINE
  5
54B
330
1F
100
AcDbEntity
  8
0-7_金物
  6
Continuous
 62
     7
370
     9
100
AcDbLine
 10
3969.118434757453
 20
-2215.274608983781
 30
0.0
 11
3969.118434757453
 21
-3475.984708650145
 31
0.0
  0
LINE
  5
54C
330
1F
100
AcDbEntity
  8
0-7_金物
  6
Continuous
 62
     7
370
     9
100
AcDbLine
 10
1959.967020447968
 20
-3475.984708650145
 30
0.0
 11
1959.967020447968
 21
-2215.274608983781
 31
0.0
  0
LINE
  5
54D
330
1F
100
AcDbEntity
  8
1-B_ﾊｯﾁ
  6
Continuous
 62
   120
370
     5
100
AcDbLine
 10
2934.66582333066
 20
-3402.771559770655
 30
0.0
 11
2650.39639741229
 21
-3402.771559770655
 31
0.0
  0
LINE
  5
54E
330
1F
100
AcDbEntity
  8
1-B_ﾊｯﾁ
  6
Continuous
 62
   120
370
     5
100
AcDbLine
 10
2859.66582333066
 20
-3282.675423701141
 30
0.0
 11
2859.66582333066
 21
-3402.771559770655
 31
0.0
  0
LWPOLYLINE
  5
54F
330
1F
100
AcDbEntity
  8
1-B_ﾊｯﾁ
  6
Continuous
 62
     7
370
     9
100
AcDbPolyline
 90
        4
 70
     1
 43
3.0
 10
2861.165823330659
 20
-3402.771559770655
 42
0.4142135623731
 10
2859.66582333066
 20
-3401.271559770655
 42
0.4142135623731
 10
2858.16582333066
 20
-3402.771559770655
 42
0.4142135623731
 10
2859.66582333066
 20
-3404.271559770655
 42
0.4142135623731
  0
LINE
  5
550
330
1F
100
AcDbEntity
  8
0-7_金物
  6
Continuous
 62
     7
370
     9
100
AcDbLine
 10
3969.118434757453
 20
-3475.984708650145
 30
0.0
 11
1959.967020447968
 21
-3475.984708650145
 31
0.0
  0
LINE
  5
551
330
1F
100
AcDbEntity
  8
1-4_枠
  6
Continuous
 62
    92
370
    13
100
AcDbLine
 10
2934.665823330659
 20
-2892.675423701142
 30
0.0
 11
2934.665823330659
 21
-2757.675423701141
 31
0.0
  0
LINE
  5
552
330
1F
100
AcDbEntity
  8
1-3_仕上
  6
Continuous
 62
     7
370
     9
100
AcDbLine
 10
3304.041615138119
 20
-2757.675423701141
 30
0.0
 11
3729.665823330659
 21
-2757.675423701141
 31
0.0
  0
LINE
  5
553
330
1F
100
AcDbEntity
  8
1-4_枠
  6
Continuous
 62
    92
370
    13
100
AcDbLine
 10
3579.665823330659
 20
-3057.675423701141
 30
0.0
 11
3579.665823330659
 21
-2922.67542370114
 31
0.0
  0
LINE
  5
554
330
1F
100
AcDbEntity
  8
1-4_枠
  6
Continuous
 62
    92
370
    13
100
AcDbLine
 10
3579.665823330659
 20
-3057.675423701141
 30
0.0
 11
3729.665823330659
 21
-3057.675423701141
 31
0.0
  0
LINE
  5
555
330
1F
100
AcDbEntity
  8
1-4_枠
  6
Continuous
 62
    92
370
    13
100
AcDbLine
 10
3579.665823330659
 20
-2922.67542370114
 30
0.0
 11
3729.665823330659
 21
-2922.67542370114
 31
0.0
  0
LINE
  5
556
330
1F
100
AcDbEntity
  8
1-4_枠
  6
Continuous
 62
    92
370
    13
100
AcDbLine
 10
3729.665823330659
 20
-2922.67542370114
 30
0.0
 11
3729.665823330659
 21
-2757.675423701141
 31
0.0
  0
LINE
  5
557
330
1F
100
AcDbEntity
  8
1-4_枠
  6
Continuous
 62
    92
370
    13
100
AcDbLine
 10
2972.165823330659
 20
-3072.67542370114
 30
0.0
 11
2972.165823330659
 21
-2892.675423701142
 31
0.0
  0
LINE
  5
558
330
1F
100
AcDbEntity
  8
1-4_枠
  6
Continuous
 62
    92
370
    13
100
AcDbLine
 10
2972.165823330659
 20
-3072.67542370114
 30
0.0
 11
2934.665823330659
 21
-3072.67542370114
 31
0.0
  0
LINE
  5
559
330
1F
100
AcDbEntity
  8
1-4_枠
  6
Continuous
 62
    92
370
    13
100
AcDbLine
 10
2972.165823330659
 20
-2892.675423701142
 30
0.0
 11
2934.665823330659
 21
-2892.675423701142
 31
0.0
  0
LINE
  5
55A
330
1F
100
AcDbEntity
  8
1-4_枠
  6
Continuous
 62
    92
370
    13
100
AcDbLine
 10
3729.665823330659
 20
-3057.675423701141
 30
0.0
 11
3729.665823330659
 21
-3207.675423701141
 31
0.0
  0
LINE
  5
55B
330
1F
100
AcDbEntity
  8
1-4_枠
  6
Continuous
 62
    92
370
    13
100
AcDbLine
 10
2934.665823330659
 20
-3072.67542370114
 30
0.0
 11
2934.66582333066
 21
-3207.675423701141
 31
0.0
  0
LINE
  5
55C
330
1F
100
AcDbEntity
  8
1-4_枠
  6
Continuous
 62
    92
370
    13
100
AcDbLine
 10
3729.665823330659
 20
-3207.675423701141
 30
0.0
 11
2934.66582333066
 21
-3207.675423701141
 31
0.0
  0
LINE
  5
55D
330
1F
100
AcDbEntity
  8
1-4_枠
  6
Continuous
 62
    92
370
    13
100
AcDbLine
 10
3729.665823330659
 20
-2757.675423701141
 30
0.0
 11
2934.665823330659
 21
-2757.675423701141
 31
0.0
  0
LINE
  5
55E
330
1F
100
AcDbEntity
  8
1-4_枠
  6
Continuous
 62
     7
370
     9
100
AcDbLine
 10
3159.665823330659
 20
-2253.977273196821
 30
0.0
 11
3159.665823330659
 21
-2757.675423701141
 31
0.0
  0
LINE
  5
55F
330
1F
100
AcDbEntity
  8
1-4_枠
  6
Continuous
 62
     7
370
     9
100
AcDbLine
 10
3159.665823330659
 20
-2757.675423701141
 30
0.0
 11
3774.665823330659
 21
-2757.675423701141
 31
0.0
  0
LINE
  5
560
330
1F
100
AcDbEntity
  8
1-4_枠
  6
Continuous
 62
     7
370
     9
100
AcDbLine
 10
3774.665823330659
 20
-2253.977273196821
 30
0.0
 11
3774.665823330659
 21
-2757.675423701141
 31
0.0
  0
LWPOLYLINE
  5
561
330
1F
100
AcDbEntity
  8
1-B_ﾊｯﾁ
  6
Continuous
 62
     7
370
     9
100
AcDbPolyline
 90
        4
 70
     1
 43
3.0
 10
2438.868626037995
 20
-3207.675423701141
 42
0.4142135623731
 10
2437.368626037995
 20
-3206.175423701141
 42
0.4142135623731
 10
2435.868626037995
 20
-3207.675423701141
 42
0.4142135623731
 10
2437.368626037995
 20
-3209.175423701141
 42
0.4142135623731
  0
LINE
  5
562
330
1F
100
AcDbEntity
  8
1-B_ﾊｯﾁ
  6
Continuous
 62
   120
370
     5
100
AcDbLine
 10
2437.368626037995
 20
-3207.675423701141
 30
0.0
 11
2534.441507414139
 21
-3207.675423701141
 31
0.0
  0
ARC
  5
563
330
1F
100
AcDbEntity
  8
1-7_金物
  6
Continuous
 62
     7
370
     9
100
AcDbCircle
 10
2597.16582333066
 20
-2900.175423701141
 30
0.0
 40
7.5
100
AcDbArc
 50
90.0
 51
180.0
  0
LINE
  5
564
330
1F
100
AcDbEntity
  8
1-7_金物
  6
Continuous
 62
     7
370
     9
100
AcDbLine
 10
2589.66582333066
 20
-3065.175423701141
 30
0.0
 11
2589.66582333066
 21
-2900.175423701141
 31
0.0
  0
ARC
  5
565
330
1F
100
AcDbEntity
  8
1-7_金物
  6
Continuous
 62
     7
370
     9
100
AcDbCircle
 10
2597.16582333066
 20
-3065.175423701141
 30
0.0
 40
7.5
100
AcDbArc
 50
180.0
 51
270.0
  0
LINE
  5
566
330
1F
100
AcDbEntity
  8
1-7_金物
  6
Continuous
 62
     7
370
     9
100
AcDbLine
 10
2627.16582333066
 20
-3072.675423701141
 30
0.0
 11
2597.16582333066
 21
-3072.675423701141
 31
0.0
  0
ARC
  5
567
330
1F
100
AcDbEntity
  8
1-7_金物
  6
Continuous
 62
     7
370
     9
100
AcDbCircle
 10
2627.16582333066
 20
-3065.175423701141
 30
0.0
 40
7.5
100
AcDbArc
 50
270.0
 51
0.0
  0
LINE
  5
568
330
1F
100
AcDbEntity
  8
1-7_金物
  6
Continuous
 62
     7
370
     9
100
AcDbLine
 10
2627.16582333066
 20
-2892.675423701141
 30
0.0
 11
2597.16582333066
 21
-2892.675423701141
 31
0.0
  0
ARC
  5
569
330
1F
100
AcDbEntity
  8
1-7_金物
  6
Continuous
 62
     7
370
     9
100
AcDbCircle
 10
2627.16582333066
 20
-2900.175423701141
 30
0.0
 40
7.5
100
AcDbArc
 50
0.0
 51
90.0
  0
ARC
  5
56A
330
1F
100
AcDbEntity
  8
1-7_金物
  6
Continuous
 62
     7
370
     9
100
AcDbCircle
 10
2664.66582333066
 20
-2787.675423701141
 30
0.0
 40
30.0
100
AcDbArc
 50
90.0
 51
180.0
  0
LINE
  5
56B
330
1F
100
AcDbEntity
  8
1-7_金物
  6
Continuous
 62
     7
370
     9
100
AcDbLine
 10
2634.66582333066
 20
-3177.675423701141
 30
0.0
 11
2634.66582333066
 21
-2787.675423701141
 31
0.0
  0
ARC
  5
56C
330
1F
100
AcDbEntity
  8
1-7_金物
  6
Continuous
 62
     7
370
     9
100
AcDbCircle
 10
2664.66582333066
 20
-3177.675423701141
 30
0.0
 40
30.0
100
AcDbArc
 50
180.0
 51
270.0
  0
ARC
  5
56D
330
1F
100
AcDbEntity
  8
1-7_金物
  6
Continuous
 62
     7
370
     9
100
AcDbCircle
 10
2829.66582333066
 20
-2787.675423701141
 30
0.0
 40
30.0
100
AcDbArc
 50
0.0
 51
90.0
  0
LINE
  5
56E
330
1F
100
AcDbEntity
  8
1-7_金物
  6
Continuous
 62
     7
370
     9
100
AcDbLine
 10
2859.66582333066
 20
-3177.675423701141
 30
0.0
 11
2859.66582333066
 21
-2787.675423701141
 31
0.0
  0
ARC
  5
56F
330
1F
100
AcDbEntity
  8
1-7_金物
  6
Continuous
 62
     7
370
     9
100
AcDbCircle
 10
2829.66582333066
 20
-3177.675423701141
 30
0.0
 40
30.0
100
AcDbArc
 50
270.0
 51
0.0
  0
LINE
  5
570
330
1F
100
AcDbEntity
  8
1-7_金物
  6
Continuous
 62
     7
370
     9
100
AcDbLine
 10
2829.66582333066
 20
-3207.675423701141
 30
0.0
 11
2664.66582333066
 21
-3207.675423701141
 31
0.0
  0
LINE
  5
571
330
1F
100
AcDbEntity
  8
1-7_金物
  6
Continuous
 62
     7
370
     9
100
AcDbLine
 10
2664.66582333066
 20
-2757.675423701141
 30
0.0
 11
2829.66582333066
 21
-2757.675423701141
 31
0.0
  0
ARC
  5
572
330
1F
100
AcDbEntity
  8
1-7_金物
  6
Continuous
 62
     7
370
     9
100
AcDbCircle
 10
2769.66582333066
 20
-3117.675423701141
 30
0.0
 40
60.0
100
AcDbArc
 50
270.0
 51
90.0
  0
ARC
  5
573
330
1F
100
AcDbEntity
  8
1-7_金物
  6
Continuous
 62
     7
370
     9
100
AcDbCircle
 10
2769.66582333066
 20
-2847.675423701141
 30
0.0
 40
60.0
100
AcDbArc
 50
270.0
 51
90.0
  0
ARC
  5
574
330
1F
100
AcDbEntity
  8
1-7_金物
  6
Continuous
 62
     7
370
     9
100
AcDbCircle
 10
2769.66582333066
 20
-2847.675423701141
 30
0.0
 40
30.0
100
AcDbArc
 50
270.0
 51
90.0
  0
ARC
  5
575
330
1F
100
AcDbEntity
  8
1-7_金物
  6
Continuous
 62
     7
370
     9
100
AcDbCircle
 10
2769.66582333066
 20
-3117.675423701141
 30
0.0
 40
30.0
100
AcDbArc
 50
270.0
 51
90.0
  0
ARC
  5
576
330
1F
100
AcDbEntity
  8
1-7_金物
  6
Continuous
 62
     7
370
     9
100
AcDbCircle
 10
2724.66582333066
 20
-2847.675423701141
 30
0.0
 40
60.0
100
AcDbArc
 50
90.0
 51
270.0
  0
ARC
  5
577
330
1F
100
AcDbEntity
  8
1-7_金物
  6
Continuous
 62
     7
370
     9
100
AcDbCircle
 10
2724.66582333066
 20
-2847.675423701141
 30
0.0
 40
30.0
100
AcDbArc
 50
90.0
 51
270.0
  0
ARC
  5
578
330
1F
100
AcDbEntity
  8
1-7_金物
  6
Continuous
 62
     7
370
     9
100
AcDbCircle
 10
2724.66582333066
 20
-3117.675423701141
 30
0.0
 40
60.0
100
AcDbArc
 50
90.0
 51
270.0
  0
ARC
  5
579
330
1F
100
AcDbEntity
  8
1-7_金物
  6
Continuous
 62
     7
370
     9
100
AcDbCircle
 10
2724.66582333066
 20
-3117.675423701141
 30
0.0
 40
30.0
100
AcDbArc
 50
90.0
 51
270.0
  0
LINE
  5
57A
330
1F
100
AcDbEntity
  8
1-7_金物
  6
Continuous
 62
     7
370
     9
100
AcDbLine
 10
2724.66582333066
 20
-2877.675423701141
 30
0.0
 11
2769.66582333066
 21
-2877.675423701141
 31
0.0
  0
LINE
  5
57B
330
1F
100
AcDbEntity
  8
1-7_金物
  6
Continuous
 62
     7
370
     9
100
AcDbLine
 10
2769.66582333066
 20
-2817.675423701141
 30
0.0
 11
2724.66582333066
 21
-2817.675423701141
 31
0.0
  0
LINE
  5
57C
330
1F
100
AcDbEntity
  8
1-7_金物
  6
Continuous
 62
     7
370
     9
100
AcDbLine
 10
2769.66582333066
 20
-2787.675423701141
 30
0.0
 11
2724.66582333066
 21
-2787.675423701141
 31
0.0
  0
LINE
  5
57D
330
1F
100
AcDbEntity
  8
1-7_金物
  6
Continuous
 62
     7
370
     9
100
AcDbLine
 10
2769.66582333066
 20
-2907.675423701141
 30
0.0
 11
2724.66582333066
 21
-2907.675423701141
 31
0.0
  0
LINE
  5
57E
330
1F
100
AcDbEntity
  8
1-7_金物
  6
Continuous
 62
     7
370
     9
100
AcDbLine
 10
2724.66582333066
 20
-3177.675423701141
 30
0.0
 11
2769.66582333066
 21
-3177.675423701141
 31
0.0
  0
LINE
  5
57F
330
1F
100
AcDbEntity
  8
1-7_金物
  6
Continuous
 62
     7
370
     9
100
AcDbLine
 10
2724.66582333066
 20
-3147.675423701141
 30
0.0
 11
2769.66582333066
 21
-3147.675423701141
 31
0.0
  0
LINE
  5
580
330
1F
100
AcDbEntity
  8
1-7_金物
  6
Continuous
 62
     7
370
     9
100
AcDbLine
 10
2769.66582333066
 20
-3087.675423701141
 30
0.0
 11
2724.66582333066
 21
-3087.675423701141
 31
0.0
  0
LINE
  5
581
330
1F
100
AcDbEntity
  8
1-7_金物
  6
Continuous
 62
     7
370
     9
100
AcDbLine
 10
2724.66582333066
 20
-3057.675423701141
 30
0.0
 11
2769.66582333066
 21
-3057.675423701141
 31
0.0
  0
LWPOLYLINE
  5
582
330
1F
100
AcDbEntity
  8
1-B_ﾊｯﾁ
  6
Continuous
 62
     7
370
     9
100
AcDbPolyline
 90
        4
 70
     1
 43
3.0
 10
2438.868626037995
 20
-2757.675423701141
 42
0.4142135623731
 10
2437.368626037995
 20
-2756.175423701141
 42
0.4142135623731
 10
2435.868626037995
 20
-2757.675423701141
 42
0.4142135623731
 10
2437.368626037995
 20
-2759.175423701141
 42
0.4142135623731
  0
LINE
  5
583
330
1F
100
AcDbEntity
  8
1-B_ﾊｯﾁ
  6
Continuous
 62
   120
370
     5
100
AcDbLine
 10
2437.368626037995
 20
-2757.675423701141
 30
0.0
 11
2534.441507414139
 21
-2757.675423701141
 31
0.0
  0
LINE
  5
584
330
1F
100
AcDbEntity
  8
1-B_ﾊｯﾁ
  6
Continuous
 62
   120
370
     5
100
AcDbLine
 10
2437.368626037995
 20
-3207.675423701141
 30
0.0
 11
2437.368626037995
 21
-2757.675423701141
 31
0.0
  0
LWPOLYLINE
  5
585
330
1F
100
AcDbEntity
  8
1-B_ﾊｯﾁ
  6
Continuous
 62
     7
370
     9
100
AcDbPolyline
 90
        4
 70
     1
 43
3.0
 10
2861.165823330659
 20
-2460.028182171128
 42
0.4142135623731
 10
2859.66582333066
 20
-2458.528182171128
 42
0.4142135623731
 10
2858.16582333066
 20
-2460.028182171128
 42
0.4142135623731
 10
2859.66582333066
 20
-2461.528182171128
 42
0.4142135623731
  0
LINE
  5
586
330
1F
100
AcDbEntity
  8
1-B_ﾊｯﾁ
  6
Continuous
 62
   120
370
     5
100
AcDbLine
 10
2859.66582333066
 20
-2460.028182171128
 30
0.0
 11
2859.66582333066
 21
-2562.675423701141
 31
0.0
  0
LINE
  5
587
330
1F
100
AcDbEntity
  8
1-B_ﾊｯﾁ
  6
Continuous
 62
   120
370
     5
100
AcDbLine
 10
2589.66582333066
 20
-2460.028182171128
 30
0.0
 11
2859.66582333066
 21
-2460.028182171128
 31
0.0
  0
LWPOLYLINE
  5
588
330
1F
100
AcDbEntity
  8
1-B_ﾊｯﾁ
  6
Continuous
 62
     7
370
     9
100
AcDbPolyline
 90
        4
 70
     1
 43
3.0
 10
2591.165823330659
 20
-2460.028182171128
 42
0.4142135623731
 10
2589.66582333066
 20
-2458.528182171128
 42
0.4142135623731
 10
2588.16582333066
 20
-2460.028182171128
 42
0.4142135623731
 10
2589.66582333066
 20
-2461.528182171128
 42
0.4142135623731
  0
LINE
  5
589
330
1F
100
AcDbEntity
  8
1-B_ﾊｯﾁ
  6
Continuous
 62
   120
370
     5
100
AcDbLine
 10
2589.66582333066
 20
-2460.028182171128
 30
0.0
 11
2589.66582333066
 21
-2562.675423701141
 31
0.0
  0
LWPOLYLINE
  5
58A
330
1F
100
AcDbEntity
  8
1-B_ﾊｯﾁ
  6
Continuous
 62
     7
370
     9
100
AcDbPolyline
 90
        4
 70
     1
 43
3.0
 10
2591.165823330659
 20
-2562.675423701141
 42
0.4142135623731
 10
2589.66582333066
 20
-2561.175423701141
 42
0.4142135623731
 10
2588.16582333066
 20
-2562.675423701141
 42
0.4142135623731
 10
2589.66582333066
 20
-2564.175423701141
 42
0.4142135623731
  0
LWPOLYLINE
  5
58B
330
1F
100
AcDbEntity
  8
1-B_ﾊｯﾁ
  6
Continuous
 62
     7
370
     9
100
AcDbPolyline
 90
        4
 70
     1
 43
3.0
 10
2636.165823330659
 20
-2562.675423701141
 42
0.4142135623731
 10
2634.66582333066
 20
-2561.175423701141
 42
0.4142135623731
 10
2633.16582333066
 20
-2562.675423701141
 42
0.4142135623731
 10
2634.66582333066
 20
-2564.175423701141
 42
0.4142135623731
  0
LINE
  5
58C
330
1F
100
AcDbEntity
  8
1-B_ﾊｯﾁ
  6
Continuous
 62
   120
370
     5
100
AcDbLine
 10
2589.66582333066
 20
-2562.675423701141
 30
0.0
 11
2589.66582333066
 21
-2682.675423701141
 31
0.0
  0
LINE
  5
58D
330
1F
100
AcDbEntity
  8
1-B_ﾊｯﾁ
  6
Continuous
 62
   120
370
     5
100
AcDbLine
 10
2634.66582333066
 20
-2562.675423701141
 30
0.0
 11
2634.66582333066
 21
-2682.675423701141
 31
0.0
  0
LINE
  5
58E
330
1F
100
AcDbEntity
  8
1-B_ﾊｯﾁ
  6
Continuous
 62
   120
370
     5
100
AcDbLine
 10
2634.66582333066
 20
-2562.675423701141
 30
0.0
 11
2859.66582333066
 21
-2562.675423701141
 31
0.0
  0
LWPOLYLINE
  5
58F
330
1F
100
AcDbEntity
  8
1-B_ﾊｯﾁ
  6
Continuous
 62
     7
370
     9
100
AcDbPolyline
 90
        4
 70
     1
 43
3.0
 10
2861.165823330659
 20
-2562.675423701141
 42
0.4142135623731
 10
2859.66582333066
 20
-2561.175423701141
 42
0.4142135623731
 10
2858.16582333066
 20
-2562.675423701141
 42
0.4142135623731
 10
2859.66582333066
 20
-2564.175423701141
 42
0.4142135623731
  0
LINE
  5
590
330
1F
100
AcDbEntity
  8
1-B_ﾊｯﾁ
  6
Continuous
 62
   120
370
     5
100
AcDbLine
 10
2859.66582333066
 20
-2562.675423701141
 30
0.0
 11
2859.66582333066
 21
-2682.675423701141
 31
0.0
  0
LINE
  5
591
330
1F
100
AcDbEntity
  8
1-B_ﾊｯﾁ
  6
Continuous
 62
   120
370
     5
100
AcDbLine
 10
2520.275887645077
 20
-2562.675423701141
 30
0.0
 11
2634.66582333066
 21
-2562.675423701141
 31
0.0
  0
LINE
  5
592
330
1F
100
AcDbEntity
  8
1-4_枠
  6
JWW_CENTER1
 62
   120
370
     5
100
AcDbLine
 10
2747.16582333066
 20
-2757.675423701141
 30
0.0
 11
2747.16582333066
 21
-3207.675423701141
 31
0.0
  0
LINE
  5
593
330
1F
100
AcDbEntity
  8
0-6_扉
  6
Continuous
 62
    40
370
    15
100
AcDbLine
 10
3082.504410631939
 20
-1453.039352286715
 30
0.0
 11
2981.741694312858
 21
-1394.863970895616
 31
0.0
  0
LINE
  5
594
330
1F
100
AcDbEntity
  8
1-4_枠
  6
JWW_CENTER1
 62
   120
370
     5
100
AcDbLine
 10
3729.665823330659
 20
-2982.675423701141
 30
0.0
 11
3475.204659980325
 21
-2982.675423701141
 31
0.0
  0
LINE
  5
595
330
1F
100
AcDbEntity
  8
1-4_枠
  6
JWW_CENTER1
 62
   120
370
     5
100
AcDbLine
 10
3171.877604110896
 20
-2982.675423701141
 30
0.0
 11
2534.441507414139
 21
-2982.675423701141
 31
0.0
  0
LINE
  5
596
330
1F
100
AcDbEntity
  8
0-A_文字
  6
Continuous
 62
    92
370
    13
100
AcDbLine
 10
1846.78210357543
 20
56.99980204814111
 30
0.0
 11
4083.054982111204
 21
56.99980204814111
 31
0.0
  0
LINE
  5
597
330
1F
100
AcDbEntity
  8
0-A_文字
  6
Continuous
 62
    92
370
    13
100
AcDbLine
 10
1846.78210357543
 20
-123.0001979518589
 30
0.0
 11
4083.054982111204
 21
-123.0001979518589
 31
0.0
  0
MTEXT
  5
598
330
1F
100
AcDbEntity
  8
0-A_文字
  6
Continuous
 62
     7
370
     9
100
AcDbMText
 10
2064.918542843318
 20
-107.2801979518589
 30
0.0
 40
91.43999999999996
 41
1800.0
 46
0.0
 71
     7
 72
     1
  1
{\fＭＳ ゴシック|b0|i0|c128|p49;振れ止め金具(床付け用)取り付け}
 73
     1
 44
1.0
  0
MTEXT
  5
599
330
1F
100
AcDbEntity
  8
0-A_文字
  6
Continuous
 62
     7
370
     9
100
AcDbMText
 10
1960.235489997387
 20
-310.4650800606228
 30
0.0
 40
68.58
 41
1080.0
 46
0.0
 71
     7
 72
     1
  1
{\fＭＳ ゴシック|b0|i0|c128|p49;振れ止め金具(床付け用)を}
 73
     1
 44
1.0
  0
MTEXT
  5
59A
330
1F
100
AcDbEntity
  8
0-A_文字
  6
Continuous
 62
     7
370
     9
100
AcDbMText
 10
1960.235489997387
 20
-415.6819117621754
 30
0.0
 40
68.58
 41
1260.0
 46
0.0
 71
     7
 72
     1
  1
{\fＭＳ ゴシック|b0|i0|c128|p49;下記のように床へ取り付けます}
 73
     1
 44
1.0
  0
MTEXT
  5
59B
330
1F
100
AcDbEntity
  8
0-A_文字
  6
Continuous
 62
     7
370
     9
100
AcDbMText
 10
2488.889199628094
 20
-807.9655349098844
 30
0.0
 40
68.58
 41
180.0
 46
0.0
 71
     7
 72
     1
  1
{\fＭＳ ゴシック|b0|i0|c128|p49;小壁}
 73
     1
 44
1.0
  0
MTEXT
  5
59C
330
1F
100
AcDbEntity
  8
0-A_文字
  6
Continuous
 62
     7
370
     9
100
AcDbMText
 10
3329.342072472681
 20
-996.651059036341
 30
0.0
 40
68.57999999999998
 41
270.0
 46
0.0
 71
     7
 72
     1
  1
{\fＭＳ ゴシック|b0|i0|c128|p49;中方立}
 73
     1
 44
1.0
  0
MTEXT
  5
59D
330
1F
100
AcDbEntity
  8
0-A_文字
  6
Continuous
 62
     7
370
     9
100
AcDbMText
 10
2034.617602810697
 20
-2354.844841928873
 30
0.0
 40
68.57999999999998
 41
270.0
 46
0.0
 71
     7
 72
     1
  1
{\fＭＳ ゴシック|b0|i0|c128|p49;平面図}
 73
     1
 44
1.0
  0
MTEXT
  5
59E
330
1F
100
AcDbEntity
  8
0-A_文字
  6
Continuous
 62
     7
370
     9
100
AcDbMText
 10
3377.165823330659
 20
-2399.434382330836
 30
0.0
 40
68.58
 41
180.0
 46
0.0
 71
     7
 72
     1
  1
{\fＭＳ ゴシック|b0|i0|c128|p49;小壁}
 73
     1
 44
1.0
  0
MTEXT
  5
59F
330
1F
100
AcDbEntity
  8
0-A_文字
  6
Continuous
 62
     7
370
     9
100
AcDbMText
 10
3197.165823330659
 20
-3038.385423701141
 30
0.0
 40
68.57999999999998
 41
270.0
 46
0.0
 71
     7
 72
     1
  1
{\fＭＳ ゴシック|b0|i0|c128|p49;中方立}
 73
     1
 44
1.0
  0
MTEXT
  5
5A0
330
1F
100
AcDbEntity
  8
0-B_寸法
  6
Continuous
 62
     7
370
     9
100
AcDbMText
 10
2228.57135515091
 20
-1144.715119461843
 30
0.0
 40
68.58
 41
450.0
 46
0.0
 71
     7
 72
     1
  1
{\fＭＳ ゴシック|b0|i0|c128|p49;ビス(同梱)}
 73
     1
 44
1.0
  0
MTEXT
  5
5A1
330
1F
100
AcDbEntity
  8
0-B_寸法
  6
Continuous
 62
     7
370
   211
100
AcDbMText
 10
3416.815018978526
 20
-1838.231405304219
 30
0.0
 40
91.44
 41
60.0
 46
0.0
 71
     7
 72
     1
  1
{\fＭＳ ゴシック|b0|i0|c128|p49;5}
 73
     1
 44
1.0
  0
MTEXT
  5
5A2
330
1F
100
AcDbEntity
  8
0-B_寸法
  6
Continuous
 62
     7
370
   211
100
AcDbMText
 10
2320.350644726734
 20
-1995.509396712635
 30
0.0
 40
91.44
 41
720.0
 46
0.0
 71
     7
 72
     1
  1
{\fＭＳ ゴシック|b0|i0|c128|p49;15(中方立芯)}
 73
     1
 44
1.0
  0
MTEXT
  5
5A3
330
1F
100
AcDbEntity
  8
0-B_寸法
  6
Continuous
 62
     7
370
     9
100
AcDbMText
 10
3284.754891513243
 20
-2088.815648464772
 30
0.0
 40
68.58000000000001
 41
765.0
 46
0.0
 71
     7
 72
     1
  1
{\fＭＳ ゴシック|b0|i0|c128|p49;※図は左引き(L)の}
 73
     1
 44
1.0
  0
MTEXT
  5
5A4
330
1F
100
AcDbEntity
  8
0-B_寸法
  6
Continuous
 62
     7
370
     9
100
AcDbMText
 10
3284.754891513243
 20
-2200.301918819979
 30
0.0
 40
68.58
 41
540.0
 46
0.0
 71
     7
 72
     1
  1
{\fＭＳ ゴシック|b0|i0|c128|p49;　場合です。}
 73
     1
 44
1.0
  0
MTEXT
  5
5A5
330
1F
100
AcDbEntity
  8
1-A_寸法
  6
Continuous
 62
     7
370
     9
100
AcDbMText
 10
2910.878383022593
 20
-2674.759439645267
 30
0.0
 40
68.58
 41
810.0
 46
0.0
 71
     7
 72
     1
  1
{\fＭＳ ゴシック|b0|i0|c128|p49;振れ止め金具(床用)}
 73
     1
 44
1.0
  0
MTEXT
  5
5A6
330
1F
100
AcDbEntity
  8
1-B_ﾊｯﾁ
  6
Continuous
 62
     7
370
   211
100
AcDbMText
 10
2664.66582333066
 20
-2459.308182171128
 30
0.0
 40
91.44
 41
120.0
 46
0.0
 71
     7
 72
     1
  1
{\fＭＳ ゴシック|b0|i0|c128|p49;18}
 73
     1
 44
1.0
  0
MTEXT
  5
5A7
330
1F
100
AcDbEntity
  8
1-B_ﾊｯﾁ
  6
Continuous
 62
     7
370
   211
100
AcDbMText
 10
2520.275887645077
 20
-2711.955423701141
 30
0.0
 40
91.44
 41
60.0
 46
0.0
 71
     7
 72
     1
  1
{\fＭＳ ゴシック|b0|i0|c128|p49;3}
 73
     1
 44
1.0
  0
MTEXT
  5
5A8
330
1F
100
AcDbEntity
  8
1-B_ﾊｯﾁ
  6
Continuous
 62
     7
370
   211
100
AcDbMText
 10
2698.41582333066
 20
-2711.955423701141
 30
0.0
 40
91.44
 41
120.0
 46
0.0
 71
     7
 72
     1
  1
{\fＭＳ ゴシック|b0|i0|c128|p49;15}
 73
     1
 44
1.0
  0
MTEXT
  5
5A9
330
1F
100
AcDbEntity
  8
1-B_ﾊｯﾁ
  6
Continuous
 62
     7
370
   211
100
AcDbMText
 10
2422.368626037995
 20
-3056.955423701141
 30
0.0
 40
91.44
 41
120.0
 46
0.0
 71
     7
 72
     1
  1
{\fＭＳ ゴシック|b0|i0|c128|p49;30}
 11
6.123031769111886E-17
 21
1.0
 31
0.0
 73
     1
 44
1.0
  0
MTEXT
  5
5AA
330
1F
100
AcDbEntity
  8
1-B_ﾊｯﾁ
  6
Continuous
 62
     7
370
   211
100
AcDbMText
 10
2721.856926160673
 20
-3408.720999593174
 30
0.0
 40
91.44
 41
60.0
 46
0.0
 71
     7
 72
     1
  1
{\fＭＳ ゴシック|b0|i0|c128|p49;5}
 73
     1
 44
1.0
  0
LINE
  5
5AB
330
1F
100
AcDbEntity
  8
0-A_文字
  6
Continuous
 62
    92
370
    13
100
AcDbLine
 10
4083.054982111204
 20
-3567.800350305692
 30
0.0
 11
4083.054982111204
 21
56.99980204814111
 31
0.0
  0
LINE
  5
5AC
330
1F
100
AcDbEntity
  8
0-A_文字
  6
Continuous
 62
    92
370
    13
100
AcDbLine
 10
1846.78210357543
 20
-3567.800350305692
 30
0.0
 11
1846.78210357543
 21
56.99980204814111
 31
0.0
  0
LINE
  5
5AD
330
1F
100
AcDbEntity
  8
0-A_文字
  6
Continuous
 62
    92
370
    13
100
AcDbLine
 10
1846.78210357543
 20
-3567.800350305692
 30
0.0
 11
4083.054982111204
 21
-3567.800350305692
 31
0.0
  0
LINE
  5
5AE
330
1F
100
AcDbEntity
  8
F-0_補助線
  6
JWW_HOJO
 62
     7
370
     9
100
AcDbLine
 10
1109.918584083287
 20
-3795.000003092998
 30
0.0
 11
1109.918584083287
 21
-4195.000008247994
 31
0.0
  0
LINE
  5
5AF
330
1F
100
AcDbEntity
  8
F-0_補助線
  6
JWW_HOJO
 62
     7
370
     9
100
AcDbLine
 10
4889.917891251784
 20
-3795.000003092998
 30
0.0
 11
4889.917891251784
 21
-4195.000008247994
 31
0.0
  0
MTEXT
  5
5B0
330
1F
100
AcDbEntity
  8
F-0_補助線
  6
Continuous
 62
     7
370
     0
100
AcDbMText
 10
1109.918584083287
 20
-3945.948259655243
 30
0.0
 40
78.105
 41
615.0
 46
0.0
 71
     7
 72
     1
  1
{\fＭＳ ゴシック|b0|i0|c128|p49;建具納まり図}
 73
     1
 44
1.0
  0
MTEXT
  5
5B1
330
1F
100
AcDbEntity
  8
F-0_補助線
  6
Continuous
 62
     7
370
     0
100
AcDbMText
 10
509.9185840832865
 20
-3945.709576962234
 30
0.0
 40
78.58125
 41
412.5
 46
0.0
 71
     7
 72
     1
  1
{\fＭＳ ゴシック|b0|i0|c128|p49;DOORETUS}
 73
     1
 44
1.0
  0
LINE
  5
5B2
330
1F
100
AcDbEntity
  8
0-1_通り芯
  6
JWW_CENTER1
 62
   120
370
     5
100
AcDbLine
 10
-3103.217896424574
 20
194.9998020481414
 30
0.0
 11
-3103.217896424574
 21
-2992.089343880875
 31
0.0
  0
LINE
  5
5B3
330
1F
100
AcDbEntity
  8
0-1_通り芯
  6
JWW_CENTER1
 62
   120
370
     5
100
AcDbLine
 10
-2989.217896424575
 20
-105.0001979518599
 30
0.0
 11
-2989.217896424575
 21
-2781.000403945509
 31
0.0
  0
LINE
  5
5B4
330
1F
100
AcDbEntity
  8
0-1_通り芯
  6
JWW_CENTER1
 62
   120
370
     5
100
AcDbLine
 10
-2126.421637479531
 20
2552.999683277026
 30
0.0
 11
2146.25872316616
 21
2552.999683277026
 31
0.0
  0
LWPOLYLINE
  5
5B5
330
1F
100
AcDbEntity
  8
0-B_寸法
  6
Continuous
 62
     7
370
     9
100
AcDbPolyline
 90
        4
 70
     1
 43
3.0
 10
308.7414845952503
 20
2552.999725341797
 42
0.4142135623731
 10
307.2414845952503
 20
2554.499725341797
 42
0.4142135623731
 10
305.7414845952503
 20
2552.999725341797
 42
0.4142135623731
 10
307.2414845952503
 20
2551.499725341797
 42
0.4142135623731
  0
LWPOLYLINE
  5
5B6
330
1F
100
AcDbEntity
  8
0-B_寸法
  6
Continuous
 62
     7
370
     9
100
AcDbPolyline
 90
        4
 70
     1
 43
3.0
 10
308.7414845952503
 20
2438.999683277028
 42
0.4142135623731
 10
307.2414845952503
 20
2440.499683277027
 42
0.4142135623731
 10
305.7414845952503
 20
2438.999683277028
 42
0.4142135623731
 10
307.2414845952503
 20
2437.499683277028
 42
0.4142135623731
  0
LWPOLYLINE
  5
5B7
330
1F
100
AcDbEntity
  8
0-B_寸法
  6
Continuous
 62
     7
370
     9
100
AcDbPolyline
 90
        4
 70
     1
 43
3.0
 10
-2987.717896424575
 20
-1359.000324800433
 42
0.4142135623731
 10
-2989.217896424575
 20
-1357.500324800433
 42
0.4142135623731
 10
-2990.717896424575
 20
-1359.000324800433
 42
0.4142135623731
 10
-2989.217896424575
 20
-1360.500324800433
 42
0.4142135623731
  0
LWPOLYLINE
  5
5B8
330
1F
100
AcDbEntity
  8
0-B_寸法
  6
Continuous
 62
     7
370
     9
100
AcDbPolyline
 90
        4
 70
     1
 43
3.0
 10
-3101.717896424574
 20
-1359.000324800433
 42
0.4142135623731
 10
-3103.217896424574
 20
-1357.500324800433
 42
0.4142135623731
 10
-3104.717896424574
 20
-1359.000324800433
 42
0.4142135623731
 10
-3103.217896424574
 20
-1360.500324800433
 42
0.4142135623731
  0
MTEXT
  5
5B9
330
1F
100
AcDbEntity
  8
F-A_文字
  6
Continuous
 62
     7
370
     0
100
AcDbMText
 10
4889.917891251784
 20
-3945.570773120548
 30
0.0
 40
78.86699999999999
 41
517.5
 46
0.0
 71
     7
 72
     1
  1
{\fＭＳ ゴシック|b0|i0|c128|p49;2022.04.01}
 73
     1
 44
1.0
  0
MTEXT
  5
5BA
330
1F
100
AcDbEntity
  8
0-B_寸法
  6
Continuous
 62
     7
370
   211
100
AcDbMText
 10
292.2414845952503
 20
2288.827204309412
 30
0.0
 40
97.15499999999999
 41
127.5
 46
0.0
 71
     7
 72
     1
  1
{\fＭＳ ゴシック|b0|i0|c128|p49;19}
 11
6.123031769111886E-17
 21
1.0
 31
0.0
 73
     1
 44
1.0
  0
LINE
  5
5BB
330
1F
100
AcDbEntity
  8
0-B_寸法
  6
Continuous
 62
   120
370
     5
100
AcDbLine
 10
307.2414845952503
 20
2552.999725341797
 30
0.0
 11
307.2414845952503
 21
2306.999683277027
 31
0.0
  0
LINE
  5
5BC
330
1F
100
AcDbEntity
  8
0-6_扉
  6
Continuous
 62
   200
370
    20
100
AcDbLine
 10
547.2414845952503
 20
2462.999683277026
 30
0.0
 11
1144.088633004738
 21
2462.999683277026
 31
0.0
  0
LINE
  5
5BD
330
1F
100
AcDbEntity
  8
0-B_寸法
  6
Continuous
 62
   120
370
     5
100
AcDbLine
 10
930.1381696324338
 20
2423.999683277028
 30
0.0
 11
779.8604184315227
 21
2423.999683277028
 31
0.0
  0
MTEXT
  5
5BE
330
1F
100
AcDbEntity
  8
0-B_寸法
  6
Continuous
 62
     7
370
     0
100
AcDbMText
 10
764.8603689435604
 20
2208.741176239683
 30
0.0
 40
91.44
 41
120.0
 46
0.0
 71
     7
 72
     1
  1
{\fＭＳ ゴシック|b0|i0|c128|p49;54}
 11
6.123031769111886E-17
 21
1.0
 31
0.0
 73
     1
 44
1.0
  0
MTEXT
  5
5BF
330
1F
100
AcDbEntity
  8
0-B_寸法
  6
Continuous
 62
     7
370
     0
100
AcDbMText
 10
1904.483412384002
 20
2478.719683277026
 30
0.0
 40
91.44
 41
120.0
 46
0.0
 71
     7
 72
     1
  1
{\fＭＳ ゴシック|b0|i0|c128|p49;79}
 11
6.123031769111886E-17
 21
1.0
 31
0.0
 73
     1
 44
1.0
  0
LINE
  5
5C0
330
1F
100
AcDbEntity
  8
0-6_扉
  6
Continuous
 62
   200
370
    20
100
AcDbLine
 10
-3079.217896424575
 20
-414.0001979518607
 30
0.0
 11
-3079.217896424575
 21
-1491.00019795186
 31
0.0
  0
MTEXT
  5
5C1
330
1F
100
AcDbEntity
  8
0-B_寸法
  6
Continuous
 62
     7
370
     0
100
AcDbMText
 10
-3299.52869168072
 20
-868.1051942929599
 30
0.0
 40
91.44
 41
180.0
 46
0.0
 71
     7
 72
     1
  1
{\fＭＳ ゴシック|b0|i0|c128|p49;110}
 73
     1
 44
1.0
  0
MTEXT
  5
5C2
330
1F
100
AcDbEntity
  8
0-B_寸法
  6
Continuous
 62
     7
370
   211
100
AcDbMText
 10
-3241.967896424575
 20
-1355.422824800433
 30
0.0
 40
97.15499999999999
 41
127.5
 46
0.0
 71
     7
 72
     1
  1
{\fＭＳ ゴシック|b0|i0|c128|p49;19}
 73
     1
 44
1.0
  0
LINE
  5
5C3
330
1F
100
AcDbEntity
  8
0-B_寸法
  6
Continuous
 62
   120
370
     5
100
AcDbLine
 10
-2989.217896424575
 20
-1359.000324800433
 30
0.0
 11
-3235.217896424574
 21
-1359.000324800433
 31
0.0
  0
MTEXT
  5
5C4
330
1F
100
AcDbEntity
  8
0-B_寸法
  6
Continuous
 62
     7
370
   211
100
AcDbMText
 10
-2108.284129185655
 20
3069.720227644636
 30
0.0
 40
91.44
 41
120.0
 46
0.0
 71
     7
 72
     1
  1
{\fＭＳ ゴシック|b0|i0|c128|p49;10}
 73
     1
 44
1.0
  0
MTEXT
  5
5C5
330
1F
100
AcDbEntity
  8
0-B_寸法
  6
Continuous
 62
     7
370
   211
100
AcDbMText
 10
-2308.026550425996
 20
2931.680213256172
 30
0.0
 40
91.44
 41
60.0
 46
0.0
 71
     7
 72
     1
  1
{\fＭＳ ゴシック|b0|i0|c128|p49;5}
 73
     1
 44
1.0
  0
ENDSEC
  0
SECTION
  2
OBJECTS
  0
DICTIONARY
  5
C
330
0
100
AcDbDictionary
281
     1
  3
ACAD_GROUP
350
D
  3
ACAD_LAYOUT
350
1A
  3
ACAD_MATERIAL
350
3B
  3
ACAD_MLEADERSTYLE
350
5C7
  3
ACAD_MLINESTYLE
350
17
  3
ACAD_PLOTSETTINGS
350
19
  3
ACAD_PLOTSTYLENAME
350
E
  3
ACAD_TABLESTYLE
350
5C6
  3
ACAD_VISUALSTYLE
350
2A
  0
DICTIONARY
  5
D
102
{ACAD_REACTORS
330
C
102
}
330
C
100
AcDbDictionary
281
     1
  0
DICTIONARY
  5
1A
102
{ACAD_REACTORS
330
C
102
}
330
C
100
AcDbDictionary
281
     1
  3
Layout1
350
1E
  3
Layout2
350
26
  3
Model
350
22
  0
DICTIONARY
  5
3B
102
{ACAD_REACTORS
330
C
102
}
330
C
100
AcDbDictionary
281
     1
  3
ByBlock
350
3D
  3
ByLayer
350
3C
  3
Global
350
3E
  0
DICTIONARY
  5
5C7
102
{ACAD_REACTORS
330
C
102
}
330
C
100
AcDbDictionary
281
     1
  0
DICTIONARY
  5
17
102
{ACAD_REACTORS
330
C
102
}
330
C
100
AcDbDictionary
281
     1
  3
Standard
350
18
  0
DICTIONARY
  5
19
102
{ACAD_REACTORS
330
C
102
}
330
C
100
AcDbDictionary
281
     1
  0
ACDBDICTIONARYWDFLT
  5
E
102
{ACAD_REACTORS
330
C
102
}
330
C
100
AcDbDictionary
281
     1
  3
Normal
350
F
100
AcDbDictionaryWithDefault
340
F
  0
DICTIONARY
  5
5C6
102
{ACAD_REACTORS
330
C
102
}
330
C
100
AcDbDictionary
281
     1
  0
DICTIONARY
  5
2A
102
{ACAD_REACTORS
330
C
102
}
330
C
100
AcDbDictionary
281
     1
  3
2dWireframe
350
2F
  3
3D Hidden
350
31
  3
3dWireframe
350
30
  3
Basic
350
32
  3
Brighten
350
36
  3
ColorChange
350
3A
  3
Conceptual
350
34
  3
Dim
350
35
  3
Facepattern
350
39
  3
Flat
350
2B
  3
FlatWithEdges
350
2C
  3
Gouraud
350
2D
  3
GouraudWithEdges
350
2E
  3
Linepattern
350
38
  3
Realistic
350
33
  3
Thicken
350
37
  0
LAYOUT
  5
1E
102
{ACAD_REACTORS
330
1A
102
}
330
1A
100
AcDbPlotSettings
  1

  2
none_device
  4

  6

 40
0.0
 41
0.0
 42
0.0
 43
0.0
 44
0.0
 45
0.0
 46
0.0
 47
0.0
 48
0.0
 49
0.0
140
0.0
141
0.0
142
1.0
143
1.0
 70
   688
 72
     0
 73
     0
 74
     5
  7

 75
    16
 76
     0
 77
     5
 78
   300
147
1.0
148
0.0
149
0.0
100
AcDbLayout
  1
Layout1
 70
     1
 71
     1
 10
0.0
 20
0.0
 11
420.0
 21
297.0
 12
0.0
 22
0.0
 32
0.0
 14
1.000000000000000E+20
 24
1.000000000000000E+20
 34
1.000000000000000E+20
 15
-1.000000000000000E+20
 25
-1.000000000000000E+20
 35
-1.000000000000000E+20
146
0.0
 13
0.0
 23
0.0
 33
0.0
 16
1.0
 26
0.0
 36
0.0
 17
0.0
 27
1.0
 37
0.0
 76
     0
330
1B
  0
LAYOUT
  5
26
102
{ACAD_REACTORS
330
1A
102
}
330
1A
100
AcDbPlotSettings
  1

  2
none_device
  4

  6

 40
0.0
 41
0.0
 42
0.0
 43
0.0
 44
0.0
 45
0.0
 46
0.0
 47
0.0
 48
0.0
 49
0.0
140
0.0
141
0.0
142
1.0
143
1.0
 70
   688
 72
     0
 73
     0
 74
     5
  7

 75
    16
 76
     0
 77
     5
 78
   300
147
1.0
148
0.0
149
0.0
100
AcDbLayout
  1
Layout2
 70
     1
 71
     2
 10
0.0
 20
0.0
 11
0.0
 21
0.0
 12
0.0
 22
0.0
 32
0.0
 14
0.0
 24
0.0
 34
0.0
 15
0.0
 25
0.0
 35
0.0
146
0.0
 13
0.0
 23
0.0
 33
0.0
 16
1.0
 26
0.0
 36
0.0
 17
0.0
 27
1.0
 37
0.0
 76
     0
330
23
  0
LAYOUT
  5
22
102
{ACAD_REACTORS
330
1A
102
}
330
1A
100
AcDbPlotSettings
  1

  2
none_device
  4

  6

 40
0.0
 41
0.0
 42
0.0
 43
0.0
 44
0.0
 45
0.0
 46
0.0
 47
0.0
 48
0.0
 49
0.0
140
0.0
141
0.0
142
1.0
143
1.0
 70
  1712
 72
     0
 73
     0
 74
     0
  7

 75
     0
 76
     0
 77
     5
 78
   300
147
1.0
148
0.0
149
0.0
100
AcDbLayout
  1
Model
 70
     1
 71
     0
 10
-8910.0
 20
-6300.0
 11
8910.0
 21
6300.0
 12
0.0
 22
0.0
 32
0.0
 14
-8910.0
 24
-6300.0
 34
0.0
 15
8910.0
 25
6300.0
 35
0.0
146
0.0
 13
0.0
 23
0.0
 33
0.0
 16
1.0
 26
0.0
 36
0.0
 17
0.0
 27
1.0
 37
0.0
 76
     0
330
1F
331
29
  0
MATERIAL
  5
3D
102
{ACAD_REACTORS
330
3B
102
}
330
3B
100
AcDbMaterial
  1
ByBlock
 72
     1
 94
      127
  0
MATERIAL
  5
3C
102
{ACAD_REACTORS
330
3B
102
}
330
3B
100
AcDbMaterial
  1
ByLayer
 72
     1
 94
      127
  0
MATERIAL
  5
3E
102
{ACAD_REACTORS
330
3B
102
}
330
3B
100
AcDbMaterial
  1
Global
 72
     1
 94
      127
  0
MLINESTYLE
  5
18
102
{ACAD_REACTORS
330
17
102
}
330
17
100
AcDbMlineStyle
  2
Standard
 70
     0
  3

 62
   256
 51
90.0
 52
90.0
 71
     2
 49
0.5
 62
   256
  6
BYLAYER
 49
-0.5
 62
   256
  6
BYLAYER
  0
ACDBPLACEHOLDER
  5
F
102
{ACAD_REACTORS
330
E
102
}
330
E
  0
VISUALSTYLE
  5
2F
102
{ACAD_REACTORS
330
2A
102
}
330
2A
100
AcDbVisualStyle
  2
2dWireframe
 70
     4
177
     2
291
     0
 71
     0
176
     1
 72
     2
176
     1
 73
     0
176
     1
 90
        0
176
     1
 40
-0.6
176
     1
 41
-30.0
176
     1
 62
     5
 63
     7
421
 16777215
176
     1
 74
     1
176
     1
 91
        4
176
     1
 64
     7
176
     1
 65
   257
176
     1
 75
     1
176
     1
175
     1
176
     1
 42
1.0
176
     1
 92
        0
176
     1
 66
   257
176
     1
 43
1.0
176
     1
 76
     1
176
     1
 77
     6
176
     1
 78
     2
176
     1
 67
     7
176
     1
 79
     5
176
     1
170
     0
176
     1
171
     0
176
     1
290
     0
176
     1
 93
        1
176
     1
 44
0.0
176
     1
173
     0
176
     1
  0
VISUALSTYLE
  5
31
102
{ACAD_REACTORS
330
2A
102
}
330
2A
100
AcDbVisualStyle
  2
3D Hidden
 70
     6
177
     2
291
     0
 71
     1
176
     1
 72
     2
176
     1
 73
     2
176
     1
 90
        0
176
     1
 40
-0.6
176
     1
 41
-30.0
176
     1
 62
     5
 63
     7
421
 16777215
176
     1
 74
     2
176
     1
 91
        2
176
     1
 64
     7
176
     1
 65
   257
176
     1
 75
     2
176
     1
175
     1
176
     1
 42
40.0
176
     1
 92
        0
176
     1
 66
   257
176
     1
 43
1.0
176
     1
 76
     1
176
     1
 77
     6
176
     1
 78
     2
176
     1
 67
     7
176
     1
 79
     3
176
     1
170
     0
176
     1
171
     0
176
     1
290
     0
176
     1
 93
        1
176
     1
 44
0.0
176
     1
173
     0
176
     1
  0
VISUALSTYLE
  5
30
102
{ACAD_REACTORS
330
2A
102
}
330
2A
100
AcDbVisualStyle
  2
3dWireframe
 70
     5
177
     2
291
     0
 71
     0
176
     1
 72
     2
176
     1
 73
     0
176
     1
 90
        0
176
     1
 40
-0.6
176
     1
 41
-30.0
176
     1
 62
     5
 63
     7
421
 16777215
176
     1
 74
     1
176
     1
 91
        4
176
     1
 64
     7
176
     1
 65
   257
176
     1
 75
     1
176
     1
175
     1
176
     1
 42
1.0
176
     1
 92
        0
176
     1
 66
   257
176
     1
 43
1.0
176
     1
 76
     1
176
     1
 77
     6
176
     1
 78
     2
176
     1
 67
     7
176
     1
 79
     5
176
     1
170
     0
176
     1
171
     0
176
     1
290
     0
176
     1
 93
        1
176
     1
 44
0.0
176
     1
173
     0
176
     1
  0
VISUALSTYLE
  5
32
102
{ACAD_REACTORS
330
2A
102
}
330
2A
100
AcDbVisualStyle
  2
Basic
 70
     7
177
     2
291
     1
 71
     1
176
     1
 72
     0
176
     1
 73
     1
176
     1
 90
        0
176
     1
 40
-0.6
176
     1
 41
-30.0
176
     1
 62
     5
 63
     7
421
 16777215
176
     1
 74
     0
176
     1
 91
        4
176
     1
 64
     7
176
     1
 65
   257
176
     1
 75
     1
176
     1
175
     1
176
     1
 42
1.0
176
     1
 92
        8
176
     1
 66
     7
176
     1
 43
1.0
176
     1
 76
     1
176
     1
 77
     6
176
     1
 78
     2
176
     1
 67
     7
176
     1
 79
     5
176
     1
170
     0
176
     1
171
     0
176
     1
290
     0
176
     1
 93
        1
176
     1
 44
0.0
176
     1
173
     0
176
     1
  0
VISUALSTYLE
  5
36
102
{ACAD_REACTORS
330
2A
102
}
330
2A
100
AcDbVisualStyle
  2
Brighten
 70
    12
177
     2
291
     1
 71
     2
176
     1
 72
     2
176
     1
 73
     0
176
     1
 90
        0
176
     1
 40
-0.6
176
     1
 41
-30.0
176
     1
 62
     5
 63
     7
421
 16777215
176
     1
 74
     1
176
     1
 91
        4
176
     1
 64
     7
176
     1
 65
   257
176
     1
 75
     1
176
     1
175
     1
176
     1
 42
1.0
176
     1
 92
        8
176
     1
 66
     7
176
     1
 43
1.0
176
     1
 76
     1
176
     1
 77
     6
176
     1
 78
     2
176
     1
 67
     7
176
     1
 79
     5
176
     1
170
     0
176
     1
171
     0
176
     1
290
     0
176
     1
 93
        1
176
     1
 44
50.0
176
     1
173
     0
176
     1
  0
VISUALSTYLE
  5
3A
102
{ACAD_REACTORS
330
2A
102
}
330
2A
100
AcDbVisualStyle
  2
ColorChange
 70
    16
177
     2
291
     1
 71
     2
176
     1
 72
     2
176
     1
 73
     3
176
     1
 90
        0
176
     1
 40
-0.6
176
     1
 41
-30.0
176
     1
 62
     5
 63
     8
421
  8421504
176
     1
 74
     1
176
     1
 91
        4
176
     1
 64
     7
176
     1
 65
   257
176
     1
 75
     1
176
     1
175
     1
176
     1
 42
1.0
176
     1
 92
        8
176
     1
 66
     8
424
  8421504
176
     1
 43
1.0
176
     1
 76
     1
176
     1
 77
     6
176
     1
 78
     2
176
     1
 67
     7
176
     1
 79
     5
176
     1
170
     0
176
     1
171
     0
176
     1
290
     0
176
     1
 93
        1
176
     1
 44
0.0
176
     1
173
     0
176
     1
  0
VISUALSTYLE
  5
34
102
{ACAD_REACTORS
330
2A
102
}
330
2A
100
AcDbVisualStyle
  2
Conceptual
 70
     9
177
     2
291
     0
 71
     3
176
     1
 72
     2
176
     1
 73
     0
176
     1
 90
        0
176
     1
 40
-0.6
176
     1
 41
-30.0
176
     1
 62
     5
 63
     7
421
 16777215
176
     1
 74
     2
176
     1
 91
        2
176
     1
 64
     7
176
     1
 65
   257
176
     1
 75
     1
176
     1
175
     1
176
     1
 42
40.0
176
     1
 92
        8
176
     1
 66
     7
176
     1
 43
1.0
176
     1
 76
     1
176
     1
 77
     6
176
     1
 78
     2
176
     1
 67
     7
176
     1
 79
     3
176
     1
170
     0
176
     1
171
     0
176
     1
290
     0
176
     1
 93
        1
176
     1
 44
0.0
176
     1
173
     0
176
     1
  0
VISUALSTYLE
  5
35
102
{ACAD_REACTORS
330
2A
102
}
330
2A
100
AcDbVisualStyle
  2
Dim
 70
    11
177
     2
291
     1
 71
     2
176
     1
 72
     2
176
     1
 73
     0
176
     1
 90
        0
176
     1
 40
-0.6
176
     1
 41
-30.0
176
     1
 62
     5
 63
     7
421
 16777215
176
     1
 74
     1
176
     1
 91
        4
176
     1
 64
     7
176
     1
 65
   257
176
     1
 75
     1
176
     1
175
     1
176
     1
 42
1.0
176
     1
 92
        8
176
     1
 66
     7
176
     1
 43
1.0
176
     1
 76
     1
176
     1
 77
     6
176
     1
 78
     2
176
     1
 67
     7
176
     1
 79
     5
176
     1
170
     0
176
     1
171
     0
176
     1
290
     0
176
     1
 93
        1
176
     1
 44
-50.0
176
     1
173
     0
176
     1
  0
VISUALSTYLE
  5
39
102
{ACAD_REACTORS
330
2A
102
}
330
2A
100
AcDbVisualStyle
  2
Facepattern
 70
    15
177
     2
291
     1
 71
     2
176
     1
 72
     2
176
     1
 73
     0
176
     1
 90
        0
176
     1
 40
-0.6
176
     1
 41
-30.0
176
     1
 62
     5
 63
     7
421
 16777215
176
     1
 74
     1
176
     1
 91
        4
176
     1
 64
     7
176
     1
 65
   257
176
     1
 75
     1
176
     1
175
     1
176
     1
 42
1.0
176
     1
 92
        8
176
     1
 66
     7
176
     1
 43
1.0
176
     1
 76
     1
176
     1
 77
     6
176
     1
 78
     2
176
     1
 67
     7
176
     1
 79
     5
176
     1
170
     0
176
     1
171
     0
176
     1
290
     0
176
     1
 93
        1
176
     1
 44
0.0
176
     1
173
     0
176
     1
  0
VISUALSTYLE
  5
2B
102
{ACAD_REACTORS
330
2A
102
}
330
2A
100
AcDbVisualStyle
  2
Flat
 70
     0
177
     2
291
     1
 71
     2
176
     1
 72
     1
176
     1
 73
     1
176
     1
 90
        2
176
     1
 40
-0.6
176
     1
 41
30.0
176
     1
 62
     5
 63
     7
421
 16777215
176
     1
 74
     0
176
     1
 91
        4
176
     1
 64
     7
176
     1
 65
   257
176
     1
 75
     1
176
     1
175
     1
176
     1
 42
1.0
176
     1
 92
        8
176
     1
 66
     7
176
     1
 43
1.0
176
     1
 76
     1
176
     1
 77
     6
176
     1
 78
     2
176
     1
 67
     7
176
     1
 79
     5
176
     1
170
     0
176
     1
171
     0
176
     1
290
     0
176
     1
 93
       13
176
     1
 44
0.0
176
     1
173
     0
176
     1
  0
VISUALSTYLE
  5
2C
102
{ACAD_REACTORS
330
2A
102
}
330
2A
100
AcDbVisualStyle
  2
FlatWithEdges
 70
     1
177
     2
291
     1
 71
     2
176
     1
 72
     1
176
     1
 73
     1
176
     1
 90
        2
176
     1
 40
-0.6
176
     1
 41
30.0
176
     1
 62
     5
 63
     7
421
 16777215
176
     1
 74
     1
176
     1
 91
        4
176
     1
 64
     7
176
     1
 65
   257
176
     1
 75
     1
176
     1
175
     1
176
     1
 42
1.0
176
     1
 92
        0
176
     1
 66
   257
176
     1
 43
1.0
176
     1
 76
     1
176
     1
 77
     6
176
     1
 78
     2
176
     1
 67
     7
176
     1
 79
     5
176
     1
170
     0
176
     1
171
     0
176
     1
290
     0
176
     1
 93
       13
176
     1
 44
0.0
176
     1
173
     0
176
     1
  0
VISUALSTYLE
  5
2D
102
{ACAD_REACTORS
330
2A
102
}
330
2A
100
AcDbVisualStyle
  2
Gouraud
 70
     2
177
     2
291
     1
 71
     2
176
     1
 72
     2
176
     1
 73
     1
176
     1
 90
        2
176
     1
 40
-0.6
176
     1
 41
30.0
176
     1
 62
     5
 63
     7
421
 16777215
176
     1
 74
     0
176
     1
 91
        4
176
     1
 64
     7
176
     1
 65
   257
176
     1
 75
     1
176
     1
175
     1
176
     1
 42
1.0
176
     1
 92
        0
176
     1
 66
     7
176
     1
 43
1.0
176
     1
 76
     1
176
     1
 77
     6
176
     1
 78
     2
176
     1
 67
     7
176
     1
 79
     5
176
     1
170
     0
176
     1
171
     0
176
     1
290
     0
176
     1
 93
       13
176
     1
 44
0.0
176
     1
173
     0
176
     1
  0
VISUALSTYLE
  5
2E
102
{ACAD_REACTORS
330
2A
102
}
330
2A
100
AcDbVisualStyle
  2
GouraudWithEdges
 70
     3
177
     2
291
     1
 71
     2
176
     1
 72
     2
176
     1
 73
     1
176
     1
 90
        2
176
     1
 40
-0.6
176
     1
 41
30.0
176
     1
 62
     5
 63
     7
421
 16777215
176
     1
 74
     1
176
     1
 91
        4
176
     1
 64
     7
176
     1
 65
   257
176
     1
 75
     1
176
     1
175
     1
176
     1
 42
1.0
176
     1
 92
        0
176
     1
 66
   257
176
     1
 43
1.0
176
     1
 76
     1
176
     1
 77
     6
176
     1
 78
     2
176
     1
 67
     7
176
     1
 79
     5
176
     1
170
     0
176
     1
171
     0
176
     1
290
     0
176
     1
 93
       13
176
     1
 44
0.0
176
     1
173
     0
176
     1
  0
VISUALSTYLE
  5
38
102
{ACAD_REACTORS
330
2A
102
}
330
2A
100
AcDbVisualStyle
  2
Linepattern
 70
    14
177
     2
291
     1
 71
     2
176
     1
 72
     2
176
     1
 73
     0
176
     1
 90
        0
176
     1
 40
-0.6
176
     1
 41
-30.0
176
     1
 62
     5
 63
     7
421
 16777215
176
     1
 74
     1
176
     1
 91
        4
176
     1
 64
     7
176
     1
 65
   257
176
     1
 75
     7
176
     1
175
     7
176
     1
 42
1.0
176
     1
 92
        8
176
     1
 66
     7
176
     1
 43
1.0
176
     1
 76
     1
176
     1
 77
     6
176
     1
 78
     2
176
     1
 67
     7
176
     1
 79
     5
176
     1
170
     0
176
     1
171
     0
176
     1
290
     0
176
     1
 93
        1
176
     1
 44
0.0
176
     1
173
     0
176
     1
  0
VISUALSTYLE
  5
33
102
{ACAD_REACTORS
330
2A
102
}
330
2A
100
AcDbVisualStyle
  2
Realistic
 70
     8
177
     2
291
     0
 71
     2
176
     1
 72
     2
176
     1
 73
     0
176
     1
 90
        0
176
     1
 40
-0.6
176
     1
 41
-30.0
176
     1
 62
     5
 63
     7
421
 16777215
176
     1
 74
     1
176
     1
 91
        0
176
     1
 64
     7
176
     1
 65
   257
176
     1
 75
     1
176
     1
175
     1
176
     1
 42
1.0
176
     1
 92
        8
176
     1
 66
     8
424
  7895160
176
     1
 43
1.0
176
     1
 76
     1
176
     1
 77
     6
176
     1
 78
     2
176
     1
 67
     7
176
     1
 79
     5
176
     1
170
     0
176
     1
171
     0
176
     1
290
     0
176
     1
 93
       13
176
     1
 44
0.0
176
     1
173
     0
176
     1
  0
VISUALSTYLE
  5
37
102
{ACAD_REACTORS
330
2A
102
}
330
2A
100
AcDbVisualStyle
  2
Thicken
 70
    13
177
     2
291
     1
 71
     2
176
     1
 72
     2
176
     1
 73
     0
176
     1
 90
        0
176
     1
 40
-0.6
176
     1
 41
-30.0
176
     1
 62
     5
 63
     7
421
 16777215
176
     1
 74
     1
176
     1
 91
        4
176
     1
 64
     7
176
     1
 65
   257
176
     1
 75
     1
176
     1
175
     1
176
     1
 42
1.0
176
     1
 92
       12
176
     1
 66
     7
176
     1
 43
1.0
176
     1
 76
     1
176
     1
 77
     6
176
     1
 78
     2
176
     1
 67
     7
176
     1
 79
     5
176
     1
170
     0
176
     1
171
     0
176
     1
290
     0
176
     1
 93
        1
176
     1
 44
0.0
176
     1
173
     0
176
     1
  0
ENDSEC
  0
EOF
