  0
SECTION
  2
HEADER
  9
$ACADVER
  1
AC1024
  9
$ACADMAINTVER
 70
     6
  9
$DWGCODEPAGE
  3
ANSI_932
  9
$INSBASE
 10
0.0
 20
0.0
 30
0.0
  9
$EXTMIN
 10
-8910.0
 20
-6300.0
 30
0.0
  9
$EXTMAX
 10
8910.0
 20
6300.0
 30
0.0
  9
$LIMMIN
 10
-8910.0
 20
-6300.0
  9
$LIMMAX
 10
8910.0
 20
6300.0
  9
$ORTHOMODE
 70
     0
  9
$REGENMODE
 70
     1
  9
$FILLMODE
 70
     1
  9
$QTEXTMODE
 70
     0
  9
$MIRRTEXT
 70
     1
  9
$LTSCALE
 40
30.0
  9
$ATTMODE
 70
     1
  9
$TEXTSIZE
 40
2.5
  9
$TRACEWID
 40
1.0
  9
$TEXTSTYLE
  7
Standard
  9
$CLAYER
  8
0
  9
$CELTYPE
  6
ByLayer
  9
$CECOLOR
 62
   256
  9
$CELTSCALE
 40
1.0
  9
$DISPSILH
 70
     0
  9
$DIMSCALE
 40
1.0
  9
$DIMASZ
 40
2.5
  9
$DIMEXO
 40
0.625
  9
$DIMDLI
 40
3.75
  9
$DIMRND
 40
0.0
  9
$DIMDLE
 40
0.0
  9
$DIMEXE
 40
1.25
  9
$DIMTP
 40
0.0
  9
$DIMTM
 40
0.0
  9
$DIMTXT
 40
2.5
  9
$DIMCEN
 40
2.5
  9
$DIMTSZ
 40
0.0
  9
$DIMTOL
 70
     0
  9
$DIMLIM
 70
     0
  9
$DIMTIH
 70
     0
  9
$DIMTOH
 70
     0
  9
$DIMSE1
 70
     0
  9
$DIMSE2
 70
     0
  9
$DIMTAD
 70
     1
  9
$DIMZIN
 70
     8
  9
$DIMBLK
  1

  9
$DIMASO
 70
     1
  9
$DIMSHO
 70
     1
  9
$DIMPOST
  1

  9
$DIMAPOST
  1

  9
$DIMALT
 70
     0
  9
$DIMALTD
 70
     3
  9
$DIMALTF
 40
0.03937007874016
  9
$DIMLFAC
 40
1.0
  9
$DIMTOFL
 70
     1
  9
$DIMTVP
 40
0.0
  9
$DIMTIX
 70
     0
  9
$DIMSOXD
 70
     0
  9
$DIMSAH
 70
     0
  9
$DIMBLK1
  1

  9
$DIMBLK2
  1

  9
$DIMSTYLE
  2
ISO-25
  9
$DIMCLRD
 70
     0
  9
$DIMCLRE
 70
     0
  9
$DIMCLRT
 70
     0
  9
$DIMTFAC
 40
1.0
  9
$DIMGAP
 40
0.625
  9
$DIMJUST
 70
     0
  9
$DIMSD1
 70
     0
  9
$DIMSD2
 70
     0
  9
$DIMTOLJ
 70
     0
  9
$DIMTZIN
 70
     8
  9
$DIMALTZ
 70
     0
  9
$DIMALTTZ
 70
     0
  9
$DIMUPT
 70
     0
  9
$DIMDEC
 70
     2
  9
$DIMTDEC
 70
     2
  9
$DIMALTU
 70
     2
  9
$DIMALTTD
 70
     3
  9
$DIMTXSTY
  7
Standard
  9
$DIMAUNIT
 70
     0
  9
$DIMADEC
 70
     0
  9
$DIMALTRND
 40
0.0
  9
$DIMAZIN
 70
     0
  9
$DIMDSEP
 70
    44
  9
$DIMATFIT
 70
     3
  9
$DIMFRAC
 70
     0
  9
$DIMLDRBLK
  1

  9
$DIMLUNIT
 70
     2
  9
$DIMLWD
 70
    -2
  9
$DIMLWE
 70
    -2
  9
$DIMTMOVE
 70
     0
  9
$DIMFXL
 40
1.0
  9
$DIMFXLON
 70
     0
  9
$DIMJOGANG
 40
0.7853981633974483
  9
$DIMTFILL
 70
     0
  9
$DIMTFILLCLR
 70
     0
  9
$DIMARCSYM
 70
     0
  9
$DIMLTYPE
  6

  9
$DIMLTEX1
  6

  9
$DIMLTEX2
  6

  9
$DIMTXTDIRECTION
 70
     0
  9
$LUNITS
 70
     2
  9
$LUPREC
 70
     4
  9
$SKETCHINC
 40
1.0
  9
$FILLETRAD
 40
10.0
  9
$AUNITS
 70
     0
  9
$AUPREC
 70
     0
  9
$MENU
  1
.
  9
$ELEVATION
 40
0.0
  9
$PELEVATION
 40
0.0
  9
$THICKNESS
 40
0.0
  9
$LIMCHECK
 70
     0
  9
$CHAMFERA
 40
10.0
  9
$CHAMFERB
 40
10.0
  9
$CHAMFERC
 40
20.0
  9
$CHAMFERD
 40
0.0
  9
$SKPOLY
 70
     0
  9
$TDCREATE
 40
2459720.724706794
  9
$TDUCREATE
 40
2459720.349706794
  9
$TDUPDATE
 40
2459720.724706806
  9
$TDUUPDATE
 40
2459720.349706806
  9
$TDINDWG
 40
0.0000000116
  9
$TDUSRTIMER
 40
0.0000000116
  9
$USRTIMER
 70
     1
  9
$ANGBASE
 50
0.0
  9
$ANGDIR
 70
     0
  9
$PDMODE
 70
     0
  9
$PDSIZE
 40
0.0
  9
$PLINEWID
 40
0.0
  9
$SPLFRAME
 70
     0
  9
$SPLINETYPE
 70
     6
  9
$SPLINESEGS
 70
     8
  9
$HANDSEED
  5
558
  9
$SURFTAB1
 70
     6
  9
$SURFTAB2
 70
     6
  9
$SURFTYPE
 70
     6
  9
$SURFU
 70
     6
  9
$SURFV
 70
     6
  9
$UCSBASE
  2

  9
$UCSNAME
  2

  9
$UCSORG
 10
0.0
 20
0.0
 30
0.0
  9
$UCSXDIR
 10
1.0
 20
0.0
 30
0.0
  9
$UCSYDIR
 10
0.0
 20
1.0
 30
0.0
  9
$UCSORTHOREF
  2

  9
$UCSORTHOVIEW
 70
     0
  9
$UCSORGTOP
 10
0.0
 20
0.0
 30
0.0
  9
$UCSORGBOTTOM
 10
0.0
 20
0.0
 30
0.0
  9
$UCSORGLEFT
 10
0.0
 20
0.0
 30
0.0
  9
$UCSORGRIGHT
 10
0.0
 20
0.0
 30
0.0
  9
$UCSORGFRONT
 10
0.0
 20
0.0
 30
0.0
  9
$UCSORGBACK
 10
0.0
 20
0.0
 30
0.0
  9
$PUCSBASE
  2

  9
$PUCSNAME
  2

  9
$PUCSORG
 10
0.0
 20
0.0
 30
0.0
  9
$PUCSXDIR
 10
1.0
 20
0.0
 30
0.0
  9
$PUCSYDIR
 10
0.0
 20
1.0
 30
0.0
  9
$PUCSORTHOREF
  2

  9
$PUCSORTHOVIEW
 70
     0
  9
$PUCSORGTOP
 10
0.0
 20
0.0
 30
0.0
  9
$PUCSORGBOTTOM
 10
0.0
 20
0.0
 30
0.0
  9
$PUCSORGLEFT
 10
0.0
 20
0.0
 30
0.0
  9
$PUCSORGRIGHT
 10
0.0
 20
0.0
 30
0.0
  9
$PUCSORGFRONT
 10
0.0
 20
0.0
 30
0.0
  9
$PUCSORGBACK
 10
0.0
 20
0.0
 30
0.0
  9
$USERI1
 70
     0
  9
$USERI2
 70
     0
  9
$USERI3
 70
     0
  9
$USERI4
 70
     0
  9
$USERI5
 70
     0
  9
$USERR1
 40
0.0
  9
$USERR2
 40
0.0
  9
$USERR3
 40
0.0
  9
$USERR4
 40
0.0
  9
$USERR5
 40
0.0
  9
$WORLDVIEW
 70
     1
  9
$SHADEDGE
 70
     3
  9
$SHADEDIF
 70
    70
  9
$TILEMODE
 70
     1
  9
$MAXACTVP
 70
    64
  9
$PINSBASE
 10
0.0
 20
0.0
 30
0.0
  9
$PLIMCHECK
 70
     0
  9
$PEXTMIN
 10
1.000000000000000E+20
 20
1.000000000000000E+20
 30
1.000000000000000E+20
  9
$PEXTMAX
 10
-1.000000000000000E+20
 20
-1.000000000000000E+20
 30
-1.000000000000000E+20
  9
$PLIMMIN
 10
0.0
 20
0.0
  9
$PLIMMAX
 10
420.0
 20
297.0
  9
$UNITMODE
 70
     0
  9
$VISRETAIN
 70
     1
  9
$PLINEGEN
 70
     0
  9
$PSLTSCALE
 70
     1
  9
$TREEDEPTH
 70
  3020
  9
$CMLSTYLE
  2
Standard
  9
$CMLJUST
 70
     0
  9
$CMLSCALE
 40
20.0
  9
$PROXYGRAPHICS
 70
     1
  9
$MEASUREMENT
 70
     1
  9
$CELWEIGHT
370
    -1
  9
$ENDCAPS
280
     0
  9
$JOINSTYLE
280
     0
  9
$LWDISPLAY
290
     0
  9
$INSUNITS
 70
     4
  9
$HYPERLINKBASE
  1

  9
$STYLESHEET
  1

  9
$XEDIT
290
     1
  9
$CEPSNTYPE
380
     0
  9
$PSTYLEMODE
290
     1
  9
$FINGERPRINTGUID
  2
{D73015F4-E826-4AC4-8C70-88A8DF22F131}
  9
$VERSIONGUID
  2
{FAEB1C32-E019-11D5-929B-00C0DF256EC4}
  9
$EXTNAMES
290
     1
  9
$PSVPSCALE
 40
0.0
  9
$OLESTARTUP
290
     0
  9
$SORTENTS
280
   127
  9
$INDEXCTL
280
     0
  9
$HIDETEXT
280
     1
  9
$XCLIPFRAME
280
     2
  9
$HALOGAP
280
     0
  9
$OBSCOLOR
 70
   257
  9
$OBSLTYPE
280
     0
  9
$INTERSECTIONDISPLAY
280
     0
  9
$INTERSECTIONCOLOR
 70
   257
  9
$DIMASSOC
280
     2
  9
$PROJECTNAME
  1

  9
$CAMERADISPLAY
290
     0
  9
$LENSLENGTH
 40
50.0
  9
$CAMERAHEIGHT
 40
0.0
  9
$STEPSPERSEC
 40
2.0
  9
$STEPSIZE
 40
6.0
  9
$3DDWFPREC
 40
2.0
  9
$PSOLWIDTH
 40
5.0
  9
$PSOLHEIGHT
 40
80.0
  9
$LOFTANG1
 40
1.570796326794897
  9
$LOFTANG2
 40
1.570796326794897
  9
$LOFTMAG1
 40
0.0
  9
$LOFTMAG2
 40
0.0
  9
$LOFTPARAM
 70
     7
  9
$LOFTNORMALS
280
     1
  9
$LATITUDE
 40
37.795
  9
$LONGITUDE
 40
-122.394
  9
$NORTHDIRECTION
 40
0.0
  9
$TIMEZONE
 70
 -8000
  9
$LIGHTGLYPHDISPLAY
280
     1
  9
$TILEMODELIGHTSYNCH
280
     1
  9
$SOLIDHIST
280
     1
  9
$SHOWHIST
280
     1
  9
$DWFFRAME
280
     2
  9
$DGNFRAME
280
     2
  9
$REALWORLDSCALE
290
     1
  9
$INTERFERECOLOR
 62
   256
  9
$CSHADOW
280
     0
  9
$SHADOWPLANELOCATION
 40
0.0
  0
ENDSEC
  0
SECTION
  2
CLASSES
  0
CLASS
  1
ACDBDICTIONARYWDFLT
  2
AcDbDictionaryWithDefault
  3
ObjectDBX Classes
 90
        0
 91
        4
280
     0
281
     0
  0
CLASS
  1
VISUALSTYLE
  2
AcDbVisualStyle
  3
ObjectDBX Classes
 90
     4095
 91
        4
280
     0
281
     0
  0
CLASS
  1
MATERIAL
  2
AcDbMaterial
  3
ObjectDBX Classes
 90
     1153
 91
        4
280
     0
281
     0
  0
ENDSEC
  0
SECTION
  2
TABLES
  0
TABLE
  2
VPORT
  5
8
330
0
100
AcDbSymbolTable
 70
     1
  0
VPORT
  5
29
330
8
100
AcDbSymbolTableRecord
100
AcDbViewportTableRecord
  2
*Active
 70
     0
 10
0.0
 20
0.0
 11
1.0
 21
1.0
 12
0.0
 22
0.0
 13
0.0
 23
0.0
 14
10.0
 24
10.0
 15
10.0
 25
10.0
 16
0.0
 26
0.0
 36
1.0
 17
0.0
 27
0.0
 37
0.0
 40
13860.0
 41
1.414285714285714
 42
50.0
 43
0.0
 44
0.0
 50
0.0
 51
0.0
 71
     0
 72
 10000
 73
     1
 74
     3
 75
     0
 76
     0
 77
     0
 78
     0
281
     0
 65
     1
110
0.0
120
0.0
130
0.0
111
1.0
121
0.0
131
0.0
112
0.0
122
1.0
132
0.0
 79
     0
146
0.0
 60
     3
 61
     5
292
     1
282
     1
141
0.0
142
0.0
 63
   250
  0
ENDTAB
  0
TABLE
  2
LTYPE
  5
5
330
0
100
AcDbSymbolTable
 70
     5
  0
LTYPE
  5
14
330
5
100
AcDbSymbolTableRecord
100
AcDbLinetypeTableRecord
  2
ByBlock
 70
     0
  3

 72
    65
 73
     0
 40
0.0
  0
LTYPE
  5
15
330
5
100
AcDbSymbolTableRecord
100
AcDbLinetypeTableRecord
  2
ByLayer
 70
     0
  3

 72
    65
 73
     0
 40
0.0
  0
LTYPE
  5
16
330
5
100
AcDbSymbolTableRecord
100
AcDbLinetypeTableRecord
  2
Continuous
 70
     0
  3
Solid line
 72
    65
 73
     0
 40
0.0
  0
LTYPE
  5
3F
330
5
100
AcDbSymbolTableRecord
100
AcDbLinetypeTableRecord
  2
JWW_HOJO
 70
     0
  3
  -   -   -   -   -   -   -   - 
 72
    65
 73
     2
 40
1.693333333333333
 49
-1.27
 74
     0
 49
0.4233333333333333
 74
     0
  0
LTYPE
  5
40
330
5
100
AcDbSymbolTableRecord
100
AcDbLinetypeTableRecord
  2
JWW_DASHED1
 70
     0
  3
-  --  --  --  --  --  --  --  -
 72
    65
 73
     2
 40
1.693333333333333
 49
0.8466666666666667
 74
     0
 49
-0.8466666666666667
 74
     0
  0
LTYPE
  5
41
330
5
100
AcDbSymbolTableRecord
100
AcDbLinetypeTableRecord
  2
JWW_DASHED2
 70
     0
  3
--    ----    ----    ----    --
 72
    65
 73
     2
 40
3.386666666666667
 49
1.693333333333333
 74
     0
 49
-1.693333333333333
 74
     0
  0
LTYPE
  5
42
330
5
100
AcDbSymbolTableRecord
100
AcDbLinetypeTableRecord
  2
JWW_CENTER1
 70
     0
  3
-----  --  ----------  --  -----
 72
    65
 73
     4
 40
6.773333333333333
 49
4.233333333333333
 74
     0
 49
-0.8466666666666667
 74
     0
 49
0.8466666666666667
 74
     0
 49
-0.8466666666666667
 74
     0
  0
ENDTAB
  0
TABLE
  2
LAYER
  5
2
330
0
100
AcDbSymbolTable
 70
    22
  0
LAYER
  5
10
330
2
100
AcDbSymbolTableRecord
100
AcDbLayerTableRecord
  2
0
 70
     0
 62
     7
  6
Continuous
370
    -3
390
F
347
3E
  0
LAYER
  5
43
330
2
100
AcDbSymbolTableRecord
100
AcDbLayerTableRecord
  2
F-A_文字
 70
     0
 62
     7
  6
Continuous
370
    -3
390
F
347
3E
  0
LAYER
  5
44
330
2
100
AcDbSymbolTableRecord
100
AcDbLayerTableRecord
  2
F-0_補助線
 70
     0
 62
     7
  6
Continuous
370
    -3
390
F
347
3E
  0
LAYER
  5
45
330
2
100
AcDbSymbolTableRecord
100
AcDbLayerTableRecord
  2
F-1_枠
 70
     0
 62
     7
  6
Continuous
370
    -3
390
F
347
3E
  0
LAYER
  5
46
330
2
100
AcDbSymbolTableRecord
100
AcDbLayerTableRecord
  2
0-A_文字
 70
     0
 62
     7
  6
Continuous
370
    -3
390
F
347
3E
  0
LAYER
  5
47
330
2
100
AcDbSymbolTableRecord
100
AcDbLayerTableRecord
  2
0-6_扉
 70
     0
 62
     7
  6
Continuous
370
    -3
390
F
347
3E
  0
LAYER
  5
48
330
2
100
AcDbSymbolTableRecord
100
AcDbLayerTableRecord
  2
ハッチ
 70
     0
 62
     7
  6
Continuous
370
    -3
390
F
347
3E
  0
LAYER
  5
49
330
2
100
AcDbSymbolTableRecord
100
AcDbLayerTableRecord
  2
0-7_金物
 70
     0
 62
     7
  6
Continuous
370
    -3
390
F
347
3E
  0
LAYER
  5
4A
330
2
100
AcDbSymbolTableRecord
100
AcDbLayerTableRecord
  2
仕上げ
 70
     0
 62
     7
  6
Continuous
370
    -3
390
F
347
3E
  0
LAYER
  5
4B
330
2
100
AcDbSymbolTableRecord
100
AcDbLayerTableRecord
  2
0-B_寸法
 70
     0
 62
     7
  6
Continuous
370
    -3
390
F
347
3E
  0
LAYER
  5
4C
330
2
100
AcDbSymbolTableRecord
100
AcDbLayerTableRecord
  2
0-1_通り芯
 70
     0
 62
     7
  6
Continuous
370
    -3
390
F
347
3E
  0
LAYER
  5
4D
330
2
100
AcDbSymbolTableRecord
100
AcDbLayerTableRecord
  2
0-0_補助線
 70
     0
 62
     7
  6
Continuous
370
    -3
390
F
347
3E
  0
LAYER
  5
4E
330
2
100
AcDbSymbolTableRecord
100
AcDbLayerTableRecord
  2
0-2_柱
 70
     0
 62
     7
  6
Continuous
370
    -3
390
F
347
3E
  0
LAYER
  5
4F
330
2
100
AcDbSymbolTableRecord
100
AcDbLayerTableRecord
  2
0-4_枠
 70
     0
 62
     7
  6
Continuous
370
    -3
390
F
347
3E
  0
LAYER
  5
50
330
2
100
AcDbSymbolTableRecord
100
AcDbLayerTableRecord
  2
1-0_補助線
 70
     0
 62
     7
  6
Continuous
370
    -3
390
F
347
3E
  0
LAYER
  5
51
330
2
100
AcDbSymbolTableRecord
100
AcDbLayerTableRecord
  2
1-B_ﾊｯﾁ
 70
     0
 62
     7
  6
Continuous
370
    -3
390
F
347
3E
  0
LAYER
  5
52
330
2
100
AcDbSymbolTableRecord
100
AcDbLayerTableRecord
  2
1-6_扉
 70
     0
 62
     7
  6
Continuous
370
    -3
390
F
347
3E
  0
LAYER
  5
53
330
2
100
AcDbSymbolTableRecord
100
AcDbLayerTableRecord
  2
1-4_枠
 70
     0
 62
     7
  6
Continuous
370
    -3
390
F
347
3E
  0
LAYER
  5
54
330
2
100
AcDbSymbolTableRecord
100
AcDbLayerTableRecord
  2
1-3_仕上
 70
     0
 62
     7
  6
Continuous
370
    -3
390
F
347
3E
  0
LAYER
  5
55
330
2
100
AcDbSymbolTableRecord
100
AcDbLayerTableRecord
  2
1-1_通り芯
 70
     0
 62
     7
  6
Continuous
370
    -3
390
F
347
3E
  0
LAYER
  5
56
330
2
100
AcDbSymbolTableRecord
100
AcDbLayerTableRecord
  2
1-7_金物
 70
     0
 62
     7
  6
Continuous
370
    -3
390
F
347
3E
  0
LAYER
  5
57
330
2
100
AcDbSymbolTableRecord
100
AcDbLayerTableRecord
  2
1-A_寸法
 70
     0
 62
     7
  6
Continuous
370
    -3
390
F
347
3E
  0
ENDTAB
  0
TABLE
  2
STYLE
  5
3
330
0
100
AcDbSymbolTable
 70
     1
  0
STYLE
  5
11
330
3
100
AcDbSymbolTableRecord
100
AcDbTextStyleTableRecord
  2
Standard
 70
     0
 40
0.0
 41
1.0
 50
0.0
 71
     0
 42
2.5
  3
txt
  4

  0
ENDTAB
  0
TABLE
  2
VIEW
  5
6
330
0
100
AcDbSymbolTable
 70
     0
  0
ENDTAB
  0
TABLE
  2
UCS
  5
7
330
0
100
AcDbSymbolTable
 70
     0
  0
ENDTAB
  0
TABLE
  2
APPID
  5
9
330
0
100
AcDbSymbolTable
 70
     1
  0
APPID
  5
12
330
9
100
AcDbSymbolTableRecord
100
AcDbRegAppTableRecord
  2
ACAD
 70
     0
  0
ENDTAB
  0
TABLE
  2
DIMSTYLE
  5
A
330
0
100
AcDbSymbolTable
 70
     1
100
AcDbDimStyleTable
  0
DIMSTYLE
105
27
330
A
100
AcDbSymbolTableRecord
100
AcDbDimStyleTableRecord
  2
ISO-25
 70
     0
 41
2.5
 42
0.625
 43
3.75
 44
1.25
 73
     0
 74
     0
 77
     1
 78
     8
140
2.5
141
2.5
143
0.03937007874016
147
0.625
171
     3
172
     1
178
     0
271
     2
272
     2
274
     3
278
    44
283
     0
284
     8
340
11
  0
ENDTAB
  0
TABLE
  2
BLOCK_RECORD
  5
1
330
0
100
AcDbSymbolTable
 70
     1
  0
BLOCK_RECORD
  5
1F
330
1
100
AcDbSymbolTableRecord
100
AcDbBlockTableRecord
  2
*Model_Space
340
22
 70
     0
280
     1
281
     0
  0
BLOCK_RECORD
  5
1B
330
1
100
AcDbSymbolTableRecord
100
AcDbBlockTableRecord
  2
*Paper_Space
340
1E
 70
     0
280
     1
281
     0
  0
BLOCK_RECORD
  5
23
330
1
100
AcDbSymbolTableRecord
100
AcDbBlockTableRecord
  2
*Paper_Space0
340
26
 70
     0
280
     1
281
     0
  0
ENDTAB
  0
ENDSEC
  0
SECTION
  2
BLOCKS
  0
BLOCK
  5
20
330
1F
100
AcDbEntity
  8
0
100
AcDbBlockBegin
  2
*Model_Space
 70
     0
 10
0.0
 20
0.0
 30
0.0
  3
*Model_Space
  1

  0
ENDBLK
  5
21
330
1F
100
AcDbEntity
  8
0
100
AcDbBlockEnd
  0
BLOCK
  5
1C
330
1B
100
AcDbEntity
 67
     1
  8
0
100
AcDbBlockBegin
  2
*Paper_Space
 70
     0
 10
0.0
 20
0.0
 30
0.0
  3
*Paper_Space
  1

  0
ENDBLK
  5
1D
330
1B
100
AcDbEntity
 67
     1
  8
0
100
AcDbBlockEnd
  0
BLOCK
  5
24
330
23
100
AcDbEntity
  8
0
100
AcDbBlockBegin
  2
*Paper_Space0
 70
     0
 10
0.0
 20
0.0
 30
0.0
  3
*Paper_Space0
  1

  0
ENDBLK
  5
25
330
23
100
AcDbEntity
  8
0
100
AcDbBlockEnd
  0
ENDSEC
  0
SECTION
  2
ENTITIES
  0
MTEXT
  5
58
330
1F
100
AcDbEntity
  8
F-A_文字
  6
Continuous
 62
     7
370
     0
100
AcDbMText
 10
-5080.081323642279
 20
-4045.09180048517
 30
0.0
 40
79.81627118644063
 41
3090.0
 46
0.0
 71
     7
 72
     1
  1
{\fＭＳ ゴシック|b0|i0|c128|p49;ドレタス　引き分け戸　上吊りタイプ　固定枠155巾　枠外W3,234}
 73
     1
 44
1.0
  0
LINE
  5
59
330
1F
100
AcDbEntity
  8
F-0_補助線
  6
JWW_HOJO
 62
   120
370
     5
100
AcDbLine
 10
-6140.081333436773
 20
-4455.0
 30
0.0
 11
-6140.081333436773
 21
4424.999604096284
 31
0.0
  0
LINE
  5
5A
330
1F
100
AcDbEntity
  8
F-0_補助線
  6
JWW_HOJO
 62
   120
370
     5
100
AcDbLine
 10
-6140.081333436773
 20
4424.999604096284
 30
0.0
 11
6159.917676803936
 21
4424.999604096284
 31
0.0
  0
LINE
  5
5B
330
1F
100
AcDbEntity
  8
F-0_補助線
  6
JWW_HOJO
 62
   120
370
     5
100
AcDbLine
 10
6159.917676803936
 20
4424.999604096284
 30
0.0
 11
6159.917676803936
 21
-4455.0
 31
0.0
  0
LINE
  5
5C
330
1F
100
AcDbEntity
  8
F-0_補助線
  6
JWW_HOJO
 62
   120
370
     5
100
AcDbLine
 10
6159.917676803936
 20
-4455.0
 30
0.0
 11
-6140.081333436773
 21
-4455.0
 31
0.0
  0
LINE
  5
5D
330
1F
100
AcDbEntity
  8
F-0_補助線
  6
JWW_HOJO
 62
     7
370
     5
100
AcDbLine
 10
509.9185840832865
 20
-3795.000003092998
 30
0.0
 11
509.9185840832865
 21
-4195.000008247994
 31
0.0
  0
LINE
  5
5E
330
1F
100
AcDbEntity
  8
F-1_枠
  6
Continuous
 62
   200
370
     5
100
AcDbLine
 10
5859.917429364114
 20
4174.999769056166
 30
0.0
 11
5859.917429364114
 21
-4205.000164959882
 31
0.0
  0
LINE
  5
5F
330
1F
100
AcDbEntity
  8
F-1_枠
  6
Continuous
 62
   200
370
     5
100
AcDbLine
 10
-5840.081317971782
 20
4174.999769056166
 30
0.0
 11
-5840.081317971782
 21
-4205.000164959882
 31
0.0
  0
LINE
  5
60
330
1F
100
AcDbEntity
  8
F-1_枠
  6
Continuous
 62
   200
370
     5
100
AcDbLine
 10
5859.917429364114
 20
-4205.000002577498
 30
0.0
 11
-5840.081085996952
 21
-4205.000002577498
 31
0.0
  0
LINE
  5
61
330
1F
100
AcDbEntity
  8
F-1_枠
  6
Continuous
 62
   200
370
     5
100
AcDbLine
 10
-5830.081323642279
 20
4174.999769056166
 30
0.0
 11
-5830.081323642279
 21
-4205.000164959882
 31
0.0
  0
LINE
  5
62
330
1F
100
AcDbEntity
  8
F-1_枠
  6
Continuous
 62
   200
370
     5
100
AcDbLine
 10
-5835.081309208291
 20
4174.999769056166
 30
0.0
 11
-5835.081309208291
 21
-4205.000164959882
 31
0.0
  0
LINE
  5
63
330
1F
100
AcDbEntity
  8
F-1_枠
  6
Continuous
 62
   200
370
     5
100
AcDbLine
 10
5854.917165428304
 20
4174.999769056166
 30
0.0
 11
5854.917165428304
 21
-4205.000164959882
 31
0.0
  0
LINE
  5
64
330
1F
100
AcDbEntity
  8
F-1_枠
  6
Continuous
 62
   200
370
     5
100
AcDbLine
 10
5849.917643811961
 20
4174.999769056166
 30
0.0
 11
5849.917643811961
 21
-4205.000164959882
 31
0.0
  0
LINE
  5
65
330
1F
100
AcDbEntity
  8
F-1_枠
  6
Continuous
 62
   200
370
     5
100
AcDbLine
 10
5859.917429364114
 20
-4199.999993814004
 30
0.0
 11
-5840.081085996952
 21
-4199.999993814004
 31
0.0
  0
LINE
  5
66
330
1F
100
AcDbEntity
  8
F-1_枠
  6
Continuous
 62
   200
370
     5
100
AcDbLine
 10
5859.917429364114
 20
-4195.000008247994
 30
0.0
 11
-5840.081085996952
 21
-4195.000008247994
 31
0.0
  0
LINE
  5
67
330
1F
100
AcDbEntity
  8
F-1_枠
  6
Continuous
 62
   200
370
     5
100
AcDbLine
 10
4349.917891251784
 20
-3795.000003092998
 30
0.0
 11
4349.917891251784
 21
-4195.000008247994
 31
0.0
  0
LINE
  5
68
330
1F
100
AcDbEntity
  8
F-1_枠
  6
Continuous
 62
   200
370
     5
100
AcDbLine
 10
2849.917396372139
 20
-3795.000003092998
 30
0.0
 11
2849.917396372139
 21
-4195.000008247994
 31
0.0
  0
LINE
  5
69
330
1F
100
AcDbEntity
  8
F-1_枠
  6
Continuous
 62
   200
370
     5
100
AcDbLine
 10
9.918542843316231
 20
-3795.000003092998
 30
0.0
 11
9.918542843316231
 21
-4195.000008247994
 31
0.0
  0
LINE
  5
6A
330
1F
100
AcDbEntity
  8
F-1_枠
  6
Continuous
 62
   200
370
     5
100
AcDbLine
 10
9.918542843316231
 20
-3994.999936078046
 30
0.0
 11
5849.917643811961
 21
-3995.005364289155
 31
0.0
  0
LINE
  5
6B
330
1F
100
AcDbEntity
  8
F-1_枠
  6
Continuous
 62
   200
370
     5
100
AcDbLine
 10
-5840.081085996952
 20
4174.999769056166
 30
0.0
 11
5859.917429364114
 21
4174.999769056166
 31
0.0
  0
LINE
  5
6C
330
1F
100
AcDbEntity
  8
F-1_枠
  6
Continuous
 62
   200
370
     5
100
AcDbLine
 10
-5840.081085996952
 20
4164.999983504013
 30
0.0
 11
5859.917429364114
 21
4164.999983504013
 31
0.0
  0
LINE
  5
6D
330
1F
100
AcDbEntity
  8
F-1_枠
  6
Continuous
 62
   200
370
     5
100
AcDbLine
 10
-5840.081085996952
 20
4169.999505120355
 30
0.0
 11
5859.917429364114
 21
4169.999505120355
 31
0.0
  0
LINE
  5
6E
330
1F
100
AcDbEntity
  8
F-0_補助線
  6
JWW_HOJO
 62
     7
370
     5
100
AcDbLine
 10
-5830.081323642279
 20
-3994.99993607839
 30
0.0
 11
9.918542843316231
 21
-3994.99993607839
 31
0.0
  0
LINE
  5
6F
330
1F
100
AcDbEntity
  8
F-0_補助線
  6
JWW_HOJO
 62
     7
370
     5
100
AcDbLine
 10
-5830.081323642279
 20
-3904.99993607839
 30
0.0
 11
9.918542843316231
 21
-3904.99993607839
 31
0.0
  0
LINE
  5
70
330
1F
100
AcDbEntity
  8
F-0_補助線
  6
JWW_HOJO
 62
     7
370
     5
100
AcDbLine
 10
-5830.081323642279
 20
-4084.99993607839
 30
0.0
 11
9.918542843316231
 21
-4084.99993607839
 31
0.0
  0
LINE
  5
71
330
1F
100
AcDbEntity
  8
F-0_補助線
  6
JWW_HOJO
 62
     7
370
     5
100
AcDbLine
 10
9.918408067688347
 20
-4139.999739777983
 30
0.0
 11
5849.917509036332
 21
-4140.005167989091
 31
0.0
  0
LINE
  5
72
330
1F
100
AcDbEntity
  8
F-0_補助線
  6
JWW_HOJO
 62
     7
370
     5
100
AcDbLine
 10
9.918491721639953
 20
-4049.999739778022
 30
0.0
 11
5849.917592690284
 21
-4050.005167989131
 31
0.0
  0
LINE
  5
73
330
1F
100
AcDbEntity
  8
F-0_補助線
  6
JWW_HOJO
 62
     7
370
     5
100
AcDbLine
 10
9.918593965360003
 20
-3939.99973721807
 30
0.0
 11
5849.917694934004
 21
-3940.005165429179
 31
0.0
  0
LINE
  5
74
330
1F
100
AcDbEntity
  8
F-0_補助線
  6
JWW_HOJO
 62
     7
370
     5
100
AcDbLine
 10
9.918677619311609
 20
-3849.999737218109
 30
0.0
 11
5849.917778587956
 21
-3850.005165429218
 31
0.0
  0
LINE
  5
75
330
1F
100
AcDbEntity
  8
F-0_補助線
  6
JWW_HOJO
 62
     7
370
     5
100
AcDbLine
 10
2939.917396372139
 20
-3795.000003092998
 30
0.0
 11
2939.917396372139
 21
-4195.000008247994
 31
0.0
  0
LINE
  5
76
330
1F
100
AcDbEntity
  8
F-0_補助線
  6
JWW_HOJO
 62
     7
370
     5
100
AcDbLine
 10
99.91854284331623
 20
-3795.000003092998
 30
0.0
 11
99.91854284331623
 21
-4195.000008247994
 31
0.0
  0
LINE
  5
77
330
1F
100
AcDbEntity
  8
F-0_補助線
  6
JWW_HOJO
 62
     7
370
     5
100
AcDbLine
 10
4439.917891251784
 20
-3795.000003092998
 30
0.0
 11
4439.917891251784
 21
-4195.000008247994
 31
0.0
  0
LINE
  5
78
330
1F
100
AcDbEntity
  8
F-1_枠
  6
Continuous
 62
   200
370
     5
100
AcDbLine
 10
5859.917429364114
 20
-3795.000003092998
 30
0.0
 11
-5840.081085996952
 21
-3795.000003092998
 31
0.0
  0
LINE
  5
79
330
1F
100
AcDbEntity
  8
F-1_枠
  6
Continuous
 62
   200
370
     5
100
AcDbLine
 10
5859.917429364114
 20
-3790.000017526987
 30
0.0
 11
-5840.081085996952
 21
-3790.000017526987
 31
0.0
  0
LINE
  5
7A
330
1F
100
AcDbEntity
  8
F-0_補助線
  6
JWW_HOJO
 62
     7
370
     5
100
AcDbLine
 10
-5087.628710189611
 20
-3795.000003092999
 30
0.0
 11
-5087.628710189611
 21
-4205.000164959882
 31
0.0
  0
LINE
  5
7B
330
1F
100
AcDbEntity
  8
F-0_補助線
  6
JWW_HOJO
 62
     7
370
     5
100
AcDbLine
 10
-50.08145715668377
 20
-3795.000003092998
 30
0.0
 11
-50.08145715668377
 21
-4195.000008247994
 31
0.0
  0
MTEXT
  5
7C
330
1F
100
AcDbEntity
  8
F-A_文字
  6
Continuous
 62
     7
370
     0
100
AcDbMText
 10
99.91854284331623
 20
-3887.139820871936
 30
0.0
 40
45.72
 41
180.0
 46
0.0
 71
     7
 72
     1
  1
{\fＭＳ ゴシック|b0|i0|c128|p49;図面名}
 73
     1
 44
1.0
  0
MTEXT
  5
7D
330
1F
100
AcDbEntity
  8
F-A_文字
  6
Continuous
 62
     7
370
     0
100
AcDbMText
 10
2939.917396372139
 20
-3887.142460617774
 30
0.0
 40
45.72
 41
300.0
 46
0.0
 71
     7
 72
     1
  1
{\fＭＳ ゴシック|b0|i0|c128|p49;ＳＣＡＬＥ}
 73
     1
 44
1.0
  0
MTEXT
  5
7E
330
1F
100
AcDbEntity
  8
F-A_文字
  6
Continuous
 62
     7
370
     0
100
AcDbMText
 10
4439.917891251784
 20
-3887.143854850754
 30
0.0
 40
45.72
 41
240.0
 46
0.0
 71
     7
 72
     1
  1
{\fＭＳ ゴシック|b0|i0|c128|p49;ＤＡＴＥ}
 73
     1
 44
1.0
  0
MTEXT
  5
7F
330
1F
100
AcDbEntity
  8
F-A_文字
  6
Continuous
 62
     7
370
     0
100
AcDbMText
 10
3569.917643811961
 20
-3946.903115907308
 30
0.0
 40
76.19999999999999
 41
150.0
 46
0.0
 71
     7
 72
     1
  1
{\fＭＳ ゴシック|b0|i0|c128|p49;1/5}
 73
     1
 44
1.0
  0
MTEXT
  5
80
330
1F
100
AcDbEntity
  8
F-A_文字
  6
Continuous
 62
     7
370
     0
100
AcDbMText
 10
2939.917396372139
 20
-4087.14246317786
 30
0.0
 40
45.72
 41
240.0
 46
0.0
 71
     7
 72
     1
  1
{\fＭＳ ゴシック|b0|i0|c128|p49;ＦＩＬＥ}
 73
     1
 44
1.0
  0
MTEXT
  5
81
330
1F
100
AcDbEntity
  8
F-A_文字
  6
Continuous
 62
     7
370
     0
100
AcDbMText
 10
4439.917891251784
 20
-4087.143857410839
 30
0.0
 40
45.72
 41
180.0
 46
0.0
 71
     7
 72
     1
  1
{\fＭＳ ゴシック|b0|i0|c128|p49;ＮＯ．}
 73
     1
 44
1.0
  0
MTEXT
  5
82
330
1F
100
AcDbEntity
  8
F-A_文字
  6
Continuous
 62
     7
370
     0
100
AcDbMText
 10
1394.917396372138
 20
-4096.140669266149
 30
0.0
 40
45.72
 41
120.0
 46
0.0
 71
     7
 72
     1
  1
{\fＭＳ ゴシック|b0|i0|c128|p49;株式}
 73
     1
 44
1.0
  0
MTEXT
  5
83
330
1F
100
AcDbEntity
  8
F-A_文字
  6
Continuous
 62
     7
370
     0
100
AcDbMText
 10
1604.917396372138
 20
-4164.281754523929
 30
0.0
 40
101.44125
 41
1065.0
 46
0.0
 71
     7
 72
     1
  1
{\fＭＳ ゴシック|b0|i0|c128|p49;ウッドワン・・・}
 73
     1
 44
1.0
  0
MTEXT
  5
84
330
1F
100
AcDbEntity
  8
F-A_文字
  6
Continuous
 62
     7
370
     0
100
AcDbMText
 10
1394.917396372138
 20
-4168.140669266187
 30
0.0
 40
45.72
 41
120.0
 46
0.0
 71
     7
 72
     1
  1
{\fＭＳ ゴシック|b0|i0|c128|p49;会社}
 73
     1
 44
1.0
  0
MTEXT
  5
85
330
1F
100
AcDbEntity
  8
F-A_文字
  6
Continuous
 62
     7
370
     0
100
AcDbMText
 10
5768.321977672939
 20
-4314.841419020919
 30
0.0
 40
68.58
 41
90.0
 46
0.0
 71
     7
 72
     1
  1
{\fＭＳ ゴシック|b0|i0|c128|p49;）}
 73
     1
 44
1.0
  0
MTEXT
  5
86
330
1F
100
AcDbEntity
  8
F-A_文字
  6
Continuous
 62
     7
370
     0
100
AcDbMText
 10
5350.114617405298
 20
-4316.235443869856
 30
0.0
 40
68.58
 41
45.0
 46
0.0
 71
     7
 72
     1
  1
{\fＭＳ ゴシック|b0|i0|c128|p49;,}
 73
     1
 44
1.0
  0
MTEXT
  5
87
330
1F
100
AcDbEntity
  8
F-A_文字
  6
Continuous
 62
     7
370
     0
100
AcDbMText
 10
5083.855928478601
 20
-4314.771967288282
 30
0.0
 40
74.295
 41
97.5
 46
0.0
 71
     7
 72
     1
  1
{\fＭＳ ゴシック|b0|i0|c128|p49;$y}
 73
     1
 44
1.0
  0
MTEXT
  5
88
330
1F
100
AcDbEntity
  8
F-A_文字
  6
Continuous
 62
     7
370
     0
100
AcDbMText
 10
5238.592649517422
 20
-4314.771967288282
 30
0.0
 40
74.295
 41
97.5
 46
0.0
 71
     7
 72
     1
  1
{\fＭＳ ゴシック|b0|i0|c128|p49;$m}
 73
     1
 44
1.0
  0
MTEXT
  5
89
330
1F
100
AcDbEntity
  8
F-A_文字
  6
Continuous
 62
     7
370
     0
100
AcDbMText
 10
5393.32938200033
 20
-4314.771967288282
 30
0.0
 40
74.295
 41
97.5
 46
0.0
 71
     7
 72
     1
  1
{\fＭＳ ゴシック|b0|i0|c128|p49;$d}
 73
     1
 44
1.0
  0
MTEXT
  5
8A
330
1F
100
AcDbEntity
  8
F-A_文字
  6
Continuous
 62
     7
370
     0
100
AcDbMText
 10
5548.066114483239
 20
-4314.771967288282
 30
0.0
 40
74.295
 41
195.0
 46
0.0
 71
     7
 72
     1
  1
{\fＭＳ ゴシック|b0|i0|c128|p49;印刷}
 73
     1
 44
1.0
  0
MTEXT
  5
8B
330
1F
100
AcDbEntity
  8
F-A_文字
  6
Continuous
 62
     7
370
     0
100
AcDbMText
 10
4943.952040816226
 20
-4319.023493567732
 30
0.0
 40
68.58
 41
90.0
 46
0.0
 71
     7
 72
     1
  1
{\fＭＳ ゴシック|b0|i0|c128|p49;（}
 73
     1
 44
1.0
  0
MTEXT
  5
8C
330
1F
100
AcDbEntity
  8
F-A_文字
  6
Continuous
 62
     7
370
     0
100
AcDbMText
 10
5191.195810375571
 20
-4319.023493567732
 30
0.0
 40
68.58
 41
45.0
 46
0.0
 71
     7
 72
     1
  1
{\fＭＳ ゴシック|b0|i0|c128|p49;,}
 73
     1
 44
1.0
  0
MTEXT
  5
8D
330
1F
100
AcDbEntity
  8
F-A_文字
  6
Continuous
 62
     7
370
     5
100
AcDbMText
 10
5096.167767531872
 20
-4147.857012699985
 30
0.0
 40
74.295
 41
97.5
 46
0.0
 71
     7
 72
     1
  1
{\fＭＳ ゴシック|b0|i0|c128|p49;01}
 73
     1
 44
1.0
  0
LINE
  5
8E
330
1F
100
AcDbEntity
  8
0-A_文字
  6
Continuous
 62
    92
370
     5
100
AcDbLine
 10
-5659.999495325861
 20
3730.00018145587
 30
0.0
 11
-5659.999495325861
 21
4000.00018145587
 31
0.0
  0
LINE
  5
8F
330
1F
100
AcDbEntity
  8
0-A_文字
  6
JWW_HOJO
 62
   120
370
     5
100
AcDbLine
 10
-6140.081333436773
 20
2438.999683277028
 30
0.0
 11
6159.917676803938
 21
2438.999683277028
 31
0.0
  0
LINE
  5
90
330
1F
100
AcDbEntity
  8
0-A_文字
  6
JWW_HOJO
 62
   120
370
     5
100
AcDbLine
 10
-6140.081333436773
 20
194.9998020481414
 30
0.0
 11
6159.917676803938
 21
194.9998020481414
 31
0.0
  0
LINE
  5
91
330
1F
100
AcDbEntity
  8
0-A_文字
  6
JWW_HOJO
 62
   120
370
     5
100
AcDbLine
 10
-5659.999495325861
 20
4424.999604096284
 30
0.0
 11
-5659.999495325861
 21
-4455.000000000002
 31
0.0
  0
LINE
  5
92
330
1F
100
AcDbEntity
  8
0-A_文字
  6
JWW_HOJO
 62
   120
370
     5
100
AcDbLine
 10
-6140.081333436773
 20
-3159.000197951857
 30
0.0
 11
6159.917676803938
 21
-3159.000197951857
 31
0.0
  0
LINE
  5
93
330
1F
100
AcDbEntity
  8
0-A_文字
  6
JWW_HOJO
 62
   120
370
     5
100
AcDbLine
 10
-6140.081333436773
 20
3730.000181455871
 30
0.0
 11
6159.917676803938
 21
3730.000181455871
 31
0.0
  0
LINE
  5
94
330
1F
100
AcDbEntity
  8
0-A_文字
  6
JWW_HOJO
 62
   120
370
     5
100
AcDbLine
 10
-6140.081333436773
 20
4000.000181455871
 30
0.0
 11
6159.917676803938
 21
4000.000181455871
 31
0.0
  0
LINE
  5
95
330
1F
100
AcDbEntity
  8
0-A_文字
  6
JWW_HOJO
 62
   120
370
     5
100
AcDbLine
 10
9.91817168358267
 20
-4455.000000000002
 30
0.0
 11
9.91817168358267
 21
4424.999604096284
 31
0.0
  0
LINE
  5
96
330
1F
100
AcDbEntity
  8
0-A_文字
  6
JWW_HOJO
 62
   120
370
     5
100
AcDbLine
 10
5679.835838693025
 20
4424.999604096284
 30
0.0
 11
5679.835838693025
 21
-4455.000000000002
 31
0.0
  0
LINE
  5
97
330
1F
100
AcDbEntity
  8
0-6_扉
  6
Continuous
 62
   200
370
     5
100
AcDbLine
 10
1.041398053354357
 20
2642.999683277026
 30
0.0
 11
1.041398053354357
 21
2462.999683277026
 31
0.0
  0
LINE
  5
98
330
1F
100
AcDbEntity
  8
ハッチ
  6
JWW_DASHED1
 62
   120
370
     5
100
AcDbLine
 10
2559.401921584074
 20
2753.999683277023
 30
0.0
 11
2581.298141208031
 21
2775.895902900974
 31
0.0
  0
LINE
  5
99
330
1F
100
AcDbEntity
  8
ハッチ
  6
JWW_DASHED1
 62
   120
370
     5
100
AcDbLine
 10
2516.975514712881
 20
2753.999683277028
 30
0.0
 11
2581.298141208035
 21
2818.322309772178
 31
0.0
  0
LINE
  5
9A
330
1F
100
AcDbEntity
  8
ハッチ
  6
JWW_DASHED1
 62
   120
370
     5
100
AcDbLine
 10
2474.549107841685
 20
2753.99968327703
 30
0.0
 11
2549.549107841681
 21
2828.999683277028
 31
0.0
  0
LINE
  5
9B
330
1F
100
AcDbEntity
  8
ハッチ
  6
JWW_DASHED1
 62
   120
370
     5
100
AcDbLine
 10
2432.122700970488
 20
2753.999683277034
 30
0.0
 11
2507.122700970485
 21
2828.99968327703
 31
0.0
  0
LINE
  5
9C
330
1F
100
AcDbEntity
  8
ハッチ
  6
JWW_DASHED1
 62
   120
370
     5
100
AcDbLine
 10
2389.696294099336
 20
2753.999683277028
 30
0.0
 11
2464.696294099329
 21
2828.999683277023
 31
0.0
  0
LINE
  5
9D
330
1F
100
AcDbEntity
  8
ハッチ
  6
JWW_DASHED1
 62
   120
370
     5
100
AcDbLine
 10
2347.269887228139
 20
2753.999683277031
 30
0.0
 11
2422.269887228136
 21
2828.999683277028
 31
0.0
  0
LINE
  5
9E
330
1F
100
AcDbEntity
  8
ハッチ
  6
JWW_DASHED1
 62
   120
370
     5
100
AcDbLine
 10
2304.843480356929
 20
2753.999683277021
 30
0.0
 11
2379.843480356939
 21
2828.99968327703
 31
0.0
  0
LINE
  5
9F
330
1F
100
AcDbEntity
  8
ハッチ
  6
JWW_DASHED1
 62
   120
370
     5
100
AcDbLine
 10
2262.417073485728
 20
2753.999683277023
 30
0.0
 11
2337.417073485743
 21
2828.999683277034
 31
0.0
  0
LINE
  5
A0
330
1F
100
AcDbEntity
  8
ハッチ
  6
JWW_DASHED1
 62
   120
370
     5
100
AcDbLine
 10
2063.81201869503
 20
2303.999683277026
 30
0.0
 11
2071.381578376206
 21
2311.5692429582
 31
0.0
  0
LINE
  5
A1
330
1F
100
AcDbEntity
  8
ハッチ
  6
JWW_DASHED1
 62
   120
370
     5
100
AcDbLine
 10
2021.385611823818
 20
2303.999683277014
 30
0.0
 11
2071.381578376215
 21
2353.995649829411
 31
0.0
  0
LINE
  5
A2
330
1F
100
AcDbEntity
  8
ハッチ
  6
JWW_DASHED1
 62
   120
370
     5
100
AcDbLine
 10
1978.959204952621
 20
2303.999683277017
 30
0.0
 11
2050.95920495262
 21
2375.999683277017
 31
0.0
  0
LINE
  5
A3
330
1F
100
AcDbEntity
  8
ハッチ
  6
JWW_DASHED1
 62
   120
370
     5
100
AcDbLine
 10
1936.532798081425
 20
2303.999683277021
 30
0.0
 11
2008.532798081424
 21
2375.99968327702
 31
0.0
  0
LINE
  5
A4
330
1F
100
AcDbEntity
  8
ハッチ
  6
JWW_DASHED1
 62
   120
370
     5
100
AcDbLine
 10
1894.10639121023
 20
2303.999683277026
 30
0.0
 11
1966.106391210231
 21
2375.999683277024
 31
0.0
  0
LINE
  5
A5
330
1F
100
AcDbEntity
  8
ハッチ
  6
JWW_DASHED1
 62
   120
370
     5
100
AcDbLine
 10
1851.679984339035
 20
2303.99968327703
 30
0.0
 11
1923.679984339032
 21
2375.999683277028
 31
0.0
  0
LINE
  5
A6
330
1F
100
AcDbEntity
  8
ハッチ
  6
JWW_DASHED1
 62
   120
370
     5
100
AcDbLine
 10
1809.253577467837
 20
2303.999683277033
 30
0.0
 11
1881.253577467838
 21
2375.999683277033
 31
0.0
  0
LINE
  5
A7
330
1F
100
AcDbEntity
  8
ハッチ
  6
JWW_DASHED1
 62
   120
370
     5
100
AcDbLine
 10
1766.827170596686
 20
2303.999683277028
 30
0.0
 11
1838.827170596668
 21
2375.99968327701
 31
0.0
  0
LINE
  5
A8
330
1F
100
AcDbEntity
  8
ハッチ
  6
JWW_DASHED1
 62
   120
370
     5
100
AcDbLine
 10
1724.400763725476
 20
2303.999683277016
 30
0.0
 11
1796.400763725473
 21
2375.999683277015
 31
0.0
  0
LINE
  5
A9
330
1F
100
AcDbEntity
  8
0-7_金物
  6
Continuous
 62
     7
370
     5
100
AcDbLine
 10
-2135.298782269491
 20
2537.999683277026
 30
0.0
 11
-2135.298782269491
 21
2567.999683277026
 31
0.0
  0
LINE
  5
AA
330
1F
100
AcDbEntity
  8
0-7_金物
  6
Continuous
 62
     7
370
     5
100
AcDbLine
 10
-2105.298782269491
 20
2507.999683277026
 30
0.0
 11
-2087.29878226949
 21
2507.999683277026
 31
0.0
  0
LINE
  5
AB
330
1F
100
AcDbEntity
  8
0-7_金物
  6
Continuous
 62
     7
370
     5
100
AcDbLine
 10
-2087.29878226949
 20
2597.999683277026
 30
0.0
 11
-2105.298782269491
 21
2597.999683277026
 31
0.0
  0
LINE
  5
AC
330
1F
100
AcDbEntity
  8
0-7_金物
  6
Continuous
 62
     7
370
     5
100
AcDbLine
 10
-2105.298782269491
 20
2597.999683277026
 30
0.0
 11
-2105.298782269491
 21
2507.999683277026
 31
0.0
  0
LINE
  5
AD
330
1F
100
AcDbEntity
  8
0-7_金物
  6
Continuous
 62
     7
370
     5
100
AcDbLine
 10
-2105.298782269491
 20
2537.999683277026
 30
0.0
 11
-2135.298782269491
 21
2537.999683277026
 31
0.0
  0
LINE
  5
AE
330
1F
100
AcDbEntity
  8
0-7_金物
  6
Continuous
 62
     7
370
     5
100
AcDbLine
 10
-2135.298782269491
 20
2567.999683277026
 30
0.0
 11
-2105.298782269491
 21
2567.999683277026
 31
0.0
  0
ARC
  5
AF
330
1F
100
AcDbEntity
  8
0-7_金物
  6
Continuous
 62
     7
370
     5
100
AcDbCircle
 10
-2253.048782269492
 20
2552.999683277026
 30
0.0
 40
171.7499999999977
100
AcDbArc
 50
344.8107132628169
 51
15.1892867371831
  0
LINE
  5
B0
330
1F
100
AcDbEntity
  8
0-7_金物
  6
Continuous
 62
     7
370
     5
100
AcDbLine
 10
2137.381578376201
 20
2537.999683277026
 30
0.0
 11
2137.381578376201
 21
2567.999683277026
 31
0.0
  0
LINE
  5
B1
330
1F
100
AcDbEntity
  8
0-7_金物
  6
Continuous
 62
     7
370
     5
100
AcDbLine
 10
2107.381578376201
 20
2507.999683277026
 30
0.0
 11
2089.3815783762
 21
2507.999683277026
 31
0.0
  0
LINE
  5
B2
330
1F
100
AcDbEntity
  8
0-7_金物
  6
Continuous
 62
     7
370
     5
100
AcDbLine
 10
2089.3815783762
 20
2597.999683277026
 30
0.0
 11
2107.381578376201
 21
2597.999683277026
 31
0.0
  0
LINE
  5
B3
330
1F
100
AcDbEntity
  8
0-7_金物
  6
Continuous
 62
     7
370
     5
100
AcDbLine
 10
2107.381578376201
 20
2597.999683277026
 30
0.0
 11
2107.381578376201
 21
2507.999683277026
 31
0.0
  0
LINE
  5
B4
330
1F
100
AcDbEntity
  8
0-7_金物
  6
Continuous
 62
     7
370
     5
100
AcDbLine
 10
2107.381578376201
 20
2537.999683277026
 30
0.0
 11
2137.381578376201
 21
2537.999683277026
 31
0.0
  0
LINE
  5
B5
330
1F
100
AcDbEntity
  8
0-7_金物
  6
Continuous
 62
     7
370
     5
100
AcDbLine
 10
2137.381578376201
 20
2567.999683277026
 30
0.0
 11
2107.381578376201
 21
2567.999683277026
 31
0.0
  0
ARC
  5
B6
330
1F
100
AcDbEntity
  8
0-7_金物
  6
Continuous
 62
     7
370
     5
100
AcDbCircle
 10
2255.131578376201
 20
2552.999683277026
 30
0.0
 40
171.7499999999977
100
AcDbArc
 50
164.8107132628169
 51
195.1892867371831
  0
LINE
  5
B7
330
1F
100
AcDbEntity
  8
0-6_扉
  6
Continuous
 62
   200
370
     5
100
AcDbLine
 10
-1133.128692108068
 20
2642.999683277026
 30
0.0
 11
-1133.128692108068
 21
2462.999683277026
 31
0.0
  0
LINE
  5
B8
330
1F
100
AcDbEntity
  8
0-6_扉
  6
Continuous
 62
   200
370
     5
100
AcDbLine
 10
1135.211488214778
 20
2642.999683277026
 30
0.0
 11
1135.211488214778
 21
2462.999683277026
 31
0.0
  0
LINE
  5
B9
330
1F
100
AcDbEntity
  8
仕上げ
  6
Continuous
 62
    40
370
     5
100
AcDbLine
 10
2071.381578376203
 20
2375.999683277027
 30
0.0
 11
1672.341356398234
 21
2375.999683277027
 31
0.0
  0
LINE
  5
BA
330
1F
100
AcDbEntity
  8
仕上げ
  6
Continuous
 62
    40
370
     5
100
AcDbLine
 10
2581.298141208028
 20
2048.999683277028
 30
0.0
 11
1672.341356398234
 21
2048.999683277028
 31
0.0
  0
LINE
  5
BB
330
1F
100
AcDbEntity
  8
ハッチ
  6
JWW_DASHED1
 62
   120
370
     5
100
AcDbLine
 10
1672.341356398234
 20
2336.793089692175
 30
0.0
 11
1711.547949983079
 21
2375.99968327702
 31
0.0
  0
LINE
  5
BC
330
1F
100
AcDbEntity
  8
仕上げ
  6
Continuous
 62
    40
370
     5
100
AcDbLine
 10
2071.381578376203
 20
2303.999683277026
 30
0.0
 11
1672.341356398234
 21
2303.999683277026
 31
0.0
  0
LINE
  5
BD
330
1F
100
AcDbEntity
  8
仕上げ
  6
Continuous
 62
    40
370
     5
100
AcDbLine
 10
2581.298141208028
 20
2123.999683277028
 30
0.0
 11
1672.341356398234
 21
2123.999683277028
 31
0.0
  0
LINE
  5
BE
330
1F
100
AcDbEntity
  8
ハッチ
  6
JWW_DASHED1
 62
   120
370
     5
100
AcDbLine
 10
1681.974356854284
 20
2303.999683277026
 30
0.0
 11
1753.974356854275
 21
2375.999683277017
 31
0.0
  0
LINE
  5
BF
330
1F
100
AcDbEntity
  8
ハッチ
  6
JWW_DASHED1
 62
   120
370
     5
100
AcDbLine
 10
1440.316767787288
 20
2303.99968327703
 30
0.0
 11
1512.316767787285
 21
2375.999683277028
 31
0.0
  0
LINE
  5
C0
330
1F
100
AcDbEntity
  8
ハッチ
  6
JWW_DASHED1
 62
   120
370
     5
100
AcDbLine
 10
1397.89036091609
 20
2303.999683277034
 30
0.0
 11
1469.890360916091
 21
2375.999683277033
 31
0.0
  0
LINE
  5
C1
330
1F
100
AcDbEntity
  8
ハッチ
  6
JWW_DASHED1
 62
   120
370
     5
100
AcDbLine
 10
1355.463954044895
 20
2303.999683277038
 30
0.0
 11
1427.463954044892
 21
2375.999683277037
 31
0.0
  0
LINE
  5
C2
330
1F
100
AcDbEntity
  8
ハッチ
  6
JWW_DASHED1
 62
   120
370
     5
100
AcDbLine
 10
1313.037547173751
 20
2303.999683277041
 30
0.0
 11
1385.037547173735
 21
2375.999683277023
 31
0.0
  0
LINE
  5
C3
330
1F
100
AcDbEntity
  8
ハッチ
  6
JWW_DASHED1
 62
   120
370
     5
100
AcDbLine
 10
1270.611140302529
 20
2303.999683277017
 30
0.0
 11
1342.611140302528
 21
2375.999683277017
 31
0.0
  0
LINE
  5
C4
330
1F
100
AcDbEntity
  8
ハッチ
  6
JWW_DASHED1
 62
   120
370
     5
100
AcDbLine
 10
1228.184733431332
 20
2303.999683277021
 30
0.0
 11
1300.184733431332
 21
2375.99968327702
 31
0.0
  0
LINE
  5
C5
330
1F
100
AcDbEntity
  8
ハッチ
  6
JWW_DASHED1
 62
   120
370
     5
100
AcDbLine
 10
1185.758326560136
 20
2303.999683277024
 30
0.0
 11
1257.758326560135
 21
2375.999683277024
 31
0.0
  0
LINE
  5
C6
330
1F
100
AcDbEntity
  8
ハッチ
  6
JWW_DASHED1
 62
   120
370
     5
100
AcDbLine
 10
1143.331919688939
 20
2303.99968327703
 30
0.0
 11
1215.331919688938
 21
2375.999683277028
 31
0.0
  0
LINE
  5
C7
330
1F
100
AcDbEntity
  8
ハッチ
  6
JWW_DASHED1
 62
   120
370
     5
100
AcDbLine
 10
1525.169581529678
 20
2303.999683277021
 30
0.0
 11
1552.341356398234
 21
2331.171458145576
 31
0.0
  0
LINE
  5
C8
330
1F
100
AcDbEntity
  8
ハッチ
  6
JWW_DASHED1
 62
   120
370
     5
100
AcDbLine
 10
1482.743174658481
 20
2303.999683277026
 30
0.0
 11
1552.341356398234
 21
2373.597865016776
 31
0.0
  0
LINE
  5
C9
330
1F
100
AcDbEntity
  8
仕上げ
  6
Continuous
 62
    40
370
     5
100
AcDbLine
 10
1552.341356398234
 20
2375.999683277027
 30
0.0
 11
1135.211488214778
 21
2375.999683277027
 31
0.0
  0
LINE
  5
CA
330
1F
100
AcDbEntity
  8
ハッチ
  6
JWW_DASHED1
 62
   120
370
     5
100
AcDbLine
 10
1135.211488214778
 20
2338.305658674068
 30
0.0
 11
1172.905512817742
 21
2375.999683277033
 31
0.0
  0
LINE
  5
CB
330
1F
100
AcDbEntity
  8
仕上げ
  6
Continuous
 62
    40
370
     5
100
AcDbLine
 10
1552.341356398234
 20
2303.999683277026
 30
0.0
 11
1135.211488214778
 21
2303.999683277026
 31
0.0
  0
LINE
  5
CC
330
1F
100
AcDbEntity
  8
仕上げ
  6
Continuous
 62
    40
370
     5
100
AcDbLine
 10
1552.341356398234
 20
2123.999683277028
 30
0.0
 11
1135.211488214778
 21
2123.999683277028
 31
0.0
  0
LINE
  5
CD
330
1F
100
AcDbEntity
  8
仕上げ
  6
Continuous
 62
    40
370
     5
100
AcDbLine
 10
1552.341356398234
 20
2048.999683277028
 30
0.0
 11
1135.211488214778
 21
2048.999683277028
 31
0.0
  0
LWPOLYLINE
  5
CE
330
1F
100
AcDbEntity
  8
0-B_寸法
  6
Continuous
 62
     7
370
     5
100
AcDbPolyline
 90
        4
 70
     1
 43
3.0
 10
772.4832736415617
 20
2423.999683277026
 42
0.4142135623731
 10
770.9832736415617
 20
2425.499683277026
 42
0.4142135623731
 10
769.4832736415617
 20
2423.999683277026
 42
0.4142135623731
 10
770.9832736415617
 20
2422.499683277026
 42
0.4142135623731
  0
LWPOLYLINE
  5
CF
330
1F
100
AcDbEntity
  8
0-B_寸法
  6
Continuous
 62
     7
370
     5
100
AcDbPolyline
 90
        4
 70
     1
 43
3.0
 10
772.4832736415617
 20
2463.001167915962
 42
0.4142135623731
 10
770.9832736415617
 20
2464.501167915962
 42
0.4142135623731
 10
769.4832736415617
 20
2463.001167915962
 42
0.4142135623731
 10
770.9832736415617
 20
2461.501167915962
 42
0.4142135623731
  0
LWPOLYLINE
  5
D0
330
1F
100
AcDbEntity
  8
0-B_寸法
  6
Continuous
 62
     7
370
     5
100
AcDbPolyline
 90
        4
 70
     1
 43
3.0
 10
772.4832736415617
 20
2643.001910235431
 42
0.4142135623731
 10
770.9832736415617
 20
2644.501910235431
 42
0.4142135623731
 10
769.4832736415617
 20
2643.001910235431
 42
0.4142135623731
 10
770.9832736415617
 20
2641.501910235431
 42
0.4142135623731
  0
LINE
  5
D1
330
1F
100
AcDbEntity
  8
仕上げ
  6
Continuous
 62
    40
370
     5
100
AcDbLine
 10
1135.211488214778
 20
2048.999683277028
 30
0.0
 11
1135.211488214778
 21
2123.999683277028
 31
0.0
  0
LINE
  5
D2
330
1F
100
AcDbEntity
  8
0-6_扉
  6
JWW_DASHED2
 62
    40
370
     5
100
AcDbLine
 10
-2087.29878226949
 20
2642.999683277026
 30
0.0
 11
-2087.29878226949
 21
2462.999683277026
 31
0.0
  0
LINE
  5
D3
330
1F
100
AcDbEntity
  8
0-6_扉
  6
JWW_DASHED2
 62
    40
370
     5
100
AcDbLine
 10
-953.1286921080685
 20
2642.999683277026
 30
0.0
 11
-953.1286921080685
 21
2462.999683277026
 31
0.0
  0
LINE
  5
D4
330
1F
100
AcDbEntity
  8
0-6_扉
  6
JWW_DASHED2
 62
    40
370
     5
100
AcDbLine
 10
955.2114882147773
 20
2642.999683277026
 30
0.0
 11
955.2114882147773
 21
2462.999683277026
 31
0.0
  0
LINE
  5
D5
330
1F
100
AcDbEntity
  8
0-6_扉
  6
JWW_DASHED2
 62
    40
370
     5
100
AcDbLine
 10
2089.3815783762
 20
2642.999683277026
 30
0.0
 11
2089.3815783762
 21
2462.999683277026
 31
0.0
  0
LINE
  5
D6
330
1F
100
AcDbEntity
  8
仕上げ
  6
Continuous
 62
    40
370
     5
100
AcDbLine
 10
-1133.128692108067
 20
2048.999683277028
 30
0.0
 11
-1133.128692108067
 21
2123.999683277028
 31
0.0
  0
LINE
  5
D7
330
1F
100
AcDbEntity
  8
仕上げ
  6
Continuous
 62
    40
370
     5
100
AcDbLine
 10
-1133.128692108067
 20
2375.999683277027
 30
0.0
 11
-1133.128692108067
 21
2303.999683277026
 31
0.0
  0
LINE
  5
D8
330
1F
100
AcDbEntity
  8
仕上げ
  6
Continuous
 62
    40
370
     5
100
AcDbLine
 10
-1448.637331856013
 20
2375.999683277027
 30
0.0
 11
-1133.128692108067
 21
2375.999683277027
 31
0.0
  0
LINE
  5
D9
330
1F
100
AcDbEntity
  8
仕上げ
  6
Continuous
 62
    40
370
     5
100
AcDbLine
 10
-1448.637331856013
 20
2048.999683277028
 30
0.0
 11
-1133.128692108067
 21
2048.999683277028
 31
0.0
  0
LINE
  5
DA
330
1F
100
AcDbEntity
  8
仕上げ
  6
Continuous
 62
    40
370
     5
100
AcDbLine
 10
-1448.637331856013
 20
2303.999683277026
 30
0.0
 11
-1133.128692108067
 21
2303.999683277026
 31
0.0
  0
LINE
  5
DB
330
1F
100
AcDbEntity
  8
仕上げ
  6
Continuous
 62
    40
370
     5
100
AcDbLine
 10
-1448.637331856013
 20
2123.999683277028
 30
0.0
 11
-1133.128692108067
 21
2123.999683277028
 31
0.0
  0
LINE
  5
DC
330
1F
100
AcDbEntity
  8
仕上げ
  6
Continuous
 62
    40
370
     5
100
AcDbLine
 10
-2579.726631826883
 20
2123.999683277028
 30
0.0
 11
-1568.637331856013
 21
2123.999683277028
 31
0.0
  0
LINE
  5
DD
330
1F
100
AcDbEntity
  8
仕上げ
  6
Continuous
 62
    40
370
     5
100
AcDbLine
 10
-2579.848366761541
 20
2048.999683277028
 30
0.0
 11
-1568.637331856013
 21
2048.999683277028
 31
0.0
  0
LINE
  5
DE
330
1F
100
AcDbEntity
  8
仕上げ
  6
Continuous
 62
    40
370
     5
100
AcDbLine
 10
-2069.298782269493
 20
2375.999683277027
 30
0.0
 11
-1568.637331856013
 21
2375.999683277027
 31
0.0
  0
LINE
  5
DF
330
1F
100
AcDbEntity
  8
仕上げ
  6
Continuous
 62
    40
370
     5
100
AcDbLine
 10
-2069.298782269493
 20
2303.999683277026
 30
0.0
 11
-1568.637331856013
 21
2303.999683277026
 31
0.0
  0
LINE
  5
E0
330
1F
100
AcDbEntity
  8
ハッチ
  6
JWW_DASHED1
 62
   120
370
     5
100
AcDbLine
 10
2572.487342376472
 20
2048.999683277031
 30
0.0
 11
2581.3815783762
 21
2057.893919276759
 31
0.0
  0
LINE
  5
E1
330
1F
100
AcDbEntity
  8
ハッチ
  6
JWW_DASHED1
 62
   120
370
     5
100
AcDbLine
 10
2530.06093550526
 20
2048.999683277018
 30
0.0
 11
2581.381578376207
 21
2100.320326147963
 31
0.0
  0
LINE
  5
E2
330
1F
100
AcDbEntity
  8
ハッチ
  6
JWW_DASHED1
 62
   120
370
     5
100
AcDbLine
 10
2487.634528634123
 20
2048.999683277028
 30
0.0
 11
2562.634528634133
 21
2123.999683277038
 31
0.0
  0
LINE
  5
E3
330
1F
100
AcDbEntity
  8
ハッチ
  6
JWW_DASHED1
 62
   120
370
     5
100
AcDbLine
 10
2445.208121762926
 20
2048.99968327703
 30
0.0
 11
2520.208121762921
 21
2123.999683277025
 31
0.0
  0
LINE
  5
E4
330
1F
100
AcDbEntity
  8
ハッチ
  6
JWW_DASHED1
 62
   120
370
     5
100
AcDbLine
 10
2402.781714891716
 20
2048.999683277021
 30
0.0
 11
2477.781714891709
 21
2123.999683277015
 31
0.0
  0
LINE
  5
E5
330
1F
100
AcDbEntity
  8
ハッチ
  6
JWW_DASHED1
 62
   120
370
     5
100
AcDbLine
 10
2360.355308020519
 20
2048.999683277024
 30
0.0
 11
2435.355308020514
 21
2123.999683277018
 31
0.0
  0
LINE
  5
E6
330
1F
100
AcDbEntity
  8
ハッチ
  6
JWW_DASHED1
 62
   120
370
     5
100
AcDbLine
 10
2317.928901149323
 20
2048.999683277028
 30
0.0
 11
2392.928901149319
 21
2123.999683277021
 31
0.0
  0
LINE
  5
E7
330
1F
100
AcDbEntity
  8
ハッチ
  6
JWW_DASHED1
 62
   120
370
     5
100
AcDbLine
 10
2275.502494278126
 20
2048.99968327703
 30
0.0
 11
2350.502494278119
 21
2123.999683277024
 31
0.0
  0
LINE
  5
E8
330
1F
100
AcDbEntity
  8
ハッチ
  6
JWW_DASHED1
 62
   120
370
     5
100
AcDbLine
 10
2233.076087406927
 20
2048.999683277032
 30
0.0
 11
2308.076087406923
 21
2123.999683277028
 31
0.0
  0
LINE
  5
E9
330
1F
100
AcDbEntity
  8
ハッチ
  6
JWW_DASHED1
 62
   120
370
     5
100
AcDbLine
 10
2190.649680535716
 20
2048.999683277021
 30
0.0
 11
2265.649680535726
 21
2123.999683277031
 31
0.0
  0
LINE
  5
EA
330
1F
100
AcDbEntity
  8
ハッチ
  6
JWW_DASHED1
 62
   120
370
     5
100
AcDbLine
 10
2148.223273664577
 20
2048.999683277028
 30
0.0
 11
2223.223273664573
 21
2123.999683277024
 31
0.0
  0
LINE
  5
EB
330
1F
100
AcDbEntity
  8
ハッチ
  6
JWW_DASHED1
 62
   120
370
     5
100
AcDbLine
 10
2105.79686679337
 20
2048.999683277021
 30
0.0
 11
2180.796866793366
 21
2123.999683277016
 31
0.0
  0
LINE
  5
EC
330
1F
100
AcDbEntity
  8
ハッチ
  6
JWW_DASHED1
 62
   120
370
     5
100
AcDbLine
 10
2063.370459922175
 20
2048.999683277025
 30
0.0
 11
2138.37045992217
 21
2123.999683277021
 31
0.0
  0
LINE
  5
ED
330
1F
100
AcDbEntity
  8
ハッチ
  6
JWW_DASHED1
 62
   120
370
     5
100
AcDbLine
 10
2020.94405305098
 20
2048.99968327703
 30
0.0
 11
2095.944053050973
 21
2123.999683277024
 31
0.0
  0
LINE
  5
EE
330
1F
100
AcDbEntity
  8
ハッチ
  6
JWW_DASHED1
 62
   120
370
     5
100
AcDbLine
 10
1978.517646179784
 20
2048.999683277034
 30
0.0
 11
2053.517646179777
 21
2123.999683277028
 31
0.0
  0
LINE
  5
EF
330
1F
100
AcDbEntity
  8
ハッチ
  6
JWW_DASHED1
 62
   120
370
     5
100
AcDbLine
 10
1936.09123930858
 20
2048.999683277031
 30
0.0
 11
2011.091239308575
 21
2123.999683277025
 31
0.0
  0
LINE
  5
F0
330
1F
100
AcDbEntity
  8
ハッチ
  6
JWW_DASHED1
 62
   120
370
     5
100
AcDbLine
 10
1893.664832437368
 20
2048.999683277018
 30
0.0
 11
1968.66483243738
 21
2123.99968327703
 31
0.0
  0
LINE
  5
F1
330
1F
100
AcDbEntity
  8
ハッチ
  6
JWW_DASHED1
 62
   120
370
     5
100
AcDbLine
 10
1851.238425566232
 20
2048.999683277028
 30
0.0
 11
1926.238425566242
 21
2123.999683277038
 31
0.0
  0
LINE
  5
F2
330
1F
100
AcDbEntity
  8
ハッチ
  6
JWW_DASHED1
 62
   120
370
     5
100
AcDbLine
 10
1808.812018695035
 20
2048.999683277031
 30
0.0
 11
1883.81201869503
 21
2123.999683277025
 31
0.0
  0
LINE
  5
F3
330
1F
100
AcDbEntity
  8
ハッチ
  6
JWW_DASHED1
 62
   120
370
     5
100
AcDbLine
 10
1766.385611823832
 20
2048.999683277028
 30
0.0
 11
1841.385611823825
 21
2123.999683277021
 31
0.0
  0
LINE
  5
F4
330
1F
100
AcDbEntity
  8
ハッチ
  6
JWW_DASHED1
 62
   120
370
     5
100
AcDbLine
 10
1723.959204952635
 20
2048.999683277031
 30
0.0
 11
1798.95920495263
 21
2123.999683277025
 31
0.0
  0
LINE
  5
F5
330
1F
100
AcDbEntity
  8
ハッチ
  6
JWW_DASHED1
 62
   120
370
     5
100
AcDbLine
 10
1672.341356398234
 20
2082.234648465029
 30
0.0
 11
1714.106391210228
 21
2123.999683277024
 31
0.0
  0
LINE
  5
F6
330
1F
100
AcDbEntity
  8
ハッチ
  6
JWW_DASHED1
 62
   120
370
     5
100
AcDbLine
 10
1681.532798081432
 20
2048.999683277028
 30
0.0
 11
1756.532798081435
 21
2123.99968327703
 31
0.0
  0
LINE
  5
F7
330
1F
100
AcDbEntity
  8
ハッチ
  6
JWW_DASHED1
 62
   120
370
     5
100
AcDbLine
 10
1524.728022756847
 20
2048.999683277043
 30
0.0
 11
1552.34135639822
 21
2076.613016918416
 31
0.0
  0
LINE
  5
F8
330
1F
100
AcDbEntity
  8
ハッチ
  6
JWW_DASHED1
 62
   120
370
     5
100
AcDbLine
 10
1482.301615885634
 20
2048.999683277032
 30
0.0
 11
1552.341356398234
 21
2119.039423789631
 31
0.0
  0
LINE
  5
F9
330
1F
100
AcDbEntity
  8
ハッチ
  6
JWW_DASHED1
 62
   120
370
     5
100
AcDbLine
 10
1439.875209014423
 20
2048.999683277021
 30
0.0
 11
1514.875209014433
 21
2123.999683277031
 31
0.0
  0
LINE
  5
FA
330
1F
100
AcDbEntity
  8
ハッチ
  6
JWW_DASHED1
 62
   120
370
     5
100
AcDbLine
 10
1397.448802143285
 20
2048.99968327703
 30
0.0
 11
1472.448802143295
 21
2123.999683277038
 31
0.0
  0
LINE
  5
FB
330
1F
100
AcDbEntity
  8
ハッチ
  6
JWW_DASHED1
 62
   120
370
     5
100
AcDbLine
 10
1355.02239527209
 20
2048.999683277034
 30
0.0
 11
1430.022395272085
 21
2123.999683277028
 31
0.0
  0
LINE
  5
FC
330
1F
100
AcDbEntity
  8
ハッチ
  6
JWW_DASHED1
 62
   120
370
     5
100
AcDbLine
 10
1312.595988400888
 20
2048.999683277032
 30
0.0
 11
1387.595988400885
 21
2123.99968327703
 31
0.0
  0
LINE
  5
FD
330
1F
100
AcDbEntity
  8
ハッチ
  6
JWW_DASHED1
 62
   120
370
     5
100
AcDbLine
 10
1270.169581529691
 20
2048.999683277035
 30
0.0
 11
1345.169581529688
 21
2123.999683277031
 31
0.0
  0
LINE
  5
FE
330
1F
100
AcDbEntity
  8
ハッチ
  6
JWW_DASHED1
 62
   120
370
     5
100
AcDbLine
 10
1227.743174658495
 20
2048.999683277038
 30
0.0
 11
1302.743174658491
 21
2123.999683277035
 31
0.0
  0
LINE
  5
FF
330
1F
100
AcDbEntity
  8
ハッチ
  6
JWW_DASHED1
 62
   120
370
     5
100
AcDbLine
 10
1185.316767787298
 20
2048.999683277042
 30
0.0
 11
1260.316767787295
 21
2123.999683277038
 31
0.0
  0
LINE
  5
100
330
1F
100
AcDbEntity
  8
ハッチ
  6
JWW_DASHED1
 62
   120
370
     5
100
AcDbLine
 10
1142.890360916095
 20
2048.999683277038
 30
0.0
 11
1217.890360916088
 21
2123.999683277032
 31
0.0
  0
LINE
  5
101
330
1F
100
AcDbEntity
  8
ハッチ
  6
JWW_DASHED1
 62
   120
370
     5
100
AcDbLine
 10
1135.211488214778
 20
2083.747217446921
 30
0.0
 11
1175.463954044895
 21
2123.999683277035
 31
0.0
  0
LINE
  5
102
330
1F
100
AcDbEntity
  8
ハッチ
  6
JWW_DASHED1
 62
   120
370
     5
100
AcDbLine
 10
-1228.384866025897
 20
2303.999683277038
 30
0.0
 11
-1156.384866025898
 21
2375.999683277037
 31
0.0
  0
LINE
  5
103
330
1F
100
AcDbEntity
  8
ハッチ
  6
JWW_DASHED1
 62
   120
370
     5
100
AcDbLine
 10
-1270.811272897039
 20
2303.999683277041
 30
0.0
 11
-1198.811272897057
 21
2375.999683277023
 31
0.0
  0
LINE
  5
104
330
1F
100
AcDbEntity
  8
ハッチ
  6
JWW_DASHED1
 62
   120
370
     5
100
AcDbLine
 10
-1313.237679768263
 20
2303.999683277017
 30
0.0
 11
-1241.237679768264
 21
2375.999683277017
 31
0.0
  0
LINE
  5
105
330
1F
100
AcDbEntity
  8
ハッチ
  6
JWW_DASHED1
 62
   120
370
     5
100
AcDbLine
 10
-1355.664086639458
 20
2303.999683277021
 30
0.0
 11
-1283.664086639459
 21
2375.99968327702
 31
0.0
  0
LINE
  5
106
330
1F
100
AcDbEntity
  8
ハッチ
  6
JWW_DASHED1
 62
   120
370
     5
100
AcDbLine
 10
-1398.090493510655
 20
2303.999683277024
 30
0.0
 11
-1326.090493510655
 21
2375.999683277024
 31
0.0
  0
LINE
  5
107
330
1F
100
AcDbEntity
  8
ハッチ
  6
JWW_DASHED1
 62
   120
370
     5
100
AcDbLine
 10
-1440.516900381851
 20
2303.99968327703
 30
0.0
 11
-1368.516900381852
 21
2375.999683277028
 31
0.0
  0
LINE
  5
108
330
1F
100
AcDbEntity
  8
ハッチ
  6
JWW_DASHED1
 62
   120
370
     5
100
AcDbLine
 10
-1228.826424798702
 20
2048.999683277034
 30
0.0
 11
-1153.826424798706
 21
2123.999683277028
 31
0.0
  0
LINE
  5
109
330
1F
100
AcDbEntity
  8
ハッチ
  6
JWW_DASHED1
 62
   120
370
     5
100
AcDbLine
 10
-1271.252831669902
 20
2048.999683277032
 30
0.0
 11
-1196.252831669906
 21
2123.99968327703
 31
0.0
  0
LINE
  5
10A
330
1F
100
AcDbEntity
  8
ハッチ
  6
JWW_DASHED1
 62
   120
370
     5
100
AcDbLine
 10
-1313.679238541099
 20
2048.999683277035
 30
0.0
 11
-1238.679238541102
 21
2123.999683277031
 31
0.0
  0
LINE
  5
10B
330
1F
100
AcDbEntity
  8
ハッチ
  6
JWW_DASHED1
 62
   120
370
     5
100
AcDbLine
 10
-1356.105645412295
 20
2048.999683277038
 30
0.0
 11
-1281.105645412299
 21
2123.999683277035
 31
0.0
  0
LINE
  5
10C
330
1F
100
AcDbEntity
  8
ハッチ
  6
JWW_DASHED1
 62
   120
370
     5
100
AcDbLine
 10
-1398.532052283492
 20
2048.999683277042
 30
0.0
 11
-1323.532052283495
 21
2123.999683277038
 31
0.0
  0
LINE
  5
10D
330
1F
100
AcDbEntity
  8
ハッチ
  6
JWW_DASHED1
 62
   120
370
     5
100
AcDbLine
 10
-1440.958459154697
 20
2048.999683277038
 30
0.0
 11
-1365.958459154702
 21
2123.999683277032
 31
0.0
  0
LINE
  5
10E
330
1F
100
AcDbEntity
  8
ハッチ
  6
JWW_DASHED1
 62
   120
370
     5
100
AcDbLine
 10
-1448.637331856013
 20
2338.305658674068
 30
0.0
 11
-1410.943307253048
 21
2375.999683277033
 31
0.0
  0
LINE
  5
10F
330
1F
100
AcDbEntity
  8
ハッチ
  6
JWW_DASHED1
 62
   120
370
     5
100
AcDbLine
 10
-1448.637331856013
 20
2083.747217446921
 30
0.0
 11
-1408.384866025899
 21
2123.999683277035
 31
0.0
  0
LINE
  5
110
330
1F
100
AcDbEntity
  8
ハッチ
  6
JWW_DASHED1
 62
   120
370
     5
100
AcDbLine
 10
-1143.532052283504
 20
2303.99968327703
 30
0.0
 11
-1133.128692108067
 21
2314.403043452467
 31
0.0
  0
LINE
  5
111
330
1F
100
AcDbEntity
  8
ハッチ
  6
JWW_DASHED1
 62
   120
370
     5
100
AcDbLine
 10
-1185.958459154701
 20
2303.999683277034
 30
0.0
 11
-1133.128692108067
 21
2356.829450323667
 31
0.0
  0
LINE
  5
112
330
1F
100
AcDbEntity
  8
ハッチ
  6
JWW_DASHED1
 62
   120
370
     5
100
AcDbLine
 10
-1143.973611056369
 20
2048.999683277021
 30
0.0
 11
-1133.128692108067
 21
2059.844602225322
 31
0.0
  0
LINE
  5
113
330
1F
100
AcDbEntity
  8
ハッチ
  6
JWW_DASHED1
 62
   120
370
     5
100
AcDbLine
 10
-1186.400017927506
 20
2048.99968327703
 30
0.0
 11
-1133.128692108067
 21
2102.271009096468
 31
0.0
  0
LINE
  5
114
330
1F
100
AcDbEntity
  8
ハッチ
  6
JWW_DASHED1
 62
   120
370
     5
100
AcDbLine
 10
-1578.602952841407
 20
2048.999683277021
 30
0.0
 11
-1568.637331856008
 21
2058.965304262423
 31
0.0
  0
LINE
  5
115
330
1F
100
AcDbEntity
  8
ハッチ
  6
JWW_DASHED1
 62
   120
370
     5
100
AcDbLine
 10
-1621.029359712604
 20
2048.999683277025
 30
0.0
 11
-1568.637331856009
 21
2101.391711133622
 31
0.0
  0
LINE
  5
116
330
1F
100
AcDbEntity
  8
ハッチ
  6
JWW_DASHED1
 62
   120
370
     5
100
AcDbLine
 10
-1663.455766583801
 20
2048.99968327703
 30
0.0
 11
-1588.455766583806
 21
2123.999683277024
 31
0.0
  0
LINE
  5
117
330
1F
100
AcDbEntity
  8
ハッチ
  6
JWW_DASHED1
 62
   120
370
     5
100
AcDbLine
 10
-1705.882173454996
 20
2048.999683277034
 30
0.0
 11
-1630.882173455001
 21
2123.999683277028
 31
0.0
  0
LINE
  5
118
330
1F
100
AcDbEntity
  8
ハッチ
  6
JWW_DASHED1
 62
   120
370
     5
100
AcDbLine
 10
-1748.308580326192
 20
2048.999683277038
 30
0.0
 11
-1673.308580326197
 21
2123.999683277032
 31
0.0
  0
LINE
  5
119
330
1F
100
AcDbEntity
  8
ハッチ
  6
JWW_DASHED1
 62
   120
370
     5
100
AcDbLine
 10
-1790.734987197404
 20
2048.999683277025
 30
0.0
 11
-1715.734987197411
 21
2123.999683277021
 31
0.0
  0
LINE
  5
11A
330
1F
100
AcDbEntity
  8
ハッチ
  6
JWW_DASHED1
 62
   120
370
     5
100
AcDbLine
 10
-1833.161394068616
 20
2048.999683277014
 30
0.0
 11
-1758.161394068606
 21
2123.999683277024
 31
0.0
  0
LINE
  5
11B
330
1F
100
AcDbEntity
  8
ハッチ
  6
JWW_DASHED1
 62
   120
370
     5
100
AcDbLine
 10
-1578.161394068609
 20
2303.999683277021
 30
0.0
 11
-1568.637331856008
 21
2313.523745489622
 31
0.0
  0
LINE
  5
11C
330
1F
100
AcDbEntity
  8
ハッチ
  6
JWW_DASHED1
 62
   120
370
     5
100
AcDbLine
 10
-1875.587800939753
 20
2048.999683277021
 30
0.0
 11
-1800.58780093976
 21
2123.999683277016
 31
0.0
  0
LINE
  5
11D
330
1F
100
AcDbEntity
  8
ハッチ
  6
JWW_DASHED1
 62
   120
370
     5
100
AcDbLine
 10
-1620.587800939746
 20
2303.99968327703
 30
0.0
 11
-1568.637331856004
 21
2355.950152360771
 31
0.0
  0
LINE
  5
11E
330
1F
100
AcDbEntity
  8
ハッチ
  6
JWW_DASHED1
 62
   120
370
     5
100
AcDbLine
 10
-1918.01420781095
 20
2048.999683277028
 30
0.0
 11
-1843.014207810955
 21
2123.999683277021
 31
0.0
  0
LINE
  5
11F
330
1F
100
AcDbEntity
  8
ハッチ
  6
JWW_DASHED1
 62
   120
370
     5
100
AcDbLine
 10
-1663.014207810958
 20
2303.999683277017
 30
0.0
 11
-1591.014207810959
 21
2375.999683277017
 31
0.0
  0
LINE
  5
120
330
1F
100
AcDbEntity
  8
ハッチ
  6
JWW_DASHED1
 62
   120
370
     5
100
AcDbLine
 10
-1960.440614682145
 20
2048.99968327703
 30
0.0
 11
-1885.440614682151
 21
2123.999683277024
 31
0.0
  0
LINE
  5
121
330
1F
100
AcDbEntity
  8
ハッチ
  6
JWW_DASHED1
 62
   120
370
     5
100
AcDbLine
 10
-1705.440614682155
 20
2303.999683277021
 30
0.0
 11
-1633.440614682155
 21
2375.99968327702
 31
0.0
  0
LINE
  5
122
330
1F
100
AcDbEntity
  8
ハッチ
  6
JWW_DASHED1
 62
   120
370
     5
100
AcDbLine
 10
-2002.867021553342
 20
2048.999683277034
 30
0.0
 11
-1927.867021553348
 21
2123.999683277028
 31
0.0
  0
LINE
  5
123
330
1F
100
AcDbEntity
  8
ハッチ
  6
JWW_DASHED1
 62
   120
370
     5
100
AcDbLine
 10
-1747.867021553351
 20
2303.999683277024
 30
0.0
 11
-1675.867021553352
 21
2375.999683277023
 31
0.0
  0
LINE
  5
124
330
1F
100
AcDbEntity
  8
ハッチ
  6
JWW_DASHED1
 62
   120
370
     5
100
AcDbLine
 10
-2045.293428424538
 20
2048.999683277038
 30
0.0
 11
-1970.293428424545
 21
2123.999683277031
 31
0.0
  0
LINE
  5
125
330
1F
100
AcDbEntity
  8
ハッチ
  6
JWW_DASHED1
 62
   120
370
     5
100
AcDbLine
 10
-1790.293428424546
 20
2303.999683277028
 30
0.0
 11
-1718.293428424547
 21
2375.999683277027
 31
0.0
  0
LINE
  5
126
330
1F
100
AcDbEntity
  8
ハッチ
  6
JWW_DASHED1
 62
   120
370
     5
100
AcDbLine
 10
-2087.719835295733
 20
2048.999683277042
 30
0.0
 11
-2012.71983529574
 21
2123.999683277035
 31
0.0
  0
LINE
  5
127
330
1F
100
AcDbEntity
  8
ハッチ
  6
JWW_DASHED1
 62
   120
370
     5
100
AcDbLine
 10
-1832.719835295753
 20
2303.999683277024
 30
0.0
 11
-1760.71983529575
 21
2375.999683277024
 31
0.0
  0
LINE
  5
128
330
1F
100
AcDbEntity
  8
ハッチ
  6
JWW_DASHED1
 62
   120
370
     5
100
AcDbLine
 10
-2130.146242166945
 20
2048.99968327703
 30
0.0
 11
-2055.146242166952
 21
2123.999683277023
 31
0.0
  0
LINE
  5
129
330
1F
100
AcDbEntity
  8
ハッチ
  6
JWW_DASHED1
 62
   120
370
     5
100
AcDbLine
 10
-1875.146242166956
 20
2303.999683277021
 30
0.0
 11
-1803.146242166957
 21
2375.999683277019
 31
0.0
  0
LINE
  5
12A
330
1F
100
AcDbEntity
  8
ハッチ
  6
JWW_DASHED1
 62
   120
370
     5
100
AcDbLine
 10
-2172.572649038158
 20
2048.999683277017
 30
0.0
 11
-2097.572649038148
 21
2123.999683277028
 31
0.0
  0
LINE
  5
12B
330
1F
100
AcDbEntity
  8
ハッチ
  6
JWW_DASHED1
 62
   120
370
     5
100
AcDbLine
 10
-1917.572649038153
 20
2303.999683277024
 30
0.0
 11
-1845.572649038168
 21
2375.999683277006
 31
0.0
  0
LINE
  5
12C
330
1F
100
AcDbEntity
  8
ハッチ
  6
JWW_DASHED1
 62
   120
370
     5
100
AcDbLine
 10
-2214.999055909295
 20
2048.999683277025
 30
0.0
 11
-2139.999055909302
 21
2123.999683277021
 31
0.0
  0
LINE
  5
12D
330
1F
100
AcDbEntity
  8
ハッチ
  6
JWW_DASHED1
 62
   120
370
     5
100
AcDbLine
 10
-1959.99905590929
 20
2303.999683277031
 30
0.0
 11
-1887.999055909306
 21
2375.999683277015
 31
0.0
  0
LINE
  5
12E
330
1F
100
AcDbEntity
  8
ハッチ
  6
JWW_DASHED1
 62
   120
370
     5
100
AcDbLine
 10
-2257.425462780491
 20
2048.999683277031
 30
0.0
 11
-2182.425462780498
 21
2123.999683277023
 31
0.0
  0
LINE
  5
12F
330
1F
100
AcDbEntity
  8
ハッチ
  6
JWW_DASHED1
 62
   120
370
     5
100
AcDbLine
 10
-2002.425462780502
 20
2303.999683277019
 30
0.0
 11
-1930.425462780503
 21
2375.999683277019
 31
0.0
  0
LINE
  5
130
330
1F
100
AcDbEntity
  8
ハッチ
  6
JWW_DASHED1
 62
   120
370
     5
100
AcDbLine
 10
-2299.851869651687
 20
2048.999683277034
 30
0.0
 11
-2224.851869651694
 21
2123.999683277028
 31
0.0
  0
LINE
  5
131
330
1F
100
AcDbEntity
  8
ハッチ
  6
JWW_DASHED1
 62
   120
370
     5
100
AcDbLine
 10
-2044.851869651699
 20
2303.999683277021
 30
0.0
 11
-1972.851869651699
 21
2375.999683277022
 31
0.0
  0
LINE
  5
132
330
1F
100
AcDbEntity
  8
ハッチ
  6
JWW_DASHED1
 62
   120
370
     5
100
AcDbLine
 10
-2342.278276522883
 20
2048.999683277038
 30
0.0
 11
-2267.27827652289
 21
2123.999683277031
 31
0.0
  0
LINE
  5
133
330
1F
100
AcDbEntity
  8
ハッチ
  6
JWW_DASHED1
 62
   120
370
     5
100
AcDbLine
 10
-2069.298782269493
 20
2321.979177530427
 30
0.0
 11
-2015.278276522896
 21
2375.999683277026
 31
0.0
  0
LINE
  5
134
330
1F
100
AcDbEntity
  8
ハッチ
  6
JWW_DASHED1
 62
   120
370
     5
100
AcDbLine
 10
-2384.704683394079
 20
2048.999683277043
 30
0.0
 11
-2309.704683394086
 21
2123.999683277035
 31
0.0
  0
LINE
  5
135
330
1F
100
AcDbEntity
  8
ハッチ
  6
JWW_DASHED1
 62
   120
370
     5
100
AcDbLine
 10
-2069.298782269497
 20
2364.405584401625
 30
0.0
 11
-2057.704683394092
 21
2375.99968327703
 31
0.0
  0
LINE
  5
136
330
1F
100
AcDbEntity
  8
ハッチ
  6
JWW_DASHED1
 62
   120
370
     5
100
AcDbLine
 10
-2427.131090265291
 20
2048.99968327703
 30
0.0
 11
-2352.131090265299
 21
2123.999683277023
 31
0.0
  0
LINE
  5
137
330
1F
100
AcDbEntity
  8
ハッチ
  6
JWW_DASHED1
 62
   120
370
     5
100
AcDbLine
 10
-2469.557497136502
 20
2048.999683277018
 30
0.0
 11
-2394.557497136495
 21
2123.999683277028
 31
0.0
  0
LINE
  5
138
330
1F
100
AcDbEntity
  8
ハッチ
  6
JWW_DASHED1
 62
   120
370
     5
100
AcDbLine
 10
-2511.983904007669
 20
2048.999683277024
 30
0.0
 11
-2436.983904007661
 21
2123.999683277032
 31
0.0
  0
LINE
  5
139
330
1F
100
AcDbEntity
  8
ハッチ
  6
JWW_DASHED1
 62
   120
370
     5
100
AcDbLine
 10
-2554.410310878835
 20
2048.999683277031
 30
0.0
 11
-2479.410310878844
 21
2123.999683277021
 31
0.0
  0
LINE
  5
13A
330
1F
100
AcDbEntity
  8
ハッチ
  6
JWW_DASHED1
 62
   120
370
     5
100
AcDbLine
 10
-2579.820747588004
 20
2066.015653439064
 30
0.0
 11
-2521.83671775004
 21
2123.999683277028
 31
0.0
  0
LINE
  5
13B
330
1F
100
AcDbEntity
  8
ハッチ
  6
JWW_DASHED1
 62
   120
370
     5
100
AcDbLine
 10
-2579.751771953167
 20
2108.511035945099
 30
0.0
 11
-2564.263124621237
 21
2123.999683277031
 31
0.0
  0
LINE
  5
13C
330
1F
100
AcDbEntity
  8
ハッチ
  6
JWW_DASHED1
 62
   120
370
     5
100
AcDbLine
 10
-2358.527193333183
 20
2753.99968327703
 30
0.0
 11
-2283.527193333186
 21
2828.999683277028
 31
0.0
  0
LINE
  5
13D
330
1F
100
AcDbEntity
  8
ハッチ
  6
JWW_DASHED1
 62
   120
370
     5
100
AcDbLine
 10
-2400.953600204379
 20
2753.999683277034
 30
0.0
 11
-2325.953600204381
 21
2828.999683277031
 31
0.0
  0
LINE
  5
13E
330
1F
100
AcDbEntity
  8
ハッチ
  6
JWW_DASHED1
 62
   120
370
     5
100
AcDbLine
 10
-2443.380007075574
 20
2753.999683277038
 30
0.0
 11
-2368.380007075574
 21
2828.999683277038
 31
0.0
  0
LINE
  5
13F
330
1F
100
AcDbEntity
  8
ハッチ
  6
JWW_DASHED1
 62
   120
370
     5
100
AcDbLine
 10
-2485.80641394674
 20
2753.999683277017
 30
0.0
 11
-2410.806413946726
 21
2828.999683277031
 31
0.0
  0
LINE
  5
140
330
1F
100
AcDbEntity
  8
ハッチ
  6
JWW_DASHED1
 62
   120
370
     5
100
AcDbLine
 10
-2528.23282081794
 20
2753.999683277017
 30
0.0
 11
-2453.232820817947
 21
2828.99968327701
 31
0.0
  0
LINE
  5
141
330
1F
100
AcDbEntity
  8
ハッチ
  6
JWW_DASHED1
 62
   120
370
     5
100
AcDbLine
 10
-2570.659227689135
 20
2753.999683277021
 30
0.0
 11
-2495.659227689143
 21
2828.999683277015
 31
0.0
  0
LINE
  5
142
330
1F
100
AcDbEntity
  8
ハッチ
  6
JWW_DASHED1
 62
   120
370
     5
100
AcDbLine
 10
-2578.648161795793
 20
2788.437156041565
 30
0.0
 11
-2538.08563456034
 21
2828.999683277019
 31
0.0
  0
LINE
  5
143
330
1F
100
AcDbEntity
  8
0-B_寸法
  6
Continuous
 62
   120
370
     5
100
AcDbLine
 10
-2069.298782269493
 20
1568.999683277026
 30
0.0
 11
-1133.128692108067
 21
1568.999683277026
 31
0.0
  0
LWPOLYLINE
  5
144
330
1F
100
AcDbEntity
  8
0-B_寸法
  6
Continuous
 62
     7
370
     5
100
AcDbPolyline
 90
        4
 70
     1
 43
3.0
 10
-2067.798782269493
 20
1568.999683277026
 42
0.4142135623731
 10
-2069.298782269493
 20
1570.499683277025
 42
0.4142135623731
 10
-2070.798782269493
 20
1568.999683277026
 42
0.4142135623731
 10
-2069.298782269493
 20
1567.499683277026
 42
0.4142135623731
  0
LWPOLYLINE
  5
145
330
1F
100
AcDbEntity
  8
0-B_寸法
  6
Continuous
 62
     7
370
     5
100
AcDbPolyline
 90
        4
 70
     1
 43
3.0
 10
-1131.628692108067
 20
1568.999683277026
 42
0.4142135623731
 10
-1133.128692108067
 20
1570.499683277025
 42
0.4142135623731
 10
-1134.628692108067
 20
1568.999683277026
 42
0.4142135623731
 10
-1133.128692108067
 20
1567.499683277026
 42
0.4142135623731
  0
LINE
  5
146
330
1F
100
AcDbEntity
  8
0-B_寸法
  6
Continuous
 62
   120
370
     5
100
AcDbLine
 10
-2069.298782269493
 20
1358.999683277026
 30
0.0
 11
-2069.298782269493
 21
1928.999683277027
 31
0.0
  0
LINE
  5
147
330
1F
100
AcDbEntity
  8
0-B_寸法
  6
Continuous
 62
   120
370
     5
100
AcDbLine
 10
-1133.128692108067
 20
1568.999683277026
 30
0.0
 11
-1133.128692108067
 21
1928.999683277027
 31
0.0
  0
LINE
  5
148
330
1F
100
AcDbEntity
  8
0-B_寸法
  6
Continuous
 62
   120
370
     5
100
AcDbLine
 10
-1133.128692108067
 20
1568.999683277026
 30
0.0
 11
-953.1286921080634
 21
1568.999683277026
 31
0.0
  0
LWPOLYLINE
  5
149
330
1F
100
AcDbEntity
  8
0-B_寸法
  6
Continuous
 62
     7
370
     5
100
AcDbPolyline
 90
        4
 70
     1
 43
3.0
 10
-951.6286921080634
 20
1568.999683277026
 42
0.4142135623731
 10
-953.1286921080634
 20
1570.499683277025
 42
0.4142135623731
 10
-954.6286921080634
 20
1568.999683277026
 42
0.4142135623731
 10
-953.1286921080634
 20
1567.499683277026
 42
0.4142135623731
  0
LINE
  5
14A
330
1F
100
AcDbEntity
  8
0-B_寸法
  6
Continuous
 62
   120
370
     5
100
AcDbLine
 10
-953.1286921080634
 20
1568.999683277026
 30
0.0
 11
-953.1286921080634
 21
1928.999683277027
 31
0.0
  0
LINE
  5
14B
330
1F
100
AcDbEntity
  8
0-B_寸法
  6
Continuous
 62
   120
370
     5
100
AcDbLine
 10
-953.1286921080634
 20
1568.999683277026
 30
0.0
 11
955.2114882147739
 21
1568.999683277026
 31
0.0
  0
LWPOLYLINE
  5
14C
330
1F
100
AcDbEntity
  8
0-B_寸法
  6
Continuous
 62
     7
370
     5
100
AcDbPolyline
 90
        4
 70
     1
 43
3.0
 10
956.7114882147739
 20
1568.999683277026
 42
0.4142135623731
 10
955.2114882147739
 20
1570.499683277025
 42
0.4142135623731
 10
953.7114882147739
 20
1568.999683277026
 42
0.4142135623731
 10
955.2114882147739
 20
1567.499683277026
 42
0.4142135623731
  0
LINE
  5
14D
330
1F
100
AcDbEntity
  8
0-B_寸法
  6
Continuous
 62
   120
370
     5
100
AcDbLine
 10
955.2114882147739
 20
1568.999683277026
 30
0.0
 11
955.2114882147739
 21
1928.999683277027
 31
0.0
  0
LINE
  5
14E
330
1F
100
AcDbEntity
  8
0-B_寸法
  6
Continuous
 62
   120
370
     5
100
AcDbLine
 10
955.2114882147739
 20
1568.999683277026
 30
0.0
 11
1135.211488214778
 21
1568.999683277026
 31
0.0
  0
LWPOLYLINE
  5
14F
330
1F
100
AcDbEntity
  8
0-B_寸法
  6
Continuous
 62
     7
370
     5
100
AcDbPolyline
 90
        4
 70
     1
 43
3.0
 10
1136.711488214777
 20
1568.999683277026
 42
0.4142135623731
 10
1135.211488214778
 20
1570.499683277025
 42
0.4142135623731
 10
1133.711488214778
 20
1568.999683277026
 42
0.4142135623731
 10
1135.211488214778
 20
1567.499683277026
 42
0.4142135623731
  0
LINE
  5
150
330
1F
100
AcDbEntity
  8
0-B_寸法
  6
Continuous
 62
   120
370
     5
100
AcDbLine
 10
1135.211488214778
 20
1568.999683277026
 30
0.0
 11
1135.211488214778
 21
1928.999683277027
 31
0.0
  0
LINE
  5
151
330
1F
100
AcDbEntity
  8
0-B_寸法
  6
Continuous
 62
   120
370
     5
100
AcDbLine
 10
1135.211488214778
 20
1568.999683277026
 30
0.0
 11
2071.381578376203
 21
1568.999683277026
 31
0.0
  0
LWPOLYLINE
  5
152
330
1F
100
AcDbEntity
  8
0-B_寸法
  6
Continuous
 62
     7
370
     5
100
AcDbPolyline
 90
        4
 70
     1
 43
3.0
 10
2072.881578376203
 20
1568.999683277026
 42
0.4142135623731
 10
2071.381578376203
 20
1570.499683277025
 42
0.4142135623731
 10
2069.881578376203
 20
1568.999683277026
 42
0.4142135623731
 10
2071.381578376203
 20
1567.499683277026
 42
0.4142135623731
  0
LINE
  5
153
330
1F
100
AcDbEntity
  8
0-B_寸法
  6
Continuous
 62
   120
370
     5
100
AcDbLine
 10
2071.381578376203
 20
1358.999683277026
 30
0.0
 11
2071.381578376203
 21
1928.999683277027
 31
0.0
  0
LINE
  5
154
330
1F
100
AcDbEntity
  8
0-B_寸法
  6
Continuous
 62
   120
370
     5
100
AcDbLine
 10
-2249.298782269493
 20
1358.999683277026
 30
0.0
 11
-2069.298782269493
 21
1358.999683277026
 31
0.0
  0
LWPOLYLINE
  5
155
330
1F
100
AcDbEntity
  8
0-B_寸法
  6
Continuous
 62
     7
370
     5
100
AcDbPolyline
 90
        4
 70
     1
 43
3.0
 10
-2247.798782269493
 20
1358.999683277026
 42
0.4142135623731
 10
-2249.298782269493
 20
1360.499683277025
 42
0.4142135623731
 10
-2250.798782269493
 20
1358.999683277026
 42
0.4142135623731
 10
-2249.298782269493
 20
1357.499683277026
 42
0.4142135623731
  0
LWPOLYLINE
  5
156
330
1F
100
AcDbEntity
  8
0-B_寸法
  6
Continuous
 62
     7
370
     5
100
AcDbPolyline
 90
        4
 70
     1
 43
3.0
 10
-2067.798782269493
 20
1358.999683277026
 42
0.4142135623731
 10
-2069.298782269493
 20
1360.499683277025
 42
0.4142135623731
 10
-2070.798782269493
 20
1358.999683277026
 42
0.4142135623731
 10
-2069.298782269493
 20
1357.499683277026
 42
0.4142135623731
  0
LINE
  5
157
330
1F
100
AcDbEntity
  8
0-B_寸法
  6
Continuous
 62
   120
370
     5
100
AcDbLine
 10
-2249.298782269493
 20
1148.999683277026
 30
0.0
 11
-2249.298782269493
 21
1928.999683277027
 31
0.0
  0
LINE
  5
158
330
1F
100
AcDbEntity
  8
0-B_寸法
  6
Continuous
 62
   120
370
     5
100
AcDbLine
 10
-2069.298782269493
 20
1358.999683277026
 30
0.0
 11
2071.381578376203
 21
1358.999683277026
 31
0.0
  0
LWPOLYLINE
  5
159
330
1F
100
AcDbEntity
  8
0-B_寸法
  6
Continuous
 62
     7
370
     5
100
AcDbPolyline
 90
        4
 70
     1
 43
3.0
 10
2072.881578376203
 20
1358.999683277026
 42
0.4142135623731
 10
2071.381578376203
 20
1360.499683277025
 42
0.4142135623731
 10
2069.881578376203
 20
1358.999683277026
 42
0.4142135623731
 10
2071.381578376203
 20
1357.499683277026
 42
0.4142135623731
  0
LINE
  5
15A
330
1F
100
AcDbEntity
  8
0-B_寸法
  6
Continuous
 62
   120
370
     5
100
AcDbLine
 10
2071.381578376203
 20
1358.999683277026
 30
0.0
 11
2251.381578376203
 21
1358.999683277026
 31
0.0
  0
LWPOLYLINE
  5
15B
330
1F
100
AcDbEntity
  8
0-B_寸法
  6
Continuous
 62
     7
370
     5
100
AcDbPolyline
 90
        4
 70
     1
 43
3.0
 10
2252.881578376203
 20
1358.999683277026
 42
0.4142135623731
 10
2251.381578376203
 20
1360.499683277025
 42
0.4142135623731
 10
2249.881578376203
 20
1358.999683277026
 42
0.4142135623731
 10
2251.381578376203
 20
1357.499683277026
 42
0.4142135623731
  0
LINE
  5
15C
330
1F
100
AcDbEntity
  8
0-B_寸法
  6
Continuous
 62
   120
370
     5
100
AcDbLine
 10
2251.381578376203
 20
1148.999683277026
 30
0.0
 11
2251.381578376203
 21
1928.999683277027
 31
0.0
  0
LWPOLYLINE
  5
15D
330
1F
100
AcDbEntity
  8
0-B_寸法
  6
Continuous
 62
     7
370
     5
100
AcDbPolyline
 90
        4
 70
     1
 43
3.0
 10
-2247.798782269493
 20
1148.999683277026
 42
0.4142135623731
 10
-2249.298782269493
 20
1150.499683277025
 42
0.4142135623731
 10
-2250.798782269493
 20
1148.999683277026
 42
0.4142135623731
 10
-2249.298782269493
 20
1147.499683277026
 42
0.4142135623731
  0
LINE
  5
15E
330
1F
100
AcDbEntity
  8
0-B_寸法
  6
Continuous
 62
   120
370
     5
100
AcDbLine
 10
-2249.298782269493
 20
1148.999683277026
 30
0.0
 11
2251.381578376203
 21
1148.999683277026
 31
0.0
  0
LWPOLYLINE
  5
15F
330
1F
100
AcDbEntity
  8
0-B_寸法
  6
Continuous
 62
     7
370
     5
100
AcDbPolyline
 90
        4
 70
     1
 43
3.0
 10
2252.881578376203
 20
1148.999683277026
 42
0.4142135623731
 10
2251.381578376203
 20
1150.499683277025
 42
0.4142135623731
 10
2249.881578376203
 20
1148.999683277026
 42
0.4142135623731
 10
2251.381578376203
 20
1147.499683277026
 42
0.4142135623731
  0
LINE
  5
160
330
1F
100
AcDbEntity
  8
0-6_扉
  6
JWW_DASHED2
 62
    40
370
     5
100
AcDbLine
 10
-1448.637331856013
 20
2642.999683277026
 30
0.0
 11
-953.1286921080685
 21
2642.999683277026
 31
0.0
  0
LINE
  5
161
330
1F
100
AcDbEntity
  8
0-6_扉
  6
JWW_DASHED2
 62
    40
370
     5
100
AcDbLine
 10
-1448.637331856013
 20
2462.999683277026
 30
0.0
 11
-953.1286921080685
 21
2462.999683277026
 31
0.0
  0
LINE
  5
162
330
1F
100
AcDbEntity
  8
0-6_扉
  6
JWW_DASHED2
 62
    40
370
     5
100
AcDbLine
 10
-2087.29878226949
 20
2642.999683277026
 30
0.0
 11
-1568.637331856013
 21
2642.999683277026
 31
0.0
  0
LINE
  5
163
330
1F
100
AcDbEntity
  8
0-6_扉
  6
JWW_DASHED2
 62
    40
370
     5
100
AcDbLine
 10
-2087.29878226949
 20
2462.999683277026
 30
0.0
 11
-1568.637331856013
 21
2462.999683277026
 31
0.0
  0
LINE
  5
164
330
1F
100
AcDbEntity
  8
0-6_扉
  6
JWW_DASHED2
 62
    40
370
     5
100
AcDbLine
 10
955.2114882147773
 20
2642.999683277026
 30
0.0
 11
1552.341356398234
 21
2642.999683277026
 31
0.0
  0
LINE
  5
165
330
1F
100
AcDbEntity
  8
0-6_扉
  6
JWW_DASHED2
 62
    40
370
     5
100
AcDbLine
 10
955.2114882147773
 20
2462.999683277026
 30
0.0
 11
1552.341356398234
 21
2462.999683277026
 31
0.0
  0
LINE
  5
166
330
1F
100
AcDbEntity
  8
0-6_扉
  6
JWW_DASHED2
 62
    40
370
     5
100
AcDbLine
 10
1672.341356398234
 20
2642.999683277026
 30
0.0
 11
2089.3815783762
 21
2642.999683277026
 31
0.0
  0
LINE
  5
167
330
1F
100
AcDbEntity
  8
0-6_扉
  6
JWW_DASHED2
 62
    40
370
     5
100
AcDbLine
 10
1672.341356398234
 20
2462.999683277026
 30
0.0
 11
2089.3815783762
 21
2462.999683277026
 31
0.0
  0
LINE
  5
168
330
1F
100
AcDbEntity
  8
0-6_扉
  6
Continuous
 62
   200
370
     5
100
AcDbLine
 10
-1133.128692108068
 20
2642.999683277026
 30
0.0
 11
-524.6373324363695
 21
2642.999683277026
 31
0.0
  0
LINE
  5
169
330
1F
100
AcDbEntity
  8
0-6_扉
  6
Continuous
 62
   200
370
     5
100
AcDbLine
 10
-1133.128692108068
 20
2462.999683277026
 30
0.0
 11
-524.6373324363695
 21
2462.999683277026
 31
0.0
  0
LINE
  5
16A
330
1F
100
AcDbEntity
  8
0-6_扉
  6
Continuous
 62
   200
370
     5
100
AcDbLine
 10
-404.6373324363695
 20
2642.999683277026
 30
0.0
 11
418.3643398052892
 21
2642.999683277026
 31
0.0
  0
LINE
  5
16B
330
1F
100
AcDbEntity
  8
0-6_扉
  6
Continuous
 62
   200
370
     5
100
AcDbLine
 10
-404.6373324363695
 20
2462.999683277026
 30
0.0
 11
418.3643398052892
 21
2462.999683277026
 31
0.0
  0
LINE
  5
16C
330
1F
100
AcDbEntity
  8
0-6_扉
  6
Continuous
 62
   200
370
     5
100
AcDbLine
 10
538.3643398052892
 20
2642.999683277026
 30
0.0
 11
1135.211488214778
 21
2642.999683277026
 31
0.0
  0
LINE
  5
16D
330
1F
100
AcDbEntity
  8
0-1_通り芯
  6
JWW_CENTER1
 62
   120
370
     5
100
AcDbLine
 10
-2579.215345101319
 20
2438.999683277028
 30
0.0
 11
2581.381578376203
 21
2438.999683277028
 31
0.0
  0
LINE
  5
16E
330
1F
100
AcDbEntity
  8
0-0_補助線
  6
JWW_HOJO
 62
   120
370
     5
100
AcDbLine
 10
-2580.057751218643
 20
1928.999683277027
 30
0.0
 11
2581.381578376203
 21
1928.999683277027
 31
0.0
  0
LINE
  5
16F
330
1F
100
AcDbEntity
  8
0-0_補助線
  6
JWW_HOJO
 62
   120
370
     5
100
AcDbLine
 10
-2580.057751218643
 20
1568.999683277026
 30
0.0
 11
2581.381578376203
 21
1568.999683277026
 31
0.0
  0
LINE
  5
170
330
1F
100
AcDbEntity
  8
0-0_補助線
  6
JWW_HOJO
 62
   120
370
     5
100
AcDbLine
 10
-2580.057751218643
 20
1358.999683277026
 30
0.0
 11
2581.381578376203
 21
1358.999683277026
 31
0.0
  0
LINE
  5
171
330
1F
100
AcDbEntity
  8
0-B_寸法
  6
Continuous
 62
   120
370
     5
100
AcDbLine
 10
1827.535077098387
 20
2303.999683277039
 30
0.0
 11
1981.381578376193
 21
2303.999683277039
 31
0.0
  0
LWPOLYLINE
  5
172
330
1F
100
AcDbEntity
  8
0-B_寸法
  6
Continuous
 62
     7
370
     5
100
AcDbPolyline
 90
        4
 70
     1
 43
3.0
 10
1829.035077098387
 20
2303.999683277039
 42
0.4142135623731
 10
1827.535077098387
 20
2305.499683277039
 42
0.4142135623731
 10
1826.035077098387
 20
2303.999683277039
 42
0.4142135623731
 10
1827.535077098387
 20
2302.499683277039
 42
0.4142135623731
  0
LINE
  5
173
330
1F
100
AcDbEntity
  8
0-B_寸法
  6
Continuous
 62
   120
370
     5
100
AcDbLine
 10
1827.535077098387
 20
2903.999683277028
 30
0.0
 11
1981.381578376193
 21
2903.999683277028
 31
0.0
  0
LWPOLYLINE
  5
174
330
1F
100
AcDbEntity
  8
0-B_寸法
  6
Continuous
 62
     7
370
     5
100
AcDbPolyline
 90
        4
 70
     1
 43
3.0
 10
1829.035077098387
 20
2903.999683277028
 42
0.4142135623731
 10
1827.535077098387
 20
2905.499683277027
 42
0.4142135623731
 10
1826.035077098387
 20
2903.999683277028
 42
0.4142135623731
 10
1827.535077098387
 20
2902.499683277028
 42
0.4142135623731
  0
LINE
  5
175
330
1F
100
AcDbEntity
  8
0-B_寸法
  6
Continuous
 62
   120
370
     5
100
AcDbLine
 10
1827.535077098387
 20
2903.999683277028
 30
0.0
 11
1827.535077098387
 21
2303.999683277039
 31
0.0
  0
LINE
  5
176
330
1F
100
AcDbEntity
  8
ハッチ
  6
JWW_DASHED1
 62
   120
370
     5
100
AcDbLine
 10
2251.382172231764
 20
2785.391188894256
 30
0.0
 11
2294.990666614528
 21
2828.999683277021
 31
0.0
  0
LINE
  5
177
330
1F
100
AcDbEntity
  8
仕上げ
  6
Continuous
 62
    40
370
     5
100
AcDbLine
 10
2581.298141208028
 20
2753.999683277028
 30
0.0
 11
2251.382172231764
 21
2753.999683277028
 31
0.0
  0
LINE
  5
178
330
1F
100
AcDbEntity
  8
仕上げ
  6
Continuous
 62
    40
370
     5
100
AcDbLine
 10
2581.298141208028
 20
2828.999683277028
 30
0.0
 11
2251.382172231764
 21
2828.999683277028
 31
0.0
  0
LINE
  5
179
330
1F
100
AcDbEntity
  8
仕上げ
  6
Continuous
 62
    40
370
     5
100
AcDbLine
 10
2251.382172231764
 20
2753.999683277028
 30
0.0
 11
2251.382172231764
 21
2828.999683277028
 31
0.0
  0
LINE
  5
17A
330
1F
100
AcDbEntity
  8
0-2_柱
  6
Continuous
 62
     7
370
     5
100
AcDbLine
 10
2251.382172231764
 20
2123.999683277028
 30
0.0
 11
2251.382172231764
 21
2753.999683277028
 31
0.0
  0
LINE
  5
17B
330
1F
100
AcDbEntity
  8
0-2_柱
  6
Continuous
 62
     7
370
     5
100
AcDbLine
 10
2413.382172231766
 20
2123.999683277028
 30
0.0
 11
2251.382172231764
 21
2123.999683277028
 31
0.0
  0
LINE
  5
17C
330
1F
100
AcDbEntity
  8
0-2_柱
  6
Continuous
 62
     7
370
     5
100
AcDbLine
 10
2413.382172231766
 20
2753.999683277028
 30
0.0
 11
2413.382172231766
 21
2123.999683277028
 31
0.0
  0
LINE
  5
17D
330
1F
100
AcDbEntity
  8
0-2_柱
  6
Continuous
 62
     7
370
     5
100
AcDbLine
 10
2251.382172231764
 20
2753.999683277028
 30
0.0
 11
2413.382172231766
 21
2753.999683277028
 31
0.0
  0
LINE
  5
17E
330
1F
100
AcDbEntity
  8
0-2_柱
  6
Continuous
 62
     7
370
     5
100
AcDbLine
 10
2251.382172231764
 20
2123.999683277028
 30
0.0
 11
2089.382172231763
 21
2123.999683277028
 31
0.0
  0
LINE
  5
17F
330
1F
100
AcDbEntity
  8
0-2_柱
  6
Continuous
 62
     7
370
     5
100
AcDbLine
 10
2251.382172231764
 20
2123.999683277028
 30
0.0
 11
2413.382172231766
 21
2753.999683277028
 31
0.0
  0
LINE
  5
180
330
1F
100
AcDbEntity
  8
0-2_柱
  6
Continuous
 62
     7
370
     5
100
AcDbLine
 10
2089.382172231763
 20
2123.999683277028
 30
0.0
 11
2089.382172231763
 21
2303.999683277026
 31
0.0
  0
LINE
  5
181
330
1F
100
AcDbEntity
  8
0-2_柱
  6
Continuous
 62
     7
370
     5
100
AcDbLine
 10
2089.382172231763
 20
2303.999683277026
 30
0.0
 11
2251.382172231764
 21
2303.999683277026
 31
0.0
  0
LINE
  5
182
330
1F
100
AcDbEntity
  8
0-2_柱
  6
Continuous
 62
     7
370
     5
100
AcDbLine
 10
2251.382172231764
 20
2303.999683277026
 30
0.0
 11
2089.382172231763
 21
2123.999683277028
 31
0.0
  0
LINE
  5
183
330
1F
100
AcDbEntity
  8
0-2_柱
  6
Continuous
 62
    92
370
     5
100
AcDbLine
 10
1135.211488214778
 20
2123.999312271944
 30
0.0
 11
1135.211488214778
 21
2303.999064832123
 31
0.0
  0
LINE
  5
184
330
1F
100
AcDbEntity
  8
0-2_柱
  6
Continuous
 62
     7
370
     5
100
AcDbLine
 10
1297.211488214777
 20
2303.999683277026
 30
0.0
 11
1135.211488214778
 21
2123.999683277028
 31
0.0
  0
LINE
  5
185
330
1F
100
AcDbEntity
  8
0-2_柱
  6
Continuous
 62
     7
370
     5
100
AcDbLine
 10
1297.211488214777
 20
2303.999683277026
 30
0.0
 11
1297.211488214777
 21
2123.999683277028
 31
0.0
  0
LINE
  5
186
330
1F
100
AcDbEntity
  8
0-2_柱
  6
Continuous
 62
     7
370
     5
100
AcDbLine
 10
1135.211488214778
 20
2303.999683277026
 30
0.0
 11
1297.211488214777
 21
2303.999683277026
 31
0.0
  0
LINE
  5
187
330
1F
100
AcDbEntity
  8
0-2_柱
  6
Continuous
 62
     7
370
     5
100
AcDbLine
 10
1135.211488214778
 20
2123.999683277028
 30
0.0
 11
1135.211488214778
 21
2303.999683277026
 31
0.0
  0
LINE
  5
188
330
1F
100
AcDbEntity
  8
0-2_柱
  6
Continuous
 62
     7
370
     5
100
AcDbLine
 10
1297.211488214777
 20
2123.999683277028
 30
0.0
 11
1135.211488214778
 21
2123.999683277028
 31
0.0
  0
LINE
  5
189
330
1F
100
AcDbEntity
  8
ハッチ
  6
Continuous
 62
   120
370
     5
100
AcDbLine
 10
-2191.616991357535
 20
2900.999683277023
 30
0.0
 11
-2246.299376125071
 21
2846.317298509487
 31
0.0
  0
LINE
  5
18A
330
1F
100
AcDbEntity
  8
ハッチ
  6
Continuous
 62
   120
370
     5
100
AcDbLine
 10
-2123.734740363643
 20
2900.999683277015
 30
0.0
 11
-2249.299376125065
 21
2775.435047515595
 31
0.0
  0
LINE
  5
18B
330
1F
100
AcDbEntity
  8
ハッチ
  6
Continuous
 62
   120
370
     5
100
AcDbLine
 10
-2072.298782269484
 20
2884.553390377276
 30
0.0
 11
-2249.299376125068
 21
2707.552796521692
 31
0.0
  0
LINE
  5
18C
330
1F
100
AcDbEntity
  8
ハッチ
  6
Continuous
 62
   120
370
     5
100
AcDbLine
 10
-2072.298782269487
 20
2816.671139383376
 30
0.0
 11
-2249.299376125075
 21
2639.670545527788
 31
0.0
  0
LINE
  5
18D
330
1F
100
AcDbEntity
  8
ハッチ
  6
Continuous
 62
   120
370
     5
100
AcDbLine
 10
-2072.298782269487
 20
2748.788888389423
 30
0.0
 11
-2249.299376125085
 21
2571.788294533824
 31
0.0
  0
LINE
  5
18E
330
1F
100
AcDbEntity
  8
ハッチ
  6
Continuous
 62
   120
370
     5
100
AcDbLine
 10
-2105.298782269498
 20
2647.906637395514
 30
0.0
 11
-2249.299376125061
 21
2503.906043539949
 31
0.0
  0
LINE
  5
18F
330
1F
100
AcDbEntity
  8
ハッチ
  6
Continuous
 62
   120
370
     5
100
AcDbLine
 10
-2105.298782269478
 20
2580.024386401636
 30
0.0
 11
-2249.299376125065
 21
2436.023792546049
 31
0.0
  0
LINE
  5
190
330
1F
100
AcDbEntity
  8
ハッチ
  6
Continuous
 62
   120
370
     5
100
AcDbLine
 10
-2105.298782269486
 20
2512.142135407729
 30
0.0
 11
-2246.299376125057
 21
2371.141541552159
 31
0.0
  0
LINE
  5
191
330
1F
100
AcDbEntity
  8
ハッチ
  6
Continuous
 62
   120
370
     5
100
AcDbLine
 10
-2105.298782269494
 20
2444.259884413822
 30
0.0
 11
-2245.558983406296
 21
2303.999683277021
 31
0.0
  0
LINE
  5
192
330
1F
100
AcDbEntity
  8
ハッチ
  6
Continuous
 62
   120
370
     5
100
AcDbLine
 10
-2072.298347393993
 20
2409.378068295372
 30
0.0
 11
-2177.676732412334
 21
2303.99968327703
 31
0.0
  0
LINE
  5
193
330
1F
100
AcDbEntity
  8
ハッチ
  6
Continuous
 62
   120
370
     5
100
AcDbLine
 10
-2072.298347394001
 20
2341.495817301464
 30
0.0
 11
-2109.794481418432
 21
2303.999683277033
 31
0.0
  0
LINE
  5
194
330
1F
100
AcDbEntity
  8
ハッチ
  6
Continuous
 62
   120
370
     5
100
AcDbLine
 10
-2072.298782269477
 20
2680.906637395534
 30
0.0
 11
-2077.205736387986
 21
2675.999683277027
 31
0.0
  0
LINE
  5
195
330
1F
100
AcDbEntity
  8
ハッチ
  6
Continuous
 62
   120
370
     5
100
AcDbLine
 10
-956.1284694122422
 20
2387.028075304596
 30
0.0
 11
-1133.128692108075
 21
2210.027852608763
 31
0.0
  0
LINE
  5
196
330
1F
100
AcDbEntity
  8
ハッチ
  6
Continuous
 62
   120
370
     5
100
AcDbLine
 10
-956.1284694122337
 20
2319.145824310653
 30
0.0
 11
-1133.128692108082
 21
2142.145601614803
 31
0.0
  0
LINE
  5
197
330
1F
100
AcDbEntity
  8
ハッチ
  6
Continuous
 62
   120
370
     5
100
AcDbLine
 10
-956.1284694122371
 20
2251.26357331675
 30
0.0
 11
-1133.128692108091
 21
2074.263350620896
 31
0.0
  0
LINE
  5
198
330
1F
100
AcDbEntity
  8
ハッチ
  6
Continuous
 62
   120
370
     5
100
AcDbLine
 10
-956.1284694122422
 20
2183.381322322849
 30
0.0
 11
-1130.12869210809
 21
2009.381099627
 31
0.0
  0
LINE
  5
199
330
1F
100
AcDbEntity
  8
ハッチ
  6
Continuous
 62
   120
370
     5
100
AcDbLine
 10
-956.1284694122439
 20
2115.499071328947
 30
0.0
 11
-1094.627857464152
 21
1976.999683277039
 31
0.0
  0
LINE
  5
19A
330
1F
100
AcDbEntity
  8
ハッチ
  6
Continuous
 62
   120
370
     5
100
AcDbLine
 10
-956.1284694122473
 20
2047.616820335046
 30
0.0
 11
-1026.745606470276
 21
1976.999683277018
 31
0.0
  0
LINE
  5
19B
330
1F
100
AcDbEntity
  8
0-2_柱
  6
Continuous
 62
     7
370
     5
100
AcDbLine
 10
-1295.128692108081
 20
2303.999683277026
 30
0.0
 11
-1295.128692108081
 21
2123.999683277028
 31
0.0
  0
LINE
  5
19C
330
1F
100
AcDbEntity
  8
0-2_柱
  6
Continuous
 62
     7
370
     5
100
AcDbLine
 10
-1133.128692108082
 20
2303.999683277026
 30
0.0
 11
-1295.128692108081
 21
2303.999683277026
 31
0.0
  0
LINE
  5
19D
330
1F
100
AcDbEntity
  8
0-2_柱
  6
Continuous
 62
     7
370
     5
100
AcDbLine
 10
-1133.128692108082
 20
2123.999683277028
 30
0.0
 11
-1133.128692108082
 21
2303.999683277026
 31
0.0
  0
LINE
  5
19E
330
1F
100
AcDbEntity
  8
0-2_柱
  6
Continuous
 62
     7
370
     5
100
AcDbLine
 10
-1295.128692108081
 20
2123.999683277028
 30
0.0
 11
-1133.128692108082
 21
2123.999683277028
 31
0.0
  0
LINE
  5
19F
330
1F
100
AcDbEntity
  8
仕上げ
  6
Continuous
 62
    40
370
     5
100
AcDbLine
 10
-2579.215345101319
 20
2828.999683277028
 30
0.0
 11
-2249.299376125061
 21
2828.999683277028
 31
0.0
  0
LINE
  5
1A0
330
1F
100
AcDbEntity
  8
仕上げ
  6
Continuous
 62
    40
370
     5
100
AcDbLine
 10
-2579.215345101319
 20
2753.999683277028
 30
0.0
 11
-2249.299376125061
 21
2753.999683277028
 31
0.0
  0
LINE
  5
1A1
330
1F
100
AcDbEntity
  8
仕上げ
  6
Continuous
 62
    40
370
     5
100
AcDbLine
 10
-2249.299376125061
 20
2753.999683277028
 30
0.0
 11
-2249.299376125061
 21
2828.999683277028
 31
0.0
  0
LINE
  5
1A2
330
1F
100
AcDbEntity
  8
ハッチ
  6
JWW_DASHED1
 62
   120
370
     5
100
AcDbLine
 10
-2316.100786461986
 20
2753.999683277026
 30
0.0
 11
-2249.299376125061
 21
2820.80109361395
 31
0.0
  0
LINE
  5
1A3
330
1F
100
AcDbEntity
  8
ハッチ
  6
JWW_DASHED1
 62
   120
370
     5
100
AcDbLine
 10
-2273.674379590791
 20
2753.999683277021
 30
0.0
 11
-2249.299376125061
 21
2778.37468674275
 31
0.0
  0
LINE
  5
1A4
330
1F
100
AcDbEntity
  8
0-B_寸法
  6
Continuous
 62
   120
370
     5
100
AcDbLine
 10
770.9832736415617
 20
2643.001910235431
 30
0.0
 11
770.9832736415617
 21
1973.999683277028
 31
0.0
  0
LWPOLYLINE
  5
1A5
330
1F
100
AcDbEntity
  8
0-B_寸法
  6
Continuous
 62
     7
370
     5
100
AcDbPolyline
 90
        4
 70
     1
 43
3.0
 10
772.4832736415617
 20
1973.999683277028
 42
0.4142135623731
 10
770.9832736415617
 20
1975.499683277028
 42
0.4142135623731
 10
769.4832736415617
 20
1973.999683277028
 42
0.4142135623731
 10
770.9832736415617
 20
1972.499683277028
 42
0.4142135623731
  0
LINE
  5
1A6
330
1F
100
AcDbEntity
  8
0-B_寸法
  6
Continuous
 62
   120
370
     5
100
AcDbLine
 10
921.2610248424712
 20
1973.999683277028
 30
0.0
 11
770.9832736415617
 21
1973.999683277028
 31
0.0
  0
LINE
  5
1A7
330
1F
100
AcDbEntity
  8
0-0_補助線
  6
JWW_HOJO
 62
   120
370
     5
100
AcDbLine
 10
-2581.334868081911
 20
1148.999683277026
 30
0.0
 11
2581.33561040138
 21
1148.999683277026
 31
0.0
  0
LINE
  5
1A8
330
1F
100
AcDbEntity
  8
0-0_補助線
  6
JWW_HOJO
 62
   120
370
     5
100
AcDbLine
 10
-2578.372938983995
 20
3023.999683277028
 30
0.0
 11
2581.381578376203
 21
3023.999683277028
 31
0.0
  0
LINE
  5
1A9
330
1F
100
AcDbEntity
  8
0-0_補助線
  6
JWW_HOJO
 62
   120
370
     5
100
AcDbLine
 10
-1568.637331856013
 20
1928.999683277027
 30
0.0
 11
-1568.637331856013
 21
3023.999683277028
 31
0.0
  0
LINE
  5
1AA
330
1F
100
AcDbEntity
  8
0-0_補助線
  6
JWW_HOJO
 62
   120
370
     5
100
AcDbLine
 10
1672.341356398234
 20
1928.999683277027
 30
0.0
 11
1672.341356398234
 21
3023.999683277028
 31
0.0
  0
LINE
  5
1AB
330
1F
100
AcDbEntity
  8
0-0_補助線
  6
JWW_HOJO
 62
   120
370
     5
100
AcDbLine
 10
-1448.637331856013
 20
1928.999683277027
 30
0.0
 11
-1448.637331856013
 21
3023.999683277028
 31
0.0
  0
LINE
  5
1AC
330
1F
100
AcDbEntity
  8
0-0_補助線
  6
JWW_HOJO
 62
   120
370
     5
100
AcDbLine
 10
-524.6373324363695
 20
1928.999683277027
 30
0.0
 11
-524.6373324363695
 21
3023.999683277028
 31
0.0
  0
LINE
  5
1AD
330
1F
100
AcDbEntity
  8
0-0_補助線
  6
JWW_HOJO
 62
   120
370
     5
100
AcDbLine
 10
-404.6373324363695
 20
1928.999683277027
 30
0.0
 11
-404.6373324363695
 21
3023.999683277028
 31
0.0
  0
LINE
  5
1AE
330
1F
100
AcDbEntity
  8
0-0_補助線
  6
JWW_HOJO
 62
   120
370
     5
100
AcDbLine
 10
418.3643398052892
 20
1928.999683277027
 30
0.0
 11
418.3643398052892
 21
3023.999683277028
 31
0.0
  0
LINE
  5
1AF
330
1F
100
AcDbEntity
  8
0-0_補助線
  6
JWW_HOJO
 62
   120
370
     5
100
AcDbLine
 10
538.3643398052892
 20
1928.999683277027
 30
0.0
 11
538.3643398052892
 21
3023.999683277028
 31
0.0
  0
LINE
  5
1B0
330
1F
100
AcDbEntity
  8
0-0_補助線
  6
JWW_HOJO
 62
   120
370
     5
100
AcDbLine
 10
1552.341356398234
 20
1928.999683277027
 30
0.0
 11
1552.341356398234
 21
3023.999683277028
 31
0.0
  0
LINE
  5
1B1
330
1F
100
AcDbEntity
  8
0-0_補助線
  6
JWW_HOJO
 62
   120
370
     5
100
AcDbLine
 10
2581.33561040138
 20
1148.999683277026
 30
0.0
 11
2581.33561040138
 21
3023.999683277028
 31
0.0
  0
LINE
  5
1B2
330
1F
100
AcDbEntity
  8
0-0_補助線
  6
JWW_HOJO
 62
   120
370
     5
100
AcDbLine
 10
-2578.372938983995
 20
3023.999683277028
 30
0.0
 11
-2581.334868081911
 21
1148.999683277026
 31
0.0
  0
LINE
  5
1B3
330
1F
100
AcDbEntity
  8
0-2_柱
  6
Continuous
 62
     7
370
     5
100
AcDbLine
 10
-2249.299376125061
 20
2123.999683277028
 30
0.0
 11
-2249.299376125061
 21
2753.999683277028
 31
0.0
  0
LINE
  5
1B4
330
1F
100
AcDbEntity
  8
0-2_柱
  6
Continuous
 62
     7
370
     5
100
AcDbLine
 10
-2411.299376125062
 20
2753.999683277028
 30
0.0
 11
-2411.299376125062
 21
2123.999683277028
 31
0.0
  0
LINE
  5
1B5
330
1F
100
AcDbEntity
  8
0-2_柱
  6
Continuous
 62
     7
370
     5
100
AcDbLine
 10
-2249.299376125061
 20
2753.999683277028
 30
0.0
 11
-2411.299376125062
 21
2753.999683277028
 31
0.0
  0
LINE
  5
1B6
330
1F
100
AcDbEntity
  8
0-2_柱
  6
Continuous
 62
     7
370
     5
100
AcDbLine
 10
-2249.299376125061
 20
2123.999683277028
 30
0.0
 11
-2087.299376125061
 21
2123.999683277028
 31
0.0
  0
LINE
  5
1B7
330
1F
100
AcDbEntity
  8
0-2_柱
  6
Continuous
 62
     7
370
     5
100
AcDbLine
 10
-2087.299376125061
 20
2123.999683277028
 30
0.0
 11
-2087.299376125061
 21
2303.999683277026
 31
0.0
  0
LINE
  5
1B8
330
1F
100
AcDbEntity
  8
0-2_柱
  6
Continuous
 62
     7
370
     5
100
AcDbLine
 10
-2087.299376125061
 20
2303.999683277026
 30
0.0
 11
-2249.299376125061
 21
2303.999683277026
 31
0.0
  0
LINE
  5
1B9
330
1F
100
AcDbEntity
  8
0-2_柱
  6
Continuous
 62
     7
370
     5
100
AcDbLine
 10
-2411.299376125062
 20
2123.999683277028
 30
0.0
 11
-2249.299376125061
 21
2123.999683277028
 31
0.0
  0
LINE
  5
1BA
330
1F
100
AcDbEntity
  8
0-2_柱
  6
Continuous
 62
     7
370
     5
100
AcDbLine
 10
-2249.299376125061
 20
2753.999683277028
 30
0.0
 11
-2411.299376125062
 21
2123.999683277028
 31
0.0
  0
LINE
  5
1BB
330
1F
100
AcDbEntity
  8
0-2_柱
  6
Continuous
 62
     7
370
     5
100
AcDbLine
 10
-2249.299376125061
 20
2123.999683277028
 30
0.0
 11
-2087.299376125061
 21
2303.999683277028
 31
0.0
  0
LINE
  5
1BC
330
1F
100
AcDbEntity
  8
0-2_柱
  6
Continuous
 62
     7
370
     5
100
AcDbLine
 10
-1295.128692108081
 20
2123.999683277028
 30
0.0
 11
-1133.128692108082
 21
2303.999683277026
 31
0.0
  0
LINE
  5
1BD
330
1F
100
AcDbEntity
  8
0-4_枠
  6
Continuous
 62
    92
370
     5
100
AcDbLine
 10
1135.211488214778
 20
2063.999683277028
 30
0.0
 11
1132.211488214777
 21
2063.999683277028
 31
0.0
  0
LINE
  5
1BE
330
1F
100
AcDbEntity
  8
0-4_枠
  6
Continuous
 62
    92
370
     5
100
AcDbLine
 10
1132.211488214777
 20
2063.999683277028
 30
0.0
 11
1132.211488214777
 21
1976.999683277028
 31
0.0
  0
LINE
  5
1BF
330
1F
100
AcDbEntity
  8
0-4_枠
  6
Continuous
 62
    92
370
     5
100
AcDbLine
 10
1135.211488214778
 20
2333.999683277028
 30
0.0
 11
1132.211488214777
 21
2333.999683277028
 31
0.0
  0
LINE
  5
1C0
330
1F
100
AcDbEntity
  8
0-4_枠
  6
Continuous
 62
    92
370
     5
100
AcDbLine
 10
1132.211488214777
 20
2333.999683277028
 30
0.0
 11
1132.211488214777
 21
2420.999683277028
 31
0.0
  0
LINE
  5
1C1
330
1F
100
AcDbEntity
  8
0-4_枠
  6
Continuous
 62
    92
370
     5
100
AcDbLine
 10
1135.211488214778
 20
1973.999683277028
 30
0.0
 11
1135.211488214778
 21
2423.999683277028
 31
0.0
  0
LINE
  5
1C2
330
1F
100
AcDbEntity
  8
ハッチ
  6
Continuous
 62
   120
370
     5
100
AcDbLine
 10
1132.211488214772
 20
2047.616201890142
 30
0.0
 11
1061.594351156743
 21
1976.999064832112
 31
0.0
  0
LINE
  5
1C3
330
1F
100
AcDbEntity
  8
ハッチ
  6
Continuous
 62
   120
370
     5
100
AcDbLine
 10
1135.211488214778
 20
2118.498452884045
 30
0.0
 11
993.7121001628656
 21
1976.999064832133
 31
0.0
  0
LINE
  5
1C4
330
1F
100
AcDbEntity
  8
ハッチ
  6
Continuous
 62
   120
370
     5
100
AcDbLine
 10
1018.419212644318
 20
2408.999683277028
 30
0.0
 11
958.2112655189374
 21
2348.791736151648
 31
0.0
  0
LINE
  5
1C5
330
1F
100
AcDbEntity
  8
ハッチ
  6
Continuous
 62
   120
370
     5
100
AcDbLine
 10
1135.211488214778
 20
2186.380703877943
 30
0.0
 11
958.2112655189374
 21
2009.380481182103
 31
0.0
  0
LINE
  5
1C6
330
1F
100
AcDbEntity
  8
ハッチ
  6
Continuous
 62
   120
370
     5
100
AcDbLine
 10
1132.211488214776
 20
2387.027456859692
 30
0.0
 11
958.2112655189374
 21
2213.027234163852
 31
0.0
  0
LINE
  5
1C7
330
1F
100
AcDbEntity
  8
ハッチ
  6
Continuous
 62
   120
370
     5
100
AcDbLine
 10
1135.211488214778
 20
2322.145205865739
 30
0.0
 11
958.2112655189374
 21
2145.1449831699
 31
0.0
  0
LINE
  5
1C8
330
1F
100
AcDbEntity
  8
ハッチ
  6
Continuous
 62
   120
370
     5
100
AcDbLine
 10
1135.211488214778
 20
2254.262954871841
 30
0.0
 11
958.2112655189374
 21
2077.262732176001
 31
0.0
  0
LINE
  5
1C9
330
1F
100
AcDbEntity
  8
ハッチ
  6
Continuous
 62
   120
370
     5
100
AcDbLine
 10
1098.301463638214
 20
2420.999683277028
 30
0.0
 11
958.2112655189374
 21
2280.909485157741
 31
0.0
  0
LINE
  5
1CA
330
1F
100
AcDbEntity
  8
0-4_枠
  6
Continuous
 62
    92
370
     5
100
AcDbLine
 10
955.2112655189367
 20
1986.727605338387
 30
0.0
 11
955.2112655189367
 21
2423.999683277028
 31
0.0
  0
LINE
  5
1CB
330
1F
100
AcDbEntity
  8
0-4_枠
  6
Continuous
 62
    92
370
     5
100
AcDbLine
 10
967.9391875802944
 20
1973.999683277028
 30
0.0
 11
1135.211488214778
 21
1973.999683277028
 31
0.0
  0
LINE
  5
1CC
330
1F
100
AcDbEntity
  8
0-4_枠
  6
Continuous
 62
    92
370
     5
100
AcDbLine
 10
955.2112655189367
 20
1986.727605338387
 30
0.0
 11
967.9391875802944
 21
1973.999683277028
 31
0.0
  0
LINE
  5
1CD
330
1F
100
AcDbEntity
  8
0-4_枠
  6
Continuous
 62
    92
370
     5
100
AcDbLine
 10
1009.211488214781
 20
2423.999683277028
 30
0.0
 11
955.2112655189367
 21
2423.999683277028
 31
0.0
  0
LINE
  5
1CE
330
1F
100
AcDbEntity
  8
0-4_枠
  6
Continuous
 62
    92
370
     5
100
AcDbLine
 10
1009.211488214781
 20
2420.999683277028
 30
0.0
 11
958.2112655189374
 21
2420.999683277028
 31
0.0
  0
LINE
  5
1CF
330
1F
100
AcDbEntity
  8
0-4_枠
  6
Continuous
 62
    92
370
     5
100
AcDbLine
 10
1009.211488214781
 20
2423.999683277028
 30
0.0
 11
1009.211488214781
 21
2408.999683277028
 31
0.0
  0
LINE
  5
1D0
330
1F
100
AcDbEntity
  8
0-4_枠
  6
Continuous
 62
    92
370
     5
100
AcDbLine
 10
1081.211488214781
 20
2408.999683277028
 30
0.0
 11
1081.211488214781
 21
2423.999683277028
 31
0.0
  0
LINE
  5
1D1
330
1F
100
AcDbEntity
  8
0-4_枠
  6
Continuous
 62
    92
370
     5
100
AcDbLine
 10
1081.211488214781
 20
2423.999683277028
 30
0.0
 11
1135.211488214778
 21
2423.999683277028
 31
0.0
  0
LINE
  5
1D2
330
1F
100
AcDbEntity
  8
0-4_枠
  6
Continuous
 62
    92
370
     5
100
AcDbLine
 10
1081.211488214781
 20
2420.999683277028
 30
0.0
 11
1132.211488214777
 21
2420.999683277028
 31
0.0
  0
LINE
  5
1D3
330
1F
100
AcDbEntity
  8
0-4_枠
  6
Continuous
 62
    92
370
     5
100
AcDbLine
 10
1081.211488214781
 20
2408.999683277028
 30
0.0
 11
1009.211488214781
 21
2408.999683277028
 31
0.0
  0
LINE
  5
1D4
330
1F
100
AcDbEntity
  8
0-4_枠
  6
Continuous
 62
    92
370
     5
100
AcDbLine
 10
969.1818282674141
 20
1976.999683277028
 30
0.0
 11
1132.211488214777
 21
1976.999683277028
 31
0.0
  0
LINE
  5
1D5
330
1F
100
AcDbEntity
  8
0-4_枠
  6
Continuous
 62
    92
370
     5
100
AcDbLine
 10
958.2112655189374
 20
1987.970246025505
 30
0.0
 11
958.2112655189374
 21
2420.999683277028
 31
0.0
  0
LINE
  5
1D6
330
1F
100
AcDbEntity
  8
0-4_枠
  6
Continuous
 62
    92
370
     5
100
AcDbLine
 10
958.2112655189374
 20
1987.970246025505
 30
0.0
 11
969.1818282674141
 21
1976.999683277028
 31
0.0
  0
LINE
  5
1D7
330
1F
100
AcDbEntity
  8
0-4_枠
  6
Continuous
 62
    92
370
     5
100
AcDbLine
 10
2071.381578376192
 20
2891.271761215667
 30
0.0
 11
2084.109500437551
 21
2903.999683277026
 31
0.0
  0
LINE
  5
1D8
330
1F
100
AcDbEntity
  8
0-4_枠
  6
Continuous
 62
    92
370
     5
100
AcDbLine
 10
2071.381578376192
 20
2303.999683277026
 30
0.0
 11
2251.382172231764
 21
2303.999683277026
 31
0.0
  0
LINE
  5
1D9
330
1F
100
AcDbEntity
  8
0-4_枠
  6
Continuous
 62
    92
370
     5
100
AcDbLine
 10
2251.382172231764
 20
2303.999683277026
 30
0.0
 11
2251.382172231764
 21
2903.999683277026
 31
0.0
  0
LINE
  5
1DA
330
1F
100
AcDbEntity
  8
0-4_枠
  6
Continuous
 62
    92
370
     5
100
AcDbLine
 10
2248.382172231767
 20
2900.999683277024
 30
0.0
 11
2248.382172231767
 21
2813.999683277026
 31
0.0
  0
LINE
  5
1DB
330
1F
100
AcDbEntity
  8
0-4_枠
  6
Continuous
 62
    92
370
     5
100
AcDbLine
 10
2251.382172231764
 20
2813.999683277026
 30
0.0
 11
2248.382172231767
 21
2813.999683277026
 31
0.0
  0
LINE
  5
1DC
330
1F
100
AcDbEntity
  8
0-4_枠
  6
Continuous
 62
    92
370
     5
100
AcDbLine
 10
2248.382172231767
 20
2303.999683277026
 30
0.0
 11
2248.382172231767
 21
2393.999683277026
 31
0.0
  0
LINE
  5
1DD
330
1F
100
AcDbEntity
  8
0-4_枠
  6
Continuous
 62
    92
370
     5
100
AcDbLine
 10
2248.382172231767
 20
2393.999683277026
 30
0.0
 11
2251.382172231764
 21
2393.999683277026
 31
0.0
  0
LINE
  5
1DE
330
1F
100
AcDbEntity
  8
0-4_枠
  6
Continuous
 62
    92
370
     5
100
AcDbLine
 10
2107.381578376194
 20
2429.999683277025
 30
0.0
 11
2071.381578376192
 21
2429.999683277025
 31
0.0
  0
LINE
  5
1DF
330
1F
100
AcDbEntity
  8
0-4_枠
  6
Continuous
 62
    92
370
     5
100
AcDbLine
 10
2074.381143500704
 20
2303.999683277026
 30
0.0
 11
2074.381143500704
 21
2429.999683277025
 31
0.0
  0
LINE
  5
1E0
330
1F
100
AcDbEntity
  8
0-4_枠
  6
Continuous
 62
    92
370
     5
100
AcDbLine
 10
2071.381578376192
 20
2303.999683277026
 30
0.0
 11
2071.381578376192
 21
2429.999683277025
 31
0.0
  0
LINE
  5
1E1
330
1F
100
AcDbEntity
  8
0-4_枠
  6
Continuous
 62
    92
370
     5
100
AcDbLine
 10
2107.381578376194
 20
2429.999683277025
 30
0.0
 11
2107.381578376194
 21
2675.999683277026
 31
0.0
  0
LINE
  5
1E2
330
1F
100
AcDbEntity
  8
0-4_枠
  6
Continuous
 62
    92
370
     5
100
AcDbLine
 10
2107.381578376194
 20
2675.999683277026
 30
0.0
 11
2071.381578376192
 21
2675.999683277026
 31
0.0
  0
LINE
  5
1E3
330
1F
100
AcDbEntity
  8
ハッチ
  6
JWW_DASHED1
 62
   120
370
     5
100
AcDbLine
 10
2251.382172231764
 20
2827.817595765454
 30
0.0
 11
2252.564259743328
 21
2828.999683277019
 31
0.0
  0
LINE
  5
1E4
330
1F
100
AcDbEntity
  8
ハッチ
  6
Continuous
 62
   120
370
     5
100
AcDbLine
 10
2248.382607107253
 20
2341.495817301462
 30
0.0
 11
2210.886473082821
 21
2303.999683277031
 31
0.0
  0
LINE
  5
1E5
330
1F
100
AcDbEntity
  8
ハッチ
  6
Continuous
 62
   120
370
     5
100
AcDbLine
 10
2251.382172231764
 20
2412.377633419873
 30
0.0
 11
2143.00422208892
 21
2303.999683277028
 31
0.0
  0
LINE
  5
1E6
330
1F
100
AcDbEntity
  8
ハッチ
  6
Continuous
 62
   120
370
     5
100
AcDbLine
 10
2251.382172231764
 20
2548.142135407724
 30
0.0
 11
2074.381578376197
 21
2371.141541552157
 31
0.0
  0
LINE
  5
1E7
330
1F
100
AcDbEntity
  8
ハッチ
  6
Continuous
 62
   120
370
     5
100
AcDbLine
 10
2251.382172231764
 20
2480.259884413825
 30
0.0
 11
2075.121971094959
 21
2303.999683277021
 31
0.0
  0
LINE
  5
1E8
330
1F
100
AcDbEntity
  8
ハッチ
  6
Continuous
 62
   120
370
     5
100
AcDbLine
 10
2251.382172231764
 20
2616.024386401622
 30
0.0
 11
2107.381578376194
 21
2472.023792546052
 31
0.0
  0
LINE
  5
1E9
330
1F
100
AcDbEntity
  8
ハッチ
  6
Continuous
 62
   120
370
     5
100
AcDbLine
 10
2251.382172231764
 20
2751.78888838942
 30
0.0
 11
2107.381578376194
 21
2607.788294533849
 31
0.0
  0
LINE
  5
1EA
330
1F
100
AcDbEntity
  8
ハッチ
  6
Continuous
 62
   120
370
     5
100
AcDbLine
 10
2251.382172231764
 20
2683.906637395522
 30
0.0
 11
2107.381578376194
 21
2539.906043539951
 31
0.0
  0
LINE
  5
1EB
330
1F
100
AcDbEntity
  8
ハッチ
  6
Continuous
 62
   120
370
     5
100
AcDbLine
 10
2248.382172231767
 20
2816.671139383374
 30
0.0
 11
2107.381578376194
 21
2675.670545527802
 31
0.0
  0
LINE
  5
1EC
330
1F
100
AcDbEntity
  8
ハッチ
  6
Continuous
 62
   120
370
     5
100
AcDbLine
 10
2129.063963143719
 20
2900.999683277022
 30
0.0
 11
2074.381578376193
 21
2846.317298509494
 31
0.0
  0
LINE
  5
1ED
330
1F
100
AcDbEntity
  8
ハッチ
  6
Continuous
 62
   120
370
     5
100
AcDbLine
 10
2248.38217223177
 20
2884.553390377273
 30
0.0
 11
2074.381578376193
 21
2710.552796521697
 31
0.0
  0
LINE
  5
1EE
330
1F
100
AcDbEntity
  8
ハッチ
  6
Continuous
 62
   120
370
     5
100
AcDbLine
 10
2196.946214137611
 20
2900.999683277012
 30
0.0
 11
2074.381578376193
 21
2778.435047515596
 31
0.0
  0
LINE
  5
1EF
330
1F
100
AcDbEntity
  8
0-4_枠
  6
Continuous
 62
    92
370
     5
100
AcDbLine
 10
2071.381578376192
 20
2891.271761215667
 30
0.0
 11
2071.381578376192
 21
2675.999683277026
 31
0.0
  0
LINE
  5
1F0
330
1F
100
AcDbEntity
  8
0-4_枠
  6
Continuous
 62
    92
370
     5
100
AcDbLine
 10
2084.109500437551
 20
2903.999683277026
 30
0.0
 11
2251.382172231764
 21
2903.999683277026
 31
0.0
  0
LINE
  5
1F1
330
1F
100
AcDbEntity
  8
0-4_枠
  6
Continuous
 62
    92
370
     5
100
AcDbLine
 10
2085.352141124669
 20
2900.999683277024
 30
0.0
 11
2248.382172231767
 21
2900.999683277024
 31
0.0
  0
LINE
  5
1F2
330
1F
100
AcDbEntity
  8
0-4_枠
  6
Continuous
 62
    92
370
     5
100
AcDbLine
 10
2074.381578376193
 20
2890.02912052855
 30
0.0
 11
2085.352141124669
 21
2900.999683277024
 31
0.0
  0
LINE
  5
1F3
330
1F
100
AcDbEntity
  8
0-4_枠
  6
Continuous
 62
    92
370
     5
100
AcDbLine
 10
2074.381578376193
 20
2890.02912052855
 30
0.0
 11
2074.381578376193
 21
2675.999683277026
 31
0.0
  0
LINE
  5
1F4
330
1F
100
AcDbEntity
  8
0-4_枠
  6
Continuous
 62
    92
370
     5
100
AcDbLine
 10
-1133.128692108068
 20
2063.999683277028
 30
0.0
 11
-1130.128692108068
 21
2063.999683277028
 31
0.0
  0
LINE
  5
1F5
330
1F
100
AcDbEntity
  8
0-4_枠
  6
Continuous
 62
    92
370
     5
100
AcDbLine
 10
-1130.128692108068
 20
2063.999683277028
 30
0.0
 11
-1130.128692108068
 21
1976.999683277028
 31
0.0
  0
LINE
  5
1F6
330
1F
100
AcDbEntity
  8
0-4_枠
  6
Continuous
 62
    92
370
     5
100
AcDbLine
 10
-1133.128692108068
 20
2333.999683277028
 30
0.0
 11
-1130.128692108068
 21
2333.999683277028
 31
0.0
  0
LINE
  5
1F7
330
1F
100
AcDbEntity
  8
0-4_枠
  6
Continuous
 62
    92
370
     5
100
AcDbLine
 10
-1130.128692108068
 20
2333.999683277028
 30
0.0
 11
-1130.128692108068
 21
2420.999683277028
 31
0.0
  0
LINE
  5
1F8
330
1F
100
AcDbEntity
  8
0-4_枠
  6
Continuous
 62
    92
370
     5
100
AcDbLine
 10
-1133.128692108068
 20
1973.999683277028
 30
0.0
 11
-1133.128692108068
 21
2423.999683277028
 31
0.0
  0
LINE
  5
1F9
330
1F
100
AcDbEntity
  8
0-4_枠
  6
Continuous
 62
    92
370
     5
100
AcDbLine
 10
-953.1284694122279
 20
1986.727605338387
 30
0.0
 11
-953.1284694122279
 21
2423.999683277028
 31
0.0
  0
LINE
  5
1FA
330
1F
100
AcDbEntity
  8
0-4_枠
  6
Continuous
 62
    92
370
     5
100
AcDbLine
 10
-965.856391473586
 20
1973.999683277028
 30
0.0
 11
-1133.128692108068
 21
1973.999683277028
 31
0.0
  0
LINE
  5
1FB
330
1F
100
AcDbEntity
  8
0-4_枠
  6
Continuous
 62
    92
370
     5
100
AcDbLine
 10
-953.1284694122279
 20
1986.727605338387
 30
0.0
 11
-965.856391473586
 21
1973.999683277028
 31
0.0
  0
LINE
  5
1FC
330
1F
100
AcDbEntity
  8
0-4_枠
  6
Continuous
 62
    92
370
     5
100
AcDbLine
 10
-1007.128692108072
 20
2423.999683277028
 30
0.0
 11
-953.1284694122279
 21
2423.999683277028
 31
0.0
  0
LINE
  5
1FD
330
1F
100
AcDbEntity
  8
0-4_枠
  6
Continuous
 62
    92
370
     5
100
AcDbLine
 10
-1007.128692108072
 20
2420.999683277028
 30
0.0
 11
-956.1284694122286
 21
2420.999683277028
 31
0.0
  0
LINE
  5
1FE
330
1F
100
AcDbEntity
  8
0-4_枠
  6
Continuous
 62
    92
370
     5
100
AcDbLine
 10
-1007.128692108072
 20
2423.999683277028
 30
0.0
 11
-1007.128692108072
 21
2408.999683277028
 31
0.0
  0
LINE
  5
1FF
330
1F
100
AcDbEntity
  8
0-4_枠
  6
Continuous
 62
    92
370
     5
100
AcDbLine
 10
-1079.128692108072
 20
2408.999683277028
 30
0.0
 11
-1079.128692108072
 21
2423.999683277028
 31
0.0
  0
LINE
  5
200
330
1F
100
AcDbEntity
  8
0-4_枠
  6
Continuous
 62
    92
370
     5
100
AcDbLine
 10
-1079.128692108072
 20
2423.999683277028
 30
0.0
 11
-1133.128692108068
 21
2423.999683277028
 31
0.0
  0
LINE
  5
201
330
1F
100
AcDbEntity
  8
0-4_枠
  6
Continuous
 62
    92
370
     5
100
AcDbLine
 10
-1079.128692108072
 20
2420.999683277028
 30
0.0
 11
-1130.128692108068
 21
2420.999683277028
 31
0.0
  0
LINE
  5
202
330
1F
100
AcDbEntity
  8
0-4_枠
  6
Continuous
 62
    92
370
     5
100
AcDbLine
 10
-1079.128692108072
 20
2408.999683277028
 30
0.0
 11
-1007.128692108072
 21
2408.999683277028
 31
0.0
  0
LINE
  5
203
330
1F
100
AcDbEntity
  8
0-4_枠
  6
Continuous
 62
    92
370
     5
100
AcDbLine
 10
-967.0990321607052
 20
1976.999683277028
 30
0.0
 11
-1130.128692108068
 21
1976.999683277028
 31
0.0
  0
LINE
  5
204
330
1F
100
AcDbEntity
  8
0-4_枠
  6
Continuous
 62
    92
370
     5
100
AcDbLine
 10
-956.1284694122286
 20
1987.970246025505
 30
0.0
 11
-956.1284694122286
 21
2420.999683277028
 31
0.0
  0
LINE
  5
205
330
1F
100
AcDbEntity
  8
0-4_枠
  6
Continuous
 62
    92
370
     5
100
AcDbLine
 10
-956.1284694122286
 20
1987.970246025505
 30
0.0
 11
-967.0990321607052
 21
1976.999683277028
 31
0.0
  0
LINE
  5
206
330
1F
100
AcDbEntity
  8
0-4_枠
  6
Continuous
 62
    92
370
     5
100
AcDbLine
 10
-2069.298782269484
 20
2891.271761215667
 30
0.0
 11
-2082.026704330842
 21
2903.999683277026
 31
0.0
  0
LINE
  5
207
330
1F
100
AcDbEntity
  8
0-4_枠
  6
Continuous
 62
    92
370
     5
100
AcDbLine
 10
-2069.298782269484
 20
2303.999683277026
 30
0.0
 11
-2249.299376125055
 21
2303.999683277026
 31
0.0
  0
LINE
  5
208
330
1F
100
AcDbEntity
  8
0-4_枠
  6
Continuous
 62
    92
370
     5
100
AcDbLine
 10
-2249.299376125055
 20
2303.999683277026
 30
0.0
 11
-2249.299376125055
 21
2903.999683277026
 31
0.0
  0
LINE
  5
209
330
1F
100
AcDbEntity
  8
0-4_枠
  6
Continuous
 62
    92
370
     5
100
AcDbLine
 10
-2246.299376125058
 20
2900.999683277024
 30
0.0
 11
-2246.299376125058
 21
2813.999683277026
 31
0.0
  0
LINE
  5
20A
330
1F
100
AcDbEntity
  8
0-4_枠
  6
Continuous
 62
    92
370
     5
100
AcDbLine
 10
-2249.299376125055
 20
2813.999683277026
 30
0.0
 11
-2246.299376125058
 21
2813.999683277026
 31
0.0
  0
LINE
  5
20B
330
1F
100
AcDbEntity
  8
0-4_枠
  6
Continuous
 62
    92
370
     5
100
AcDbLine
 10
-2246.299376125058
 20
2303.999683277026
 30
0.0
 11
-2246.299376125058
 21
2393.999683277026
 31
0.0
  0
LINE
  5
20C
330
1F
100
AcDbEntity
  8
0-4_枠
  6
Continuous
 62
    92
370
     5
100
AcDbLine
 10
-2246.299376125058
 20
2393.999683277026
 30
0.0
 11
-2249.299376125055
 21
2393.999683277026
 31
0.0
  0
LINE
  5
20D
330
1F
100
AcDbEntity
  8
0-4_枠
  6
Continuous
 62
    92
370
     5
100
AcDbLine
 10
-2105.298782269485
 20
2429.999683277025
 30
0.0
 11
-2069.298782269484
 21
2429.999683277025
 31
0.0
  0
LINE
  5
20E
330
1F
100
AcDbEntity
  8
0-4_枠
  6
Continuous
 62
    92
370
     5
100
AcDbLine
 10
-2072.298347393995
 20
2303.999683277026
 30
0.0
 11
-2072.298347393995
 21
2429.999683277025
 31
0.0
  0
LINE
  5
20F
330
1F
100
AcDbEntity
  8
0-4_枠
  6
Continuous
 62
    92
370
     5
100
AcDbLine
 10
-2069.298782269484
 20
2303.999683277026
 30
0.0
 11
-2069.298782269484
 21
2429.999683277025
 31
0.0
  0
LINE
  5
210
330
1F
100
AcDbEntity
  8
0-4_枠
  6
Continuous
 62
    92
370
     5
100
AcDbLine
 10
-2105.298782269485
 20
2429.999683277025
 30
0.0
 11
-2105.298782269485
 21
2675.999683277026
 31
0.0
  0
LINE
  5
211
330
1F
100
AcDbEntity
  8
0-4_枠
  6
Continuous
 62
    92
370
     5
100
AcDbLine
 10
-2105.298782269485
 20
2675.999683277026
 30
0.0
 11
-2069.298782269484
 21
2675.999683277026
 31
0.0
  0
LINE
  5
212
330
1F
100
AcDbEntity
  8
0-4_枠
  6
Continuous
 62
    92
370
     5
100
AcDbLine
 10
-2069.298782269484
 20
2891.271761215667
 30
0.0
 11
-2069.298782269484
 21
2675.999683277026
 31
0.0
  0
LINE
  5
213
330
1F
100
AcDbEntity
  8
0-4_枠
  6
Continuous
 62
    92
370
     5
100
AcDbLine
 10
-2082.026704330842
 20
2903.999683277026
 30
0.0
 11
-2249.299376125055
 21
2903.999683277026
 31
0.0
  0
LINE
  5
214
330
1F
100
AcDbEntity
  8
0-4_枠
  6
Continuous
 62
    92
370
     5
100
AcDbLine
 10
-2083.26934501796
 20
2900.999683277024
 30
0.0
 11
-2246.299376125058
 21
2900.999683277024
 31
0.0
  0
LINE
  5
215
330
1F
100
AcDbEntity
  8
0-4_枠
  6
Continuous
 62
    92
370
     5
100
AcDbLine
 10
-2072.298782269484
 20
2890.02912052855
 30
0.0
 11
-2083.26934501796
 21
2900.999683277024
 31
0.0
  0
LINE
  5
216
330
1F
100
AcDbEntity
  8
0-4_枠
  6
Continuous
 62
    92
370
     5
100
AcDbLine
 10
-2072.298782269484
 20
2890.02912052855
 30
0.0
 11
-2072.298782269484
 21
2675.999683277026
 31
0.0
  0
LINE
  5
217
330
1F
100
AcDbEntity
  8
ハッチ
  6
Continuous
 62
   120
370
     5
100
AcDbLine
 10
-1069.921363427606
 20
2408.999683277028
 30
0.0
 11
-1130.128692108087
 21
2348.792354596547
 31
0.0
  0
LINE
  5
218
330
1F
100
AcDbEntity
  8
ハッチ
  6
Continuous
 62
   120
370
     5
100
AcDbLine
 10
-990.0391124337101
 20
2420.999683277028
 30
0.0
 11
-1133.128692108067
 21
2277.910103602661
 31
0.0
  0
LINE
  5
219
330
1F
100
AcDbEntity
  8
ハッチ
  6
Continuous
 62
   120
370
     5
100
AcDbLine
 10
962.5369616504092
 20
2420.999683277028
 30
0.0
 11
958.2112655189374
 21
2416.673987145556
 31
0.0
  0
LINE
  5
21A
330
1F
100
AcDbEntity
  8
ハッチ
  6
Continuous
 62
   120
370
     5
100
AcDbLine
 10
-1125.803614421496
 20
2420.999683277028
 30
0.0
 11
-1130.128692108078
 21
2416.674605590445
 31
0.0
  0
MTEXT
  5
21B
330
1F
100
AcDbEntity
  8
0-A_文字
  6
Continuous
 62
     7
370
     5
100
AcDbMText
 10
-2578.372938983995
 20
3009.719683277027
 30
0.0
 40
91.44
 41
600.0
 46
0.0
 71
     7
 72
     1
  1
{\fＭＳ ゴシック|b0|i0|c128|p49;■横断面図}
 73
     1
 44
1.0
  0
MTEXT
  5
21C
330
1F
100
AcDbEntity
  8
0-B_寸法
  6
Continuous
 62
     7
370
     0
100
AcDbMText
 10
755.9832241535993
 20
2478.722340780722
 30
0.0
 40
91.44
 41
120.0
 46
0.0
 71
     7
 72
     1
  1
{\fＭＳ ゴシック|b0|i0|c128|p49;30}
 11
6.123031769111886E-17
 21
1.0
 31
0.0
 73
     1
 44
1.0
  0
MTEXT
  5
21D
330
1F
100
AcDbEntity
  8
0-B_寸法
  6
Continuous
 62
     7
370
     0
100
AcDbMText
 10
-734.6373324363695
 20
2472.719683277027
 30
0.0
 40
91.43999999999998
 41
540.0
 46
0.0
 71
     7
 72
     1
  1
{\fＭＳ ゴシック|b0|i0|c128|p49;ＤＷ＝810}
 73
     1
 44
1.0
  0
MTEXT
  5
21E
330
1F
100
AcDbEntity
  8
0-B_寸法
  6
Continuous
 62
     7
370
   211
100
AcDbMText
 10
898.7777672051461
 20
2330.611747119482
 30
0.0
 40
91.44
 41
180.0
 46
0.0
 71
     7
 72
     1
  1
{\fＭＳ ゴシック|b0|i0|c128|p49;6.5}
 11
6.123031769111886E-17
 21
1.0
 31
0.0
 73
     1
 44
1.0
  0
MTEXT
  5
21F
330
1F
100
AcDbEntity
  8
0-B_寸法
  6
Continuous
 62
     7
370
     0
100
AcDbMText
 10
755.9832241535993
 20
2124.719683277027
 30
0.0
 40
91.44
 41
120.0
 46
0.0
 71
     7
 72
     1
  1
{\fＭＳ ゴシック|b0|i0|c128|p49;75}
 11
6.123031769111886E-17
 21
1.0
 31
0.0
 73
     1
 44
1.0
  0
MTEXT
  5
220
330
1F
100
AcDbEntity
  8
0-B_寸法
  6
Continuous
 62
     7
370
   211
100
AcDbMText
 10
-1698.71373718878
 20
1573.529683277026
 30
0.0
 40
99.06
 41
195.0
 46
0.0
 71
     7
 72
     1
  1
{\fＭＳ ゴシック|b0|i0|c128|p49;777}
 73
     1
 44
1.0
  0
MTEXT
  5
221
330
1F
100
AcDbEntity
  8
0-B_寸法
  6
Continuous
 62
     7
370
   211
100
AcDbMText
 10
-1106.878692108065
 20
1572.577183277026
 30
0.0
 40
97.15499999999999
 41
127.5
 46
0.0
 71
     7
 72
     1
  1
{\fＭＳ ゴシック|b0|i0|c128|p49;30}
 73
     1
 44
1.0
  0
MTEXT
  5
222
330
1F
100
AcDbEntity
  8
0-B_寸法
  6
Continuous
 62
     7
370
   211
100
AcDbMText
 10
-636.458601946644
 20
1575.133893803342
 30
0.0
 40
102.2684210526316
 41
1275.0
 46
0.0
 71
     7
 72
     1
  1
{\fＭＳ ゴシック|b0|i0|c128|p49;有効開口寸法＝1,560}
 73
     1
 44
1.0
  0
MTEXT
  5
223
330
1F
100
AcDbEntity
  8
0-B_寸法
  6
Continuous
 62
     7
370
   211
100
AcDbMText
 10
981.4614882147772
 20
1572.577183277026
 30
0.0
 40
97.15499999999999
 41
127.5
 46
0.0
 71
     7
 72
     1
  1
{\fＭＳ ゴシック|b0|i0|c128|p49;30}
 73
     1
 44
1.0
  0
MTEXT
  5
224
330
1F
100
AcDbEntity
  8
0-B_寸法
  6
Continuous
 62
     7
370
   211
100
AcDbMText
 10
1505.79653329549
 20
1573.529683277026
 30
0.0
 40
99.06
 41
195.0
 46
0.0
 71
     7
 72
     1
  1
{\fＭＳ ゴシック|b0|i0|c128|p49;777}
 73
     1
 44
1.0
  0
MTEXT
  5
225
330
1F
100
AcDbEntity
  8
0-B_寸法
  6
Continuous
 62
     7
370
   211
100
AcDbMText
 10
-2223.048782269494
 20
1362.577183277026
 30
0.0
 40
97.15499999999999
 41
127.5
 46
0.0
 71
     7
 72
     1
  1
{\fＭＳ ゴシック|b0|i0|c128|p49;30}
 73
     1
 44
1.0
  0
MTEXT
  5
226
330
1F
100
AcDbEntity
  8
0-B_寸法
  6
Continuous
 62
     7
370
   211
100
AcDbMText
 10
-366.458601946644
 20
1364.91513782248
 30
0.0
 40
101.8309090909091
 41
735.0
 46
0.0
 71
     7
 72
     1
  1
{\fＭＳ ゴシック|b0|i0|c128|p49;枠内＝3,174}
 73
     1
 44
1.0
  0
MTEXT
  5
227
330
1F
100
AcDbEntity
  8
0-B_寸法
  6
Continuous
 62
     7
370
   211
100
AcDbMText
 10
2097.631578376203
 20
1362.577183277026
 30
0.0
 40
97.15499999999999
 41
127.5
 46
0.0
 71
     7
 72
     1
  1
{\fＭＳ ゴシック|b0|i0|c128|p49;30}
 73
     1
 44
1.0
  0
MTEXT
  5
228
330
1F
100
AcDbEntity
  8
0-B_寸法
  6
Continuous
 62
     7
370
   211
100
AcDbMText
 10
-366.458601946644
 20
1154.91513782248
 30
0.0
 40
101.8309090909091
 41
735.0
 46
0.0
 71
     7
 72
     1
  1
{\fＭＳ ゴシック|b0|i0|c128|p49;枠外＝3,234}
 73
     1
 44
1.0
  0
MTEXT
  5
229
330
1F
100
AcDbEntity
  8
0-A_文字
  6
Continuous
 62
    92
370
     5
100
AcDbMText
 10
-5558.749495325862
 20
3758.986262536951
 30
0.0
 40
147.9721621621622
 41
3592.5
 46
0.0
 71
     7
 72
     1
  1
{\fＭＳ ゴシック|b0|i0|c128|p49;引き分け戸　上吊りタイプ　固定枠155巾}
 73
     1
 44
1.0
  0
LINE
  5
22A
330
1F
100
AcDbEntity
  8
0-A_文字
  6
Continuous
 62
    92
370
     5
100
AcDbLine
 10
-5659.999495325861
 20
3730.00018145587
 30
0.0
 11
-1878.571428571428
 21
3730.00018145587
 31
0.0
  0
LINE
  5
22B
330
1F
100
AcDbEntity
  8
0-A_文字
  6
Continuous
 62
    92
370
     5
100
AcDbLine
 10
-5659.999495325861
 20
4000.00018145587
 30
0.0
 11
-1878.571428571428
 21
4000.00018145587
 31
0.0
  0
LINE
  5
22C
330
1F
100
AcDbEntity
  8
0-A_文字
  6
Continuous
 62
    92
370
     5
100
AcDbLine
 10
-1878.571428571428
 20
3730.00018145587
 30
0.0
 11
-1878.571428571428
 21
4000.00018145587
 31
0.0
  0
LINE
  5
22D
330
1F
100
AcDbEntity
  8
1-0_補助線
  6
JWW_HOJO
 62
   120
370
     5
100
AcDbLine
 10
594.9181716835622
 20
-1816.155803330815
 30
0.0
 11
-106.3318283164821
 21
-1816.155803330815
 31
0.0
  0
LINE
  5
22E
330
1F
100
AcDbEntity
  8
1-B_ﾊｯﾁ
  6
Continuous
 62
   120
370
     5
100
AcDbLine
 10
69.9181716835622
 20
-876.4888920769263
 30
0.0
 11
69.9181716835622
 21
-1026.488892076926
 31
0.0
  0
LWPOLYLINE
  5
22F
330
1F
100
AcDbEntity
  8
1-B_ﾊｯﾁ
  6
Continuous
 62
     7
370
     5
100
AcDbPolyline
 90
        4
 70
     1
 43
3.0
 10
71.4181716835622
 20
-876.4888920769263
 42
0.4142135623731
 10
69.9181716835622
 20
-874.9888920769263
 42
0.4142135623731
 10
68.4181716835622
 20
-876.4888920769263
 42
0.4142135623731
 10
69.9181716835622
 20
-877.9888920769264
 42
0.4142135623731
  0
LINE
  5
230
330
1F
100
AcDbEntity
  8
1-B_ﾊｯﾁ
  6
Continuous
 62
   120
370
     5
100
AcDbLine
 10
-27.58182831641733
 20
-876.4888920769263
 30
0.0
 11
69.9181716835622
 21
-876.4888920769263
 31
0.0
  0
LINE
  5
231
330
1F
100
AcDbEntity
  8
1-B_ﾊｯﾁ
  6
Continuous
 62
   120
370
     5
100
AcDbLine
 10
-27.58182831641733
 20
-876.4888920769263
 30
0.0
 11
-27.58182831641733
 21
-1026.488892076926
 31
0.0
  0
LINE
  5
232
330
1F
100
AcDbEntity
  8
1-B_ﾊｯﾁ
  6
Continuous
 62
   120
370
     5
100
AcDbLine
 10
-1152.581828316417
 20
-876.4888920769263
 30
0.0
 11
-1152.581828316417
 21
-1026.488892076926
 31
0.0
  0
LWPOLYLINE
  5
233
330
1F
100
AcDbEntity
  8
1-B_ﾊｯﾁ
  6
Continuous
 62
     7
370
     5
100
AcDbPolyline
 90
        4
 70
     1
 43
3.0
 10
-26.08182831641733
 20
-876.4888920769263
 42
0.4142135623731
 10
-27.58182831641733
 20
-874.9888920769263
 42
0.4142135623731
 10
-29.08182831641733
 20
-876.4888920769263
 42
0.4142135623731
 10
-27.58182831641733
 20
-877.9888920769264
 42
0.4142135623731
  0
LWPOLYLINE
  5
234
330
1F
100
AcDbEntity
  8
1-B_ﾊｯﾁ
  6
Continuous
 62
     7
370
     5
100
AcDbPolyline
 90
        4
 70
     1
 43
3.0
 10
-1151.081828316417
 20
-876.4888920769263
 42
0.4142135623731
 10
-1152.581828316417
 20
-874.9888920769263
 42
0.4142135623731
 10
-1154.081828316417
 20
-876.4888920769263
 42
0.4142135623731
 10
-1152.581828316417
 20
-877.9888920769264
 42
0.4142135623731
  0
LINE
  5
235
330
1F
100
AcDbEntity
  8
1-B_ﾊｯﾁ
  6
Continuous
 62
   120
370
     5
100
AcDbLine
 10
-1152.581828316417
 20
-876.4888920769263
 30
0.0
 11
-27.58182831641733
 21
-876.4888920769263
 31
0.0
  0
LINE
  5
236
330
1F
100
AcDbEntity
  8
1-0_補助線
  6
JWW_HOJO
 62
   120
370
     5
100
AcDbLine
 10
69.9181716835622
 20
-1816.155803330815
 30
0.0
 11
69.9181716835622
 21
-2468.655287649506
 31
0.0
  0
LINE
  5
237
330
1F
100
AcDbEntity
  8
1-0_補助線
  6
JWW_HOJO
 62
   120
370
     5
100
AcDbLine
 10
-106.3318283164821
 20
-1816.155803330815
 30
0.0
 11
-106.3318283164821
 21
-2468.655287649506
 31
0.0
  0
LINE
  5
238
330
1F
100
AcDbEntity
  8
1-6_扉
  6
JWW_DASHED2
 62
     7
370
     5
100
AcDbLine
 10
519.9181716835622
 20
-483.9103996822766
 30
0.0
 11
519.9181716835622
 21
-2161.155803330817
 31
0.0
  0
LINE
  5
239
330
1F
100
AcDbEntity
  8
1-B_ﾊｯﾁ
  6
Continuous
 62
   120
370
     5
100
AcDbLine
 10
894.9181716835622
 20
-2288.655803330818
 30
0.0
 11
894.9181716835622
 21
-1970.096364289635
 31
0.0
  0
LINE
  5
23A
330
1F
100
AcDbEntity
  8
1-B_ﾊｯﾁ
  6
Continuous
 62
   120
370
     5
100
AcDbLine
 10
744.9181716835622
 20
-2243.655803330818
 30
0.0
 11
744.9181716835622
 21
-1970.096364289635
 31
0.0
  0
LINE
  5
23B
330
1F
100
AcDbEntity
  8
1-B_ﾊｯﾁ
  6
Continuous
 62
   120
370
     5
100
AcDbLine
 10
894.9181716835622
 20
-2161.155803330817
 30
0.0
 11
594.9181716835622
 21
-2161.155803330817
 31
0.0
  0
LWPOLYLINE
  5
23C
330
1F
100
AcDbEntity
  8
1-B_ﾊｯﾁ
  6
Continuous
 62
     7
370
     5
100
AcDbPolyline
 90
        4
 70
     1
 43
3.0
 10
896.4181716835623
 20
-2161.155803330817
 42
0.4142135623731
 10
894.9181716835622
 20
-2159.655803330817
 42
0.4142135623731
 10
893.4181716835622
 20
-2161.155803330817
 42
0.4142135623731
 10
894.9181716835622
 20
-2162.655803330817
 42
0.4142135623731
  0
LINE
  5
23D
330
1F
100
AcDbEntity
  8
1-B_ﾊｯﾁ
  6
Continuous
 62
   120
370
     5
100
AcDbLine
 10
894.9181716835622
 20
-2288.655803330818
 30
0.0
 11
594.9181716835622
 21
-2288.655803330818
 31
0.0
  0
LINE
  5
23E
330
1F
100
AcDbEntity
  8
1-B_ﾊｯﾁ
  6
Continuous
 62
   120
370
     5
100
AcDbLine
 10
894.9181716835622
 20
-2468.655803330817
 30
0.0
 11
594.9181716835622
 21
-2468.655803330817
 31
0.0
  0
LWPOLYLINE
  5
23F
330
1F
100
AcDbEntity
  8
1-B_ﾊｯﾁ
  6
Continuous
 62
     7
370
     5
100
AcDbPolyline
 90
        4
 70
     1
 43
3.0
 10
896.4181716835623
 20
-2288.655803330818
 42
0.4142135623731
 10
894.9181716835622
 20
-2287.155803330818
 42
0.4142135623731
 10
893.4181716835622
 20
-2288.655803330818
 42
0.4142135623731
 10
894.9181716835622
 20
-2290.155803330818
 42
0.4142135623731
  0
LWPOLYLINE
  5
240
330
1F
100
AcDbEntity
  8
1-B_ﾊｯﾁ
  6
Continuous
 62
     7
370
     5
100
AcDbPolyline
 90
        4
 70
     1
 43
3.0
 10
896.4181716835623
 20
-2468.655803330817
 42
0.4142135623731
 10
894.9181716835622
 20
-2467.155803330817
 42
0.4142135623731
 10
893.4181716835622
 20
-2468.655803330817
 42
0.4142135623731
 10
894.9181716835622
 20
-2470.155803330817
 42
0.4142135623731
  0
LINE
  5
241
330
1F
100
AcDbEntity
  8
1-B_ﾊｯﾁ
  6
Continuous
 62
   120
370
     5
100
AcDbLine
 10
894.9181716835622
 20
-2468.655803330817
 30
0.0
 11
894.9181716835622
 21
-2288.655803330818
 31
0.0
  0
LWPOLYLINE
  5
242
330
1F
100
AcDbEntity
  8
1-B_ﾊｯﾁ
  6
Continuous
 62
     7
370
     5
100
AcDbPolyline
 90
        4
 70
     1
 43
3.0
 10
746.4181716835623
 20
-2161.155803330817
 42
0.4142135623731
 10
744.9181716835622
 20
-2159.655803330817
 42
0.4142135623731
 10
743.4181716835622
 20
-2161.155803330817
 42
0.4142135623731
 10
744.9181716835622
 20
-2162.655803330817
 42
0.4142135623731
  0
LINE
  5
243
330
1F
100
AcDbEntity
  8
1-B_ﾊｯﾁ
  6
Continuous
 62
   120
370
     5
100
AcDbLine
 10
744.9181716835622
 20
-2243.655803330818
 30
0.0
 11
594.9181716835622
 21
-2243.655803330818
 31
0.0
  0
LWPOLYLINE
  5
244
330
1F
100
AcDbEntity
  8
1-B_ﾊｯﾁ
  6
Continuous
 62
     7
370
     5
100
AcDbPolyline
 90
        4
 70
     1
 43
3.0
 10
746.4181716835623
 20
-2243.655803330818
 42
0.4142135623731
 10
744.9181716835622
 20
-2242.155803330818
 42
0.4142135623731
 10
743.4181716835622
 20
-2243.655803330818
 42
0.4142135623731
 10
744.9181716835622
 20
-2245.155803330818
 42
0.4142135623731
  0
LWPOLYLINE
  5
245
330
1F
100
AcDbEntity
  8
1-B_ﾊｯﾁ
  6
Continuous
 62
     7
370
     5
100
AcDbPolyline
 90
        4
 70
     1
 43
3.0
 10
746.4181716835623
 20
-2288.655803330818
 42
0.4142135623731
 10
744.9181716835622
 20
-2287.155803330818
 42
0.4142135623731
 10
743.4181716835622
 20
-2288.655803330818
 42
0.4142135623731
 10
744.9181716835622
 20
-2290.155803330818
 42
0.4142135623731
  0
LINE
  5
246
330
1F
100
AcDbEntity
  8
1-B_ﾊｯﾁ
  6
Continuous
 62
   120
370
     5
100
AcDbLine
 10
744.9181716835622
 20
-2288.655803330818
 30
0.0
 11
744.9181716835622
 21
-2243.655803330818
 31
0.0
  0
LINE
  5
247
330
1F
100
AcDbEntity
  8
1-4_枠
  6
Continuous
 62
    92
370
     5
100
AcDbLine
 10
-1152.581828316417
 20
-483.9103996822766
 30
0.0
 11
-1152.581828316417
 21
-2288.655803330814
 31
0.0
  0
LWPOLYLINE
  5
248
330
1F
100
AcDbEntity
  8
1-B_ﾊｯﾁ
  6
Continuous
 62
     7
370
     5
100
AcDbPolyline
 90
        4
 70
     1
 43
3.0
 10
1173.918171683583
 20
-696.4888920769263
 42
0.4142135623731
 10
1172.418171683583
 20
-694.9888920769263
 42
0.4142135623731
 10
1170.918171683583
 20
-696.4888920769263
 42
0.4142135623731
 10
1172.418171683583
 20
-697.9888920769264
 42
0.4142135623731
  0
LINE
  5
249
330
1F
100
AcDbEntity
  8
1-4_枠
  6
Continuous
 62
    92
370
     5
100
AcDbLine
 10
1172.418171683583
 20
-483.9103996822766
 30
0.0
 11
1172.418171683583
 21
-2288.655803330814
 31
0.0
  0
LINE
  5
24A
330
1F
100
AcDbEntity
  8
0-A_文字
  6
Continuous
 62
    92
370
     5
100
AcDbLine
 10
1644.918171683584
 20
8.99980204814426
 30
0.0
 11
1644.918171683584
 21
-2811.000403945507
 31
0.0
  0
LINE
  5
24B
330
1F
100
AcDbEntity
  8
0-A_文字
  6
Continuous
 62
    92
370
     5
100
AcDbLine
 10
-1625.081828316416
 20
-2811.000403945507
 30
0.0
 11
1644.918171683584
 21
-2811.000403945507
 31
0.0
  0
LINE
  5
24C
330
1F
100
AcDbEntity
  8
0-A_文字
  6
Continuous
 62
    92
370
     5
100
AcDbLine
 10
-1625.081828316416
 20
8.99980204814426
 30
0.0
 11
1644.918171683584
 21
8.99980204814426
 31
0.0
  0
LINE
  5
24D
330
1F
100
AcDbEntity
  8
0-A_文字
  6
Continuous
 62
    92
370
     5
100
AcDbLine
 10
-1625.081828316416
 20
-171.0001979518557
 30
0.0
 11
1644.918171683584
 21
-171.0001979518557
 31
0.0
  0
LINE
  5
24E
330
1F
100
AcDbEntity
  8
1-3_仕上
  6
Continuous
 62
    40
370
     5
100
AcDbLine
 10
-1346.119533947855
 20
-2468.655803330812
 30
0.0
 11
1356.844512686858
 21
-2468.655803330812
 31
0.0
  0
LINE
  5
24F
330
1F
100
AcDbEntity
  8
1-3_仕上
  6
Continuous
 62
    40
370
     5
100
AcDbLine
 10
-1346.119533947855
 20
-2288.655803330814
 30
0.0
 11
1356.844512686858
 21
-2288.655803330814
 31
0.0
  0
LINE
  5
250
330
1F
100
AcDbEntity
  8
1-0_補助線
  6
JWW_HOJO
 62
   120
370
     5
100
AcDbLine
 10
294.9181716835878
 20
-483.9103996822766
 30
0.0
 11
294.9181716835878
 21
-2468.655803330812
 31
0.0
  0
LINE
  5
251
330
1F
100
AcDbEntity
  8
1-6_扉
  6
JWW_DASHED2
 62
     7
370
     5
100
AcDbLine
 10
69.9181716835622
 20
-483.9103996822766
 30
0.0
 11
69.9181716835622
 21
-2161.155803330817
 31
0.0
  0
LINE
  5
252
330
1F
100
AcDbEntity
  8
1-0_補助線
  6
JWW_HOJO
 62
   120
370
     5
100
AcDbLine
 10
594.9181716835622
 20
-1816.155803330815
 30
0.0
 11
594.9181716835622
 21
-2468.655287649506
 31
0.0
  0
LINE
  5
253
330
1F
100
AcDbEntity
  8
1-0_補助線
  6
JWW_HOJO
 62
   120
370
     5
100
AcDbLine
 10
418.6681716835605
 20
-1816.155803330815
 30
0.0
 11
418.6681716835605
 21
-2468.655287649506
 31
0.0
  0
LINE
  5
254
330
1F
100
AcDbEntity
  8
1-1_通り芯
  6
JWW_CENTER1
 62
   120
370
     5
100
AcDbLine
 10
9.91817168358267
 20
-455.1136554613475
 30
0.0
 11
9.91817168358267
 21
-2602.737142997799
 31
0.0
  0
LWPOLYLINE
  5
255
330
1F
100
AcDbEntity
  8
1-B_ﾊｯﾁ
  6
Continuous
 62
     7
370
     5
100
AcDbPolyline
 90
        4
 70
     1
 43
3.0
 10
-1151.081828316417
 20
-696.4888920769263
 42
0.4142135623731
 10
-1152.581828316417
 20
-694.9888920769263
 42
0.4142135623731
 10
-1154.081828316417
 20
-696.4888920769263
 42
0.4142135623731
 10
-1152.581828316417
 20
-697.9888920769264
 42
0.4142135623731
  0
LINE
  5
256
330
1F
100
AcDbEntity
  8
0-A_文字
  6
Continuous
 62
    92
370
     5
100
AcDbLine
 10
-1625.081828316416
 20
-2811.000403945507
 30
0.0
 11
-1625.081828316416
 21
8.99980204814426
 31
0.0
  0
LINE
  5
257
330
1F
100
AcDbEntity
  8
1-B_ﾊｯﾁ
  6
Continuous
 62
   120
370
     5
100
AcDbLine
 10
-1152.581828316417
 20
-696.4888920769263
 30
0.0
 11
1172.418171683583
 21
-696.4888920769263
 31
0.0
  0
LINE
  5
258
330
1F
100
AcDbEntity
  8
1-4_枠
  6
Continuous
 62
    92
370
     5
100
AcDbLine
 10
-27.58182831641733
 20
-483.9103996822766
 30
0.0
 11
-27.58182831641733
 21
-2288.655803330814
 31
0.0
  0
LINE
  5
259
330
1F
100
AcDbEntity
  8
1-6_扉
  6
JWW_DASHED2
 62
     7
370
     5
100
AcDbLine
 10
246.1660545265968
 20
-2161.155803330813
 30
0.0
 11
246.1660545265968
 21
-1891.155803330813
 31
0.0
  0
LINE
  5
25A
330
1F
100
AcDbEntity
  8
1-6_扉
  6
JWW_DASHED2
 62
     7
370
     5
100
AcDbLine
 10
343.6681716835801
 20
-1891.155803330813
 30
0.0
 11
343.6681716835801
 21
-2161.155803330813
 31
0.0
  0
LINE
  5
25B
330
1F
100
AcDbEntity
  8
1-6_扉
  6
JWW_DASHED2
 62
     7
370
     5
100
AcDbLine
 10
343.6681716835801
 20
-1891.155803330813
 30
0.0
 11
246.1660545265968
 21
-1891.155803330813
 31
0.0
  0
LINE
  5
25C
330
1F
100
AcDbEntity
  8
1-6_扉
  6
JWW_DASHED2
 62
     7
370
     5
100
AcDbLine
 10
246.1639373696127
 20
-2161.155803330813
 30
0.0
 11
69.91817168358438
 21
-2161.155803330813
 31
0.0
  0
LINE
  5
25D
330
1F
100
AcDbEntity
  8
1-7_金物
  6
Continuous
 62
   120
370
     5
100
AcDbLine
 10
279.8261467344344
 20
-2288.044354796351
 30
0.0
 11
316.8203255724205
 21
-2251.050175958357
 31
0.0
  0
LINE
  5
25E
330
1F
100
AcDbEntity
  8
1-7_金物
  6
Continuous
 62
   120
370
     5
100
AcDbLine
 10
215.5750878930985
 20
-2288.65580333079
 30
0.0
 11
260.573595174908
 21
-2243.657296048989
 31
0.0
  0
LINE
  5
25F
330
1F
100
AcDbEntity
  8
1-7_金物
  6
Continuous
 62
   120
370
     5
100
AcDbLine
 10
272.4203317558658
 20
-2231.810559468021
 30
0.0
 11
317.4203317559017
 21
-2186.810559467998
 31
0.0
  0
LINE
  5
260
330
1F
100
AcDbEntity
  8
1-7_金物
  6
Continuous
 62
   120
370
     5
100
AcDbLine
 10
151.9354775863445
 20
-2288.655803330812
 30
0.0
 11
196.9339848681284
 21
-2243.657296049015
 31
0.0
  0
LINE
  5
261
330
1F
100
AcDbEntity
  8
1-7_金物
  6
Continuous
 62
   120
370
     5
100
AcDbLine
 10
272.4203317558914
 20
-2168.170949161258
 30
0.0
 11
317.4203317559102
 21
-2123.170949161244
 31
0.0
  0
LINE
  5
262
330
1F
100
AcDbEntity
  8
1-7_金物
  6
Continuous
 62
   120
370
     5
100
AcDbLine
 10
88.29586727959054
 20
-2288.65580333082
 30
0.0
 11
133.2943745613659
 21
-2243.65729604904
 31
0.0
  0
LINE
  5
263
330
1F
100
AcDbEntity
  8
1-7_金物
  6
Continuous
 62
   120
370
     5
100
AcDbLine
 10
272.420331755917
 20
-2104.531338854491
 30
0.0
 11
317.4203317559272
 21
-2059.531338854479
 31
0.0
  0
LINE
  5
264
330
1F
100
AcDbEntity
  8
1-7_金物
  6
Continuous
 62
   120
370
     5
100
AcDbLine
 10
272.4203317559
 20
-2040.891728547631
 30
0.0
 11
317.4203317559187
 21
-1995.891728547608
 31
0.0
  0
LINE
  5
265
330
1F
100
AcDbEntity
  8
1-7_金物
  6
Continuous
 62
   120
370
     5
100
AcDbLine
 10
47.42033175587864
 20
-2265.891728547644
 30
0.0
 11
69.65476425452664
 21
-2243.657296048996
 31
0.0
  0
LINE
  5
266
330
1F
100
AcDbEntity
  8
1-7_金物
  6
Continuous
 62
     7
370
     5
100
AcDbLine
 10
246.1703317558812
 20
-2161.155803330817
 30
0.0
 11
246.1703317558812
 21
-1891.155803330817
 31
0.0
  0
LINE
  5
267
330
1F
100
AcDbEntity
  8
1-7_金物
  6
Continuous
 62
     7
370
     5
100
AcDbLine
 10
201.1703317558795
 20
-2161.155803330817
 30
0.0
 11
246.1703317558812
 21
-2161.155803330817
 31
0.0
  0
LINE
  5
268
330
1F
100
AcDbEntity
  8
1-7_金物
  6
Continuous
 62
     7
370
     5
100
AcDbLine
 10
201.1703317558795
 20
-2176.155803330814
 30
0.0
 11
201.1703317558795
 21
-2161.155803330817
 31
0.0
  0
LINE
  5
269
330
1F
100
AcDbEntity
  8
1-7_金物
  6
Continuous
 62
     7
370
     5
100
AcDbLine
 10
261.1703317558846
 20
-2176.155803330814
 30
0.0
 11
261.1703317558846
 21
-1906.155803330816
 31
0.0
  0
LINE
  5
26A
330
1F
100
AcDbEntity
  8
1-7_金物
  6
Continuous
 62
     7
370
     5
100
AcDbLine
 10
261.1703317558846
 20
-2176.155803330814
 30
0.0
 11
201.1703317558795
 21
-2176.155803330814
 31
0.0
  0
LINE
  5
26B
330
1F
100
AcDbEntity
  8
1-7_金物
  6
Continuous
 62
     7
370
     5
100
AcDbLine
 10
343.670331755882
 20
-1891.155803330817
 30
0.0
 11
343.670331755882
 21
-2161.155803330817
 31
0.0
  0
LINE
  5
26C
330
1F
100
AcDbEntity
  8
1-7_金物
  6
Continuous
 62
     7
370
     5
100
AcDbLine
 10
328.6703317558786
 20
-1906.155803330816
 30
0.0
 11
328.6703317558786
 21
-2176.155803330814
 31
0.0
  0
LINE
  5
26D
330
1F
100
AcDbEntity
  8
1-7_金物
  6
Continuous
 62
     7
370
     5
100
AcDbLine
 10
246.1703317558812
 20
-1891.155803330817
 30
0.0
 11
343.670331755882
 21
-1891.155803330817
 31
0.0
  0
LINE
  5
26E
330
1F
100
AcDbEntity
  8
1-7_金物
  6
Continuous
 62
     7
370
     5
100
AcDbLine
 10
328.6703317558786
 20
-1906.155803330816
 30
0.0
 11
261.1703317558846
 21
-1906.155803330816
 31
0.0
  0
LINE
  5
26F
330
1F
100
AcDbEntity
  8
1-7_金物
  6
Continuous
 62
     7
370
     5
100
AcDbLine
 10
328.6703317558786
 20
-2176.155803330814
 30
0.0
 11
388.6703317558795
 21
-2176.155803330814
 31
0.0
  0
LINE
  5
270
330
1F
100
AcDbEntity
  8
1-7_金物
  6
Continuous
 62
     7
370
     5
100
AcDbLine
 10
388.6703317558795
 20
-2161.155803330817
 30
0.0
 11
388.6703317558795
 21
-2176.155803330814
 31
0.0
  0
LINE
  5
271
330
1F
100
AcDbEntity
  8
1-7_金物
  6
Continuous
 62
     7
370
     5
100
AcDbLine
 10
343.670331755882
 20
-2161.155803330817
 30
0.0
 11
388.6703317558795
 21
-2161.155803330817
 31
0.0
  0
LINE
  5
272
330
1F
100
AcDbEntity
  8
1-7_金物
  6
Continuous
 62
    92
370
     5
100
AcDbLine
 10
47.42033175587864
 20
-2243.655803330814
 30
0.0
 11
47.42033175587864
 21
-2288.655803330814
 31
0.0
  0
LINE
  5
273
330
1F
100
AcDbEntity
  8
1-7_金物
  6
Continuous
 62
    92
370
     5
100
AcDbLine
 10
47.42033175587864
 20
-2243.655803330814
 30
0.0
 11
272.4203317559025
 21
-2243.655803330814
 31
0.0
  0
LINE
  5
274
330
1F
100
AcDbEntity
  8
1-7_金物
  6
Continuous
 62
    92
370
     5
100
AcDbLine
 10
272.4203317559025
 20
-1988.655803330814
 30
0.0
 11
317.4203317559017
 21
-1988.655803330814
 31
0.0
  0
LINE
  5
275
330
1F
100
AcDbEntity
  8
1-7_金物
  6
Continuous
 62
    92
370
     5
100
AcDbLine
 10
272.4203317559025
 20
-1988.655803330814
 30
0.0
 11
272.4203317559025
 21
-2243.655803330814
 31
0.0
  0
LINE
  5
276
330
1F
100
AcDbEntity
  8
1-7_金物
  6
Continuous
 62
    92
370
     5
100
AcDbLine
 10
272.4203317559025
 20
-2288.655803330814
 30
0.0
 11
47.42033175587864
 21
-2288.655803330814
 31
0.0
  0
LINE
  5
277
330
1F
100
AcDbEntity
  8
1-7_金物
  6
Continuous
 62
    92
370
     5
100
AcDbLine
 10
317.4203317559017
 20
-2243.655803330814
 30
0.0
 11
317.4203317559017
 21
-1988.655803330814
 31
0.0
  0
ARC
  5
278
330
1F
100
AcDbEntity
  8
1-7_金物
  6
Continuous
 62
    92
370
     5
100
AcDbCircle
 10
272.4203317559025
 20
-2243.655803330814
 30
0.0
 40
45.0
100
AcDbArc
 50
270.0
 51
0.0
  0
LINE
  5
279
330
1F
100
AcDbEntity
  8
1-6_扉
  6
JWW_DASHED2
 62
     7
370
     5
100
AcDbLine
 10
343.6660116112586
 20
-2161.155803330813
 30
0.0
 11
519.9181716835844
 21
-2161.155803330813
 31
0.0
  0
LINE
  5
27A
330
1F
100
AcDbEntity
  8
1-A_寸法
  6
Continuous
 62
     7
370
     5
100
AcDbLine
 10
-114.5352338545939
 20
-2604.972886088489
 30
0.0
 11
-189.5352338545939
 21
-2604.972886088489
 31
0.0
  0
LINE
  5
27B
330
1F
100
AcDbEntity
  8
1-A_寸法
  6
Continuous
 62
     7
370
     5
100
AcDbLine
 10
79.21578771107193
 20
-2269.386272718384
 30
0.0
 11
-114.5352338545939
 21
-2604.972886088489
 31
0.0
  0
LINE
  5
27C
330
1F
100
AcDbEntity
  8
1-B_ﾊｯﾁ
  6
Continuous
 62
   120
370
     5
100
AcDbLine
 10
317.4203317559025
 20
-1666.155803330813
 30
0.0
 11
47.42033175587864
 21
-1666.155803330813
 31
0.0
  0
LWPOLYLINE
  5
27D
330
1F
100
AcDbEntity
  8
1-B_ﾊｯﾁ
  6
Continuous
 62
     7
370
     5
100
AcDbPolyline
 90
        4
 70
     1
 43
3.0
 10
318.9203317559025
 20
-1666.155803330813
 42
0.4142135623731
 10
317.4203317559025
 20
-1664.655803330813
 42
0.4142135623731
 10
315.9203317559025
 20
-1666.155803330813
 42
0.4142135623731
 10
317.4203317559025
 20
-1667.655803330813
 42
0.4142135623731
  0
LWPOLYLINE
  5
27E
330
1F
100
AcDbEntity
  8
1-B_ﾊｯﾁ
  6
Continuous
 62
     7
370
     5
100
AcDbPolyline
 90
        4
 70
     1
 43
3.0
 10
48.92033175587864
 20
-1666.155803330813
 42
0.4142135623731
 10
47.42033175587864
 20
-1664.655803330813
 42
0.4142135623731
 10
45.92033175587864
 20
-1666.155803330813
 42
0.4142135623731
 10
47.42033175587864
 20
-1667.655803330813
 42
0.4142135623731
  0
LINE
  5
27F
330
1F
100
AcDbEntity
  8
1-B_ﾊｯﾁ
  6
Continuous
 62
   120
370
     5
100
AcDbLine
 10
317.4203317559025
 20
-1666.155803330813
 30
0.0
 11
317.4203317559025
 21
-1816.155803330813
 31
0.0
  0
LINE
  5
280
330
1F
100
AcDbEntity
  8
1-B_ﾊｯﾁ
  6
Continuous
 62
   120
370
     5
100
AcDbLine
 10
47.42033175587864
 20
-1666.155803330813
 30
0.0
 11
47.42033175587864
 21
-1816.155803330813
 31
0.0
  0
LINE
  5
281
330
1F
100
AcDbEntity
  8
1-B_ﾊｯﾁ
  6
Continuous
 62
   120
370
     5
100
AcDbLine
 10
47.42033175587864
 20
-1666.155803330813
 30
0.0
 11
-27.58182831641733
 21
-1666.155803330813
 31
0.0
  0
LWPOLYLINE
  5
282
330
1F
100
AcDbEntity
  8
1-B_ﾊｯﾁ
  6
Continuous
 62
     7
370
     5
100
AcDbPolyline
 90
        4
 70
     1
 43
3.0
 10
-26.08182831641733
 20
-1666.155803330813
 42
0.4142135623731
 10
-27.58182831641733
 20
-1664.655803330813
 42
0.4142135623731
 10
-29.08182831641733
 20
-1666.155803330813
 42
0.4142135623731
 10
-27.58182831641733
 20
-1667.655803330813
 42
0.4142135623731
  0
LINE
  5
283
330
1F
100
AcDbEntity
  8
1-B_ﾊｯﾁ
  6
Continuous
 62
   120
370
     5
100
AcDbLine
 10
-27.58182831641733
 20
-1666.155803330813
 30
0.0
 11
-27.58182831641733
 21
-1816.155803330813
 31
0.0
  0
LWPOLYLINE
  5
284
330
1F
100
AcDbEntity
  8
1-B_ﾊｯﾁ
  6
Continuous
 62
     7
370
     5
100
AcDbPolyline
 90
        4
 70
     1
 43
3.0
 10
-198.0098649221401
 20
-2288.655803330814
 42
0.4142135623731
 10
-199.5098649221401
 20
-2287.155803330814
 42
0.4142135623731
 10
-201.0098649221401
 20
-2288.655803330814
 42
0.4142135623731
 10
-199.5098649221401
 20
-2290.155803330814
 42
0.4142135623731
  0
LINE
  5
285
330
1F
100
AcDbEntity
  8
1-B_ﾊｯﾁ
  6
Continuous
 62
   120
370
     5
100
AcDbLine
 10
-199.5098649221401
 20
-2288.655803330814
 30
0.0
 11
-106.3318283164821
 21
-2288.655803330814
 31
0.0
  0
LINE
  5
286
330
1F
100
AcDbEntity
  8
1-B_ﾊｯﾁ
  6
Continuous
 62
   120
370
     5
100
AcDbLine
 10
-199.5098649221401
 20
-2288.655803330814
 30
0.0
 11
-199.5098649221401
 21
-1988.655803330814
 31
0.0
  0
LWPOLYLINE
  5
287
330
1F
100
AcDbEntity
  8
1-B_ﾊｯﾁ
  6
Continuous
 62
     7
370
     5
100
AcDbPolyline
 90
        4
 70
     1
 43
3.0
 10
-198.0098649221401
 20
-1988.655803330814
 42
0.4142135623731
 10
-199.5098649221401
 20
-1987.155803330814
 42
0.4142135623731
 10
-201.0098649221401
 20
-1988.655803330814
 42
0.4142135623731
 10
-199.5098649221401
 20
-1990.155803330814
 42
0.4142135623731
  0
LINE
  5
288
330
1F
100
AcDbEntity
  8
1-B_ﾊｯﾁ
  6
Continuous
 62
   120
370
     5
100
AcDbLine
 10
-199.5098649221401
 20
-1988.655803330814
 30
0.0
 11
-106.3318283164821
 21
-1988.655803330814
 31
0.0
  0
LINE
  5
289
330
1F
100
AcDbEntity
  8
1-B_ﾊｯﾁ
  6
Continuous
 62
   120
370
     5
100
AcDbLine
 10
-358.0068914828107
 20
-2161.155803330814
 30
0.0
 11
-215.3280229304008
 21
-2161.155803330814
 31
0.0
  0
LINE
  5
28A
330
1F
100
AcDbEntity
  8
1-B_ﾊｯﾁ
  6
Continuous
 62
   120
370
     5
100
AcDbLine
 10
-358.0068914828107
 20
-1891.155803330814
 30
0.0
 11
-106.3318283164821
 21
-1891.155803330814
 31
0.0
  0
LWPOLYLINE
  5
28B
330
1F
100
AcDbEntity
  8
1-B_ﾊｯﾁ
  6
Continuous
 62
     7
370
     5
100
AcDbPolyline
 90
        4
 70
     1
 43
3.0
 10
-356.5068914828107
 20
-1891.155803330814
 42
0.4142135623731
 10
-358.0068914828107
 20
-1889.655803330815
 42
0.4142135623731
 10
-359.5068914828107
 20
-1891.155803330814
 42
0.4142135623731
 10
-358.0068914828107
 20
-1892.655803330814
 42
0.4142135623731
  0
LWPOLYLINE
  5
28C
330
1F
100
AcDbEntity
  8
1-B_ﾊｯﾁ
  6
Continuous
 62
     7
370
     5
100
AcDbPolyline
 90
        4
 70
     1
 43
3.0
 10
-356.5068914828107
 20
-2161.155803330814
 42
0.4142135623731
 10
-358.0068914828107
 20
-2159.655803330814
 42
0.4142135623731
 10
-359.5068914828107
 20
-2161.155803330814
 42
0.4142135623731
 10
-358.0068914828107
 20
-2162.655803330814
 42
0.4142135623731
  0
LINE
  5
28D
330
1F
100
AcDbEntity
  8
1-B_ﾊｯﾁ
  6
Continuous
 62
   120
370
     5
100
AcDbLine
 10
-358.0068914828107
 20
-2161.155803330814
 30
0.0
 11
-358.0068914828107
 21
-1891.155803330814
 31
0.0
  0
MTEXT
  5
28E
330
1F
100
AcDbEntity
  8
0-A_文字
  6
Continuous
 62
     7
370
     5
100
AcDbMText
 10
-920.0818283164174
 20
-155.2801979518557
 30
0.0
 40
91.44000000000001
 41
1860.0
 46
0.0
 71
     7
 72
     1
  1
{\fＭＳ ゴシック|b0|i0|c128|p49;振れ止め金具取り付け位置　S=1/2}
 73
     1
 44
1.0
  0
MTEXT
  5
28F
330
1F
100
AcDbEntity
  8
1-A_寸法
  6
Continuous
 62
     7
370
     5
100
AcDbMText
 10
-230.0818283164173
 20
-469.3936554613475
 30
0.0
 40
91.44
 41
480.0
 46
0.0
 71
     7
 72
     1
  1
{\fＭＳ ゴシック|b0|i0|c128|p49;センター}
 73
     1
 44
1.0
  0
MTEXT
  5
290
330
1F
100
AcDbEntity
  8
1-A_寸法
  6
Continuous
 62
     7
370
     5
100
AcDbMText
 10
-650.0818283164174
 20
-1118.348831483478
 30
0.0
 40
91.44
 41
360.0
 46
0.0
 71
     7
 72
     1
  1
{\f@ＭＳ ゴシック|b0|i0|c128|p49;中方立}
 11
-1.836909530733566E-16
 21
-1.0
 31
0.0
 73
     1
 44
1.0
  0
MTEXT
  5
291
330
1F
100
AcDbEntity
  8
1-A_寸法
  6
Continuous
 62
     7
370
     5
100
AcDbMText
 10
249.9181716835827
 20
-1118.348831483478
 30
0.0
 40
91.44
 41
360.0
 46
0.0
 71
     7
 72
     1
  1
{\f@ＭＳ ゴシック|b0|i0|c128|p49;引き戸}
 11
-1.836909530733566E-16
 21
-1.0
 31
0.0
 73
     1
 44
1.0
  0
MTEXT
  5
292
330
1F
100
AcDbEntity
  8
1-A_寸法
  6
Continuous
 62
     7
370
     5
100
AcDbMText
 10
-1152.581828316417
 20
-2452.935803330813
 30
0.0
 40
91.44
 41
480.0
 46
0.0
 71
     7
 72
     1
  1
{\fＭＳ ゴシック|b0|i0|c128|p49;フロアー}
 73
     1
 44
1.0
  0
MTEXT
  5
293
330
1F
100
AcDbEntity
  8
1-A_寸法
  6
Continuous
 62
     7
370
     5
100
AcDbMText
 10
-909.5352338545939
 20
-2679.25288608849
 30
0.0
 40
91.44
 41
720.0
 46
0.0
 71
     7
 72
     1
  1
{\fＭＳ ゴシック|b0|i0|c128|p49;振れ止め金具}
 73
     1
 44
1.0
  0
MTEXT
  5
294
330
1F
100
AcDbEntity
  8
1-B_ﾊｯﾁ
  6
Continuous
 62
     7
370
   211
100
AcDbMText
 10
-87.58182831642074
 20
-691.9588920769263
 30
0.0
 40
99.06
 41
195.0
 46
0.0
 71
     7
 72
     1
  1
{\fＭＳ ゴシック|b0|i0|c128|p49;155}
 73
     1
 44
1.0
  0
MTEXT
  5
295
330
1F
100
AcDbEntity
  8
1-B_ﾊｯﾁ
  6
Continuous
 62
     7
370
   211
100
AcDbMText
 10
-653.8318283164174
 20
-872.9113920769263
 30
0.0
 40
97.15499999999999
 41
127.5
 46
0.0
 71
     7
 72
     1
  1
{\fＭＳ ゴシック|b0|i0|c128|p49;75}
 73
     1
 44
1.0
  0
MTEXT
  5
296
330
1F
100
AcDbEntity
  8
1-B_ﾊｯﾁ
  6
Continuous
 62
     7
370
   211
100
AcDbMText
 10
112.0381555523753
 20
-871.9588920769263
 30
0.0
 40
99.06
 41
195.0
 46
0.0
 71
     7
 72
     1
  1
{\fＭＳ ゴシック|b0|i0|c128|p49;6.5}
 73
     1
 44
1.0
  0
MTEXT
  5
297
330
1F
100
AcDbEntity
  8
1-B_ﾊｯﾁ
  6
Continuous
 62
     7
370
   211
100
AcDbMText
 10
-20.08074828026935
 20
-1665.435803330813
 30
0.0
 40
91.44
 41
60.0
 46
0.0
 71
     7
 72
     1
  1
{\fＭＳ ゴシック|b0|i0|c128|p49;5}
 73
     1
 44
1.0
  0
MTEXT
  5
298
330
1F
100
AcDbEntity
  8
1-B_ﾊｯﾁ
  6
Continuous
 62
     7
370
   211
100
AcDbMText
 10
118.6703317558906
 20
-1662.578303330813
 30
0.0
 40
97.15499999999999
 41
127.5
 46
0.0
 71
     7
 72
     1
  1
{\fＭＳ ゴシック|b0|i0|c128|p49;18}
 73
     1
 44
1.0
  0
MTEXT
  5
299
330
1F
100
AcDbEntity
  8
1-B_ﾊｯﾁ
  6
Continuous
 62
     7
370
   211
100
AcDbMText
 10
-373.0068914828107
 20
-2100.435803330814
 30
0.0
 40
91.44
 41
120.0
 46
0.0
 71
     7
 72
     1
  1
{\fＭＳ ゴシック|b0|i0|c128|p49;18}
 11
6.123031769111886E-17
 21
1.0
 31
0.0
 73
     1
 44
1.0
  0
MTEXT
  5
29A
330
1F
100
AcDbEntity
  8
1-B_ﾊｯﾁ
  6
Continuous
 62
     7
370
   211
100
AcDbMText
 10
-214.5098649221401
 20
-2155.336866719226
 30
0.0
 40
91.44
 41
120.0
 46
0.0
 71
     7
 72
     1
  1
{\fＭＳ ゴシック|b0|i0|c128|p49;20}
 11
6.123031769111886E-17
 21
1.0
 31
0.0
 73
     1
 44
1.0
  0
MTEXT
  5
29B
330
1F
100
AcDbEntity
  8
1-B_ﾊｯﾁ
  6
Continuous
 62
     7
370
   211
100
AcDbMText
 10
879.9181716835622
 20
-2162.224921595789
 30
0.0
 40
91.44
 41
180.0
 46
0.0
 71
     7
 72
     1
  1
{\fＭＳ ゴシック|b0|i0|c128|p49;8.5}
 11
6.123031769111886E-17
 21
1.0
 31
0.0
 73
     1
 44
1.0
  0
MTEXT
  5
29C
330
1F
100
AcDbEntity
  8
1-B_ﾊｯﾁ
  6
Continuous
 62
     7
370
   211
100
AcDbMText
 10
729.9181716835622
 20
-2164.376364289635
 30
0.0
 40
91.44
 41
180.0
 46
0.0
 71
     7
 72
     1
  1
{\fＭＳ ゴシック|b0|i0|c128|p49;5.5}
 11
6.123031769111886E-17
 21
1.0
 31
0.0
 73
     1
 44
1.0
  0
MTEXT
  5
29D
330
1F
100
AcDbEntity
  8
1-B_ﾊｯﾁ
  6
Continuous
 62
     7
370
   211
100
AcDbMText
 10
729.9181716835622
 20
-2310.435803330818
 30
0.0
 40
91.44
 41
60.0
 46
0.0
 71
     7
 72
     1
  1
{\fＭＳ ゴシック|b0|i0|c128|p49;3}
 11
6.123031769111886E-17
 21
1.0
 31
0.0
 73
     1
 44
1.0
  0
MTEXT
  5
29E
330
1F
100
AcDbEntity
  8
1-B_ﾊｯﾁ
  6
Continuous
 62
     7
370
   211
100
AcDbMText
 10
879.9181716835622
 20
-2452.935803330818
 30
0.0
 40
91.44
 41
120.0
 46
0.0
 71
     7
 72
     1
  1
{\fＭＳ ゴシック|b0|i0|c128|p49;12}
 11
6.123031769111886E-17
 21
1.0
 31
0.0
 73
     1
 44
1.0
  0
LINE
  5
29F
330
1F
100
AcDbEntity
  8
0-A_文字
  6
Continuous
 62
   120
370
     5
100
AcDbLine
 10
2952.588519850235
 20
-2721.043923200713
 30
0.0
 11
3720.514728446334
 21
-2721.043923200713
 31
0.0
  0
LINE
  5
2A0
330
1F
100
AcDbEntity
  8
0-A_文字
  6
Continuous
 62
   120
370
     5
100
AcDbLine
 10
2825.245203155838
 20
-2909.246932575985
 30
0.0
 11
2952.588519850235
 21
-2721.043923200713
 31
0.0
  0
LINE
  5
2A1
330
1F
100
AcDbEntity
  8
0-6_扉
  6
Continuous
 62
     7
370
     5
100
AcDbLine
 10
2269.557085805857
 20
-948.4288827037404
 30
0.0
 11
2475.318000652286
 21
-1067.22500227903
 31
0.0
  0
LINE
  5
2A2
330
1F
100
AcDbEntity
  8
0-6_扉
  6
Continuous
 62
     7
370
     5
100
AcDbLine
 10
2697.549433901674
 20
-1195.53038008796
 30
0.0
 11
2787.641857434338
 21
-1247.545265066489
 31
0.0
  0
LINE
  5
2A3
330
1F
100
AcDbEntity
  8
0-6_扉
  6
Continuous
 62
    40
370
     5
100
AcDbLine
 10
2993.361258126518
 20
-576.6282470563049
 30
0.0
 11
2993.361258126518
 21
-1251.360703393874
 31
0.0
  0
LINE
  5
2A4
330
1F
100
AcDbEntity
  8
0-6_扉
  6
Continuous
 62
    40
370
     5
100
AcDbLine
 10
3019.877762421012
 20
-576.6282470563049
 30
0.0
 11
3019.877762421012
 21
-1442.863970895612
 31
0.0
  0
LINE
  5
2A5
330
1F
100
AcDbEntity
  8
0-6_扉
  6
Continuous
 62
    40
370
     5
100
AcDbLine
 10
3120.640478740094
 20
-576.6282470563049
 30
0.0
 11
3120.640478740094
 21
-1531.657974071502
 31
0.0
  0
LINE
  5
2A6
330
1F
100
AcDbEntity
  8
0-6_扉
  6
Continuous
 62
    40
370
     5
100
AcDbLine
 10
3216.099894200285
 20
-576.6282470563049
 30
0.0
 11
3216.099894200285
 21
-1586.771493284127
 31
0.0
  0
LINE
  5
2A7
330
1F
100
AcDbEntity
  8
0-6_扉
  6
Continuous
 62
    40
370
     5
100
AcDbLine
 10
3788.856386961387
 20
-576.6282470563049
 30
0.0
 11
3788.856386961387
 21
-1256.0903780084
 31
0.0
  0
LINE
  5
2A8
330
1F
100
AcDbEntity
  8
0-6_扉
  6
Continuous
 62
    40
370
     5
100
AcDbLine
 10
2897.901842666338
 20
-576.6282470563049
 30
0.0
 11
2897.901842666338
 21
-1403.059762575389
 31
0.0
  0
LINE
  5
2A9
330
1F
100
AcDbEntity
  8
0-6_扉
  6
Continuous
 62
    40
370
     5
100
AcDbLine
 10
2993.361258126518
 20
-1458.173281788007
 30
0.0
 11
2989.235044846527
 21
-1455.791011440071
 31
0.0
  0
LINE
  5
2AA
330
1F
100
AcDbEntity
  8
0-6_扉
  6
Continuous
 62
    40
370
     5
100
AcDbLine
 10
2984.888080976946
 20
-1453.281290679811
 30
0.0
 11
2897.901842666338
 21
-1403.059762575389
 31
0.0
  0
LINE
  5
2AB
330
1F
100
AcDbEntity
  8
0-6_扉
  6
Continuous
 62
    40
370
     5
100
AcDbLine
 10
2993.361258126518
 20
-1398.766631000496
 30
0.0
 11
2993.361258126518
 21
-1458.173281788007
 31
0.0
  0
LINE
  5
2AC
330
1F
100
AcDbEntity
  8
0-6_扉
  6
Continuous
 62
     7
370
     5
100
AcDbLine
 10
2804.177405569682
 20
-1257.092068233629
 30
0.0
 11
2897.901842666338
 21
-1311.203897221028
 31
0.0
  0
LINE
  5
2AD
330
1F
100
AcDbEntity
  8
0-B_寸法
  6
JWW_CENTER1
 62
   120
370
     5
100
AcDbLine
 10
3130.333819580284
 20
-1636.288559553322
 30
0.0
 11
3306.714911453388
 21
-1738.122230426218
 31
0.0
  0
LINE
  5
2AE
330
1F
100
AcDbEntity
  8
0-B_寸法
  6
JWW_CENTER1
 62
   120
370
     5
100
AcDbLine
 10
3083.517384712573
 20
-1479.606323956771
 30
0.0
 11
2672.091497711158
 21
-1717.143170568618
 31
0.0
  0
LINE
  5
2AF
330
1F
100
AcDbEntity
  8
0-B_寸法
  6
Continuous
 62
   120
370
     5
100
AcDbLine
 10
2559.387617873305
 20
-1782.212772092896
 30
0.0
 11
2659.249595332089
 21
-1724.55743252526
 31
0.0
  0
LWPOLYLINE
  5
2B0
330
1F
100
AcDbEntity
  8
0-B_寸法
  6
Continuous
 62
     7
370
     5
100
AcDbPolyline
 90
        4
 70
     1
 43
3.0
 10
2560.887617873305
 20
-1782.212772092896
 42
0.4142135623731
 10
2559.387617873305
 20
-1780.712772092896
 42
0.4142135623731
 10
2557.887617873305
 20
-1782.212772092896
 42
0.4142135623731
 10
2559.387617873305
 20
-1783.712772092896
 42
0.4142135623731
  0
LINE
  5
2B1
330
1F
100
AcDbEntity
  8
0-B_寸法
  6
Continuous
 62
   120
370
     5
100
AcDbLine
 10
2559.387617873305
 20
-1782.212772092896
 30
0.0
 11
2718.486712834889
 21
-1874.068677396791
 31
0.0
  0
ELLIPSE
  5
2B2
330
1F
100
AcDbEntity
  8
0-7_金物
  6
Continuous
 62
     7
370
     5
100
AcDbEllipse
 10
2749.02497442726
 20
-1350.123066565259
 30
0.0
 11
3.839167031409308
 21
6.442887280167158
 31
0.0
210
0.0
220
0.0
230
0.9999999999999998
 40
0.6634139481689362
 41
6.22960553505472
 42
7.015003698451609
  0
ELLIPSE
  5
2B3
330
1F
100
AcDbEntity
  8
0-7_金物
  6
Continuous
 62
     7
370
     5
100
AcDbEllipse
 10
2754.770307750652
 20
-1562.053900465584
 30
0.0
 11
23.03500218845609
 21
38.65732368100281
 31
0.0
210
0.0
220
0.0
230
1.0
 40
0.6634139481689381
 41
2.302614718066926
 42
3.088012881464371
  0
LINE
  5
2B4
330
1F
100
AcDbEntity
  8
0-7_金物
  6
Continuous
 62
     7
370
     5
100
AcDbLine
 10
2870.472077494228
 20
-1669.969043516591
 30
0.0
 11
2870.472077494228
 21
-1416.656612909643
 31
0.0
  0
LINE
  5
2B5
330
1F
100
AcDbEntity
  8
0-7_金物
  6
Continuous
 62
     7
370
     5
100
AcDbLine
 10
2836.000077553875
 20
-1431.11933412759
 30
0.0
 11
2720.298307810298
 21
-1362.175334246883
 31
0.0
  0
LINE
  5
2B6
330
1F
100
AcDbEntity
  8
0-7_金物
  6
Continuous
 62
     7
370
     5
100
AcDbLine
 10
2836.195845039563
 20
-1429.356120904757
 30
0.0
 11
2720.494075295986
 21
-1360.412121024048
 31
0.0
  0
LINE
  5
2B7
330
1F
100
AcDbEntity
  8
0-7_金物
  6
Continuous
 62
     7
370
     5
100
AcDbLine
 10
2836.769806266
 20
-1427.548799324174
 30
0.0
 11
2721.068036522423
 21
-1358.604799443465
 31
0.0
  0
LINE
  5
2B8
330
1F
100
AcDbEntity
  8
0-7_金物
  6
Continuous
 62
     7
370
     5
100
AcDbLine
 10
2837.68284672412
 20
-1425.820535364817
 30
0.0
 11
2721.981076980543
 21
-1356.87653548411
 31
0.0
  0
LINE
  5
2B9
330
1F
100
AcDbEntity
  8
0-7_金物
  6
Continuous
 62
     7
370
     5
100
AcDbLine
 10
2838.872744215572
 20
-1424.289107359428
 30
0.0
 11
2723.170974471992
 21
-1355.345107478719
 31
0.0
  0
LINE
  5
2BA
330
1F
100
AcDbEntity
  8
0-7_金物
  6
Continuous
 62
     7
370
     5
100
AcDbLine
 10
2840.25840919271
 20
-1423.058879595768
 30
0.0
 11
2724.556639449134
 21
-1354.11487971506
 31
0.0
  0
LINE
  5
2BB
330
1F
100
AcDbEntity
  8
0-7_金物
  6
Continuous
 62
     7
370
     5
100
AcDbLine
 10
2841.745410877267
 20
-1422.213690062881
 30
0.0
 11
2726.04364113369
 21
-1353.269690182174
 31
0.0
  0
ELLIPSE
  5
2BC
330
1F
100
AcDbEntity
  8
0-7_金物
  6
Continuous
 62
     7
370
     5
100
AcDbEllipse
 10
2726.04364113369
 20
-1359.764880710558
 30
0.0
 11
3.839167031409303
 21
6.442887280167151
 31
0.0
210
0.0
220
0.0
230
0.9999999999999999
 40
0.6634139481689377
 41
0.7318183912720223
 42
2.302614718066919
  0
ELLIPSE
  5
2BD
330
1F
100
AcDbEntity
  8
0-7_金物
  6
Continuous
 62
     7
370
     5
100
AcDbEllipse
 10
2841.745410877267
 20
-1428.708880591265
 30
0.0
 11
3.839167031409386
 21
6.442887280167133
 31
0.0
210
0.0
220
0.0
230
1.0
 40
0.6634139481689393
 41
0.7318183912720424
 42
2.302614718066939
  0
LINE
  5
2BE
330
1F
100
AcDbEntity
  8
0-7_金物
  6
Continuous
 62
     7
370
     5
100
AcDbLine
 10
2836.000077553875
 20
-1645.460621564239
 30
0.0
 11
2720.298307810298
 21
-1576.516621683531
 31
0.0
  0
LINE
  5
2BF
330
1F
100
AcDbEntity
  8
0-7_金物
  6
Continuous
 62
     7
370
     5
100
AcDbLine
 10
2836.000077553875
 20
-1431.11933412759
 30
0.0
 11
2836.000077553875
 21
-1645.460621564239
 31
0.0
  0
LINE
  5
2C0
330
1F
100
AcDbEntity
  8
0-7_金物
  6
Continuous
 62
     7
370
     5
100
AcDbLine
 10
2720.298307810298
 20
-1362.175334246883
 30
0.0
 11
2720.298307810298
 21
-1576.516621683531
 31
0.0
  0
LINE
  5
2C1
330
1F
100
AcDbEntity
  8
0-7_金物
  6
Continuous
 62
     7
370
     5
100
AcDbLine
 10
2864.726744170836
 20
-1412.571875917584
 30
0.0
 11
2749.02497442726
 21
-1343.627876036877
 31
0.0
  0
LINE
  5
2C2
330
1F
100
AcDbEntity
  8
0-7_金物
  6
Continuous
 62
     7
370
     5
100
AcDbLine
 10
2841.745410877267
 20
-1422.213690062881
 30
0.0
 11
2864.726744170836
 21
-1412.571875917584
 31
0.0
  0
LINE
  5
2C3
330
1F
100
AcDbEntity
  8
0-7_金物
  6
Continuous
 62
     7
370
     5
100
AcDbLine
 10
2726.04364113369
 20
-1353.269690182174
 30
0.0
 11
2749.02497442726
 21
-1343.627876036877
 31
0.0
  0
LINE
  5
2C4
330
1F
100
AcDbEntity
  8
0-7_金物
  6
Continuous
 62
     7
370
     5
100
AcDbLine
 10
2866.213745855393
 20
-1412.169322885398
 30
0.0
 11
2750.511976111816
 21
-1343.22532300469
 31
0.0
  0
LINE
  5
2C5
330
1F
100
AcDbEntity
  8
0-7_金物
  6
Continuous
 62
     7
370
     5
100
AcDbLine
 10
2867.599410832534
 20
-1412.236839677805
 30
0.0
 11
2751.897641088954
 21
-1343.292839797097
 31
0.0
  0
LINE
  5
2C6
330
1F
100
AcDbEntity
  8
0-7_金物
  6
Continuous
 62
     7
370
     5
100
AcDbLine
 10
2868.789308323983
 20
-1412.769825136978
 30
0.0
 11
2753.087538580407
 21
-1343.825825256271
 31
0.0
  0
ELLIPSE
  5
2C7
330
1F
100
AcDbEntity
  8
0-7_金物
  6
Continuous
 62
     7
370
     5
100
AcDbEllipse
 10
2864.726744170836
 20
-1419.067066445966
 30
0.0
 11
3.839167031409386
 21
6.442887280167132
 31
0.0
210
0.0
220
0.0
230
1.0
 40
0.6634139481689387
 41
5.444207371656721
 42
7.015003698451618
  0
LINE
  5
2C8
330
1F
100
AcDbEntity
  8
0-7_金物
  6
Continuous
 62
     7
370
     5
100
AcDbLine
 10
2846.096692575342
 20
-1668.781348200223
 30
0.0
 11
2730.394922831766
 21
-1599.837348319515
 31
0.0
  0
LINE
  5
2C9
330
1F
100
AcDbEntity
  8
0-7_金物
  6
Continuous
 62
     7
370
     5
100
AcDbLine
 10
2840.618449826628
 20
-1663.008555914036
 30
0.0
 11
2724.916680083051
 21
-1594.064556033328
 31
0.0
  0
ELLIPSE
  5
2CA
330
1F
100
AcDbEntity
  8
0-7_金物
  6
Continuous
 62
     7
370
     5
100
AcDbEllipse
 10
2870.472077494228
 20
-1630.997900346292
 30
0.0
 11
23.03500218845613
 21
38.65732368100281
 31
0.0
210
0.0
220
0.0
230
0.9999999999999998
 40
0.6634139481689386
 41
2.302614718066926
 42
3.873411044861822
  0
LINE
  5
2CB
330
1F
100
AcDbEntity
  8
0-7_金物
  6
Continuous
 62
     7
370
     5
100
AcDbLine
 10
2837.174682468006
 20
-1655.054290351016
 30
0.0
 11
2721.472912724429
 21
-1586.110290470308
 31
0.0
  0
LINE
  5
2CC
330
1F
100
AcDbEntity
  8
0-7_金物
  6
Continuous
 62
     7
370
     5
100
AcDbLine
 10
2950.021590377715
 20
-1715.896976193776
 30
0.0
 11
2870.472077494228
 21
-1669.969043516591
 31
0.0
  0
ELLIPSE
  5
2CD
330
1F
100
AcDbEntity
  8
0-7_金物
  6
Continuous
 62
     7
370
     5
100
AcDbEllipse
 10
2971.234793813311
 20
-1654.659732624197
 30
0.0
 11
29.99999999999995
 21
6.661338147750928E-14
 31
0.0
210
0.0
220
0.0
230
1.0
 40
0.5773502691896261
 41
2.356194490192344
 42
2.780225529683081
  0
ELLIPSE
  5
2CE
330
1F
100
AcDbEntity
  8
0-7_金物
  6
Continuous
 62
     7
370
     5
100
AcDbEllipse
 10
3003.054598966708
 20
-1636.288559553322
 30
0.0
 11
30.00000000000003
 21
7.993605777301137E-14
 31
0.0
210
0.0
220
0.0
230
1.0
 40
0.5773502691896266
 41
0.2617993877991396
 42
2.356194490192344
  0
LINE
  5
2CF
330
1F
100
AcDbEntity
  8
0-7_金物
  6
Continuous
 62
     7
370
     5
100
AcDbLine
 10
3013.661200684504
 20
-1642.41228391028
 30
0.0
 11
3045.481005837898
 21
-1624.041110839407
 31
0.0
  0
LINE
  5
2D0
330
1F
100
AcDbEntity
  8
0-7_金物
  6
Continuous
 62
     7
370
     5
100
AcDbLine
 10
2928.808386942118
 20
-1593.422489054617
 30
0.0
 11
2960.628192095515
 21
-1575.051315983744
 31
0.0
  0
LINE
  5
2D1
330
1F
100
AcDbEntity
  8
0-7_金物
  6
Continuous
 62
     7
370
     5
100
AcDbLine
 10
3109.120616144688
 20
-1587.298764697659
 30
0.0
 11
2870.472077494228
 21
-1449.514966666105
 31
0.0
  0
LINE
  5
2D2
330
1F
100
AcDbEntity
  8
0-7_金物
  6
Continuous
 62
     7
370
     5
100
AcDbLine
 10
2674.249945714962
 20
-1495.44289934329
 30
0.0
 11
2720.298307810298
 21
-1468.856865091806
 31
0.0
  0
ELLIPSE
  5
2D3
330
1F
100
AcDbEntity
  8
0-7_金物
  6
Continuous
 62
     7
370
     5
100
AcDbEllipse
 10
2812.135768046338
 20
-1526.061521128079
 30
0.0
 11
60.00000000000006
 21
0.0
 31
0.0
210
0.0
220
0.0
230
1.0
 40
0.5773502691896251
 41
6.047146014440955
 42
6.519224599918218
  0
ELLIPSE
  5
2D4
330
1F
100
AcDbEntity
  8
0-7_金物
  6
Continuous
 62
     7
370
     5
100
AcDbEllipse
 10
2812.135768046338
 20
-1489.319174986332
 30
0.0
 11
60.00000000000006
 21
0.0
 31
0.0
210
0.0
220
0.0
230
1.0
 40
0.5773502691896251
 41
6.047146014440955
 42
6.519224599918218
  0
LINE
  5
2D5
330
1F
100
AcDbEntity
  8
0-7_金物
  6
Continuous
 62
     7
370
     5
100
AcDbLine
 10
2720.298307810298
 20
-1546.523831022605
 30
0.0
 11
2674.249945714962
 21
-1519.937796771122
 31
0.0
  0
LINE
  5
2D6
330
1F
100
AcDbEntity
  8
0-7_金物
  6
Continuous
 62
     7
370
     5
100
AcDbLine
 10
2950.021590377715
 20
-1679.154630052029
 30
0.0
 11
2870.472077494228
 21
-1633.226697374844
 31
0.0
  0
LINE
  5
2D7
330
1F
100
AcDbEntity
  8
0-7_金物
  6
Continuous
 62
     7
370
     5
100
AcDbLine
 10
2720.920284774947
 20
-1583.625275732323
 30
0.0
 11
2674.249945714962
 21
-1556.68014291287
 31
0.0
  0
ELLIPSE
  5
2D8
330
1F
100
AcDbEntity
  8
0-7_金物
  6
Continuous
 62
     7
370
     5
100
AcDbEllipse
 10
3087.907412709091
 20
-1636.288559553322
 30
0.0
 11
-30.00000000000001
 21
3.673819061467133E-15
 31
0.0
210
0.0
220
0.0
230
1.0
 40
0.5773502691896252
 41
2.356194490192344
 42
3.141592653589793
  0
ELLIPSE
  5
2D9
330
1F
100
AcDbEntity
  8
0-7_金物
  6
Continuous
 62
     7
370
     5
100
AcDbEllipse
 10
2695.463149150559
 20
-1544.432694198953
 30
0.0
 11
-30.00000000000001
 21
-1.699649535696902E-14
 31
0.0
210
0.0
220
0.0
230
1.0
 40
0.5773502691896268
 41
0.0
 42
0.7853981633974476
  0
LINE
  5
2DA
330
1F
100
AcDbEntity
  8
0-7_金物
  6
Continuous
 62
     7
370
     5
100
AcDbLine
 10
2981.841395531111
 20
-1624.041110839407
 30
0.0
 11
2950.021590377715
 21
-1642.41228391028
 31
0.0
  0
ELLIPSE
  5
2DB
330
1F
100
AcDbEntity
  8
0-7_金物
  6
Continuous
 62
     7
370
     5
100
AcDbEllipse
 10
2971.234793813311
 20
-1617.917386482449
 30
0.0
 11
59.99999999999998
 21
0.0
 31
0.0
210
0.0
220
0.0
230
1.0
 40
0.5773502691896258
 41
2.356194490192344
 42
5.497787143782136
  0
LINE
  5
2DC
330
1F
100
AcDbEntity
  8
0-7_金物
  6
Continuous
 62
     7
370
     5
100
AcDbLine
 10
2872.135768046338
 20
-1489.319174986332
 30
0.0
 11
2872.135768046338
 21
-1526.061521128079
 31
0.0
  0
ELLIPSE
  5
2DD
330
1F
100
AcDbEntity
  8
0-7_金物
  6
Continuous
 62
     7
370
     5
100
AcDbEllipse
 10
3003.054598966708
 20
-1599.546213411575
 30
0.0
 11
60.00000000000004
 21
0.0
 31
0.0
210
0.0
220
0.0
230
1.0
 40
0.5773502691896252
 41
5.497787143782138
 42
8.63937979737193
  0
LINE
  5
2DE
330
1F
100
AcDbEntity
  8
0-7_金物
  6
Continuous
 62
     7
370
     5
100
AcDbLine
 10
2992.447997248908
 20
-1679.154630052029
 30
0.0
 11
2992.447997248908
 21
-1715.896976193776
 31
0.0
  0
LINE
  5
2DF
330
1F
100
AcDbEntity
  8
0-7_金物
  6
Continuous
 62
     7
370
     5
100
AcDbLine
 10
3109.120616144688
 20
-1611.79366212549
 30
0.0
 11
3109.120616144688
 21
-1648.536008267238
 31
0.0
  0
LINE
  5
2E0
330
1F
100
AcDbEntity
  8
0-7_金物
  6
Continuous
 62
     7
370
     5
100
AcDbLine
 10
3109.120616144688
 20
-1611.79366212549
 30
0.0
 11
2992.447997248908
 21
-1679.154630052029
 31
0.0
  0
LINE
  5
2E1
330
1F
100
AcDbEntity
  8
0-7_金物
  6
Continuous
 62
     7
370
     5
100
AcDbLine
 10
3109.120616144688
 20
-1648.536008267238
 30
0.0
 11
2992.447997248908
 21
-1715.896976193776
 31
0.0
  0
LINE
  5
2E2
330
1F
100
AcDbEntity
  8
0-7_金物
  6
Continuous
 62
     7
370
     5
100
AcDbLine
 10
3117.907412709091
 20
-1599.546213411575
 30
0.0
 11
3117.907412709091
 21
-1636.288559553322
 31
0.0
  0
LINE
  5
2E3
330
1F
100
AcDbEntity
  8
0-7_金物
  6
Continuous
 62
     7
370
     5
100
AcDbLine
 10
3116.885187497764
 20
-1604.029090772415
 30
0.0
 11
3116.885187497764
 21
-1640.771436914163
 31
0.0
  0
LINE
  5
2E4
330
1F
100
AcDbEntity
  8
0-7_金物
  6
Continuous
 62
     7
370
     5
100
AcDbLine
 10
3113.888174822624
 20
-1608.20646744942
 30
0.0
 11
3113.888174822624
 21
-1644.948813591167
 31
0.0
  0
ELLIPSE
  5
2E5
330
1F
100
AcDbEntity
  8
0-7_金物
  6
Continuous
 62
     7
370
     5
100
AcDbEllipse
 10
3087.907412709091
 20
-1599.546213411575
 30
0.0
 11
-30.00000000000001
 21
3.673819061467133E-15
 31
0.0
210
0.0
220
0.0
230
1.0
 40
0.5773502691896252
 41
2.356194490192344
 42
3.92699081698724
  0
LINE
  5
2E6
330
1F
100
AcDbEntity
  8
0-7_金物
  6
Continuous
 62
     7
370
     5
100
AcDbLine
 10
2986.234793813311
 20
-1681.907181338112
 30
0.0
 11
2986.234793813311
 21
-1718.64952747986
 31
0.0
  0
LINE
  5
2E7
330
1F
100
AcDbEntity
  8
0-7_金物
  6
Continuous
 62
     7
370
     5
100
AcDbLine
 10
2978.999365166388
 20
-1683.637507412869
 30
0.0
 11
2978.999365166388
 21
-1720.379853554616
 31
0.0
  0
LINE
  5
2E8
330
1F
100
AcDbEntity
  8
0-7_金物
  6
Continuous
 62
     7
370
     5
100
AcDbLine
 10
2971.234793813311
 20
-1684.227689413801
 30
0.0
 11
2971.234793813311
 21
-1720.970035555549
 31
0.0
  0
LINE
  5
2E9
330
1F
100
AcDbEntity
  8
0-7_金物
  6
Continuous
 62
     7
370
     5
100
AcDbLine
 10
2963.470222460235
 20
-1683.637507412869
 30
0.0
 11
2963.470222460235
 21
-1720.379853554616
 31
0.0
  0
LINE
  5
2EA
330
1F
100
AcDbEntity
  8
0-7_金物
  6
Continuous
 62
     7
370
     5
100
AcDbLine
 10
2956.234793813311
 20
-1681.907181338112
 30
0.0
 11
2956.234793813311
 21
-1718.64952747986
 31
0.0
  0
LINE
  5
2EB
330
1F
100
AcDbEntity
  8
0-7_金物
  6
Continuous
 62
     7
370
     5
100
AcDbLine
 10
2950.021590377715
 20
-1679.154630052029
 30
0.0
 11
2950.021590377715
 21
-1715.896976193776
 31
0.0
  0
ELLIPSE
  5
2EC
330
1F
100
AcDbEntity
  8
0-7_金物
  6
Continuous
 62
     7
370
     5
100
AcDbEllipse
 10
2971.234793813311
 20
-1703.64952747986
 30
0.0
 11
-29.99999999999994
 21
-4.364184794797269E-14
 31
0.0
210
0.0
220
0.0
230
1.0
 40
0.5773502691896277
 41
0.7853981633974488
 42
2.356194490192345
  0
ELLIPSE
  5
2ED
330
1F
100
AcDbEntity
  8
0-7_金物
  6
Continuous
 62
     7
370
     5
100
AcDbEllipse
 10
2971.234793813311
 20
-1666.907181338112
 30
0.0
 11
-29.99999999999994
 21
-4.364184794797269E-14
 31
0.0
210
0.0
220
0.0
230
1.0
 40
0.5773502691896277
 41
0.7853981633974482
 42
2.356194490192345
  0
LINE
  5
2EE
330
1F
100
AcDbEntity
  8
0-7_金物
  6
Continuous
 62
     7
370
     5
100
AcDbLine
 10
2674.249945714962
 20
-1519.937796771122
 30
0.0
 11
2674.249945714962
 21
-1556.68014291287
 31
0.0
  0
LINE
  5
2EF
330
1F
100
AcDbEntity
  8
0-7_金物
  6
Continuous
 62
     7
370
     5
100
AcDbLine
 10
2669.482387037026
 20
-1516.350602095051
 30
0.0
 11
2669.482387037026
 21
-1553.092948236797
 31
0.0
  0
LINE
  5
2F0
330
1F
100
AcDbEntity
  8
0-7_金物
  6
Continuous
 62
     7
370
     5
100
AcDbLine
 10
2666.485374361886
 20
-1512.173225418046
 30
0.0
 11
2666.485374361886
 21
-1548.915571559794
 31
0.0
  0
LINE
  5
2F1
330
1F
100
AcDbEntity
  8
0-7_金物
  6
Continuous
 62
     7
370
     5
100
AcDbLine
 10
2665.463149150559
 20
-1507.690348057205
 30
0.0
 11
2665.463149150559
 21
-1544.432694198953
 31
0.0
  0
ELLIPSE
  5
2F2
330
1F
100
AcDbEntity
  8
0-7_金物
  6
Continuous
 62
     7
370
     5
100
AcDbEllipse
 10
2695.463149150559
 20
-1507.690348057205
 30
0.0
 11
-30.00000000000005
 21
3.673819061467138E-15
 31
0.0
210
0.0
220
0.0
230
1.0
 40
0.5773502691896267
 41
5.497787143782136
 42
7.068583470577034
  0
LINE
  5
2F3
330
1F
100
AcDbEntity
  8
0-7_金物
  6
Continuous
 62
     7
370
     5
100
AcDbLine
 10
2796.70933537304
 20
-1369.819041777788
 30
0.0
 11
2809.191640779821
 21
-1181.404568652899
 31
0.0
  0
LINE
  5
2F4
330
1F
100
AcDbEntity
  8
0-7_金物
  6
Continuous
 62
     7
370
     5
100
AcDbLine
 10
2795.702655517412
 20
-1369.21918461052
 30
0.0
 11
2783.260090159463
 21
-1181.404568652899
 31
0.0
  0
LINE
  5
2F5
330
1F
100
AcDbEntity
  8
0-7_金物
  6
Continuous
 62
     7
370
     5
100
AcDbLine
 10
2793.124191458641
 20
-1151.815109841898
 30
0.0
 11
2793.124191458641
 21
-1142.718854322898
 31
0.0
  0
LINE
  5
2F6
330
1F
100
AcDbEntity
  8
0-7_金物
  6
Continuous
 62
     7
370
     5
100
AcDbLine
 10
2793.124191458641
 20
-1167.114713382897
 30
0.0
 11
2793.124191458641
 21
-1158.018457863898
 31
0.0
  0
LINE
  5
2F7
330
1F
100
AcDbEntity
  8
0-7_金物
  6
Continuous
 62
     7
370
     5
100
AcDbLine
 10
2799.327539480643
 20
-1151.815109841898
 30
0.0
 11
2799.327539480643
 21
-1142.718854322898
 31
0.0
  0
LINE
  5
2F8
330
1F
100
AcDbEntity
  8
0-7_金物
  6
Continuous
 62
     7
370
     5
100
AcDbLine
 10
2799.327539480643
 20
-1167.114713382897
 30
0.0
 11
2799.327539480643
 21
-1158.018457863898
 31
0.0
  0
LINE
  5
2F9
330
1F
100
AcDbEntity
  8
0-7_金物
  6
Continuous
 62
     7
370
     5
100
AcDbLine
 10
2799.327539480643
 20
-1158.018457863898
 30
0.0
 11
2819.505462725643
 21
-1158.018457863898
 31
0.0
  0
LINE
  5
2FA
330
1F
100
AcDbEntity
  8
0-7_金物
  6
Continuous
 62
     7
370
     5
100
AcDbLine
 10
2772.946268212516
 20
-1158.018457863898
 30
0.0
 11
2793.124191458641
 21
-1158.018457863898
 31
0.0
  0
LINE
  5
2FB
330
1F
100
AcDbEntity
  8
0-7_金物
  6
Continuous
 62
     7
370
     5
100
AcDbLine
 10
2799.327539480643
 20
-1151.815109841898
 30
0.0
 11
2819.505462725643
 21
-1151.815109841898
 31
0.0
  0
LINE
  5
2FC
330
1F
100
AcDbEntity
  8
0-7_金物
  6
Continuous
 62
     7
370
     5
100
AcDbLine
 10
2772.946268212516
 20
-1151.815109841898
 30
0.0
 11
2793.124191458641
 21
-1151.815109841898
 31
0.0
  0
LINE
  5
2FD
330
1F
100
AcDbEntity
  8
0-7_金物
  6
Continuous
 62
     7
370
     5
100
AcDbLine
 10
2793.124191458641
 20
-1142.718854322898
 30
0.0
 11
2799.327539480643
 21
-1142.718854322898
 31
0.0
  0
LINE
  5
2FE
330
1F
100
AcDbEntity
  8
0-7_金物
  6
Continuous
 62
     7
370
     5
100
AcDbLine
 10
2793.124191458641
 20
-1167.114713382897
 30
0.0
 11
2799.327539480643
 21
-1167.114713382897
 31
0.0
  0
LINE
  5
2FF
330
1F
100
AcDbEntity
  8
0-7_金物
  6
Continuous
 62
     7
370
     5
100
AcDbLine
 10
2819.505462725643
 20
-1158.018457863898
 30
0.0
 11
2819.505462725643
 21
-1151.815109841898
 31
0.0
  0
LINE
  5
300
330
1F
100
AcDbEntity
  8
0-7_金物
  6
Continuous
 62
     7
370
     5
100
AcDbLine
 10
2772.946268212516
 20
-1151.815109841898
 30
0.0
 11
2772.946268212516
 21
-1158.018457863898
 31
0.0
  0
LINE
  5
301
330
1F
100
AcDbEntity
  8
0-7_金物
  6
Continuous
 62
     7
370
     5
100
AcDbLine
 10
2798.210984100463
 20
-1347.1523672673
 30
0.0
 11
2794.384272084102
 21
-1349.31881269455
 31
0.0
  0
LINE
  5
302
330
1F
100
AcDbEntity
  8
0-7_金物
  6
Continuous
 62
     7
370
     5
100
AcDbLine
 10
2798.858158865675
 20
-1337.383571485291
 30
0.0
 11
2793.783888435288
 21
-1340.256306596677
 31
0.0
  0
LINE
  5
303
330
1F
100
AcDbEntity
  8
0-7_金物
  6
Continuous
 62
     7
370
     5
100
AcDbLine
 10
2799.50533363089
 20
-1327.614775703284
 30
0.0
 11
2793.183504786471
 21
-1331.193800498801
 31
0.0
  0
LINE
  5
304
330
1F
100
AcDbEntity
  8
0-7_金物
  6
Continuous
 62
     7
370
     5
100
AcDbLine
 10
2800.152508396106
 20
-1317.845979921275
 30
0.0
 11
2792.583121137654
 21
-1322.131294400927
 31
0.0
  0
LINE
  5
305
330
1F
100
AcDbEntity
  8
0-7_金物
  6
Continuous
 62
     7
370
     5
100
AcDbLine
 10
2800.799683161318
 20
-1308.077184139268
 30
0.0
 11
2791.98273748884
 21
-1313.068788303054
 31
0.0
  0
LINE
  5
306
330
1F
100
AcDbEntity
  8
0-7_金物
  6
Continuous
 62
     7
370
     5
100
AcDbLine
 10
2801.446857926533
 20
-1298.308388357261
 30
0.0
 11
2791.382353840022
 21
-1304.006282205178
 31
0.0
  0
LINE
  5
307
330
1F
100
AcDbEntity
  8
0-7_金物
  6
Continuous
 62
     7
370
     5
100
AcDbLine
 10
2802.094032691745
 20
-1288.539592575253
 30
0.0
 11
2790.781970191205
 21
-1294.943776107304
 31
0.0
  0
LINE
  5
308
330
1F
100
AcDbEntity
  8
0-7_金物
  6
Continuous
 62
     7
370
     5
100
AcDbLine
 10
2802.74120745696
 20
-1278.770796793245
 30
0.0
 11
2790.181586542391
 21
-1285.88127000943
 31
0.0
  0
LINE
  5
309
330
1F
100
AcDbEntity
  8
0-7_金物
  6
Continuous
 62
     7
370
     5
100
AcDbLine
 10
2803.388382222172
 20
-1269.002001011236
 30
0.0
 11
2789.581202893574
 21
-1276.818763911554
 31
0.0
  0
LINE
  5
30A
330
1F
100
AcDbEntity
  8
0-7_金物
  6
Continuous
 62
     7
370
     5
100
AcDbLine
 10
2804.035556987388
 20
-1259.23320522923
 30
0.0
 11
2788.98081924476
 21
-1267.756257813681
 31
0.0
  0
LINE
  5
30B
330
1F
100
AcDbEntity
  8
0-7_金物
  6
Continuous
 62
     7
370
     5
100
AcDbLine
 10
2804.682731752599
 20
-1249.46440944722
 30
0.0
 11
2788.380435595942
 21
-1258.693751715805
 31
0.0
  0
LINE
  5
30C
330
1F
100
AcDbEntity
  8
0-7_金物
  6
Continuous
 62
     7
370
     5
100
AcDbLine
 10
2805.329906517815
 20
-1239.695613665213
 30
0.0
 11
2787.780051947125
 21
-1249.631245617931
 31
0.0
  0
LINE
  5
30D
330
1F
100
AcDbEntity
  8
0-7_金物
  6
Continuous
 62
     7
370
     5
100
AcDbLine
 10
2805.97708128303
 20
-1229.926817883206
 30
0.0
 11
2787.179668298311
 21
-1240.568739520057
 31
0.0
  0
LINE
  5
30E
330
1F
100
AcDbEntity
  8
0-7_金物
  6
Continuous
 62
     7
370
     5
100
AcDbLine
 10
2806.624256048242
 20
-1220.158022101198
 30
0.0
 11
2786.579284649494
 21
-1231.506233422184
 31
0.0
  0
LINE
  5
30F
330
1F
100
AcDbEntity
  8
0-7_金物
  6
Continuous
 62
     7
370
     5
100
AcDbLine
 10
2807.271430813458
 20
-1210.389226319191
 30
0.0
 11
2785.978901000677
 21
-1222.443727324308
 31
0.0
  0
LINE
  5
310
330
1F
100
AcDbEntity
  8
0-7_金物
  6
Continuous
 62
     7
370
     5
100
AcDbLine
 10
2807.918605578669
 20
-1200.620430537181
 30
0.0
 11
2785.378517351863
 21
-1213.381221226432
 31
0.0
  0
LINE
  5
311
330
1F
100
AcDbEntity
  8
0-7_金物
  6
Continuous
 62
     7
370
     5
100
AcDbLine
 10
2797.563809335248
 20
-1356.921163049308
 30
0.0
 11
2794.98465573292
 21
-1358.381318792424
 31
0.0
  0
LINE
  5
312
330
1F
100
AcDbEntity
  8
0-7_金物
  6
Continuous
 62
     7
370
     5
100
AcDbLine
 10
2808.565780343885
 20
-1190.851634755175
 30
0.0
 11
2784.778133703045
 21
-1204.318715128559
 31
0.0
  0
LINE
  5
313
330
1F
100
AcDbEntity
  8
0-7_金物
  6
Continuous
 62
     7
370
     5
100
AcDbLine
 10
2820.136908157459
 20
-1162.446809452398
 30
0.0
 11
2809.191640779821
 21
-1181.404568652899
 31
0.0
  0
LINE
  5
314
330
1F
100
AcDbEntity
  8
0-7_金物
  6
Continuous
 62
     7
370
     5
100
AcDbLine
 10
2772.314822781821
 20
-1162.446809452398
 30
0.0
 11
2783.260090159463
 21
-1181.404568652899
 31
0.0
  0
ELLIPSE
  5
315
330
1F
100
AcDbEntity
  8
0-7_金物
  6
Continuous
 62
     7
370
     5
100
AcDbEllipse
 10
2796.225865469642
 20
-1154.916783852898
 30
0.0
 11
28.25850499469571
 21
0.0
 31
0.0
210
0.0
220
0.0
230
1.0
 40
0.5
 41
0.0
 42
6.283185307179586
  0
LINE
  5
316
330
1F
100
AcDbEntity
  8
0-7_金物
  6
Continuous
 62
     7
370
     5
100
AcDbLine
 10
2984.04302237901
 20
-1262.042148267141
 30
0.0
 11
2984.04302237901
 21
-1252.945892748141
 31
0.0
  0
LINE
  5
317
330
1F
100
AcDbEntity
  8
0-7_金物
  6
Continuous
 62
     7
370
     5
100
AcDbLine
 10
2984.04302237901
 20
-1277.34175180814
 30
0.0
 11
2984.04302237901
 21
-1268.245496289141
 31
0.0
  0
LINE
  5
318
330
1F
100
AcDbEntity
  8
0-7_金物
  6
Continuous
 62
     7
370
     5
100
AcDbLine
 10
2990.246370401009
 20
-1262.042148267141
 30
0.0
 11
2990.246370401009
 21
-1252.945892748141
 31
0.0
  0
LINE
  5
319
330
1F
100
AcDbEntity
  8
0-7_金物
  6
Continuous
 62
     7
370
     5
100
AcDbLine
 10
2990.246370401009
 20
-1277.34175180814
 30
0.0
 11
2990.246370401009
 21
-1268.245496289141
 31
0.0
  0
LINE
  5
31A
330
1F
100
AcDbEntity
  8
0-7_金物
  6
Continuous
 62
     7
370
     5
100
AcDbLine
 10
2990.246370401009
 20
-1268.245496289141
 30
0.0
 11
3010.424293646009
 21
-1268.245496289141
 31
0.0
  0
LINE
  5
31B
330
1F
100
AcDbEntity
  8
0-7_金物
  6
Continuous
 62
     7
370
     5
100
AcDbLine
 10
2963.865099132885
 20
-1268.245496289141
 30
0.0
 11
2984.04302237901
 21
-1268.245496289141
 31
0.0
  0
LINE
  5
31C
330
1F
100
AcDbEntity
  8
0-7_金物
  6
Continuous
 62
     7
370
     5
100
AcDbLine
 10
2990.246370401009
 20
-1262.042148267141
 30
0.0
 11
3010.424293646009
 21
-1262.042148267141
 31
0.0
  0
LINE
  5
31D
330
1F
100
AcDbEntity
  8
0-7_金物
  6
Continuous
 62
     7
370
     5
100
AcDbLine
 10
2963.865099132885
 20
-1262.042148267141
 30
0.0
 11
2984.04302237901
 21
-1262.042148267141
 31
0.0
  0
LINE
  5
31E
330
1F
100
AcDbEntity
  8
0-7_金物
  6
Continuous
 62
     7
370
     5
100
AcDbLine
 10
2984.04302237901
 20
-1252.945892748141
 30
0.0
 11
2990.246370401009
 21
-1252.945892748141
 31
0.0
  0
LINE
  5
31F
330
1F
100
AcDbEntity
  8
0-7_金物
  6
Continuous
 62
     7
370
     5
100
AcDbLine
 10
2984.04302237901
 20
-1277.34175180814
 30
0.0
 11
2990.246370401009
 21
-1277.34175180814
 31
0.0
  0
LINE
  5
320
330
1F
100
AcDbEntity
  8
0-7_金物
  6
Continuous
 62
     7
370
     5
100
AcDbLine
 10
3010.424293646009
 20
-1268.245496289141
 30
0.0
 11
3010.424293646009
 21
-1262.042148267141
 31
0.0
  0
LINE
  5
321
330
1F
100
AcDbEntity
  8
0-7_金物
  6
Continuous
 62
     7
370
     5
100
AcDbLine
 10
2963.865099132885
 20
-1262.042148267141
 30
0.0
 11
2963.865099132885
 21
-1268.245496289141
 31
0.0
  0
LINE
  5
322
330
1F
100
AcDbEntity
  8
0-7_金物
  6
Continuous
 62
     7
370
     5
100
AcDbLine
 10
2989.129815020829
 20
-1457.379405692542
 30
0.0
 11
2985.303103004472
 21
-1459.545851119793
 31
0.0
  0
LINE
  5
323
330
1F
100
AcDbEntity
  8
0-7_金物
  6
Continuous
 62
     7
370
     5
100
AcDbLine
 10
2989.776989786044
 20
-1447.610609910535
 30
0.0
 11
2984.702719355654
 21
-1450.48334502192
 31
0.0
  0
LINE
  5
324
330
1F
100
AcDbEntity
  8
0-7_金物
  6
Continuous
 62
     7
370
     5
100
AcDbLine
 10
2990.424164551256
 20
-1437.841814128526
 30
0.0
 11
2984.102335706837
 21
-1441.420838924044
 31
0.0
  0
LINE
  5
325
330
1F
100
AcDbEntity
  8
0-7_金物
  6
Continuous
 62
     7
370
     5
100
AcDbLine
 10
2991.071339316471
 20
-1428.073018346518
 30
0.0
 11
2983.501952058023
 21
-1432.35833282617
 31
0.0
  0
LINE
  5
326
330
1F
100
AcDbEntity
  8
0-7_金物
  6
Continuous
 62
     7
370
     5
100
AcDbLine
 10
2991.718514081687
 20
-1418.304222564511
 30
0.0
 11
2982.901568409206
 21
-1423.295826728297
 31
0.0
  0
LINE
  5
327
330
1F
100
AcDbEntity
  8
0-7_金物
  6
Continuous
 62
     7
370
     5
100
AcDbLine
 10
2992.365688846899
 20
-1408.535426782503
 30
0.0
 11
2982.301184760392
 21
-1414.233320630421
 31
0.0
  0
LINE
  5
328
330
1F
100
AcDbEntity
  8
0-7_金物
  6
Continuous
 62
     7
370
     5
100
AcDbLine
 10
2993.012863612114
 20
-1398.766631000496
 30
0.0
 11
2981.700801111574
 21
-1405.170814532547
 31
0.0
  0
LINE
  5
329
330
1F
100
AcDbEntity
  8
0-7_金物
  6
Continuous
 62
     7
370
     5
100
AcDbLine
 10
2993.660038377326
 20
-1388.997835218487
 30
0.0
 11
2981.100417462757
 21
-1396.108308434672
 31
0.0
  0
LINE
  5
32A
330
1F
100
AcDbEntity
  8
0-7_金物
  6
Continuous
 62
     7
370
     5
100
AcDbLine
 10
2994.307213142542
 20
-1379.22903943648
 30
0.0
 11
2980.500033813943
 21
-1387.045802336797
 31
0.0
  0
LINE
  5
32B
330
1F
100
AcDbEntity
  8
0-7_金物
  6
Continuous
 62
     7
370
     5
100
AcDbLine
 10
2994.954387907754
 20
-1369.460243654472
 30
0.0
 11
2979.899650165126
 21
-1377.983296238924
 31
0.0
  0
LINE
  5
32C
330
1F
100
AcDbEntity
  8
0-7_金物
  6
Continuous
 62
     7
370
     5
100
AcDbLine
 10
2995.601562672969
 20
-1359.691447872463
 30
0.0
 11
2979.299266516308
 21
-1368.920790141049
 31
0.0
  0
LINE
  5
32D
330
1F
100
AcDbEntity
  8
0-7_金物
  6
Continuous
 62
     7
370
     5
100
AcDbLine
 10
2996.248737438181
 20
-1349.922652090456
 30
0.0
 11
2978.698882867494
 21
-1359.858284043174
 31
0.0
  0
LINE
  5
32E
330
1F
100
AcDbEntity
  8
0-7_金物
  6
Continuous
 62
     7
370
     5
100
AcDbLine
 10
2996.895912203396
 20
-1340.153856308448
 30
0.0
 11
2978.098499218677
 21
-1350.795777945299
 31
0.0
  0
LINE
  5
32F
330
1F
100
AcDbEntity
  8
0-7_金物
  6
Continuous
 62
     7
370
     5
100
AcDbLine
 10
2997.543086968612
 20
-1330.385060526441
 30
0.0
 11
2977.498115569863
 21
-1341.733271847426
 31
0.0
  0
LINE
  5
330
330
1F
100
AcDbEntity
  8
0-7_金物
  6
Continuous
 62
     7
370
     5
100
AcDbLine
 10
2998.190261733824
 20
-1320.616264744434
 30
0.0
 11
2976.897731921046
 21
-1332.670765749551
 31
0.0
  0
LINE
  5
331
330
1F
100
AcDbEntity
  8
0-7_金物
  6
Continuous
 62
     7
370
     5
100
AcDbLine
 10
2998.837436499039
 20
-1310.847468962425
 30
0.0
 11
2976.297348272229
 21
-1323.608259651676
 31
0.0
  0
LINE
  5
332
330
1F
100
AcDbEntity
  8
0-7_金物
  6
Continuous
 62
     7
370
     5
100
AcDbLine
 10
2988.482640255617
 20
-1467.148201474551
 30
0.0
 11
2985.903486653286
 21
-1468.608357217668
 31
0.0
  0
LINE
  5
333
330
1F
100
AcDbEntity
  8
0-7_金物
  6
Continuous
 62
     7
370
     5
100
AcDbLine
 10
2999.484611264251
 20
-1301.078673180417
 30
0.0
 11
2975.696964623415
 21
-1314.545753553802
 31
0.0
  0
LINE
  5
334
330
1F
100
AcDbEntity
  8
0-7_金物
  6
Continuous
 62
     7
370
     5
100
AcDbLine
 10
2987.144696390008
 20
-1487.343828828141
 30
0.0
 11
3000.110471700187
 21
-1291.631607078142
 31
0.0
  0
LINE
  5
335
330
1F
100
AcDbEntity
  8
0-7_金物
  6
Continuous
 62
     7
370
     5
100
AcDbLine
 10
3011.055739077829
 20
-1272.673847877641
 30
0.0
 11
3000.110471700187
 21
-1291.631607078142
 31
0.0
  0
LINE
  5
336
330
1F
100
AcDbEntity
  8
0-7_金物
  6
Continuous
 62
     7
370
     5
100
AcDbLine
 10
2987.144696390008
 20
-1487.343828828141
 30
0.0
 11
2974.178921079829
 21
-1291.631607078142
 31
0.0
  0
LINE
  5
337
330
1F
100
AcDbEntity
  8
0-7_金物
  6
Continuous
 62
     7
370
     5
100
AcDbLine
 10
2963.23365370219
 20
-1272.673847877641
 30
0.0
 11
2974.178921079829
 21
-1291.631607078142
 31
0.0
  0
ELLIPSE
  5
338
330
1F
100
AcDbEntity
  8
0-7_金物
  6
Continuous
 62
     7
370
     5
100
AcDbEllipse
 10
2987.144696390008
 20
-1265.143822278141
 30
0.0
 11
28.25850499469571
 21
0.0
 31
0.0
210
0.0
220
0.0
230
1.0
 40
0.5
 41
0.0
 42
6.283185307179586
  0
LINE
  5
339
330
1F
100
AcDbEntity
  8
0-0_補助線
  6
JWW_HOJO
 62
   120
370
     5
100
AcDbLine
 10
3045.481005837898
 20
-1611.79366212549
 30
0.0
 11
2928.808386942118
 21
-1679.154630052029
 31
0.0
  0
LINE
  5
33A
330
1F
100
AcDbEntity
  8
0-0_補助線
  6
JWW_HOJO
 62
   120
370
     5
100
AcDbLine
 10
2944.718289518815
 20
-1620.979248660928
 30
0.0
 11
3029.571103261201
 21
-1669.969043516591
 31
0.0
  0
LINE
  5
33B
330
1F
100
AcDbEntity
  8
0-0_補助線
  6
JWW_HOJO
 62
   120
370
     5
100
AcDbLine
 10
3040.890715215619
 20
-1626.691316365839
 30
0.0
 11
3063.054598966708
 21
-1599.546213411575
 31
0.0
  0
LINE
  5
33C
330
1F
100
AcDbEntity
  8
0-0_補助線
  6
JWW_HOJO
 62
   120
370
     5
100
AcDbLine
 10
3061.01014854405
 20
-1608.511968133255
 30
0.0
 11
3049.855586744694
 21
-1621.223140799964
 31
0.0
  0
LINE
  5
33D
330
1F
100
AcDbEntity
  8
0-0_補助線
  6
JWW_HOJO
 62
   120
370
     5
100
AcDbLine
 10
2935.880999139811
 20
-1645.906129470681
 30
0.0
 11
2913.279244235969
 21
-1608.951631760769
 31
0.0
  0
LINE
  5
33E
330
1F
100
AcDbEntity
  8
0-0_補助線
  6
JWW_HOJO
 62
   120
370
     5
100
AcDbLine
 10
2911.234793813311
 20
-1617.917386482449
 30
0.0
 11
2930.288851168857
 21
-1643.238193347931
 31
0.0
  0
LINE
  5
33F
330
1F
100
AcDbEntity
  8
0-0_補助線
  6
JWW_HOJO
 62
   120
370
     5
100
AcDbLine
 10
2872.135768046338
 20
-1489.319174986332
 30
0.0
 11
2870.472077494228
 21
-1491.35677145761
 31
0.0
  0
LINE
  5
340
330
1F
100
AcDbEntity
  8
0-0_補助線
  6
JWW_HOJO
 62
   120
370
     5
100
AcDbLine
 10
2928.808386942118
 20
-1593.422489054617
 30
0.0
 11
2950.021590377715
 21
-1642.41228391028
 31
0.0
  0
LINE
  5
341
330
1F
100
AcDbEntity
  8
0-0_補助線
  6
JWW_HOJO
 62
   120
370
     5
100
AcDbLine
 10
3061.01014854405
 20
-1590.580458689894
 30
0.0
 11
3032.032373755377
 21
-1631.805682192482
 31
0.0
  0
LINE
  5
342
330
1F
100
AcDbEntity
  8
0-0_補助線
  6
JWW_HOJO
 62
   120
370
     5
100
AcDbLine
 10
3029.03536108024
 20
-1627.628305515479
 30
0.0
 11
3055.016123193773
 21
-1582.225705335886
 31
0.0
  0
LINE
  5
343
330
1F
100
AcDbEntity
  8
0-0_補助線
  6
JWW_HOJO
 62
   120
370
     5
100
AcDbLine
 10
3045.481005837898
 20
-1575.051315983744
 30
0.0
 11
3024.267802402301
 21
-1624.041110839407
 31
0.0
  0
LINE
  5
344
330
1F
100
AcDbEntity
  8
0-0_補助線
  6
JWW_HOJO
 62
   120
370
     5
100
AcDbLine
 10
3018.054598966708
 20
-1621.288559553322
 30
0.0
 11
3033.054598966708
 21
-1569.546213411575
 31
0.0
  0
LINE
  5
345
330
1F
100
AcDbEntity
  8
0-0_補助線
  6
JWW_HOJO
 62
   120
370
     5
100
AcDbLine
 10
3018.583741672857
 20
-1566.085561262062
 30
0.0
 11
3010.819170319781
 21
-1619.558233478566
 31
0.0
  0
LINE
  5
346
330
1F
100
AcDbEntity
  8
0-0_補助線
  6
JWW_HOJO
 62
   120
370
     5
100
AcDbLine
 10
3003.054598966708
 20
-1618.968051477634
 30
0.0
 11
3003.054598966708
 21
-1564.905197260197
 31
0.0
  0
LINE
  5
347
330
1F
100
AcDbEntity
  8
0-0_補助線
  6
JWW_HOJO
 62
   120
370
     5
100
AcDbLine
 10
2987.525456260556
 20
-1566.085561262062
 30
0.0
 11
2995.290027613632
 21
-1619.558233478566
 31
0.0
  0
LINE
  5
348
330
1F
100
AcDbEntity
  8
0-0_補助線
  6
JWW_HOJO
 62
   120
370
     5
100
AcDbLine
 10
2988.054598966708
 20
-1621.288559553322
 30
0.0
 11
2973.054598966708
 21
-1569.546213411575
 31
0.0
  0
LINE
  5
349
330
1F
100
AcDbEntity
  8
0-0_補助線
  6
JWW_HOJO
 62
   120
370
     5
100
AcDbLine
 10
2960.628192095515
 20
-1575.051315983744
 30
0.0
 11
2981.841395531111
 21
-1624.041110839407
 31
0.0
  0
LINE
  5
34A
330
1F
100
AcDbEntity
  8
0-B_寸法
  6
Continuous
 62
   120
370
     5
100
AcDbLine
 10
2781.231272128327
 20
-1837.84308919854
 30
0.0
 11
2718.486712834889
 21
-1874.068677396792
 31
0.0
  0
LINE
  5
34B
330
1F
100
AcDbEntity
  8
0-B_寸法
  6
JWW_CENTER1
 62
   120
370
     5
100
AcDbLine
 10
3216.099894200285
 20
-1586.771493284127
 30
0.0
 11
2799.312023081916
 21
-1827.40408286929
 31
0.0
  0
LWPOLYLINE
  5
34C
330
1F
100
AcDbEntity
  8
0-B_寸法
  6
Continuous
 62
     7
370
     5
100
AcDbPolyline
 90
        4
 70
     1
 43
3.0
 10
2719.986712834889
 20
-1874.068677396792
 42
0.4142135623731
 10
2718.486712834889
 20
-1872.568677396792
 42
0.4142135623731
 10
2716.986712834889
 20
-1874.068677396792
 42
0.4142135623731
 10
2718.486712834889
 20
-1875.568677396792
 42
0.4142135623731
  0
LINE
  5
34D
330
1F
100
AcDbEntity
  8
0-B_寸法
  6
Continuous
 62
   120
370
     5
100
AcDbLine
 10
3306.714911453388
 20
-1738.122230426218
 30
0.0
 11
3358.558352240287
 21
-1768.054054920251
 31
0.0
  0
LINE
  5
34E
330
1F
100
AcDbEntity
  8
0-B_寸法
  6
Continuous
 62
   120
370
     5
100
AcDbLine
 10
3444.324426850048
 20
-1718.536988656968
 30
0.0
 11
3358.558352240287
 21
-1768.05405492025
 31
0.0
  0
LWPOLYLINE
  5
34F
330
1F
100
AcDbEntity
  8
0-B_寸法
  6
Continuous
 62
     7
370
     5
100
AcDbPolyline
 90
        4
 70
     1
 43
3.0
 10
3360.058352240286
 20
-1768.054054920251
 42
0.4142135623731
 10
3358.558352240287
 20
-1766.554054920251
 42
0.4142135623731
 10
3357.058352240287
 20
-1768.054054920251
 42
0.4142135623731
 10
3358.558352240287
 20
-1769.554054920251
 42
0.4142135623731
  0
LINE
  5
350
330
1F
100
AcDbEntity
  8
0-B_寸法
  6
Continuous
 62
   120
370
     5
100
AcDbLine
 10
3444.324426839811
 20
-1718.536988639233
 30
0.0
 11
3390.498186514815
 21
-1687.460394298132
 31
0.0
  0
LWPOLYLINE
  5
351
330
1F
100
AcDbEntity
  8
0-B_寸法
  6
Continuous
 62
     7
370
     5
100
AcDbPolyline
 90
        4
 70
     1
 43
3.0
 10
3445.824426839811
 20
-1718.536988639233
 42
0.4142135623731
 10
3444.324426839811
 20
-1717.036988639233
 42
0.4142135623731
 10
3442.824426839811
 20
-1718.536988639233
 42
0.4142135623731
 10
3444.324426839811
 20
-1720.036988639233
 42
0.4142135623731
  0
LINE
  5
352
330
1F
100
AcDbEntity
  8
0-B_寸法
  6
JWW_CENTER1
 62
   120
370
     5
100
AcDbLine
 10
3216.099894200285
 20
-1586.771493284127
 30
0.0
 11
3378.735988291857
 21
-1680.669485987845
 31
0.0
  0
LINE
  5
353
330
1F
100
AcDbEntity
  8
0-6_扉
  6
Continuous
 62
    40
370
     5
100
AcDbLine
 10
3019.877762421012
 20
-1442.863970895612
 30
0.0
 11
2993.361258126518
 21
-1458.173281788007
 31
0.0
  0
LINE
  5
354
330
1F
100
AcDbEntity
  8
0-6_扉
  6
Continuous
 62
    40
370
     5
100
AcDbLine
 10
3120.640478740094
 20
-1531.657974071502
 30
0.0
 11
3216.099894200285
 21
-1586.771493284127
 31
0.0
  0
LINE
  5
355
330
1F
100
AcDbEntity
  8
0-6_扉
  6
Continuous
 62
    40
370
     5
100
AcDbLine
 10
3216.099894200285
 20
-1586.771493284127
 30
0.0
 11
3788.856386961387
 21
-1256.0903780084
 31
0.0
  0
LINE
  5
356
330
1F
100
AcDbEntity
  8
0-7_金物
  6
Continuous
 62
     7
370
     5
100
AcDbLine
 10
1998.103088556122
 20
-2263.274608983778
 30
0.0
 11
4007.254502865607
 21
-2263.274608983778
 31
0.0
  0
LWPOLYLINE
  5
357
330
1F
100
AcDbEntity
  8
1-B_ﾊｯﾁ
  6
Continuous
 62
     7
370
     5
100
AcDbPolyline
 90
        4
 70
     1
 43
3.0
 10
2974.301891438814
 20
-3450.771559770652
 42
0.4142135623731
 10
2972.801891438814
 20
-3449.271559770652
 42
0.4142135623731
 10
2971.301891438814
 20
-3450.771559770652
 42
0.4142135623731
 10
2972.801891438814
 20
-3452.271559770652
 42
0.4142135623731
  0
LINE
  5
358
330
1F
100
AcDbEntity
  8
1-B_ﾊｯﾁ
  6
Continuous
 62
   120
370
     5
100
AcDbLine
 10
2972.801891438814
 20
-3450.771559770652
 30
0.0
 11
2972.801891438814
 21
-3330.675423701138
 31
0.0
  0
LINE
  5
359
330
1F
100
AcDbEntity
  8
0-7_金物
  6
Continuous
 62
     7
370
     5
100
AcDbLine
 10
4007.254502865607
 20
-2263.274608983778
 30
0.0
 11
4007.254502865607
 21
-3523.984708650141
 31
0.0
  0
LINE
  5
35A
330
1F
100
AcDbEntity
  8
0-7_金物
  6
Continuous
 62
     7
370
     5
100
AcDbLine
 10
1998.103088556122
 20
-3523.984708650141
 30
0.0
 11
1998.103088556122
 21
-2263.274608983778
 31
0.0
  0
LINE
  5
35B
330
1F
100
AcDbEntity
  8
1-B_ﾊｯﾁ
  6
Continuous
 62
   120
370
     5
100
AcDbLine
 10
2972.801891438814
 20
-3450.771559770652
 30
0.0
 11
2688.532465520444
 21
-3450.771559770652
 31
0.0
  0
LINE
  5
35C
330
1F
100
AcDbEntity
  8
1-B_ﾊｯﾁ
  6
Continuous
 62
   120
370
     5
100
AcDbLine
 10
2897.801891438814
 20
-3330.675423701138
 30
0.0
 11
2897.801891438814
 21
-3450.771559770652
 31
0.0
  0
LWPOLYLINE
  5
35D
330
1F
100
AcDbEntity
  8
1-B_ﾊｯﾁ
  6
Continuous
 62
     7
370
     5
100
AcDbPolyline
 90
        4
 70
     1
 43
3.0
 10
2899.301891438814
 20
-3450.771559770652
 42
0.4142135623731
 10
2897.801891438814
 20
-3449.271559770652
 42
0.4142135623731
 10
2896.301891438814
 20
-3450.771559770652
 42
0.4142135623731
 10
2897.801891438814
 20
-3452.271559770652
 42
0.4142135623731
  0
LINE
  5
35E
330
1F
100
AcDbEntity
  8
0-7_金物
  6
Continuous
 62
     7
370
     5
100
AcDbLine
 10
4007.254502865607
 20
-3523.984708650141
 30
0.0
 11
1998.103088556122
 21
-3523.984708650141
 31
0.0
  0
LWPOLYLINE
  5
35F
330
1F
100
AcDbEntity
  8
1-B_ﾊｯﾁ
  6
Continuous
 62
     7
370
     5
100
AcDbPolyline
 90
        4
 70
     1
 43
3.0
 10
2477.004694146149
 20
-3255.675423701138
 42
0.4142135623731
 10
2475.504694146149
 20
-3254.175423701138
 42
0.4142135623731
 10
2474.004694146149
 20
-3255.675423701138
 42
0.4142135623731
 10
2475.504694146149
 20
-3257.175423701138
 42
0.4142135623731
  0
LINE
  5
360
330
1F
100
AcDbEntity
  8
1-B_ﾊｯﾁ
  6
Continuous
 62
   120
370
     5
100
AcDbLine
 10
2475.504694146149
 20
-3255.675423701138
 30
0.0
 11
2572.577575522293
 21
-3255.675423701138
 31
0.0
  0
ARC
  5
361
330
1F
100
AcDbEntity
  8
1-7_金物
  6
Continuous
 62
     7
370
     5
100
AcDbCircle
 10
2635.301891438814
 20
-2948.175423701138
 30
0.0
 40
7.5
100
AcDbArc
 50
90.0
 51
180.0
  0
LINE
  5
362
330
1F
100
AcDbEntity
  8
1-7_金物
  6
Continuous
 62
     7
370
     5
100
AcDbLine
 10
2627.801891438814
 20
-3113.175423701138
 30
0.0
 11
2627.801891438814
 21
-2948.175423701138
 31
0.0
  0
ARC
  5
363
330
1F
100
AcDbEntity
  8
1-7_金物
  6
Continuous
 62
     7
370
     5
100
AcDbCircle
 10
2635.301891438814
 20
-3113.175423701138
 30
0.0
 40
7.5
100
AcDbArc
 50
180.0
 51
270.0
  0
LINE
  5
364
330
1F
100
AcDbEntity
  8
1-7_金物
  6
Continuous
 62
     7
370
     5
100
AcDbLine
 10
2665.301891438814
 20
-3120.675423701138
 30
0.0
 11
2635.301891438814
 21
-3120.675423701138
 31
0.0
  0
ARC
  5
365
330
1F
100
AcDbEntity
  8
1-7_金物
  6
Continuous
 62
     7
370
     5
100
AcDbCircle
 10
2665.301891438814
 20
-3113.175423701138
 30
0.0
 40
7.5
100
AcDbArc
 50
270.0
 51
0.0
  0
LINE
  5
366
330
1F
100
AcDbEntity
  8
1-7_金物
  6
Continuous
 62
     7
370
     5
100
AcDbLine
 10
2665.301891438814
 20
-2940.675423701138
 30
0.0
 11
2635.301891438814
 21
-2940.675423701138
 31
0.0
  0
ARC
  5
367
330
1F
100
AcDbEntity
  8
1-7_金物
  6
Continuous
 62
     7
370
     5
100
AcDbCircle
 10
2665.301891438814
 20
-2948.175423701138
 30
0.0
 40
7.5
100
AcDbArc
 50
0.0
 51
90.0
  0
ARC
  5
368
330
1F
100
AcDbEntity
  8
1-7_金物
  6
Continuous
 62
     7
370
     5
100
AcDbCircle
 10
2702.801891438814
 20
-2835.675423701138
 30
0.0
 40
30.0
100
AcDbArc
 50
90.0
 51
180.0
  0
LINE
  5
369
330
1F
100
AcDbEntity
  8
1-7_金物
  6
Continuous
 62
     7
370
     5
100
AcDbLine
 10
2672.801891438814
 20
-3225.675423701138
 30
0.0
 11
2672.801891438814
 21
-2835.675423701138
 31
0.0
  0
ARC
  5
36A
330
1F
100
AcDbEntity
  8
1-7_金物
  6
Continuous
 62
     7
370
     5
100
AcDbCircle
 10
2702.801891438814
 20
-3225.675423701138
 30
0.0
 40
30.0
100
AcDbArc
 50
180.0
 51
270.0
  0
ARC
  5
36B
330
1F
100
AcDbEntity
  8
1-7_金物
  6
Continuous
 62
     7
370
     5
100
AcDbCircle
 10
2867.801891438814
 20
-2835.675423701138
 30
0.0
 40
30.0
100
AcDbArc
 50
0.0
 51
90.0
  0
LINE
  5
36C
330
1F
100
AcDbEntity
  8
1-7_金物
  6
Continuous
 62
     7
370
     5
100
AcDbLine
 10
2897.801891438814
 20
-3225.675423701138
 30
0.0
 11
2897.801891438814
 21
-2835.675423701138
 31
0.0
  0
ARC
  5
36D
330
1F
100
AcDbEntity
  8
1-7_金物
  6
Continuous
 62
     7
370
     5
100
AcDbCircle
 10
2867.801891438814
 20
-3225.675423701138
 30
0.0
 40
30.0
100
AcDbArc
 50
270.0
 51
0.0
  0
LINE
  5
36E
330
1F
100
AcDbEntity
  8
1-7_金物
  6
Continuous
 62
     7
370
     5
100
AcDbLine
 10
2867.801891438814
 20
-3255.675423701138
 30
0.0
 11
2702.801891438814
 21
-3255.675423701138
 31
0.0
  0
LINE
  5
36F
330
1F
100
AcDbEntity
  8
1-7_金物
  6
Continuous
 62
     7
370
     5
100
AcDbLine
 10
2702.801891438814
 20
-2805.675423701138
 30
0.0
 11
2867.801891438814
 21
-2805.675423701138
 31
0.0
  0
ARC
  5
370
330
1F
100
AcDbEntity
  8
1-7_金物
  6
Continuous
 62
     7
370
     5
100
AcDbCircle
 10
2807.801891438814
 20
-3165.675423701138
 30
0.0
 40
60.0
100
AcDbArc
 50
270.0
 51
90.0
  0
ARC
  5
371
330
1F
100
AcDbEntity
  8
1-7_金物
  6
Continuous
 62
     7
370
     5
100
AcDbCircle
 10
2807.801891438814
 20
-2895.675423701138
 30
0.0
 40
60.0
100
AcDbArc
 50
270.0
 51
90.0
  0
ARC
  5
372
330
1F
100
AcDbEntity
  8
1-7_金物
  6
Continuous
 62
     7
370
     5
100
AcDbCircle
 10
2807.801891438814
 20
-2895.675423701138
 30
0.0
 40
30.0
100
AcDbArc
 50
270.0
 51
90.0
  0
ARC
  5
373
330
1F
100
AcDbEntity
  8
1-7_金物
  6
Continuous
 62
     7
370
     5
100
AcDbCircle
 10
2807.801891438814
 20
-3165.675423701138
 30
0.0
 40
30.0
100
AcDbArc
 50
270.0
 51
90.0
  0
ARC
  5
374
330
1F
100
AcDbEntity
  8
1-7_金物
  6
Continuous
 62
     7
370
     5
100
AcDbCircle
 10
2762.801891438814
 20
-2895.675423701138
 30
0.0
 40
60.0
100
AcDbArc
 50
90.0
 51
270.0
  0
ARC
  5
375
330
1F
100
AcDbEntity
  8
1-7_金物
  6
Continuous
 62
     7
370
     5
100
AcDbCircle
 10
2762.801891438814
 20
-2895.675423701138
 30
0.0
 40
30.0
100
AcDbArc
 50
90.0
 51
270.0
  0
ARC
  5
376
330
1F
100
AcDbEntity
  8
1-7_金物
  6
Continuous
 62
     7
370
     5
100
AcDbCircle
 10
2762.801891438814
 20
-3165.675423701138
 30
0.0
 40
60.0
100
AcDbArc
 50
90.0
 51
270.0
  0
ARC
  5
377
330
1F
100
AcDbEntity
  8
1-7_金物
  6
Continuous
 62
     7
370
     5
100
AcDbCircle
 10
2762.801891438814
 20
-3165.675423701138
 30
0.0
 40
30.0
100
AcDbArc
 50
90.0
 51
270.0
  0
LINE
  5
378
330
1F
100
AcDbEntity
  8
1-7_金物
  6
Continuous
 62
     7
370
     5
100
AcDbLine
 10
2762.801891438814
 20
-2925.675423701138
 30
0.0
 11
2807.801891438814
 21
-2925.675423701138
 31
0.0
  0
LINE
  5
379
330
1F
100
AcDbEntity
  8
1-7_金物
  6
Continuous
 62
     7
370
     5
100
AcDbLine
 10
2807.801891438814
 20
-2865.675423701138
 30
0.0
 11
2762.801891438814
 21
-2865.675423701138
 31
0.0
  0
LINE
  5
37A
330
1F
100
AcDbEntity
  8
1-7_金物
  6
Continuous
 62
     7
370
     5
100
AcDbLine
 10
2807.801891438814
 20
-2835.675423701138
 30
0.0
 11
2762.801891438814
 21
-2835.675423701138
 31
0.0
  0
LINE
  5
37B
330
1F
100
AcDbEntity
  8
1-7_金物
  6
Continuous
 62
     7
370
     5
100
AcDbLine
 10
2807.801891438814
 20
-2955.675423701138
 30
0.0
 11
2762.801891438814
 21
-2955.675423701138
 31
0.0
  0
LINE
  5
37C
330
1F
100
AcDbEntity
  8
1-7_金物
  6
Continuous
 62
     7
370
     5
100
AcDbLine
 10
2762.801891438814
 20
-3225.675423701138
 30
0.0
 11
2807.801891438814
 21
-3225.675423701138
 31
0.0
  0
LINE
  5
37D
330
1F
100
AcDbEntity
  8
1-7_金物
  6
Continuous
 62
     7
370
     5
100
AcDbLine
 10
2762.801891438814
 20
-3195.675423701138
 30
0.0
 11
2807.801891438814
 21
-3195.675423701138
 31
0.0
  0
LINE
  5
37E
330
1F
100
AcDbEntity
  8
1-7_金物
  6
Continuous
 62
     7
370
     5
100
AcDbLine
 10
2807.801891438814
 20
-3135.675423701138
 30
0.0
 11
2762.801891438814
 21
-3135.675423701138
 31
0.0
  0
LINE
  5
37F
330
1F
100
AcDbEntity
  8
1-7_金物
  6
Continuous
 62
     7
370
     5
100
AcDbLine
 10
2762.801891438814
 20
-3105.675423701138
 30
0.0
 11
2807.801891438814
 21
-3105.675423701138
 31
0.0
  0
LWPOLYLINE
  5
380
330
1F
100
AcDbEntity
  8
1-B_ﾊｯﾁ
  6
Continuous
 62
     7
370
     5
100
AcDbPolyline
 90
        4
 70
     1
 43
3.0
 10
2477.004694146149
 20
-2805.675423701138
 42
0.4142135623731
 10
2475.504694146149
 20
-2804.175423701138
 42
0.4142135623731
 10
2474.004694146149
 20
-2805.675423701138
 42
0.4142135623731
 10
2475.504694146149
 20
-2807.175423701138
 42
0.4142135623731
  0
LINE
  5
381
330
1F
100
AcDbEntity
  8
1-B_ﾊｯﾁ
  6
Continuous
 62
   120
370
     5
100
AcDbLine
 10
2475.504694146149
 20
-2805.675423701138
 30
0.0
 11
2572.577575522293
 21
-2805.675423701138
 31
0.0
  0
LINE
  5
382
330
1F
100
AcDbEntity
  8
1-B_ﾊｯﾁ
  6
Continuous
 62
   120
370
     5
100
AcDbLine
 10
2475.504694146149
 20
-3255.675423701138
 30
0.0
 11
2475.504694146149
 21
-2805.675423701138
 31
0.0
  0
LWPOLYLINE
  5
383
330
1F
100
AcDbEntity
  8
1-B_ﾊｯﾁ
  6
Continuous
 62
     7
370
     5
100
AcDbPolyline
 90
        4
 70
     1
 43
3.0
 10
2899.301891438814
 20
-2508.028182171125
 42
0.4142135623731
 10
2897.801891438814
 20
-2506.528182171125
 42
0.4142135623731
 10
2896.301891438814
 20
-2508.028182171125
 42
0.4142135623731
 10
2897.801891438814
 20
-2509.528182171125
 42
0.4142135623731
  0
LINE
  5
384
330
1F
100
AcDbEntity
  8
1-B_ﾊｯﾁ
  6
Continuous
 62
   120
370
     5
100
AcDbLine
 10
2897.801891438814
 20
-2508.028182171125
 30
0.0
 11
2897.801891438814
 21
-2610.675423701138
 31
0.0
  0
LINE
  5
385
330
1F
100
AcDbEntity
  8
1-B_ﾊｯﾁ
  6
Continuous
 62
   120
370
     5
100
AcDbLine
 10
2627.801891438814
 20
-2508.028182171125
 30
0.0
 11
2897.801891438814
 21
-2508.028182171125
 31
0.0
  0
LWPOLYLINE
  5
386
330
1F
100
AcDbEntity
  8
1-B_ﾊｯﾁ
  6
Continuous
 62
     7
370
     5
100
AcDbPolyline
 90
        4
 70
     1
 43
3.0
 10
2629.301891438814
 20
-2508.028182171125
 42
0.4142135623731
 10
2627.801891438814
 20
-2506.528182171125
 42
0.4142135623731
 10
2626.301891438814
 20
-2508.028182171125
 42
0.4142135623731
 10
2627.801891438814
 20
-2509.528182171125
 42
0.4142135623731
  0
LINE
  5
387
330
1F
100
AcDbEntity
  8
1-B_ﾊｯﾁ
  6
Continuous
 62
   120
370
     5
100
AcDbLine
 10
2627.801891438814
 20
-2508.028182171125
 30
0.0
 11
2627.801891438814
 21
-2610.675423701138
 31
0.0
  0
LWPOLYLINE
  5
388
330
1F
100
AcDbEntity
  8
1-B_ﾊｯﾁ
  6
Continuous
 62
     7
370
     5
100
AcDbPolyline
 90
        4
 70
     1
 43
3.0
 10
2629.301891438814
 20
-2610.675423701138
 42
0.4142135623731
 10
2627.801891438814
 20
-2609.175423701138
 42
0.4142135623731
 10
2626.301891438814
 20
-2610.675423701138
 42
0.4142135623731
 10
2627.801891438814
 20
-2612.175423701138
 42
0.4142135623731
  0
LWPOLYLINE
  5
389
330
1F
100
AcDbEntity
  8
1-B_ﾊｯﾁ
  6
Continuous
 62
     7
370
     5
100
AcDbPolyline
 90
        4
 70
     1
 43
3.0
 10
2674.301891438814
 20
-2610.675423701138
 42
0.4142135623731
 10
2672.801891438814
 20
-2609.175423701138
 42
0.4142135623731
 10
2671.301891438814
 20
-2610.675423701138
 42
0.4142135623731
 10
2672.801891438814
 20
-2612.175423701138
 42
0.4142135623731
  0
LINE
  5
38A
330
1F
100
AcDbEntity
  8
1-B_ﾊｯﾁ
  6
Continuous
 62
   120
370
     5
100
AcDbLine
 10
2627.801891438814
 20
-2610.675423701138
 30
0.0
 11
2627.801891438814
 21
-2730.675423701138
 31
0.0
  0
LINE
  5
38B
330
1F
100
AcDbEntity
  8
1-B_ﾊｯﾁ
  6
Continuous
 62
   120
370
     5
100
AcDbLine
 10
2672.801891438814
 20
-2610.675423701138
 30
0.0
 11
2672.801891438814
 21
-2730.675423701138
 31
0.0
  0
LINE
  5
38C
330
1F
100
AcDbEntity
  8
1-B_ﾊｯﾁ
  6
Continuous
 62
   120
370
     5
100
AcDbLine
 10
2672.801891438814
 20
-2610.675423701138
 30
0.0
 11
2897.801891438814
 21
-2610.675423701138
 31
0.0
  0
LWPOLYLINE
  5
38D
330
1F
100
AcDbEntity
  8
1-B_ﾊｯﾁ
  6
Continuous
 62
     7
370
     5
100
AcDbPolyline
 90
        4
 70
     1
 43
3.0
 10
2899.301891438814
 20
-2610.675423701138
 42
0.4142135623731
 10
2897.801891438814
 20
-2609.175423701138
 42
0.4142135623731
 10
2896.301891438814
 20
-2610.675423701138
 42
0.4142135623731
 10
2897.801891438814
 20
-2612.175423701138
 42
0.4142135623731
  0
LINE
  5
38E
330
1F
100
AcDbEntity
  8
1-B_ﾊｯﾁ
  6
Continuous
 62
   120
370
     5
100
AcDbLine
 10
2897.801891438814
 20
-2610.675423701138
 30
0.0
 11
2897.801891438814
 21
-2730.675423701138
 31
0.0
  0
LINE
  5
38F
330
1F
100
AcDbEntity
  8
1-B_ﾊｯﾁ
  6
Continuous
 62
   120
370
     5
100
AcDbLine
 10
2558.411955753231
 20
-2610.675423701138
 30
0.0
 11
2672.801891438814
 21
-2610.675423701138
 31
0.0
  0
LINE
  5
390
330
1F
100
AcDbEntity
  8
1-4_枠
  6
JWW_CENTER1
 62
   120
370
     5
100
AcDbLine
 10
2785.301891438814
 20
-2805.675423701138
 30
0.0
 11
2785.301891438814
 21
-3255.675423701138
 31
0.0
  0
LINE
  5
391
330
1F
100
AcDbEntity
  8
0-6_扉
  6
Continuous
 62
    40
370
     5
100
AcDbLine
 10
3120.640478740094
 20
-1501.039352286712
 30
0.0
 11
3019.877762421012
 21
-1442.863970895612
 31
0.0
  0
LINE
  5
392
330
1F
100
AcDbEntity
  8
1-4_枠
  6
JWW_CENTER1
 62
   120
370
     5
100
AcDbLine
 10
3767.801891438814
 20
-3030.675423701138
 30
0.0
 11
3513.340728088479
 21
-3030.675423701138
 31
0.0
  0
LINE
  5
393
330
1F
100
AcDbEntity
  8
1-4_枠
  6
JWW_CENTER1
 62
   120
370
     5
100
AcDbLine
 10
3210.013672219051
 20
-3030.675423701138
 30
0.0
 11
2572.577575522293
 21
-3030.675423701138
 31
0.0
  0
LINE
  5
394
330
1F
100
AcDbEntity
  8
0-A_文字
  6
Continuous
 62
    92
370
     5
100
AcDbLine
 10
1884.918171683585
 20
8.99980204814426
 30
0.0
 11
4121.19105021936
 21
8.99980204814426
 31
0.0
  0
LINE
  5
395
330
1F
100
AcDbEntity
  8
0-A_文字
  6
Continuous
 62
    92
370
     5
100
AcDbLine
 10
1884.918171683585
 20
-171.0001979518557
 30
0.0
 11
4121.19105021936
 21
-171.0001979518557
 31
0.0
  0
MTEXT
  5
396
330
1F
100
AcDbEntity
  8
0-A_文字
  6
Continuous
 62
     7
370
     5
100
AcDbMText
 10
2103.054610951472
 20
-155.2801979518558
 30
0.0
 40
91.43999999999996
 41
1800.0
 46
0.0
 71
     7
 72
     1
  1
{\fＭＳ ゴシック|b0|i0|c128|p49;振れ止め金具(床付け用)取り付け}
 73
     1
 44
1.0
  0
MTEXT
  5
397
330
1F
100
AcDbEntity
  8
0-A_文字
  6
Continuous
 62
     7
370
     5
100
AcDbMText
 10
1998.371558105541
 20
-358.4650800606196
 30
0.0
 40
68.58
 41
1080.0
 46
0.0
 71
     7
 72
     1
  1
{\fＭＳ ゴシック|b0|i0|c128|p49;振れ止め金具(床付け用)を}
 73
     1
 44
1.0
  0
MTEXT
  5
398
330
1F
100
AcDbEntity
  8
0-A_文字
  6
Continuous
 62
     7
370
     5
100
AcDbMText
 10
1998.371558105541
 20
-463.6819117621722
 30
0.0
 40
68.58
 41
1260.0
 46
0.0
 71
     7
 72
     1
  1
{\fＭＳ ゴシック|b0|i0|c128|p49;下記のように床へ取り付けます}
 73
     1
 44
1.0
  0
MTEXT
  5
399
330
1F
100
AcDbEntity
  8
0-A_文字
  6
Continuous
 62
     7
370
     5
100
AcDbMText
 10
2527.025267736249
 20
-855.9655349098812
 30
0.0
 40
68.58
 41
180.0
 46
0.0
 71
     7
 72
     1
  1
{\fＭＳ ゴシック|b0|i0|c128|p49;小壁}
 73
     1
 44
1.0
  0
MTEXT
  5
39A
330
1F
100
AcDbEntity
  8
0-A_文字
  6
Continuous
 62
     7
370
     5
100
AcDbMText
 10
3367.478140580836
 20
-1044.651059036338
 30
0.0
 40
68.57999999999998
 41
270.0
 46
0.0
 71
     7
 72
     1
  1
{\fＭＳ ゴシック|b0|i0|c128|p49;中方立}
 73
     1
 44
1.0
  0
MTEXT
  5
39B
330
1F
100
AcDbEntity
  8
0-A_文字
  6
Continuous
 62
     7
370
     5
100
AcDbMText
 10
2072.753670918852
 20
-2402.84484192887
 30
0.0
 40
68.57999999999998
 41
270.0
 46
0.0
 71
     7
 72
     1
  1
{\fＭＳ ゴシック|b0|i0|c128|p49;平面図}
 73
     1
 44
1.0
  0
MTEXT
  5
39C
330
1F
100
AcDbEntity
  8
0-A_文字
  6
Continuous
 62
     7
370
     5
100
AcDbMText
 10
3415.301891438814
 20
-2447.434382330833
 30
0.0
 40
68.58
 41
180.0
 46
0.0
 71
     7
 72
     1
  1
{\fＭＳ ゴシック|b0|i0|c128|p49;小壁}
 73
     1
 44
1.0
  0
MTEXT
  5
39D
330
1F
100
AcDbEntity
  8
0-A_文字
  6
Continuous
 62
     7
370
     5
100
AcDbMText
 10
3235.301891438814
 20
-3086.385423701138
 30
0.0
 40
68.57999999999998
 41
270.0
 46
0.0
 71
     7
 72
     1
  1
{\fＭＳ ゴシック|b0|i0|c128|p49;中方立}
 73
     1
 44
1.0
  0
MTEXT
  5
39E
330
1F
100
AcDbEntity
  8
0-B_寸法
  6
Continuous
 62
     7
370
     5
100
AcDbMText
 10
2266.707423259064
 20
-1192.71511946184
 30
0.0
 40
68.58
 41
450.0
 46
0.0
 71
     7
 72
     1
  1
{\fＭＳ ゴシック|b0|i0|c128|p49;ビス(同梱)}
 73
     1
 44
1.0
  0
MTEXT
  5
39F
330
1F
100
AcDbEntity
  8
0-B_寸法
  6
Continuous
 62
     7
370
   211
100
AcDbMText
 10
3454.95108708668
 20
-1886.231405304216
 30
0.0
 40
91.44
 41
60.0
 46
0.0
 71
     7
 72
     1
  1
{\fＭＳ ゴシック|b0|i0|c128|p49;5}
 73
     1
 44
1.0
  0
MTEXT
  5
3A0
330
1F
100
AcDbEntity
  8
0-B_寸法
  6
Continuous
 62
     7
370
   211
100
AcDbMText
 10
2358.486712834889
 20
-2043.509396712632
 30
0.0
 40
91.44
 41
720.0
 46
0.0
 71
     7
 72
     1
  1
{\fＭＳ ゴシック|b0|i0|c128|p49;15(中方立芯)}
 73
     1
 44
1.0
  0
MTEXT
  5
3A1
330
1F
100
AcDbEntity
  8
0-B_寸法
  6
Continuous
 62
     7
370
     5
100
AcDbMText
 10
3322.890959621398
 20
-2136.815648464768
 30
0.0
 40
68.58000000000001
 41
765.0
 46
0.0
 71
     7
 72
     1
  1
{\fＭＳ ゴシック|b0|i0|c128|p49;※図は左引き(L)の}
 73
     1
 44
1.0
  0
MTEXT
  5
3A2
330
1F
100
AcDbEntity
  8
0-B_寸法
  6
Continuous
 62
     7
370
     5
100
AcDbMText
 10
3322.890959621398
 20
-2248.301918819976
 30
0.0
 40
68.58
 41
540.0
 46
0.0
 71
     7
 72
     1
  1
{\fＭＳ ゴシック|b0|i0|c128|p49;　場合です。}
 73
     1
 44
1.0
  0
MTEXT
  5
3A3
330
1F
100
AcDbEntity
  8
1-A_寸法
  6
Continuous
 62
     7
370
     5
100
AcDbMText
 10
2949.014451130748
 20
-2722.759439645264
 30
0.0
 40
68.58
 41
810.0
 46
0.0
 71
     7
 72
     1
  1
{\fＭＳ ゴシック|b0|i0|c128|p49;振れ止め金具(床用)}
 73
     1
 44
1.0
  0
MTEXT
  5
3A4
330
1F
100
AcDbEntity
  8
1-B_ﾊｯﾁ
  6
Continuous
 62
     7
370
   211
100
AcDbMText
 10
2702.801891438814
 20
-2507.308182171125
 30
0.0
 40
91.44
 41
120.0
 46
0.0
 71
     7
 72
     1
  1
{\fＭＳ ゴシック|b0|i0|c128|p49;18}
 73
     1
 44
1.0
  0
MTEXT
  5
3A5
330
1F
100
AcDbEntity
  8
1-B_ﾊｯﾁ
  6
Continuous
 62
     7
370
   211
100
AcDbMText
 10
2558.411955753231
 20
-2759.955423701138
 30
0.0
 40
91.44
 41
60.0
 46
0.0
 71
     7
 72
     1
  1
{\fＭＳ ゴシック|b0|i0|c128|p49;3}
 73
     1
 44
1.0
  0
MTEXT
  5
3A6
330
1F
100
AcDbEntity
  8
1-B_ﾊｯﾁ
  6
Continuous
 62
     7
370
   211
100
AcDbMText
 10
2736.551891438814
 20
-2759.955423701138
 30
0.0
 40
91.44
 41
120.0
 46
0.0
 71
     7
 72
     1
  1
{\fＭＳ ゴシック|b0|i0|c128|p49;15}
 73
     1
 44
1.0
  0
MTEXT
  5
3A7
330
1F
100
AcDbEntity
  8
1-B_ﾊｯﾁ
  6
Continuous
 62
     7
370
   211
100
AcDbMText
 10
2460.504694146149
 20
-3104.955423701138
 30
0.0
 40
91.44
 41
120.0
 46
0.0
 71
     7
 72
     1
  1
{\fＭＳ ゴシック|b0|i0|c128|p49;30}
 11
6.123031769111886E-17
 21
1.0
 31
0.0
 73
     1
 44
1.0
  0
MTEXT
  5
3A8
330
1F
100
AcDbEntity
  8
1-B_ﾊｯﾁ
  6
Continuous
 62
     7
370
   211
100
AcDbMText
 10
2759.992994268827
 20
-3456.720999593171
 30
0.0
 40
91.44
 41
60.0
 46
0.0
 71
     7
 72
     1
  1
{\fＭＳ ゴシック|b0|i0|c128|p49;5}
 73
     1
 44
1.0
  0
LINE
  5
3A9
330
1F
100
AcDbEntity
  8
1-4_枠
  6
Continuous
 62
    92
370
     5
100
AcDbLine
 10
2972.801891438814
 20
-3120.675423701124
 30
0.0
 11
2972.801891438814
 21
-3255.675423701138
 31
0.0
  0
LINE
  5
3AA
330
1F
100
AcDbEntity
  8
1-4_枠
  6
Continuous
 62
    92
370
     5
100
AcDbLine
 10
2972.801891438814
 20
-2940.675423701117
 30
0.0
 11
2972.801891438814
 21
-2805.675423701127
 31
0.0
  0
LINE
  5
3AB
330
1F
100
AcDbEntity
  8
1-4_枠
  6
Continuous
 62
    92
370
     5
100
AcDbLine
 10
3010.301891438814
 20
-3120.675423701124
 30
0.0
 11
2972.801891438814
 21
-3120.675423701124
 31
0.0
  0
LINE
  5
3AC
330
1F
100
AcDbEntity
  8
1-4_枠
  6
Continuous
 62
    92
370
     5
100
AcDbLine
 10
3010.301891438814
 20
-3120.675423701124
 30
0.0
 11
3010.301891438814
 21
-2940.675423701117
 31
0.0
  0
LINE
  5
3AD
330
1F
100
AcDbEntity
  8
1-4_枠
  6
Continuous
 62
    92
370
     5
100
AcDbLine
 10
3010.301891438814
 20
-2940.675423701117
 30
0.0
 11
2972.801891438814
 21
-2940.675423701117
 31
0.0
  0
LINE
  5
3AE
330
1F
100
AcDbEntity
  8
1-3_仕上
  6
Continuous
 62
    40
370
     5
100
AcDbLine
 10
3085.303437551082
 20
-2805.675423701127
 30
0.0
 11
3085.303437551082
 21
-2301.977273196818
 31
0.0
  0
LINE
  5
3AF
330
1F
100
AcDbEntity
  8
1-4_枠
  6
Continuous
 62
    92
370
     5
100
AcDbLine
 10
3767.801891438814
 20
-2805.675423701127
 30
0.0
 11
2972.801891438814
 21
-2805.675423701127
 31
0.0
  0
LINE
  5
3B0
330
1F
100
AcDbEntity
  8
1-4_枠
  6
Continuous
 62
    92
370
     5
100
AcDbLine
 10
3767.801891438814
 20
-3255.675423701138
 30
0.0
 11
2972.801891438814
 21
-3255.675423701138
 31
0.0
  0
LINE
  5
3B1
330
1F
100
AcDbEntity
  8
0-A_文字
  6
Continuous
 62
    92
370
     5
100
AcDbLine
 10
4121.19105021936
 20
-3615.800350305689
 30
0.0
 11
4121.19105021936
 21
8.99980204814426
 31
0.0
  0
LINE
  5
3B2
330
1F
100
AcDbEntity
  8
0-A_文字
  6
Continuous
 62
    92
370
     5
100
AcDbLine
 10
1884.918171683585
 20
-3615.800350305689
 30
0.0
 11
1884.918171683585
 21
8.99980204814426
 31
0.0
  0
LINE
  5
3B3
330
1F
100
AcDbEntity
  8
0-A_文字
  6
Continuous
 62
    92
370
     5
100
AcDbLine
 10
1884.918171683585
 20
-3615.800350305689
 30
0.0
 11
4121.19105021936
 21
-3615.800350305689
 31
0.0
  0
LWPOLYLINE
  5
3B4
330
1F
100
AcDbEntity
  8
0-B_寸法
  6
Continuous
 62
     7
370
     5
100
AcDbPolyline
 90
        4
 70
     1
 43
3.0
 10
-3691.935360463294
 20
-2781.000403945505
 42
0.4142135623731
 10
-3693.435360463294
 20
-2779.500403945505
 42
0.4142135623731
 10
-3694.935360463294
 20
-2781.000403945505
 42
0.4142135623731
 10
-3693.435360463294
 20
-2782.500403945505
 42
0.4142135623731
  0
LINE
  5
3B5
330
1F
100
AcDbEntity
  8
0-B_寸法
  6
Continuous
 62
   120
370
     5
100
AcDbLine
 10
-3693.435360463294
 20
-2781.000403945505
 30
0.0
 11
-3573.435360463294
 21
-2781.000403945505
 31
0.0
  0
LINE
  5
3B6
330
1F
100
AcDbEntity
  8
0-0_補助線
  6
JWW_HOJO
 62
   120
370
     5
100
AcDbLine
 10
-2911.935360463271
 20
-1587.000300948678
 30
0.0
 11
-4093.935360463269
 21
-1587.000300948678
 31
0.0
  0
LINE
  5
3B7
330
1F
100
AcDbEntity
  8
0-0_補助線
  6
JWW_HOJO
 62
   120
370
     5
100
AcDbLine
 10
-2911.935360463271
 20
-1467.000300948678
 30
0.0
 11
-4093.935360463269
 21
-1467.000300948678
 31
0.0
  0
LINE
  5
3B8
330
1F
100
AcDbEntity
  8
0-B_寸法
  6
Continuous
 62
   120
370
     5
100
AcDbLine
 10
-3118.935360463281
 20
-2622.000403945506
 30
0.0
 11
-3238.935360463281
 21
-2622.000403945506
 31
0.0
  0
LINE
  5
3B9
330
1F
100
AcDbEntity
  8
0-B_寸法
  6
Continuous
 62
   120
370
     5
100
AcDbLine
 10
-3118.935360463281
 20
-2730.000403945506
 30
0.0
 11
-3238.935360463281
 21
-2730.000403945506
 31
0.0
  0
LWPOLYLINE
  5
3BA
330
1F
100
AcDbEntity
  8
0-B_寸法
  6
Continuous
 62
     7
370
     5
100
AcDbPolyline
 90
        4
 70
     1
 43
3.0
 10
-3117.435360463281
 20
-2622.000403945506
 42
0.4142135623731
 10
-3118.935360463281
 20
-2620.500403945506
 42
0.4142135623731
 10
-3120.435360463281
 20
-2622.000403945506
 42
0.4142135623731
 10
-3118.935360463281
 20
-2623.500403945506
 42
0.4142135623731
  0
LWPOLYLINE
  5
3BB
330
1F
100
AcDbEntity
  8
0-B_寸法
  6
Continuous
 62
     7
370
     5
100
AcDbPolyline
 90
        4
 70
     1
 43
3.0
 10
-3117.435360463281
 20
-2730.000403945506
 42
0.4142135623731
 10
-3118.935360463281
 20
-2728.500403945506
 42
0.4142135623731
 10
-3120.435360463281
 20
-2730.000403945506
 42
0.4142135623731
 10
-3118.935360463281
 20
-2731.500403945505
 42
0.4142135623731
  0
LINE
  5
3BC
330
1F
100
AcDbEntity
  8
0-B_寸法
  6
Continuous
 62
   120
370
     5
100
AcDbLine
 10
-3118.935360463281
 20
-2730.000403945506
 30
0.0
 11
-3118.935360463281
 21
-2622.000403945506
 31
0.0
  0
LINE
  5
3BD
330
1F
100
AcDbEntity
  8
0-4_枠
  6
Continuous
 62
   120
370
     5
100
AcDbLine
 10
-3037.935360463272
 20
-1587.000300948678
 30
0.0
 11
-3037.935360463272
 21
-2781.000403945504
 31
0.0
  0
LINE
  5
3BE
330
1F
100
AcDbEntity
  8
0-4_枠
  6
Continuous
 62
   120
370
     5
100
AcDbLine
 10
-3967.935360463274
 20
-1587.000300948679
 30
0.0
 11
-3967.935360463274
 21
-2781.000403945505
 31
0.0
  0
LINE
  5
3BF
330
1F
100
AcDbEntity
  8
0-0_補助線
  6
JWW_HOJO
 62
   120
370
     5
100
AcDbLine
 10
-4252.935360463274
 20
-2853.000197672981
 30
0.0
 11
-1963.935360463272
 21
-2853.000197672981
 31
0.0
  0
LINE
  5
3C0
330
1F
100
AcDbEntity
  8
0-B_寸法
  6
Continuous
 62
   120
370
     5
100
AcDbLine
 10
-1963.935360463272
 20
-2781.000403945504
 30
0.0
 11
-2803.935360463272
 21
-2781.000403945504
 31
0.0
  0
LWPOLYLINE
  5
3C1
330
1F
100
AcDbEntity
  8
0-B_寸法
  6
Continuous
 62
     7
370
     5
100
AcDbPolyline
 90
        4
 70
     1
 43
3.0
 10
-1962.435360463272
 20
-2853.000197672981
 42
0.4142135623731
 10
-1963.935360463272
 20
-2851.500197672981
 42
0.4142135623731
 10
-1965.435360463272
 20
-2853.000197672981
 42
0.4142135623731
 10
-1963.935360463272
 20
-2854.500197672981
 42
0.4142135623731
  0
LWPOLYLINE
  5
3C2
330
1F
100
AcDbEntity
  8
0-B_寸法
  6
Continuous
 62
     7
370
     5
100
AcDbPolyline
 90
        4
 70
     1
 43
3.0
 10
-1962.435360463272
 20
-2781.000609939156
 42
0.4142135623731
 10
-1963.935360463272
 20
-2779.500609939156
 42
0.4142135623731
 10
-1965.435360463272
 20
-2781.000609939156
 42
0.4142135623731
 10
-1963.935360463272
 20
-2782.500609939156
 42
0.4142135623731
  0
LINE
  5
3C3
330
1F
100
AcDbEntity
  8
0-B_寸法
  6
Continuous
 62
   120
370
     5
100
AcDbLine
 10
-1963.935360463272
 20
-2853.000197672981
 30
0.0
 11
-2803.935360463272
 21
-2853.000197672981
 31
0.0
  0
LWPOLYLINE
  5
3C4
330
1F
100
AcDbEntity
  8
0-B_寸法
  6
Continuous
 62
     7
370
     5
100
AcDbPolyline
 90
        4
 70
     1
 43
3.0
 10
-2172.435360463272
 20
-2781.000403945504
 42
0.4142135623731
 10
-2173.935360463272
 20
-2779.500403945504
 42
0.4142135623731
 10
-2175.435360463272
 20
-2781.000403945504
 42
0.4142135623731
 10
-2173.935360463272
 20
-2782.500403945504
 42
0.4142135623731
  0
LINE
  5
3C5
330
1F
100
AcDbEntity
  8
0-1_通り芯
  6
JWW_CENTER1
 62
   120
370
     5
100
AcDbLine
 10
-4267.280122975038
 20
-2853.000197951851
 30
0.0
 11
-1849.935360463273
 21
-2853.000197951851
 31
0.0
  0
LWPOLYLINE
  5
3C6
330
1F
100
AcDbEntity
  8
0-B_寸法
  6
Continuous
 62
     7
370
     5
100
AcDbPolyline
 90
        4
 70
     1
 43
3.0
 10
-2172.435360463272
 20
-2781.000609939156
 42
0.4142135623731
 10
-2173.935360463272
 20
-2779.500609939156
 42
0.4142135623731
 10
-2175.435360463272
 20
-2781.000609939156
 42
0.4142135623731
 10
-2173.935360463272
 20
-2782.500609939156
 42
0.4142135623731
  0
LINE
  5
3C7
330
1F
100
AcDbEntity
  8
0-B_寸法
  6
Continuous
 62
   120
370
     5
100
AcDbLine
 10
-2383.935360463272
 20
-2730.000609939157
 30
0.0
 11
-2803.935360463272
 21
-2730.000609939157
 31
0.0
  0
LWPOLYLINE
  5
3C8
330
1F
100
AcDbEntity
  8
0-B_寸法
  6
Continuous
 62
     7
370
     5
100
AcDbPolyline
 90
        4
 70
     1
 43
3.0
 10
-2382.435360463272
 20
-2730.000609939157
 42
0.4142135623731
 10
-2383.935360463272
 20
-2728.500609939157
 42
0.4142135623731
 10
-2385.435360463272
 20
-2730.000609939157
 42
0.4142135623731
 10
-2383.935360463272
 20
-2731.500609939157
 42
0.4142135623731
  0
LWPOLYLINE
  5
3C9
330
1F
100
AcDbEntity
  8
0-B_寸法
  6
Continuous
 62
     7
370
     5
100
AcDbPolyline
 90
        4
 70
     1
 43
3.0
 10
-2382.435360463272
 20
-2781.000609939156
 42
0.4142135623731
 10
-2383.935360463272
 20
-2779.500609939156
 42
0.4142135623731
 10
-2385.435360463272
 20
-2781.000609939156
 42
0.4142135623731
 10
-2383.935360463272
 20
-2782.500609939156
 42
0.4142135623731
  0
LINE
  5
3CA
330
1F
100
AcDbEntity
  8
0-6_扉
  6
Continuous
 62
   200
370
     5
100
AcDbLine
 10
-3298.935360463281
 20
-1587.000300948678
 30
0.0
 11
-3298.935360463281
 21
-2730.000403945506
 31
0.0
  0
LINE
  5
3CB
330
1F
100
AcDbEntity
  8
0-6_扉
  6
Continuous
 62
   200
370
     5
100
AcDbLine
 10
-3478.935360463281
 20
-1587.000300948678
 30
0.0
 11
-3478.935360463281
 21
-2730.000403945506
 31
0.0
  0
LINE
  5
3CC
330
1F
100
AcDbEntity
  8
0-0_補助線
  6
JWW_HOJO
 62
   120
370
     5
100
AcDbLine
 10
-3268.935360463281
 20
-2592.000403945505
 30
0.0
 11
-3268.935360463281
 21
-2853.000197672981
 31
0.0
  0
LINE
  5
3CD
330
1F
100
AcDbEntity
  8
0-0_補助線
  6
JWW_HOJO
 62
   120
370
     5
100
AcDbLine
 10
-3666.435360463259
 20
-2592.000403945505
 30
0.0
 11
-3666.435360463259
 21
-2853.000197672981
 31
0.0
  0
LINE
  5
3CE
330
1F
100
AcDbEntity
  8
0-0_補助線
  6
JWW_HOJO
 62
   120
370
     5
100
AcDbLine
 10
-3736.935360463278
 20
-2592.000403945505
 30
0.0
 11
-3736.935360463278
 21
-2853.000197672981
 31
0.0
  0
LINE
  5
3CF
330
1F
100
AcDbEntity
  8
仕上げ
  6
Continuous
 62
    40
370
     5
100
AcDbLine
 10
-4252.935360463274
 20
-2781.000403945504
 30
0.0
 11
-2803.935360463272
 21
-2781.000403945504
 31
0.0
  0
LINE
  5
3D0
330
1F
100
AcDbEntity
  8
仕上げ
  6
Continuous
 62
    40
370
     5
100
AcDbLine
 10
-4252.935360463274
 20
-2853.000403945504
 30
0.0
 11
-2803.935360463272
 21
-2853.000403945504
 31
0.0
  0
LINE
  5
3D1
330
1F
100
AcDbEntity
  8
仕上げ
  6
Continuous
 62
     7
370
     5
100
AcDbLine
 10
-4252.935360463274
 20
-2844.000403945503
 30
0.0
 11
-2803.935360463272
 21
-2844.000403945503
 31
0.0
  0
LINE
  5
3D2
330
1F
100
AcDbEntity
  8
仕上げ
  6
Continuous
 62
     7
370
     5
100
AcDbLine
 10
-4252.935360463274
 20
-2835.000403945503
 30
0.0
 11
-2803.935360463272
 21
-2835.000403945503
 31
0.0
  0
LINE
  5
3D3
330
1F
100
AcDbEntity
  8
仕上げ
  6
Continuous
 62
     7
370
     5
100
AcDbLine
 10
-4252.935360463274
 20
-2826.000403945504
 30
0.0
 11
-2803.935360463272
 21
-2826.000403945504
 31
0.0
  0
LINE
  5
3D4
330
1F
100
AcDbEntity
  8
仕上げ
  6
Continuous
 62
     7
370
     5
100
AcDbLine
 10
-4252.935360463274
 20
-2817.000403945503
 30
0.0
 11
-2803.935360463272
 21
-2817.000403945503
 31
0.0
  0
LINE
  5
3D5
330
1F
100
AcDbEntity
  8
仕上げ
  6
Continuous
 62
     7
370
     5
100
AcDbLine
 10
-4252.935360463274
 20
-2808.000403945503
 30
0.0
 11
-2803.935360463272
 21
-2808.000403945503
 31
0.0
  0
LINE
  5
3D6
330
1F
100
AcDbEntity
  8
仕上げ
  6
Continuous
 62
     7
370
     5
100
AcDbLine
 10
-4252.935360463274
 20
-2799.000403945503
 30
0.0
 11
-2803.935360463272
 21
-2799.000403945503
 31
0.0
  0
LINE
  5
3D7
330
1F
100
AcDbEntity
  8
仕上げ
  6
Continuous
 62
     7
370
     5
100
AcDbLine
 10
-4252.935360463274
 20
-2790.000403945503
 30
0.0
 11
-2803.935360463272
 21
-2790.000403945503
 31
0.0
  0
LINE
  5
3D8
330
1F
100
AcDbEntity
  8
0-0_補助線
  6
JWW_HOJO
 62
   120
370
     5
100
AcDbLine
 10
-3268.935360463281
 20
-2592.000403945505
 30
0.0
 11
-3736.935360463278
 21
-2592.000403945505
 31
0.0
  0
LINE
  5
3D9
330
1F
100
AcDbEntity
  8
0-A_文字
  6
Continuous
 62
     7
370
     5
100
AcDbLine
 10
-4159.548256462861
 20
-2728.118906012916
 30
0.0
 11
-4189.548256462861
 21
-2780.080430239982
 31
0.0
  0
LINE
  5
3DA
330
1F
100
AcDbEntity
  8
0-A_文字
  6
Continuous
 62
     7
370
     5
100
AcDbLine
 10
-4219.548256462861
 20
-2728.118906012916
 30
0.0
 11
-4159.548256462861
 21
-2728.118906012916
 31
0.0
  0
LINE
  5
3DB
330
1F
100
AcDbEntity
  8
0-A_文字
  6
Continuous
 62
     7
370
     5
100
AcDbLine
 10
-4219.548256462861
 20
-2728.118906012916
 30
0.0
 11
-4189.548256462861
 21
-2780.080430239982
 31
0.0
  0
LINE
  5
3DC
330
1F
100
AcDbEntity
  8
ハッチ
  6
Continuous
 62
   120
370
     5
100
AcDbLine
 10
-3394.973034471859
 20
-2780.75582453172
 30
0.0
 11
-3380.175362936664
 21
-2765.958152996522
 31
0.0
  0
LINE
  5
3DD
330
1F
100
AcDbEntity
  8
ハッチ
  6
Continuous
 62
   120
370
     5
100
AcDbLine
 10
-3420.673458008393
 20
-2781.000403945495
 30
0.0
 11
-3402.674055095669
 21
-2763.001001032775
 31
0.0
  0
LINE
  5
3DE
330
1F
100
AcDbEntity
  8
ハッチ
  6
Continuous
 62
   120
370
     5
100
AcDbLine
 10
-3397.935360463286
 20
-2758.262306400387
 30
0.0
 11
-3379.935360463272
 21
-2740.262306400378
 31
0.0
  0
LINE
  5
3DF
330
1F
100
AcDbEntity
  8
ハッチ
  6
Continuous
 62
   120
370
     5
100
AcDbLine
 10
-3446.129302131095
 20
-2781.000403945503
 30
0.0
 11
-3428.129899218381
 21
-2763.001001032785
 31
0.0
  0
LINE
  5
3E0
330
1F
100
AcDbEntity
  8
ハッチ
  6
Continuous
 62
   120
370
     5
100
AcDbLine
 10
-3397.935360463276
 20
-2732.806462277682
 30
0.0
 11
-3379.935360463268
 21
-2714.806462277676
 31
0.0
  0
LINE
  5
3E1
330
1F
100
AcDbEntity
  8
ハッチ
  6
Continuous
 62
   120
370
     5
100
AcDbLine
 10
-3471.585146253796
 20
-2781.000403945507
 30
0.0
 11
-3453.585743341086
 21
-2763.001001032795
 31
0.0
  0
LINE
  5
3E2
330
1F
100
AcDbEntity
  8
ハッチ
  6
Continuous
 62
   120
370
     5
100
AcDbLine
 10
-3397.935360463266
 20
-2707.350618154976
 30
0.0
 11
-3379.935360463262
 21
-2689.350618154971
 31
0.0
  0
LINE
  5
3E3
330
1F
100
AcDbEntity
  8
ハッチ
  6
Continuous
 62
   120
370
     5
100
AcDbLine
 10
-3397.935360463272
 20
-2681.894774032231
 30
0.0
 11
-3379.935360463265
 21
-2663.894774032222
 31
0.0
  0
LINE
  5
3E4
330
1F
100
AcDbEntity
  8
ハッチ
  6
Continuous
 62
   120
370
     5
100
AcDbLine
 10
-3487.935360463281
 20
-2771.894774032236
 30
0.0
 11
-3479.041587463822
 21
-2763.001001032777
 31
0.0
  0
LINE
  5
3E5
330
1F
100
AcDbEntity
  8
0-7_金物
  6
Continuous
 62
     7
370
     5
100
AcDbLine
 10
-3408.43536046328
 20
-2730.000403945506
 30
0.0
 11
-3408.43536046328
 21
-2622.000403945506
 31
0.0
  0
LINE
  5
3E6
330
1F
100
AcDbEntity
  8
0-7_金物
  6
Continuous
 62
     7
370
     5
100
AcDbLine
 10
-3426.435360463281
 20
-2730.000403945506
 30
0.0
 11
-3408.43536046328
 21
-2730.000403945506
 31
0.0
  0
LINE
  5
3E7
330
1F
100
AcDbEntity
  8
0-7_金物
  6
Continuous
 62
     7
370
     5
100
AcDbLine
 10
-3426.435360463281
 20
-2736.000403945504
 30
0.0
 11
-3426.435360463281
 21
-2730.000403945506
 31
0.0
  0
LINE
  5
3E8
330
1F
100
AcDbEntity
  8
0-7_金物
  6
Continuous
 62
     7
370
     5
100
AcDbLine
 10
-3402.435360463279
 20
-2736.000403945504
 30
0.0
 11
-3402.435360463279
 21
-2628.000403945505
 31
0.0
  0
LINE
  5
3E9
330
1F
100
AcDbEntity
  8
0-7_金物
  6
Continuous
 62
     7
370
     5
100
AcDbLine
 10
-3402.435360463279
 20
-2736.000403945504
 30
0.0
 11
-3426.435360463281
 21
-2736.000403945504
 31
0.0
  0
LINE
  5
3EA
330
1F
100
AcDbEntity
  8
0-7_金物
  6
Continuous
 62
     7
370
     5
100
AcDbLine
 10
-3369.43536046328
 20
-2622.000403945506
 30
0.0
 11
-3369.43536046328
 21
-2730.000403945506
 31
0.0
  0
LINE
  5
3EB
330
1F
100
AcDbEntity
  8
0-7_金物
  6
Continuous
 62
     7
370
     5
100
AcDbLine
 10
-3375.435360463281
 20
-2628.000403945505
 30
0.0
 11
-3375.435360463281
 21
-2736.000403945504
 31
0.0
  0
LINE
  5
3EC
330
1F
100
AcDbEntity
  8
0-7_金物
  6
Continuous
 62
     7
370
     5
100
AcDbLine
 10
-3408.43536046328
 20
-2622.000403945506
 30
0.0
 11
-3369.43536046328
 21
-2622.000403945506
 31
0.0
  0
LINE
  5
3ED
330
1F
100
AcDbEntity
  8
0-7_金物
  6
Continuous
 62
     7
370
     5
100
AcDbLine
 10
-3375.435360463281
 20
-2628.000403945505
 30
0.0
 11
-3402.435360463279
 21
-2628.000403945505
 31
0.0
  0
LINE
  5
3EE
330
1F
100
AcDbEntity
  8
0-7_金物
  6
Continuous
 62
     7
370
     5
100
AcDbLine
 10
-3375.435360463281
 20
-2736.000403945504
 30
0.0
 11
-3351.435360463281
 21
-2736.000403945504
 31
0.0
  0
LINE
  5
3EF
330
1F
100
AcDbEntity
  8
0-7_金物
  6
Continuous
 62
     7
370
     5
100
AcDbLine
 10
-3351.435360463281
 20
-2730.000403945506
 30
0.0
 11
-3351.435360463281
 21
-2736.000403945504
 31
0.0
  0
LINE
  5
3F0
330
1F
100
AcDbEntity
  8
0-7_金物
  6
Continuous
 62
     7
370
     5
100
AcDbLine
 10
-3369.43536046328
 20
-2730.000403945506
 30
0.0
 11
-3351.435360463281
 21
-2730.000403945506
 31
0.0
  0
LINE
  5
3F1
330
1F
100
AcDbEntity
  8
0-7_金物
  6
Continuous
 62
    92
370
     5
100
AcDbLine
 10
-3487.935360463281
 20
-2763.000403945504
 30
0.0
 11
-3487.935360463281
 21
-2781.000403945504
 31
0.0
  0
LINE
  5
3F2
330
1F
100
AcDbEntity
  8
0-7_金物
  6
Continuous
 62
    92
370
     5
100
AcDbLine
 10
-3487.935360463281
 20
-2763.000403945504
 30
0.0
 11
-3397.935360463272
 21
-2763.000403945504
 31
0.0
  0
LINE
  5
3F3
330
1F
100
AcDbEntity
  8
0-7_金物
  6
Continuous
 62
    92
370
     5
100
AcDbLine
 10
-3397.935360463272
 20
-2661.000403945504
 30
0.0
 11
-3379.935360463272
 21
-2661.000403945504
 31
0.0
  0
LINE
  5
3F4
330
1F
100
AcDbEntity
  8
0-7_金物
  6
Continuous
 62
    92
370
     5
100
AcDbLine
 10
-3397.935360463272
 20
-2661.000403945504
 30
0.0
 11
-3397.935360463272
 21
-2763.000403945504
 31
0.0
  0
LINE
  5
3F5
330
1F
100
AcDbEntity
  8
0-7_金物
  6
Continuous
 62
    92
370
     5
100
AcDbLine
 10
-3397.935360463272
 20
-2781.000403945504
 30
0.0
 11
-3487.935360463281
 21
-2781.000403945504
 31
0.0
  0
LINE
  5
3F6
330
1F
100
AcDbEntity
  8
0-7_金物
  6
Continuous
 62
    92
370
     5
100
AcDbLine
 10
-3379.935360463272
 20
-2763.000403945504
 30
0.0
 11
-3379.935360463272
 21
-2661.000403945504
 31
0.0
  0
ARC
  5
3F7
330
1F
100
AcDbEntity
  8
0-7_金物
  6
Continuous
 62
    92
370
     5
100
AcDbCircle
 10
-3397.935360463272
 20
-2763.000403945504
 30
0.0
 40
18.0
100
AcDbArc
 50
270.0
 51
0.0
  0
LINE
  5
3F8
330
1F
100
AcDbEntity
  8
0-6_扉
  6
Continuous
 62
   200
370
     5
100
AcDbLine
 10
-3369.43536046328
 20
-2622.000403945506
 30
0.0
 11
-3369.43536046328
 21
-2730.000403945506
 31
0.0
  0
LINE
  5
3F9
330
1F
100
AcDbEntity
  8
0-6_扉
  6
Continuous
 62
   200
370
     5
100
AcDbLine
 10
-3408.435360463282
 20
-2622.000403945506
 30
0.0
 11
-3408.435360463282
 21
-2730.000403945506
 31
0.0
  0
LINE
  5
3FA
330
1F
100
AcDbEntity
  8
0-6_扉
  6
Continuous
 62
   200
370
     5
100
AcDbLine
 10
-3369.43536046328
 20
-2622.000403945506
 30
0.0
 11
-3408.435360463282
 21
-2622.000403945506
 31
0.0
  0
LINE
  5
3FB
330
1F
100
AcDbEntity
  8
0-6_扉
  6
Continuous
 62
   200
370
     5
100
AcDbLine
 10
-3408.435360463282
 20
-2730.000403945506
 30
0.0
 11
-3478.935360463281
 21
-2730.000403945506
 31
0.0
  0
LINE
  5
3FC
330
1F
100
AcDbEntity
  8
0-6_扉
  6
Continuous
 62
   200
370
     5
100
AcDbLine
 10
-3298.935360463281
 20
-2730.000403945506
 30
0.0
 11
-3369.43536046328
 21
-2730.000403945506
 31
0.0
  0
LWPOLYLINE
  5
3FD
330
1F
100
AcDbEntity
  8
0-B_寸法
  6
Continuous
 62
     7
370
     5
100
AcDbPolyline
 90
        4
 70
     1
 43
3.0
 10
-3373.935360463271
 20
-2532.000403945505
 42
0.4142135623731
 10
-3375.435360463271
 20
-2530.500403945505
 42
0.4142135623731
 10
-3376.935360463271
 20
-2532.000403945505
 42
0.4142135623731
 10
-3375.435360463271
 20
-2533.500403945505
 42
0.4142135623731
  0
LINE
  5
3FE
330
1F
100
AcDbEntity
  8
0-B_寸法
  6
Continuous
 62
   120
370
     5
100
AcDbLine
 10
-3375.435360463271
 20
-2532.000403945505
 30
0.0
 11
-3375.435360463271
 21
-2592.000403945505
 31
0.0
  0
LWPOLYLINE
  5
3FF
330
1F
100
AcDbEntity
  8
0-B_寸法
  6
Continuous
 62
     7
370
     5
100
AcDbPolyline
 90
        4
 70
     1
 43
3.0
 10
-3400.93536046327
 20
-2532.000403945505
 42
0.4142135623731
 10
-3402.43536046327
 20
-2530.500403945505
 42
0.4142135623731
 10
-3403.93536046327
 20
-2532.000403945505
 42
0.4142135623731
 10
-3402.43536046327
 20
-2533.500403945505
 42
0.4142135623731
  0
LINE
  5
400
330
1F
100
AcDbEntity
  8
0-B_寸法
  6
Continuous
 62
   120
370
     5
100
AcDbLine
 10
-3402.43536046327
 20
-2532.000403945505
 30
0.0
 11
-3402.43536046327
 21
-2592.000403945505
 31
0.0
  0
LINE
  5
401
330
1F
100
AcDbEntity
  8
0-B_寸法
  6
Continuous
 62
   120
370
     5
100
AcDbLine
 10
-3402.43536046327
 20
-2532.000403945505
 30
0.0
 11
-3375.435360463271
 21
-2532.000403945505
 31
0.0
  0
LINE
  5
402
330
1F
100
AcDbEntity
  8
0-B_寸法
  6
Continuous
 62
   120
370
     5
100
AcDbLine
 10
-3693.435360463294
 20
-2781.000403945505
 30
0.0
 11
-3693.435360463294
 21
-2661.000403945504
 31
0.0
  0
LWPOLYLINE
  5
403
330
1F
100
AcDbEntity
  8
0-B_寸法
  6
Continuous
 62
     7
370
     5
100
AcDbPolyline
 90
        4
 70
     1
 43
3.0
 10
-3691.935360463294
 20
-2661.000403945504
 42
0.4142135623731
 10
-3693.435360463294
 20
-2659.500403945504
 42
0.4142135623731
 10
-3694.935360463294
 20
-2661.000403945504
 42
0.4142135623731
 10
-3693.435360463294
 20
-2662.500403945504
 42
0.4142135623731
  0
LINE
  5
404
330
1F
100
AcDbEntity
  8
0-B_寸法
  6
Continuous
 62
   120
370
     5
100
AcDbLine
 10
-3693.435360463294
 20
-2661.000403945504
 30
0.0
 11
-3573.435360463294
 21
-2661.000403945504
 31
0.0
  0
LINE
  5
405
330
1F
100
AcDbEntity
  8
ハッチ
  6
Continuous
 62
   120
370
     5
100
AcDbLine
 10
-3623.720221399006
 20
-330.0001979518578
 30
0.0
 11
-3446.720221398999
 21
-153.0001979518559
 31
0.0
  0
LINE
  5
406
330
1F
100
AcDbEntity
  8
ハッチ
  6
Continuous
 62
   120
370
     5
100
AcDbLine
 10
-3564.32325177935
 20
-330.0001979518578
 30
0.0
 11
-3475.335360463272
 21
-241.0123066357795
 31
0.0
  0
LINE
  5
407
330
1F
100
AcDbEntity
  8
ハッチ
  6
Continuous
 62
   120
370
     5
100
AcDbLine
 10
-3683.11719101864
 20
-330.0001979518578
 30
0.0
 11
-3506.117191018644
 21
-153.0001979518559
 31
0.0
  0
LINE
  5
408
330
1F
100
AcDbEntity
  8
ハッチ
  6
Continuous
 62
   120
370
     5
100
AcDbLine
 10
-3801.911130258008
 20
-330.0001979518723
 30
0.0
 11
-3624.911130257991
 21
-153.0001979518559
 31
0.0
  0
LINE
  5
409
330
1F
100
AcDbEntity
  8
ハッチ
  6
Continuous
 62
   120
370
     5
100
AcDbLine
 10
-3565.514160638348
 20
-153.0001979518525
 30
0.0
 11
-3742.514160638349
 21
-330.0001979518612
 31
0.0
  0
LINE
  5
40A
330
1F
100
AcDbEntity
  8
0-4_枠
  6
Continuous
 62
    92
370
     5
100
AcDbLine
 10
-3475.335360463272
 20
-333.0001979518559
 30
0.0
 11
-3943.935360463269
 21
-333.0001979518559
 31
0.0
  0
LINE
  5
40B
330
1F
100
AcDbEntity
  8
0-4_枠
  6
Continuous
 62
    92
370
     5
100
AcDbLine
 10
-3475.335360463272
 20
-330.0001979518578
 30
0.0
 11
-3940.935795338765
 21
-330.0001979518578
 31
0.0
  0
LINE
  5
40C
330
1F
100
AcDbEntity
  8
0-B_寸法
  6
Continuous
 62
   120
370
     5
100
AcDbLine
 10
-3478.935360463281
 20
-1119.000324800429
 30
0.0
 11
-3298.935360463281
 21
-1119.000324800429
 31
0.0
  0
LINE
  5
40D
330
1F
100
AcDbEntity
  8
0-7_金物
  6
Continuous
 62
     7
370
     5
100
AcDbLine
 10
-3406.935359909906
 20
-414.0001979518547
 30
0.0
 11
-3406.935359909906
 21
-382.8001976237923
 31
0.0
  0
LINE
  5
40E
330
1F
100
AcDbEntity
  8
0-7_金物
  6
Continuous
 62
     7
370
     5
100
AcDbLine
 10
-3370.935359909906
 20
-382.8001976237923
 30
0.0
 11
-3370.935359909906
 21
-414.0001979518547
 31
0.0
  0
ARC
  5
40F
330
1F
100
AcDbEntity
  8
0-7_金物
  6
Continuous
 62
     7
370
     5
100
AcDbCircle
 10
-3502.935359712286
 20
-443.4001972245846
 30
0.0
 40
3.599999976284835
100
AcDbArc
 50
180.0
 51
0.0
  0
LINE
  5
410
330
1F
100
AcDbEntity
  8
0-7_金物
  6
Continuous
 62
     7
370
     5
100
AcDbLine
 10
-3499.335359736002
 20
-341.4001978965189
 30
0.0
 11
-3499.335359736
 21
-443.4001972245846
 31
0.0
  0
ARC
  5
411
330
1F
100
AcDbEntity
  8
0-7_金物
  6
Continuous
 62
     7
370
     5
100
AcDbCircle
 10
-3498.135359743909
 20
-341.4001978965206
 30
0.0
 40
1.199999992095854
100
AcDbArc
 50
89.99999999993486
 51
179.9999999999349
  0
LINE
  5
412
330
1F
100
AcDbEntity
  8
0-7_金物
  6
Continuous
 62
     7
370
     5
100
AcDbLine
 10
-3472.935359909914
 20
-340.200197904424
 30
0.0
 11
-3498.135359743905
 21
-340.200197904424
 31
0.0
  0
LINE
  5
413
330
1F
100
AcDbEntity
  8
0-7_金物
  6
Continuous
 62
     7
370
     5
100
AcDbLine
 10
-3505.335359696476
 20
-333.0001979518551
 30
0.0
 11
-3472.935359909914
 21
-333.0001979518551
 31
0.0
  0
LINE
  5
414
330
1F
100
AcDbEntity
  8
0-7_金物
  6
Continuous
 62
     7
370
     5
100
AcDbLine
 10
-3472.935359909914
 20
-353.794791421993
 30
0.0
 11
-3472.935359909914
 21
-340.200197904424
 31
0.0
  0
ARC
  5
415
330
1F
100
AcDbEntity
  8
0-7_金物
  6
Continuous
 62
     7
370
     5
100
AcDbCircle
 10
-3460.935359988966
 20
-353.794791421993
 30
0.0
 40
11.99999992094837
100
AcDbArc
 50
179.9999999999987
 51
215.9505676196161
  0
ARC
  5
416
330
1F
100
AcDbEntity
  8
0-7_金物
  6
Continuous
 62
     7
370
     5
100
AcDbCircle
 10
-3440.535360123352
 20
-339.0001979123284
 30
0.0
 40
37.19999975494188
100
AcDbArc
 50
215.9505676196163
 51
293.8188413934565
  0
ARC
  5
417
330
1F
100
AcDbEntity
  8
0-7_金物
  6
Continuous
 62
     7
370
     5
100
AcDbCircle
 10
-3427.935360206355
 20
-367.5427974657416
 30
0.0
 40
5.999999960474696
100
AcDbArc
 50
293.8188413934587
 51
0.0000000000009542
  0
LINE
  5
418
330
1F
100
AcDbEntity
  8
0-7_金物
  6
Continuous
 62
     7
370
     5
100
AcDbLine
 10
-3421.935360245883
 20
-366.0001977344638
 30
0.0
 11
-3421.935360245883
 21
-367.5427974657416
 31
0.0
  0
ARC
  5
419
330
1F
100
AcDbEntity
  8
0-7_金物
  6
Continuous
 62
     7
370
     5
100
AcDbCircle
 10
-3423.735360234022
 20
-366.0001977344638
 30
0.0
 40
1.799999988141737
100
AcDbArc
 50
359.9999999999994
 51
121.8907918018427
  0
ARC
  5
41A
330
1F
100
AcDbEntity
  8
0-7_金物
  6
Continuous
 62
     7
370
     5
100
AcDbCircle
 10
-3440.53536012335
 20
-339.0001979123284
 30
0.0
 40
29.99999980237392
100
AcDbArc
 50
213.9231120032609
 51
301.8907918018446
  0
ARC
  5
41B
330
1F
100
AcDbEntity
  8
0-7_金物
  6
Continuous
 62
     7
370
     5
100
AcDbCircle
 10
-3463.9353599692
 20
-354.7380502669805
 30
0.0
 40
1.799999988143631
100
AcDbArc
 50
179.9999999999944
 51
213.923112003254
  0
LINE
  5
41C
330
1F
100
AcDbEntity
  8
0-7_金物
  6
Continuous
 62
     7
370
     5
100
AcDbLine
 10
-3465.735359957347
 20
-270.0001983668704
 30
0.0
 11
-3465.735359957347
 21
-354.7380502669787
 31
0.0
  0
ARC
  5
41D
330
1F
100
AcDbEntity
  8
0-7_金物
  6
Continuous
 62
     7
370
     5
100
AcDbCircle
 10
-3453.735360036395
 20
-270.0001983668704
 30
0.0
 40
11.99999992094899
100
AcDbArc
 50
90.0
 51
180.0
  0
LINE
  5
41E
330
1F
100
AcDbEntity
  8
0-7_金物
  6
Continuous
 62
     7
370
     5
100
AcDbLine
 10
-3418.635360267618
 20
-258.000198445923
 30
0.0
 11
-3453.735360036395
 21
-258.000198445923
 31
0.0
  0
ARC
  5
41F
330
1F
100
AcDbEntity
  8
0-7_金物
  6
Continuous
 62
     7
370
     5
100
AcDbCircle
 10
-3418.635360267618
 20
-256.2001984577799
 30
0.0
 40
1.799999988141394
100
AcDbArc
 50
269.9999999999891
 51
359.9999999999891
  0
LINE
  5
420
330
1F
100
AcDbEntity
  8
0-7_金物
  6
Continuous
 62
     7
370
     5
100
AcDbLine
 10
-3416.835360279477
 20
-247.8001985131144
 30
0.0
 11
-3416.835360279477
 21
-256.2001984577799
 31
0.0
  0
ARC
  5
421
330
1F
100
AcDbEntity
  8
0-7_金物
  6
Continuous
 62
     7
370
     5
100
AcDbCircle
 10
-3415.035360291334
 20
-247.8001985131144
 30
0.0
 40
1.799999988142416
100
AcDbArc
 50
89.99999999997829
 51
179.9999999999783
  0
LINE
  5
422
330
1F
100
AcDbEntity
  8
0-7_金物
  6
Continuous
 62
     7
370
     5
100
AcDbLine
 10
-3390.735360451412
 20
-246.0001985249738
 30
0.0
 11
-3415.035360291334
 21
-246.0001985249738
 31
0.0
  0
LINE
  5
423
330
1F
100
AcDbEntity
  8
0-7_金物
  6
Continuous
 62
     7
370
     5
100
AcDbLine
 10
-3388.935360463269
 20
-244.2001985368307
 30
0.0
 11
-3390.735360451412
 21
-246.0001985249738
 31
0.0
  0
LINE
  5
424
330
1F
100
AcDbEntity
  8
0-7_金物
  6
Continuous
 62
     7
370
     5
100
AcDbLine
 10
-3387.135360475126
 20
-246.0001985249738
 30
0.0
 11
-3388.935360463269
 21
-244.2001985368307
 31
0.0
  0
LINE
  5
425
330
1F
100
AcDbEntity
  8
0-7_金物
  6
Continuous
 62
     7
370
     5
100
AcDbLine
 10
-3362.835360635208
 20
-246.0001985249738
 30
0.0
 11
-3387.135360475126
 21
-246.0001985249738
 31
0.0
  0
ARC
  5
426
330
1F
100
AcDbEntity
  8
0-7_金物
  6
Continuous
 62
     7
370
     5
100
AcDbCircle
 10
-3362.835360635206
 20
-247.8001985131144
 30
0.0
 40
1.799999988142416
100
AcDbArc
 50
0.0000000000217168
 51
90.00000000002173
  0
LINE
  5
427
330
1F
100
AcDbEntity
  8
0-7_金物
  6
Continuous
 62
     7
370
     5
100
AcDbLine
 10
-3361.035360647064
 20
-256.2001984577799
 30
0.0
 11
-3361.035360647064
 21
-247.8001985131144
 31
0.0
  0
ARC
  5
428
330
1F
100
AcDbEntity
  8
0-7_金物
  6
Continuous
 62
     7
370
     5
100
AcDbCircle
 10
-3359.235360658921
 20
-256.2001984577799
 30
0.0
 40
1.799999988142076
100
AcDbArc
 50
180.0000000000326
 51
270.0000000000326
  0
LINE
  5
429
330
1F
100
AcDbEntity
  8
0-7_金物
  6
Continuous
 62
     7
370
     5
100
AcDbLine
 10
-3324.135360890145
 20
-258.000198445923
 30
0.0
 11
-3359.235360658921
 21
-258.000198445923
 31
0.0
  0
ARC
  5
42A
330
1F
100
AcDbEntity
  8
0-7_金物
  6
Continuous
 62
     7
370
     5
100
AcDbCircle
 10
-3324.135360890145
 20
-270.0001983668704
 30
0.0
 40
11.99999992094899
100
AcDbArc
 50
0.0
 51
90.00000000000001
  0
LINE
  5
42B
330
1F
100
AcDbEntity
  8
0-7_金物
  6
Continuous
 62
     7
370
     5
100
AcDbLine
 10
-3312.135360969195
 20
-354.7380502669787
 30
0.0
 11
-3312.135360969195
 21
-270.0001983668704
 31
0.0
  0
ARC
  5
42C
330
1F
100
AcDbEntity
  8
0-7_金物
  6
Continuous
 62
     7
370
     5
100
AcDbCircle
 10
-3313.935360957341
 20
-354.738050266977
 30
0.0
 40
1.799999988144312
100
AcDbArc
 50
326.0768879966748
 51
359.9999999999343
  0
ARC
  5
42D
330
1F
100
AcDbEntity
  8
0-7_金物
  6
Continuous
 62
     7
370
     5
100
AcDbCircle
 10
-3337.335360803189
 20
-339.0001979123284
 30
0.0
 40
29.99999980237201
100
AcDbArc
 50
238.1092081981562
 51
326.07688799674
  0
ARC
  5
42E
330
1F
100
AcDbEntity
  8
0-7_金物
  6
Continuous
 62
     7
370
     5
100
AcDbCircle
 10
-3354.135360692519
 20
-366.0001977344655
 30
0.0
 40
1.799999988143101
100
AcDbArc
 50
58.10920819813321
 51
179.9999999999765
  0
LINE
  5
42F
330
1F
100
AcDbEntity
  8
0-7_金物
  6
Continuous
 62
     7
370
     5
100
AcDbLine
 10
-3355.935360680662
 20
-367.5427974657416
 30
0.0
 11
-3355.935360680662
 21
-366.0001977344638
 31
0.0
  0
ARC
  5
430
330
1F
100
AcDbEntity
  8
0-7_金物
  6
Continuous
 62
     7
370
     5
100
AcDbCircle
 10
-3349.935360720186
 20
-367.5427974657416
 30
0.0
 40
5.999999960474696
100
AcDbArc
 50
179.9999999999991
 51
246.1811586065413
  0
ARC
  5
431
330
1F
100
AcDbEntity
  8
0-7_金物
  6
Continuous
 62
     7
370
     5
100
AcDbCircle
 10
-3337.335360803189
 20
-339.0001979123284
 30
0.0
 40
37.19999975494105
100
AcDbArc
 50
246.1811586065432
 51
324.0494323803861
  0
ARC
  5
432
330
1F
100
AcDbEntity
  8
0-7_金物
  6
Continuous
 62
     7
370
     5
100
AcDbCircle
 10
-3316.935360937572
 20
-353.794791421993
 30
0.0
 40
11.99999992094679
100
AcDbArc
 50
324.0494323803814
 51
359.9999999999989
  0
LINE
  5
433
330
1F
100
AcDbEntity
  8
0-7_金物
  6
Continuous
 62
     7
370
     5
100
AcDbLine
 10
-3304.935361016627
 20
-340.200197904424
 30
0.0
 11
-3304.935361016627
 21
-353.794791421993
 31
0.0
  0
LINE
  5
434
330
1F
100
AcDbEntity
  8
0-7_金物
  6
Continuous
 62
     7
370
     5
100
AcDbLine
 10
-3296.535361071964
 20
-340.200197904424
 30
0.0
 11
-3304.935361016627
 21
-340.200197904424
 31
0.0
  0
ARC
  5
435
330
1F
100
AcDbEntity
  8
0-7_金物
  6
Continuous
 62
     7
370
     5
100
AcDbCircle
 10
-3296.535361071964
 20
-336.6001979281396
 30
0.0
 40
3.599999976284494
100
AcDbArc
 50
270.0
 51
90.0
  0
LINE
  5
436
330
1F
100
AcDbEntity
  8
0-7_金物
  6
Continuous
 62
     7
370
     5
100
AcDbLine
 10
-3304.935361016627
 20
-333.0001979518551
 30
0.0
 11
-3296.535361071964
 21
-333.0001979518551
 31
0.0
  0
LINE
  5
437
330
1F
100
AcDbEntity
  8
0-7_金物
  6
Continuous
 62
     7
370
     5
100
AcDbLine
 10
-3304.935361016627
 20
-240.0001985644988
 30
0.0
 11
-3304.935361016627
 21
-333.0001979518551
 31
0.0
  0
ARC
  5
438
330
1F
100
AcDbEntity
  8
0-7_金物
  6
Continuous
 62
     7
370
     5
100
AcDbCircle
 10
-3307.935360996865
 20
-240.0001985644988
 30
0.0
 40
2.999999980237589
100
AcDbArc
 50
0.0
 51
90.0
  0
LINE
  5
439
330
1F
100
AcDbEntity
  8
0-7_金物
  6
Continuous
 62
     7
370
     5
100
AcDbLine
 10
-3309.135360988958
 20
-237.0001985842626
 30
0.0
 11
-3307.935360996865
 21
-237.0001985842626
 31
0.0
  0
ARC
  5
43A
330
1F
100
AcDbEntity
  8
0-7_金物
  6
Continuous
 62
     7
370
     5
100
AcDbCircle
 10
-3309.135360988957
 20
-240.0001985644988
 30
0.0
 40
2.999999980236907
100
AcDbArc
 50
90.00000000001303
 51
180.000000000013
  0
LINE
  5
43B
330
1F
100
AcDbEntity
  8
0-7_金物
  6
Continuous
 62
     7
370
     5
100
AcDbLine
 10
-3312.135360969195
 20
-246.0001985249738
 30
0.0
 11
-3312.135360969195
 21
-240.0001985644988
 31
0.0
  0
ARC
  5
43C
330
1F
100
AcDbEntity
  8
0-7_金物
  6
Continuous
 62
     7
370
     5
100
AcDbCircle
 10
-3315.135360949433
 20
-246.0001985249738
 30
0.0
 40
2.999999980237248
100
AcDbArc
 50
269.9999999999935
 51
359.9999999999935
  0
LINE
  5
43D
330
1F
100
AcDbEntity
  8
0-7_金物
  6
Continuous
 62
     7
370
     5
100
AcDbLine
 10
-3349.035360726115
 20
-249.0001985052101
 30
0.0
 11
-3315.135360949433
 21
-249.0001985052101
 31
0.0
  0
ARC
  5
43E
330
1F
100
AcDbEntity
  8
0-7_金物
  6
Continuous
 62
     7
370
     5
100
AcDbCircle
 10
-3349.035360726115
 20
-246.0001985249738
 30
0.0
 40
2.999999980236565
100
AcDbArc
 50
179.9999999999935
 51
269.9999999999935
  0
LINE
  5
43F
330
1F
100
AcDbEntity
  8
0-7_金物
  6
Continuous
 62
     7
370
     5
100
AcDbLine
 10
-3352.035360706351
 20
-240.0001985644988
 30
0.0
 11
-3352.035360706351
 21
-246.0001985249738
 31
0.0
  0
ARC
  5
440
330
1F
100
AcDbEntity
  8
0-7_金物
  6
Continuous
 62
     7
370
     5
100
AcDbCircle
 10
-3355.03536068659
 20
-240.0001985644988
 30
0.0
 40
2.999999980237589
100
AcDbArc
 50
0.0
 51
90.0
  0
LINE
  5
441
330
1F
100
AcDbEntity
  8
0-7_金物
  6
Continuous
 62
     7
370
     5
100
AcDbLine
 10
-3422.835360239954
 20
-237.0001985842626
 30
0.0
 11
-3355.03536068659
 21
-237.0001985842626
 31
0.0
  0
ARC
  5
442
330
1F
100
AcDbEntity
  8
0-7_金物
  6
Continuous
 62
     7
370
     5
100
AcDbCircle
 10
-3422.835360239954
 20
-240.0001985644988
 30
0.0
 40
2.999999980237589
100
AcDbArc
 50
89.99999999999997
 51
180.0
  0
LINE
  5
443
330
1F
100
AcDbEntity
  8
0-7_金物
  6
Continuous
 62
     7
370
     5
100
AcDbLine
 10
-3425.835360220189
 20
-246.0001985249738
 30
0.0
 11
-3425.835360220189
 21
-240.0001985644988
 31
0.0
  0
ARC
  5
444
330
1F
100
AcDbEntity
  8
0-7_金物
  6
Continuous
 62
     7
370
     5
100
AcDbCircle
 10
-3428.835360200427
 20
-246.0001985249738
 30
0.0
 40
2.999999980236565
100
AcDbArc
 50
270.0000000000065
 51
0.0000000000065138
  0
LINE
  5
445
330
1F
100
AcDbEntity
  8
0-7_金物
  6
Continuous
 62
     7
370
     5
100
AcDbLine
 10
-3462.735359977107
 20
-249.0001985052101
 30
0.0
 11
-3428.835360200427
 21
-249.0001985052101
 31
0.0
  0
ARC
  5
446
330
1F
100
AcDbEntity
  8
0-7_金物
  6
Continuous
 62
     7
370
     5
100
AcDbCircle
 10
-3462.735359977107
 20
-246.0001985249738
 30
0.0
 40
2.999999980237248
100
AcDbArc
 50
180.0000000000066
 51
270.0000000000065
  0
LINE
  5
447
330
1F
100
AcDbEntity
  8
0-7_金物
  6
Continuous
 62
     7
370
     5
100
AcDbLine
 10
-3465.735359957347
 20
-240.0001985644988
 30
0.0
 11
-3465.735359957347
 21
-246.0001985249738
 31
0.0
  0
ARC
  5
448
330
1F
100
AcDbEntity
  8
0-7_金物
  6
Continuous
 62
     7
370
     5
100
AcDbCircle
 10
-3468.735359937581
 20
-240.0001985644988
 30
0.0
 40
2.999999980236907
100
AcDbArc
 50
359.999999999987
 51
89.99999999998697
  0
LINE
  5
449
330
1F
100
AcDbEntity
  8
0-7_金物
  6
Continuous
 62
     7
370
     5
100
AcDbLine
 10
-3469.935359929676
 20
-237.0001985842626
 30
0.0
 11
-3468.735359937581
 21
-237.0001985842626
 31
0.0
  0
ARC
  5
44A
330
1F
100
AcDbEntity
  8
0-7_金物
  6
Continuous
 62
     7
370
     5
100
AcDbCircle
 10
-3469.935359929676
 20
-240.0001985644988
 30
0.0
 40
2.999999980237589
100
AcDbArc
 50
89.99999999999997
 51
180.0
  0
LINE
  5
44B
330
1F
100
AcDbEntity
  8
0-7_金物
  6
Continuous
 62
     7
370
     5
100
AcDbLine
 10
-3472.935359909914
 20
-333.0001979518551
 30
0.0
 11
-3472.935359909914
 21
-240.0001985644988
 31
0.0
  0
LINE
  5
44C
330
1F
100
AcDbEntity
  8
0-7_金物
  6
Continuous
 62
     7
370
     5
100
AcDbLine
 10
-3388.935360463269
 20
-375.000197675175
 30
0.0
 11
-3409.935360324927
 21
-375.000197675175
 31
0.0
  0
ARC
  5
44D
330
1F
100
AcDbEntity
  8
0-7_金物
  6
Continuous
 62
     7
370
     5
100
AcDbCircle
 10
-3409.935360324927
 20
-369.0001977147017
 30
0.0
 40
5.999999960474506
100
AcDbArc
 50
180.0
 51
270.0
  0
ARC
  5
44E
330
1F
100
AcDbEntity
  8
0-7_金物
  6
Continuous
 62
     7
370
     5
100
AcDbCircle
 10
-3427.93536020635
 20
-369.0001977147026
 30
0.0
 40
11.99999992094901
100
AcDbArc
 50
0.0
 51
63.25631604961301
  0
LINE
  5
44F
330
1F
100
AcDbEntity
  8
0-7_金物
  6
Continuous
 62
     7
370
     5
100
AcDbLine
 10
-3422.535360241926
 20
-267.0001983866317
 30
0.0
 11
-3422.535360241926
 21
-315.0001980704317
 31
0.0
  0
ARC
  5
450
330
1F
100
AcDbEntity
  8
0-7_金物
  6
Continuous
 62
     7
370
     5
100
AcDbCircle
 10
-3440.535360123348
 20
-291.0001982285343
 30
0.0
 40
29.99999980237253
100
AcDbArc
 50
53.13010235415425
 51
126.8698976458457
  0
ARC
  5
451
330
1F
100
AcDbEntity
  8
0-7_金物
  6
Continuous
 62
     7
370
     5
100
AcDbCircle
 10
-3440.535360123348
 20
-339.0001979123284
 30
0.0
 40
29.99999980237253
100
AcDbArc
 50
233.1301023541541
 51
306.8698976458458
  0
LINE
  5
452
330
1F
100
AcDbEntity
  8
0-7_金物
  6
Continuous
 62
     7
370
     5
100
AcDbLine
 10
-3419.535360261688
 20
-292.2001982206257
 30
0.0
 11
-3420.735360253783
 21
-291.0001982285343
 31
0.0
  0
LINE
  5
453
330
1F
100
AcDbEntity
  8
0-7_金物
  6
Continuous
 62
     7
370
     5
100
AcDbLine
 10
-3419.535360261688
 20
-337.8001979202344
 30
0.0
 11
-3420.735360253783
 21
-339.0001979123284
 31
0.0
  0
LINE
  5
454
330
1F
100
AcDbEntity
  8
0-7_金物
  6
Continuous
 62
     7
370
     5
100
AcDbLine
 10
-3422.535360241926
 20
-300.0001981692438
 30
0.0
 11
-3419.535360261688
 21
-300.0001981692438
 31
0.0
  0
LINE
  5
455
330
1F
100
AcDbEntity
  8
0-7_金物
  6
Continuous
 62
     7
370
     5
100
AcDbLine
 10
-3422.535360241926
 20
-330.0001979716171
 30
0.0
 11
-3419.535360261688
 21
-330.0001979716171
 31
0.0
  0
LINE
  5
456
330
1F
100
AcDbEntity
  8
0-7_金物
  6
Continuous
 62
     7
370
     5
100
AcDbLine
 10
-3420.735360253786
 20
-300.0001981692438
 30
0.0
 11
-3419.535360261688
 21
-298.8001981771481
 31
0.0
  0
LINE
  5
457
330
1F
100
AcDbEntity
  8
0-7_金物
  6
Continuous
 62
     7
370
     5
100
AcDbLine
 10
-3419.535360261688
 20
-331.200197963712
 30
0.0
 11
-3420.735360253783
 21
-330.0001979716171
 31
0.0
  0
LINE
  5
458
330
1F
100
AcDbEntity
  8
0-7_金物
  6
Continuous
 62
     7
370
     5
100
AcDbLine
 10
-3422.535360241929
 20
-291.0001982285343
 30
0.0
 11
-3420.735360253783
 21
-291.0001982285343
 31
0.0
  0
LINE
  5
459
330
1F
100
AcDbEntity
  8
0-7_金物
  6
Continuous
 62
     7
370
     5
100
AcDbLine
 10
-3422.535360241926
 20
-339.0001979123284
 30
0.0
 11
-3420.735360253783
 21
-339.0001979123284
 31
0.0
  0
LINE
  5
45A
330
1F
100
AcDbEntity
  8
0-7_金物
  6
Continuous
 62
     7
370
     5
100
AcDbLine
 10
-3422.535360241926
 20
-315.0001980704309
 30
0.0
 11
-3422.535360241926
 21
-363.0001977542275
 31
0.0
  0
LINE
  5
45B
330
1F
100
AcDbEntity
  8
0-7_金物
  6
Continuous
 62
     7
370
     5
100
AcDbLine
 10
-3406.935360344695
 20
-375.000197675175
 30
0.0
 11
-3406.935360344695
 21
-376.8001976633172
 31
0.0
  0
LINE
  5
45C
330
1F
100
AcDbEntity
  8
0-7_金物
  6
Continuous
 62
     7
370
     5
100
AcDbLine
 10
-3409.935360324929
 20
-282.0001982878196
 30
0.0
 11
-3388.935360463269
 21
-282.0001982878196
 31
0.0
  0
ARC
  5
45D
330
1F
100
AcDbEntity
  8
0-7_金物
  6
Continuous
 62
     7
370
     5
100
AcDbCircle
 10
-3418.935360265643
 20
-342.0001978925671
 30
0.0
 40
2.999999980237253
100
AcDbArc
 50
0.0
 51
90.0
  0
ARC
  5
45E
330
1F
100
AcDbEntity
  8
0-7_金物
  6
Continuous
 62
     7
370
     5
100
AcDbCircle
 10
-3418.935360265643
 20
-288.0001982482963
 30
0.0
 40
2.999999980237253
100
AcDbArc
 50
270.0
 51
0.0
  0
LINE
  5
45F
330
1F
100
AcDbEntity
  8
0-7_金物
  6
Continuous
 62
     7
370
     5
100
AcDbLine
 10
-3458.535360004774
 20
-363.0001977542275
 30
0.0
 11
-3458.535360004774
 21
-267.0001983866342
 31
0.0
  0
LINE
  5
460
330
1F
100
AcDbEntity
  8
0-7_金物
  6
Continuous
 62
     7
370
     5
100
AcDbLine
 10
-3418.935360265643
 20
-291.0001982285343
 30
0.0
 11
-3419.535360261688
 21
-291.0001982285343
 31
0.0
  0
LINE
  5
461
330
1F
100
AcDbEntity
  8
0-7_金物
  6
Continuous
 62
     7
370
     5
100
AcDbLine
 10
-3418.935360265643
 20
-339.0001979123284
 30
0.0
 11
-3419.535360261688
 21
-339.0001979123284
 31
0.0
  0
LINE
  5
462
330
1F
100
AcDbEntity
  8
0-7_金物
  6
Continuous
 62
     7
370
     5
100
AcDbLine
 10
-3415.935360285403
 20
-351.0001978332784
 30
0.0
 11
-3415.935360285403
 21
-342.0001978925671
 31
0.0
  0
LINE
  5
463
330
1F
100
AcDbEntity
  8
0-7_金物
  6
Continuous
 62
     7
370
     5
100
AcDbLine
 10
-3409.935360324929
 20
-357.0001977937508
 30
0.0
 11
-3388.935360463269
 21
-357.0001977937508
 31
0.0
  0
ARC
  5
464
330
1F
100
AcDbEntity
  8
0-7_金物
  6
Continuous
 62
     7
370
     5
100
AcDbCircle
 10
-3409.935360324929
 20
-351.0001978332784
 30
0.0
 40
5.999999960474506
100
AcDbArc
 50
180.0
 51
270.0
  0
ARC
  5
465
330
1F
100
AcDbEntity
  8
0-7_金物
  6
Continuous
 62
     7
370
     5
100
AcDbCircle
 10
-3409.935360324929
 20
-288.0001982482963
 30
0.0
 40
5.999999960474506
100
AcDbArc
 50
90.0
 51
180.0
  0
LINE
  5
466
330
1F
100
AcDbEntity
  8
0-7_金物
  6
Continuous
 62
     7
370
     5
100
AcDbLine
 10
-3419.535360261688
 20
-291.0001982285343
 30
0.0
 11
-3419.535360261688
 21
-315.0001980704317
 31
0.0
  0
LINE
  5
467
330
1F
100
AcDbEntity
  8
0-7_金物
  6
Continuous
 62
     7
370
     5
100
AcDbLine
 10
-3419.535360261688
 20
-339.0001979123284
 30
0.0
 11
-3419.535360261688
 21
-315.0001980704309
 31
0.0
  0
LINE
  5
468
330
1F
100
AcDbEntity
  8
0-7_金物
  6
Continuous
 62
     7
370
     5
100
AcDbLine
 10
-3388.935360463269
 20
-375.000197675175
 30
0.0
 11
-3367.935360601608
 21
-375.000197675175
 31
0.0
  0
ARC
  5
469
330
1F
100
AcDbEntity
  8
0-7_金物
  6
Continuous
 62
     7
370
     5
100
AcDbCircle
 10
-3367.935360601608
 20
-369.0001977147017
 30
0.0
 40
5.999999960474506
100
AcDbArc
 50
270.0
 51
0.0
  0
ARC
  5
46A
330
1F
100
AcDbEntity
  8
0-7_金物
  6
Continuous
 62
     7
370
     5
100
AcDbCircle
 10
-3349.935360720186
 20
-369.0001977147026
 30
0.0
 40
11.99999992094901
100
AcDbArc
 50
116.743683950387
 51
180.0
  0
LINE
  5
46B
330
1F
100
AcDbEntity
  8
0-7_金物
  6
Continuous
 62
     7
370
     5
100
AcDbLine
 10
-3355.33536068461
 20
-267.0001983866317
 30
0.0
 11
-3355.33536068461
 21
-315.0001980704317
 31
0.0
  0
ARC
  5
46C
330
1F
100
AcDbEntity
  8
0-7_金物
  6
Continuous
 62
     7
370
     5
100
AcDbCircle
 10
-3337.335360803188
 20
-291.0001982285343
 30
0.0
 40
29.99999980237253
100
AcDbArc
 50
53.13010235415425
 51
126.8698976458457
  0
ARC
  5
46D
330
1F
100
AcDbEntity
  8
0-7_金物
  6
Continuous
 62
     7
370
     5
100
AcDbCircle
 10
-3337.335360803188
 20
-339.0001979123284
 30
0.0
 40
29.99999980237253
100
AcDbArc
 50
233.1301023541541
 51
306.8698976458458
  0
LINE
  5
46E
330
1F
100
AcDbEntity
  8
0-7_金物
  6
Continuous
 62
     7
370
     5
100
AcDbLine
 10
-3358.335360664848
 20
-292.2001982206257
 30
0.0
 11
-3357.135360672753
 21
-291.0001982285343
 31
0.0
  0
LINE
  5
46F
330
1F
100
AcDbEntity
  8
0-7_金物
  6
Continuous
 62
     7
370
     5
100
AcDbLine
 10
-3358.335360664848
 20
-337.8001979202344
 30
0.0
 11
-3357.135360672753
 21
-339.0001979123284
 31
0.0
  0
LINE
  5
470
330
1F
100
AcDbEntity
  8
0-7_金物
  6
Continuous
 62
     7
370
     5
100
AcDbLine
 10
-3355.33536068461
 20
-300.0001981692438
 30
0.0
 11
-3358.335360664848
 21
-300.0001981692438
 31
0.0
  0
LINE
  5
471
330
1F
100
AcDbEntity
  8
0-7_金物
  6
Continuous
 62
     7
370
     5
100
AcDbLine
 10
-3355.33536068461
 20
-330.0001979716171
 30
0.0
 11
-3358.335360664848
 21
-330.0001979716171
 31
0.0
  0
LINE
  5
472
330
1F
100
AcDbEntity
  8
0-7_金物
  6
Continuous
 62
     7
370
     5
100
AcDbLine
 10
-3357.135360672753
 20
-300.0001981692438
 30
0.0
 11
-3358.335360664848
 21
-298.8001981771481
 31
0.0
  0
LINE
  5
473
330
1F
100
AcDbEntity
  8
0-7_金物
  6
Continuous
 62
     7
370
     5
100
AcDbLine
 10
-3358.335360664848
 20
-331.200197963712
 30
0.0
 11
-3357.135360672753
 21
-330.0001979716171
 31
0.0
  0
LINE
  5
474
330
1F
100
AcDbEntity
  8
0-7_金物
  6
Continuous
 62
     7
370
     5
100
AcDbLine
 10
-3355.33536068461
 20
-291.0001982285343
 30
0.0
 11
-3357.135360672753
 21
-291.0001982285343
 31
0.0
  0
LINE
  5
475
330
1F
100
AcDbEntity
  8
0-7_金物
  6
Continuous
 62
     7
370
     5
100
AcDbLine
 10
-3355.33536068461
 20
-339.0001979123284
 30
0.0
 11
-3357.135360672753
 21
-339.0001979123284
 31
0.0
  0
LINE
  5
476
330
1F
100
AcDbEntity
  8
0-7_金物
  6
Continuous
 62
     7
370
     5
100
AcDbLine
 10
-3355.33536068461
 20
-315.0001980704309
 30
0.0
 11
-3355.33536068461
 21
-363.0001977542275
 31
0.0
  0
LINE
  5
477
330
1F
100
AcDbEntity
  8
0-7_金物
  6
Continuous
 62
     7
370
     5
100
AcDbLine
 10
-3370.935360581846
 20
-375.000197675175
 30
0.0
 11
-3370.935360581846
 21
-376.8001976633172
 31
0.0
  0
LINE
  5
478
330
1F
100
AcDbEntity
  8
0-7_金物
  6
Continuous
 62
     7
370
     5
100
AcDbLine
 10
-3367.935360601607
 20
-282.0001982878196
 30
0.0
 11
-3388.935360463269
 21
-282.0001982878196
 31
0.0
  0
ARC
  5
479
330
1F
100
AcDbEntity
  8
0-7_金物
  6
Continuous
 62
     7
370
     5
100
AcDbCircle
 10
-3358.935360660895
 20
-342.0001978925671
 30
0.0
 40
2.999999980237253
100
AcDbArc
 50
90.0
 51
180.0
  0
ARC
  5
47A
330
1F
100
AcDbEntity
  8
0-7_金物
  6
Continuous
 62
     7
370
     5
100
AcDbCircle
 10
-3358.935360660895
 20
-288.0001982482963
 30
0.0
 40
2.999999980237253
100
AcDbArc
 50
180.0
 51
270.0
  0
LINE
  5
47B
330
1F
100
AcDbEntity
  8
0-7_金物
  6
Continuous
 62
     7
370
     5
100
AcDbLine
 10
-3319.335360921762
 20
-363.0001977542275
 30
0.0
 11
-3319.335360921762
 21
-267.0001983866342
 31
0.0
  0
LINE
  5
47C
330
1F
100
AcDbEntity
  8
0-7_金物
  6
Continuous
 62
     7
370
     5
100
AcDbLine
 10
-3358.935360660895
 20
-291.0001982285343
 30
0.0
 11
-3358.335360664848
 21
-291.0001982285343
 31
0.0
  0
LINE
  5
47D
330
1F
100
AcDbEntity
  8
0-7_金物
  6
Continuous
 62
     7
370
     5
100
AcDbLine
 10
-3358.935360660895
 20
-339.0001979123284
 30
0.0
 11
-3358.335360664848
 21
-339.0001979123284
 31
0.0
  0
LINE
  5
47E
330
1F
100
AcDbEntity
  8
0-7_金物
  6
Continuous
 62
     7
370
     5
100
AcDbLine
 10
-3361.935360641134
 20
-351.0001978332784
 30
0.0
 11
-3361.935360641134
 21
-342.0001978925671
 31
0.0
  0
LINE
  5
47F
330
1F
100
AcDbEntity
  8
0-7_金物
  6
Continuous
 62
     7
370
     5
100
AcDbLine
 10
-3367.935360601607
 20
-357.0001977937508
 30
0.0
 11
-3388.935360463269
 21
-357.0001977937508
 31
0.0
  0
ARC
  5
480
330
1F
100
AcDbEntity
  8
0-7_金物
  6
Continuous
 62
     7
370
     5
100
AcDbCircle
 10
-3367.935360601607
 20
-351.0001978332784
 30
0.0
 40
5.999999960474506
100
AcDbArc
 50
270.0
 51
0.0
  0
ARC
  5
481
330
1F
100
AcDbEntity
  8
0-7_金物
  6
Continuous
 62
     7
370
     5
100
AcDbCircle
 10
-3367.935360601607
 20
-288.0001982482963
 30
0.0
 40
5.999999960474506
100
AcDbArc
 50
0.0
 51
90.0
  0
LINE
  5
482
330
1F
100
AcDbEntity
  8
0-7_金物
  6
Continuous
 62
     7
370
     5
100
AcDbLine
 10
-3358.335360664848
 20
-291.0001982285343
 30
0.0
 11
-3358.335360664848
 21
-315.0001980704317
 31
0.0
  0
LINE
  5
483
330
1F
100
AcDbEntity
  8
0-7_金物
  6
Continuous
 62
     7
370
     5
100
AcDbLine
 10
-3358.335360664848
 20
-339.0001979123284
 30
0.0
 11
-3358.335360664848
 21
-315.0001980704309
 31
0.0
  0
LINE
  5
484
330
1F
100
AcDbEntity
  8
0-7_金物
  6
Continuous
 62
     7
370
     5
100
AcDbLine
 10
-3412.935360305167
 20
-382.8001976237923
 30
0.0
 11
-3364.93536062137
 21
-382.8001976237923
 31
0.0
  0
LINE
  5
485
330
1F
100
AcDbEntity
  8
0-7_金物
  6
Continuous
 62
     7
370
     5
100
AcDbLine
 10
-3364.93536062137
 20
-376.8001976633172
 30
0.0
 11
-3364.93536062137
 21
-382.8001976237923
 31
0.0
  0
LINE
  5
486
330
1F
100
AcDbEntity
  8
0-7_金物
  6
Continuous
 62
     7
370
     5
100
AcDbLine
 10
-3364.93536062137
 20
-376.8001976633172
 30
0.0
 11
-3412.935360305167
 21
-376.8001976633172
 31
0.0
  0
LINE
  5
487
330
1F
100
AcDbEntity
  8
0-7_金物
  6
Continuous
 62
     7
370
     5
100
AcDbLine
 10
-3412.935360305167
 20
-376.8001976633172
 30
0.0
 11
-3412.935360305167
 21
-382.8001976237923
 31
0.0
  0
LINE
  5
488
330
1F
100
AcDbEntity
  8
0-7_金物
  6
Continuous
 62
     7
370
     5
100
AcDbLine
 10
-3436.074686375627
 20
-414.0001979518547
 30
0.0
 11
-3341.274687000131
 21
-414.0001979518547
 31
0.0
  0
ARC
  5
489
330
1F
100
AcDbEntity
  8
0-7_金物
  6
Continuous
 62
     7
370
     5
100
AcDbCircle
 10
-3388.93048497924
 20
-474.0001975566014
 30
0.0
 40
38.39999974703684
100
AcDbArc
 50
341.7900431357177
 51
12.17573410274985
  0
ARC
  5
48A
330
1F
100
AcDbEntity
  8
0-7_金物
  6
Continuous
 62
     7
370
     5
100
AcDbCircle
 10
-3388.93048497924
 20
-474.0001975566014
 30
0.0
 40
38.39999974703684
100
AcDbArc
 50
167.8242658972536
 51
198.2099568642824
  0
ARC
  5
48B
330
1F
100
AcDbEntity
  8
0-7_金物
  6
Continuous
 62
     7
370
     5
100
AcDbCircle
 10
-3388.93048497924
 20
-558.0001970032434
 30
0.0
 40
38.39999974703684
100
AcDbArc
 50
167.8242658972536
 51
198.2099568642824
  0
ARC
  5
48C
330
1F
100
AcDbEntity
  8
0-7_金物
  6
Continuous
 62
     7
370
     5
100
AcDbCircle
 10
-3388.93048497924
 20
-558.0001970032434
 30
0.0
 40
38.39999974703684
100
AcDbArc
 50
341.7900431357177
 51
12.17573410274985
  0
ARC
  5
48D
330
1F
100
AcDbEntity
  8
0-7_金物
  6
Continuous
 62
     7
370
     5
100
AcDbCircle
 10
-3388.93048497924
 20
-624.6001965645108
 30
0.0
 40
47.3999996877486
100
AcDbArc
 50
180.0
 51
0.0
  0
LINE
  5
48E
330
1F
100
AcDbEntity
  8
0-7_金物
  6
Continuous
 62
     7
370
     5
100
AcDbLine
 10
-3341.53048529149
 20
-414.0001979518547
 30
0.0
 11
-3341.53048529149
 21
-623.4001965724173
 31
0.0
  0
LINE
  5
48F
330
1F
100
AcDbEntity
  8
0-7_金物
  6
Continuous
 62
     7
370
     5
100
AcDbLine
 10
-3436.330484666988
 20
-414.0001979518547
 30
0.0
 11
-3436.330484666988
 21
-623.4001965724173
 31
0.0
  0
LINE
  5
490
330
1F
100
AcDbEntity
  8
0-7_金物
  6
Continuous
 62
     7
370
     5
100
AcDbLine
 10
-3350.530485232203
 20
-474.0001975566014
 30
0.0
 11
-3343.930485275681
 21
-474.0001975566014
 31
0.0
  0
LINE
  5
491
330
1F
100
AcDbEntity
  8
0-7_金物
  6
Continuous
 62
     7
370
     5
100
AcDbLine
 10
-3424.330484746039
 20
-429.0001978530418
 30
0.0
 11
-3353.53048521244
 21
-429.0001978530418
 31
0.0
  0
CIRCLE
  5
492
330
1F
100
AcDbEntity
  8
0-7_金物
  6
Continuous
 62
     7
370
     5
100
AcDbCircle
 10
-3388.93048497924
 20
-558.0001970032434
 30
0.0
 40
29.99999980237253
  0
LINE
  5
493
330
1F
100
AcDbEntity
  8
0-7_金物
  6
Continuous
 62
     7
370
     5
100
AcDbLine
 10
-3430.330484706512
 20
-414.0001979518547
 30
0.0
 11
-3430.330484706512
 21
-423.0001978925677
 31
0.0
  0
LINE
  5
494
330
1F
100
AcDbEntity
  8
0-7_金物
  6
Continuous
 62
     7
370
     5
100
AcDbLine
 10
-3347.530485251967
 20
-414.0001979518547
 30
0.0
 11
-3347.530485251967
 21
-423.0001978925677
 31
0.0
  0
ARC
  5
495
330
1F
100
AcDbEntity
  8
0-7_金物
  6
Continuous
 62
     7
370
     5
100
AcDbCircle
 10
-3424.330484746039
 20
-423.0001978925677
 30
0.0
 40
5.999999960474506
100
AcDbArc
 50
180.0
 51
270.0
  0
ARC
  5
496
330
1F
100
AcDbEntity
  8
0-7_金物
  6
Continuous
 62
     7
370
     5
100
AcDbCircle
 10
-3353.53048521244
 20
-423.0001978925677
 30
0.0
 40
5.999999960474506
100
AcDbArc
 50
270.0
 51
0.0
  0
LINE
  5
497
330
1F
100
AcDbEntity
  8
0-7_金物
  6
Continuous
 62
     7
370
     5
100
AcDbLine
 10
-3415.330484805328
 20
-594.0001967660913
 30
0.0
 11
-3362.530485153151
 21
-594.0001967660913
 31
0.0
  0
LINE
  5
498
330
1F
100
AcDbEntity
  8
0-7_金物
  6
Continuous
 62
     7
370
     5
100
AcDbLine
 10
-3430.330484706512
 20
-623.4001965724173
 30
0.0
 11
-3430.330484706512
 21
-609.0001966672763
 31
0.0
  0
LINE
  5
499
330
1F
100
AcDbEntity
  8
0-7_金物
  6
Continuous
 62
     7
370
     5
100
AcDbLine
 10
-3347.530485251967
 20
-623.4001965724173
 30
0.0
 11
-3347.530485251967
 21
-609.0001966672763
 31
0.0
  0
LINE
  5
49A
330
1F
100
AcDbEntity
  8
0-7_金物
  6
Continuous
 62
     7
370
     5
100
AcDbLine
 10
-3409.9304848409
 20
-659.0787613309451
 30
0.0
 11
-3409.9304848409
 21
-615.0001966277517
 31
0.0
  0
LINE
  5
49B
330
1F
100
AcDbEntity
  8
0-7_金物
  6
Continuous
 62
     7
370
     5
100
AcDbLine
 10
-3367.930485117578
 20
-659.0787613309451
 30
0.0
 11
-3367.930485117578
 21
-615.0001966277517
 31
0.0
  0
ARC
  5
49C
330
1F
100
AcDbEntity
  8
0-7_金物
  6
Continuous
 62
     7
370
     5
100
AcDbCircle
 10
-3362.530485153151
 20
-600.0001967265642
 30
0.0
 40
5.999999960474506
100
AcDbArc
 50
0.0
 51
90.0
  0
ARC
  5
49D
330
1F
100
AcDbEntity
  8
0-7_金物
  6
Continuous
 62
     7
370
     5
100
AcDbCircle
 10
-3350.530485232203
 20
-600.0001967265642
 30
0.0
 40
5.999999960474506
100
AcDbArc
 50
180.0
 51
270.0
  0
ARC
  5
49E
330
1F
100
AcDbEntity
  8
0-7_金物
  6
Continuous
 62
     7
370
     5
100
AcDbCircle
 10
-3350.530485232203
 20
-609.0001966672763
 30
0.0
 40
2.999999980237253
100
AcDbArc
 50
0.0
 51
90.0
  0
ARC
  5
49F
330
1F
100
AcDbEntity
  8
0-7_金物
  6
Continuous
 62
     7
370
     5
100
AcDbCircle
 10
-3415.330484805328
 20
-600.0001967265642
 30
0.0
 40
5.999999960474506
100
AcDbArc
 50
90.0
 51
180.0
  0
ARC
  5
4A0
330
1F
100
AcDbEntity
  8
0-7_金物
  6
Continuous
 62
     7
370
     5
100
AcDbCircle
 10
-3427.330484726276
 20
-609.0001966672763
 30
0.0
 40
2.999999980237253
100
AcDbArc
 50
90.0
 51
180.0
  0
ARC
  5
4A1
330
1F
100
AcDbEntity
  8
0-7_金物
  6
Continuous
 62
     7
370
     5
100
AcDbCircle
 10
-3427.330484726276
 20
-600.0001967265642
 30
0.0
 40
5.999999960474506
100
AcDbArc
 50
270.0
 51
0.0
  0
LINE
  5
4A2
330
1F
100
AcDbEntity
  8
0-7_金物
  6
Continuous
 62
     7
370
     5
100
AcDbLine
 10
-3409.9304848409
 20
-615.0001966277517
 30
0.0
 11
-3367.930485117578
 21
-615.0001966277517
 31
0.0
  0
LINE
  5
4A3
330
1F
100
AcDbEntity
  8
0-7_金物
  6
Continuous
 62
     7
370
     5
100
AcDbLine
 10
-3409.9304848409
 20
-636.0001964894126
 30
0.0
 11
-3367.930485117578
 21
-636.0001964894126
 31
0.0
  0
LINE
  5
4A4
330
1F
100
AcDbEntity
  8
0-7_金物
  6
Continuous
 62
     7
370
     5
100
AcDbLine
 10
-3427.330484726276
 20
-606.0001966870401
 30
0.0
 11
-3350.530485232203
 21
-606.0001966870401
 31
0.0
  0
LINE
  5
4A5
330
1F
100
AcDbEntity
  8
0-7_金物
  6
Continuous
 62
     7
370
     5
100
AcDbLine
 10
-3407.099689575219
 20
-660.6001963273587
 30
0.0
 11
-3370.761280383257
 21
-660.6001963273587
 31
0.0
  0
LINE
  5
4A6
330
1F
100
AcDbEntity
  8
0-7_金物
  6
Continuous
 62
     7
370
     5
100
AcDbLine
 10
-3359.530485172915
 20
-501.0001973787351
 30
0.0
 11
-3347.530485251967
 21
-501.0001973787351
 31
0.0
  0
LINE
  5
4A7
330
1F
100
AcDbEntity
  8
0-7_金物
  6
Continuous
 62
     7
370
     5
100
AcDbLine
 10
-3359.530485172915
 20
-516.0001972799222
 30
0.0
 11
-3347.530485251967
 21
-516.0001972799222
 31
0.0
  0
LINE
  5
4A8
330
1F
100
AcDbEntity
  8
0-7_金物
  6
Continuous
 62
     7
370
     5
100
AcDbLine
 10
-3347.530485251967
 20
-501.0001973787351
 30
0.0
 11
-3347.530485251967
 21
-516.0001972799222
 31
0.0
  0
LINE
  5
4A9
330
1F
100
AcDbEntity
  8
0-7_金物
  6
Continuous
 62
     7
370
     5
100
AcDbLine
 10
-3365.530485133388
 20
-507.0001973392093
 30
0.0
 11
-3365.530485133388
 21
-510.0001973194489
 31
0.0
  0
ARC
  5
4AA
330
1F
100
AcDbEntity
  8
0-7_金物
  6
Continuous
 62
     7
370
     5
100
AcDbCircle
 10
-3359.530485172915
 20
-507.0001973392093
 30
0.0
 40
5.999999960474506
100
AcDbArc
 50
90.0
 51
180.0
  0
ARC
  5
4AB
330
1F
100
AcDbEntity
  8
0-7_金物
  6
Continuous
 62
     7
370
     5
100
AcDbCircle
 10
-3359.530485172915
 20
-510.0001973194489
 30
0.0
 40
5.999999960474506
100
AcDbArc
 50
180.0
 51
270.0
  0
LINE
  5
4AC
330
1F
100
AcDbEntity
  8
0-7_金物
  6
Continuous
 62
     7
370
     5
100
AcDbLine
 10
-3418.330484785564
 20
-501.0001973787351
 30
0.0
 11
-3430.330484706512
 21
-501.0001973787351
 31
0.0
  0
LINE
  5
4AD
330
1F
100
AcDbEntity
  8
0-7_金物
  6
Continuous
 62
     7
370
     5
100
AcDbLine
 10
-3418.330484785564
 20
-516.0001972799222
 30
0.0
 11
-3430.330484706512
 21
-516.0001972799222
 31
0.0
  0
ARC
  5
4AE
330
1F
100
AcDbEntity
  8
0-7_金物
  6
Continuous
 62
     7
370
     5
100
AcDbCircle
 10
-3418.330484785564
 20
-507.0001973392093
 30
0.0
 40
5.999999960474506
100
AcDbArc
 50
0.0
 51
90.0
  0
ARC
  5
4AF
330
1F
100
AcDbEntity
  8
0-7_金物
  6
Continuous
 62
     7
370
     5
100
AcDbCircle
 10
-3418.330484785564
 20
-510.0001973194489
 30
0.0
 40
5.999999960474506
100
AcDbArc
 50
270.0
 51
0.0
  0
LINE
  5
4B0
330
1F
100
AcDbEntity
  8
0-7_金物
  6
Continuous
 62
     7
370
     5
100
AcDbLine
 10
-3430.330484706512
 20
-501.0001973787351
 30
0.0
 11
-3430.330484706512
 21
-516.0001972799222
 31
0.0
  0
LINE
  5
4B1
330
1F
100
AcDbEntity
  8
0-7_金物
  6
Continuous
 62
     7
370
     5
100
AcDbLine
 10
-3412.330484825091
 20
-507.0001973392093
 30
0.0
 11
-3412.330484825091
 21
-510.0001973194489
 31
0.0
  0
LINE
  5
4B2
330
1F
100
AcDbEntity
  8
0-7_金物
  6
Continuous
 62
     7
370
     5
100
AcDbLine
 10
-3354.989359705874
 20
-462.0001976356522
 30
0.0
 11
-3343.930485275681
 21
-474.0001975566014
 31
0.0
  0
LINE
  5
4B3
330
1F
100
AcDbEntity
  8
0-7_金物
  6
Continuous
 62
     7
370
     5
100
AcDbLine
 10
-3422.871610252601
 20
-462.0001976356522
 30
0.0
 11
-3433.930484682798
 21
-474.0001975566014
 31
0.0
  0
LINE
  5
4B4
330
1F
100
AcDbEntity
  8
0-7_金物
  6
Continuous
 62
     7
370
     5
100
AcDbLine
 10
-3427.330484726276
 20
-474.0001975566014
 30
0.0
 11
-3433.930484682798
 21
-474.0001975566014
 31
0.0
  0
LINE
  5
4B5
330
1F
100
AcDbEntity
  8
0-7_金物
  6
Continuous
 62
     7
370
     5
100
AcDbLine
 10
-3422.871610252601
 20
-546.0001970822951
 30
0.0
 11
-3433.930484682798
 21
-558.0001970032434
 31
0.0
  0
LINE
  5
4B6
330
1F
100
AcDbEntity
  8
0-7_金物
  6
Continuous
 62
     7
370
     5
100
AcDbLine
 10
-3427.330484726276
 20
-558.0001970032434
 30
0.0
 11
-3433.930484682798
 21
-558.0001970032434
 31
0.0
  0
LINE
  5
4B7
330
1F
100
AcDbEntity
  8
0-7_金物
  6
Continuous
 62
     7
370
     5
100
AcDbLine
 10
-3350.530485232203
 20
-558.0001970032434
 30
0.0
 11
-3343.930485275681
 21
-558.0001970032434
 31
0.0
  0
LINE
  5
4B8
330
1F
100
AcDbEntity
  8
0-7_金物
  6
Continuous
 62
     7
370
     5
100
AcDbLine
 10
-3354.989359705874
 20
-546.0001970822951
 30
0.0
 11
-3343.930485275681
 21
-558.0001970032434
 31
0.0
  0
LINE
  5
4B9
330
1F
100
AcDbEntity
  8
0-7_金物
  6
Continuous
 62
     7
370
     5
100
AcDbLine
 10
-3386.014302704895
 20
-459.3001976534393
 30
0.0
 11
-3391.846667253584
 21
-459.3001976534393
 31
0.0
  0
LINE
  5
4BA
330
1F
100
AcDbEntity
  8
0-7_金物
  6
Continuous
 62
     7
370
     5
100
AcDbLine
 10
-3392.048825863729
 20
-470.8818566721101
 30
0.0
 11
-3391.846667253584
 21
-459.3001976534393
 31
0.0
  0
LINE
  5
4BB
330
1F
100
AcDbEntity
  8
0-7_金物
  6
Continuous
 62
     7
370
     5
100
AcDbLine
 10
-3385.81214409475
 20
-470.8818566721101
 30
0.0
 11
-3386.014302704895
 21
-459.3001976534393
 31
0.0
  0
LINE
  5
4BC
330
1F
100
AcDbEntity
  8
0-7_金物
  6
Continuous
 62
     7
370
     5
100
AcDbLine
 10
-3374.230485076077
 20
-476.916379830943
 30
0.0
 11
-3374.230485076077
 21
-471.0840152822581
 31
0.0
  0
LINE
  5
4BD
330
1F
100
AcDbEntity
  8
0-7_金物
  6
Continuous
 62
     7
370
     5
100
AcDbLine
 10
-3385.81214409475
 20
-470.8818566721101
 30
0.0
 11
-3374.230485076077
 21
-471.0840152822581
 31
0.0
  0
LINE
  5
4BE
330
1F
100
AcDbEntity
  8
0-7_金物
  6
Continuous
 62
     7
370
     5
100
AcDbLine
 10
-3385.81214409475
 20
-477.118538441091
 30
0.0
 11
-3374.230485076077
 21
-476.916379830943
 31
0.0
  0
LINE
  5
4BF
330
1F
100
AcDbEntity
  8
0-7_金物
  6
Continuous
 62
     7
370
     5
100
AcDbLine
 10
-3391.846667253584
 20
-488.7001974597635
 30
0.0
 11
-3386.014302704895
 21
-488.7001974597635
 31
0.0
  0
LINE
  5
4C0
330
1F
100
AcDbEntity
  8
0-7_金物
  6
Continuous
 62
     7
370
     5
100
AcDbLine
 10
-3385.81214409475
 20
-477.118538441091
 30
0.0
 11
-3386.014302704895
 21
-488.7001974597635
 31
0.0
  0
LINE
  5
4C1
330
1F
100
AcDbEntity
  8
0-7_金物
  6
Continuous
 62
     7
370
     5
100
AcDbLine
 10
-3392.048825863729
 20
-477.118538441091
 30
0.0
 11
-3391.846667253584
 21
-488.7001974597635
 31
0.0
  0
LINE
  5
4C2
330
1F
100
AcDbEntity
  8
0-7_金物
  6
Continuous
 62
     7
370
     5
100
AcDbLine
 10
-3403.630484882401
 20
-471.0840152822581
 30
0.0
 11
-3403.630484882401
 21
-476.916379830943
 31
0.0
  0
LINE
  5
4C3
330
1F
100
AcDbEntity
  8
0-7_金物
  6
Continuous
 62
     7
370
     5
100
AcDbLine
 10
-3392.048825863729
 20
-477.118538441091
 30
0.0
 11
-3403.630484882401
 21
-476.916379830943
 31
0.0
  0
LINE
  5
4C4
330
1F
100
AcDbEntity
  8
0-7_金物
  6
Continuous
 62
     7
370
     5
100
AcDbLine
 10
-3392.048825863729
 20
-470.8818566721101
 30
0.0
 11
-3403.630484882401
 21
-471.0840152822581
 31
0.0
  0
LINE
  5
4C5
330
1F
100
AcDbEntity
  8
0-7_金物
  6
Continuous
 62
     7
370
     5
100
AcDbLine
 10
-3386.014302704895
 20
-543.3001971000805
 30
0.0
 11
-3391.846667253584
 21
-543.3001971000805
 31
0.0
  0
LINE
  5
4C6
330
1F
100
AcDbEntity
  8
0-7_金物
  6
Continuous
 62
     7
370
     5
100
AcDbLine
 10
-3392.048825863729
 20
-554.8818561187521
 30
0.0
 11
-3391.846667253584
 21
-543.3001971000805
 31
0.0
  0
LINE
  5
4C7
330
1F
100
AcDbEntity
  8
0-7_金物
  6
Continuous
 62
     7
370
     5
100
AcDbLine
 10
-3385.81214409475
 20
-554.8818561187521
 30
0.0
 11
-3386.014302704895
 21
-543.3001971000805
 31
0.0
  0
LINE
  5
4C8
330
1F
100
AcDbEntity
  8
0-7_金物
  6
Continuous
 62
     7
370
     5
100
AcDbLine
 10
-3374.230485076077
 20
-560.916379277588
 30
0.0
 11
-3374.230485076077
 21
-555.084014728901
 31
0.0
  0
LINE
  5
4C9
330
1F
100
AcDbEntity
  8
0-7_金物
  6
Continuous
 62
     7
370
     5
100
AcDbLine
 10
-3385.81214409475
 20
-554.8818561187521
 30
0.0
 11
-3374.230485076077
 21
-555.084014728901
 31
0.0
  0
LINE
  5
4CA
330
1F
100
AcDbEntity
  8
0-7_金物
  6
Continuous
 62
     7
370
     5
100
AcDbLine
 10
-3385.81214409475
 20
-561.1185378877343
 30
0.0
 11
-3374.230485076077
 21
-560.916379277588
 31
0.0
  0
LINE
  5
4CB
330
1F
100
AcDbEntity
  8
0-7_金物
  6
Continuous
 62
     7
370
     5
100
AcDbLine
 10
-3391.846667253584
 20
-572.7001969064064
 30
0.0
 11
-3386.014302704895
 21
-572.7001969064064
 31
0.0
  0
LINE
  5
4CC
330
1F
100
AcDbEntity
  8
0-7_金物
  6
Continuous
 62
     7
370
     5
100
AcDbLine
 10
-3385.81214409475
 20
-561.1185378877343
 30
0.0
 11
-3386.014302704895
 21
-572.7001969064064
 31
0.0
  0
LINE
  5
4CD
330
1F
100
AcDbEntity
  8
0-7_金物
  6
Continuous
 62
     7
370
     5
100
AcDbLine
 10
-3392.048825863729
 20
-561.1185378877343
 30
0.0
 11
-3391.846667253584
 21
-572.7001969064064
 31
0.0
  0
LINE
  5
4CE
330
1F
100
AcDbEntity
  8
0-7_金物
  6
Continuous
 62
     7
370
     5
100
AcDbLine
 10
-3403.630484882401
 20
-555.084014728901
 30
0.0
 11
-3403.630484882401
 21
-560.916379277588
 31
0.0
  0
LINE
  5
4CF
330
1F
100
AcDbEntity
  8
0-7_金物
  6
Continuous
 62
     7
370
     5
100
AcDbLine
 10
-3392.048825863729
 20
-561.1185378877343
 30
0.0
 11
-3403.630484882401
 21
-560.916379277588
 31
0.0
  0
LINE
  5
4D0
330
1F
100
AcDbEntity
  8
0-7_金物
  6
Continuous
 62
     7
370
     5
100
AcDbLine
 10
-3392.048825863729
 20
-554.8818561187521
 30
0.0
 11
-3403.630484882401
 21
-555.084014728901
 31
0.0
  0
ARC
  5
4D1
330
1F
100
AcDbEntity
  8
0-7_金物
  6
Continuous
 62
     7
370
     5
100
AcDbCircle
 10
-3388.93048497924
 20
-623.4001965724173
 30
0.0
 40
41.39999972727429
100
AcDbArc
 50
180.0
 51
0.0
  0
CIRCLE
  5
4D2
330
1F
100
AcDbEntity
  8
0-7_金物
  6
Continuous
 62
     7
370
     5
100
AcDbCircle
 10
-3388.93048497924
 20
-474.0001975566014
 30
0.0
 40
29.99999980237253
  0
LINE
  5
4D3
330
1F
100
AcDbEntity
  8
0-B_寸法
  6
Continuous
 62
   120
370
     5
100
AcDbLine
 10
-3943.935360463269
 20
-868.8251942929558
 30
0.0
 11
-3061.935360463271
 21
-868.8251942929558
 31
0.0
  0
LWPOLYLINE
  5
4D4
330
1F
100
AcDbEntity
  8
0-B_寸法
  6
Continuous
 62
     7
370
     5
100
AcDbPolyline
 90
        4
 70
     1
 43
3.0
 10
-3942.435360463268
 20
-868.8251942929558
 42
0.4142135623731
 10
-3943.935360463269
 20
-867.3251942929556
 42
0.4142135623731
 10
-3945.435360463269
 20
-868.8251942929558
 42
0.4142135623731
 10
-3943.935360463269
 20
-870.3251942929558
 42
0.4142135623731
  0
LINE
  5
4D5
330
1F
100
AcDbEntity
  8
0-B_寸法
  6
Continuous
 62
   120
370
     5
100
AcDbLine
 10
-3943.935360463269
 20
-868.8251942929558
 30
0.0
 11
-3943.935360463269
 21
-724.4757610184784
 31
0.0
  0
LWPOLYLINE
  5
4D6
330
1F
100
AcDbEntity
  8
0-B_寸法
  6
Continuous
 62
     7
370
     5
100
AcDbPolyline
 90
        4
 70
     1
 43
3.0
 10
-3060.435360463272
 20
-868.8251942929558
 42
0.4142135623731
 10
-3061.935360463271
 20
-867.3251942929556
 42
0.4142135623731
 10
-3063.435360463271
 20
-868.8251942929558
 42
0.4142135623731
 10
-3061.935360463271
 20
-870.3251942929558
 42
0.4142135623731
  0
LINE
  5
4D7
330
1F
100
AcDbEntity
  8
0-B_寸法
  6
Continuous
 62
   120
370
     5
100
AcDbLine
 10
-3061.935360463271
 20
-868.8251942929558
 30
0.0
 11
-3061.935360463271
 21
-745.4757610184741
 31
0.0
  0
LINE
  5
4D8
330
1F
100
AcDbEntity
  8
0-4_枠
  6
Continuous
 62
   120
370
     5
100
AcDbLine
 10
-3943.935360463269
 20
-153.0001979518559
 30
0.0
 11
-3967.935360463274
 21
-153.0001979518559
 31
0.0
  0
LINE
  5
4D9
330
1F
100
AcDbEntity
  8
0-4_枠
  6
Continuous
 62
   120
370
     5
100
AcDbLine
 10
-3061.935360463271
 20
-153.0001979518551
 30
0.0
 11
-3037.935360463272
 21
-153.0001979518551
 31
0.0
  0
LINE
  5
4DA
330
1F
100
AcDbEntity
  8
0-4_枠
  6
Continuous
 62
   120
370
     5
100
AcDbLine
 10
-3037.935360463272
 20
-153.0001979518551
 30
0.0
 11
-3037.935360463272
 21
-1467.000300948678
 31
0.0
  0
LINE
  5
4DB
330
1F
100
AcDbEntity
  8
0-4_枠
  6
Continuous
 62
   120
370
     5
100
AcDbLine
 10
-3967.935360463274
 20
-153.0001979518559
 30
0.0
 11
-3967.935360463274
 21
-1467.000300948679
 31
0.0
  0
LINE
  5
4DC
330
1F
100
AcDbEntity
  8
0-2_柱
  6
Continuous
 62
     7
370
     5
100
AcDbLine
 10
-3187.935360463272
 20
8.99980204814426
 30
0.0
 11
-3817.935360463272
 21
-153.0001979518559
 31
0.0
  0
LINE
  5
4DD
330
1F
100
AcDbEntity
  8
0-2_柱
  6
Continuous
 62
     7
370
     5
100
AcDbLine
 10
-3817.935360463272
 20
8.99980204814426
 30
0.0
 11
-3817.935360463272
 21
-153.0001979518559
 31
0.0
  0
LINE
  5
4DE
330
1F
100
AcDbEntity
  8
0-2_柱
  6
Continuous
 62
     7
370
     5
100
AcDbLine
 10
-3187.935360463272
 20
8.99980204814426
 30
0.0
 11
-3817.935360463272
 21
8.99980204814426
 31
0.0
  0
LINE
  5
4DF
330
1F
100
AcDbEntity
  8
0-2_柱
  6
Continuous
 62
     7
370
     5
100
AcDbLine
 10
-3187.935360463272
 20
-153.0001979518559
 30
0.0
 11
-3187.935360463272
 21
8.99980204814426
 31
0.0
  0
LINE
  5
4E0
330
1F
100
AcDbEntity
  8
0-2_柱
  6
Continuous
 62
     7
370
     5
100
AcDbLine
 10
-3817.935360463272
 20
-153.0001979518559
 30
0.0
 11
-3187.935360463272
 21
-153.0001979518559
 31
0.0
  0
LINE
  5
4E1
330
1F
100
AcDbEntity
  8
ハッチ
  6
Continuous
 62
   120
370
     5
100
AcDbLine
 10
-3093.338403680945
 20
-156.0001979518549
 30
0.0
 11
-3267.338403680945
 21
-330.0001979518544
 31
0.0
  0
LINE
  5
4E2
330
1F
100
AcDbEntity
  8
ハッチ
  6
Continuous
 62
   120
370
     5
100
AcDbLine
 10
-3302.535360463274
 20
-305.800185114478
 30
0.0
 11
-3151.935360463271
 21
-155.2001851144752
 31
0.0
  0
LINE
  5
4E3
330
1F
100
AcDbEntity
  8
ハッチ
  6
Continuous
 62
   120
370
     5
100
AcDbLine
 10
-3411.926282159649
 20
-237.0001979518545
 30
0.0
 11
-3327.926282159646
 21
-153.0001979518559
 31
0.0
  0
LINE
  5
4E4
330
1F
100
AcDbEntity
  8
ハッチ
  6
Continuous
 62
   120
370
     5
100
AcDbLine
 10
-3471.323251779348
 20
-237.0001979518563
 30
0.0
 11
-3387.323251779346
 21
-153.0001979518559
 31
0.0
  0
LINE
  5
4E5
330
1F
100
AcDbEntity
  8
ハッチ
  6
Continuous
 62
   120
370
     5
100
AcDbLine
 10
-3352.529312539999
 20
-237.0001979518563
 30
0.0
 11
-3268.529312539999
 21
-153.0001979518559
 31
0.0
  0
LINE
  5
4E6
330
1F
100
AcDbEntity
  8
ハッチ
  6
Continuous
 62
   120
370
     5
100
AcDbLine
 10
-3920.705069497352
 20
-330.000197951868
 30
0.0
 11
-3743.705069497342
 21
-153.0001979518559
 31
0.0
  0
LINE
  5
4E7
330
1F
100
AcDbEntity
  8
ハッチ
  6
Continuous
 62
   120
370
     5
100
AcDbLine
 10
-3861.308099877694
 20
-330.0001979518578
 30
0.0
 11
-3684.308099877691
 21
-153.0001979518559
 31
0.0
  0
LINE
  5
4E8
330
1F
100
AcDbEntity
  8
ハッチ
  6
Continuous
 62
   120
370
     5
100
AcDbLine
 10
-3302.535360463274
 20
-246.4032154948299
 30
0.0
 11
-3209.132342920297
 21
-153.0001979518559
 31
0.0
  0
LINE
  5
4E9
330
1F
100
AcDbEntity
  8
ハッチ
  6
Continuous
 62
   120
370
     5
100
AcDbLine
 10
-3940.935795338768
 20
-290.8339541736387
 30
0.0
 11
-3803.10203911699
 21
-153.0001979518559
 31
0.0
  0
LINE
  5
4EA
330
1F
100
AcDbEntity
  8
ハッチ
  6
Continuous
 62
   120
370
     5
100
AcDbLine
 10
-3940.935795338754
 20
-231.4369845539198
 30
0.0
 11
-3865.49900873669
 21
-156.0001979518549
 31
0.0
  0
LINE
  5
4EB
330
1F
100
AcDbEntity
  8
ハッチ
  6
Continuous
 62
   120
370
     5
100
AcDbLine
 10
-3940.935795338765
 20
-172.0400149342794
 30
0.0
 11
-3924.895978356334
 21
-156.0001979518549
 31
0.0
  0
LINE
  5
4EC
330
1F
100
AcDbEntity
  8
0-4_枠
  6
Continuous
 62
    92
370
     5
100
AcDbLine
 10
-3061.935360463271
 20
-153.0001979518559
 30
0.0
 11
-3943.935360463269
 21
-153.0001979518559
 31
0.0
  0
LINE
  5
4ED
330
1F
100
AcDbEntity
  8
0-4_枠
  6
Continuous
 62
    92
370
     5
100
AcDbLine
 10
-3853.935360463271
 20
-156.0001979518549
 30
0.0
 11
-3940.935795338765
 21
-156.0001979518549
 31
0.0
  0
LINE
  5
4EE
330
1F
100
AcDbEntity
  8
0-4_枠
  6
Continuous
 62
    92
370
     5
100
AcDbLine
 10
-3940.935795338765
 20
-330.0001979518578
 30
0.0
 11
-3940.935795338765
 21
-156.0001979518549
 31
0.0
  0
LINE
  5
4EF
330
1F
100
AcDbEntity
  8
0-4_枠
  6
Continuous
 62
    92
370
     5
100
AcDbLine
 10
-3943.935360463269
 20
-333.0001979518559
 30
0.0
 11
-3943.935360463269
 21
-153.0001979518559
 31
0.0
  0
LINE
  5
4F0
330
1F
100
AcDbEntity
  8
0-4_枠
  6
Continuous
 62
    92
370
     5
100
AcDbLine
 10
-3151.935360463271
 20
-156.0001979518549
 30
0.0
 11
-3064.935520680554
 21
-156.0001979518549
 31
0.0
  0
LINE
  5
4F1
330
1F
100
AcDbEntity
  8
0-4_枠
  6
Continuous
 62
    92
370
     5
100
AcDbLine
 10
-3064.935520680554
 20
-330.0001979518578
 30
0.0
 11
-3064.935520680554
 21
-156.0001979518549
 31
0.0
  0
LINE
  5
4F2
330
1F
100
AcDbEntity
  8
0-4_枠
  6
Continuous
 62
    92
370
     5
100
AcDbLine
 10
-3061.935360463271
 20
-333.0001979518559
 30
0.0
 11
-3061.935360463271
 21
-153.0001979518559
 31
0.0
  0
LINE
  5
4F3
330
1F
100
AcDbEntity
  8
0-4_枠
  6
Continuous
 62
    92
370
     5
100
AcDbLine
 10
-3151.935360463271
 20
-156.0001979518549
 30
0.0
 11
-3151.935360463271
 21
-153.0001979518559
 31
0.0
  0
LINE
  5
4F4
330
1F
100
AcDbEntity
  8
0-4_枠
  6
Continuous
 62
    92
370
     5
100
AcDbLine
 10
-3853.935360463271
 20
-153.0001979518559
 30
0.0
 11
-3853.935360463271
 21
-156.0001979518549
 31
0.0
  0
LINE
  5
4F5
330
1F
100
AcDbEntity
  8
ハッチ
  6
Continuous
 62
   120
370
     5
100
AcDbLine
 10
-3504.92628215965
 20
-330.0001979518578
 30
0.0
 11
-3475.335360463272
 21
-300.4092762554788
 31
0.0
  0
LINE
  5
4F6
330
1F
100
AcDbEntity
  8
0-4_枠
  6
Continuous
 62
    92
370
     5
100
AcDbLine
 10
-3302.535360463274
 20
-333.0001979518559
 30
0.0
 11
-3302.535360463274
 21
-237.0001979518563
 31
0.0
  0
LINE
  5
4F7
330
1F
100
AcDbEntity
  8
0-4_枠
  6
Continuous
 62
    92
370
     5
100
AcDbLine
 10
-3302.535360463274
 20
-237.0001979518563
 30
0.0
 11
-3475.335360463272
 21
-237.0001979518563
 31
0.0
  0
LINE
  5
4F8
330
1F
100
AcDbEntity
  8
0-4_枠
  6
Continuous
 62
    92
370
     5
100
AcDbLine
 10
-3475.335360463272
 20
-333.0001979518559
 30
0.0
 11
-3475.335360463272
 21
-237.0001979518563
 31
0.0
  0
LINE
  5
4F9
330
1F
100
AcDbEntity
  8
0-4_枠
  6
Continuous
 62
    92
370
     5
100
AcDbLine
 10
-3061.935360463271
 20
-333.0001979518559
 30
0.0
 11
-3302.535360463274
 21
-333.0001979518559
 31
0.0
  0
LINE
  5
4FA
330
1F
100
AcDbEntity
  8
0-4_枠
  6
Continuous
 62
    92
370
     5
100
AcDbLine
 10
-3064.935520680554
 20
-330.0001979518578
 30
0.0
 11
-3302.535360463274
 21
-330.0001979518578
 31
0.0
  0
LINE
  5
4FB
330
1F
100
AcDbEntity
  8
ハッチ
  6
Continuous
 62
   120
370
     5
100
AcDbLine
 10
-3207.941434061308
 20
-330.0001979518646
 30
0.0
 11
-3064.935520680541
 21
-186.9942845710946
 31
0.0
  0
LINE
  5
4FC
330
1F
100
AcDbEntity
  8
ハッチ
  6
Continuous
 62
   120
370
     5
100
AcDbLine
 10
-3148.544464441654
 20
-330.0001979518578
 30
0.0
 11
-3064.935520680551
 21
-246.3912541907547
 31
0.0
  0
LINE
  5
4FD
330
1F
100
AcDbEntity
  8
ハッチ
  6
Continuous
 62
   120
370
     5
100
AcDbLine
 10
-3089.147494821959
 20
-330.000197951862
 30
0.0
 11
-3064.935520680554
 21
-305.7882238104565
 31
0.0
  0
LINE
  5
4FE
330
1F
100
AcDbEntity
  8
ハッチ
  6
JWW_DASHED1
 62
   120
370
     5
100
AcDbLine
 10
-3112.935360463269
 20
-131.1039783279026
 30
0.0
 11
-3134.831580087219
 21
-153.0001979518576
 31
0.0
  0
LINE
  5
4FF
330
1F
100
AcDbEntity
  8
ハッチ
  6
JWW_DASHED1
 62
   120
370
     5
100
AcDbLine
 10
-3112.935360463272
 20
-88.67757145670765
 30
0.0
 11
-3177.257986958422
 21
-153.000197951861
 31
0.0
  0
LINE
  5
500
330
1F
100
AcDbEntity
  8
ハッチ
  6
JWW_DASHED1
 62
   120
370
     5
100
AcDbLine
 10
-3112.935360463274
 20
-46.25116458551105
 30
0.0
 11
-3187.935360463269
 21
-121.2511645855076
 31
0.0
  0
LINE
  5
501
330
1F
100
AcDbEntity
  8
ハッチ
  6
JWW_DASHED1
 62
   120
370
     5
100
AcDbLine
 10
-3112.935360463276
 20
-3.824757714314444
 30
0.0
 11
-3187.935360463272
 21
-78.82475771431103
 31
0.0
  0
LINE
  5
502
330
1F
100
AcDbEntity
  8
ハッチ
  6
JWW_DASHED1
 62
   120
370
     5
100
AcDbLine
 10
-3112.935360463272
 20
38.60164915683612
 30
0.0
 11
-3187.935360463266
 21
-36.39835084315706
 31
0.0
  0
LINE
  5
503
330
1F
100
AcDbEntity
  8
ハッチ
  6
JWW_DASHED1
 62
   120
370
     5
100
AcDbLine
 10
-3112.935360463274
 20
81.02805602803272
 30
0.0
 11
-3187.935360463269
 21
6.028056028037838
 31
0.0
  0
LINE
  5
504
330
1F
100
AcDbEntity
  8
ハッチ
  6
JWW_DASHED1
 62
   120
370
     5
100
AcDbLine
 10
-3112.935360463262
 20
123.4544628992447
 30
0.0
 11
-3187.935360463274
 21
48.45446289923444
 31
0.0
  0
LINE
  5
505
330
1F
100
AcDbEntity
  8
ハッチ
  6
JWW_DASHED1
 62
   120
370
     5
100
AcDbLine
 10
-3112.935360463269
 20
165.880869770443
 30
0.0
 11
-3187.935360463278
 21
90.88086977043105
 31
0.0
  0
LINE
  5
506
330
1F
100
AcDbEntity
  8
ハッチ
  6
JWW_DASHED1
 62
   120
370
     5
100
AcDbLine
 10
-3817.935360463272
 20
-131.1039783279026
 30
0.0
 11
-3839.831580087222
 21
-153.0001979518576
 31
0.0
  0
LINE
  5
507
330
1F
100
AcDbEntity
  8
ハッチ
  6
JWW_DASHED1
 62
   120
370
     5
100
AcDbLine
 10
-3817.935360463272
 20
-88.67757145670765
 30
0.0
 11
-3882.257986958422
 21
-153.000197951861
 31
0.0
  0
LINE
  5
508
330
1F
100
AcDbEntity
  8
ハッチ
  6
JWW_DASHED1
 62
   120
370
     5
100
AcDbLine
 10
-3817.935360463274
 20
-46.25116458551105
 30
0.0
 11
-3892.935360463272
 21
-121.2511645855076
 31
0.0
  0
LINE
  5
509
330
1F
100
AcDbEntity
  8
ハッチ
  6
JWW_DASHED1
 62
   120
370
     5
100
AcDbLine
 10
-3817.935360463278
 20
-3.824757714314444
 30
0.0
 11
-3892.935360463272
 21
-78.82475771431103
 31
0.0
  0
LINE
  5
50A
330
1F
100
AcDbEntity
  8
ハッチ
  6
JWW_DASHED1
 62
   120
370
     5
100
AcDbLine
 10
-3817.935360463272
 20
38.60164915683612
 30
0.0
 11
-3892.935360463264
 21
-36.39835084315706
 31
0.0
  0
LINE
  5
50B
330
1F
100
AcDbEntity
  8
ハッチ
  6
JWW_DASHED1
 62
   120
370
     5
100
AcDbLine
 10
-3817.935360463274
 20
81.02805602803272
 30
0.0
 11
-3892.935360463272
 21
6.028056028037838
 31
0.0
  0
LINE
  5
50C
330
1F
100
AcDbEntity
  8
ハッチ
  6
JWW_DASHED1
 62
   120
370
     5
100
AcDbLine
 10
-3817.935360463264
 20
123.4544628992447
 30
0.0
 11
-3892.935360463274
 21
48.45446289923444
 31
0.0
  0
LINE
  5
50D
330
1F
100
AcDbEntity
  8
ハッチ
  6
JWW_DASHED1
 62
   120
370
     5
100
AcDbLine
 10
-3817.935360463272
 20
165.880869770443
 30
0.0
 11
-3892.935360463278
 21
90.88086977043105
 31
0.0
  0
LINE
  5
50E
330
1F
100
AcDbEntity
  8
0-B_寸法
  6
Continuous
 62
   120
370
     5
100
AcDbLine
 10
-1963.935360463272
 20
-153.0001979518559
 30
0.0
 11
-2803.935360463272
 21
-153.0001979518559
 31
0.0
  0
LWPOLYLINE
  5
50F
330
1F
100
AcDbEntity
  8
0-B_寸法
  6
Continuous
 62
     7
370
     5
100
AcDbPolyline
 90
        4
 70
     1
 43
3.0
 10
-1962.435360463272
 20
-153.0001979518559
 42
0.4142135623731
 10
-1963.935360463272
 20
-151.5001979518559
 42
0.4142135623731
 10
-1965.435360463272
 20
-153.0001979518559
 42
0.4142135623731
 10
-1963.935360463272
 20
-154.5001979518559
 42
0.4142135623731
  0
LINE
  5
510
330
1F
100
AcDbEntity
  8
0-B_寸法
  6
Continuous
 62
   120
370
     5
100
AcDbLine
 10
-1963.935360463272
 20
-2853.000197672981
 30
0.0
 11
-1963.935360463272
 21
-153.0001979518559
 31
0.0
  0
LINE
  5
511
330
1F
100
AcDbEntity
  8
0-B_寸法
  6
Continuous
 62
   120
370
     5
100
AcDbLine
 10
-2173.935360463272
 20
-153.0001979518559
 30
0.0
 11
-2173.935360463272
 21
-2781.000609939156
 31
0.0
  0
LINE
  5
512
330
1F
100
AcDbEntity
  8
0-6_扉
  6
Continuous
 62
   200
370
     5
100
AcDbLine
 10
-3298.935360463281
 20
-414.0001979518547
 30
0.0
 11
-3478.935360463281
 21
-414.0001979518547
 31
0.0
  0
LINE
  5
513
330
1F
100
AcDbEntity
  8
0-6_扉
  6
Continuous
 62
   200
370
     5
100
AcDbLine
 10
-3298.935360463281
 20
-414.0001979518547
 30
0.0
 11
-3298.935360463281
 21
-1467.000300948678
 31
0.0
  0
LINE
  5
514
330
1F
100
AcDbEntity
  8
仕上げ
  6
Continuous
 62
    40
370
     5
100
AcDbLine
 10
-3892.935360463272
 20
-153.0001979518559
 30
0.0
 11
-3817.935360463272
 21
-153.0001979518559
 31
0.0
  0
LINE
  5
515
330
1F
100
AcDbEntity
  8
仕上げ
  6
Continuous
 62
    40
370
     5
100
AcDbLine
 10
-3187.935360463272
 20
-153.0001979518559
 30
0.0
 11
-3112.935360463272
 21
-153.0001979518559
 31
0.0
  0
LINE
  5
516
330
1F
100
AcDbEntity
  8
0-B_寸法
  6
Continuous
 62
   120
370
     5
100
AcDbLine
 10
-2593.935360463272
 20
-376.2001976672724
 30
0.0
 11
-2803.935360463272
 21
-376.2001976672724
 31
0.0
  0
LINE
  5
517
330
1F
100
AcDbEntity
  8
0-B_寸法
  6
Continuous
 62
   120
370
     5
100
AcDbLine
 10
-2383.935360463272
 20
-414.0001979518556
 30
0.0
 11
-2803.935360463272
 21
-414.0001979518556
 31
0.0
  0
LWPOLYLINE
  5
518
330
1F
100
AcDbEntity
  8
0-B_寸法
  6
Continuous
 62
     7
370
     5
100
AcDbPolyline
 90
        4
 70
     1
 43
3.0
 10
-2592.435360463272
 20
-376.2001976672724
 42
0.4142135623731
 10
-2593.935360463272
 20
-374.7001976672724
 42
0.4142135623731
 10
-2595.435360463272
 20
-376.2001976672724
 42
0.4142135623731
 10
-2593.935360463272
 20
-377.7001976672724
 42
0.4142135623731
  0
LWPOLYLINE
  5
519
330
1F
100
AcDbEntity
  8
0-B_寸法
  6
Continuous
 62
     7
370
     5
100
AcDbPolyline
 90
        4
 70
     1
 43
3.0
 10
-2592.435360463272
 20
-414.0001979518556
 42
0.4142135623731
 10
-2593.935360463272
 20
-412.5001979518556
 42
0.4142135623731
 10
-2595.435360463272
 20
-414.0001979518556
 42
0.4142135623731
 10
-2593.935360463272
 20
-415.5001979518556
 42
0.4142135623731
  0
LINE
  5
51A
330
1F
100
AcDbEntity
  8
0-B_寸法
  6
Continuous
 62
   120
370
     5
100
AcDbLine
 10
-2593.935360463272
 20
-414.0001979518556
 30
0.0
 11
-2593.935360463272
 21
-376.2001976672724
 31
0.0
  0
LINE
  5
51B
330
1F
100
AcDbEntity
  8
0-B_寸法
  6
Continuous
 62
   120
370
     5
100
AcDbLine
 10
-2383.935360463272
 20
-333.0001979518559
 30
0.0
 11
-2383.935360463272
 21
-2781.000609939156
 31
0.0
  0
LWPOLYLINE
  5
51C
330
1F
100
AcDbEntity
  8
0-B_寸法
  6
Continuous
 62
     7
370
     5
100
AcDbPolyline
 90
        4
 70
     1
 43
3.0
 10
-2382.435360463272
 20
-414.0001979518556
 42
0.4142135623731
 10
-2383.935360463272
 20
-412.5001979518556
 42
0.4142135623731
 10
-2385.435360463272
 20
-414.0001979518556
 42
0.4142135623731
 10
-2383.935360463272
 20
-415.5001979518556
 42
0.4142135623731
  0
LWPOLYLINE
  5
51D
330
1F
100
AcDbEntity
  8
0-B_寸法
  6
Continuous
 62
     7
370
     5
100
AcDbPolyline
 90
        4
 70
     1
 43
3.0
 10
-2382.435360463272
 20
-333.0001979518559
 42
0.4142135623731
 10
-2383.935360463272
 20
-331.5001979518559
 42
0.4142135623731
 10
-2385.435360463272
 20
-333.0001979518559
 42
0.4142135623731
 10
-2383.935360463272
 20
-334.5001979518559
 42
0.4142135623731
  0
LWPOLYLINE
  5
51E
330
1F
100
AcDbEntity
  8
0-B_寸法
  6
Continuous
 62
     7
370
     5
100
AcDbPolyline
 90
        4
 70
     1
 43
3.0
 10
-2172.435360463272
 20
-333.0001979518559
 42
0.4142135623731
 10
-2173.935360463272
 20
-331.5001979518559
 42
0.4142135623731
 10
-2175.435360463272
 20
-333.0001979518559
 42
0.4142135623731
 10
-2173.935360463272
 20
-334.5001979518559
 42
0.4142135623731
  0
LWPOLYLINE
  5
51F
330
1F
100
AcDbEntity
  8
0-B_寸法
  6
Continuous
 62
     7
370
     5
100
AcDbPolyline
 90
        4
 70
     1
 43
3.0
 10
-2172.435360463272
 20
-153.0001979518559
 42
0.4142135623731
 10
-2173.935360463272
 20
-151.5001979518559
 42
0.4142135623731
 10
-2175.435360463272
 20
-153.0001979518559
 42
0.4142135623731
 10
-2173.935360463272
 20
-154.5001979518559
 42
0.4142135623731
  0
LINE
  5
520
330
1F
100
AcDbEntity
  8
0-B_寸法
  6
Continuous
 62
   120
370
     5
100
AcDbLine
 10
-2173.935360463272
 20
-333.0001979518559
 30
0.0
 11
-2803.935360463272
 21
-333.0001979518559
 31
0.0
  0
LWPOLYLINE
  5
521
330
1F
100
AcDbEntity
  8
0-B_寸法
  6
Continuous
 62
     7
370
     5
100
AcDbPolyline
 90
        4
 70
     1
 43
3.0
 10
-3477.435360463281
 20
-1119.000324800429
 42
0.4142135623731
 10
-3478.935360463281
 20
-1117.500324800429
 42
0.4142135623731
 10
-3480.435360463281
 20
-1119.000324800429
 42
0.4142135623731
 10
-3478.935360463281
 20
-1120.500324800429
 42
0.4142135623731
  0
LWPOLYLINE
  5
522
330
1F
100
AcDbEntity
  8
0-B_寸法
  6
Continuous
 62
     7
370
     5
100
AcDbPolyline
 90
        4
 70
     1
 43
3.0
 10
-3297.435360463281
 20
-1119.000324800429
 42
0.4142135623731
 10
-3298.935360463281
 20
-1117.500324800429
 42
0.4142135623731
 10
-3300.435360463281
 20
-1119.000324800429
 42
0.4142135623731
 10
-3298.935360463281
 20
-1120.500324800429
 42
0.4142135623731
  0
LINE
  5
523
330
1F
100
AcDbEntity
  8
0-0_補助線
  6
JWW_HOJO
 62
   120
370
     5
100
AcDbLine
 10
-1963.935360463272
 20
194.9998020481414
 30
0.0
 11
-1963.935360463272
 21
-2853.000197672981
 31
0.0
  0
LINE
  5
524
330
1F
100
AcDbEntity
  8
0-0_補助線
  6
JWW_HOJO
 62
   120
370
     5
100
AcDbLine
 10
-4252.935360463274
 20
194.9998020481414
 30
0.0
 11
-4252.935360463274
 21
-2853.000197672981
 31
0.0
  0
LINE
  5
525
330
1F
100
AcDbEntity
  8
0-0_補助線
  6
JWW_HOJO
 62
   120
370
     5
100
AcDbLine
 10
-2173.935360463272
 20
194.9998020481414
 30
0.0
 11
-2173.935360463272
 21
-2853.000197672981
 31
0.0
  0
LINE
  5
526
330
1F
100
AcDbEntity
  8
0-0_補助線
  6
JWW_HOJO
 62
   120
370
     5
100
AcDbLine
 10
-2383.935360463272
 20
194.9998020481414
 30
0.0
 11
-2383.935360463272
 21
-2853.000197672981
 31
0.0
  0
LINE
  5
527
330
1F
100
AcDbEntity
  8
0-0_補助線
  6
JWW_HOJO
 62
   120
370
     5
100
AcDbLine
 10
-2593.935360463272
 20
194.9998020481414
 30
0.0
 11
-2593.935360463272
 21
-2853.000197672981
 31
0.0
  0
LINE
  5
528
330
1F
100
AcDbEntity
  8
ハッチ
  6
JWW_DASHED1
 62
   120
370
     5
100
AcDbLine
 10
-3126.242835056769
 20
194.9998020481414
 30
0.0
 11
-3187.935360463264
 21
133.307276641643
 31
0.0
  0
LINE
  5
529
330
1F
100
AcDbEntity
  8
ハッチ
  6
JWW_DASHED1
 62
   120
370
     5
100
AcDbLine
 10
-3168.669241927968
 20
194.9998020481414
 30
0.0
 11
-3187.935360463264
 21
175.733683512843
 31
0.0
  0
LINE
  5
52A
330
1F
100
AcDbEntity
  8
ハッチ
  6
JWW_DASHED1
 62
   120
370
     5
100
AcDbLine
 10
-3831.242835056769
 20
194.9998020481414
 30
0.0
 11
-3892.935360463264
 21
133.307276641643
 31
0.0
  0
LINE
  5
52B
330
1F
100
AcDbEntity
  8
ハッチ
  6
JWW_DASHED1
 62
   120
370
     5
100
AcDbLine
 10
-3873.669241927968
 20
194.9998020481414
 30
0.0
 11
-3892.935360463264
 21
175.733683512843
 31
0.0
  0
LINE
  5
52C
330
1F
100
AcDbEntity
  8
0-0_補助線
  6
JWW_HOJO
 62
   120
370
     5
100
AcDbLine
 10
-3616.935360463278
 20
194.9998020481414
 30
0.0
 11
-3616.935360463278
 21
-2853.000197672981
 31
0.0
  0
LINE
  5
52D
330
1F
100
AcDbEntity
  8
0-0_補助線
  6
JWW_HOJO
 62
   120
370
     5
100
AcDbLine
 10
-2803.935360463272
 20
194.9998020481414
 30
0.0
 11
-2803.935360463272
 21
-2853.000197672981
 31
0.0
  0
LINE
  5
52E
330
1F
100
AcDbEntity
  8
仕上げ
  6
Continuous
 62
    40
370
     5
100
AcDbLine
 10
-3892.935360463272
 20
194.9998020481414
 30
0.0
 11
-3892.935360463272
 21
-153.0001979518559
 31
0.0
  0
LINE
  5
52F
330
1F
100
AcDbEntity
  8
仕上げ
  6
Continuous
 62
    40
370
     5
100
AcDbLine
 10
-3817.935360463272
 20
194.9998020481414
 30
0.0
 11
-3817.935360463272
 21
-153.0001979518559
 31
0.0
  0
LINE
  5
530
330
1F
100
AcDbEntity
  8
仕上げ
  6
Continuous
 62
    40
370
     5
100
AcDbLine
 10
-3187.935360463272
 20
194.9998020481414
 30
0.0
 11
-3187.935360463272
 21
-153.0001979518559
 31
0.0
  0
LINE
  5
531
330
1F
100
AcDbEntity
  8
仕上げ
  6
Continuous
 62
    40
370
     5
100
AcDbLine
 10
-3112.935360463272
 20
194.9998020481414
 30
0.0
 11
-3112.935360463272
 21
-153.0001979518559
 31
0.0
  0
LINE
  5
532
330
1F
100
AcDbEntity
  8
0-0_補助線
  6
JWW_HOJO
 62
   120
370
     5
100
AcDbLine
 10
-4252.935360463274
 20
194.9998020481414
 30
0.0
 11
-1963.935360463272
 21
194.9998020481414
 31
0.0
  0
MTEXT
  5
533
330
1F
100
AcDbEntity
  8
0-B_寸法
  6
Continuous
 62
     7
370
   211
100
AcDbMText
 10
-2188.935360463272
 20
-317.280197951855
 30
0.0
 40
91.44
 41
120.0
 46
0.0
 71
     7
 72
     1
  1
{\fＭＳ ゴシック|b0|i0|c128|p49;30}
 11
6.123031769111886E-17
 21
1.0
 31
0.0
 73
     1
 44
1.0
  0
MTEXT
  5
534
330
1F
100
AcDbEntity
  8
0-B_寸法
  6
Continuous
 62
     7
370
   211
100
AcDbMText
 10
-2608.935360463272
 20
-626.2801979518558
 30
0.0
 40
91.44
 41
180.0
 46
0.0
 71
     7
 72
     1
  1
{\fＭＳ ゴシック|b0|i0|c128|p49;6.3}
 11
6.123031769111886E-17
 21
1.0
 31
0.0
 73
     1
 44
1.0
  0
MTEXT
  5
535
330
1F
100
AcDbEntity
  8
0-B_寸法
  6
Continuous
 62
     7
370
     0
100
AcDbMText
 10
-2395.935360463275
 20
-686.2801979518549
 30
0.0
 40
91.44
 41
240.0
 46
0.0
 71
     7
 72
     1
  1
{\fＭＳ ゴシック|b0|i0|c128|p49;13.5}
 11
6.123031769111886E-17
 21
1.0
 31
0.0
 73
     1
 44
1.0
  0
MTEXT
  5
536
330
1F
100
AcDbEntity
  8
0-B_寸法
  6
Continuous
 62
     7
370
   211
100
AcDbMText
 10
-3448.935360463279
 20
-1118.280324800429
 30
0.0
 40
91.44
 41
120.0
 46
0.0
 71
     7
 72
     1
  1
{\fＭＳ ゴシック|b0|i0|c128|p49;30}
 73
     1
 44
1.0
  0
MTEXT
  5
537
330
1F
100
AcDbEntity
  8
0-B_寸法
  6
Continuous
 62
     7
370
   211
100
AcDbMText
 10
-3466.935360463271
 20
-2523.900403945505
 30
0.0
 40
76.19999999999999
 41
150.0
 46
0.0
 71
     7
 72
     1
  1
{\fＭＳ ゴシック|b0|i0|c128|p49;4.5}
 73
     1
 44
1.0
  0
MTEXT
  5
538
330
1F
100
AcDbEntity
  8
0-B_寸法
  6
Continuous
 62
     7
370
     0
100
AcDbMText
 10
-2395.935360463275
 20
-2726.280609939157
 30
0.0
 40
91.44
 41
180.0
 46
0.0
 71
     7
 72
     1
  1
{\fＭＳ ゴシック|b0|i0|c128|p49;8.5}
 11
6.123031769111886E-17
 21
1.0
 31
0.0
 73
     1
 44
1.0
  0
MTEXT
  5
539
330
1F
100
AcDbEntity
  8
0-B_寸法
  6
Continuous
 62
     7
370
   211
100
AcDbMText
 10
-3133.935360463281
 20
-2750.280403945506
 30
0.0
 40
91.44
 41
120.0
 46
0.0
 71
     7
 72
     1
  1
{\fＭＳ ゴシック|b0|i0|c128|p49;18}
 11
6.123031769111886E-17
 21
1.0
 31
0.0
 73
     1
 44
1.0
  0
MTEXT
  5
53A
330
1F
100
AcDbEntity
  8
0-B_寸法
  6
Continuous
 62
     7
370
   211
100
AcDbMText
 10
-1978.935360463272
 20
-2774.422903945504
 30
0.0
 40
97.15499999999999
 41
127.5
 46
0.0
 71
     7
 72
     1
  1
{\fＭＳ ゴシック|b0|i0|c128|p49;12}
 11
6.123031769111886E-17
 21
1.0
 31
0.0
 73
     1
 44
1.0
  0
MTEXT
  5
53B
330
1F
100
AcDbEntity
  8
0-B_寸法
  6
Continuous
 62
     7
370
   211
100
AcDbMText
 10
-3708.435360463294
 20
-2784.52074089982
 30
0.0
 40
91.44
 41
120.0
 46
0.0
 71
     7
 72
     1
  1
{\fＭＳ ゴシック|b0|i0|c128|p49;20}
 11
6.123031769111886E-17
 21
1.0
 31
0.0
 73
     1
 44
1.0
  0
MTEXT
  5
53C
330
1F
100
AcDbEntity
  8
0-A_文字
  6
Continuous
 62
     7
370
     5
100
AcDbMText
 10
-4252.935360463271
 20
354.3775129854489
 30
0.0
 40
100.584
 41
660.0
 46
0.0
 71
     7
 72
     1
  1
{\fＭＳ ゴシック|b0|i0|c128|p49;■縦断面図}
 73
     1
 44
1.0
  0
MTEXT
  5
53D
330
1F
100
AcDbEntity
  8
0-B_寸法
  6
Continuous
 62
     7
370
   211
100
AcDbMText
 10
-1978.935360463272
 20
-2173.366090422363
 30
0.0
 40
102.2684210526315
 41
1275.0
 46
0.0
 71
     7
 72
     1
  1
{\fＭＳ ゴシック|b0|i0|c128|p49;枠外＝2,035 (2,235)}
 11
6.123031769111886E-17
 21
1.0
 31
0.0
 73
     1
 44
1.0
  0
MTEXT
  5
53E
330
1F
100
AcDbEntity
  8
0-B_寸法
  6
Continuous
 62
     7
370
   211
100
AcDbMText
 10
-2188.935360463272
 20
-2096.28050694233
 30
0.0
 40
91.43999999999996
 41
1140.0
 46
0.0
 71
     7
 72
     1
  1
{\fＭＳ ゴシック|b0|i0|c128|p49;枠内＝2,005 (2,205)}
 11
6.123031769111886E-17
 21
1.0
 31
0.0
 73
     1
 44
1.0
  0
MTEXT
  5
53F
330
1F
100
AcDbEntity
  8
0-B_寸法
  6
Continuous
 62
     7
370
     0
100
AcDbMText
 10
-2398.935360463272
 20
-2096.28050694233
 30
0.0
 40
91.43999999999996
 41
1140.0
 46
0.0
 71
     7
 72
     1
  1
{\fＭＳ ゴシック|b0|i0|c128|p49;ＤＨ＝1,983 (2,183)}
 11
6.123031769111886E-17
 21
1.0
 31
0.0
 73
     1
 44
1.0
  0
MTEXT
  5
540
330
1F
100
AcDbEntity
  8
0-A_文字
  6
Continuous
 62
     7
370
     0
100
AcDbMText
 10
-3068.301088642631
 20
-3255.294428852343
 30
0.0
 40
78.97090909090909
 41
1140.0
 46
0.0
 71
     7
 72
     1
  1
{\fＭＳ ゴシック|b0|i0|c128|p49;※(　)内寸法はハイドア}
 73
     1
 44
1.0
  0
LINE
  5
541
330
1F
100
AcDbEntity
  8
F-0_補助線
  6
JWW_HOJO
 62
     7
370
     5
100
AcDbLine
 10
1109.918584083287
 20
-3795.000003092998
 30
0.0
 11
1109.918584083287
 21
-4195.000008247994
 31
0.0
  0
LINE
  5
542
330
1F
100
AcDbEntity
  8
F-0_補助線
  6
JWW_HOJO
 62
     7
370
     5
100
AcDbLine
 10
4889.917891251784
 20
-3795.000003092998
 30
0.0
 11
4889.917891251784
 21
-4195.000008247994
 31
0.0
  0
MTEXT
  5
543
330
1F
100
AcDbEntity
  8
F-0_補助線
  6
Continuous
 62
     7
370
     0
100
AcDbMText
 10
1109.918584083287
 20
-3945.948259655243
 30
0.0
 40
78.105
 41
615.0
 46
0.0
 71
     7
 72
     1
  1
{\fＭＳ ゴシック|b0|i0|c128|p49;建具納まり図}
 73
     1
 44
1.0
  0
MTEXT
  5
544
330
1F
100
AcDbEntity
  8
F-0_補助線
  6
Continuous
 62
     7
370
     0
100
AcDbMText
 10
509.9185840832865
 20
-3945.709576962234
 30
0.0
 40
78.58125
 41
412.5
 46
0.0
 71
     7
 72
     1
  1
{\fＭＳ ゴシック|b0|i0|c128|p49;DOORETUS}
 73
     1
 44
1.0
  0
LINE
  5
545
330
1F
100
AcDbEntity
  8
0-1_通り芯
  6
JWW_CENTER1
 62
   120
370
     5
100
AcDbLine
 10
-3502.935360463272
 20
194.9998020481414
 30
0.0
 11
-3502.935360463272
 21
-2972.844411167898
 31
0.0
  0
LINE
  5
546
330
1F
100
AcDbEntity
  8
0-1_通り芯
  6
JWW_CENTER1
 62
   120
370
     5
100
AcDbLine
 10
-3388.935360463269
 20
-237.0001979518563
 30
0.0
 11
-3388.935360463269
 21
-2781.000403945504
 31
0.0
  0
LINE
  5
547
330
1F
100
AcDbEntity
  8
0-1_通り芯
  6
JWW_CENTER1
 62
   120
370
     5
100
AcDbLine
 10
-2135.298782269491
 20
2552.999683277026
 30
0.0
 11
2137.381578376201
 21
2552.999683277026
 31
0.0
  0
LWPOLYLINE
  5
548
330
1F
100
AcDbEntity
  8
0-B_寸法
  6
Continuous
 62
     7
370
     5
100
AcDbPolyline
 90
        4
 70
     1
 43
3.0
 10
299.8643398052893
 20
2552.999683277026
 42
0.4142135623731
 10
298.3643398052892
 20
2554.499683277026
 42
0.4142135623731
 10
296.8643398052892
 20
2552.999683277026
 42
0.4142135623731
 10
298.3643398052892
 20
2551.499683277026
 42
0.4142135623731
  0
LWPOLYLINE
  5
549
330
1F
100
AcDbEntity
  8
0-B_寸法
  6
Continuous
 62
     7
370
     5
100
AcDbPolyline
 90
        4
 70
     1
 43
3.0
 10
299.8643398052893
 20
2438.999683277028
 42
0.4142135623731
 10
298.3643398052892
 20
2440.499683277027
 42
0.4142135623731
 10
296.8643398052892
 20
2438.999683277028
 42
0.4142135623731
 10
298.3643398052892
 20
2437.499683277028
 42
0.4142135623731
  0
LWPOLYLINE
  5
54A
330
1F
100
AcDbEntity
  8
0-B_寸法
  6
Continuous
 62
     7
370
     5
100
AcDbPolyline
 90
        4
 70
     1
 43
3.0
 10
-3387.435360463269
 20
-1359.000324800429
 42
0.4142135623731
 10
-3388.935360463269
 20
-1357.500324800429
 42
0.4142135623731
 10
-3390.435360463269
 20
-1359.000324800429
 42
0.4142135623731
 10
-3388.935360463269
 20
-1360.500324800429
 42
0.4142135623731
  0
LWPOLYLINE
  5
54B
330
1F
100
AcDbEntity
  8
0-B_寸法
  6
Continuous
 62
     7
370
     5
100
AcDbPolyline
 90
        4
 70
     1
 43
3.0
 10
-3501.435360463273
 20
-1359.000324800429
 42
0.4142135623731
 10
-3502.935360463272
 20
-1357.500324800429
 42
0.4142135623731
 10
-3504.435360463272
 20
-1359.000324800429
 42
0.4142135623731
 10
-3502.935360463272
 20
-1360.500324800429
 42
0.4142135623731
  0
MTEXT
  5
54C
330
1F
100
AcDbEntity
  8
F-A_文字
  6
Continuous
 62
     7
370
     0
100
AcDbMText
 10
4889.917891251784
 20
-3945.570773120548
 30
0.0
 40
78.86699999999999
 41
517.5
 46
0.0
 71
     7
 72
     1
  1
{\fＭＳ ゴシック|b0|i0|c128|p49;2022.04.01}
 73
     1
 44
1.0
  0
MTEXT
  5
54D
330
1F
100
AcDbEntity
  8
0-B_寸法
  6
Continuous
 62
     7
370
   211
100
AcDbMText
 10
283.3643398052892
 20
2288.827183277027
 30
0.0
 40
97.15499999999999
 41
127.5
 46
0.0
 71
     7
 72
     1
  1
{\fＭＳ ゴシック|b0|i0|c128|p49;19}
 11
6.123031769111886E-17
 21
1.0
 31
0.0
 73
     1
 44
1.0
  0
LINE
  5
54E
330
1F
100
AcDbEntity
  8
0-B_寸法
  6
Continuous
 62
   120
370
     5
100
AcDbLine
 10
298.3643398052892
 20
2552.999683277026
 30
0.0
 11
298.3643398052892
 21
2306.999683277027
 31
0.0
  0
LINE
  5
54F
330
1F
100
AcDbEntity
  8
0-6_扉
  6
Continuous
 62
   200
370
     5
100
AcDbLine
 10
538.3643398052892
 20
2462.999683277026
 30
0.0
 11
1135.211488214778
 21
2462.999683277026
 31
0.0
  0
LINE
  5
550
330
1F
100
AcDbEntity
  8
0-B_寸法
  6
Continuous
 62
   120
370
     5
100
AcDbLine
 10
921.2610248424712
 20
2423.999683277026
 30
0.0
 11
770.9832736415617
 21
2423.999683277026
 31
0.0
  0
LINE
  5
551
330
1F
100
AcDbEntity
  8
0-6_扉
  6
Continuous
 62
   200
370
     5
100
AcDbLine
 10
-3478.935360463281
 20
-414.0001979518547
 30
0.0
 11
-3478.935360463281
 21
-1467.000300948678
 31
0.0
  0
MTEXT
  5
552
330
1F
100
AcDbEntity
  8
0-B_寸法
  6
Continuous
 62
     7
370
     0
100
AcDbMText
 10
-3696.869387645571
 20
-868.1051942929557
 30
0.0
 40
91.44
 41
180.0
 46
0.0
 71
     7
 72
     1
  1
{\fＭＳ ゴシック|b0|i0|c128|p49;147}
 73
     1
 44
1.0
  0
MTEXT
  5
553
330
1F
100
AcDbEntity
  8
0-B_寸法
  6
Continuous
 62
     7
370
   211
100
AcDbMText
 10
-3641.685360463271
 20
-1355.422824800429
 30
0.0
 40
97.15499999999999
 41
127.5
 46
0.0
 71
     7
 72
     1
  1
{\fＭＳ ゴシック|b0|i0|c128|p49;19}
 73
     1
 44
1.0
  0
LINE
  5
554
330
1F
100
AcDbEntity
  8
0-B_寸法
  6
Continuous
 62
   120
370
     5
100
AcDbLine
 10
-3388.935360463269
 20
-1359.000324800429
 30
0.0
 11
-3634.935360463273
 21
-1359.000324800429
 31
0.0
  0
MTEXT
  5
555
330
1F
100
AcDbEntity
  8
0-B_寸法
  6
Continuous
 62
     7
370
     0
100
AcDbMText
 10
1820.035077098387
 20
2448.719683277026
 30
0.0
 40
91.44
 41
180.0
 46
0.0
 71
     7
 72
     1
  1
{\fＭＳ ゴシック|b0|i0|c128|p49;100}
 11
6.123031769111886E-17
 21
1.0
 31
0.0
 73
     1
 44
1.0
  0
ENDSEC
  0
SECTION
  2
OBJECTS
  0
DICTIONARY
  5
C
330
0
100
AcDbDictionary
281
     1
  3
ACAD_GROUP
350
D
  3
ACAD_LAYOUT
350
1A
  3
ACAD_MATERIAL
350
3B
  3
ACAD_MLEADERSTYLE
350
557
  3
ACAD_MLINESTYLE
350
17
  3
ACAD_PLOTSETTINGS
350
19
  3
ACAD_PLOTSTYLENAME
350
E
  3
ACAD_TABLESTYLE
350
556
  3
ACAD_VISUALSTYLE
350
2A
  0
DICTIONARY
  5
D
102
{ACAD_REACTORS
330
C
102
}
330
C
100
AcDbDictionary
281
     1
  0
DICTIONARY
  5
1A
102
{ACAD_REACTORS
330
C
102
}
330
C
100
AcDbDictionary
281
     1
  3
Layout1
350
1E
  3
Layout2
350
26
  3
Model
350
22
  0
DICTIONARY
  5
3B
102
{ACAD_REACTORS
330
C
102
}
330
C
100
AcDbDictionary
281
     1
  3
ByBlock
350
3D
  3
ByLayer
350
3C
  3
Global
350
3E
  0
DICTIONARY
  5
557
102
{ACAD_REACTORS
330
C
102
}
330
C
100
AcDbDictionary
281
     1
  0
DICTIONARY
  5
17
102
{ACAD_REACTORS
330
C
102
}
330
C
100
AcDbDictionary
281
     1
  3
Standard
350
18
  0
DICTIONARY
  5
19
102
{ACAD_REACTORS
330
C
102
}
330
C
100
AcDbDictionary
281
     1
  0
ACDBDICTIONARYWDFLT
  5
E
102
{ACAD_REACTORS
330
C
102
}
330
C
100
AcDbDictionary
281
     1
  3
Normal
350
F
100
AcDbDictionaryWithDefault
340
F
  0
DICTIONARY
  5
556
102
{ACAD_REACTORS
330
C
102
}
330
C
100
AcDbDictionary
281
     1
  0
DICTIONARY
  5
2A
102
{ACAD_REACTORS
330
C
102
}
330
C
100
AcDbDictionary
281
     1
  3
2dWireframe
350
2F
  3
3D Hidden
350
31
  3
3dWireframe
350
30
  3
Basic
350
32
  3
Brighten
350
36
  3
ColorChange
350
3A
  3
Conceptual
350
34
  3
Dim
350
35
  3
Facepattern
350
39
  3
Flat
350
2B
  3
FlatWithEdges
350
2C
  3
Gouraud
350
2D
  3
GouraudWithEdges
350
2E
  3
Linepattern
350
38
  3
Realistic
350
33
  3
Thicken
350
37
  0
LAYOUT
  5
1E
102
{ACAD_REACTORS
330
1A
102
}
330
1A
100
AcDbPlotSettings
  1

  2
none_device
  4

  6

 40
0.0
 41
0.0
 42
0.0
 43
0.0
 44
0.0
 45
0.0
 46
0.0
 47
0.0
 48
0.0
 49
0.0
140
0.0
141
0.0
142
1.0
143
1.0
 70
   688
 72
     0
 73
     0
 74
     5
  7

 75
    16
 76
     0
 77
     5
 78
   300
147
1.0
148
0.0
149
0.0
100
AcDbLayout
  1
Layout1
 70
     1
 71
     1
 10
0.0
 20
0.0
 11
420.0
 21
297.0
 12
0.0
 22
0.0
 32
0.0
 14
1.000000000000000E+20
 24
1.000000000000000E+20
 34
1.000000000000000E+20
 15
-1.000000000000000E+20
 25
-1.000000000000000E+20
 35
-1.000000000000000E+20
146
0.0
 13
0.0
 23
0.0
 33
0.0
 16
1.0
 26
0.0
 36
0.0
 17
0.0
 27
1.0
 37
0.0
 76
     0
330
1B
  0
LAYOUT
  5
26
102
{ACAD_REACTORS
330
1A
102
}
330
1A
100
AcDbPlotSettings
  1

  2
none_device
  4

  6

 40
0.0
 41
0.0
 42
0.0
 43
0.0
 44
0.0
 45
0.0
 46
0.0
 47
0.0
 48
0.0
 49
0.0
140
0.0
141
0.0
142
1.0
143
1.0
 70
   688
 72
     0
 73
     0
 74
     5
  7

 75
    16
 76
     0
 77
     5
 78
   300
147
1.0
148
0.0
149
0.0
100
AcDbLayout
  1
Layout2
 70
     1
 71
     2
 10
0.0
 20
0.0
 11
0.0
 21
0.0
 12
0.0
 22
0.0
 32
0.0
 14
0.0
 24
0.0
 34
0.0
 15
0.0
 25
0.0
 35
0.0
146
0.0
 13
0.0
 23
0.0
 33
0.0
 16
1.0
 26
0.0
 36
0.0
 17
0.0
 27
1.0
 37
0.0
 76
     0
330
23
  0
LAYOUT
  5
22
102
{ACAD_REACTORS
330
1A
102
}
330
1A
100
AcDbPlotSettings
  1

  2
none_device
  4

  6

 40
0.0
 41
0.0
 42
0.0
 43
0.0
 44
0.0
 45
0.0
 46
0.0
 47
0.0
 48
0.0
 49
0.0
140
0.0
141
0.0
142
1.0
143
1.0
 70
  1712
 72
     0
 73
     0
 74
     0
  7

 75
     0
 76
     0
 77
     5
 78
   300
147
1.0
148
0.0
149
0.0
100
AcDbLayout
  1
Model
 70
     1
 71
     0
 10
-8910.0
 20
-6300.0
 11
8910.0
 21
6300.0
 12
0.0
 22
0.0
 32
0.0
 14
-8910.0
 24
-6300.0
 34
0.0
 15
8910.0
 25
6300.0
 35
0.0
146
0.0
 13
0.0
 23
0.0
 33
0.0
 16
1.0
 26
0.0
 36
0.0
 17
0.0
 27
1.0
 37
0.0
 76
     0
330
1F
331
29
  0
MATERIAL
  5
3D
102
{ACAD_REACTORS
330
3B
102
}
330
3B
100
AcDbMaterial
  1
ByBlock
 72
     1
 94
      127
  0
MATERIAL
  5
3C
102
{ACAD_REACTORS
330
3B
102
}
330
3B
100
AcDbMaterial
  1
ByLayer
 72
     1
 94
      127
  0
MATERIAL
  5
3E
102
{ACAD_REACTORS
330
3B
102
}
330
3B
100
AcDbMaterial
  1
Global
 72
     1
 94
      127
  0
MLINESTYLE
  5
18
102
{ACAD_REACTORS
330
17
102
}
330
17
100
AcDbMlineStyle
  2
Standard
 70
     0
  3

 62
   256
 51
90.0
 52
90.0
 71
     2
 49
0.5
 62
   256
  6
BYLAYER
 49
-0.5
 62
   256
  6
BYLAYER
  0
ACDBPLACEHOLDER
  5
F
102
{ACAD_REACTORS
330
E
102
}
330
E
  0
VISUALSTYLE
  5
2F
102
{ACAD_REACTORS
330
2A
102
}
330
2A
100
AcDbVisualStyle
  2
2dWireframe
 70
     4
177
     2
291
     0
 71
     0
176
     1
 72
     2
176
     1
 73
     0
176
     1
 90
        0
176
     1
 40
-0.6
176
     1
 41
-30.0
176
     1
 62
     5
 63
     7
421
 16777215
176
     1
 74
     1
176
     1
 91
        4
176
     1
 64
     7
176
     1
 65
   257
176
     1
 75
     1
176
     1
175
     1
176
     1
 42
1.0
176
     1
 92
        0
176
     1
 66
   257
176
     1
 43
1.0
176
     1
 76
     1
176
     1
 77
     6
176
     1
 78
     2
176
     1
 67
     7
176
     1
 79
     5
176
     1
170
     0
176
     1
171
     0
176
     1
290
     0
176
     1
 93
        1
176
     1
 44
0.0
176
     1
173
     0
176
     1
  0
VISUALSTYLE
  5
31
102
{ACAD_REACTORS
330
2A
102
}
330
2A
100
AcDbVisualStyle
  2
3D Hidden
 70
     6
177
     2
291
     0
 71
     1
176
     1
 72
     2
176
     1
 73
     2
176
     1
 90
        0
176
     1
 40
-0.6
176
     1
 41
-30.0
176
     1
 62
     5
 63
     7
421
 16777215
176
     1
 74
     2
176
     1
 91
        2
176
     1
 64
     7
176
     1
 65
   257
176
     1
 75
     2
176
     1
175
     1
176
     1
 42
40.0
176
     1
 92
        0
176
     1
 66
   257
176
     1
 43
1.0
176
     1
 76
     1
176
     1
 77
     6
176
     1
 78
     2
176
     1
 67
     7
176
     1
 79
     3
176
     1
170
     0
176
     1
171
     0
176
     1
290
     0
176
     1
 93
        1
176
     1
 44
0.0
176
     1
173
     0
176
     1
  0
VISUALSTYLE
  5
30
102
{ACAD_REACTORS
330
2A
102
}
330
2A
100
AcDbVisualStyle
  2
3dWireframe
 70
     5
177
     2
291
     0
 71
     0
176
     1
 72
     2
176
     1
 73
     0
176
     1
 90
        0
176
     1
 40
-0.6
176
     1
 41
-30.0
176
     1
 62
     5
 63
     7
421
 16777215
176
     1
 74
     1
176
     1
 91
        4
176
     1
 64
     7
176
     1
 65
   257
176
     1
 75
     1
176
     1
175
     1
176
     1
 42
1.0
176
     1
 92
        0
176
     1
 66
   257
176
     1
 43
1.0
176
     1
 76
     1
176
     1
 77
     6
176
     1
 78
     2
176
     1
 67
     7
176
     1
 79
     5
176
     1
170
     0
176
     1
171
     0
176
     1
290
     0
176
     1
 93
        1
176
     1
 44
0.0
176
     1
173
     0
176
     1
  0
VISUALSTYLE
  5
32
102
{ACAD_REACTORS
330
2A
102
}
330
2A
100
AcDbVisualStyle
  2
Basic
 70
     7
177
     2
291
     1
 71
     1
176
     1
 72
     0
176
     1
 73
     1
176
     1
 90
        0
176
     1
 40
-0.6
176
     1
 41
-30.0
176
     1
 62
     5
 63
     7
421
 16777215
176
     1
 74
     0
176
     1
 91
        4
176
     1
 64
     7
176
     1
 65
   257
176
     1
 75
     1
176
     1
175
     1
176
     1
 42
1.0
176
     1
 92
        8
176
     1
 66
     7
176
     1
 43
1.0
176
     1
 76
     1
176
     1
 77
     6
176
     1
 78
     2
176
     1
 67
     7
176
     1
 79
     5
176
     1
170
     0
176
     1
171
     0
176
     1
290
     0
176
     1
 93
        1
176
     1
 44
0.0
176
     1
173
     0
176
     1
  0
VISUALSTYLE
  5
36
102
{ACAD_REACTORS
330
2A
102
}
330
2A
100
AcDbVisualStyle
  2
Brighten
 70
    12
177
     2
291
     1
 71
     2
176
     1
 72
     2
176
     1
 73
     0
176
     1
 90
        0
176
     1
 40
-0.6
176
     1
 41
-30.0
176
     1
 62
     5
 63
     7
421
 16777215
176
     1
 74
     1
176
     1
 91
        4
176
     1
 64
     7
176
     1
 65
   257
176
     1
 75
     1
176
     1
175
     1
176
     1
 42
1.0
176
     1
 92
        8
176
     1
 66
     7
176
     1
 43
1.0
176
     1
 76
     1
176
     1
 77
     6
176
     1
 78
     2
176
     1
 67
     7
176
     1
 79
     5
176
     1
170
     0
176
     1
171
     0
176
     1
290
     0
176
     1
 93
        1
176
     1
 44
50.0
176
     1
173
     0
176
     1
  0
VISUALSTYLE
  5
3A
102
{ACAD_REACTORS
330
2A
102
}
330
2A
100
AcDbVisualStyle
  2
ColorChange
 70
    16
177
     2
291
     1
 71
     2
176
     1
 72
     2
176
     1
 73
     3
176
     1
 90
        0
176
     1
 40
-0.6
176
     1
 41
-30.0
176
     1
 62
     5
 63
     8
421
  8421504
176
     1
 74
     1
176
     1
 91
        4
176
     1
 64
     7
176
     1
 65
   257
176
     1
 75
     1
176
     1
175
     1
176
     1
 42
1.0
176
     1
 92
        8
176
     1
 66
     8
424
  8421504
176
     1
 43
1.0
176
     1
 76
     1
176
     1
 77
     6
176
     1
 78
     2
176
     1
 67
     7
176
     1
 79
     5
176
     1
170
     0
176
     1
171
     0
176
     1
290
     0
176
     1
 93
        1
176
     1
 44
0.0
176
     1
173
     0
176
     1
  0
VISUALSTYLE
  5
34
102
{ACAD_REACTORS
330
2A
102
}
330
2A
100
AcDbVisualStyle
  2
Conceptual
 70
     9
177
     2
291
     0
 71
     3
176
     1
 72
     2
176
     1
 73
     0
176
     1
 90
        0
176
     1
 40
-0.6
176
     1
 41
-30.0
176
     1
 62
     5
 63
     7
421
 16777215
176
     1
 74
     2
176
     1
 91
        2
176
     1
 64
     7
176
     1
 65
   257
176
     1
 75
     1
176
     1
175
     1
176
     1
 42
40.0
176
     1
 92
        8
176
     1
 66
     7
176
     1
 43
1.0
176
     1
 76
     1
176
     1
 77
     6
176
     1
 78
     2
176
     1
 67
     7
176
     1
 79
     3
176
     1
170
     0
176
     1
171
     0
176
     1
290
     0
176
     1
 93
        1
176
     1
 44
0.0
176
     1
173
     0
176
     1
  0
VISUALSTYLE
  5
35
102
{ACAD_REACTORS
330
2A
102
}
330
2A
100
AcDbVisualStyle
  2
Dim
 70
    11
177
     2
291
     1
 71
     2
176
     1
 72
     2
176
     1
 73
     0
176
     1
 90
        0
176
     1
 40
-0.6
176
     1
 41
-30.0
176
     1
 62
     5
 63
     7
421
 16777215
176
     1
 74
     1
176
     1
 91
        4
176
     1
 64
     7
176
     1
 65
   257
176
     1
 75
     1
176
     1
175
     1
176
     1
 42
1.0
176
     1
 92
        8
176
     1
 66
     7
176
     1
 43
1.0
176
     1
 76
     1
176
     1
 77
     6
176
     1
 78
     2
176
     1
 67
     7
176
     1
 79
     5
176
     1
170
     0
176
     1
171
     0
176
     1
290
     0
176
     1
 93
        1
176
     1
 44
-50.0
176
     1
173
     0
176
     1
  0
VISUALSTYLE
  5
39
102
{ACAD_REACTORS
330
2A
102
}
330
2A
100
AcDbVisualStyle
  2
Facepattern
 70
    15
177
     2
291
     1
 71
     2
176
     1
 72
     2
176
     1
 73
     0
176
     1
 90
        0
176
     1
 40
-0.6
176
     1
 41
-30.0
176
     1
 62
     5
 63
     7
421
 16777215
176
     1
 74
     1
176
     1
 91
        4
176
     1
 64
     7
176
     1
 65
   257
176
     1
 75
     1
176
     1
175
     1
176
     1
 42
1.0
176
     1
 92
        8
176
     1
 66
     7
176
     1
 43
1.0
176
     1
 76
     1
176
     1
 77
     6
176
     1
 78
     2
176
     1
 67
     7
176
     1
 79
     5
176
     1
170
     0
176
     1
171
     0
176
     1
290
     0
176
     1
 93
        1
176
     1
 44
0.0
176
     1
173
     0
176
     1
  0
VISUALSTYLE
  5
2B
102
{ACAD_REACTORS
330
2A
102
}
330
2A
100
AcDbVisualStyle
  2
Flat
 70
     0
177
     2
291
     1
 71
     2
176
     1
 72
     1
176
     1
 73
     1
176
     1
 90
        2
176
     1
 40
-0.6
176
     1
 41
30.0
176
     1
 62
     5
 63
     7
421
 16777215
176
     1
 74
     0
176
     1
 91
        4
176
     1
 64
     7
176
     1
 65
   257
176
     1
 75
     1
176
     1
175
     1
176
     1
 42
1.0
176
     1
 92
        8
176
     1
 66
     7
176
     1
 43
1.0
176
     1
 76
     1
176
     1
 77
     6
176
     1
 78
     2
176
     1
 67
     7
176
     1
 79
     5
176
     1
170
     0
176
     1
171
     0
176
     1
290
     0
176
     1
 93
       13
176
     1
 44
0.0
176
     1
173
     0
176
     1
  0
VISUALSTYLE
  5
2C
102
{ACAD_REACTORS
330
2A
102
}
330
2A
100
AcDbVisualStyle
  2
FlatWithEdges
 70
     1
177
     2
291
     1
 71
     2
176
     1
 72
     1
176
     1
 73
     1
176
     1
 90
        2
176
     1
 40
-0.6
176
     1
 41
30.0
176
     1
 62
     5
 63
     7
421
 16777215
176
     1
 74
     1
176
     1
 91
        4
176
     1
 64
     7
176
     1
 65
   257
176
     1
 75
     1
176
     1
175
     1
176
     1
 42
1.0
176
     1
 92
        0
176
     1
 66
   257
176
     1
 43
1.0
176
     1
 76
     1
176
     1
 77
     6
176
     1
 78
     2
176
     1
 67
     7
176
     1
 79
     5
176
     1
170
     0
176
     1
171
     0
176
     1
290
     0
176
     1
 93
       13
176
     1
 44
0.0
176
     1
173
     0
176
     1
  0
VISUALSTYLE
  5
2D
102
{ACAD_REACTORS
330
2A
102
}
330
2A
100
AcDbVisualStyle
  2
Gouraud
 70
     2
177
     2
291
     1
 71
     2
176
     1
 72
     2
176
     1
 73
     1
176
     1
 90
        2
176
     1
 40
-0.6
176
     1
 41
30.0
176
     1
 62
     5
 63
     7
421
 16777215
176
     1
 74
     0
176
     1
 91
        4
176
     1
 64
     7
176
     1
 65
   257
176
     1
 75
     1
176
     1
175
     1
176
     1
 42
1.0
176
     1
 92
        0
176
     1
 66
     7
176
     1
 43
1.0
176
     1
 76
     1
176
     1
 77
     6
176
     1
 78
     2
176
     1
 67
     7
176
     1
 79
     5
176
     1
170
     0
176
     1
171
     0
176
     1
290
     0
176
     1
 93
       13
176
     1
 44
0.0
176
     1
173
     0
176
     1
  0
VISUALSTYLE
  5
2E
102
{ACAD_REACTORS
330
2A
102
}
330
2A
100
AcDbVisualStyle
  2
GouraudWithEdges
 70
     3
177
     2
291
     1
 71
     2
176
     1
 72
     2
176
     1
 73
     1
176
     1
 90
        2
176
     1
 40
-0.6
176
     1
 41
30.0
176
     1
 62
     5
 63
     7
421
 16777215
176
     1
 74
     1
176
     1
 91
        4
176
     1
 64
     7
176
     1
 65
   257
176
     1
 75
     1
176
     1
175
     1
176
     1
 42
1.0
176
     1
 92
        0
176
     1
 66
   257
176
     1
 43
1.0
176
     1
 76
     1
176
     1
 77
     6
176
     1
 78
     2
176
     1
 67
     7
176
     1
 79
     5
176
     1
170
     0
176
     1
171
     0
176
     1
290
     0
176
     1
 93
       13
176
     1
 44
0.0
176
     1
173
     0
176
     1
  0
VISUALSTYLE
  5
38
102
{ACAD_REACTORS
330
2A
102
}
330
2A
100
AcDbVisualStyle
  2
Linepattern
 70
    14
177
     2
291
     1
 71
     2
176
     1
 72
     2
176
     1
 73
     0
176
     1
 90
        0
176
     1
 40
-0.6
176
     1
 41
-30.0
176
     1
 62
     5
 63
     7
421
 16777215
176
     1
 74
     1
176
     1
 91
        4
176
     1
 64
     7
176
     1
 65
   257
176
     1
 75
     7
176
     1
175
     7
176
     1
 42
1.0
176
     1
 92
        8
176
     1
 66
     7
176
     1
 43
1.0
176
     1
 76
     1
176
     1
 77
     6
176
     1
 78
     2
176
     1
 67
     7
176
     1
 79
     5
176
     1
170
     0
176
     1
171
     0
176
     1
290
     0
176
     1
 93
        1
176
     1
 44
0.0
176
     1
173
     0
176
     1
  0
VISUALSTYLE
  5
33
102
{ACAD_REACTORS
330
2A
102
}
330
2A
100
AcDbVisualStyle
  2
Realistic
 70
     8
177
     2
291
     0
 71
     2
176
     1
 72
     2
176
     1
 73
     0
176
     1
 90
        0
176
     1
 40
-0.6
176
     1
 41
-30.0
176
     1
 62
     5
 63
     7
421
 16777215
176
     1
 74
     1
176
     1
 91
        0
176
     1
 64
     7
176
     1
 65
   257
176
     1
 75
     1
176
     1
175
     1
176
     1
 42
1.0
176
     1
 92
        8
176
     1
 66
     8
424
  7895160
176
     1
 43
1.0
176
     1
 76
     1
176
     1
 77
     6
176
     1
 78
     2
176
     1
 67
     7
176
     1
 79
     5
176
     1
170
     0
176
     1
171
     0
176
     1
290
     0
176
     1
 93
       13
176
     1
 44
0.0
176
     1
173
     0
176
     1
  0
VISUALSTYLE
  5
37
102
{ACAD_REACTORS
330
2A
102
}
330
2A
100
AcDbVisualStyle
  2
Thicken
 70
    13
177
     2
291
     1
 71
     2
176
     1
 72
     2
176
     1
 73
     0
176
     1
 90
        0
176
     1
 40
-0.6
176
     1
 41
-30.0
176
     1
 62
     5
 63
     7
421
 16777215
176
     1
 74
     1
176
     1
 91
        4
176
     1
 64
     7
176
     1
 65
   257
176
     1
 75
     1
176
     1
175
     1
176
     1
 42
1.0
176
     1
 92
       12
176
     1
 66
     7
176
     1
 43
1.0
176
     1
 76
     1
176
     1
 77
     6
176
     1
 78
     2
176
     1
 67
     7
176
     1
 79
     5
176
     1
170
     0
176
     1
171
     0
176
     1
290
     0
176
     1
 93
        1
176
     1
 44
0.0
176
     1
173
     0
176
     1
  0
ENDSEC
  0
EOF
