  0
SECTION
  2
HEADER
  9
$ACADVER
  1
AC1024
  9
$ACADMAINTVER
 70
     6
  9
$DWGCODEPAGE
  3
ANSI_932
  9
$INSBASE
 10
0.0
 20
0.0
 30
0.0
  9
$EXTMIN
 10
-8910.0
 20
-6300.0
 30
0.0
  9
$EXTMAX
 10
8910.0
 20
6300.0
 30
0.0
  9
$LIMMIN
 10
-8910.0
 20
-6300.0
  9
$LIMMAX
 10
8910.0
 20
6300.0
  9
$ORTHOMODE
 70
     0
  9
$REGENMODE
 70
     1
  9
$FILLMODE
 70
     1
  9
$QTEXTMODE
 70
     0
  9
$MIRRTEXT
 70
     1
  9
$LTSCALE
 40
30.0
  9
$ATTMODE
 70
     1
  9
$TEXTSIZE
 40
2.5
  9
$TRACEWID
 40
1.0
  9
$TEXTSTYLE
  7
Standard
  9
$CLAYER
  8
0
  9
$CELTYPE
  6
ByLayer
  9
$CECOLOR
 62
   256
  9
$CELTSCALE
 40
1.0
  9
$DISPSILH
 70
     0
  9
$DIMSCALE
 40
1.0
  9
$DIMASZ
 40
2.5
  9
$DIMEXO
 40
0.625
  9
$DIMDLI
 40
3.75
  9
$DIMRND
 40
0.0
  9
$DIMDLE
 40
0.0
  9
$DIMEXE
 40
1.25
  9
$DIMTP
 40
0.0
  9
$DIMTM
 40
0.0
  9
$DIMTXT
 40
2.5
  9
$DIMCEN
 40
2.5
  9
$DIMTSZ
 40
0.0
  9
$DIMTOL
 70
     0
  9
$DIMLIM
 70
     0
  9
$DIMTIH
 70
     0
  9
$DIMTOH
 70
     0
  9
$DIMSE1
 70
     0
  9
$DIMSE2
 70
     0
  9
$DIMTAD
 70
     1
  9
$DIMZIN
 70
     8
  9
$DIMBLK
  1

  9
$DIMASO
 70
     1
  9
$DIMSHO
 70
     1
  9
$DIMPOST
  1

  9
$DIMAPOST
  1

  9
$DIMALT
 70
     0
  9
$DIMALTD
 70
     3
  9
$DIMALTF
 40
0.03937007874016
  9
$DIMLFAC
 40
1.0
  9
$DIMTOFL
 70
     1
  9
$DIMTVP
 40
0.0
  9
$DIMTIX
 70
     0
  9
$DIMSOXD
 70
     0
  9
$DIMSAH
 70
     0
  9
$DIMBLK1
  1

  9
$DIMBLK2
  1

  9
$DIMSTYLE
  2
ISO-25
  9
$DIMCLRD
 70
     0
  9
$DIMCLRE
 70
     0
  9
$DIMCLRT
 70
     0
  9
$DIMTFAC
 40
1.0
  9
$DIMGAP
 40
0.625
  9
$DIMJUST
 70
     0
  9
$DIMSD1
 70
     0
  9
$DIMSD2
 70
     0
  9
$DIMTOLJ
 70
     0
  9
$DIMTZIN
 70
     8
  9
$DIMALTZ
 70
     0
  9
$DIMALTTZ
 70
     0
  9
$DIMUPT
 70
     0
  9
$DIMDEC
 70
     2
  9
$DIMTDEC
 70
     2
  9
$DIMALTU
 70
     2
  9
$DIMALTTD
 70
     3
  9
$DIMTXSTY
  7
Standard
  9
$DIMAUNIT
 70
     0
  9
$DIMADEC
 70
     0
  9
$DIMALTRND
 40
0.0
  9
$DIMAZIN
 70
     0
  9
$DIMDSEP
 70
    44
  9
$DIMATFIT
 70
     3
  9
$DIMFRAC
 70
     0
  9
$DIMLDRBLK
  1

  9
$DIMLUNIT
 70
     2
  9
$DIMLWD
 70
    -2
  9
$DIMLWE
 70
    -2
  9
$DIMTMOVE
 70
     0
  9
$DIMFXL
 40
1.0
  9
$DIMFXLON
 70
     0
  9
$DIMJOGANG
 40
0.7853981633974483
  9
$DIMTFILL
 70
     0
  9
$DIMTFILLCLR
 70
     0
  9
$DIMARCSYM
 70
     0
  9
$DIMLTYPE
  6

  9
$DIMLTEX1
  6

  9
$DIMLTEX2
  6

  9
$DIMTXTDIRECTION
 70
     0
  9
$LUNITS
 70
     2
  9
$LUPREC
 70
     4
  9
$SKETCHINC
 40
1.0
  9
$FILLETRAD
 40
10.0
  9
$AUNITS
 70
     0
  9
$AUPREC
 70
     0
  9
$MENU
  1
.
  9
$ELEVATION
 40
0.0
  9
$PELEVATION
 40
0.0
  9
$THICKNESS
 40
0.0
  9
$LIMCHECK
 70
     0
  9
$CHAMFERA
 40
10.0
  9
$CHAMFERB
 40
10.0
  9
$CHAMFERC
 40
20.0
  9
$CHAMFERD
 40
0.0
  9
$SKPOLY
 70
     0
  9
$TDCREATE
 40
2459720.730809907
  9
$TDUCREATE
 40
2459720.355809907
  9
$TDUPDATE
 40
2459720.730809919
  9
$TDUUPDATE
 40
2459720.355809919
  9
$TDINDWG
 40
0.0000000116
  9
$TDUSRTIMER
 40
0.0000000116
  9
$USRTIMER
 70
     1
  9
$ANGBASE
 50
0.0
  9
$ANGDIR
 70
     0
  9
$PDMODE
 70
     0
  9
$PDSIZE
 40
0.0
  9
$PLINEWID
 40
0.0
  9
$SPLFRAME
 70
     0
  9
$SPLINETYPE
 70
     6
  9
$SPLINESEGS
 70
     8
  9
$HANDSEED
  5
5E7
  9
$SURFTAB1
 70
     6
  9
$SURFTAB2
 70
     6
  9
$SURFTYPE
 70
     6
  9
$SURFU
 70
     6
  9
$SURFV
 70
     6
  9
$UCSBASE
  2

  9
$UCSNAME
  2

  9
$UCSORG
 10
0.0
 20
0.0
 30
0.0
  9
$UCSXDIR
 10
1.0
 20
0.0
 30
0.0
  9
$UCSYDIR
 10
0.0
 20
1.0
 30
0.0
  9
$UCSORTHOREF
  2

  9
$UCSORTHOVIEW
 70
     0
  9
$UCSORGTOP
 10
0.0
 20
0.0
 30
0.0
  9
$UCSORGBOTTOM
 10
0.0
 20
0.0
 30
0.0
  9
$UCSORGLEFT
 10
0.0
 20
0.0
 30
0.0
  9
$UCSORGRIGHT
 10
0.0
 20
0.0
 30
0.0
  9
$UCSORGFRONT
 10
0.0
 20
0.0
 30
0.0
  9
$UCSORGBACK
 10
0.0
 20
0.0
 30
0.0
  9
$PUCSBASE
  2

  9
$PUCSNAME
  2

  9
$PUCSORG
 10
0.0
 20
0.0
 30
0.0
  9
$PUCSXDIR
 10
1.0
 20
0.0
 30
0.0
  9
$PUCSYDIR
 10
0.0
 20
1.0
 30
0.0
  9
$PUCSORTHOREF
  2

  9
$PUCSORTHOVIEW
 70
     0
  9
$PUCSORGTOP
 10
0.0
 20
0.0
 30
0.0
  9
$PUCSORGBOTTOM
 10
0.0
 20
0.0
 30
0.0
  9
$PUCSORGLEFT
 10
0.0
 20
0.0
 30
0.0
  9
$PUCSORGRIGHT
 10
0.0
 20
0.0
 30
0.0
  9
$PUCSORGFRONT
 10
0.0
 20
0.0
 30
0.0
  9
$PUCSORGBACK
 10
0.0
 20
0.0
 30
0.0
  9
$USERI1
 70
     0
  9
$USERI2
 70
     0
  9
$USERI3
 70
     0
  9
$USERI4
 70
     0
  9
$USERI5
 70
     0
  9
$USERR1
 40
0.0
  9
$USERR2
 40
0.0
  9
$USERR3
 40
0.0
  9
$USERR4
 40
0.0
  9
$USERR5
 40
0.0
  9
$WORLDVIEW
 70
     1
  9
$SHADEDGE
 70
     3
  9
$SHADEDIF
 70
    70
  9
$TILEMODE
 70
     1
  9
$MAXACTVP
 70
    64
  9
$PINSBASE
 10
0.0
 20
0.0
 30
0.0
  9
$PLIMCHECK
 70
     0
  9
$PEXTMIN
 10
1.000000000000000E+20
 20
1.000000000000000E+20
 30
1.000000000000000E+20
  9
$PEXTMAX
 10
-1.000000000000000E+20
 20
-1.000000000000000E+20
 30
-1.000000000000000E+20
  9
$PLIMMIN
 10
0.0
 20
0.0
  9
$PLIMMAX
 10
420.0
 20
297.0
  9
$UNITMODE
 70
     0
  9
$VISRETAIN
 70
     1
  9
$PLINEGEN
 70
     0
  9
$PSLTSCALE
 70
     1
  9
$TREEDEPTH
 70
  3020
  9
$CMLSTYLE
  2
Standard
  9
$CMLJUST
 70
     0
  9
$CMLSCALE
 40
20.0
  9
$PROXYGRAPHICS
 70
     1
  9
$MEASUREMENT
 70
     1
  9
$CELWEIGHT
370
    -1
  9
$ENDCAPS
280
     0
  9
$JOINSTYLE
280
     0
  9
$LWDISPLAY
290
     0
  9
$INSUNITS
 70
     4
  9
$HYPERLINKBASE
  1

  9
$STYLESHEET
  1

  9
$XEDIT
290
     1
  9
$CEPSNTYPE
380
     0
  9
$PSTYLEMODE
290
     1
  9
$FINGERPRINTGUID
  2
{8A8E07EF-A6B1-46A2-B1E7-222B8ADFEB24}
  9
$VERSIONGUID
  2
{FAEB1C32-E019-11D5-929B-00C0DF256EC4}
  9
$EXTNAMES
290
     1
  9
$PSVPSCALE
 40
0.0
  9
$OLESTARTUP
290
     0
  9
$SORTENTS
280
   127
  9
$INDEXCTL
280
     0
  9
$HIDETEXT
280
     1
  9
$XCLIPFRAME
280
     2
  9
$HALOGAP
280
     0
  9
$OBSCOLOR
 70
   257
  9
$OBSLTYPE
280
     0
  9
$INTERSECTIONDISPLAY
280
     0
  9
$INTERSECTIONCOLOR
 70
   257
  9
$DIMASSOC
280
     2
  9
$PROJECTNAME
  1

  9
$CAMERADISPLAY
290
     0
  9
$LENSLENGTH
 40
50.0
  9
$CAMERAHEIGHT
 40
0.0
  9
$STEPSPERSEC
 40
2.0
  9
$STEPSIZE
 40
6.0
  9
$3DDWFPREC
 40
2.0
  9
$PSOLWIDTH
 40
5.0
  9
$PSOLHEIGHT
 40
80.0
  9
$LOFTANG1
 40
1.570796326794897
  9
$LOFTANG2
 40
1.570796326794897
  9
$LOFTMAG1
 40
0.0
  9
$LOFTMAG2
 40
0.0
  9
$LOFTPARAM
 70
     7
  9
$LOFTNORMALS
280
     1
  9
$LATITUDE
 40
37.795
  9
$LONGITUDE
 40
-122.394
  9
$NORTHDIRECTION
 40
0.0
  9
$TIMEZONE
 70
 -8000
  9
$LIGHTGLYPHDISPLAY
280
     1
  9
$TILEMODELIGHTSYNCH
280
     1
  9
$SOLIDHIST
280
     1
  9
$SHOWHIST
280
     1
  9
$DWFFRAME
280
     2
  9
$DGNFRAME
280
     2
  9
$REALWORLDSCALE
290
     1
  9
$INTERFERECOLOR
 62
   256
  9
$CSHADOW
280
     0
  9
$SHADOWPLANELOCATION
 40
0.0
  0
ENDSEC
  0
SECTION
  2
CLASSES
  0
CLASS
  1
ACDBDICTIONARYWDFLT
  2
AcDbDictionaryWithDefault
  3
ObjectDBX Classes
 90
        0
 91
        4
280
     0
281
     0
  0
CLASS
  1
VISUALSTYLE
  2
AcDbVisualStyle
  3
ObjectDBX Classes
 90
     4095
 91
        4
280
     0
281
     0
  0
CLASS
  1
MATERIAL
  2
AcDbMaterial
  3
ObjectDBX Classes
 90
     1153
 91
        4
280
     0
281
     0
  0
ENDSEC
  0
SECTION
  2
TABLES
  0
TABLE
  2
VPORT
  5
8
330
0
100
AcDbSymbolTable
 70
     1
  0
VPORT
  5
29
330
8
100
AcDbSymbolTableRecord
100
AcDbViewportTableRecord
  2
*Active
 70
     0
 10
0.0
 20
0.0
 11
1.0
 21
1.0
 12
0.0
 22
0.0
 13
0.0
 23
0.0
 14
10.0
 24
10.0
 15
10.0
 25
10.0
 16
0.0
 26
0.0
 36
1.0
 17
0.0
 27
0.0
 37
0.0
 40
13860.0
 41
1.414285714285714
 42
50.0
 43
0.0
 44
0.0
 50
0.0
 51
0.0
 71
     0
 72
 10000
 73
     1
 74
     3
 75
     0
 76
     0
 77
     0
 78
     0
281
     0
 65
     1
110
0.0
120
0.0
130
0.0
111
1.0
121
0.0
131
0.0
112
0.0
122
1.0
132
0.0
 79
     0
146
0.0
 60
     3
 61
     5
292
     1
282
     1
141
0.0
142
0.0
 63
   250
  0
ENDTAB
  0
TABLE
  2
LTYPE
  5
5
330
0
100
AcDbSymbolTable
 70
     5
  0
LTYPE
  5
14
330
5
100
AcDbSymbolTableRecord
100
AcDbLinetypeTableRecord
  2
ByBlock
 70
     0
  3

 72
    65
 73
     0
 40
0.0
  0
LTYPE
  5
15
330
5
100
AcDbSymbolTableRecord
100
AcDbLinetypeTableRecord
  2
ByLayer
 70
     0
  3

 72
    65
 73
     0
 40
0.0
  0
LTYPE
  5
16
330
5
100
AcDbSymbolTableRecord
100
AcDbLinetypeTableRecord
  2
Continuous
 70
     0
  3
Solid line
 72
    65
 73
     0
 40
0.0
  0
LTYPE
  5
3F
330
5
100
AcDbSymbolTableRecord
100
AcDbLinetypeTableRecord
  2
JWW_HOJO
 70
     0
  3
  -   -   -   -   -   -   -   - 
 72
    65
 73
     2
 40
1.693333333333333
 49
-1.27
 74
     0
 49
0.4233333333333333
 74
     0
  0
LTYPE
  5
40
330
5
100
AcDbSymbolTableRecord
100
AcDbLinetypeTableRecord
  2
JWW_DASHED2
 70
     0
  3
--    ----    ----    ----    --
 72
    65
 73
     2
 40
3.386666666666667
 49
1.693333333333333
 74
     0
 49
-1.693333333333333
 74
     0
  0
LTYPE
  5
41
330
5
100
AcDbSymbolTableRecord
100
AcDbLinetypeTableRecord
  2
JWW_DASHED1
 70
     0
  3
-  --  --  --  --  --  --  --  -
 72
    65
 73
     2
 40
1.693333333333333
 49
0.8466666666666667
 74
     0
 49
-0.8466666666666667
 74
     0
  0
LTYPE
  5
42
330
5
100
AcDbSymbolTableRecord
100
AcDbLinetypeTableRecord
  2
JWW_CENTER1
 70
     0
  3
-----  --  ----------  --  -----
 72
    65
 73
     4
 40
6.773333333333333
 49
4.233333333333333
 74
     0
 49
-0.8466666666666667
 74
     0
 49
0.8466666666666667
 74
     0
 49
-0.8466666666666667
 74
     0
  0
ENDTAB
  0
TABLE
  2
LAYER
  5
2
330
0
100
AcDbSymbolTable
 70
    18
  0
LAYER
  5
10
330
2
100
AcDbSymbolTableRecord
100
AcDbLayerTableRecord
  2
0
 70
     0
 62
     7
  6
Continuous
370
    -3
390
F
347
3E
  0
LAYER
  5
43
330
2
100
AcDbSymbolTableRecord
100
AcDbLayerTableRecord
  2
0-3_仕上げ
 70
     0
 62
     7
  6
Continuous
370
    -3
390
F
347
3E
  0
LAYER
  5
44
330
2
100
AcDbSymbolTableRecord
100
AcDbLayerTableRecord
  2
0-4_枠
 70
     0
 62
     7
  6
Continuous
370
    -3
390
F
347
3E
  0
LAYER
  5
45
330
2
100
AcDbSymbolTableRecord
100
AcDbLayerTableRecord
  2
F-0_補助線
 70
     0
 62
     7
  6
Continuous
370
    -3
390
F
347
3E
  0
LAYER
  5
46
330
2
100
AcDbSymbolTableRecord
100
AcDbLayerTableRecord
  2
F-1_枠
 70
     0
 62
     7
  6
Continuous
370
    -3
390
F
347
3E
  0
LAYER
  5
47
330
2
100
AcDbSymbolTableRecord
100
AcDbLayerTableRecord
  2
F-A_文字
 70
     0
 62
     7
  6
Continuous
370
    -3
390
F
347
3E
  0
LAYER
  5
48
330
2
100
AcDbSymbolTableRecord
100
AcDbLayerTableRecord
  2
0-6_扉
 70
     0
 62
     7
  6
Continuous
370
    -3
390
F
347
3E
  0
LAYER
  5
49
330
2
100
AcDbSymbolTableRecord
100
AcDbLayerTableRecord
  2
0-B_寸法
 70
     0
 62
     7
  6
Continuous
370
    -3
390
F
347
3E
  0
LAYER
  5
4A
330
2
100
AcDbSymbolTableRecord
100
AcDbLayerTableRecord
  2
0-A_文字
 70
     0
 62
     7
  6
Continuous
370
    -3
390
F
347
3E
  0
LAYER
  5
4B
330
2
100
AcDbSymbolTableRecord
100
AcDbLayerTableRecord
  2
0-0_補助線
 70
     0
 62
     7
  6
Continuous
370
    -3
390
F
347
3E
  0
LAYER
  5
4C
330
2
100
AcDbSymbolTableRecord
100
AcDbLayerTableRecord
  2
0-2_柱
 70
     0
 62
     7
  6
Continuous
370
    -3
390
F
347
3E
  0
LAYER
  5
4D
330
2
100
AcDbSymbolTableRecord
100
AcDbLayerTableRecord
  2
0-C_ハッチ
 70
     0
 62
     7
  6
Continuous
370
    -3
390
F
347
3E
  0
LAYER
  5
4E
330
2
100
AcDbSymbolTableRecord
100
AcDbLayerTableRecord
  2
0-7_金物
 70
     0
 62
     7
  6
Continuous
370
    -3
390
F
347
3E
  0
LAYER
  5
4F
330
2
100
AcDbSymbolTableRecord
100
AcDbLayerTableRecord
  2
0-1_通り芯
 70
     0
 62
     7
  6
Continuous
370
    -3
390
F
347
3E
  0
LAYER
  5
50
330
2
100
AcDbSymbolTableRecord
100
AcDbLayerTableRecord
  2
1-7_金物
 70
     0
 62
     7
  6
Continuous
370
    -3
390
F
347
3E
  0
LAYER
  5
51
330
2
100
AcDbSymbolTableRecord
100
AcDbLayerTableRecord
  2
1-0_補助線
 70
     0
 62
     7
  6
Continuous
370
    -3
390
F
347
3E
  0
LAYER
  5
52
330
2
100
AcDbSymbolTableRecord
100
AcDbLayerTableRecord
  2
1-4_枠
 70
     0
 62
     7
  6
Continuous
370
    -3
390
F
347
3E
  0
LAYER
  5
53
330
2
100
AcDbSymbolTableRecord
100
AcDbLayerTableRecord
  2
1-B_寸法
 70
     0
 62
     7
  6
Continuous
370
    -3
390
F
347
3E
  0
ENDTAB
  0
TABLE
  2
STYLE
  5
3
330
0
100
AcDbSymbolTable
 70
     1
  0
STYLE
  5
11
330
3
100
AcDbSymbolTableRecord
100
AcDbTextStyleTableRecord
  2
Standard
 70
     0
 40
0.0
 41
1.0
 50
0.0
 71
     0
 42
2.5
  3
txt
  4

  0
ENDTAB
  0
TABLE
  2
VIEW
  5
6
330
0
100
AcDbSymbolTable
 70
     0
  0
ENDTAB
  0
TABLE
  2
UCS
  5
7
330
0
100
AcDbSymbolTable
 70
     0
  0
ENDTAB
  0
TABLE
  2
APPID
  5
9
330
0
100
AcDbSymbolTable
 70
     1
  0
APPID
  5
12
330
9
100
AcDbSymbolTableRecord
100
AcDbRegAppTableRecord
  2
ACAD
 70
     0
  0
ENDTAB
  0
TABLE
  2
DIMSTYLE
  5
A
330
0
100
AcDbSymbolTable
 70
     1
100
AcDbDimStyleTable
  0
DIMSTYLE
105
27
330
A
100
AcDbSymbolTableRecord
100
AcDbDimStyleTableRecord
  2
ISO-25
 70
     0
 41
2.5
 42
0.625
 43
3.75
 44
1.25
 73
     0
 74
     0
 77
     1
 78
     8
140
2.5
141
2.5
143
0.03937007874016
147
0.625
171
     3
172
     1
178
     0
271
     2
272
     2
274
     3
278
    44
283
     0
284
     8
340
11
  0
ENDTAB
  0
TABLE
  2
BLOCK_RECORD
  5
1
330
0
100
AcDbSymbolTable
 70
     1
  0
BLOCK_RECORD
  5
1F
330
1
100
AcDbSymbolTableRecord
100
AcDbBlockTableRecord
  2
*Model_Space
340
22
 70
     0
280
     1
281
     0
  0
BLOCK_RECORD
  5
1B
330
1
100
AcDbSymbolTableRecord
100
AcDbBlockTableRecord
  2
*Paper_Space
340
1E
 70
     0
280
     1
281
     0
  0
BLOCK_RECORD
  5
23
330
1
100
AcDbSymbolTableRecord
100
AcDbBlockTableRecord
  2
*Paper_Space0
340
26
 70
     0
280
     1
281
     0
  0
ENDTAB
  0
ENDSEC
  0
SECTION
  2
BLOCKS
  0
BLOCK
  5
20
330
1F
100
AcDbEntity
  8
0
100
AcDbBlockBegin
  2
*Model_Space
 70
     0
 10
0.0
 20
0.0
 30
0.0
  3
*Model_Space
  1

  0
ENDBLK
  5
21
330
1F
100
AcDbEntity
  8
0
100
AcDbBlockEnd
  0
BLOCK
  5
1C
330
1B
100
AcDbEntity
 67
     1
  8
0
100
AcDbBlockBegin
  2
*Paper_Space
 70
     0
 10
0.0
 20
0.0
 30
0.0
  3
*Paper_Space
  1

  0
ENDBLK
  5
1D
330
1B
100
AcDbEntity
 67
     1
  8
0
100
AcDbBlockEnd
  0
BLOCK
  5
24
330
23
100
AcDbEntity
  8
0
100
AcDbBlockBegin
  2
*Paper_Space0
 70
     0
 10
0.0
 20
0.0
 30
0.0
  3
*Paper_Space0
  1

  0
ENDBLK
  5
25
330
23
100
AcDbEntity
  8
0
100
AcDbBlockEnd
  0
ENDSEC
  0
SECTION
  2
ENTITIES
  0
LINE
  5
54
330
1F
100
AcDbEntity
  8
0-3_仕上げ
  6
Continuous
 62
   120
370
     5
100
AcDbLine
 10
2548.918254163525
 20
-1658.532666351928
 30
0.0
 11
3169.918254163523
 21
-1658.532666351928
 31
0.0
  0
LINE
  5
55
330
1F
100
AcDbEntity
  8
0-4_枠
  6
Continuous
 62
    92
370
    13
100
AcDbLine
 10
1870.918254163524
 20
-1336.182299376079
 30
0.0
 11
1870.918254163524
 21
-1136.542767458532
 31
0.0
  0
LINE
  5
56
330
1F
100
AcDbEntity
  8
0-4_枠
  6
Continuous
 62
    92
370
    13
100
AcDbLine
 10
2548.918254163524
 20
-1336.182299376079
 30
0.0
 11
2548.918254163524
 21
-1136.542767458532
 31
0.0
  0
LINE
  5
57
330
1F
100
AcDbEntity
  8
F-0_補助線
  6
JWW_HOJO
 62
   120
370
     5
100
AcDbLine
 10
-6140.081333436773
 20
-4455.0
 30
0.0
 11
-6140.081333436773
 21
4424.999604096284
 31
0.0
  0
LINE
  5
58
330
1F
100
AcDbEntity
  8
F-0_補助線
  6
JWW_HOJO
 62
   120
370
     5
100
AcDbLine
 10
-6140.081333436773
 20
4424.999604096284
 30
0.0
 11
6159.917676803936
 21
4424.999604096284
 31
0.0
  0
LINE
  5
59
330
1F
100
AcDbEntity
  8
F-0_補助線
  6
JWW_HOJO
 62
   120
370
     5
100
AcDbLine
 10
6159.917676803936
 20
4424.999604096284
 30
0.0
 11
6159.917676803936
 21
-4455.0
 31
0.0
  0
LINE
  5
5A
330
1F
100
AcDbEntity
  8
F-0_補助線
  6
JWW_HOJO
 62
   120
370
     5
100
AcDbLine
 10
6159.917676803936
 20
-4455.0
 30
0.0
 11
-6140.081333436773
 21
-4455.0
 31
0.0
  0
LINE
  5
5B
330
1F
100
AcDbEntity
  8
F-0_補助線
  6
JWW_HOJO
 62
     7
370
     9
100
AcDbLine
 10
509.9185840832865
 20
-3795.000003092998
 30
0.0
 11
509.9185840832865
 21
-4195.000008247994
 31
0.0
  0
LINE
  5
5C
330
1F
100
AcDbEntity
  8
F-1_枠
  6
Continuous
 62
   200
370
    20
100
AcDbLine
 10
5859.917429364114
 20
4174.999769056166
 30
0.0
 11
5859.917429364114
 21
-4205.000164959882
 31
0.0
  0
LINE
  5
5D
330
1F
100
AcDbEntity
  8
F-1_枠
  6
Continuous
 62
   200
370
    20
100
AcDbLine
 10
-5840.081317971782
 20
4174.999769056166
 30
0.0
 11
-5840.081317971782
 21
-4205.000164959882
 31
0.0
  0
LINE
  5
5E
330
1F
100
AcDbEntity
  8
F-1_枠
  6
Continuous
 62
   200
370
    20
100
AcDbLine
 10
5859.917429364114
 20
-4205.000002577498
 30
0.0
 11
-5840.081085996952
 21
-4205.000002577498
 31
0.0
  0
LINE
  5
5F
330
1F
100
AcDbEntity
  8
F-1_枠
  6
Continuous
 62
   200
370
    20
100
AcDbLine
 10
-5830.081323642279
 20
4174.999769056166
 30
0.0
 11
-5830.081323642279
 21
-4205.000164959882
 31
0.0
  0
LINE
  5
60
330
1F
100
AcDbEntity
  8
F-1_枠
  6
Continuous
 62
   200
370
    20
100
AcDbLine
 10
-5835.081309208291
 20
4174.999769056166
 30
0.0
 11
-5835.081309208291
 21
-4205.000164959882
 31
0.0
  0
LINE
  5
61
330
1F
100
AcDbEntity
  8
F-1_枠
  6
Continuous
 62
   200
370
    20
100
AcDbLine
 10
5854.917165428304
 20
4174.999769056166
 30
0.0
 11
5854.917165428304
 21
-4205.000164959882
 31
0.0
  0
LINE
  5
62
330
1F
100
AcDbEntity
  8
F-1_枠
  6
Continuous
 62
   200
370
    20
100
AcDbLine
 10
5849.917643811961
 20
4174.999769056166
 30
0.0
 11
5849.917643811961
 21
-4205.000164959882
 31
0.0
  0
LINE
  5
63
330
1F
100
AcDbEntity
  8
F-1_枠
  6
Continuous
 62
   200
370
    20
100
AcDbLine
 10
5859.917429364114
 20
-4199.999993814004
 30
0.0
 11
-5840.081085996952
 21
-4199.999993814004
 31
0.0
  0
LINE
  5
64
330
1F
100
AcDbEntity
  8
F-1_枠
  6
Continuous
 62
   200
370
    20
100
AcDbLine
 10
5859.917429364114
 20
-4195.000008247994
 30
0.0
 11
-5840.081085996952
 21
-4195.000008247994
 31
0.0
  0
LINE
  5
65
330
1F
100
AcDbEntity
  8
F-1_枠
  6
Continuous
 62
   200
370
    20
100
AcDbLine
 10
4349.917891251784
 20
-3795.000003092998
 30
0.0
 11
4349.917891251784
 21
-4195.000008247994
 31
0.0
  0
LINE
  5
66
330
1F
100
AcDbEntity
  8
F-1_枠
  6
Continuous
 62
   200
370
    20
100
AcDbLine
 10
2849.917396372139
 20
-3795.000003092998
 30
0.0
 11
2849.917396372139
 21
-4195.000008247994
 31
0.0
  0
LINE
  5
67
330
1F
100
AcDbEntity
  8
F-1_枠
  6
Continuous
 62
   200
370
    20
100
AcDbLine
 10
9.918542843316231
 20
-3795.000003092998
 30
0.0
 11
9.918542843316231
 21
-4195.000008247994
 31
0.0
  0
LINE
  5
68
330
1F
100
AcDbEntity
  8
F-1_枠
  6
Continuous
 62
   200
370
    20
100
AcDbLine
 10
9.918542843316231
 20
-3994.999936078046
 30
0.0
 11
5849.917643811961
 21
-3995.005364289155
 31
0.0
  0
LINE
  5
69
330
1F
100
AcDbEntity
  8
F-1_枠
  6
Continuous
 62
   200
370
    20
100
AcDbLine
 10
-5840.081085996952
 20
4174.999769056166
 30
0.0
 11
5859.917429364114
 21
4174.999769056166
 31
0.0
  0
LINE
  5
6A
330
1F
100
AcDbEntity
  8
F-1_枠
  6
Continuous
 62
   200
370
    20
100
AcDbLine
 10
-5840.081085996952
 20
4164.999983504013
 30
0.0
 11
5859.917429364114
 21
4164.999983504013
 31
0.0
  0
LINE
  5
6B
330
1F
100
AcDbEntity
  8
F-1_枠
  6
Continuous
 62
   200
370
    20
100
AcDbLine
 10
-5840.081085996952
 20
4169.999505120355
 30
0.0
 11
5859.917429364114
 21
4169.999505120355
 31
0.0
  0
LINE
  5
6C
330
1F
100
AcDbEntity
  8
F-0_補助線
  6
JWW_HOJO
 62
     7
370
     9
100
AcDbLine
 10
-5830.081323642279
 20
-3994.99993607839
 30
0.0
 11
9.918542843316231
 21
-3994.99993607839
 31
0.0
  0
LINE
  5
6D
330
1F
100
AcDbEntity
  8
F-0_補助線
  6
JWW_HOJO
 62
     7
370
     9
100
AcDbLine
 10
-5830.081323642279
 20
-3904.99993607839
 30
0.0
 11
9.918542843316231
 21
-3904.99993607839
 31
0.0
  0
LINE
  5
6E
330
1F
100
AcDbEntity
  8
F-0_補助線
  6
JWW_HOJO
 62
     7
370
     9
100
AcDbLine
 10
-5830.081323642279
 20
-4084.99993607839
 30
0.0
 11
9.918542843316231
 21
-4084.99993607839
 31
0.0
  0
LINE
  5
6F
330
1F
100
AcDbEntity
  8
F-0_補助線
  6
JWW_HOJO
 62
     7
370
     9
100
AcDbLine
 10
9.918408067688347
 20
-4139.999739777983
 30
0.0
 11
5849.917509036332
 21
-4140.005167989091
 31
0.0
  0
LINE
  5
70
330
1F
100
AcDbEntity
  8
F-0_補助線
  6
JWW_HOJO
 62
     7
370
     9
100
AcDbLine
 10
9.918491721639953
 20
-4049.999739778022
 30
0.0
 11
5849.917592690284
 21
-4050.005167989131
 31
0.0
  0
LINE
  5
71
330
1F
100
AcDbEntity
  8
F-0_補助線
  6
JWW_HOJO
 62
     7
370
     9
100
AcDbLine
 10
9.918593965360003
 20
-3939.99973721807
 30
0.0
 11
5849.917694934004
 21
-3940.005165429179
 31
0.0
  0
LINE
  5
72
330
1F
100
AcDbEntity
  8
F-0_補助線
  6
JWW_HOJO
 62
     7
370
     9
100
AcDbLine
 10
9.918677619311609
 20
-3849.999737218109
 30
0.0
 11
5849.917778587956
 21
-3850.005165429218
 31
0.0
  0
LINE
  5
73
330
1F
100
AcDbEntity
  8
F-0_補助線
  6
JWW_HOJO
 62
     7
370
     9
100
AcDbLine
 10
2939.917396372139
 20
-3795.000003092998
 30
0.0
 11
2939.917396372139
 21
-4195.000008247994
 31
0.0
  0
LINE
  5
74
330
1F
100
AcDbEntity
  8
F-0_補助線
  6
JWW_HOJO
 62
     7
370
     9
100
AcDbLine
 10
99.91854284331623
 20
-3795.000003092998
 30
0.0
 11
99.91854284331623
 21
-4195.000008247994
 31
0.0
  0
LINE
  5
75
330
1F
100
AcDbEntity
  8
F-0_補助線
  6
JWW_HOJO
 62
     7
370
     9
100
AcDbLine
 10
4439.917891251784
 20
-3795.000003092998
 30
0.0
 11
4439.917891251784
 21
-4195.000008247994
 31
0.0
  0
MTEXT
  5
76
330
1F
100
AcDbEntity
  8
F-A_文字
  6
Continuous
 62
     7
370
     0
100
AcDbMText
 10
99.91854284331623
 20
-3887.139820871936
 30
0.0
 40
45.72
 41
180.0
 46
0.0
 71
     7
 72
     1
  1
{\fＭＳ ゴシック|b0|i0|c128|p49;図面名}
 73
     1
 44
1.0
  0
MTEXT
  5
77
330
1F
100
AcDbEntity
  8
F-A_文字
  6
Continuous
 62
     7
370
     0
100
AcDbMText
 10
2939.917396372139
 20
-3887.142460617774
 30
0.0
 40
45.72
 41
300.0
 46
0.0
 71
     7
 72
     1
  1
{\fＭＳ ゴシック|b0|i0|c128|p49;ＳＣＡＬＥ}
 73
     1
 44
1.0
  0
MTEXT
  5
78
330
1F
100
AcDbEntity
  8
F-A_文字
  6
Continuous
 62
     7
370
     0
100
AcDbMText
 10
4439.917891251784
 20
-3887.143854850754
 30
0.0
 40
45.72
 41
240.0
 46
0.0
 71
     7
 72
     1
  1
{\fＭＳ ゴシック|b0|i0|c128|p49;ＤＡＴＥ}
 73
     1
 44
1.0
  0
LINE
  5
79
330
1F
100
AcDbEntity
  8
F-1_枠
  6
Continuous
 62
   200
370
    20
100
AcDbLine
 10
5859.917429364114
 20
-3795.000003092998
 30
0.0
 11
-5840.081085996952
 21
-3795.000003092998
 31
0.0
  0
LINE
  5
7A
330
1F
100
AcDbEntity
  8
F-1_枠
  6
Continuous
 62
   200
370
    20
100
AcDbLine
 10
5859.917429364114
 20
-3790.000017526987
 30
0.0
 11
-5840.081085996952
 21
-3790.000017526987
 31
0.0
  0
LINE
  5
7B
330
1F
100
AcDbEntity
  8
F-0_補助線
  6
JWW_HOJO
 62
     7
370
     9
100
AcDbLine
 10
-5087.628710189611
 20
-3795.000003092999
 30
0.0
 11
-5087.628710189611
 21
-4205.000164959882
 31
0.0
  0
MTEXT
  5
7C
330
1F
100
AcDbEntity
  8
F-A_文字
  6
Continuous
 62
     7
370
     0
100
AcDbMText
 10
2939.917396372139
 20
-4087.14246317786
 30
0.0
 40
45.72
 41
240.0
 46
0.0
 71
     7
 72
     1
  1
{\fＭＳ ゴシック|b0|i0|c128|p49;ＦＩＬＥ}
 73
     1
 44
1.0
  0
LINE
  5
7D
330
1F
100
AcDbEntity
  8
F-0_補助線
  6
JWW_HOJO
 62
     7
370
     9
100
AcDbLine
 10
-50.08145715668377
 20
-3795.000003092998
 30
0.0
 11
-50.08145715668377
 21
-4195.000008247994
 31
0.0
  0
MTEXT
  5
7E
330
1F
100
AcDbEntity
  8
F-A_文字
  6
Continuous
 62
     7
370
     0
100
AcDbMText
 10
4439.917891251784
 20
-4087.143857410839
 30
0.0
 40
45.72
 41
180.0
 46
0.0
 71
     7
 72
     1
  1
{\fＭＳ ゴシック|b0|i0|c128|p49;ＮＯ．}
 73
     1
 44
1.0
  0
MTEXT
  5
7F
330
1F
100
AcDbEntity
  8
F-A_文字
  6
Continuous
 62
     7
370
     0
100
AcDbMText
 10
1394.917396372138
 20
-4096.140669266149
 30
0.0
 40
45.72
 41
120.0
 46
0.0
 71
     7
 72
     1
  1
{\fＭＳ ゴシック|b0|i0|c128|p49;株式}
 73
     1
 44
1.0
  0
MTEXT
  5
80
330
1F
100
AcDbEntity
  8
F-A_文字
  6
Continuous
 62
     7
370
     0
100
AcDbMText
 10
1604.917396372138
 20
-4164.281754523929
 30
0.0
 40
101.44125
 41
1065.0
 46
0.0
 71
     7
 72
     1
  1
{\fＭＳ ゴシック|b0|i0|c128|p49;ウッドワン・・・}
 73
     1
 44
1.0
  0
MTEXT
  5
81
330
1F
100
AcDbEntity
  8
F-A_文字
  6
Continuous
 62
     7
370
     0
100
AcDbMText
 10
1394.917396372138
 20
-4168.140669266187
 30
0.0
 40
45.72
 41
120.0
 46
0.0
 71
     7
 72
     1
  1
{\fＭＳ ゴシック|b0|i0|c128|p49;会社}
 73
     1
 44
1.0
  0
LINE
  5
82
330
1F
100
AcDbEntity
  8
0-6_扉
  6
Continuous
 62
    92
370
    13
100
AcDbLine
 10
9.918542843313674
 20
2495.962168973792
 30
0.0
 11
9.918542843313674
 21
1835.962168973796
 31
0.0
  0
LINE
  5
83
330
1F
100
AcDbEntity
  8
0-6_扉
  6
Continuous
 62
   200
370
    20
100
AcDbLine
 10
-80.13544694741768
 20
1967.962168973793
 30
0.0
 11
-80.13544694741768
 21
2147.962168664493
 31
0.0
  0
LINE
  5
84
330
1F
100
AcDbEntity
  8
0-6_扉
  6
Continuous
 62
   200
370
    20
100
AcDbLine
 10
99.97253263404417
 20
2195.962169128439
 30
0.0
 11
99.97253263404417
 21
2375.962169128439
 31
0.0
  0
LINE
  5
85
330
1F
100
AcDbEntity
  8
0-B_寸法
  6
Continuous
 62
   120
370
     5
100
AcDbLine
 10
-243.6715063527751
 20
2375.962911447906
 30
0.0
 11
-393.9492575536812
 21
2375.962911447906
 31
0.0
  0
LWPOLYLINE
  5
86
330
1F
100
AcDbEntity
  8
0-B_寸法
  6
Continuous
 62
     7
370
     9
100
AcDbPolyline
 90
        4
 70
     1
 43
3.0
 10
-392.4492575536812
 20
2375.962911447906
 42
0.4142135623731
 10
-393.9492575536812
 20
2377.462911447906
 42
0.4142135623731
 10
-395.4492575536812
 20
2375.962911447906
 42
0.4142135623731
 10
-393.9492575536812
 20
2374.462911447906
 42
0.4142135623731
  0
LINE
  5
87
330
1F
100
AcDbEntity
  8
0-B_寸法
  6
Continuous
 62
   120
370
     5
100
AcDbLine
 10
-243.6715063527751
 20
2195.962169128439
 30
0.0
 11
-393.9492575536812
 21
2195.962169128439
 31
0.0
  0
LINE
  5
88
330
1F
100
AcDbEntity
  8
0-B_寸法
  6
Continuous
 62
   120
370
     5
100
AcDbLine
 10
-393.9492575536812
 20
2195.960684489504
 30
0.0
 11
-243.6715063527751
 21
2195.960684489504
 31
0.0
  0
LWPOLYLINE
  5
89
330
1F
100
AcDbEntity
  8
0-B_寸法
  6
Continuous
 62
     7
370
     9
100
AcDbPolyline
 90
        4
 70
     1
 43
3.0
 10
-392.4492575536812
 20
2195.962169128439
 42
0.4142135623731
 10
-393.9492575536812
 20
2197.462169128439
 42
0.4142135623731
 10
-395.4492575536812
 20
2195.962169128439
 42
0.4142135623731
 10
-393.9492575536812
 20
2194.462169128439
 42
0.4142135623731
  0
LWPOLYLINE
  5
8A
330
1F
100
AcDbEntity
  8
0-B_寸法
  6
Continuous
 62
     7
370
     9
100
AcDbPolyline
 90
        4
 70
     1
 43
3.0
 10
-392.4492575536812
 20
2195.960684489504
 42
0.4142135623731
 10
-393.9492575536812
 20
2197.460684489503
 42
0.4142135623731
 10
-395.4492575536812
 20
2195.960684489504
 42
0.4142135623731
 10
-393.9492575536812
 20
2194.460684489504
 42
0.4142135623731
  0
LINE
  5
8B
330
1F
100
AcDbEntity
  8
0-B_寸法
  6
Continuous
 62
   120
370
     5
100
AcDbLine
 10
-393.9492575536812
 20
2375.962911447906
 30
0.0
 11
-393.9492575536812
 21
2195.962169128439
 31
0.0
  0
MTEXT
  5
8C
330
1F
100
AcDbEntity
  8
0-B_寸法
  6
Continuous
 62
     7
370
     0
100
AcDbMText
 10
-408.9493070416452
 20
2210.790841993197
 30
0.0
 40
97.15499999999999
 41
127.5
 46
0.0
 71
     7
 72
     1
  1
{\fＭＳ ゴシック|b0|i0|c128|p49;30}
 11
6.123031769111886E-17
 21
1.0
 31
0.0
 73
     1
 44
1.0
  0
LINE
  5
8D
330
1F
100
AcDbEntity
  8
0-B_寸法
  6
Continuous
 62
   120
370
     5
100
AcDbLine
 10
-393.9492575536812
 20
2147.960684489507
 30
0.0
 11
-243.6715063527751
 21
2147.960684489507
 31
0.0
  0
LWPOLYLINE
  5
8E
330
1F
100
AcDbEntity
  8
0-B_寸法
  6
Continuous
 62
     7
370
     9
100
AcDbPolyline
 90
        4
 70
     1
 43
3.0
 10
-392.4492575536812
 20
2147.960684489507
 42
0.4142135623731
 10
-393.9492575536812
 20
2149.460684489507
 42
0.4142135623731
 10
-395.4492575536812
 20
2147.960684489507
 42
0.4142135623731
 10
-393.9492575536812
 20
2146.460684489507
 42
0.4142135623731
  0
LINE
  5
8F
330
1F
100
AcDbEntity
  8
0-B_寸法
  6
Continuous
 62
   120
370
     5
100
AcDbLine
 10
-393.9492575536812
 20
1967.960684489507
 30
0.0
 11
-243.6715063527751
 21
1967.960684489507
 31
0.0
  0
LWPOLYLINE
  5
90
330
1F
100
AcDbEntity
  8
0-B_寸法
  6
Continuous
 62
     7
370
     9
100
AcDbPolyline
 90
        4
 70
     1
 43
3.0
 10
-392.4492575536812
 20
1967.960684489507
 42
0.4142135623731
 10
-393.9492575536812
 20
1969.460684489507
 42
0.4142135623731
 10
-395.4492575536812
 20
1967.960684489507
 42
0.4142135623731
 10
-393.9492575536812
 20
1966.460684489507
 42
0.4142135623731
  0
LINE
  5
91
330
1F
100
AcDbEntity
  8
0-B_寸法
  6
Continuous
 62
   120
370
     5
100
AcDbLine
 10
-393.9492575536812
 20
2195.960684489504
 30
0.0
 11
-393.9492575536812
 21
1967.960684489507
 31
0.0
  0
MTEXT
  5
92
330
1F
100
AcDbEntity
  8
0-B_寸法
  6
Continuous
 62
     7
370
   211
100
AcDbMText
 10
-408.9492575536812
 20
1982.787753944216
 30
0.0
 40
97.15499999999999
 41
127.5
 46
0.0
 71
     7
 72
     1
  1
{\fＭＳ ゴシック|b0|i0|c128|p49;30}
 11
6.123031769111886E-17
 21
1.0
 31
0.0
 73
     1
 44
1.0
  0
LINE
  5
93
330
1F
100
AcDbEntity
  8
0-6_扉
  6
JWW_DASHED2
 62
    40
370
    15
100
AcDbLine
 10
-98.13544694741879
 20
2195.962168973789
 30
0.0
 11
-98.13544694741879
 21
2375.962168664489
 31
0.0
  0
MTEXT
  5
94
330
1F
100
AcDbEntity
  8
0-A_文字
  6
Continuous
 62
     7
370
     9
100
AcDbMText
 10
-230.0814571566931
 20
3147.682945934836
 30
0.0
 40
91.44000000000129
 41
480.0000000000068
 46
0.0
 71
     7
 72
     1
  1
{\fＭＳ ゴシック|b0|i0|c128|p49;和室側・}
 73
     1
 44
1.0
  0
LINE
  5
95
330
1F
100
AcDbEntity
  8
0-A_文字
  6
Continuous
 62
     7
370
     9
100
AcDbLine
 10
-290.0814571566897
 20
3341.962945934837
 30
0.0
 11
-290.0814571566897
 21
3101.962945934835
 31
0.0
  0
LINE
  5
96
330
1F
100
AcDbEntity
  8
0-A_文字
  6
Continuous
 62
     7
370
     9
100
AcDbLine
 10
309.918542843312
 20
3341.962945934837
 30
0.0
 11
-290.0814571566897
 21
3341.962945934837
 31
0.0
  0
LINE
  5
97
330
1F
100
AcDbEntity
  8
0-A_文字
  6
Continuous
 62
     7
370
     9
100
AcDbLine
 10
-290.0814571566897
 20
3101.962945934835
 30
0.0
 11
309.918542843312
 21
3101.962945934835
 31
0.0
  0
LINE
  5
98
330
1F
100
AcDbEntity
  8
0-A_文字
  6
Continuous
 62
     7
370
     9
100
AcDbLine
 10
309.918542843312
 20
3101.962945934835
 30
0.0
 11
309.918542843312
 21
3341.962945934837
 31
0.0
  0
MTEXT
  5
99
330
1F
100
AcDbEntity
  8
0-B_寸法
  6
Continuous
 62
     7
370
   211
100
AcDbMText
 10
-50.08145715668803
 20
2892.681971021933
 30
0.0
 40
91.44
 41
120.0
 46
0.0
 71
     7
 72
     1
  1
{\fＭＳ ゴシック|b0|i0|c128|p49;30}
 73
     1
 44
1.0
  0
LINE
  5
9A
330
1F
100
AcDbEntity
  8
0-B_寸法
  6
Continuous
 62
   120
370
     5
100
AcDbLine
 10
99.91854284331197
 20
2891.961971021933
 30
0.0
 11
99.91854284331197
 21
2711.961971021933
 31
0.0
  0
LINE
  5
9B
330
1F
100
AcDbEntity
  8
0-B_寸法
  6
Continuous
 62
   120
370
     5
100
AcDbLine
 10
-80.08145715668633
 20
2891.961971021933
 30
0.0
 11
-80.08145715668633
 21
2711.961971021933
 31
0.0
  0
LWPOLYLINE
  5
9C
330
1F
100
AcDbEntity
  8
0-B_寸法
  6
Continuous
 62
     7
370
     9
100
AcDbPolyline
 90
        4
 70
     1
 43
3.0
 10
101.418542843312
 20
2891.961971021933
 42
0.4142135623731
 10
99.91854284331197
 20
2893.461971021933
 42
0.4142135623731
 10
98.41854284331197
 20
2891.961971021933
 42
0.4142135623731
 10
99.91854284331197
 20
2890.461971021933
 42
0.4142135623731
  0
LWPOLYLINE
  5
9D
330
1F
100
AcDbEntity
  8
0-B_寸法
  6
Continuous
 62
     7
370
     9
100
AcDbPolyline
 90
        4
 70
     1
 43
3.0
 10
-78.58145715668633
 20
2891.961971021933
 42
0.4142135623731
 10
-80.08145715668633
 20
2893.461971021933
 42
0.4142135623731
 10
-81.58145715668633
 20
2891.961971021933
 42
0.4142135623731
 10
-80.08145715668633
 20
2890.461971021933
 42
0.4142135623731
  0
LINE
  5
9E
330
1F
100
AcDbEntity
  8
0-B_寸法
  6
Continuous
 62
   120
370
     5
100
AcDbLine
 10
-80.08145715668633
 20
2891.961971021933
 30
0.0
 11
99.91854284331197
 21
2891.961971021933
 31
0.0
  0
LINE
  5
9F
330
1F
100
AcDbEntity
  8
0-A_文字
  6
Continuous
 62
     7
370
     9
100
AcDbLine
 10
-290.0814571566897
 20
1721.961624593968
 30
0.0
 11
-290.0814571566897
 21
1481.961624593968
 31
0.0
  0
LINE
  5
A0
330
1F
100
AcDbEntity
  8
0-A_文字
  6
Continuous
 62
     7
370
     9
100
AcDbLine
 10
309.918542843312
 20
1481.961624593968
 30
0.0
 11
309.918542843312
 21
1721.961624593968
 31
0.0
  0
LINE
  5
A1
330
1F
100
AcDbEntity
  8
0-A_文字
  6
Continuous
 62
     7
370
     9
100
AcDbLine
 10
-290.0814571566897
 20
1481.961624593968
 30
0.0
 11
309.918542843312
 21
1481.961624593968
 31
0.0
  0
LINE
  5
A2
330
1F
100
AcDbEntity
  8
0-A_文字
  6
Continuous
 62
     7
370
     9
100
AcDbLine
 10
309.918542843312
 20
1721.961624593968
 30
0.0
 11
-290.0814571566897
 21
1721.961624593968
 31
0.0
  0
MTEXT
  5
A3
330
1F
100
AcDbEntity
  8
0-A_文字
  6
Continuous
 62
     7
370
     9
100
AcDbMText
 10
-230.0814571566931
 20
1527.681624593969
 30
0.0
 40
91.44000000000129
 41
480.0000000000068
 46
0.0
 71
     7
 72
     1
  1
{\fＭＳ ゴシック|b0|i0|c128|p49;洋室側・}
 73
     1
 44
1.0
  0
MTEXT
  5
A4
330
1F
100
AcDbEntity
  8
0-B_寸法
  6
Continuous
 62
     7
370
     0
100
AcDbMText
 10
-657.5814571566846
 20
860.2898301550863
 30
0.0
 40
101.727
 41
1335.0
 46
0.0
 71
     7
 72
     1
  1
{\fＭＳ ゴシック|b0|i0|c128|p49;枠内＝1,764（1,584）}
 73
     1
 44
1.0
  0
MTEXT
  5
A5
330
1F
100
AcDbEntity
  8
0-B_寸法
  6
Continuous
 62
     7
370
     0
100
AcDbMText
 10
-657.581085996952
 20
641.5727365296914
 30
0.0
 40
101.727
 41
1335.0
 46
0.0
 71
     7
 72
     1
  1
{\fＭＳ ゴシック|b0|i0|c128|p49;枠外＝1,824（1,644）}
 73
     1
 44
1.0
  0
MTEXT
  5
A6
330
1F
100
AcDbEntity
  8
0-B_寸法
  6
Continuous
 62
     7
370
   211
100
AcDbMText
 10
-725.0814571566864
 20
437.8780936549088
 30
0.0
 40
101.8309090909091
 41
1470.0
 46
0.0
 71
     7
 72
     1
  1
{\fＭＳ ゴシック|b0|i0|c128|p49;ＲＯＷ＝1,834（1,654）}
 73
     1
 44
1.0
  0
LWPOLYLINE
  5
A7
330
1F
100
AcDbEntity
  8
0-B_寸法
  6
Continuous
 62
     7
370
     9
100
AcDbPolyline
 90
        4
 70
     1
 43
3.0
 10
-96.6354469474175
 20
1061.961624593968
 42
0.4142135623731
 10
-98.1354469474175
 20
1063.461624593968
 42
0.4142135623731
 10
-99.6354469474175
 20
1061.961624593968
 42
0.4142135623731
 10
-98.1354469474175
 20
1060.461624593968
 42
0.4142135623731
  0
LINE
  5
A8
330
1F
100
AcDbEntity
  8
0-B_寸法
  6
Continuous
 62
   120
370
     5
100
AcDbLine
 10
-98.1354469474175
 20
1061.961624593968
 30
0.0
 11
-98.1354469474175
 21
1421.961624593968
 31
0.0
  0
LINE
  5
A9
330
1F
100
AcDbEntity
  8
0-6_扉
  6
Continuous
 62
   200
370
    20
100
AcDbLine
 10
-1022.112604433646
 20
2375.962169128439
 30
0.0
 11
99.97253263404417
 21
2375.962169128439
 31
0.0
  0
LINE
  5
AA
330
1F
100
AcDbEntity
  8
0-6_扉
  6
Continuous
 62
   200
370
    20
100
AcDbLine
 10
-1022.112604433646
 20
2195.962169128439
 30
0.0
 11
99.97253263404417
 21
2195.962169128439
 31
0.0
  0
LINE
  5
AB
330
1F
100
AcDbEntity
  8
0-0_補助線
  6
JWW_HOJO
 62
   120
370
     5
100
AcDbLine
 10
-1142.112604433642
 20
2771.96162459379
 30
0.0
 11
-1142.112604433642
 21
1781.961624593968
 31
0.0
  0
LINE
  5
AC
330
1F
100
AcDbEntity
  8
0-0_補助線
  6
JWW_HOJO
 62
   120
370
     5
100
AcDbLine
 10
-1022.112604433642
 20
2771.96162459379
 30
0.0
 11
-1022.112604433642
 21
1781.961624593968
 31
0.0
  0
LINE
  5
AD
330
1F
100
AcDbEntity
  8
0-B_寸法
  6
Continuous
 62
   120
370
     5
100
AcDbLine
 10
-2246.197741501334
 20
3071.962168973791
 30
0.0
 11
-2246.197741501334
 21
2711.962168973791
 31
0.0
  0
LWPOLYLINE
  5
AE
330
1F
100
AcDbEntity
  8
0-B_寸法
  6
Continuous
 62
     7
370
     9
100
AcDbPolyline
 90
        4
 70
     1
 43
3.0
 10
-2244.697741501335
 20
2891.962168973791
 42
0.4142135623731
 10
-2246.197741501334
 20
2893.462168973791
 42
0.4142135623731
 10
-2247.697741501334
 20
2891.962168973791
 42
0.4142135623731
 10
-2246.197741501334
 20
2890.462168973791
 42
0.4142135623731
  0
LWPOLYLINE
  5
AF
330
1F
100
AcDbEntity
  8
0-B_寸法
  6
Continuous
 62
     7
370
     9
100
AcDbPolyline
 90
        4
 70
     1
 43
3.0
 10
-2244.697741501335
 20
3071.962168973791
 42
0.4142135623731
 10
-2246.197741501334
 20
3073.462168973791
 42
0.4142135623731
 10
-2247.697741501334
 20
3071.962168973791
 42
0.4142135623731
 10
-2246.197741501334
 20
3070.462168973791
 42
0.4142135623731
  0
LINE
  5
B0
330
1F
100
AcDbEntity
  8
0-B_寸法
  6
Continuous
 62
   120
370
     5
100
AcDbLine
 10
-2306.197741501334
 20
2891.962168973791
 30
0.0
 11
-2306.197741501334
 21
2711.962168973791
 31
0.0
  0
LWPOLYLINE
  5
B1
330
1F
100
AcDbEntity
  8
0-B_寸法
  6
Continuous
 62
     7
370
     9
100
AcDbPolyline
 90
        4
 70
     1
 43
3.0
 10
-2304.697741501335
 20
2891.962168973791
 42
0.4142135623731
 10
-2306.197741501334
 20
2893.462168973791
 42
0.4142135623731
 10
-2307.697741501334
 20
2891.962168973791
 42
0.4142135623731
 10
-2306.197741501334
 20
2890.462168973791
 42
0.4142135623731
  0
LINE
  5
B2
330
1F
100
AcDbEntity
  8
0-B_寸法
  6
Continuous
 62
   120
370
     5
100
AcDbLine
 10
-2360.197741501333
 20
2891.962168973791
 30
0.0
 11
-2360.197741501333
 21
2711.962168973791
 31
0.0
  0
LWPOLYLINE
  5
B3
330
1F
100
AcDbEntity
  8
0-B_寸法
  6
Continuous
 62
     7
370
     9
100
AcDbPolyline
 90
        4
 70
     1
 43
3.0
 10
-2358.697741501333
 20
2891.962168973791
 42
0.4142135623731
 10
-2360.197741501333
 20
2893.462168973791
 42
0.4142135623731
 10
-2361.697741501333
 20
2891.962168973791
 42
0.4142135623731
 10
-2360.197741501333
 20
2890.462168973791
 42
0.4142135623731
  0
LINE
  5
B4
330
1F
100
AcDbEntity
  8
0-B_寸法
  6
Continuous
 62
   120
370
     5
100
AcDbLine
 10
-2396.197741501334
 20
2891.962168973791
 30
0.0
 11
-2396.197741501334
 21
2711.962168973791
 31
0.0
  0
LWPOLYLINE
  5
B5
330
1F
100
AcDbEntity
  8
0-B_寸法
  6
Continuous
 62
     7
370
     9
100
AcDbPolyline
 90
        4
 70
     1
 43
3.0
 10
-2394.697741501335
 20
2891.962168973791
 42
0.4142135623731
 10
-2396.197741501334
 20
2893.462168973791
 42
0.4142135623731
 10
-2397.697741501334
 20
2891.962168973791
 42
0.4142135623731
 10
-2396.197741501334
 20
2890.462168973791
 42
0.4142135623731
  0
LINE
  5
B6
330
1F
100
AcDbEntity
  8
0-B_寸法
  6
Continuous
 62
   120
370
     5
100
AcDbLine
 10
-2426.197741501334
 20
2891.962168973791
 30
0.0
 11
-2246.197741501334
 21
2891.962168973791
 31
0.0
  0
LINE
  5
B7
330
1F
100
AcDbEntity
  8
0-B_寸法
  6
Continuous
 62
   120
370
     5
100
AcDbLine
 10
-2426.197741501334
 20
3071.962168973791
 30
0.0
 11
-2426.197741501334
 21
2711.962168973791
 31
0.0
  0
LINE
  5
B8
330
1F
100
AcDbEntity
  8
0-B_寸法
  6
Continuous
 62
   120
370
     5
100
AcDbLine
 10
-2426.197741501334
 20
3071.962168973791
 30
0.0
 11
-2246.197741501334
 21
3071.962168973791
 31
0.0
  0
LWPOLYLINE
  5
B9
330
1F
100
AcDbEntity
  8
0-B_寸法
  6
Continuous
 62
     7
370
     9
100
AcDbPolyline
 90
        4
 70
     1
 43
3.0
 10
-2424.697741501335
 20
2891.962168973791
 42
0.4142135623731
 10
-2426.197741501334
 20
2893.462168973791
 42
0.4142135623731
 10
-2427.697741501334
 20
2891.962168973791
 42
0.4142135623731
 10
-2426.197741501334
 20
2890.462168973791
 42
0.4142135623731
  0
LWPOLYLINE
  5
BA
330
1F
100
AcDbEntity
  8
0-B_寸法
  6
Continuous
 62
     7
370
     9
100
AcDbPolyline
 90
        4
 70
     1
 43
3.0
 10
-2424.697741501335
 20
3071.962168973791
 42
0.4142135623731
 10
-2426.197741501334
 20
3073.462168973791
 42
0.4142135623731
 10
-2427.697741501334
 20
3071.962168973791
 42
0.4142135623731
 10
-2426.197741501334
 20
3070.462168973791
 42
0.4142135623731
  0
MTEXT
  5
BB
330
1F
100
AcDbEntity
  8
0-B_寸法
  6
Continuous
 62
     7
370
   211
100
AcDbMText
 10
-2399.947469317528
 20
3075.539668973791
 30
0.0
 40
97.15499999999999
 41
127.5
 46
0.0
 71
     7
 72
     1
  1
{\fＭＳ ゴシック|b0|i0|c128|p49;30}
 73
     1
 44
1.0
  0
MTEXT
  5
BC
330
1F
100
AcDbEntity
  8
0-B_寸法
  6
Continuous
 62
     7
370
   211
100
AcDbMText
 10
-2408.197553447068
 20
2892.682168973791
 30
0.0
 40
91.44
 41
60.0
 46
0.0
 71
     7
 72
     1
  1
{\fＭＳ ゴシック|b0|i0|c128|p49;6}
 73
     1
 44
1.0
  0
MTEXT
  5
BD
330
1F
100
AcDbEntity
  8
0-B_寸法
  6
Continuous
 62
     7
370
   211
100
AcDbMText
 10
-2363.197756347722
 20
2753.973310787092
 30
0.0
 40
91.44
 41
60.0
 46
0.0
 71
     7
 72
     1
  1
{\fＭＳ ゴシック|b0|i0|c128|p49;9}
 73
     1
 44
1.0
  0
MTEXT
  5
BE
330
1F
100
AcDbEntity
  8
0-A_文字
  6
Continuous
 62
     7
370
     9
100
AcDbMText
 10
-2758.367705938822
 20
3225.050735440932
 30
0.0
 40
100.584
 41
660.0
 46
0.0
 71
     7
 72
     1
  1
{\fＭＳ ゴシック|b0|i0|c128|p49;■横断面図}
 73
     1
 44
1.0
  0
LINE
  5
BF
330
1F
100
AcDbEntity
  8
0-3_仕上げ
  6
Continuous
 62
    40
370
    15
100
AcDbLine
 10
-2756.197741501334
 20
2561.962168973791
 30
0.0
 11
-2396.197741501334
 21
2561.962168973791
 31
0.0
  0
LINE
  5
C0
330
1F
100
AcDbEntity
  8
0-3_仕上げ
  6
Continuous
 62
    40
370
    15
100
AcDbLine
 10
-2756.197741501334
 20
2486.962168973791
 30
0.0
 11
-2396.197741501334
 21
2486.962168973791
 31
0.0
  0
LINE
  5
C1
330
1F
100
AcDbEntity
  8
0-3_仕上げ
  6
Continuous
 62
    40
370
    15
100
AcDbLine
 10
-2396.197741501334
 20
2561.962168973791
 30
0.0
 11
-2396.197741501334
 21
2486.962168973791
 31
0.0
  0
LINE
  5
C2
330
1F
100
AcDbEntity
  8
0-2_柱
  6
Continuous
 62
     7
370
     9
100
AcDbLine
 10
-2456.197741501352
 20
2486.962168973791
 30
0.0
 11
-2456.197741501352
 21
1856.962168973791
 31
0.0
  0
LINE
  5
C3
330
1F
100
AcDbEntity
  8
0-3_仕上げ
  6
Continuous
 62
    40
370
    15
100
AcDbLine
 10
-2756.197741501334
 20
1856.962168973791
 30
0.0
 11
-2396.197741501334
 21
1856.962168973791
 31
0.0
  0
LINE
  5
C4
330
1F
100
AcDbEntity
  8
0-3_仕上げ
  6
Continuous
 62
    40
370
    15
100
AcDbLine
 10
-2756.197741501334
 20
1781.962168973791
 30
0.0
 11
-2396.197741501334
 21
1781.962168973791
 31
0.0
  0
LINE
  5
C5
330
1F
100
AcDbEntity
  8
0-3_仕上げ
  6
Continuous
 62
    40
370
    15
100
AcDbLine
 10
-2396.197741501334
 20
1856.962168973791
 30
0.0
 11
-2396.197741501334
 21
1781.962168973791
 31
0.0
  0
LINE
  5
C6
330
1F
100
AcDbEntity
  8
0-2_柱
  6
Continuous
 62
     7
370
     9
100
AcDbLine
 10
-2618.197741501352
 20
2486.962168973791
 30
0.0
 11
-2456.197741501352
 21
2486.962168973791
 31
0.0
  0
LINE
  5
C7
330
1F
100
AcDbEntity
  8
0-2_柱
  6
Continuous
 62
     7
370
     9
100
AcDbLine
 10
-2618.197741501352
 20
1856.962168973791
 30
0.0
 11
-2618.197741501352
 21
2486.962168973791
 31
0.0
  0
LINE
  5
C8
330
1F
100
AcDbEntity
  8
0-2_柱
  6
Continuous
 62
     7
370
     9
100
AcDbLine
 10
-2456.197741501352
 20
1856.962168973791
 30
0.0
 11
-2618.197741501352
 21
1856.962168973791
 31
0.0
  0
LINE
  5
C9
330
1F
100
AcDbEntity
  8
0-2_柱
  6
Continuous
 62
     7
370
     9
100
AcDbLine
 10
-2456.197741501352
 20
2486.962168973791
 30
0.0
 11
-2618.197741501352
 21
1856.962168973791
 31
0.0
  0
LINE
  5
CA
330
1F
100
AcDbEntity
  8
0-C_ハッチ
  6
JWW_DASHED1
 62
   120
370
     5
100
AcDbLine
 10
-2734.301521877381
 20
2561.962168973794
 30
0.0
 11
-2756.197741501336
 21
2540.065949349842
 31
0.0
  0
LINE
  5
CB
330
1F
100
AcDbEntity
  8
0-C_ハッチ
  6
JWW_DASHED1
 62
   120
370
     5
100
AcDbLine
 10
-2691.875115006186
 20
2561.962168973791
 30
0.0
 11
-2756.19774150134
 21
2497.639542478641
 31
0.0
  0
LINE
  5
CC
330
1F
100
AcDbEntity
  8
0-C_ハッチ
  6
JWW_DASHED1
 62
   120
370
     5
100
AcDbLine
 10
-2649.44870813499
 20
2561.962168973787
 30
0.0
 11
-2724.448708134986
 21
2486.962168973791
 31
0.0
  0
LINE
  5
CD
330
1F
100
AcDbEntity
  8
0-C_ハッチ
  6
JWW_DASHED1
 62
   120
370
     5
100
AcDbLine
 10
-2607.022301263793
 20
2561.962168973784
 30
0.0
 11
-2682.02230126379
 21
2486.962168973787
 31
0.0
  0
LINE
  5
CE
330
1F
100
AcDbEntity
  8
0-C_ハッチ
  6
JWW_DASHED1
 62
   120
370
     5
100
AcDbLine
 10
-2564.595894392643
 20
2561.962168973791
 30
0.0
 11
-2639.595894392636
 21
2486.962168973794
 31
0.0
  0
LINE
  5
CF
330
1F
100
AcDbEntity
  8
0-C_ハッチ
  6
JWW_DASHED1
 62
   120
370
     5
100
AcDbLine
 10
-2522.169487521446
 20
2561.962168973786
 30
0.0
 11
-2597.169487521441
 21
2486.962168973791
 31
0.0
  0
LINE
  5
D0
330
1F
100
AcDbEntity
  8
0-C_ハッチ
  6
JWW_DASHED1
 62
   120
370
     5
100
AcDbLine
 10
-2479.743080650234
 20
2561.962168973798
 30
0.0
 11
-2554.743080650244
 21
2486.962168973787
 31
0.0
  0
LINE
  5
D1
330
1F
100
AcDbEntity
  8
0-C_ハッチ
  6
JWW_DASHED1
 62
   120
370
     5
100
AcDbLine
 10
-2437.316673779036
 20
2561.962168973794
 30
0.0
 11
-2512.316673779048
 21
2486.962168973784
 31
0.0
  0
LINE
  5
D2
330
1F
100
AcDbEntity
  8
0-C_ハッチ
  6
JWW_DASHED1
 62
   120
370
     5
100
AcDbLine
 10
-2396.197741501334
 20
2560.654694380297
 30
0.0
 11
-2469.890266907836
 21
2486.962168973798
 31
0.0
  0
LINE
  5
D3
330
1F
100
AcDbEntity
  8
0-C_ハッチ
  6
JWW_DASHED1
 62
   120
370
     5
100
AcDbLine
 10
-2396.197741501334
 20
2518.228287509097
 30
0.0
 11
-2427.463860036636
 21
2486.962168973798
 31
0.0
  0
LINE
  5
D4
330
1F
100
AcDbEntity
  8
0-C_ハッチ
  6
JWW_DASHED1
 62
   120
370
     5
100
AcDbLine
 10
-2734.301521877381
 20
1856.962168973794
 30
0.0
 11
-2756.197741501336
 21
1835.065949349843
 31
0.0
  0
LINE
  5
D5
330
1F
100
AcDbEntity
  8
0-C_ハッチ
  6
JWW_DASHED1
 62
   120
370
     5
100
AcDbLine
 10
-2691.875115006186
 20
1856.962168973791
 30
0.0
 11
-2756.19774150134
 21
1792.639542478641
 31
0.0
  0
LINE
  5
D6
330
1F
100
AcDbEntity
  8
0-C_ハッチ
  6
JWW_DASHED1
 62
   120
370
     5
100
AcDbLine
 10
-2649.44870813499
 20
1856.962168973787
 30
0.0
 11
-2724.448708134986
 21
1781.962168973791
 31
0.0
  0
LINE
  5
D7
330
1F
100
AcDbEntity
  8
0-C_ハッチ
  6
JWW_DASHED1
 62
   120
370
     5
100
AcDbLine
 10
-2607.022301263793
 20
1856.962168973784
 30
0.0
 11
-2682.02230126379
 21
1781.962168973787
 31
0.0
  0
LINE
  5
D8
330
1F
100
AcDbEntity
  8
0-C_ハッチ
  6
JWW_DASHED1
 62
   120
370
     5
100
AcDbLine
 10
-2564.595894392643
 20
1856.962168973791
 30
0.0
 11
-2639.595894392636
 21
1781.962168973794
 31
0.0
  0
LINE
  5
D9
330
1F
100
AcDbEntity
  8
0-C_ハッチ
  6
JWW_DASHED1
 62
   120
370
     5
100
AcDbLine
 10
-2522.169487521446
 20
1856.962168973786
 30
0.0
 11
-2597.169487521441
 21
1781.962168973791
 31
0.0
  0
LINE
  5
DA
330
1F
100
AcDbEntity
  8
0-C_ハッチ
  6
JWW_DASHED1
 62
   120
370
     5
100
AcDbLine
 10
-2479.743080650234
 20
1856.962168973798
 30
0.0
 11
-2554.743080650244
 21
1781.962168973787
 31
0.0
  0
LINE
  5
DB
330
1F
100
AcDbEntity
  8
0-C_ハッチ
  6
JWW_DASHED1
 62
   120
370
     5
100
AcDbLine
 10
-2437.316673779036
 20
1856.962168973794
 30
0.0
 11
-2512.316673779048
 21
1781.962168973784
 31
0.0
  0
LINE
  5
DC
330
1F
100
AcDbEntity
  8
0-C_ハッチ
  6
JWW_DASHED1
 62
   120
370
     5
100
AcDbLine
 10
-2396.197741501334
 20
1855.654694380297
 30
0.0
 11
-2469.890266907836
 21
1781.962168973798
 31
0.0
  0
LINE
  5
DD
330
1F
100
AcDbEntity
  8
0-C_ハッチ
  6
JWW_DASHED1
 62
   120
370
     5
100
AcDbLine
 10
-2396.197741501334
 20
1813.228287509097
 30
0.0
 11
-2427.463860036636
 21
1781.962168973798
 31
0.0
  0
LINE
  5
DE
330
1F
100
AcDbEntity
  8
0-C_ハッチ
  6
Continuous
 62
   120
370
     5
100
AcDbLine
 10
-2396.197741501333
 20
2508.465691644367
 30
0.0
 11
-2393.70126417191
 21
2510.962168973788
 31
0.0
  0
LINE
  5
DF
330
1F
100
AcDbEntity
  8
0-C_ハッチ
  6
Continuous
 62
   120
370
     5
100
AcDbLine
 10
-2306.197741501338
 20
1885.702056208322
 30
0.0
 11
-2249.197741501332
 21
1942.702056208328
 31
0.0
  0
LINE
  5
E0
330
1F
100
AcDbEntity
  8
0-4_枠
  6
Continuous
 62
    92
370
    13
100
AcDbLine
 10
-2306.197741501334
 20
2450.96216897379
 30
0.0
 11
-2306.197741501334
 21
2510.962168973791
 31
0.0
  0
LINE
  5
E1
330
1F
100
AcDbEntity
  8
0-4_枠
  6
Continuous
 62
    92
370
    13
100
AcDbLine
 10
-2360.197741501333
 20
2450.96216897379
 30
0.0
 11
-2360.197741501333
 21
2510.962168973791
 31
0.0
  0
LINE
  5
E2
330
1F
100
AcDbEntity
  8
0-4_枠
  6
Continuous
 62
    92
370
    13
100
AcDbLine
 10
-2306.197741501334
 20
2450.96216897379
 30
0.0
 11
-2360.197741501333
 21
2450.96216897379
 31
0.0
  0
LINE
  5
E3
330
1F
100
AcDbEntity
  8
0-4_枠
  6
Continuous
 62
    92
370
    13
100
AcDbLine
 10
-2396.197741501334
 20
2468.962168973791
 30
0.0
 11
-2426.197741501334
 21
2468.962168973791
 31
0.0
  0
LINE
  5
E4
330
1F
100
AcDbEntity
  8
0-4_枠
  6
Continuous
 62
    92
370
    13
100
AcDbLine
 10
-2396.197741501334
 20
2468.962168973791
 30
0.0
 11
-2396.197741501334
 21
2510.962168973791
 31
0.0
  0
LINE
  5
E5
330
1F
100
AcDbEntity
  8
0-4_枠
  6
Continuous
 62
    92
370
    13
100
AcDbLine
 10
-2360.197741501333
 20
2510.962168973791
 30
0.0
 11
-2396.197741501334
 21
2510.962168973791
 31
0.0
  0
LINE
  5
E6
330
1F
100
AcDbEntity
  8
0-4_枠
  6
Continuous
 62
    92
370
    13
100
AcDbLine
 10
-2306.197741501334
 20
1892.962168973789
 30
0.0
 11
-2306.197741501334
 21
1832.962168973789
 31
0.0
  0
LINE
  5
E7
330
1F
100
AcDbEntity
  8
0-4_枠
  6
Continuous
 62
    92
370
    13
100
AcDbLine
 10
-2360.197741501333
 20
1892.962168973789
 30
0.0
 11
-2360.197741501333
 21
1832.962168973789
 31
0.0
  0
LINE
  5
E8
330
1F
100
AcDbEntity
  8
0-4_枠
  6
Continuous
 62
    92
370
    13
100
AcDbLine
 10
-2306.197741501334
 20
1892.962168973789
 30
0.0
 11
-2360.197741501333
 21
1892.962168973789
 31
0.0
  0
LINE
  5
E9
330
1F
100
AcDbEntity
  8
0-4_枠
  6
Continuous
 62
    92
370
    13
100
AcDbLine
 10
-2396.197741501334
 20
1874.962168973791
 30
0.0
 11
-2426.197741501334
 21
1874.962168973791
 31
0.0
  0
LINE
  5
EA
330
1F
100
AcDbEntity
  8
0-4_枠
  6
Continuous
 62
    92
370
    13
100
AcDbLine
 10
-2396.197741501334
 20
1874.962168973791
 30
0.0
 11
-2396.197741501334
 21
1832.962168973789
 31
0.0
  0
LINE
  5
EB
330
1F
100
AcDbEntity
  8
0-4_枠
  6
Continuous
 62
    92
370
    13
100
AcDbLine
 10
-2360.197741501333
 20
1832.962168973789
 30
0.0
 11
-2396.197741501334
 21
1832.962168973789
 31
0.0
  0
LINE
  5
EC
330
1F
100
AcDbEntity
  8
0-4_枠
  6
Continuous
 62
    92
370
    13
100
AcDbLine
 10
-2426.197741501334
 20
2468.962168973791
 30
0.0
 11
-2426.197741501334
 21
1874.962168973791
 31
0.0
  0
LINE
  5
ED
330
1F
100
AcDbEntity
  8
0-4_枠
  6
Continuous
 62
    92
370
    13
100
AcDbLine
 10
-2306.197741501334
 20
2510.962168973791
 30
0.0
 11
-2246.197741501334
 21
2510.962168973791
 31
0.0
  0
LINE
  5
EE
330
1F
100
AcDbEntity
  8
0-4_枠
  6
Continuous
 62
    92
370
    13
100
AcDbLine
 10
-2306.197741501334
 20
2507.962168973791
 30
0.0
 11
-2249.197741501333
 21
2507.962168973791
 31
0.0
  0
LINE
  5
EF
330
1F
100
AcDbEntity
  8
0-4_枠
  6
Continuous
 62
    92
370
    13
100
AcDbLine
 10
-2306.197741501334
 20
1832.962168973789
 30
0.0
 11
-2246.197741501334
 21
1832.962168973789
 31
0.0
  0
LINE
  5
F0
330
1F
100
AcDbEntity
  8
0-4_枠
  6
Continuous
 62
    92
370
    13
100
AcDbLine
 10
-2306.197741501334
 20
1835.96216897379
 30
0.0
 11
-2249.197741501333
 21
1835.96216897379
 31
0.0
  0
LINE
  5
F1
330
1F
100
AcDbEntity
  8
0-C_ハッチ
  6
Continuous
 62
   120
370
     5
100
AcDbLine
 10
-2296.540659116223
 20
1835.962168973788
 30
0.0
 11
-2249.197741501338
 21
1883.30508658867
 31
0.0
  0
LINE
  5
F2
330
1F
100
AcDbEntity
  8
0-C_ハッチ
  6
Continuous
 62
   120
370
     5
100
AcDbLine
 10
-2396.197741501341
 20
1855.09902582802
 30
0.0
 11
-2360.197741501347
 21
1891.099025828014
 31
0.0
  0
LINE
  5
F3
330
1F
100
AcDbEntity
  8
0-C_ハッチ
  6
Continuous
 62
   120
370
     5
100
AcDbLine
 10
-2358.334598355559
 20
1892.962168973802
 30
0.0
 11
-2249.197741501338
 21
2002.099025828022
 31
0.0
  0
LINE
  5
F4
330
1F
100
AcDbEntity
  8
0-C_ハッチ
  6
Continuous
 62
   120
370
     5
100
AcDbLine
 10
-2426.197741501334
 20
1884.495995447674
 30
0.0
 11
-2249.197741501335
 21
2061.495995447672
 31
0.0
  0
LINE
  5
F5
330
1F
100
AcDbEntity
  8
0-C_ハッチ
  6
Continuous
 62
   120
370
     5
100
AcDbLine
 10
-2426.197741501338
 20
1943.892965067317
 30
0.0
 11
-2249.197741501325
 21
2120.89296506733
 31
0.0
  0
LINE
  5
F6
330
1F
100
AcDbEntity
  8
0-C_ハッチ
  6
Continuous
 62
   120
370
     5
100
AcDbLine
 10
-2426.197741501321
 20
2300.27478278538
 30
0.0
 11
-2249.197741501345
 21
2477.274782785355
 31
0.0
  0
LINE
  5
F7
330
1F
100
AcDbEntity
  8
0-C_ハッチ
  6
Continuous
 62
   120
370
     5
100
AcDbLine
 10
-2426.197741501341
 20
2359.671752405006
 30
0.0
 11
-2334.907324932561
 21
2450.962168973788
 31
0.0
  0
LINE
  5
F8
330
1F
100
AcDbEntity
  8
0-C_ハッチ
  6
Continuous
 62
   120
370
     5
100
AcDbLine
 10
-2306.197741501338
 20
2479.671752405011
 30
0.0
 11
-2277.907324932555
 21
2507.962168973795
 31
0.0
  0
LINE
  5
F9
330
1F
100
AcDbEntity
  8
0-C_ハッチ
  6
Continuous
 62
   120
370
     5
100
AcDbLine
 10
-2426.197741501328
 20
2419.068722024724
 30
0.0
 11
-2360.197741501326
 21
2485.068722024723
 31
0.0
  0
LINE
  5
FA
330
1F
100
AcDbEntity
  8
0-C_ハッチ
  6
Continuous
 62
   120
370
     5
100
AcDbLine
 10
-2426.197741501338
 20
2240.877813165662
 30
0.0
 11
-2285.197741501333
 21
2381.877813165666
 31
0.0
  0
LINE
  5
FB
330
1F
100
AcDbEntity
  8
0-C_ハッチ
  6
Continuous
 62
   120
370
     5
100
AcDbLine
 10
-2426.197741501333
 20
2181.48084354602
 30
0.0
 11
-2285.197741501333
 21
2322.48084354602
 31
0.0
  0
LINE
  5
FC
330
1F
100
AcDbEntity
  8
0-C_ハッチ
  6
Continuous
 62
   120
370
     5
100
AcDbLine
 10
-2426.197741501328
 20
2122.083873926379
 30
0.0
 11
-2285.197741501333
 21
2263.083873926373
 31
0.0
  0
LINE
  5
FD
330
1F
100
AcDbEntity
  8
0-C_ハッチ
  6
Continuous
 62
   120
370
     5
100
AcDbLine
 10
-2426.197741501343
 20
2062.686904306661
 30
0.0
 11
-2285.197741501333
 21
2203.686904306671
 31
0.0
  0
LINE
  5
FE
330
1F
100
AcDbEntity
  8
0-4_枠
  6
Continuous
 62
    92
370
    13
100
AcDbLine
 10
-2246.197741501334
 20
2510.962168973791
 30
0.0
 11
-2246.197741501334
 21
2408.962168973789
 31
0.0
  0
LINE
  5
FF
330
1F
100
AcDbEntity
  8
0-4_枠
  6
Continuous
 62
    92
370
    13
100
AcDbLine
 10
-2249.197741501333
 20
2507.962168973791
 30
0.0
 11
-2249.197741501333
 21
2411.962168973787
 31
0.0
  0
LINE
  5
100
330
1F
100
AcDbEntity
  8
0-4_枠
  6
Continuous
 62
    92
370
    13
100
AcDbLine
 10
-2282.197741501333
 20
2408.962168973789
 30
0.0
 11
-2246.197741501334
 21
2408.962168973789
 31
0.0
  0
LINE
  5
101
330
1F
100
AcDbEntity
  8
0-4_枠
  6
Continuous
 62
    92
370
    13
100
AcDbLine
 10
-2285.197741501333
 20
2411.962168973787
 30
0.0
 11
-2249.197741501333
 21
2411.962168973787
 31
0.0
  0
LINE
  5
102
330
1F
100
AcDbEntity
  8
0-4_枠
  6
Continuous
 62
    92
370
    13
100
AcDbLine
 10
-2282.197741501333
 20
2408.962168973789
 30
0.0
 11
-2282.197741501333
 21
2162.962168973789
 31
0.0
  0
LINE
  5
103
330
1F
100
AcDbEntity
  8
0-4_枠
  6
Continuous
 62
    92
370
    13
100
AcDbLine
 10
-2285.197741501333
 20
2411.962168973787
 30
0.0
 11
-2285.197741501333
 21
2159.962168973788
 31
0.0
  0
LINE
  5
104
330
1F
100
AcDbEntity
  8
0-4_枠
  6
Continuous
 62
    92
370
    13
100
AcDbLine
 10
-2246.197741501334
 20
1832.962168973789
 30
0.0
 11
-2246.197741501334
 21
2162.962168973789
 31
0.0
  0
LINE
  5
105
330
1F
100
AcDbEntity
  8
0-4_枠
  6
Continuous
 62
    92
370
    13
100
AcDbLine
 10
-2249.197741501333
 20
1835.96216897379
 30
0.0
 11
-2249.197741501333
 21
2159.962168973788
 31
0.0
  0
LINE
  5
106
330
1F
100
AcDbEntity
  8
0-4_枠
  6
Continuous
 62
    92
370
    13
100
AcDbLine
 10
-2282.197741501333
 20
2162.962168973789
 30
0.0
 11
-2246.197741501334
 21
2162.962168973789
 31
0.0
  0
LINE
  5
107
330
1F
100
AcDbEntity
  8
0-4_枠
  6
Continuous
 62
    92
370
    13
100
AcDbLine
 10
-2285.197741501333
 20
2159.962168973788
 30
0.0
 11
-2249.197741501333
 21
2159.962168973788
 31
0.0
  0
LINE
  5
108
330
1F
100
AcDbEntity
  8
0-C_ハッチ
  6
Continuous
 62
   120
370
     5
100
AcDbLine
 10
-2255.113385693213
 20
2411.962168973787
 30
0.0
 11
-2249.19774150133
 21
2417.877813165672
 31
0.0
  0
LINE
  5
109
330
1F
100
AcDbEntity
  8
0-C_ハッチ
  6
Continuous
 62
   120
370
     5
100
AcDbLine
 10
-2426.197741501323
 20
2003.289934687034
 30
0.0
 11
-2269.52550721457
 21
2159.962168973788
 31
0.0
  0
LINE
  5
10A
330
1F
100
AcDbEntity
  8
0-7_金物
  6
Continuous
 62
     7
370
     9
100
AcDbLine
 10
-2312.197741501333
 20
2270.962168973789
 30
0.0
 11
-2312.197741501333
 21
2300.962168973789
 31
0.0
  0
LINE
  5
10B
330
1F
100
AcDbEntity
  8
0-7_金物
  6
Continuous
 62
     7
370
     9
100
AcDbLine
 10
-2282.197741501333
 20
2240.962168973789
 30
0.0
 11
-2264.197741501332
 21
2240.962168973789
 31
0.0
  0
LINE
  5
10C
330
1F
100
AcDbEntity
  8
0-7_金物
  6
Continuous
 62
     7
370
     9
100
AcDbLine
 10
-2264.197741501332
 20
2330.962168973789
 30
0.0
 11
-2282.197741501333
 21
2330.962168973789
 31
0.0
  0
LINE
  5
10D
330
1F
100
AcDbEntity
  8
0-7_金物
  6
Continuous
 62
     7
370
     9
100
AcDbLine
 10
-2282.197741501333
 20
2330.962168973789
 30
0.0
 11
-2282.197741501333
 21
2240.962168973789
 31
0.0
  0
LINE
  5
10E
330
1F
100
AcDbEntity
  8
0-7_金物
  6
Continuous
 62
     7
370
     9
100
AcDbLine
 10
-2282.197741501333
 20
2270.962168973789
 30
0.0
 11
-2312.197741501333
 21
2270.962168973789
 31
0.0
  0
LINE
  5
10F
330
1F
100
AcDbEntity
  8
0-7_金物
  6
Continuous
 62
     7
370
     9
100
AcDbLine
 10
-2312.197741501333
 20
2300.962168973789
 30
0.0
 11
-2282.197741501333
 21
2300.962168973789
 31
0.0
  0
ARC
  5
110
330
1F
100
AcDbEntity
  8
0-7_金物
  6
Continuous
 62
     7
370
     9
100
AcDbCircle
 10
-2429.947741501333
 20
2285.962168973789
 30
0.0
 40
171.7499999999977
100
AcDbArc
 50
344.8107132628169
 51
15.1892867371831
  0
LINE
  5
111
330
1F
100
AcDbEntity
  8
0-7_金物
  6
Continuous
 62
     7
370
     9
100
AcDbLine
 10
-2444.197404983175
 20
2196.369776593615
 30
0.0
 11
-2444.197404983175
 21
2376.369628129722
 31
0.0
  0
LINE
  5
112
330
1F
100
AcDbEntity
  8
0-7_金物
  6
Continuous
 62
     7
370
     9
100
AcDbLine
 10
-2456.197741501334
 20
2376.369628129722
 30
0.0
 11
-2444.197404983175
 21
2376.369628129722
 31
0.0
  0
LINE
  5
113
330
1F
100
AcDbEntity
  8
0-7_金物
  6
Continuous
 62
     7
370
     9
100
AcDbLine
 10
-2456.197741501334
 20
2196.369776593615
 30
0.0
 11
-2444.197404983175
 21
2196.369776593615
 31
0.0
  0
LINE
  5
114
330
1F
100
AcDbEntity
  8
0-7_金物
  6
Continuous
 62
     7
370
     9
100
AcDbLine
 10
-2456.197741501334
 20
2196.369776593615
 30
0.0
 11
-2456.197741501334
 21
2376.369628129722
 31
0.0
  0
LINE
  5
115
330
1F
100
AcDbEntity
  8
0-7_金物
  6
Continuous
 62
     7
370
     9
100
AcDbLine
 10
-2444.197404983175
 20
2226.369875569545
 30
0.0
 11
-2432.197810784484
 21
2226.369875569545
 31
0.0
  0
LINE
  5
116
330
1F
100
AcDbEntity
  8
0-7_金物
  6
Continuous
 62
     7
370
     9
100
AcDbLine
 10
-2444.197404983175
 20
2346.369529153792
 30
0.0
 11
-2432.197810784484
 21
2346.369529153792
 31
0.0
  0
LINE
  5
117
330
1F
100
AcDbEntity
  8
0-7_金物
  6
Continuous
 62
     7
370
     9
100
AcDbLine
 10
-2432.197810784484
 20
2226.369875569545
 30
0.0
 11
-2432.197810784484
 21
2346.369529153792
 31
0.0
  0
LINE
  5
118
330
1F
100
AcDbEntity
  8
0-7_金物
  6
Continuous
 62
     7
370
     9
100
AcDbLine
 10
-2432.197810784484
 20
2340.370103214182
 30
0.0
 11
-2426.155651987503
 21
2340.370103214182
 31
0.0
  0
LINE
  5
119
330
1F
100
AcDbEntity
  8
0-7_金物
  6
Continuous
 62
     7
370
     9
100
AcDbLine
 10
-2432.197810784484
 20
2232.370043828623
 30
0.0
 11
-2426.155651987503
 21
2232.370043828623
 31
0.0
  0
LINE
  5
11A
330
1F
100
AcDbEntity
  8
0-B_寸法
  6
Continuous
 62
   120
370
     5
100
AcDbLine
 10
-1947.799671181933
 20
2510.962168973791
 30
0.0
 11
-2128.186855040386
 21
2510.962168973791
 31
0.0
  0
LWPOLYLINE
  5
11B
330
1F
100
AcDbEntity
  8
0-B_寸法
  6
Continuous
 62
     7
370
     9
100
AcDbPolyline
 90
        4
 70
     1
 43
3.0
 10
-1946.299671181934
 20
2510.962168973791
 42
0.4142135623731
 10
-1947.799671181933
 20
2512.462168973791
 42
0.4142135623731
 10
-1949.299671181933
 20
2510.962168973791
 42
0.4142135623731
 10
-1947.799671181933
 20
2509.462168973792
 42
0.4142135623731
  0
LINE
  5
11C
330
1F
100
AcDbEntity
  8
0-B_寸法
  6
Continuous
 62
   120
370
     5
100
AcDbLine
 10
-1947.799671181933
 20
1832.96216897379
 30
0.0
 11
-2128.186855040386
 21
1832.96216897379
 31
0.0
  0
LWPOLYLINE
  5
11D
330
1F
100
AcDbEntity
  8
0-B_寸法
  6
Continuous
 62
     7
370
     9
100
AcDbPolyline
 90
        4
 70
     1
 43
3.0
 10
-1946.299671181934
 20
1832.96216897379
 42
0.4142135623731
 10
-1947.799671181933
 20
1834.46216897379
 42
0.4142135623731
 10
-1949.299671181933
 20
1832.96216897379
 42
0.4142135623731
 10
-1947.799671181933
 20
1831.46216897379
 42
0.4142135623731
  0
LINE
  5
11E
330
1F
100
AcDbEntity
  8
0-B_寸法
  6
Continuous
 62
   120
370
     5
100
AcDbLine
 10
-1947.799671181933
 20
1838.962168973791
 30
0.0
 11
-1947.799671181933
 21
2504.962168973792
 31
0.0
  0
LINE
  5
11F
330
1F
100
AcDbEntity
  8
0-6_扉
  6
Continuous
 62
   200
370
    20
100
AcDbLine
 10
-2264.197741501335
 20
2195.962169128439
 30
0.0
 11
-2264.197741501335
 21
2375.962168819139
 31
0.0
  0
LINE
  5
120
330
1F
100
AcDbEntity
  8
0-6_扉
  6
Continuous
 62
   200
370
    20
100
AcDbLine
 10
-2264.197741501335
 20
2375.962169128439
 30
0.0
 11
-1142.112604433646
 21
2375.962169128439
 31
0.0
  0
LINE
  5
121
330
1F
100
AcDbEntity
  8
0-4_枠
  6
Continuous
 62
   120
370
     5
100
AcDbLine
 10
-2246.197741501334
 20
1832.96216897379
 30
0.0
 11
-1142.112604433642
 21
1832.96216897379
 31
0.0
  0
LINE
  5
122
330
1F
100
AcDbEntity
  8
0-4_枠
  6
Continuous
 62
   120
370
     5
100
AcDbLine
 10
-2246.197741501334
 20
2510.962168973792
 30
0.0
 11
-1142.112604433642
 21
2510.962168973792
 31
0.0
  0
LINE
  5
123
330
1F
100
AcDbEntity
  8
0-3_仕上げ
  6
Continuous
 62
    40
370
    15
100
AcDbLine
 10
-2756.197741501334
 20
2600.962168973792
 30
0.0
 11
-1142.112604433642
 21
2600.962168973792
 31
0.0
  0
LINE
  5
124
330
1F
100
AcDbEntity
  8
0-1_通り芯
  6
JWW_CENTER1
 62
   120
370
     5
100
AcDbLine
 10
-2456.197741501334
 20
2510.962396618428
 30
0.0
 11
-2456.197741501334
 21
641.9626391094541
 31
0.0
  0
LINE
  5
125
330
1F
100
AcDbEntity
  8
0-B_寸法
  6
Continuous
 62
   120
370
     5
100
AcDbLine
 10
-2246.197741501334
 20
1421.962713341401
 30
0.0
 11
-2246.197741501334
 21
851.9626391094541
 31
0.0
  0
LWPOLYLINE
  5
126
330
1F
100
AcDbEntity
  8
0-B_寸法
  6
Continuous
 62
     7
370
     9
100
AcDbPolyline
 90
        4
 70
     1
 43
3.0
 10
-2244.697741501335
 20
851.9626391094541
 42
0.4142135623731
 10
-2246.197741501334
 20
853.4626391094542
 42
0.4142135623731
 10
-2247.697741501334
 20
851.9626391094541
 42
0.4142135623731
 10
-2246.197741501334
 20
850.4626391094541
 42
0.4142135623731
  0
LWPOLYLINE
  5
127
330
1F
100
AcDbEntity
  8
0-B_寸法
  6
Continuous
 62
     7
370
     9
100
AcDbPolyline
 90
        4
 70
     1
 43
3.0
 10
-2424.697741501335
 20
851.9626391094541
 42
0.4142135623731
 10
-2426.197741501334
 20
853.4626391094542
 42
0.4142135623731
 10
-2427.697741501334
 20
851.9626391094541
 42
0.4142135623731
 10
-2426.197741501334
 20
850.4626391094541
 42
0.4142135623731
  0
MTEXT
  5
128
330
1F
100
AcDbEntity
  8
0-B_寸法
  6
Continuous
 62
     7
370
     0
100
AcDbMText
 10
-2399.94766726939
 20
855.5401885974195
 30
0.0
 40
97.15499999999999
 41
127.5
 46
0.0
 71
     7
 72
     1
  1
{\fＭＳ ゴシック|b0|i0|c128|p49;30}
 73
     1
 44
1.0
  0
LINE
  5
129
330
1F
100
AcDbEntity
  8
0-B_寸法
  6
Continuous
 62
   120
370
     5
100
AcDbLine
 10
-2426.197741501334
 20
1421.962713341401
 30
0.0
 11
-2426.197741501334
 21
641.9626391094541
 31
0.0
  0
LWPOLYLINE
  5
12A
330
1F
100
AcDbEntity
  8
0-B_寸法
  6
Continuous
 62
     7
370
     9
100
AcDbPolyline
 90
        4
 70
     1
 43
3.0
 10
-2424.697741501335
 20
641.9626391094541
 42
0.4142135623731
 10
-2426.197741501334
 20
643.4626391094542
 42
0.4142135623731
 10
-2427.697741501334
 20
641.9626391094541
 42
0.4142135623731
 10
-2426.197741501334
 20
640.4626391094541
 42
0.4142135623731
  0
LWPOLYLINE
  5
12B
330
1F
100
AcDbEntity
  8
0-B_寸法
  6
Continuous
 62
     7
370
     9
100
AcDbPolyline
 90
        4
 70
     1
 43
3.0
 10
-2454.697741501335
 20
641.9626391094541
 42
0.4142135623731
 10
-2456.197741501334
 20
643.4626391094542
 42
0.4142135623731
 10
-2457.697741501334
 20
641.9626391094541
 42
0.4142135623731
 10
-2456.197741501334
 20
640.4626391094541
 42
0.4142135623731
  0
LINE
  5
12C
330
1F
100
AcDbEntity
  8
0-B_寸法
  6
Continuous
 62
   120
370
     5
100
AcDbLine
 10
-2456.197741501334
 20
431.9626391094542
 30
0.0
 11
-2456.197741501334
 21
1421.962713341401
 31
0.0
  0
MTEXT
  5
12D
330
1F
100
AcDbEntity
  8
0-B_寸法
  6
Continuous
 62
     7
370
   211
100
AcDbMText
 10
-2399.971976598832
 20
642.6826391094542
 30
0.0
 40
91.44
 41
60.0
 46
0.0
 71
     7
 72
     1
  1
{\fＭＳ ゴシック|b0|i0|c128|p49;5}
 73
     1
 44
1.0
  0
LWPOLYLINE
  5
12E
330
1F
100
AcDbEntity
  8
0-B_寸法
  6
Continuous
 62
     7
370
     9
100
AcDbPolyline
 90
        4
 70
     1
 43
3.0
 10
-2454.697741501335
 20
431.9626391094542
 42
0.4142135623731
 10
-2456.197741501334
 20
433.4626391094542
 42
0.4142135623731
 10
-2457.697741501334
 20
431.9626391094542
 42
0.4142135623731
 10
-2456.197741501334
 20
430.4626391094542
 42
0.4142135623731
  0
LINE
  5
12F
330
1F
100
AcDbEntity
  8
0-B_寸法
  6
Continuous
 62
   120
370
     5
100
AcDbLine
 10
-2246.197741501334
 20
1061.961624593968
 30
0.0
 11
-98.1354469474175
 21
1061.961624593968
 31
0.0
  0
LWPOLYLINE
  5
130
330
1F
100
AcDbEntity
  8
0-B_寸法
  6
Continuous
 62
     7
370
     9
100
AcDbPolyline
 90
        4
 70
     1
 43
3.0
 10
-2244.697741501335
 20
1061.961624593968
 42
0.4142135623731
 10
-2246.197741501334
 20
1063.461624593968
 42
0.4142135623731
 10
-2247.697741501334
 20
1061.961624593968
 42
0.4142135623731
 10
-2246.197741501334
 20
1060.461624593968
 42
0.4142135623731
  0
LINE
  5
131
330
1F
100
AcDbEntity
  8
0-0_補助線
  6
JWW_HOJO
 62
   120
370
     5
100
AcDbLine
 10
-2756.197741501334
 20
2771.96162459379
 30
0.0
 11
-2756.197741501334
 21
431.9616245939677
 31
0.0
  0
LINE
  5
132
330
1F
100
AcDbEntity
  8
0-6_扉
  6
Continuous
 62
   200
370
    20
100
AcDbLine
 10
-80.13544694741768
 20
2147.962168973793
 30
0.0
 11
1041.949690120272
 21
2147.962168973793
 31
0.0
  0
LINE
  5
133
330
1F
100
AcDbEntity
  8
0-6_扉
  6
Continuous
 62
   200
370
    20
100
AcDbLine
 10
-80.13544694741768
 20
1967.962168973793
 30
0.0
 11
1041.949690120272
 21
1967.962168973793
 31
0.0
  0
LINE
  5
134
330
1F
100
AcDbEntity
  8
0-0_補助線
  6
JWW_HOJO
 62
   120
370
     5
100
AcDbLine
 10
1162.003679911004
 20
2771.96162459379
 30
0.0
 11
1162.003679911004
 21
1781.961624593968
 31
0.0
  0
LINE
  5
135
330
1F
100
AcDbEntity
  8
0-0_補助線
  6
JWW_HOJO
 62
   120
370
     5
100
AcDbLine
 10
1042.003679911004
 20
2771.96162459379
 30
0.0
 11
1042.003679911004
 21
1781.961624593968
 31
0.0
  0
LINE
  5
136
330
1F
100
AcDbEntity
  8
0-6_扉
  6
JWW_DASHED2
 62
    40
370
    15
100
AcDbLine
 10
-98.13544694741879
 20
2375.962168973789
 30
0.0
 11
1042.003679911004
 21
2375.962168973789
 31
0.0
  0
LINE
  5
137
330
1F
100
AcDbEntity
  8
0-6_扉
  6
JWW_DASHED2
 62
    40
370
    15
100
AcDbLine
 10
-98.13544694741879
 20
2195.962168973789
 30
0.0
 11
1042.003679911004
 21
2195.962168973789
 31
0.0
  0
LINE
  5
138
330
1F
100
AcDbEntity
  8
0-3_仕上げ
  6
Continuous
 62
    40
370
    15
100
AcDbLine
 10
-1022.112604433642
 20
2600.962168973792
 30
0.0
 11
1042.003679911004
 21
2600.962168973792
 31
0.0
  0
LINE
  5
139
330
1F
100
AcDbEntity
  8
0-4_枠
  6
Continuous
 62
   120
370
     5
100
AcDbLine
 10
-1022.112604433642
 20
1832.96216897379
 30
0.0
 11
1042.003679911004
 21
1832.96216897379
 31
0.0
  0
LINE
  5
13A
330
1F
100
AcDbEntity
  8
0-4_枠
  6
Continuous
 62
   120
370
     5
100
AcDbLine
 10
-1022.112604433642
 20
2510.962168973792
 30
0.0
 11
1042.003679911004
 21
2510.962168973792
 31
0.0
  0
LINE
  5
13B
330
1F
100
AcDbEntity
  8
0-7_金物
  6
Continuous
 62
     7
370
     9
100
AcDbLine
 10
2464.034490669801
 20
2147.554561353966
 30
0.0
 11
2464.034490669801
 21
1967.554709817859
 31
0.0
  0
LINE
  5
13C
330
1F
100
AcDbEntity
  8
0-7_金物
  6
Continuous
 62
     7
370
     9
100
AcDbLine
 10
2476.034827187961
 20
1967.554709817859
 30
0.0
 11
2464.034490669801
 21
1967.554709817859
 31
0.0
  0
LINE
  5
13D
330
1F
100
AcDbEntity
  8
0-7_金物
  6
Continuous
 62
     7
370
     9
100
AcDbLine
 10
2476.034827187961
 20
2147.554561353966
 30
0.0
 11
2464.034490669801
 21
2147.554561353966
 31
0.0
  0
LINE
  5
13E
330
1F
100
AcDbEntity
  8
0-7_金物
  6
Continuous
 62
     7
370
     9
100
AcDbLine
 10
2476.034827187961
 20
2147.554561353966
 30
0.0
 11
2476.034827187961
 21
1967.554709817859
 31
0.0
  0
LINE
  5
13F
330
1F
100
AcDbEntity
  8
0-7_金物
  6
Continuous
 62
     7
370
     9
100
AcDbLine
 10
2464.034490669801
 20
2117.554462378036
 30
0.0
 11
2452.034896471111
 21
2117.554462378036
 31
0.0
  0
LINE
  5
140
330
1F
100
AcDbEntity
  8
0-7_金物
  6
Continuous
 62
     7
370
     9
100
AcDbLine
 10
2464.034490669801
 20
1997.554808793788
 30
0.0
 11
2452.034896471111
 21
1997.554808793788
 31
0.0
  0
LINE
  5
141
330
1F
100
AcDbEntity
  8
0-7_金物
  6
Continuous
 62
     7
370
     9
100
AcDbLine
 10
2452.034896471111
 20
2117.554462378036
 30
0.0
 11
2452.034896471111
 21
1997.554808793788
 31
0.0
  0
LINE
  5
142
330
1F
100
AcDbEntity
  8
0-7_金物
  6
Continuous
 62
     7
370
     9
100
AcDbLine
 10
2452.034896471111
 20
2003.554234733399
 30
0.0
 11
2445.99273767413
 21
2003.554234733399
 31
0.0
  0
LINE
  5
143
330
1F
100
AcDbEntity
  8
0-7_金物
  6
Continuous
 62
     7
370
     9
100
AcDbLine
 10
2452.034896471111
 20
2111.554294118958
 30
0.0
 11
2445.99273767413
 21
2111.554294118958
 31
0.0
  0
LINE
  5
144
330
1F
100
AcDbEntity
  8
0-C_ハッチ
  6
Continuous
 62
   120
370
     5
100
AcDbLine
 10
2326.034827187964
 20
2458.222281739259
 30
0.0
 11
2269.034827187958
 21
2401.222281739253
 31
0.0
  0
LINE
  5
145
330
1F
100
AcDbEntity
  8
0-4_枠
  6
Continuous
 62
    92
370
    13
100
AcDbLine
 10
2326.034827187961
 20
1892.962168973791
 30
0.0
 11
2326.034827187961
 21
1832.96216897379
 31
0.0
  0
LINE
  5
146
330
1F
100
AcDbEntity
  8
0-4_枠
  6
Continuous
 62
    92
370
    13
100
AcDbLine
 10
2380.03482718796
 20
1892.962168973791
 30
0.0
 11
2380.03482718796
 21
1832.96216897379
 31
0.0
  0
LINE
  5
147
330
1F
100
AcDbEntity
  8
0-4_枠
  6
Continuous
 62
    92
370
    13
100
AcDbLine
 10
2326.034827187961
 20
1892.962168973791
 30
0.0
 11
2380.03482718796
 21
1892.962168973791
 31
0.0
  0
LINE
  5
148
330
1F
100
AcDbEntity
  8
0-4_枠
  6
Continuous
 62
    92
370
    13
100
AcDbLine
 10
2416.034827187961
 20
1874.96216897379
 30
0.0
 11
2446.034827187961
 21
1874.96216897379
 31
0.0
  0
LINE
  5
149
330
1F
100
AcDbEntity
  8
0-4_枠
  6
Continuous
 62
    92
370
    13
100
AcDbLine
 10
2416.034827187961
 20
1874.96216897379
 30
0.0
 11
2416.034827187961
 21
1832.96216897379
 31
0.0
  0
LINE
  5
14A
330
1F
100
AcDbEntity
  8
0-4_枠
  6
Continuous
 62
    92
370
    13
100
AcDbLine
 10
2380.03482718796
 20
1832.96216897379
 30
0.0
 11
2416.034827187961
 21
1832.96216897379
 31
0.0
  0
LINE
  5
14B
330
1F
100
AcDbEntity
  8
0-4_枠
  6
Continuous
 62
    92
370
    13
100
AcDbLine
 10
2326.034827187961
 20
2450.962168973792
 30
0.0
 11
2326.034827187961
 21
2510.962168973792
 31
0.0
  0
LINE
  5
14C
330
1F
100
AcDbEntity
  8
0-4_枠
  6
Continuous
 62
    92
370
    13
100
AcDbLine
 10
2380.03482718796
 20
2450.962168973792
 30
0.0
 11
2380.03482718796
 21
2510.962168973792
 31
0.0
  0
LINE
  5
14D
330
1F
100
AcDbEntity
  8
0-4_枠
  6
Continuous
 62
    92
370
    13
100
AcDbLine
 10
2326.034827187961
 20
2450.962168973792
 30
0.0
 11
2380.03482718796
 21
2450.962168973792
 31
0.0
  0
LINE
  5
14E
330
1F
100
AcDbEntity
  8
0-4_枠
  6
Continuous
 62
    92
370
    13
100
AcDbLine
 10
2416.034827187961
 20
2468.96216897379
 30
0.0
 11
2446.034827187961
 21
2468.96216897379
 31
0.0
  0
LINE
  5
14F
330
1F
100
AcDbEntity
  8
0-4_枠
  6
Continuous
 62
    92
370
    13
100
AcDbLine
 10
2416.034827187961
 20
2468.96216897379
 30
0.0
 11
2416.034827187961
 21
2510.962168973792
 31
0.0
  0
LINE
  5
150
330
1F
100
AcDbEntity
  8
0-4_枠
  6
Continuous
 62
    92
370
    13
100
AcDbLine
 10
2380.03482718796
 20
2510.962168973792
 30
0.0
 11
2416.034827187961
 21
2510.962168973792
 31
0.0
  0
LINE
  5
151
330
1F
100
AcDbEntity
  8
0-4_枠
  6
Continuous
 62
    92
370
    13
100
AcDbLine
 10
2446.034827187961
 20
1874.96216897379
 30
0.0
 11
2446.034827187961
 21
2468.96216897379
 31
0.0
  0
LINE
  5
152
330
1F
100
AcDbEntity
  8
0-4_枠
  6
Continuous
 62
    92
370
    13
100
AcDbLine
 10
2326.034827187961
 20
1832.96216897379
 30
0.0
 11
2266.034827187961
 21
1832.96216897379
 31
0.0
  0
LINE
  5
153
330
1F
100
AcDbEntity
  8
0-4_枠
  6
Continuous
 62
    92
370
    13
100
AcDbLine
 10
2326.034827187961
 20
1835.96216897379
 30
0.0
 11
2269.03482718796
 21
1835.96216897379
 31
0.0
  0
LINE
  5
154
330
1F
100
AcDbEntity
  8
0-4_枠
  6
Continuous
 62
    92
370
    13
100
AcDbLine
 10
2326.034827187961
 20
2510.962168973792
 30
0.0
 11
2266.034827187961
 21
2510.962168973792
 31
0.0
  0
LINE
  5
155
330
1F
100
AcDbEntity
  8
0-4_枠
  6
Continuous
 62
    92
370
    13
100
AcDbLine
 10
2326.034827187961
 20
2507.962168973791
 30
0.0
 11
2269.03482718796
 21
2507.962168973791
 31
0.0
  0
LINE
  5
156
330
1F
100
AcDbEntity
  8
0-C_ハッチ
  6
Continuous
 62
   120
370
     5
100
AcDbLine
 10
2316.377744802849
 20
2507.962168973793
 30
0.0
 11
2269.034827187965
 21
2460.619251358911
 31
0.0
  0
LINE
  5
157
330
1F
100
AcDbEntity
  8
0-C_ハッチ
  6
Continuous
 62
   120
370
     5
100
AcDbLine
 10
2416.034827187968
 20
2488.825312119561
 30
0.0
 11
2380.034827187973
 21
2452.825312119566
 31
0.0
  0
LINE
  5
158
330
1F
100
AcDbEntity
  8
0-C_ハッチ
  6
Continuous
 62
   120
370
     5
100
AcDbLine
 10
2378.171684042185
 20
2450.962168973779
 30
0.0
 11
2269.034827187965
 21
2341.825312119558
 31
0.0
  0
LINE
  5
159
330
1F
100
AcDbEntity
  8
0-C_ハッチ
  6
Continuous
 62
   120
370
     5
100
AcDbLine
 10
2446.034827187961
 20
2459.428342499907
 30
0.0
 11
2269.034827187962
 21
2282.428342499909
 31
0.0
  0
LINE
  5
15A
330
1F
100
AcDbEntity
  8
0-C_ハッチ
  6
Continuous
 62
   120
370
     5
100
AcDbLine
 10
2446.034827187964
 20
2400.031372880264
 30
0.0
 11
2269.034827187952
 21
2223.03137288025
 31
0.0
  0
LINE
  5
15B
330
1F
100
AcDbEntity
  8
0-C_ハッチ
  6
Continuous
 62
   120
370
     5
100
AcDbLine
 10
2446.034827187947
 20
2043.649555162202
 30
0.0
 11
2269.034827187972
 21
1866.649555162226
 31
0.0
  0
LINE
  5
15C
330
1F
100
AcDbEntity
  8
0-C_ハッチ
  6
Continuous
 62
   120
370
     5
100
AcDbLine
 10
2446.034827187968
 20
1984.252585542575
 30
0.0
 11
2354.744410619187
 21
1892.962168973793
 31
0.0
  0
LINE
  5
15D
330
1F
100
AcDbEntity
  8
0-C_ハッチ
  6
Continuous
 62
   120
370
     5
100
AcDbLine
 10
2326.034827187964
 20
1864.252585542569
 30
0.0
 11
2297.744410619182
 21
1835.962168973786
 31
0.0
  0
LINE
  5
15E
330
1F
100
AcDbEntity
  8
0-C_ハッチ
  6
Continuous
 62
   120
370
     5
100
AcDbLine
 10
2446.034827187954
 20
1924.855615922857
 30
0.0
 11
2380.034827187953
 21
1858.855615922858
 31
0.0
  0
LINE
  5
15F
330
1F
100
AcDbEntity
  8
0-C_ハッチ
  6
Continuous
 62
   120
370
     5
100
AcDbLine
 10
2416.034827187959
 20
1835.458646303214
 30
0.0
 11
2413.538349858537
 21
1832.962168973793
 31
0.0
  0
LINE
  5
160
330
1F
100
AcDbEntity
  8
0-C_ハッチ
  6
Continuous
 62
   120
370
     5
100
AcDbLine
 10
2446.034827187964
 20
2103.046524781919
 30
0.0
 11
2305.03482718796
 21
1962.046524781915
 31
0.0
  0
LINE
  5
161
330
1F
100
AcDbEntity
  8
0-C_ハッチ
  6
Continuous
 62
   120
370
     5
100
AcDbLine
 10
2446.034827187959
 20
2162.443494401561
 30
0.0
 11
2305.03482718796
 21
2021.44349440156
 31
0.0
  0
LINE
  5
162
330
1F
100
AcDbEntity
  8
0-C_ハッチ
  6
Continuous
 62
   120
370
     5
100
AcDbLine
 10
2446.034827187954
 20
2221.840464021202
 30
0.0
 11
2305.03482718796
 21
2080.840464021207
 31
0.0
  0
LINE
  5
163
330
1F
100
AcDbEntity
  8
0-C_ハッチ
  6
Continuous
 62
   120
370
     5
100
AcDbLine
 10
2446.034827187969
 20
2281.23743364092
 30
0.0
 11
2305.03482718796
 21
2140.237433640909
 31
0.0
  0
LINE
  5
164
330
1F
100
AcDbEntity
  8
0-4_枠
  6
Continuous
 62
    92
370
    13
100
AcDbLine
 10
2266.034827187961
 20
1832.96216897379
 30
0.0
 11
2266.034827187961
 21
1934.962168973792
 31
0.0
  0
LINE
  5
165
330
1F
100
AcDbEntity
  8
0-4_枠
  6
Continuous
 62
    92
370
    13
100
AcDbLine
 10
2269.03482718796
 20
1835.96216897379
 30
0.0
 11
2269.03482718796
 21
1931.962168973793
 31
0.0
  0
LINE
  5
166
330
1F
100
AcDbEntity
  8
0-4_枠
  6
Continuous
 62
    92
370
    13
100
AcDbLine
 10
2302.034827187959
 20
1934.962168973792
 30
0.0
 11
2266.034827187961
 21
1934.962168973792
 31
0.0
  0
LINE
  5
167
330
1F
100
AcDbEntity
  8
0-4_枠
  6
Continuous
 62
    92
370
    13
100
AcDbLine
 10
2305.03482718796
 20
1931.962168973793
 30
0.0
 11
2269.03482718796
 21
1931.962168973793
 31
0.0
  0
LINE
  5
168
330
1F
100
AcDbEntity
  8
0-4_枠
  6
Continuous
 62
    92
370
    13
100
AcDbLine
 10
2302.034827187959
 20
1934.962168973792
 30
0.0
 11
2302.034827187959
 21
2180.962168973792
 31
0.0
  0
LINE
  5
169
330
1F
100
AcDbEntity
  8
0-4_枠
  6
Continuous
 62
    92
370
    13
100
AcDbLine
 10
2305.03482718796
 20
1931.962168973793
 30
0.0
 11
2305.03482718796
 21
2183.962168973793
 31
0.0
  0
LINE
  5
16A
330
1F
100
AcDbEntity
  8
0-4_枠
  6
Continuous
 62
    92
370
    13
100
AcDbLine
 10
2266.034827187961
 20
2510.962168973792
 30
0.0
 11
2266.034827187961
 21
2180.962168973792
 31
0.0
  0
LINE
  5
16B
330
1F
100
AcDbEntity
  8
0-4_枠
  6
Continuous
 62
    92
370
    13
100
AcDbLine
 10
2269.03482718796
 20
2507.962168973791
 30
0.0
 11
2269.03482718796
 21
2183.962168973793
 31
0.0
  0
LINE
  5
16C
330
1F
100
AcDbEntity
  8
0-4_枠
  6
Continuous
 62
    92
370
    13
100
AcDbLine
 10
2302.034827187959
 20
2180.962168973792
 30
0.0
 11
2266.034827187961
 21
2180.962168973792
 31
0.0
  0
LINE
  5
16D
330
1F
100
AcDbEntity
  8
0-4_枠
  6
Continuous
 62
    92
370
    13
100
AcDbLine
 10
2305.03482718796
 20
2183.962168973793
 30
0.0
 11
2269.03482718796
 21
2183.962168973793
 31
0.0
  0
LINE
  5
16E
330
1F
100
AcDbEntity
  8
0-C_ハッチ
  6
Continuous
 62
   120
370
     5
100
AcDbLine
 10
2274.95047137984
 20
1931.962168973793
 30
0.0
 11
2269.034827187957
 21
1926.046524781909
 31
0.0
  0
LINE
  5
16F
330
1F
100
AcDbEntity
  8
0-C_ハッチ
  6
Continuous
 62
   120
370
     5
100
AcDbLine
 10
2446.034827187949
 20
2340.634403260547
 30
0.0
 11
2289.362592901196
 21
2183.962168973793
 31
0.0
  0
ARC
  5
170
330
1F
100
AcDbEntity
  8
0-7_金物
  6
Continuous
 62
     7
370
     9
100
AcDbCircle
 10
2449.784827187959
 20
2057.962168973792
 30
0.0
 40
171.7499999999977
100
AcDbArc
 50
164.8107132628169
 51
195.1892867371831
  0
LINE
  5
171
330
1F
100
AcDbEntity
  8
0-7_金物
  6
Continuous
 62
     7
370
     9
100
AcDbLine
 10
2332.034827187959
 20
2042.962168973792
 30
0.0
 11
2302.034827187959
 21
2042.962168973792
 31
0.0
  0
LINE
  5
172
330
1F
100
AcDbEntity
  8
0-7_金物
  6
Continuous
 62
     7
370
     9
100
AcDbLine
 10
2302.034827187959
 20
2072.962168973792
 30
0.0
 11
2332.034827187959
 21
2072.962168973792
 31
0.0
  0
LINE
  5
173
330
1F
100
AcDbEntity
  8
0-7_金物
  6
Continuous
 62
     7
370
     9
100
AcDbLine
 10
2302.034827187959
 20
2012.962168973792
 30
0.0
 11
2302.034827187959
 21
2102.962168973792
 31
0.0
  0
LINE
  5
174
330
1F
100
AcDbEntity
  8
0-7_金物
  6
Continuous
 62
     7
370
     9
100
AcDbLine
 10
2284.034827187958
 20
2012.962168973792
 30
0.0
 11
2302.034827187959
 21
2012.962168973792
 31
0.0
  0
LINE
  5
175
330
1F
100
AcDbEntity
  8
0-7_金物
  6
Continuous
 62
     7
370
     9
100
AcDbLine
 10
2302.034827187959
 20
2102.962168973792
 30
0.0
 11
2284.034827187958
 21
2102.962168973792
 31
0.0
  0
LINE
  5
176
330
1F
100
AcDbEntity
  8
0-7_金物
  6
Continuous
 62
     7
370
     9
100
AcDbLine
 10
2332.034827187959
 20
2072.962168973792
 30
0.0
 11
2332.034827187959
 21
2042.962168973792
 31
0.0
  0
LINE
  5
177
330
1F
100
AcDbEntity
  8
0-6_扉
  6
Continuous
 62
   200
370
    20
100
AcDbLine
 10
2284.034827187962
 20
1967.962168973793
 30
0.0
 11
2284.034827187962
 21
2147.962168973793
 31
0.0
  0
LINE
  5
178
330
1F
100
AcDbEntity
  8
0-6_扉
  6
Continuous
 62
   200
370
    20
100
AcDbLine
 10
1161.949690120272
 20
2147.962168973793
 30
0.0
 11
2284.034827187962
 21
2147.962168973793
 31
0.0
  0
LINE
  5
179
330
1F
100
AcDbEntity
  8
0-6_扉
  6
Continuous
 62
   200
370
    20
100
AcDbLine
 10
1161.949690120272
 20
1967.962168973793
 30
0.0
 11
2284.034827187962
 21
1967.962168973793
 31
0.0
  0
LINE
  5
17A
330
1F
100
AcDbEntity
  8
0-6_扉
  6
JWW_DASHED2
 62
    40
370
    15
100
AcDbLine
 10
2266.034827187961
 20
2195.962168973789
 30
0.0
 11
2266.034827187961
 21
2375.962168973789
 31
0.0
  0
LINE
  5
17B
330
1F
100
AcDbEntity
  8
0-3_仕上げ
  6
Continuous
 62
    40
370
    15
100
AcDbLine
 10
2776.034827187961
 20
2561.962168973791
 30
0.0
 11
2416.034827187961
 21
2561.962168973791
 31
0.0
  0
LINE
  5
17C
330
1F
100
AcDbEntity
  8
0-3_仕上げ
  6
Continuous
 62
    40
370
    15
100
AcDbLine
 10
2776.034827187961
 20
2486.962168973791
 30
0.0
 11
2416.034827187961
 21
2486.962168973791
 31
0.0
  0
LINE
  5
17D
330
1F
100
AcDbEntity
  8
0-3_仕上げ
  6
Continuous
 62
    40
370
    15
100
AcDbLine
 10
2416.034827187961
 20
2561.962168973791
 30
0.0
 11
2416.034827187961
 21
2486.962168973791
 31
0.0
  0
LINE
  5
17E
330
1F
100
AcDbEntity
  8
0-3_仕上げ
  6
Continuous
 62
    40
370
    15
100
AcDbLine
 10
2776.034827187961
 20
1856.962168973791
 30
0.0
 11
2416.034827187961
 21
1856.962168973791
 31
0.0
  0
LINE
  5
17F
330
1F
100
AcDbEntity
  8
0-3_仕上げ
  6
Continuous
 62
    40
370
    15
100
AcDbLine
 10
2776.034827187961
 20
1781.962168973791
 30
0.0
 11
2416.034827187961
 21
1781.962168973791
 31
0.0
  0
LINE
  5
180
330
1F
100
AcDbEntity
  8
0-3_仕上げ
  6
Continuous
 62
    40
370
    15
100
AcDbLine
 10
2416.034827187961
 20
1856.962168973791
 30
0.0
 11
2416.034827187961
 21
1781.962168973791
 31
0.0
  0
LINE
  5
181
330
1F
100
AcDbEntity
  8
0-C_ハッチ
  6
JWW_DASHED1
 62
   120
370
     5
100
AcDbLine
 10
2437.931046811914
 20
2561.962168973794
 30
0.0
 11
2416.03482718796
 21
2540.065949349842
 31
0.0
  0
LINE
  5
182
330
1F
100
AcDbEntity
  8
0-C_ハッチ
  6
JWW_DASHED1
 62
   120
370
     5
100
AcDbLine
 10
2480.35745368311
 20
2561.962168973791
 30
0.0
 11
2416.034827187956
 21
2497.639542478641
 31
0.0
  0
LINE
  5
183
330
1F
100
AcDbEntity
  8
0-C_ハッチ
  6
JWW_DASHED1
 62
   120
370
     5
100
AcDbLine
 10
2522.783860554306
 20
2561.962168973787
 30
0.0
 11
2447.78386055431
 21
2486.962168973791
 31
0.0
  0
LINE
  5
184
330
1F
100
AcDbEntity
  8
0-C_ハッチ
  6
JWW_DASHED1
 62
   120
370
     5
100
AcDbLine
 10
2565.210267425503
 20
2561.962168973784
 30
0.0
 11
2490.210267425506
 21
2486.962168973787
 31
0.0
  0
LINE
  5
185
330
1F
100
AcDbEntity
  8
0-C_ハッチ
  6
JWW_DASHED1
 62
   120
370
     5
100
AcDbLine
 10
2607.636674296653
 20
2561.962168973791
 30
0.0
 11
2532.63667429666
 21
2486.962168973794
 31
0.0
  0
LINE
  5
186
330
1F
100
AcDbEntity
  8
0-C_ハッチ
  6
JWW_DASHED1
 62
   120
370
     5
100
AcDbLine
 10
2650.06308116785
 20
2561.962168973786
 30
0.0
 11
2575.063081167856
 21
2486.962168973791
 31
0.0
  0
LINE
  5
187
330
1F
100
AcDbEntity
  8
0-C_ハッチ
  6
JWW_DASHED1
 62
   120
370
     5
100
AcDbLine
 10
2692.489488039063
 20
2561.962168973798
 30
0.0
 11
2617.489488039051
 21
2486.962168973787
 31
0.0
  0
LINE
  5
188
330
1F
100
AcDbEntity
  8
0-C_ハッチ
  6
JWW_DASHED1
 62
   120
370
     5
100
AcDbLine
 10
2734.91589491026
 20
2561.962168973794
 30
0.0
 11
2659.915894910249
 21
2486.962168973784
 31
0.0
  0
LINE
  5
189
330
1F
100
AcDbEntity
  8
0-C_ハッチ
  6
JWW_DASHED1
 62
   120
370
     5
100
AcDbLine
 10
2776.034827187961
 20
2560.654694380297
 30
0.0
 11
2702.34230178146
 21
2486.962168973798
 31
0.0
  0
LINE
  5
18A
330
1F
100
AcDbEntity
  8
0-C_ハッチ
  6
JWW_DASHED1
 62
   120
370
     5
100
AcDbLine
 10
2776.034827187961
 20
2518.228287509097
 30
0.0
 11
2744.76870865266
 21
2486.962168973798
 31
0.0
  0
LINE
  5
18B
330
1F
100
AcDbEntity
  8
0-C_ハッチ
  6
JWW_DASHED1
 62
   120
370
     5
100
AcDbLine
 10
2437.931046811914
 20
1856.962168973794
 30
0.0
 11
2416.03482718796
 21
1835.065949349843
 31
0.0
  0
LINE
  5
18C
330
1F
100
AcDbEntity
  8
0-C_ハッチ
  6
JWW_DASHED1
 62
   120
370
     5
100
AcDbLine
 10
2480.35745368311
 20
1856.962168973791
 30
0.0
 11
2416.034827187956
 21
1792.639542478641
 31
0.0
  0
LINE
  5
18D
330
1F
100
AcDbEntity
  8
0-C_ハッチ
  6
JWW_DASHED1
 62
   120
370
     5
100
AcDbLine
 10
2522.783860554306
 20
1856.962168973787
 30
0.0
 11
2447.78386055431
 21
1781.962168973791
 31
0.0
  0
LINE
  5
18E
330
1F
100
AcDbEntity
  8
0-C_ハッチ
  6
JWW_DASHED1
 62
   120
370
     5
100
AcDbLine
 10
2565.210267425503
 20
1856.962168973784
 30
0.0
 11
2490.210267425506
 21
1781.962168973787
 31
0.0
  0
LINE
  5
18F
330
1F
100
AcDbEntity
  8
0-C_ハッチ
  6
JWW_DASHED1
 62
   120
370
     5
100
AcDbLine
 10
2607.636674296653
 20
1856.962168973791
 30
0.0
 11
2532.63667429666
 21
1781.962168973794
 31
0.0
  0
LINE
  5
190
330
1F
100
AcDbEntity
  8
0-C_ハッチ
  6
JWW_DASHED1
 62
   120
370
     5
100
AcDbLine
 10
2650.06308116785
 20
1856.962168973786
 30
0.0
 11
2575.063081167856
 21
1781.962168973791
 31
0.0
  0
LINE
  5
191
330
1F
100
AcDbEntity
  8
0-C_ハッチ
  6
JWW_DASHED1
 62
   120
370
     5
100
AcDbLine
 10
2692.489488039063
 20
1856.962168973798
 30
0.0
 11
2617.489488039051
 21
1781.962168973787
 31
0.0
  0
LINE
  5
192
330
1F
100
AcDbEntity
  8
0-C_ハッチ
  6
JWW_DASHED1
 62
   120
370
     5
100
AcDbLine
 10
2734.91589491026
 20
1856.962168973794
 30
0.0
 11
2659.915894910249
 21
1781.962168973784
 31
0.0
  0
LINE
  5
193
330
1F
100
AcDbEntity
  8
0-C_ハッチ
  6
JWW_DASHED1
 62
   120
370
     5
100
AcDbLine
 10
2776.034827187961
 20
1855.654694380297
 30
0.0
 11
2702.34230178146
 21
1781.962168973798
 31
0.0
  0
LINE
  5
194
330
1F
100
AcDbEntity
  8
0-C_ハッチ
  6
JWW_DASHED1
 62
   120
370
     5
100
AcDbLine
 10
2776.034827187961
 20
1813.228287509097
 30
0.0
 11
2744.76870865266
 21
1781.962168973798
 31
0.0
  0
LINE
  5
195
330
1F
100
AcDbEntity
  8
0-2_柱
  6
Continuous
 62
     7
370
     9
100
AcDbLine
 10
2476.034827187961
 20
2486.962168973791
 30
0.0
 11
2476.034827187961
 21
1856.962168973791
 31
0.0
  0
LINE
  5
196
330
1F
100
AcDbEntity
  8
0-2_柱
  6
Continuous
 62
     7
370
     9
100
AcDbLine
 10
2638.034827187961
 20
2486.962168973791
 30
0.0
 11
2476.034827187961
 21
2486.962168973791
 31
0.0
  0
LINE
  5
197
330
1F
100
AcDbEntity
  8
0-2_柱
  6
Continuous
 62
     7
370
     9
100
AcDbLine
 10
2638.034827187961
 20
1856.962168973791
 30
0.0
 11
2638.034827187961
 21
2486.962168973791
 31
0.0
  0
LINE
  5
198
330
1F
100
AcDbEntity
  8
0-2_柱
  6
Continuous
 62
     7
370
     9
100
AcDbLine
 10
2476.034827187961
 20
1856.962168973791
 30
0.0
 11
2638.034827187961
 21
1856.962168973791
 31
0.0
  0
LINE
  5
199
330
1F
100
AcDbEntity
  8
0-2_柱
  6
Continuous
 62
     7
370
     9
100
AcDbLine
 10
2476.034827187961
 20
1856.962168973791
 30
0.0
 11
2638.034827187961
 21
2486.962168973791
 31
0.0
  0
LINE
  5
19A
330
1F
100
AcDbEntity
  8
0-6_扉
  6
JWW_DASHED2
 62
    40
370
    15
100
AcDbLine
 10
1162.003679911004
 20
2375.962168973789
 30
0.0
 11
2266.034827187961
 21
2375.962168973789
 31
0.0
  0
LINE
  5
19B
330
1F
100
AcDbEntity
  8
0-6_扉
  6
JWW_DASHED2
 62
    40
370
    15
100
AcDbLine
 10
1162.003679911004
 20
2195.962168973789
 30
0.0
 11
2266.034827187961
 21
2195.962168973789
 31
0.0
  0
LINE
  5
19C
330
1F
100
AcDbEntity
  8
0-4_枠
  6
Continuous
 62
   120
370
     5
100
AcDbLine
 10
1162.003679911004
 20
1832.96216897379
 30
0.0
 11
2266.034827187961
 21
1832.96216897379
 31
0.0
  0
LINE
  5
19D
330
1F
100
AcDbEntity
  8
0-4_枠
  6
Continuous
 62
   120
370
     5
100
AcDbLine
 10
1162.003679911004
 20
2510.962168973792
 30
0.0
 11
2266.034827187961
 21
2510.962168973792
 31
0.0
  0
LINE
  5
19E
330
1F
100
AcDbEntity
  8
0-3_仕上げ
  6
Continuous
 62
    40
370
    15
100
AcDbLine
 10
1162.003679911004
 20
2600.962168973792
 30
0.0
 11
2776.034827187961
 21
2600.962168973792
 31
0.0
  0
LINE
  5
19F
330
1F
100
AcDbEntity
  8
0-1_通り芯
  6
JWW_CENTER1
 62
   120
370
     5
100
AcDbLine
 10
2476.034827187961
 20
2510.962396618428
 30
0.0
 11
2476.034827187961
 21
641.9626391094541
 31
0.0
  0
LINE
  5
1A0
330
1F
100
AcDbEntity
  8
0-B_寸法
  6
Continuous
 62
   120
370
     5
100
AcDbLine
 10
2266.034827187961
 20
1421.962713341401
 30
0.0
 11
2266.034827187961
 21
851.9626391094541
 31
0.0
  0
LWPOLYLINE
  5
1A1
330
1F
100
AcDbEntity
  8
0-B_寸法
  6
Continuous
 62
     7
370
     9
100
AcDbPolyline
 90
        4
 70
     1
 43
3.0
 10
2267.534827187961
 20
851.9626391094541
 42
0.4142135623731
 10
2266.034827187961
 20
853.4626391094542
 42
0.4142135623731
 10
2264.534827187961
 20
851.9626391094541
 42
0.4142135623731
 10
2266.034827187961
 20
850.4626391094541
 42
0.4142135623731
  0
LWPOLYLINE
  5
1A2
330
1F
100
AcDbEntity
  8
0-B_寸法
  6
Continuous
 62
     7
370
     9
100
AcDbPolyline
 90
        4
 70
     1
 43
3.0
 10
2447.534827187961
 20
851.9626391094541
 42
0.4142135623731
 10
2446.034827187961
 20
853.4626391094542
 42
0.4142135623731
 10
2444.534827187961
 20
851.9626391094541
 42
0.4142135623731
 10
2446.034827187961
 20
850.4626391094541
 42
0.4142135623731
  0
MTEXT
  5
1A3
330
1F
100
AcDbEntity
  8
0-B_寸法
  6
Continuous
 62
     7
370
     0
100
AcDbMText
 10
2292.285495275482
 20
855.5401885974195
 30
0.0
 40
97.15499999999999
 41
127.5
 46
0.0
 71
     7
 72
     1
  1
{\fＭＳ ゴシック|b0|i0|c128|p49;30}
 73
     1
 44
1.0
  0
LINE
  5
1A4
330
1F
100
AcDbEntity
  8
0-B_寸法
  6
Continuous
 62
   120
370
     5
100
AcDbLine
 10
2446.034827187961
 20
1421.962713341401
 30
0.0
 11
2446.034827187961
 21
641.9626391094541
 31
0.0
  0
LWPOLYLINE
  5
1A5
330
1F
100
AcDbEntity
  8
0-B_寸法
  6
Continuous
 62
     7
370
     9
100
AcDbPolyline
 90
        4
 70
     1
 43
3.0
 10
2447.534827187961
 20
641.9626391094541
 42
0.4142135623731
 10
2446.034827187961
 20
643.4626391094542
 42
0.4142135623731
 10
2444.534827187961
 20
641.9626391094541
 42
0.4142135623731
 10
2446.034827187961
 20
640.4626391094541
 42
0.4142135623731
  0
LWPOLYLINE
  5
1A6
330
1F
100
AcDbEntity
  8
0-B_寸法
  6
Continuous
 62
     7
370
     9
100
AcDbPolyline
 90
        4
 70
     1
 43
3.0
 10
2477.534827187961
 20
641.9626391094541
 42
0.4142135623731
 10
2476.034827187961
 20
643.4626391094542
 42
0.4142135623731
 10
2474.534827187961
 20
641.9626391094541
 42
0.4142135623731
 10
2476.034827187961
 20
640.4626391094541
 42
0.4142135623731
  0
LINE
  5
1A7
330
1F
100
AcDbEntity
  8
0-B_寸法
  6
Continuous
 62
   120
370
     5
100
AcDbLine
 10
2476.034827187961
 20
431.9626391094542
 30
0.0
 11
2476.034827187961
 21
1421.962713341401
 31
0.0
  0
MTEXT
  5
1A8
330
1F
100
AcDbEntity
  8
0-B_寸法
  6
Continuous
 62
     7
370
   211
100
AcDbMText
 10
2380.613713916975
 20
642.6826391094542
 30
0.0
 40
91.44
 41
60.0
 46
0.0
 71
     7
 72
     1
  1
{\fＭＳ ゴシック|b0|i0|c128|p49;5}
 73
     1
 44
1.0
  0
LWPOLYLINE
  5
1A9
330
1F
100
AcDbEntity
  8
0-B_寸法
  6
Continuous
 62
     7
370
     9
100
AcDbPolyline
 90
        4
 70
     1
 43
3.0
 10
2477.534827187961
 20
431.9626391094542
 42
0.4142135623731
 10
2476.034827187961
 20
433.4626391094542
 42
0.4142135623731
 10
2474.534827187961
 20
431.9626391094542
 42
0.4142135623731
 10
2476.034827187961
 20
430.4626391094542
 42
0.4142135623731
  0
LINE
  5
1AA
330
1F
100
AcDbEntity
  8
0-B_寸法
  6
Continuous
 62
   120
370
     5
100
AcDbLine
 10
-98.1354469474175
 20
1061.961624593968
 30
0.0
 11
2266.034827187961
 21
1061.961624593968
 31
0.0
  0
LWPOLYLINE
  5
1AB
330
1F
100
AcDbEntity
  8
0-B_寸法
  6
Continuous
 62
     7
370
     9
100
AcDbPolyline
 90
        4
 70
     1
 43
3.0
 10
2267.534827187961
 20
1061.961624593968
 42
0.4142135623731
 10
2266.034827187961
 20
1063.461624593968
 42
0.4142135623731
 10
2264.534827187961
 20
1061.961624593968
 42
0.4142135623731
 10
2266.034827187961
 20
1060.461624593968
 42
0.4142135623731
  0
LINE
  5
1AC
330
1F
100
AcDbEntity
  8
0-0_補助線
  6
JWW_HOJO
 62
   120
370
     5
100
AcDbLine
 10
2776.034827187961
 20
431.9616245939677
 30
0.0
 11
2776.034827187961
 21
2771.96162459379
 31
0.0
  0
MTEXT
  5
1AD
330
1F
100
AcDbEntity
  8
0-A_文字
  6
Continuous
 62
     7
370
     0
100
AcDbMText
 10
2536.034827187961
 20
2640.571663017821
 30
0.0
 40
91.44
 41
240.0
 46
0.0
 71
     7
 72
     1
  1
{\fＭＳ ゴシック|b0|i0|c128|p49;畳寄}
 73
     1
 44
1.0
  0
LINE
  5
1AE
330
1F
100
AcDbEntity
  8
0-A_文字
  6
Continuous
 62
     7
370
     9
100
AcDbLine
 10
2545.595460021439
 20
2714.851663017821
 30
0.0
 11
2506.034827187961
 21
2714.851663017821
 31
0.0
  0
LINE
  5
1AF
330
1F
100
AcDbEntity
  8
0-A_文字
  6
Continuous
 62
     7
370
     9
100
AcDbLine
 10
2446.256689509573
 20
2572.521884793917
 30
0.0
 11
2506.034827187961
 21
2714.851663017821
 31
0.0
  0
LINE
  5
1B0
330
1F
100
AcDbEntity
  8
0-0_補助線
  6
JWW_HOJO
 62
   120
370
     5
100
AcDbLine
 10
-2756.197741501334
 20
2771.96162459379
 30
0.0
 11
2776.034827187961
 21
2771.96162459379
 31
0.0
  0
LINE
  5
1B1
330
1F
100
AcDbEntity
  8
0-0_補助線
  6
JWW_HOJO
 62
   120
370
     5
100
AcDbLine
 10
-2756.197741501334
 20
1781.961624593968
 30
0.0
 11
2776.034827187961
 21
1781.961624593968
 31
0.0
  0
LINE
  5
1B2
330
1F
100
AcDbEntity
  8
0-1_通り芯
  6
JWW_CENTER1
 62
   120
370
     5
100
AcDbLine
 10
-2756.197741501334
 20
2171.962168973791
 30
0.0
 11
2776.034827187961
 21
2171.962168973791
 31
0.0
  0
LINE
  5
1B3
330
1F
100
AcDbEntity
  8
0-0_補助線
  6
JWW_HOJO
 62
   120
370
     5
100
AcDbLine
 10
-2756.197741501334
 20
1421.961624593968
 30
0.0
 11
2776.034827187961
 21
1421.961624593968
 31
0.0
  0
LINE
  5
1B4
330
1F
100
AcDbEntity
  8
0-0_補助線
  6
JWW_HOJO
 62
   120
370
     5
100
AcDbLine
 10
-2756.197741501334
 20
1061.961624593968
 30
0.0
 11
2776.034827187961
 21
1061.961624593968
 31
0.0
  0
LINE
  5
1B5
330
1F
100
AcDbEntity
  8
0-0_補助線
  6
JWW_HOJO
 62
   120
370
     5
100
AcDbLine
 10
-2756.197741501334
 20
851.9616245939677
 30
0.0
 11
2776.034827187961
 21
851.9616245939677
 31
0.0
  0
LINE
  5
1B6
330
1F
100
AcDbEntity
  8
0-0_補助線
  6
JWW_HOJO
 62
   120
370
     5
100
AcDbLine
 10
-2756.197741501334
 20
641.9616245939677
 30
0.0
 11
2776.034827187961
 21
641.9616245939677
 31
0.0
  0
LINE
  5
1B7
330
1F
100
AcDbEntity
  8
0-B_寸法
  6
Continuous
 62
   120
370
     5
100
AcDbLine
 10
-2426.197741501334
 20
851.9626391094541
 30
0.0
 11
2446.034827187961
 21
851.9626391094541
 31
0.0
  0
LINE
  5
1B8
330
1F
100
AcDbEntity
  8
0-B_寸法
  6
Continuous
 62
   120
370
     5
100
AcDbLine
 10
-2456.197741501334
 20
641.9626391094541
 30
0.0
 11
2476.034827187961
 21
641.9626391094541
 31
0.0
  0
LINE
  5
1B9
330
1F
100
AcDbEntity
  8
0-B_寸法
  6
Continuous
 62
   120
370
     5
100
AcDbLine
 10
2476.034827187961
 20
431.9626391094542
 30
0.0
 11
-2456.197741501334
 21
431.9626391094542
 31
0.0
  0
LINE
  5
1BA
330
1F
100
AcDbEntity
  8
0-0_補助線
  6
JWW_HOJO
 62
   120
370
     5
100
AcDbLine
 10
-2756.197741501334
 20
431.9616245939677
 30
0.0
 11
2776.034827187961
 21
431.9616245939677
 31
0.0
  0
MTEXT
  5
1BB
330
1F
100
AcDbEntity
  8
0-B_寸法
  6
Continuous
 62
     7
370
     0
100
AcDbMText
 10
622.0036799110042
 20
1983.682168973792
 30
0.0
 40
91.44
 41
960.0
 46
0.0
 71
     7
 72
     1
  1
{\fＭＳ ゴシック|b0|i0|c128|p49;ＤＷ＝900（810）}
 73
     1
 44
1.0
  0
MTEXT
  5
1BC
330
1F
100
AcDbEntity
  8
0-B_寸法
  6
Continuous
 62
     7
370
   211
100
AcDbMText
 10
784.0036799110039
 20
1067.761624593968
 30
0.0
 40
101.6
 41
600.0
 46
0.0
 71
     7
 72
     1
  1
{\fＭＳ ゴシック|b0|i0|c128|p49;900（810)}
 73
     1
 44
1.0
  0
MTEXT
  5
1BD
330
1F
100
AcDbEntity
  8
0-B_寸法
  6
Continuous
 62
     7
370
   211
100
AcDbMText
 10
-1944.666594224376
 20
1068.148146333098
 30
0.0
 40
102.3730434782609
 41
1545.0
 46
0.0
 71
     7
 72
     1
  1
{\fＭＳ ゴシック|b0|i0|c128|p49;有効開口寸法＝864（774)}
 73
     1
 44
1.0
  0
MTEXT
  5
1BE
330
1F
100
AcDbEntity
  8
0-B_寸法
  6
Continuous
 62
     7
370
     0
100
AcDbMText
 10
-1676.608083609552
 20
2211.682168973789
 30
0.0
 40
91.44
 41
960.0
 46
0.0
 71
     7
 72
     1
  1
{\fＭＳ ゴシック|b0|i0|c128|p49;ＤＷ＝900（810）}
 73
     1
 44
1.0
  0
LINE
  5
1BF
330
1F
100
AcDbEntity
  8
0-4_枠
  6
Continuous
 62
   120
370
     5
100
AcDbLine
 10
-1259.197741501337
 20
-558.8487132713755
 30
0.0
 11
-1250.19774150134
 21
-558.8487132713755
 31
0.0
  0
LINE
  5
1C0
330
1F
100
AcDbEntity
  8
0-4_枠
  6
Continuous
 62
   120
370
     5
100
AcDbLine
 10
-1919.197741501342
 20
-558.8487132713755
 30
0.0
 11
-1928.19774150134
 21
-558.8487132713755
 31
0.0
  0
LINE
  5
1C1
330
1F
100
AcDbEntity
  8
0-4_枠
  6
Continuous
 62
   120
370
     5
100
AcDbLine
 10
-1928.19774150134
 20
-558.8487132713755
 30
0.0
 11
-1928.19774150134
 21
-1884.848713271375
 31
0.0
  0
LINE
  5
1C2
330
1F
100
AcDbEntity
  8
0-4_枠
  6
Continuous
 62
   120
370
     5
100
AcDbLine
 10
-1250.19774150134
 20
-558.8487132713755
 30
0.0
 11
-1250.19774150134
 21
-1884.848713271375
 31
0.0
  0
LINE
  5
1C3
330
1F
100
AcDbEntity
  8
0-C_ハッチ
  6
Continuous
 62
   120
370
     5
100
AcDbLine
 10
-1916.19774150135
 20
-684.3429926008992
 30
0.0
 11
-1874.703462171832
 21
-642.8487132713741
 31
0.0
  0
LINE
  5
1C4
330
1F
100
AcDbEntity
  8
0-C_ハッチ
  6
Continuous
 62
   120
370
     5
100
AcDbLine
 10
-1905.55627591423
 20
-588.8487132713755
 30
0.0
 11
-1875.556275914228
 21
-558.8487132713738
 31
0.0
  0
LINE
  5
1C5
330
1F
100
AcDbEntity
  8
0-C_ハッチ
  6
Continuous
 62
   120
370
     5
100
AcDbLine
 10
-1797.997834687095
 20
-735.848713271385
 30
0.0
 11
-1789.597741501347
 21
-727.4486200856421
 31
0.0
  0
LINE
  5
1C6
330
1F
100
AcDbEntity
  8
0-C_ハッチ
  6
Continuous
 62
   120
370
     5
100
AcDbLine
 10
-1840.424241558288
 20
-735.8487132713833
 30
0.0
 11
-1789.597741501347
 21
-685.0222132144387
 31
0.0
  0
LINE
  5
1C7
330
1F
100
AcDbEntity
  8
0-C_ハッチ
  6
Continuous
 62
   120
370
     5
100
AcDbLine
 10
-1616.797741501348
 20
-724.3542475704425
 30
0.0
 11
-1561.597741501347
 21
-669.1542475704381
 31
0.0
  0
LINE
  5
1C8
330
1F
100
AcDbEntity
  8
0-C_ハッチ
  6
Continuous
 62
   120
370
     5
100
AcDbLine
 10
-1616.797741501348
 20
-681.927840699239
 30
0.0
 11
-1493.718614073486
 21
-558.8487132713755
 31
0.0
  0
LINE
  5
1C9
330
1F
100
AcDbEntity
  8
0-C_ハッチ
  6
Continuous
 62
   120
370
     5
100
AcDbLine
 10
-1585.865800331088
 20
-735.8487132713782
 30
0.0
 11
-1561.597741501347
 21
-711.5806544416415
 31
0.0
  0
LINE
  5
1CA
330
1F
100
AcDbEntity
  8
0-C_ハッチ
  6
Continuous
 62
   120
370
     5
100
AcDbLine
 10
-1311.586579717539
 20
-588.8487132713755
 30
0.0
 11
-1281.586579717544
 21
-558.8487132713806
 31
0.0
  0
LINE
  5
1CB
330
1F
100
AcDbEntity
  8
0-C_ハッチ
  6
Continuous
 62
   120
370
     5
100
AcDbLine
 10
-1388.797741501347
 20
-666.0598750551804
 30
0.0
 11
-1319.197741501347
 21
-596.4598750551824
 31
0.0
  0
LINE
  5
1CC
330
1F
100
AcDbEntity
  8
0-C_ハッチ
  6
Continuous
 62
   120
370
     5
100
AcDbLine
 10
-1269.160172846337
 20
-588.8487132713755
 30
0.0
 11
-1259.19774150135
 21
-578.8862819263875
 31
0.0
  0
LINE
  5
1CD
330
1F
100
AcDbEntity
  8
0-C_ハッチ
  6
Continuous
 62
   120
370
     5
100
AcDbLine
 10
-1373.73376597515
 20
-735.8487132713901
 30
0.0
 11
-1280.733765975135
 21
-642.8487132713741
 31
0.0
  0
LINE
  5
1CE
330
1F
100
AcDbEntity
  8
0-C_ハッチ
  6
Continuous
 62
   120
370
     5
100
AcDbLine
 10
-1388.797741501347
 20
-708.4862819263873
 30
0.0
 11
-1319.197741501337
 21
-638.8862819263738
 31
0.0
  0
LINE
  5
1CF
330
1F
100
AcDbEntity
  8
0-4_枠
  6
Continuous
 62
    92
370
    13
100
AcDbLine
 10
-1319.197741501347
 20
-588.8487132713755
 30
0.0
 11
-1319.197741501347
 21
-642.8487132713741
 31
0.0
  0
LINE
  5
1D0
330
1F
100
AcDbEntity
  8
0-4_枠
  6
Continuous
 62
    92
370
    13
100
AcDbLine
 10
-1859.197741501347
 20
-588.8487132713755
 30
0.0
 11
-1859.197741501347
 21
-642.8487132713741
 31
0.0
  0
LINE
  5
1D1
330
1F
100
AcDbEntity
  8
0-4_枠
  6
Continuous
 62
    92
370
    13
100
AcDbLine
 10
-1262.197741501348
 20
-642.8487132713741
 30
0.0
 11
-1262.197741501348
 21
-735.8487132713782
 31
0.0
  0
LINE
  5
1D2
330
1F
100
AcDbEntity
  8
0-4_枠
  6
Continuous
 62
    92
370
    13
100
AcDbLine
 10
-1259.197741501347
 20
-642.8487132713741
 30
0.0
 11
-1259.197741501347
 21
-738.8487132713806
 31
0.0
  0
LINE
  5
1D3
330
1F
100
AcDbEntity
  8
0-4_枠
  6
Continuous
 62
    92
370
    13
100
AcDbLine
 10
-1916.197741501346
 20
-642.8487132713741
 30
0.0
 11
-1916.197741501346
 21
-735.8487132713782
 31
0.0
  0
LINE
  5
1D4
330
1F
100
AcDbEntity
  8
0-4_枠
  6
Continuous
 62
    92
370
    13
100
AcDbLine
 10
-1919.197741501347
 20
-642.8487132713741
 30
0.0
 11
-1919.197741501347
 21
-738.8487132713806
 31
0.0
  0
LINE
  5
1D5
330
1F
100
AcDbEntity
  8
0-4_枠
  6
Continuous
 62
    92
370
    13
100
AcDbLine
 10
-1859.197741501347
 20
-642.8487132713741
 30
0.0
 11
-1919.197741501347
 21
-642.8487132713741
 31
0.0
  0
LINE
  5
1D6
330
1F
100
AcDbEntity
  8
0-4_枠
  6
Continuous
 62
    92
370
    13
100
AcDbLine
 10
-1319.197741501347
 20
-642.8487132713741
 30
0.0
 11
-1259.197741501347
 21
-642.8487132713741
 31
0.0
  0
LINE
  5
1D7
330
1F
100
AcDbEntity
  8
0-4_枠
  6
Continuous
 62
    92
370
    13
100
AcDbLine
 10
-1919.197741501347
 20
-588.8487132713755
 30
0.0
 11
-1919.197741501347
 21
-558.8487132713755
 31
0.0
  0
LINE
  5
1D8
330
1F
100
AcDbEntity
  8
0-4_枠
  6
Continuous
 62
    92
370
    13
100
AcDbLine
 10
-1259.197741501347
 20
-588.8487132713755
 30
0.0
 11
-1259.197741501347
 21
-558.8487132713755
 31
0.0
  0
LINE
  5
1D9
330
1F
100
AcDbEntity
  8
0-4_枠
  6
Continuous
 62
    92
370
    13
100
AcDbLine
 10
-1919.197741501347
 20
-588.8487132713755
 30
0.0
 11
-1859.197741501347
 21
-588.8487132713755
 31
0.0
  0
LINE
  5
1DA
330
1F
100
AcDbEntity
  8
0-4_枠
  6
Continuous
 62
    92
370
    13
100
AcDbLine
 10
-1259.197741501347
 20
-588.8487132713755
 30
0.0
 11
-1319.197741501347
 21
-588.8487132713755
 31
0.0
  0
LINE
  5
1DB
330
1F
100
AcDbEntity
  8
0-4_枠
  6
Continuous
 62
    92
370
    13
100
AcDbLine
 10
-1789.597741501347
 20
-642.8487132713792
 30
0.0
 11
-1616.797741501348
 21
-642.8487132713792
 31
0.0
  0
LINE
  5
1DC
330
1F
100
AcDbEntity
  8
0-4_枠
  6
Continuous
 62
    92
370
    13
100
AcDbLine
 10
-1916.197741501346
 20
-735.8487132713782
 30
0.0
 11
-1789.597741501347
 21
-735.8487132713782
 31
0.0
  0
LINE
  5
1DD
330
1F
100
AcDbEntity
  8
0-4_枠
  6
Continuous
 62
    92
370
    13
100
AcDbLine
 10
-1919.197741501347
 20
-738.8487132713806
 30
0.0
 11
-1789.597741501347
 21
-738.8487132713806
 31
0.0
  0
LINE
  5
1DE
330
1F
100
AcDbEntity
  8
0-4_枠
  6
Continuous
 62
    92
370
    13
100
AcDbLine
 10
-1789.597741501347
 20
-642.8487132713792
 30
0.0
 11
-1789.597741501347
 21
-738.8487132713806
 31
0.0
  0
LINE
  5
1DF
330
1F
100
AcDbEntity
  8
0-4_枠
  6
Continuous
 62
    92
370
    13
100
AcDbLine
 10
-1616.797741501348
 20
-735.8487132713782
 30
0.0
 11
-1561.597741501347
 21
-735.8487132713782
 31
0.0
  0
LINE
  5
1E0
330
1F
100
AcDbEntity
  8
0-4_枠
  6
Continuous
 62
    92
370
    13
100
AcDbLine
 10
-1616.797741501348
 20
-738.8487132713806
 30
0.0
 11
-1561.597741501347
 21
-738.8487132713806
 31
0.0
  0
LINE
  5
1E1
330
1F
100
AcDbEntity
  8
0-4_枠
  6
Continuous
 62
    92
370
    13
100
AcDbLine
 10
-1616.797741501348
 20
-642.8487132713792
 30
0.0
 11
-1616.797741501348
 21
-738.8487132713806
 31
0.0
  0
LINE
  5
1E2
330
1F
100
AcDbEntity
  8
0-4_枠
  6
Continuous
 62
    92
370
    13
100
AcDbLine
 10
-1561.597741501347
 20
-642.8487132713877
 30
0.0
 11
-1388.797741501347
 21
-642.8487132713877
 31
0.0
  0
LINE
  5
1E3
330
1F
100
AcDbEntity
  8
0-4_枠
  6
Continuous
 62
    92
370
    13
100
AcDbLine
 10
-1561.597741501347
 20
-642.8487132713877
 30
0.0
 11
-1561.597741501347
 21
-738.8487132713806
 31
0.0
  0
LINE
  5
1E4
330
1F
100
AcDbEntity
  8
0-4_枠
  6
Continuous
 62
    92
370
    13
100
AcDbLine
 10
-1388.797741501347
 20
-735.8487132713782
 30
0.0
 11
-1262.197741501348
 21
-735.8487132713782
 31
0.0
  0
LINE
  5
1E5
330
1F
100
AcDbEntity
  8
0-4_枠
  6
Continuous
 62
    92
370
    13
100
AcDbLine
 10
-1388.797741501347
 20
-738.8487132713806
 30
0.0
 11
-1259.197741501347
 21
-738.8487132713806
 31
0.0
  0
LINE
  5
1E6
330
1F
100
AcDbEntity
  8
0-4_枠
  6
Continuous
 62
    92
370
    13
100
AcDbLine
 10
-1388.797741501347
 20
-642.8487132713877
 30
0.0
 11
-1388.797741501347
 21
-738.8487132713806
 31
0.0
  0
LINE
  5
1E7
330
1F
100
AcDbEntity
  8
0-C_ハッチ
  6
Continuous
 62
   120
370
     5
100
AcDbLine
 10
-1859.197741501333
 20
-627.3429926008777
 30
0.0
 11
-1790.703462171835
 21
-558.8487132713806
 31
0.0
  0
LINE
  5
1E8
330
1F
100
AcDbEntity
  8
0-C_ハッチ
  6
Continuous
 62
   120
370
     5
100
AcDbLine
 10
-1916.197741501357
 20
-726.7693994721009
 30
0.0
 11
-1748.277055300624
 21
-558.8487132713738
 31
0.0
  0
LINE
  5
1E9
330
1F
100
AcDbEntity
  8
0-C_ハッチ
  6
Continuous
 62
   120
370
     5
100
AcDbLine
 10
-1882.850648429485
 20
-735.8487132713765
 30
0.0
 11
-1705.850648429486
 21
-558.8487132713755
 31
0.0
  0
LINE
  5
1EA
330
1F
100
AcDbEntity
  8
0-C_ハッチ
  6
Continuous
 62
   120
370
     5
100
AcDbLine
 10
-1747.424241558288
 20
-642.8487132713792
 30
0.0
 11
-1663.424241558286
 21
-558.8487132713806
 31
0.0
  0
LINE
  5
1EB
330
1F
100
AcDbEntity
  8
0-C_ハッチ
  6
Continuous
 62
   120
370
     5
100
AcDbLine
 10
-1704.997834687091
 20
-642.8487132713809
 30
0.0
 11
-1620.997834687093
 21
-558.8487132713823
 31
0.0
  0
LINE
  5
1EC
330
1F
100
AcDbEntity
  8
0-C_ハッチ
  6
Continuous
 62
   120
370
     5
100
AcDbLine
 10
-1662.571427815895
 20
-642.848713271386
 30
0.0
 11
-1578.571427815893
 21
-558.8487132713874
 31
0.0
  0
LINE
  5
1ED
330
1F
100
AcDbEntity
  8
0-C_ハッチ
  6
Continuous
 62
   120
370
     5
100
AcDbLine
 10
-1620.145020944698
 20
-642.8487132713877
 30
0.0
 11
-1536.145020944682
 21
-558.8487132713738
 31
0.0
  0
LINE
  5
1EE
330
1F
100
AcDbEntity
  8
0-C_ハッチ
  6
Continuous
 62
   120
370
     5
100
AcDbLine
 10
-1535.292207202284
 20
-642.8487132713741
 30
0.0
 11
-1451.292207202282
 21
-558.8487132713738
 31
0.0
  0
LINE
  5
1EF
330
1F
100
AcDbEntity
  8
0-C_ハッチ
  6
Continuous
 62
   120
370
     5
100
AcDbLine
 10
-1492.865800331091
 20
-642.8487132713809
 30
0.0
 11
-1408.865800331086
 21
-558.8487132713806
 31
0.0
  0
LINE
  5
1F0
330
1F
100
AcDbEntity
  8
0-C_ハッチ
  6
Continuous
 62
   120
370
     5
100
AcDbLine
 10
-1450.439393459949
 20
-642.848713271386
 30
0.0
 11
-1366.439393459937
 21
-558.8487132713738
 31
0.0
  0
LINE
  5
1F1
330
1F
100
AcDbEntity
  8
0-C_ハッチ
  6
Continuous
 62
   120
370
     5
100
AcDbLine
 10
-1408.012986588759
 20
-642.8487132713946
 30
0.0
 11
-1324.01298658874
 21
-558.8487132713755
 31
0.0
  0
LINE
  5
1F2
330
1F
100
AcDbEntity
  8
0-C_ハッチ
  6
Continuous
 62
   120
370
     5
100
AcDbLine
 10
-1331.30735910395
 20
-735.8487132713901
 30
0.0
 11
-1262.197741501355
 21
-666.7390956687916
 31
0.0
  0
LINE
  5
1F3
330
1F
100
AcDbEntity
  8
0-C_ハッチ
  6
Continuous
 62
   120
370
     5
100
AcDbLine
 10
-1288.880952232736
 20
-735.8487132713714
 30
0.0
 11
-1262.197741501355
 21
-709.1655025399916
 31
0.0
  0
LINE
  5
1F4
330
1F
100
AcDbEntity
  8
0-4_枠
  6
Continuous
 62
    92
370
    13
100
AcDbLine
 10
-1259.197741501347
 20
-558.8487132713755
 30
0.0
 11
-1919.197741501347
 21
-558.8487132713755
 31
0.0
  0
LINE
  5
1F5
330
1F
100
AcDbEntity
  8
0-C_ハッチ
  6
Continuous
 62
   120
370
     5
100
AcDbLine
 10
-1863.12986904303
 20
-588.8487132713755
 30
0.0
 11
-1833.129869043031
 21
-558.8487132713755
 31
0.0
  0
LINE
  5
1F6
330
1F
100
AcDbEntity
  8
0-B_寸法
  6
Continuous
 62
   120
370
     5
100
AcDbLine
 10
-1919.197741501347
 20
-1274.673709612477
 30
0.0
 11
-1919.197741501347
 21
-1130.324276337999
 31
0.0
  0
LINE
  5
1F7
330
1F
100
AcDbEntity
  8
0-B_寸法
  6
Continuous
 62
   120
370
     5
100
AcDbLine
 10
-1259.197741501347
 20
-1274.673709612477
 30
0.0
 11
-1259.197741501347
 21
-1151.324276337994
 31
0.0
  0
LWPOLYLINE
  5
1F8
330
1F
100
AcDbEntity
  8
0-B_寸法
  6
Continuous
 62
     7
370
     9
100
AcDbPolyline
 90
        4
 70
     1
 43
3.0
 10
-1257.697741501347
 20
-1274.673709612477
 42
0.4142135623731
 10
-1259.197741501347
 20
-1273.173709612477
 42
0.4142135623731
 10
-1260.697741501347
 20
-1274.673709612477
 42
0.4142135623731
 10
-1259.197741501347
 20
-1276.173709612477
 42
0.4142135623731
  0
LWPOLYLINE
  5
1F9
330
1F
100
AcDbEntity
  8
0-B_寸法
  6
Continuous
 62
     7
370
     9
100
AcDbPolyline
 90
        4
 70
     1
 43
3.0
 10
-1917.697741501347
 20
-1274.673709612477
 42
0.4142135623731
 10
-1919.197741501347
 20
-1273.173709612477
 42
0.4142135623731
 10
-1920.697741501347
 20
-1274.673709612477
 42
0.4142135623731
 10
-1919.197741501347
 20
-1276.173709612477
 42
0.4142135623731
  0
LINE
  5
1FA
330
1F
100
AcDbEntity
  8
0-B_寸法
  6
Continuous
 62
   120
370
     5
100
AcDbLine
 10
-1919.197741501347
 20
-1274.673709612477
 30
0.0
 11
-1259.197741501347
 21
-1274.673709612477
 31
0.0
  0
LINE
  5
1FB
330
1F
100
AcDbEntity
  8
0-2_柱
  6
Continuous
 62
     7
370
     9
100
AcDbLine
 10
-1904.19774150134
 20
-510.8487132713756
 30
0.0
 11
-1274.19774150134
 21
-510.8487132713756
 31
0.0
  0
LINE
  5
1FC
330
1F
100
AcDbEntity
  8
0-2_柱
  6
Continuous
 62
     7
370
     9
100
AcDbLine
 10
-1904.19774150134
 20
-348.8487132713755
 30
0.0
 11
-1904.19774150134
 21
-510.8487132713756
 31
0.0
  0
LINE
  5
1FD
330
1F
100
AcDbEntity
  8
0-2_柱
  6
Continuous
 62
     7
370
     9
100
AcDbLine
 10
-1274.19774150134
 20
-348.8487132713755
 30
0.0
 11
-1904.19774150134
 21
-348.8487132713755
 31
0.0
  0
LINE
  5
1FE
330
1F
100
AcDbEntity
  8
0-2_柱
  6
Continuous
 62
     7
370
     9
100
AcDbLine
 10
-1274.19774150134
 20
-510.8487132713756
 30
0.0
 11
-1274.19774150134
 21
-348.8487132713755
 31
0.0
  0
LINE
  5
1FF
330
1F
100
AcDbEntity
  8
0-2_柱
  6
Continuous
 62
     7
370
     9
100
AcDbLine
 10
-1904.19774150134
 20
-510.8487132713756
 30
0.0
 11
-1274.19774150134
 21
-348.8487132713755
 31
0.0
  0
LINE
  5
200
330
1F
100
AcDbEntity
  8
0-3_仕上げ
  6
Continuous
 62
    40
370
    15
100
AcDbLine
 10
-1979.19774150134
 20
-558.8487132713755
 30
0.0
 11
-1904.19774150134
 21
-558.8487132713755
 31
0.0
  0
LINE
  5
201
330
1F
100
AcDbEntity
  8
0-3_仕上げ
  6
Continuous
 62
    40
370
    15
100
AcDbLine
 10
-1274.19774150134
 20
-558.8487132713755
 30
0.0
 11
-1199.19774150134
 21
-558.8487132713755
 31
0.0
  0
LINE
  5
202
330
1F
100
AcDbEntity
  8
0-C_ハッチ
  6
JWW_DASHED1
 62
   120
370
     5
100
AcDbLine
 10
-1979.197741501337
 20
-305.5977466377203
 30
0.0
 11
-1904.19774150134
 21
-230.5977466377238
 31
0.0
  0
LINE
  5
203
330
1F
100
AcDbEntity
  8
0-C_ハッチ
  6
JWW_DASHED1
 62
   120
370
     5
100
AcDbLine
 10
-1979.197741501333
 20
-348.0241535089169
 30
0.0
 11
-1904.197741501337
 21
-273.0241535089203
 31
0.0
  0
LINE
  5
204
330
1F
100
AcDbEntity
  8
0-C_ハッチ
  6
JWW_DASHED1
 62
   120
370
     5
100
AcDbLine
 10
-1979.19774150134
 20
-390.4505603800675
 30
0.0
 11
-1904.197741501344
 21
-315.4505603800743
 31
0.0
  0
LINE
  5
205
330
1F
100
AcDbEntity
  8
0-C_ハッチ
  6
JWW_DASHED1
 62
   120
370
     5
100
AcDbLine
 10
-1979.197741501335
 20
-432.8769672512641
 30
0.0
 11
-1904.19774150134
 21
-357.8769672512692
 31
0.0
  0
LINE
  5
206
330
1F
100
AcDbEntity
  8
0-C_ハッチ
  6
JWW_DASHED1
 62
   120
370
     5
100
AcDbLine
 10
-1979.197741501347
 20
-475.303374122476
 30
0.0
 11
-1904.197741501337
 21
-400.3033741224658
 31
0.0
  0
LINE
  5
207
330
1F
100
AcDbEntity
  8
0-C_ハッチ
  6
JWW_DASHED1
 62
   120
370
     5
100
AcDbLine
 10
-1979.197741501344
 20
-517.7297809936744
 30
0.0
 11
-1904.197741501333
 21
-442.7297809936624
 31
0.0
  0
LINE
  5
208
330
1F
100
AcDbEntity
  8
0-C_ハッチ
  6
JWW_DASHED1
 62
   120
370
     5
100
AcDbLine
 10
-1977.890266907847
 20
-558.8487132713755
 30
0.0
 11
-1904.197741501347
 21
-485.1561878648744
 31
0.0
  0
LINE
  5
209
330
1F
100
AcDbEntity
  8
0-C_ハッチ
  6
JWW_DASHED1
 62
   120
370
     5
100
AcDbLine
 10
-1935.463860036647
 20
-558.8487132713755
 30
0.0
 11
-1904.197741501347
 21
-527.5825947360744
 31
0.0
  0
LINE
  5
20A
330
1F
100
AcDbEntity
  8
0-C_ハッチ
  6
JWW_DASHED1
 62
   120
370
     5
100
AcDbLine
 10
-1274.197741501337
 20
-305.5977466377203
 30
0.0
 11
-1199.19774150134
 21
-230.5977466377238
 31
0.0
  0
LINE
  5
20B
330
1F
100
AcDbEntity
  8
0-C_ハッチ
  6
JWW_DASHED1
 62
   120
370
     5
100
AcDbLine
 10
-1274.197741501333
 20
-348.0241535089169
 30
0.0
 11
-1199.197741501337
 21
-273.0241535089203
 31
0.0
  0
LINE
  5
20C
330
1F
100
AcDbEntity
  8
0-C_ハッチ
  6
JWW_DASHED1
 62
   120
370
     5
100
AcDbLine
 10
-1274.19774150134
 20
-390.4505603800675
 30
0.0
 11
-1199.197741501344
 21
-315.4505603800743
 31
0.0
  0
LINE
  5
20D
330
1F
100
AcDbEntity
  8
0-C_ハッチ
  6
JWW_DASHED1
 62
   120
370
     5
100
AcDbLine
 10
-1274.197741501335
 20
-432.8769672512641
 30
0.0
 11
-1199.19774150134
 21
-357.8769672512692
 31
0.0
  0
LINE
  5
20E
330
1F
100
AcDbEntity
  8
0-C_ハッチ
  6
JWW_DASHED1
 62
   120
370
     5
100
AcDbLine
 10
-1274.197741501347
 20
-475.303374122476
 30
0.0
 11
-1199.197741501337
 21
-400.3033741224658
 31
0.0
  0
LINE
  5
20F
330
1F
100
AcDbEntity
  8
0-C_ハッチ
  6
JWW_DASHED1
 62
   120
370
     5
100
AcDbLine
 10
-1274.197741501344
 20
-517.7297809936744
 30
0.0
 11
-1199.197741501333
 21
-442.7297809936624
 31
0.0
  0
LINE
  5
210
330
1F
100
AcDbEntity
  8
0-C_ハッチ
  6
JWW_DASHED1
 62
   120
370
     5
100
AcDbLine
 10
-1272.890266907847
 20
-558.8487132713755
 30
0.0
 11
-1199.197741501347
 21
-485.1561878648744
 31
0.0
  0
LINE
  5
211
330
1F
100
AcDbEntity
  8
0-C_ハッチ
  6
JWW_DASHED1
 62
   120
370
     5
100
AcDbLine
 10
-1230.463860036647
 20
-558.8487132713755
 30
0.0
 11
-1199.197741501347
 21
-527.5825947360744
 31
0.0
  0
LINE
  5
212
330
1F
100
AcDbEntity
  8
0-C_ハッチ
  6
Continuous
 62
   120
370
     5
100
AcDbLine
 10
-1917.982682785426
 20
-558.8487132713738
 30
0.0
 11
-1919.197741501347
 21
-560.0637719872955
 31
0.0
  0
LINE
  5
213
330
1F
100
AcDbEntity
  8
0-3_仕上げ
  6
Continuous
 62
    40
370
    15
100
AcDbLine
 10
-1979.19774150134
 20
-210.8487132713755
 30
0.0
 11
-1979.19774150134
 21
-558.8487132713755
 31
0.0
  0
LINE
  5
214
330
1F
100
AcDbEntity
  8
0-3_仕上げ
  6
Continuous
 62
    40
370
    15
100
AcDbLine
 10
-1904.19774150134
 20
-210.8487132713755
 30
0.0
 11
-1904.19774150134
 21
-558.8487132713755
 31
0.0
  0
LINE
  5
215
330
1F
100
AcDbEntity
  8
0-C_ハッチ
  6
JWW_DASHED1
 62
   120
370
     5
100
AcDbLine
 10
-1979.197741501344
 20
-220.7449328953288
 30
0.0
 11
-1969.301521877392
 21
-210.8487132713755
 31
0.0
  0
LINE
  5
216
330
1F
100
AcDbEntity
  8
0-C_ハッチ
  6
JWW_DASHED1
 62
   120
370
     5
100
AcDbLine
 10
-1979.19774150134
 20
-263.1713397665237
 30
0.0
 11
-1926.875115006195
 21
-210.8487132713755
 31
0.0
  0
LINE
  5
217
330
1F
100
AcDbEntity
  8
0-3_仕上げ
  6
Continuous
 62
    40
370
    15
100
AcDbLine
 10
-1274.19774150134
 20
-210.8487132713755
 30
0.0
 11
-1274.19774150134
 21
-558.8487132713755
 31
0.0
  0
LINE
  5
218
330
1F
100
AcDbEntity
  8
0-3_仕上げ
  6
Continuous
 62
    40
370
    15
100
AcDbLine
 10
-1199.19774150134
 20
-210.8487132713755
 30
0.0
 11
-1199.19774150134
 21
-558.8487132713755
 31
0.0
  0
LINE
  5
219
330
1F
100
AcDbEntity
  8
0-C_ハッチ
  6
JWW_DASHED1
 62
   120
370
     5
100
AcDbLine
 10
-1274.197741501344
 20
-220.7449328953288
 30
0.0
 11
-1264.301521877392
 21
-210.8487132713755
 31
0.0
  0
LINE
  5
21A
330
1F
100
AcDbEntity
  8
0-C_ハッチ
  6
JWW_DASHED1
 62
   120
370
     5
100
AcDbLine
 10
-1274.19774150134
 20
-263.1713397665237
 30
0.0
 11
-1221.875115006195
 21
-210.8487132713755
 31
0.0
  0
LINE
  5
21B
330
1F
100
AcDbEntity
  8
0-6_扉
  6
Continuous
 62
   200
370
    20
100
AcDbLine
 10
-1385.197741501348
 20
-822.8487129867958
 30
0.0
 11
-1565.197741501348
 21
-822.8487129867958
 31
0.0
  0
LINE
  5
21C
330
1F
100
AcDbEntity
  8
0-6_扉
  6
Continuous
 62
   200
370
    20
100
AcDbLine
 10
-1613.197741501346
 20
-822.8487129867958
 30
0.0
 11
-1793.197741501346
 21
-822.8487129867958
 31
0.0
  0
LINE
  5
21D
330
1F
100
AcDbEntity
  8
0-6_扉
  6
Continuous
 62
   200
370
    20
100
AcDbLine
 10
-1385.197741501348
 20
-822.8487129867958
 30
0.0
 11
-1385.197741501348
 21
-1884.848713271375
 31
0.0
  0
LINE
  5
21E
330
1F
100
AcDbEntity
  8
0-6_扉
  6
Continuous
 62
   200
370
    20
100
AcDbLine
 10
-1793.197741501346
 20
-822.8487129867958
 30
0.0
 11
-1793.197741501346
 21
-1884.848713271375
 31
0.0
  0
LINE
  5
21F
330
1F
100
AcDbEntity
  8
0-7_金物
  6
Continuous
 62
     7
370
     9
100
AcDbLine
 10
-1565.197756041925
 20
-522.849050872085
 30
0.0
 11
-1385.197893371027
 21
-522.849050872085
 31
0.0
  0
LINE
  5
220
330
1F
100
AcDbEntity
  8
0-7_金物
  6
Continuous
 62
     7
370
     9
100
AcDbLine
 10
-1385.197893371027
 20
-510.8487132713765
 30
0.0
 11
-1385.197893371027
 21
-522.849050872085
 31
0.0
  0
LINE
  5
221
330
1F
100
AcDbEntity
  8
0-7_金物
  6
Continuous
 62
     7
370
     9
100
AcDbLine
 10
-1565.197756041925
 20
-510.8487132713765
 30
0.0
 11
-1565.197756041925
 21
-522.849050872085
 31
0.0
  0
LINE
  5
222
330
1F
100
AcDbEntity
  8
0-7_金物
  6
Continuous
 62
     7
370
     9
100
AcDbLine
 10
-1565.197756041925
 20
-510.8487132713765
 30
0.0
 11
-1385.197893371027
 21
-510.8487132713765
 31
0.0
  0
LINE
  5
223
330
1F
100
AcDbEntity
  8
0-7_金物
  6
Continuous
 62
     7
370
     9
100
AcDbLine
 10
-1535.197653045101
 20
-522.849050872085
 30
0.0
 11
-1535.197653045101
 21
-534.8486446068259
 31
0.0
  0
LINE
  5
224
330
1F
100
AcDbEntity
  8
0-7_金物
  6
Continuous
 62
     7
370
     9
100
AcDbLine
 10
-1415.197996367855
 20
-522.849050872085
 30
0.0
 11
-1415.197996367855
 21
-534.8486446068259
 31
0.0
  0
LINE
  5
225
330
1F
100
AcDbEntity
  8
0-7_金物
  6
Continuous
 62
     7
370
     9
100
AcDbLine
 10
-1535.197653045101
 20
-534.8486446068259
 30
0.0
 11
-1415.197996367855
 21
-534.8486446068259
 31
0.0
  0
LINE
  5
226
330
1F
100
AcDbEntity
  8
0-7_金物
  6
Continuous
 62
     7
370
     9
100
AcDbLine
 10
-1529.19748710577
 20
-534.8486446068259
 30
0.0
 11
-1529.19748710577
 21
-558.8487132713755
 31
0.0
  0
LINE
  5
227
330
1F
100
AcDbEntity
  8
0-7_金物
  6
Continuous
 62
     7
370
     9
100
AcDbLine
 10
-1421.197418441219
 20
-558.8487132713755
 30
0.0
 11
-1421.197418441219
 21
-534.8486446068259
 31
0.0
  0
LINE
  5
228
330
1F
100
AcDbEntity
  8
0-7_金物
  6
Continuous
 62
     7
370
     9
100
AcDbLine
 10
-1655.797741501346
 20
-1033.448712986795
 30
0.0
 11
-1655.797741501346
 21
-963.2487129867959
 31
0.0
  0
ARC
  5
229
330
1F
100
AcDbEntity
  8
0-7_金物
  6
Continuous
 62
     7
370
     9
100
AcDbCircle
 10
-1703.197741501348
 20
-1033.448712986795
 30
0.0
 40
47.40000000000003
100
AcDbArc
 50
180.0
 51
0.0
  0
LINE
  5
22A
330
1F
100
AcDbEntity
  8
0-7_金物
  6
Continuous
 62
     7
370
     9
100
AcDbLine
 10
-1750.597741501347
 20
-963.2487129867959
 30
0.0
 11
-1750.597741501347
 21
-1033.448712986795
 31
0.0
  0
ARC
  5
22B
330
1F
100
AcDbEntity
  8
0-7_金物
  6
Continuous
 62
     7
370
     9
100
AcDbCircle
 10
-1703.197741501348
 20
-1033.448712986795
 30
0.0
 40
41.40000000000003
100
AcDbArc
 50
180.0
 51
0.0
  0
LINE
  5
22C
330
1F
100
AcDbEntity
  8
0-7_金物
  6
Continuous
 62
     7
370
     9
100
AcDbLine
 10
-1744.597741501347
 20
-1033.448712986795
 30
0.0
 11
-1744.597741501347
 21
-963.2487129867959
 31
0.0
  0
LINE
  5
22D
330
1F
100
AcDbEntity
  8
0-7_金物
  6
Continuous
 62
     7
370
     9
100
AcDbLine
 10
-1655.797741501346
 20
-963.2487129867959
 30
0.0
 11
-1661.797741501346
 21
-963.2487129867959
 31
0.0
  0
LINE
  5
22E
330
1F
100
AcDbEntity
  8
0-7_金物
  6
Continuous
 62
     7
370
     9
100
AcDbLine
 10
-1661.797741501346
 20
-963.2487129867959
 30
0.0
 11
-1661.797741501346
 21
-1033.448712986795
 31
0.0
  0
LINE
  5
22F
330
1F
100
AcDbEntity
  8
0-7_金物
  6
Continuous
 62
     7
370
     9
100
AcDbLine
 10
-1744.597741501347
 20
-963.2487129867959
 30
0.0
 11
-1750.597741501347
 21
-963.2487129867959
 31
0.0
  0
LINE
  5
230
330
1F
100
AcDbEntity
  8
0-7_金物
  6
Continuous
 62
     7
370
     9
100
AcDbLine
 10
-1728.397741501347
 20
-963.2487129867959
 30
0.0
 11
-1728.397741501347
 21
-969.2487129867939
 31
0.0
  0
LINE
  5
231
330
1F
100
AcDbEntity
  8
0-7_金物
  6
Continuous
 62
     7
370
     9
100
AcDbLine
 10
-1739.797741501347
 20
-969.2487129867939
 30
0.0
 11
-1728.397741501347
 21
-969.2487129867939
 31
0.0
  0
LINE
  5
232
330
1F
100
AcDbEntity
  8
0-7_金物
  6
Continuous
 62
     7
370
     9
100
AcDbLine
 10
-1739.797741501347
 20
-969.2487129867939
 30
0.0
 11
-1739.797741501347
 21
-997.4487129867939
 31
0.0
  0
LINE
  5
233
330
1F
100
AcDbEntity
  8
0-7_金物
  6
Continuous
 62
     7
370
     9
100
AcDbLine
 10
-1728.397741501347
 20
-997.4487129867939
 30
0.0
 11
-1739.797741501347
 21
-997.4487129867939
 31
0.0
  0
LINE
  5
234
330
1F
100
AcDbEntity
  8
0-7_金物
  6
Continuous
 62
     7
370
     9
100
AcDbLine
 10
-1728.397741501347
 20
-997.4487129867939
 30
0.0
 11
-1728.397741501347
 21
-1008.848712986795
 31
0.0
  0
LINE
  5
235
330
1F
100
AcDbEntity
  8
0-7_金物
  6
Continuous
 62
     7
370
     9
100
AcDbLine
 10
-1677.997741501347
 20
-1008.848712986795
 30
0.0
 11
-1677.997741501347
 21
-997.4487129867939
 31
0.0
  0
LINE
  5
236
330
1F
100
AcDbEntity
  8
0-7_金物
  6
Continuous
 62
     7
370
     9
100
AcDbLine
 10
-1666.597741501347
 20
-997.4487129867939
 30
0.0
 11
-1677.997741501347
 21
-997.4487129867939
 31
0.0
  0
LINE
  5
237
330
1F
100
AcDbEntity
  8
0-7_金物
  6
Continuous
 62
     7
370
     9
100
AcDbLine
 10
-1666.597741501347
 20
-997.4487129867939
 30
0.0
 11
-1666.597741501347
 21
-969.2487129867939
 31
0.0
  0
LINE
  5
238
330
1F
100
AcDbEntity
  8
0-7_金物
  6
Continuous
 62
     7
370
     9
100
AcDbLine
 10
-1677.997741501347
 20
-969.2487129867939
 30
0.0
 11
-1666.597741501347
 21
-969.2487129867939
 31
0.0
  0
LINE
  5
239
330
1F
100
AcDbEntity
  8
0-7_金物
  6
Continuous
 62
     7
370
     9
100
AcDbLine
 10
-1677.997741501347
 20
-969.2487129867939
 30
0.0
 11
-1677.997741501347
 21
-963.2487129867959
 31
0.0
  0
LINE
  5
23A
330
1F
100
AcDbEntity
  8
0-7_金物
  6
Continuous
 62
     7
370
     9
100
AcDbLine
 10
-1661.797741501346
 20
-963.2487129867959
 30
0.0
 11
-1677.997741501347
 21
-963.2487129867959
 31
0.0
  0
LINE
  5
23B
330
1F
100
AcDbEntity
  8
0-7_金物
  6
Continuous
 62
     7
370
     9
100
AcDbLine
 10
-1728.397741501347
 20
-963.2487129867959
 30
0.0
 11
-1744.597741501347
 21
-963.2487129867959
 31
0.0
  0
LINE
  5
23C
330
1F
100
AcDbEntity
  8
0-7_金物
  6
Continuous
 62
     7
370
     9
100
AcDbLine
 10
-1666.597741501347
 20
-975.2487129867952
 30
0.0
 11
-1677.997741501347
 21
-975.2487129867952
 31
0.0
  0
LINE
  5
23D
330
1F
100
AcDbEntity
  8
0-7_金物
  6
Continuous
 62
     7
370
     9
100
AcDbLine
 10
-1677.997741501347
 20
-975.2487129867952
 30
0.0
 11
-1677.997741501347
 21
-969.2487129867939
 31
0.0
  0
LINE
  5
23E
330
1F
100
AcDbEntity
  8
0-7_金物
  6
Continuous
 62
     7
370
     9
100
AcDbLine
 10
-1728.397741501347
 20
-975.2487129867952
 30
0.0
 11
-1739.797741501347
 21
-975.2487129867952
 31
0.0
  0
LINE
  5
23F
330
1F
100
AcDbEntity
  8
0-7_金物
  6
Continuous
 62
     7
370
     9
100
AcDbLine
 10
-1728.397741501347
 20
-969.2487129867939
 30
0.0
 11
-1728.397741501347
 21
-975.2487129867952
 31
0.0
  0
LINE
  5
240
330
1F
100
AcDbEntity
  8
0-7_金物
  6
Continuous
 62
     7
370
     9
100
AcDbLine
 10
-1677.997741501347
 20
-991.4487129867941
 30
0.0
 11
-1666.597741501347
 21
-991.4487129867941
 31
0.0
  0
LINE
  5
241
330
1F
100
AcDbEntity
  8
0-7_金物
  6
Continuous
 62
     7
370
     9
100
AcDbLine
 10
-1677.997741501347
 20
-997.4487129867939
 30
0.0
 11
-1677.997741501347
 21
-991.4487129867941
 31
0.0
  0
LINE
  5
242
330
1F
100
AcDbEntity
  8
0-7_金物
  6
Continuous
 62
     7
370
     9
100
AcDbLine
 10
-1739.797741501347
 20
-991.4487129867941
 30
0.0
 11
-1728.397741501347
 21
-991.4487129867941
 31
0.0
  0
LINE
  5
243
330
1F
100
AcDbEntity
  8
0-7_金物
  6
Continuous
 62
     7
370
     9
100
AcDbLine
 10
-1728.397741501347
 20
-991.4487129867941
 30
0.0
 11
-1728.397741501347
 21
-997.4487129867939
 31
0.0
  0
LINE
  5
244
330
1F
100
AcDbEntity
  8
0-7_金物
  6
Continuous
 62
     7
370
     9
100
AcDbLine
 10
-1673.797741501347
 20
-962.6487129867949
 30
0.0
 11
-1673.797741501347
 21
-963.2487129867959
 31
0.0
  0
LINE
  5
245
330
1F
100
AcDbEntity
  8
0-7_金物
  6
Continuous
 62
     7
370
     9
100
AcDbLine
 10
-1655.797741501346
 20
-962.6487129867949
 30
0.0
 11
-1655.797741501346
 21
-963.2487129867959
 31
0.0
  0
LINE
  5
246
330
1F
100
AcDbEntity
  8
0-7_金物
  6
Continuous
 62
     7
370
     9
100
AcDbLine
 10
-1732.597741501346
 20
-963.2487129867959
 30
0.0
 11
-1732.597741501346
 21
-962.6487129867949
 31
0.0
  0
LINE
  5
247
330
1F
100
AcDbEntity
  8
0-7_金物
  6
Continuous
 62
     7
370
     9
100
AcDbLine
 10
-1750.597741501347
 20
-962.6487129867949
 30
0.0
 11
-1750.597741501347
 21
-963.2487129867959
 31
0.0
  0
ARC
  5
248
330
1F
100
AcDbEntity
  8
0-7_金物
  6
Continuous
 62
     7
370
     9
100
AcDbCircle
 10
-1712.197741501346
 20
-873.8487129867954
 30
0.0
 40
6.0
100
AcDbArc
 50
270.0
 51
0.0
  0
LINE
  5
249
330
1F
100
AcDbEntity
  8
0-7_金物
  6
Continuous
 62
     7
370
     9
100
AcDbLine
 10
-1718.197741501348
 20
-885.8487129867947
 30
0.0
 11
-1712.197741501346
 21
-885.8487129867947
 31
0.0
  0
ARC
  5
24A
330
1F
100
AcDbEntity
  8
0-7_金物
  6
Continuous
 62
     7
370
     9
100
AcDbCircle
 10
-1712.197741501346
 20
-891.8487129867945
 30
0.0
 40
6.0
100
AcDbArc
 50
0.0
 51
90.0
  0
LINE
  5
24B
330
1F
100
AcDbEntity
  8
0-7_金物
  6
Continuous
 62
     7
370
     9
100
AcDbLine
 10
-1706.197741501346
 20
-891.8487129867945
 30
0.0
 11
-1706.197741501346
 21
-897.8487129867958
 31
0.0
  0
ARC
  5
24C
330
1F
100
AcDbEntity
  8
0-7_金物
  6
Continuous
 62
     7
370
     9
100
AcDbCircle
 10
-1688.197741501348
 20
-882.8487129867958
 30
0.0
 40
3.0
100
AcDbArc
 50
0.0
 51
90.0
  0
LINE
  5
24D
330
1F
100
AcDbEntity
  8
0-7_金物
  6
Continuous
 62
     7
370
     9
100
AcDbLine
 10
-1700.197741501347
 20
-873.8487129867954
 30
0.0
 11
-1700.197741501347
 21
-867.8487129867958
 31
0.0
  0
ARC
  5
24E
330
1F
100
AcDbEntity
  8
0-7_金物
  6
Continuous
 62
     7
370
     9
100
AcDbCircle
 10
-1703.197741501348
 20
-867.8487129867958
 30
0.0
 40
3.0
100
AcDbArc
 50
0.0
 51
90.0
  0
ARC
  5
24F
330
1F
100
AcDbEntity
  8
0-7_金物
  6
Continuous
 62
     7
370
     9
100
AcDbCircle
 10
-1694.197741501347
 20
-891.8487129867945
 30
0.0
 40
6.0
100
AcDbArc
 50
90.0
 51
180.0
  0
LINE
  5
250
330
1F
100
AcDbEntity
  8
0-7_金物
  6
Continuous
 62
     7
370
     9
100
AcDbLine
 10
-1694.197741501347
 20
-885.8487129867947
 30
0.0
 11
-1688.197741501348
 21
-885.8487129867947
 31
0.0
  0
LINE
  5
251
330
1F
100
AcDbEntity
  8
0-7_金物
  6
Continuous
 62
     7
370
     9
100
AcDbLine
 10
-1688.197741501348
 20
-879.8487129867951
 30
0.0
 11
-1694.197741501347
 21
-879.8487129867951
 31
0.0
  0
ARC
  5
252
330
1F
100
AcDbEntity
  8
0-7_金物
  6
Continuous
 62
     7
370
     9
100
AcDbCircle
 10
-1694.197741501347
 20
-873.8487129867954
 30
0.0
 40
6.0
100
AcDbArc
 50
180.0
 51
270.0
  0
ARC
  5
253
330
1F
100
AcDbEntity
  8
0-7_金物
  6
Continuous
 62
     7
370
     9
100
AcDbCircle
 10
-1703.197741501348
 20
-867.8487129867958
 30
0.0
 40
3.0
100
AcDbArc
 50
90.0
 51
180.0
  0
ARC
  5
254
330
1F
100
AcDbEntity
  8
0-7_金物
  6
Continuous
 62
     7
370
     9
100
AcDbCircle
 10
-1718.197741501348
 20
-882.8487129867958
 30
0.0
 40
3.0
100
AcDbArc
 50
180.0
 51
270.0
  0
LINE
  5
255
330
1F
100
AcDbEntity
  8
0-7_金物
  6
Continuous
 62
     7
370
     9
100
AcDbLine
 10
-1706.197741501346
 20
-867.8487129867958
 30
0.0
 11
-1706.197741501346
 21
-873.8487129867954
 31
0.0
  0
ARC
  5
256
330
1F
100
AcDbEntity
  8
0-7_金物
  6
Continuous
 62
     7
370
     9
100
AcDbCircle
 10
-1688.197741501348
 20
-882.8487129867958
 30
0.0
 40
3.0
100
AcDbArc
 50
270.0
 51
0.0
  0
ARC
  5
257
330
1F
100
AcDbEntity
  8
0-7_金物
  6
Continuous
 62
     7
370
     9
100
AcDbCircle
 10
-1703.197741501348
 20
-897.8487129867958
 30
0.0
 40
3.0
100
AcDbArc
 50
180.0
 51
270.0
  0
LINE
  5
258
330
1F
100
AcDbEntity
  8
0-7_金物
  6
Continuous
 62
     7
370
     9
100
AcDbLine
 10
-1700.197741501347
 20
-897.8487129867958
 30
0.0
 11
-1700.197741501347
 21
-891.8487129867945
 31
0.0
  0
LINE
  5
259
330
1F
100
AcDbEntity
  8
0-7_金物
  6
Continuous
 62
     7
370
     9
100
AcDbLine
 10
-1712.197741501346
 20
-879.8487129867951
 30
0.0
 11
-1718.197741501348
 21
-879.8487129867951
 31
0.0
  0
ARC
  5
25A
330
1F
100
AcDbEntity
  8
0-7_金物
  6
Continuous
 62
     7
370
     9
100
AcDbCircle
 10
-1718.197741501348
 20
-882.8487129867958
 30
0.0
 40
3.0
100
AcDbArc
 50
90.0
 51
180.0
  0
ARC
  5
25B
330
1F
100
AcDbEntity
  8
0-7_金物
  6
Continuous
 62
     7
370
     9
100
AcDbCircle
 10
-1703.197741501348
 20
-897.8487129867958
 30
0.0
 40
3.0
100
AcDbArc
 50
270.0
 51
0.0
  0
LINE
  5
25C
330
1F
100
AcDbEntity
  8
0-7_金物
  6
Continuous
 62
     7
370
     9
100
AcDbLine
 10
-1667.797741501346
 20
-1008.848712986795
 30
0.0
 11
-1667.797741501346
 21
-1026.848712986794
 31
0.0
  0
LINE
  5
25D
330
1F
100
AcDbEntity
  8
0-7_金物
  6
Continuous
 62
     7
370
     9
100
AcDbLine
 10
-1673.797741501347
 20
-1026.848712986794
 30
0.0
 11
-1673.797741501347
 21
-1008.848712986795
 31
0.0
  0
LINE
  5
25E
330
1F
100
AcDbEntity
  8
0-7_金物
  6
Continuous
 62
     7
370
     9
100
AcDbLine
 10
-1667.797741501346
 20
-1026.848712986794
 30
0.0
 11
-1673.797741501347
 21
-1026.848712986794
 31
0.0
  0
LINE
  5
25F
330
1F
100
AcDbEntity
  8
0-7_金物
  6
Continuous
 62
     7
370
     9
100
AcDbLine
 10
-1673.797741501347
 20
-1008.848712986795
 30
0.0
 11
-1667.797741501346
 21
-1008.848712986795
 31
0.0
  0
LINE
  5
260
330
1F
100
AcDbEntity
  8
0-7_金物
  6
Continuous
 62
     7
370
     9
100
AcDbLine
 10
-1732.597741501346
 20
-1008.848712986795
 30
0.0
 11
-1732.597741501346
 21
-1026.848712986794
 31
0.0
  0
LINE
  5
261
330
1F
100
AcDbEntity
  8
0-7_金物
  6
Continuous
 62
     7
370
     9
100
AcDbLine
 10
-1673.797741501347
 20
-1026.848712986794
 30
0.0
 11
-1732.597741501346
 21
-1026.848712986794
 31
0.0
  0
LINE
  5
262
330
1F
100
AcDbEntity
  8
0-7_金物
  6
Continuous
 62
     7
370
     9
100
AcDbLine
 10
-1732.597741501346
 20
-1008.848712986795
 30
0.0
 11
-1673.797741501347
 21
-1008.848712986795
 31
0.0
  0
LINE
  5
263
330
1F
100
AcDbEntity
  8
0-7_金物
  6
Continuous
 62
     7
370
     9
100
AcDbLine
 10
-1750.597741501347
 20
-822.8487129867958
 30
0.0
 11
-1750.597741501347
 21
-962.6487129867949
 31
0.0
  0
LINE
  5
264
330
1F
100
AcDbEntity
  8
0-7_金物
  6
Continuous
 62
     7
370
     9
100
AcDbLine
 10
-1655.797741501346
 20
-822.8487129867958
 30
0.0
 11
-1655.797741501346
 21
-962.6487129867949
 31
0.0
  0
CIRCLE
  5
265
330
1F
100
AcDbEntity
  8
0-7_金物
  6
Continuous
 62
     7
370
     9
100
AcDbCircle
 10
-1703.197741501348
 20
-882.8487129867958
 30
0.0
 40
21.00000000000001
  0
LINE
  5
266
330
1F
100
AcDbEntity
  8
0-7_金物
  6
Continuous
 62
     7
370
     9
100
AcDbLine
 10
-1655.797741501346
 20
-962.6487129867949
 30
0.0
 11
-1750.597741501347
 21
-962.6487129867949
 31
0.0
  0
LINE
  5
267
330
1F
100
AcDbEntity
  8
0-7_金物
  6
Continuous
 62
     7
370
     9
100
AcDbLine
 10
-1738.597741501346
 20
-1026.848712986794
 30
0.0
 11
-1738.597741501346
 21
-1008.848712986795
 31
0.0
  0
LINE
  5
268
330
1F
100
AcDbEntity
  8
0-7_金物
  6
Continuous
 62
     7
370
     9
100
AcDbLine
 10
-1732.597741501346
 20
-1026.848712986794
 30
0.0
 11
-1738.597741501346
 21
-1026.848712986794
 31
0.0
  0
LINE
  5
269
330
1F
100
AcDbEntity
  8
0-7_金物
  6
Continuous
 62
     7
370
     9
100
AcDbLine
 10
-1738.597741501346
 20
-1008.848712986795
 30
0.0
 11
-1732.597741501346
 21
-1008.848712986795
 31
0.0
  0
LINE
  5
26A
330
1F
100
AcDbEntity
  8
0-7_金物
  6
Continuous
 62
     7
370
     9
100
AcDbLine
 10
-1667.797741501346
 20
-990.8487129867947
 30
0.0
 11
-1738.597741501346
 21
-990.8487129867947
 31
0.0
  0
LINE
  5
26B
330
1F
100
AcDbEntity
  8
0-7_金物
  6
Continuous
 62
     7
370
     9
100
AcDbLine
 10
-1738.597741501346
 20
-990.8487129867947
 30
0.0
 11
-1738.597741501346
 21
-978.8487129867954
 31
0.0
  0
LINE
  5
26C
330
1F
100
AcDbEntity
  8
0-7_金物
  6
Continuous
 62
     7
370
     9
100
AcDbLine
 10
-1738.597741501346
 20
-978.8487129867954
 30
0.0
 11
-1667.797741501346
 21
-978.8487129867954
 31
0.0
  0
LINE
  5
26D
330
1F
100
AcDbEntity
  8
0-7_金物
  6
Continuous
 62
     7
370
     9
100
AcDbLine
 10
-1667.797741501346
 20
-978.8487129867954
 30
0.0
 11
-1667.797741501346
 21
-990.8487129867947
 31
0.0
  0
LINE
  5
26E
330
1F
100
AcDbEntity
  8
0-7_金物
  6
Continuous
 62
     7
370
     9
100
AcDbLine
 10
-1727.197741501346
 20
-975.8487129867947
 30
0.0
 11
-1738.597741501346
 21
-975.8487129867947
 31
0.0
  0
LINE
  5
26F
330
1F
100
AcDbEntity
  8
0-7_金物
  6
Continuous
 62
     7
370
     9
100
AcDbLine
 10
-1727.197741501346
 20
-975.8487129867947
 30
0.0
 11
-1727.197741501346
 21
-962.6487129867949
 31
0.0
  0
LINE
  5
270
330
1F
100
AcDbEntity
  8
0-7_金物
  6
Continuous
 62
     7
370
     9
100
AcDbLine
 10
-1667.797741501346
 20
-975.8487129867947
 30
0.0
 11
-1679.197741501347
 21
-975.8487129867947
 31
0.0
  0
LINE
  5
271
330
1F
100
AcDbEntity
  8
0-7_金物
  6
Continuous
 62
     7
370
     9
100
AcDbLine
 10
-1679.197741501347
 20
-962.6487129867949
 30
0.0
 11
-1679.197741501347
 21
-975.8487129867947
 31
0.0
  0
LINE
  5
272
330
1F
100
AcDbEntity
  8
0-7_金物
  6
Continuous
 62
     7
370
     9
100
AcDbLine
 10
-1667.797741501346
 20
-978.8487129867954
 30
0.0
 11
-1667.797741501346
 21
-975.8487129867947
 31
0.0
  0
LINE
  5
273
330
1F
100
AcDbEntity
  8
0-7_金物
  6
Continuous
 62
     7
370
     9
100
AcDbLine
 10
-1738.597741501346
 20
-975.8487129867947
 30
0.0
 11
-1738.597741501346
 21
-978.8487129867954
 31
0.0
  0
LINE
  5
274
330
1F
100
AcDbEntity
  8
0-7_金物
  6
Continuous
 62
     7
370
     9
100
AcDbLine
 10
-1712.197741501346
 20
-990.8487129867947
 30
0.0
 11
-1712.197741501346
 21
-1008.848712986795
 31
0.0
  0
LINE
  5
275
330
1F
100
AcDbEntity
  8
0-7_金物
  6
Continuous
 62
     7
370
     9
100
AcDbLine
 10
-1694.197741501347
 20
-990.8487129867947
 30
0.0
 11
-1694.197741501347
 21
-1008.848712986795
 31
0.0
  0
LINE
  5
276
330
1F
100
AcDbEntity
  8
0-7_金物
  6
Continuous
 62
     7
370
     9
100
AcDbLine
 10
-1727.197741501346
 20
-1002.848712986796
 30
0.0
 11
-1712.197741501346
 21
-1002.848712986796
 31
0.0
  0
LINE
  5
277
330
1F
100
AcDbEntity
  8
0-7_金物
  6
Continuous
 62
     7
370
     9
100
AcDbLine
 10
-1727.197741501346
 20
-1008.848712986795
 30
0.0
 11
-1727.197741501346
 21
-1002.848712986796
 31
0.0
  0
LINE
  5
278
330
1F
100
AcDbEntity
  8
0-7_金物
  6
Continuous
 62
     7
370
     9
100
AcDbLine
 10
-1694.197741501347
 20
-1002.848712986796
 30
0.0
 11
-1679.197741501347
 21
-1002.848712986796
 31
0.0
  0
LINE
  5
279
330
1F
100
AcDbEntity
  8
0-7_金物
  6
Continuous
 62
     7
370
     9
100
AcDbLine
 10
-1679.197741501347
 20
-1002.848712986796
 30
0.0
 11
-1679.197741501347
 21
-1008.848712986795
 31
0.0
  0
LINE
  5
27A
330
1F
100
AcDbEntity
  8
0-7_金物
  6
Continuous
 62
     7
370
     9
100
AcDbLine
 10
-1679.197741501347
 20
-990.8487129867947
 30
0.0
 11
-1679.197741501347
 21
-1002.848712986796
 31
0.0
  0
LINE
  5
27B
330
1F
100
AcDbEntity
  8
0-7_金物
  6
Continuous
 62
     7
370
     9
100
AcDbLine
 10
-1727.197741501346
 20
-1002.848712986796
 30
0.0
 11
-1727.197741501346
 21
-990.8487129867947
 31
0.0
  0
LINE
  5
27C
330
1F
100
AcDbEntity
  8
0-7_金物
  6
Continuous
 62
     7
370
     9
100
AcDbLine
 10
-1734.697741501341
 20
-725.0487129867961
 30
0.0
 11
-1734.697741501341
 21
-794.6487129867942
 31
0.0
  0
LINE
  5
27D
330
1F
100
AcDbEntity
  8
0-7_金物
  6
Continuous
 62
     7
370
     9
100
AcDbLine
 10
-1734.697741501341
 20
-707.0487129867954
 30
0.0
 11
-1734.697741501341
 21
-725.0487129867961
 31
0.0
  0
LINE
  5
27E
330
1F
100
AcDbEntity
  8
0-7_金物
  6
Continuous
 62
     7
370
     9
100
AcDbLine
 10
-1671.697741501341
 20
-725.0487129867961
 30
0.0
 11
-1671.697741501341
 21
-707.0487129867954
 31
0.0
  0
LINE
  5
27F
330
1F
100
AcDbEntity
  8
0-7_金物
  6
Continuous
 62
     7
370
     9
100
AcDbLine
 10
-1734.697741501341
 20
-794.6487129867942
 30
0.0
 11
-1734.697741501341
 21
-821.0487129867956
 31
0.0
  0
LINE
  5
280
330
1F
100
AcDbEntity
  8
0-7_金物
  6
Continuous
 62
     7
370
     9
100
AcDbLine
 10
-1671.697741501341
 20
-821.0487129867956
 30
0.0
 11
-1671.697741501341
 21
-794.6487129867942
 31
0.0
  0
LINE
  5
281
330
1F
100
AcDbEntity
  8
0-7_金物
  6
Continuous
 62
     7
370
     9
100
AcDbLine
 10
-1679.197741501341
 20
-821.0487129867956
 30
0.0
 11
-1727.197741501341
 21
-821.0487129867956
 31
0.0
  0
LINE
  5
282
330
1F
100
AcDbEntity
  8
0-7_金物
  6
Continuous
 62
     7
370
     9
100
AcDbLine
 10
-1727.197741501341
 20
-821.0487129867956
 30
0.0
 11
-1727.197741501341
 21
-822.8487129867958
 31
0.0
  0
LINE
  5
283
330
1F
100
AcDbEntity
  8
0-7_金物
  6
Continuous
 62
     7
370
     9
100
AcDbLine
 10
-1679.197741501341
 20
-822.8487129867958
 30
0.0
 11
-1679.197741501341
 21
-821.0487129867956
 31
0.0
  0
LINE
  5
284
330
1F
100
AcDbEntity
  8
0-7_金物
  6
Continuous
 62
     7
370
     9
100
AcDbLine
 10
-1754.197741501341
 20
-683.048712986795
 30
0.0
 11
-1754.197741501341
 21
-707.0487129867954
 31
0.0
  0
LINE
  5
285
330
1F
100
AcDbEntity
  8
0-7_金物
  6
Continuous
 62
     7
370
     9
100
AcDbLine
 10
-1730.197741501341
 20
-683.048712986795
 30
0.0
 11
-1754.197741501341
 21
-683.048712986795
 31
0.0
  0
LINE
  5
286
330
1F
100
AcDbEntity
  8
0-7_金物
  6
Continuous
 62
     7
370
     9
100
AcDbLine
 10
-1730.197741501341
 20
-695.0487129867961
 30
0.0
 11
-1730.197741501341
 21
-683.048712986795
 31
0.0
  0
LINE
  5
287
330
1F
100
AcDbEntity
  8
0-7_金物
  6
Continuous
 62
     7
370
     9
100
AcDbLine
 10
-1676.197741501341
 20
-695.0487129867961
 30
0.0
 11
-1730.197741501341
 21
-695.0487129867961
 31
0.0
  0
LINE
  5
288
330
1F
100
AcDbEntity
  8
0-7_金物
  6
Continuous
 62
     7
370
     9
100
AcDbLine
 10
-1676.197741501341
 20
-683.048712986795
 30
0.0
 11
-1676.197741501341
 21
-695.0487129867961
 31
0.0
  0
LINE
  5
289
330
1F
100
AcDbEntity
  8
0-7_金物
  6
Continuous
 62
     7
370
     9
100
AcDbLine
 10
-1652.197741501341
 20
-707.0487129867954
 30
0.0
 11
-1652.197741501341
 21
-683.048712986795
 31
0.0
  0
LINE
  5
28A
330
1F
100
AcDbEntity
  8
0-7_金物
  6
Continuous
 62
     7
370
     9
100
AcDbLine
 10
-1703.197741501341
 20
-707.0487129867954
 30
0.0
 11
-1652.197741501341
 21
-707.0487129867954
 31
0.0
  0
LINE
  5
28B
330
1F
100
AcDbEntity
  8
0-7_金物
  6
Continuous
 62
     7
370
     9
100
AcDbLine
 10
-1754.197741501341
 20
-707.0487129867954
 30
0.0
 11
-1703.197741501341
 21
-707.0487129867954
 31
0.0
  0
LINE
  5
28C
330
1F
100
AcDbEntity
  8
0-7_金物
  6
Continuous
 62
     7
370
     9
100
AcDbLine
 10
-1652.197741501341
 20
-683.048712986795
 30
0.0
 11
-1676.197741501341
 21
-683.048712986795
 31
0.0
  0
LINE
  5
28D
330
1F
100
AcDbEntity
  8
0-7_金物
  6
Continuous
 62
     7
370
     9
100
AcDbLine
 10
-1671.697741501341
 20
-794.6487129867942
 30
0.0
 11
-1703.197741501341
 21
-794.6487129867942
 31
0.0
  0
LINE
  5
28E
330
1F
100
AcDbEntity
  8
0-7_金物
  6
Continuous
 62
     7
370
     9
100
AcDbLine
 10
-1703.197741501341
 20
-725.0487129867961
 30
0.0
 11
-1671.697741501341
 21
-725.0487129867961
 31
0.0
  0
LINE
  5
28F
330
1F
100
AcDbEntity
  8
0-7_金物
  6
Continuous
 62
     7
370
     9
100
AcDbLine
 10
-1703.197741501341
 20
-794.6487129867942
 30
0.0
 11
-1734.697741501341
 21
-794.6487129867942
 31
0.0
  0
LINE
  5
290
330
1F
100
AcDbEntity
  8
0-7_金物
  6
Continuous
 62
     7
370
     9
100
AcDbLine
 10
-1734.697741501341
 20
-725.0487129867961
 30
0.0
 11
-1703.197741501341
 21
-725.0487129867961
 31
0.0
  0
LINE
  5
291
330
1F
100
AcDbEntity
  8
0-7_金物
  6
Continuous
 62
     7
370
     9
100
AcDbLine
 10
-1671.697741501341
 20
-794.6487129867942
 30
0.0
 11
-1671.697741501341
 21
-725.0487129867961
 31
0.0
  0
LINE
  5
292
330
1F
100
AcDbEntity
  8
0-7_金物
  6
Continuous
 62
     7
370
     9
100
AcDbLine
 10
-1679.197741501341
 20
-821.0487129867956
 30
0.0
 11
-1671.697741501341
 21
-821.0487129867956
 31
0.0
  0
LINE
  5
293
330
1F
100
AcDbEntity
  8
0-7_金物
  6
Continuous
 62
     7
370
     9
100
AcDbLine
 10
-1734.697741501341
 20
-821.0487129867956
 30
0.0
 11
-1727.197741501341
 21
-821.0487129867956
 31
0.0
  0
LINE
  5
294
330
1F
100
AcDbEntity
  8
0-7_金物
  6
Continuous
 62
     7
370
     9
100
AcDbLine
 10
-1737.097967083472
 20
-642.8487129867974
 30
0.0
 11
-1669.297515919211
 21
-642.8487129867958
 31
0.0
  0
LINE
  5
295
330
1F
100
AcDbEntity
  8
0-7_金物
  6
Continuous
 62
     7
370
     9
100
AcDbLine
 10
-1622.197202499792
 20
-642.8487129867974
 30
0.0
 11
-1623.397741501342
 21
-642.8487129867958
 31
0.0
  0
LINE
  5
296
330
1F
100
AcDbEntity
  8
0-7_金物
  6
Continuous
 62
     7
370
     9
100
AcDbLine
 10
-1784.197741501341
 20
-642.8487129867958
 30
0.0
 11
-1782.997741501341
 21
-642.8487129867958
 31
0.0
  0
LINE
  5
297
330
1F
100
AcDbEntity
  8
0-7_金物
  6
Continuous
 62
     7
370
     9
100
AcDbLine
 10
-1655.797741501341
 20
-822.8487129867958
 30
0.0
 11
-1750.597741501342
 21
-822.8487129867958
 31
0.0
  0
LINE
  5
298
330
1F
100
AcDbEntity
  8
0-7_金物
  6
Continuous
 62
     7
370
     9
100
AcDbLine
 10
-1626.39723044802
 20
-760.5873489128348
 30
0.0
 11
-1626.39723044802
 21
-675.8489325800181
 31
0.0
  0
ARC
  5
299
330
1F
100
AcDbEntity
  8
0-7_金物
  6
Continuous
 62
     7
370
     9
100
AcDbCircle
 10
-1651.597398137391
 20
-744.8493917294891
 30
0.0
 40
30.00019963020328
100
AcDbArc
 50
238.109208198154
 51
326.0768879967404
  0
ARC
  5
29A
330
1F
100
AcDbEntity
  8
0-7_金物
  6
Continuous
 62
     7
370
     9
100
AcDbCircle
 10
-1668.397509930306
 20
-771.8495713966709
 30
0.0
 40
1.800011977811773
100
AcDbArc
 50
58.10920819813639
 51
180.0
  0
ARC
  5
29B
330
1F
100
AcDbEntity
  8
0-7_金物
  6
Continuous
 62
     7
370
     9
100
AcDbCircle
 10
-1628.197242425836
 20
-760.5873489128348
 30
0.0
 40
1.800011977815348
100
AcDbArc
 50
326.076887996758
 51
0.0000000000000127
  0
LINE
  5
29C
330
1F
100
AcDbEntity
  8
0-7_金物
  6
Continuous
 62
     7
370
     9
100
AcDbLine
 10
-1675.297555845252
 20
-662.0488407501252
 30
0.0
 11
-1675.297555845252
 21
-653.6487848536674
 31
0.0
  0
LINE
  5
29D
330
1F
100
AcDbEntity
  8
0-7_金物
  6
Continuous
 62
     7
370
     9
100
AcDbLine
 10
-1666.297495956191
 20
-651.8487728758557
 30
0.0
 11
-1666.297495956191
 21
-645.8487329498168
 31
0.0
  0
LINE
  5
29E
330
1F
100
AcDbEntity
  8
0-7_金物
  6
Continuous
 62
     7
370
     9
100
AcDbLine
 10
-1629.397250411041
 20
-654.848792838877
 30
0.0
 11
-1663.29747599317
 21
-654.848792838877
 31
0.0
  0
LINE
  5
29F
330
1F
100
AcDbEntity
  8
0-7_金物
  6
Continuous
 62
     7
370
     9
100
AcDbLine
 10
-1638.397310300102
 20
-663.8488527279387
 30
0.0
 11
-1673.497543867441
 21
-663.8488527279387
 31
0.0
  0
LINE
  5
2A0
330
1F
100
AcDbEntity
  8
0-7_金物
  6
Continuous
 62
     7
370
     9
100
AcDbLine
 10
-1626.39723044802
 20
-651.8487728758557
 30
0.0
 11
-1626.39723044802
 21
-645.8487329498168
 31
0.0
  0
ARC
  5
2A1
330
1F
100
AcDbEntity
  8
0-7_金物
  6
Continuous
 62
     7
370
     9
100
AcDbCircle
 10
-1669.297515919211
 20
-645.8487329498153
 30
0.0
 40
3.000019963019752
100
AcDbArc
 50
0.0
 51
90.00000000000163
  0
ARC
  5
2A2
330
1F
100
AcDbEntity
  8
0-7_金物
  6
Continuous
 62
     7
370
     9
100
AcDbCircle
 10
-1663.297475993171
 20
-651.8487728758557
 30
0.0
 40
3.000019963020116
100
AcDbArc
 50
180.0
 51
270.0000000000049
  0
ARC
  5
2A3
330
1F
100
AcDbEntity
  8
0-7_金物
  6
Continuous
 62
     7
370
     9
100
AcDbCircle
 10
-1629.397250411041
 20
-651.8487728758557
 30
0.0
 40
3.000019963020043
100
AcDbArc
 50
269.9999999999951
 51
0.0
  0
ARC
  5
2A4
330
1F
100
AcDbEntity
  8
0-7_金物
  6
Continuous
 62
     7
370
     9
100
AcDbCircle
 10
-1623.397210485
 20
-645.8487329498153
 30
0.0
 40
3.000019963019753
100
AcDbArc
 50
89.99999999999022
 51
180.0
  0
ARC
  5
2A5
330
1F
100
AcDbEntity
  8
0-7_金物
  6
Continuous
 62
     7
370
     9
100
AcDbCircle
 10
-1622.197202499792
 20
-645.8487329498168
 30
0.0
 40
3.000019963020626
100
AcDbArc
 50
0.0
 51
89.99999999999349
  0
ARC
  5
2A6
330
1F
100
AcDbEntity
  8
0-7_金物
  6
Continuous
 62
     7
370
     9
100
AcDbCircle
 10
-1638.397310300102
 20
-675.8489325800199
 30
0.0
 40
12.00007985208206
100
AcDbArc
 50
0.0
 51
89.99999999999841
  0
ARC
  5
2A7
330
1F
100
AcDbEntity
  8
0-7_金物
  6
Continuous
 62
     7
370
     9
100
AcDbCircle
 10
-1673.497543867441
 20
-662.0488407501252
 30
0.0
 40
1.800011977812318
100
AcDbArc
 50
180.0
 51
269.9999999999968
  0
LINE
  5
2A8
330
1F
100
AcDbEntity
  8
0-7_金物
  6
Continuous
 62
     7
370
     9
100
AcDbLine
 10
-1779.998252554662
 20
-760.5873489128348
 30
0.0
 11
-1779.998252554662
 21
-675.8489325800181
 31
0.0
  0
ARC
  5
2A9
330
1F
100
AcDbEntity
  8
0-7_金物
  6
Continuous
 62
     7
370
     9
100
AcDbCircle
 10
-1778.198240576859
 20
-760.5873489128364
 30
0.0
 40
1.80001197780369
100
AcDbArc
 50
180.0
 51
213.9231120033558
  0
LINE
  5
2AA
330
1F
100
AcDbEntity
  8
0-7_金物
  6
Continuous
 62
     7
370
     9
100
AcDbLine
 10
-1767.998172702581
 20
-663.8488527279387
 30
0.0
 11
-1732.897939135242
 21
-663.8488527279387
 31
0.0
  0
LINE
  5
2AB
330
1F
100
AcDbEntity
  8
0-7_金物
  6
Continuous
 62
     7
370
     9
100
AcDbLine
 10
-1776.998232591642
 20
-654.848792838877
 30
0.0
 11
-1743.098007009513
 21
-654.848792838877
 31
0.0
  0
ARC
  5
2AC
330
1F
100
AcDbEntity
  8
0-7_金物
  6
Continuous
 62
     7
370
     9
100
AcDbCircle
 10
-1767.998172702581
 20
-675.8489325800181
 30
0.0
 40
12.00007985208111
100
AcDbArc
 50
90.0
 51
180.0
  0
ARC
  5
2AD
330
1F
100
AcDbEntity
  8
0-7_金物
  6
Continuous
 62
     7
370
     9
100
AcDbCircle
 10
-1784.19828050289
 20
-645.8487329498168
 30
0.0
 40
3.000019963020699
100
AcDbArc
 50
90.00000000000813
 51
180.0
  0
LINE
  5
2AE
330
1F
100
AcDbEntity
  8
0-7_金物
  6
Continuous
 62
     7
370
     9
100
AcDbLine
 10
-1779.998252554662
 20
-651.8487728758557
 30
0.0
 11
-1779.998252554662
 21
-645.8487329498168
 31
0.0
  0
ARC
  5
2AF
330
1F
100
AcDbEntity
  8
0-7_金物
  6
Continuous
 62
     7
370
     9
100
AcDbCircle
 10
-1782.998272517683
 20
-645.8487329498168
 30
0.0
 40
3.000019963020699
100
AcDbArc
 50
0.0
 51
89.99999999999349
  0
ARC
  5
2B0
330
1F
100
AcDbEntity
  8
0-7_金物
  6
Continuous
 62
     7
370
     9
100
AcDbCircle
 10
-1776.998232591642
 20
-651.8487728758557
 30
0.0
 40
3.000019963020043
100
AcDbArc
 50
180.0
 51
270.0000000000049
  0
LINE
  5
2B1
330
1F
100
AcDbEntity
  8
0-7_金物
  6
Continuous
 62
     7
370
     9
100
AcDbLine
 10
-1729.297915179618
 20
-651.8487728758557
 30
0.0
 11
-1704.997753479154
 21
-651.8487728758557
 31
0.0
  0
LINE
  5
2B2
330
1F
100
AcDbEntity
  8
0-7_金物
  6
Continuous
 62
     7
370
     9
100
AcDbLine
 10
-1731.097927157432
 20
-662.0488407501252
 30
0.0
 11
-1731.097927157432
 21
-653.6487848536674
 31
0.0
  0
ARC
  5
2B3
330
1F
100
AcDbEntity
  8
0-7_金物
  6
Continuous
 62
     7
370
     9
100
AcDbCircle
 10
-1732.897939135242
 20
-662.0488407501286
 30
0.0
 40
1.800011977811371
100
AcDbArc
 50
269.9999999999902
 51
0.0
  0
ARC
  5
2B4
330
1F
100
AcDbEntity
  8
0-7_金物
  6
Continuous
 62
     7
370
     9
100
AcDbCircle
 10
-1737.097967083472
 20
-645.8487329498153
 30
0.0
 40
3.000019963019753
100
AcDbArc
 50
89.99999999999841
 51
180.0
  0
LINE
  5
2B5
330
1F
100
AcDbEntity
  8
0-7_金物
  6
Continuous
 62
     7
370
     9
100
AcDbLine
 10
-1740.097987046492
 20
-651.8487728758557
 30
0.0
 11
-1740.097987046492
 21
-645.8487329498168
 31
0.0
  0
ARC
  5
2B6
330
1F
100
AcDbEntity
  8
0-7_金物
  6
Continuous
 62
     7
370
     9
100
AcDbCircle
 10
-1743.098007009512
 20
-651.8487728758557
 30
0.0
 40
3.000019963020116
100
AcDbArc
 50
269.9999999999967
 51
0.0
  0
LINE
  5
2B7
330
1F
100
AcDbEntity
  8
0-7_金物
  6
Continuous
 62
     7
370
     9
100
AcDbLine
 10
-1701.39772952353
 20
-651.8487728758557
 30
0.0
 11
-1677.097567823064
 21
-651.8487728758557
 31
0.0
  0
ARC
  5
2B8
330
1F
100
AcDbEntity
  8
0-7_金物
  6
Continuous
 62
     7
370
     9
100
AcDbCircle
 10
-1677.097567823064
 20
-653.6487848536674
 30
0.0
 40
1.800011977812318
100
AcDbArc
 50
0.0
 51
89.99999999999675
  0
ARC
  5
2B9
330
1F
100
AcDbEntity
  8
0-7_金物
  6
Continuous
 62
     7
370
     9
100
AcDbCircle
 10
-1729.297915179618
 20
-653.6487848536674
 30
0.0
 40
1.800011977812317
100
AcDbArc
 50
90.00000000000325
 51
180.0
  0
LINE
  5
2BA
330
1F
100
AcDbEntity
  8
0-7_金物
  6
Continuous
 62
     7
370
     9
100
AcDbLine
 10
-1670.1975219081
 20
-775.3493926573217
 30
0.0
 11
-1670.197521908117
 21
-771.8495713966709
 31
0.0
  0
ARC
  5
2BB
330
1F
100
AcDbEntity
  8
0-7_金物
  6
Continuous
 62
     7
370
     9
100
AcDbCircle
 10
-1664.1975219081
 20
-775.349392657291
 30
0.0
 40
6.000000000000762
100
AcDbArc
 50
180.0
 51
247.5535600967714
  0
ARC
  5
2BC
330
1F
100
AcDbEntity
  8
0-7_金物
  6
Continuous
 62
     7
370
     9
100
AcDbCircle
 10
-1651.597398137392
 20
-744.8493917294891
 30
0.0
 40
39.00019963020362
100
AcDbArc
 50
247.5535600967765
 51
319.0741272361626
  0
ARC
  5
2BD
330
1F
100
AcDbEntity
  8
0-7_金物
  6
Continuous
 62
     7
370
     9
100
AcDbCircle
 10
-1754.798084865292
 20
-744.8493917294891
 30
0.0
 40
30.00019963020324
100
AcDbArc
 50
213.9231120032596
 51
301.8907918018461
  0
ARC
  5
2BE
330
1F
100
AcDbEntity
  8
0-7_金物
  6
Continuous
 62
     7
370
     9
100
AcDbCircle
 10
-1737.997973072377
 20
-771.8495713966709
 30
0.0
 40
1.800011977811815
100
AcDbArc
 50
0.0
 51
121.8907918018614
  0
LINE
  5
2BF
330
1F
100
AcDbEntity
  8
0-7_金物
  6
Continuous
 62
     7
370
     9
100
AcDbLine
 10
-1736.197961094582
 20
-775.3493926573217
 30
0.0
 11
-1736.197961094565
 21
-771.8495713966709
 31
0.0
  0
ARC
  5
2C0
330
1F
100
AcDbEntity
  8
0-7_金物
  6
Continuous
 62
     7
370
     9
100
AcDbCircle
 10
-1742.197961094583
 20
-775.349392657291
 30
0.0
 40
6.000000000000811
100
AcDbArc
 50
292.4464399032286
 51
0.0
  0
ARC
  5
2C1
330
1F
100
AcDbEntity
  8
0-7_金物
  6
Continuous
 62
     7
370
     9
100
AcDbCircle
 10
-1754.798084865291
 20
-744.8493917294891
 30
0.0
 40
39.00019963020364
100
AcDbArc
 50
220.9258727638373
 51
292.4464399032233
  0
ARC
  5
2C2
330
1F
100
AcDbEntity
  8
0-7_金物
  6
Continuous
 62
     7
370
     9
100
AcDbCircle
 10
-1607.797182536772
 20
-749.6493997146954
 30
0.0
 40
3.59999999999971
100
AcDbArc
 50
0.0
 51
180.0
  0
ARC
  5
2C3
330
1F
100
AcDbEntity
  8
0-7_金物
  6
Continuous
 62
     7
370
     9
100
AcDbCircle
 10
-1631.197188483627
 20
-762.5367382278555
 30
0.0
 40
11.99999999999909
100
AcDbArc
 50
319.0741272361557
 51
328.260726288411
  0
ARC
  5
2C4
330
1F
100
AcDbEntity
  8
0-7_金物
  6
Continuous
 62
     7
370
     9
100
AcDbCircle
 10
-1611.39718253677
 20
-750.8493997146943
 30
0.0
 40
1.200000000000017
100
AcDbArc
 50
90.00000000002449
 51
270.0000000000261
  0
ARC
  5
2C5
330
1F
100
AcDbEntity
  8
0-7_金物
  6
Continuous
 62
     7
370
     9
100
AcDbCircle
 10
-1798.598300465911
 20
-749.6493997146954
 30
0.0
 40
3.59999999999971
100
AcDbArc
 50
0.0
 51
180.0
  0
ARC
  5
2C6
330
1F
100
AcDbEntity
  8
0-7_金物
  6
Continuous
 62
     7
370
     9
100
AcDbCircle
 10
-1794.998300465912
 20
-750.8493997146943
 30
0.0
 40
1.200000000000017
100
AcDbArc
 50
269.9999999999723
 51
89.99999999997556
  0
ARC
  5
2C7
330
1F
100
AcDbEntity
  8
0-7_金物
  6
Continuous
 62
     7
370
     9
100
AcDbCircle
 10
-1775.198294519057
 20
-762.5367382278555
 30
0.0
 40
11.99999999999904
100
AcDbArc
 50
211.7392737115898
 51
220.9258727638443
  0
LINE
  5
2C8
330
1F
100
AcDbEntity
  8
0-7_金物
  6
Continuous
 62
     7
370
     9
100
AcDbLine
 10
-1604.197182536772
 20
-765.8494398432995
 30
0.0
 11
-1604.197182536772
 21
-749.6493997146954
 31
0.0
  0
LINE
  5
2C9
330
1F
100
AcDbEntity
  8
0-7_金物
  6
Continuous
 62
     7
370
     9
100
AcDbLine
 10
-1607.197192315786
 20
-768.8494398432831
 30
0.0
 11
-1620.991779818402
 21
-768.8493948774558
 31
0.0
  0
ARC
  5
2CA
330
1F
100
AcDbEntity
  8
0-7_金物
  6
Continuous
 62
     7
370
     9
100
AcDbCircle
 10
-1607.197182536772
 20
-765.8494398432995
 30
0.0
 40
3.000000000000129
100
AcDbArc
 50
269.9998132345706
 51
0.0
  0
LINE
  5
2CB
330
1F
100
AcDbEntity
  8
0-7_金物
  6
Continuous
 62
     7
370
     9
100
AcDbLine
 10
-1802.198300465911
 20
-765.8494398432995
 30
0.0
 11
-1802.198300465911
 21
-749.6493997146954
 31
0.0
  0
LINE
  5
2CC
330
1F
100
AcDbEntity
  8
0-7_金物
  6
Continuous
 62
     7
370
     9
100
AcDbLine
 10
-1799.198290686896
 20
-768.8494398432831
 30
0.0
 11
-1785.40370318428
 21
-768.8493948774558
 31
0.0
  0
ARC
  5
2CD
330
1F
100
AcDbEntity
  8
0-7_金物
  6
Continuous
 62
     7
370
     9
100
AcDbCircle
 10
-1799.198300465911
 20
-765.8494398432995
 30
0.0
 40
3.000000000000171
100
AcDbArc
 50
180.0
 51
270.0001867654327
  0
LINE
  5
2CE
330
1F
100
AcDbEntity
  8
0-7_金物
  6
Continuous
 62
     7
370
     9
100
AcDbLine
 10
-1611.397182536772
 20
-758.6493997146956
 30
0.0
 11
-1611.397182536772
 21
-752.0493997146948
 31
0.0
  0
ARC
  5
2CF
330
1F
100
AcDbEntity
  8
0-7_金物
  6
Continuous
 62
     7
370
     9
100
AcDbCircle
 10
-1614.397182536772
 20
-758.6493997146956
 30
0.0
 40
2.999999999999745
100
AcDbArc
 50
269.9999999999951
 51
0.0
  0
LINE
  5
2D0
330
1F
100
AcDbEntity
  8
0-7_金物
  6
Continuous
 62
     7
370
     9
100
AcDbLine
 10
-1619.197182536772
 20
-758.6493997146956
 30
0.0
 11
-1619.197182536772
 21
-645.8487329498168
 31
0.0
  0
LINE
  5
2D1
330
1F
100
AcDbEntity
  8
0-7_金物
  6
Continuous
 62
     7
370
     9
100
AcDbLine
 10
-1616.197182536772
 20
-761.6493997146963
 30
0.0
 11
-1614.397182536772
 21
-761.6493997146963
 31
0.0
  0
ARC
  5
2D2
330
1F
100
AcDbEntity
  8
0-7_金物
  6
Continuous
 62
     7
370
     9
100
AcDbCircle
 10
-1616.197182536772
 20
-758.6493997146956
 30
0.0
 40
3.000000000000129
100
AcDbArc
 50
180.0
 51
269.9999999999935
  0
LINE
  5
2D3
330
1F
100
AcDbEntity
  8
0-7_金物
  6
Continuous
 62
     7
370
     9
100
AcDbLine
 10
-1787.198300465911
 20
-758.6493997146956
 30
0.0
 11
-1787.198300465911
 21
-645.8487329498168
 31
0.0
  0
ARC
  5
2D4
330
1F
100
AcDbEntity
  8
0-7_金物
  6
Continuous
 62
     7
370
     9
100
AcDbCircle
 10
-1790.198300465911
 20
-758.6493997146956
 30
0.0
 40
3.0
100
AcDbArc
 50
270.0000000000015
 51
0.0
  0
LINE
  5
2D5
330
1F
100
AcDbEntity
  8
0-7_金物
  6
Continuous
 62
     7
370
     9
100
AcDbLine
 10
-1790.198300465911
 20
-761.6493997146963
 30
0.0
 11
-1791.99830046591
 21
-761.6493997146963
 31
0.0
  0
LINE
  5
2D6
330
1F
100
AcDbEntity
  8
0-7_金物
  6
Continuous
 62
     7
370
     9
100
AcDbLine
 10
-1794.99830046591
 20
-758.6493997146956
 30
0.0
 11
-1794.99830046591
 21
-752.0493997146948
 31
0.0
  0
ARC
  5
2D7
330
1F
100
AcDbEntity
  8
0-7_金物
  6
Continuous
 62
     7
370
     9
100
AcDbCircle
 10
-1791.99830046591
 20
-758.6493997146956
 30
0.0
 40
3.0
100
AcDbArc
 50
180.0
 51
270.0
  0
LINE
  5
2D8
330
1F
100
AcDbEntity
  8
0-7_金物
  6
Continuous
 62
     7
370
     9
100
AcDbLine
 10
-1701.397729523527
 20
-651.8487728758557
 30
0.0
 11
-1703.197741501342
 21
-650.0487608980441
 31
0.0
  0
LINE
  5
2D9
330
1F
100
AcDbEntity
  8
0-7_金物
  6
Continuous
 62
     7
370
     9
100
AcDbLine
 10
-1703.19774150134
 20
-650.0487608980441
 30
0.0
 11
-1704.997753479154
 21
-651.8487728758557
 31
0.0
  0
LINE
  5
2DA
330
1F
100
AcDbEntity
  8
0-7_金物
  6
Continuous
 62
     7
370
     9
100
AcDbLine
 10
-1427.797741501349
 20
-1033.448712986795
 30
0.0
 11
-1427.797741501349
 21
-963.2487129867959
 31
0.0
  0
ARC
  5
2DB
330
1F
100
AcDbEntity
  8
0-7_金物
  6
Continuous
 62
     7
370
     9
100
AcDbCircle
 10
-1475.19774150135
 20
-1033.448712986795
 30
0.0
 40
47.40000000000003
100
AcDbArc
 50
180.0
 51
0.0
  0
LINE
  5
2DC
330
1F
100
AcDbEntity
  8
0-7_金物
  6
Continuous
 62
     7
370
     9
100
AcDbLine
 10
-1522.59774150135
 20
-963.2487129867959
 30
0.0
 11
-1522.59774150135
 21
-1033.448712986795
 31
0.0
  0
ARC
  5
2DD
330
1F
100
AcDbEntity
  8
0-7_金物
  6
Continuous
 62
     7
370
     9
100
AcDbCircle
 10
-1475.19774150135
 20
-1033.448712986795
 30
0.0
 40
41.40000000000003
100
AcDbArc
 50
180.0
 51
0.0
  0
LINE
  5
2DE
330
1F
100
AcDbEntity
  8
0-7_金物
  6
Continuous
 62
     7
370
     9
100
AcDbLine
 10
-1516.59774150135
 20
-1033.448712986795
 30
0.0
 11
-1516.59774150135
 21
-963.2487129867959
 31
0.0
  0
LINE
  5
2DF
330
1F
100
AcDbEntity
  8
0-7_金物
  6
Continuous
 62
     7
370
     9
100
AcDbLine
 10
-1427.797741501349
 20
-963.2487129867959
 30
0.0
 11
-1433.797741501349
 21
-963.2487129867959
 31
0.0
  0
LINE
  5
2E0
330
1F
100
AcDbEntity
  8
0-7_金物
  6
Continuous
 62
     7
370
     9
100
AcDbLine
 10
-1433.797741501349
 20
-963.2487129867959
 30
0.0
 11
-1433.797741501349
 21
-1033.448712986795
 31
0.0
  0
LINE
  5
2E1
330
1F
100
AcDbEntity
  8
0-7_金物
  6
Continuous
 62
     7
370
     9
100
AcDbLine
 10
-1516.59774150135
 20
-963.2487129867959
 30
0.0
 11
-1522.59774150135
 21
-963.2487129867959
 31
0.0
  0
LINE
  5
2E2
330
1F
100
AcDbEntity
  8
0-7_金物
  6
Continuous
 62
     7
370
     9
100
AcDbLine
 10
-1500.397741501349
 20
-963.2487129867959
 30
0.0
 11
-1500.397741501349
 21
-969.2487129867939
 31
0.0
  0
LINE
  5
2E3
330
1F
100
AcDbEntity
  8
0-7_金物
  6
Continuous
 62
     7
370
     9
100
AcDbLine
 10
-1511.797741501349
 20
-969.2487129867939
 30
0.0
 11
-1500.397741501349
 21
-969.2487129867939
 31
0.0
  0
LINE
  5
2E4
330
1F
100
AcDbEntity
  8
0-7_金物
  6
Continuous
 62
     7
370
     9
100
AcDbLine
 10
-1511.797741501349
 20
-969.2487129867939
 30
0.0
 11
-1511.797741501349
 21
-997.4487129867939
 31
0.0
  0
LINE
  5
2E5
330
1F
100
AcDbEntity
  8
0-7_金物
  6
Continuous
 62
     7
370
     9
100
AcDbLine
 10
-1500.397741501349
 20
-997.4487129867939
 30
0.0
 11
-1511.797741501349
 21
-997.4487129867939
 31
0.0
  0
LINE
  5
2E6
330
1F
100
AcDbEntity
  8
0-7_金物
  6
Continuous
 62
     7
370
     9
100
AcDbLine
 10
-1500.397741501349
 20
-997.4487129867939
 30
0.0
 11
-1500.397741501349
 21
-1008.848712986795
 31
0.0
  0
LINE
  5
2E7
330
1F
100
AcDbEntity
  8
0-7_金物
  6
Continuous
 62
     7
370
     9
100
AcDbLine
 10
-1449.997741501349
 20
-1008.848712986795
 30
0.0
 11
-1449.997741501349
 21
-997.4487129867939
 31
0.0
  0
LINE
  5
2E8
330
1F
100
AcDbEntity
  8
0-7_金物
  6
Continuous
 62
     7
370
     9
100
AcDbLine
 10
-1438.597741501349
 20
-997.4487129867939
 30
0.0
 11
-1449.997741501349
 21
-997.4487129867939
 31
0.0
  0
LINE
  5
2E9
330
1F
100
AcDbEntity
  8
0-7_金物
  6
Continuous
 62
     7
370
     9
100
AcDbLine
 10
-1438.597741501349
 20
-997.4487129867939
 30
0.0
 11
-1438.597741501349
 21
-969.2487129867939
 31
0.0
  0
LINE
  5
2EA
330
1F
100
AcDbEntity
  8
0-7_金物
  6
Continuous
 62
     7
370
     9
100
AcDbLine
 10
-1449.997741501349
 20
-969.2487129867939
 30
0.0
 11
-1438.597741501349
 21
-969.2487129867939
 31
0.0
  0
LINE
  5
2EB
330
1F
100
AcDbEntity
  8
0-7_金物
  6
Continuous
 62
     7
370
     9
100
AcDbLine
 10
-1449.997741501349
 20
-969.2487129867939
 30
0.0
 11
-1449.997741501349
 21
-963.2487129867959
 31
0.0
  0
LINE
  5
2EC
330
1F
100
AcDbEntity
  8
0-7_金物
  6
Continuous
 62
     7
370
     9
100
AcDbLine
 10
-1433.797741501349
 20
-963.2487129867959
 30
0.0
 11
-1449.997741501349
 21
-963.2487129867959
 31
0.0
  0
LINE
  5
2ED
330
1F
100
AcDbEntity
  8
0-7_金物
  6
Continuous
 62
     7
370
     9
100
AcDbLine
 10
-1500.397741501349
 20
-963.2487129867959
 30
0.0
 11
-1516.59774150135
 21
-963.2487129867959
 31
0.0
  0
LINE
  5
2EE
330
1F
100
AcDbEntity
  8
0-7_金物
  6
Continuous
 62
     7
370
     9
100
AcDbLine
 10
-1438.597741501349
 20
-975.2487129867952
 30
0.0
 11
-1449.997741501349
 21
-975.2487129867952
 31
0.0
  0
LINE
  5
2EF
330
1F
100
AcDbEntity
  8
0-7_金物
  6
Continuous
 62
     7
370
     9
100
AcDbLine
 10
-1449.997741501349
 20
-975.2487129867952
 30
0.0
 11
-1449.997741501349
 21
-969.2487129867939
 31
0.0
  0
LINE
  5
2F0
330
1F
100
AcDbEntity
  8
0-7_金物
  6
Continuous
 62
     7
370
     9
100
AcDbLine
 10
-1500.397741501349
 20
-975.2487129867952
 30
0.0
 11
-1511.797741501349
 21
-975.2487129867952
 31
0.0
  0
LINE
  5
2F1
330
1F
100
AcDbEntity
  8
0-7_金物
  6
Continuous
 62
     7
370
     9
100
AcDbLine
 10
-1500.397741501349
 20
-969.2487129867939
 30
0.0
 11
-1500.397741501349
 21
-975.2487129867952
 31
0.0
  0
LINE
  5
2F2
330
1F
100
AcDbEntity
  8
0-7_金物
  6
Continuous
 62
     7
370
     9
100
AcDbLine
 10
-1449.997741501349
 20
-991.4487129867941
 30
0.0
 11
-1438.597741501349
 21
-991.4487129867941
 31
0.0
  0
LINE
  5
2F3
330
1F
100
AcDbEntity
  8
0-7_金物
  6
Continuous
 62
     7
370
     9
100
AcDbLine
 10
-1449.997741501349
 20
-997.4487129867939
 30
0.0
 11
-1449.997741501349
 21
-991.4487129867941
 31
0.0
  0
LINE
  5
2F4
330
1F
100
AcDbEntity
  8
0-7_金物
  6
Continuous
 62
     7
370
     9
100
AcDbLine
 10
-1511.797741501349
 20
-991.4487129867941
 30
0.0
 11
-1500.397741501349
 21
-991.4487129867941
 31
0.0
  0
LINE
  5
2F5
330
1F
100
AcDbEntity
  8
0-7_金物
  6
Continuous
 62
     7
370
     9
100
AcDbLine
 10
-1500.397741501349
 20
-991.4487129867941
 30
0.0
 11
-1500.397741501349
 21
-997.4487129867939
 31
0.0
  0
LINE
  5
2F6
330
1F
100
AcDbEntity
  8
0-7_金物
  6
Continuous
 62
     7
370
     9
100
AcDbLine
 10
-1445.79774150135
 20
-962.6487129867949
 30
0.0
 11
-1445.79774150135
 21
-963.2487129867959
 31
0.0
  0
LINE
  5
2F7
330
1F
100
AcDbEntity
  8
0-7_金物
  6
Continuous
 62
     7
370
     9
100
AcDbLine
 10
-1427.797741501349
 20
-962.6487129867949
 30
0.0
 11
-1427.797741501349
 21
-963.2487129867959
 31
0.0
  0
LINE
  5
2F8
330
1F
100
AcDbEntity
  8
0-7_金物
  6
Continuous
 62
     7
370
     9
100
AcDbLine
 10
-1504.597741501349
 20
-963.2487129867959
 30
0.0
 11
-1504.597741501349
 21
-962.6487129867949
 31
0.0
  0
LINE
  5
2F9
330
1F
100
AcDbEntity
  8
0-7_金物
  6
Continuous
 62
     7
370
     9
100
AcDbLine
 10
-1522.59774150135
 20
-962.6487129867949
 30
0.0
 11
-1522.59774150135
 21
-963.2487129867959
 31
0.0
  0
ARC
  5
2FA
330
1F
100
AcDbEntity
  8
0-7_金物
  6
Continuous
 62
     7
370
     9
100
AcDbCircle
 10
-1484.197741501349
 20
-873.8487129867954
 30
0.0
 40
6.0
100
AcDbArc
 50
270.0
 51
0.0
  0
LINE
  5
2FB
330
1F
100
AcDbEntity
  8
0-7_金物
  6
Continuous
 62
     7
370
     9
100
AcDbLine
 10
-1490.19774150135
 20
-885.8487129867947
 30
0.0
 11
-1484.197741501349
 21
-885.8487129867947
 31
0.0
  0
ARC
  5
2FC
330
1F
100
AcDbEntity
  8
0-7_金物
  6
Continuous
 62
     7
370
     9
100
AcDbCircle
 10
-1484.197741501349
 20
-891.8487129867945
 30
0.0
 40
6.0
100
AcDbArc
 50
0.0
 51
90.0
  0
LINE
  5
2FD
330
1F
100
AcDbEntity
  8
0-7_金物
  6
Continuous
 62
     7
370
     9
100
AcDbLine
 10
-1478.197741501349
 20
-891.8487129867945
 30
0.0
 11
-1478.197741501349
 21
-897.8487129867958
 31
0.0
  0
ARC
  5
2FE
330
1F
100
AcDbEntity
  8
0-7_金物
  6
Continuous
 62
     7
370
     9
100
AcDbCircle
 10
-1460.19774150135
 20
-882.8487129867958
 30
0.0
 40
3.0
100
AcDbArc
 50
0.0
 51
90.0
  0
LINE
  5
2FF
330
1F
100
AcDbEntity
  8
0-7_金物
  6
Continuous
 62
     7
370
     9
100
AcDbLine
 10
-1472.19774150135
 20
-873.8487129867954
 30
0.0
 11
-1472.19774150135
 21
-867.8487129867958
 31
0.0
  0
ARC
  5
300
330
1F
100
AcDbEntity
  8
0-7_金物
  6
Continuous
 62
     7
370
     9
100
AcDbCircle
 10
-1475.19774150135
 20
-867.8487129867958
 30
0.0
 40
3.0
100
AcDbArc
 50
0.0
 51
90.0
  0
ARC
  5
301
330
1F
100
AcDbEntity
  8
0-7_金物
  6
Continuous
 62
     7
370
     9
100
AcDbCircle
 10
-1466.19774150135
 20
-891.8487129867945
 30
0.0
 40
6.0
100
AcDbArc
 50
90.0
 51
180.0
  0
LINE
  5
302
330
1F
100
AcDbEntity
  8
0-7_金物
  6
Continuous
 62
     7
370
     9
100
AcDbLine
 10
-1466.19774150135
 20
-885.8487129867947
 30
0.0
 11
-1460.19774150135
 21
-885.8487129867947
 31
0.0
  0
LINE
  5
303
330
1F
100
AcDbEntity
  8
0-7_金物
  6
Continuous
 62
     7
370
     9
100
AcDbLine
 10
-1460.19774150135
 20
-879.8487129867951
 30
0.0
 11
-1466.19774150135
 21
-879.8487129867951
 31
0.0
  0
ARC
  5
304
330
1F
100
AcDbEntity
  8
0-7_金物
  6
Continuous
 62
     7
370
     9
100
AcDbCircle
 10
-1466.19774150135
 20
-873.8487129867954
 30
0.0
 40
6.0
100
AcDbArc
 50
180.0
 51
270.0
  0
ARC
  5
305
330
1F
100
AcDbEntity
  8
0-7_金物
  6
Continuous
 62
     7
370
     9
100
AcDbCircle
 10
-1475.19774150135
 20
-867.8487129867958
 30
0.0
 40
3.0
100
AcDbArc
 50
90.0
 51
180.0
  0
ARC
  5
306
330
1F
100
AcDbEntity
  8
0-7_金物
  6
Continuous
 62
     7
370
     9
100
AcDbCircle
 10
-1490.19774150135
 20
-882.8487129867958
 30
0.0
 40
3.0
100
AcDbArc
 50
180.0
 51
270.0
  0
LINE
  5
307
330
1F
100
AcDbEntity
  8
0-7_金物
  6
Continuous
 62
     7
370
     9
100
AcDbLine
 10
-1478.197741501349
 20
-867.8487129867958
 30
0.0
 11
-1478.197741501349
 21
-873.8487129867954
 31
0.0
  0
ARC
  5
308
330
1F
100
AcDbEntity
  8
0-7_金物
  6
Continuous
 62
     7
370
     9
100
AcDbCircle
 10
-1460.19774150135
 20
-882.8487129867958
 30
0.0
 40
3.0
100
AcDbArc
 50
270.0
 51
0.0
  0
ARC
  5
309
330
1F
100
AcDbEntity
  8
0-7_金物
  6
Continuous
 62
     7
370
     9
100
AcDbCircle
 10
-1475.19774150135
 20
-897.8487129867958
 30
0.0
 40
3.0
100
AcDbArc
 50
180.0
 51
270.0
  0
LINE
  5
30A
330
1F
100
AcDbEntity
  8
0-7_金物
  6
Continuous
 62
     7
370
     9
100
AcDbLine
 10
-1472.19774150135
 20
-897.8487129867958
 30
0.0
 11
-1472.19774150135
 21
-891.8487129867945
 31
0.0
  0
LINE
  5
30B
330
1F
100
AcDbEntity
  8
0-7_金物
  6
Continuous
 62
     7
370
     9
100
AcDbLine
 10
-1484.197741501349
 20
-879.8487129867951
 30
0.0
 11
-1490.19774150135
 21
-879.8487129867951
 31
0.0
  0
ARC
  5
30C
330
1F
100
AcDbEntity
  8
0-7_金物
  6
Continuous
 62
     7
370
     9
100
AcDbCircle
 10
-1490.19774150135
 20
-882.8487129867958
 30
0.0
 40
3.0
100
AcDbArc
 50
90.0
 51
180.0
  0
ARC
  5
30D
330
1F
100
AcDbEntity
  8
0-7_金物
  6
Continuous
 62
     7
370
     9
100
AcDbCircle
 10
-1475.19774150135
 20
-897.8487129867958
 30
0.0
 40
3.0
100
AcDbArc
 50
270.0
 51
0.0
  0
LINE
  5
30E
330
1F
100
AcDbEntity
  8
0-7_金物
  6
Continuous
 62
     7
370
     9
100
AcDbLine
 10
-1439.797741501348
 20
-1008.848712986795
 30
0.0
 11
-1439.797741501348
 21
-1026.848712986794
 31
0.0
  0
LINE
  5
30F
330
1F
100
AcDbEntity
  8
0-7_金物
  6
Continuous
 62
     7
370
     9
100
AcDbLine
 10
-1445.79774150135
 20
-1026.848712986794
 30
0.0
 11
-1445.79774150135
 21
-1008.848712986795
 31
0.0
  0
LINE
  5
310
330
1F
100
AcDbEntity
  8
0-7_金物
  6
Continuous
 62
     7
370
     9
100
AcDbLine
 10
-1439.797741501348
 20
-1026.848712986794
 30
0.0
 11
-1445.79774150135
 21
-1026.848712986794
 31
0.0
  0
LINE
  5
311
330
1F
100
AcDbEntity
  8
0-7_金物
  6
Continuous
 62
     7
370
     9
100
AcDbLine
 10
-1445.79774150135
 20
-1008.848712986795
 30
0.0
 11
-1439.797741501348
 21
-1008.848712986795
 31
0.0
  0
LINE
  5
312
330
1F
100
AcDbEntity
  8
0-7_金物
  6
Continuous
 62
     7
370
     9
100
AcDbLine
 10
-1504.597741501349
 20
-1008.848712986795
 30
0.0
 11
-1504.597741501349
 21
-1026.848712986794
 31
0.0
  0
LINE
  5
313
330
1F
100
AcDbEntity
  8
0-7_金物
  6
Continuous
 62
     7
370
     9
100
AcDbLine
 10
-1445.79774150135
 20
-1026.848712986794
 30
0.0
 11
-1504.597741501349
 21
-1026.848712986794
 31
0.0
  0
LINE
  5
314
330
1F
100
AcDbEntity
  8
0-7_金物
  6
Continuous
 62
     7
370
     9
100
AcDbLine
 10
-1504.597741501349
 20
-1008.848712986795
 30
0.0
 11
-1445.79774150135
 21
-1008.848712986795
 31
0.0
  0
LINE
  5
315
330
1F
100
AcDbEntity
  8
0-7_金物
  6
Continuous
 62
     7
370
     9
100
AcDbLine
 10
-1522.59774150135
 20
-822.8487129867958
 30
0.0
 11
-1522.59774150135
 21
-962.6487129867949
 31
0.0
  0
LINE
  5
316
330
1F
100
AcDbEntity
  8
0-7_金物
  6
Continuous
 62
     7
370
     9
100
AcDbLine
 10
-1427.797741501349
 20
-822.8487129867958
 30
0.0
 11
-1427.797741501349
 21
-962.6487129867949
 31
0.0
  0
CIRCLE
  5
317
330
1F
100
AcDbEntity
  8
0-7_金物
  6
Continuous
 62
     7
370
     9
100
AcDbCircle
 10
-1475.19774150135
 20
-882.8487129867958
 30
0.0
 40
21.00000000000001
  0
LINE
  5
318
330
1F
100
AcDbEntity
  8
0-7_金物
  6
Continuous
 62
     7
370
     9
100
AcDbLine
 10
-1427.797741501349
 20
-962.6487129867949
 30
0.0
 11
-1522.59774150135
 21
-962.6487129867949
 31
0.0
  0
LINE
  5
319
330
1F
100
AcDbEntity
  8
0-7_金物
  6
Continuous
 62
     7
370
     9
100
AcDbLine
 10
-1510.597741501349
 20
-1026.848712986794
 30
0.0
 11
-1510.597741501349
 21
-1008.848712986795
 31
0.0
  0
LINE
  5
31A
330
1F
100
AcDbEntity
  8
0-7_金物
  6
Continuous
 62
     7
370
     9
100
AcDbLine
 10
-1504.597741501349
 20
-1026.848712986794
 30
0.0
 11
-1510.597741501349
 21
-1026.848712986794
 31
0.0
  0
LINE
  5
31B
330
1F
100
AcDbEntity
  8
0-7_金物
  6
Continuous
 62
     7
370
     9
100
AcDbLine
 10
-1510.597741501349
 20
-1008.848712986795
 30
0.0
 11
-1504.597741501349
 21
-1008.848712986795
 31
0.0
  0
LINE
  5
31C
330
1F
100
AcDbEntity
  8
0-7_金物
  6
Continuous
 62
     7
370
     9
100
AcDbLine
 10
-1439.797741501348
 20
-990.8487129867947
 30
0.0
 11
-1510.597741501349
 21
-990.8487129867947
 31
0.0
  0
LINE
  5
31D
330
1F
100
AcDbEntity
  8
0-7_金物
  6
Continuous
 62
     7
370
     9
100
AcDbLine
 10
-1510.597741501349
 20
-990.8487129867947
 30
0.0
 11
-1510.597741501349
 21
-978.8487129867954
 31
0.0
  0
LINE
  5
31E
330
1F
100
AcDbEntity
  8
0-7_金物
  6
Continuous
 62
     7
370
     9
100
AcDbLine
 10
-1510.597741501349
 20
-978.8487129867954
 30
0.0
 11
-1439.797741501348
 21
-978.8487129867954
 31
0.0
  0
LINE
  5
31F
330
1F
100
AcDbEntity
  8
0-7_金物
  6
Continuous
 62
     7
370
     9
100
AcDbLine
 10
-1439.797741501348
 20
-978.8487129867954
 30
0.0
 11
-1439.797741501348
 21
-990.8487129867947
 31
0.0
  0
LINE
  5
320
330
1F
100
AcDbEntity
  8
0-7_金物
  6
Continuous
 62
     7
370
     9
100
AcDbLine
 10
-1499.197741501349
 20
-975.8487129867947
 30
0.0
 11
-1510.597741501349
 21
-975.8487129867947
 31
0.0
  0
LINE
  5
321
330
1F
100
AcDbEntity
  8
0-7_金物
  6
Continuous
 62
     7
370
     9
100
AcDbLine
 10
-1499.197741501349
 20
-975.8487129867947
 30
0.0
 11
-1499.197741501349
 21
-962.6487129867949
 31
0.0
  0
LINE
  5
322
330
1F
100
AcDbEntity
  8
0-7_金物
  6
Continuous
 62
     7
370
     9
100
AcDbLine
 10
-1439.797741501348
 20
-975.8487129867947
 30
0.0
 11
-1451.19774150135
 21
-975.8487129867947
 31
0.0
  0
LINE
  5
323
330
1F
100
AcDbEntity
  8
0-7_金物
  6
Continuous
 62
     7
370
     9
100
AcDbLine
 10
-1451.19774150135
 20
-962.6487129867949
 30
0.0
 11
-1451.19774150135
 21
-975.8487129867947
 31
0.0
  0
LINE
  5
324
330
1F
100
AcDbEntity
  8
0-7_金物
  6
Continuous
 62
     7
370
     9
100
AcDbLine
 10
-1439.797741501348
 20
-978.8487129867954
 30
0.0
 11
-1439.797741501348
 21
-975.8487129867947
 31
0.0
  0
LINE
  5
325
330
1F
100
AcDbEntity
  8
0-7_金物
  6
Continuous
 62
     7
370
     9
100
AcDbLine
 10
-1510.597741501349
 20
-975.8487129867947
 30
0.0
 11
-1510.597741501349
 21
-978.8487129867954
 31
0.0
  0
LINE
  5
326
330
1F
100
AcDbEntity
  8
0-7_金物
  6
Continuous
 62
     7
370
     9
100
AcDbLine
 10
-1484.197741501349
 20
-990.8487129867947
 30
0.0
 11
-1484.197741501349
 21
-1008.848712986795
 31
0.0
  0
LINE
  5
327
330
1F
100
AcDbEntity
  8
0-7_金物
  6
Continuous
 62
     7
370
     9
100
AcDbLine
 10
-1466.19774150135
 20
-990.8487129867947
 30
0.0
 11
-1466.19774150135
 21
-1008.848712986795
 31
0.0
  0
LINE
  5
328
330
1F
100
AcDbEntity
  8
0-7_金物
  6
Continuous
 62
     7
370
     9
100
AcDbLine
 10
-1499.197741501349
 20
-1002.848712986796
 30
0.0
 11
-1484.197741501349
 21
-1002.848712986796
 31
0.0
  0
LINE
  5
329
330
1F
100
AcDbEntity
  8
0-7_金物
  6
Continuous
 62
     7
370
     9
100
AcDbLine
 10
-1499.197741501349
 20
-1008.848712986795
 30
0.0
 11
-1499.197741501349
 21
-1002.848712986796
 31
0.0
  0
LINE
  5
32A
330
1F
100
AcDbEntity
  8
0-7_金物
  6
Continuous
 62
     7
370
     9
100
AcDbLine
 10
-1466.19774150135
 20
-1002.848712986796
 30
0.0
 11
-1451.19774150135
 21
-1002.848712986796
 31
0.0
  0
LINE
  5
32B
330
1F
100
AcDbEntity
  8
0-7_金物
  6
Continuous
 62
     7
370
     9
100
AcDbLine
 10
-1451.19774150135
 20
-1002.848712986796
 30
0.0
 11
-1451.19774150135
 21
-1008.848712986795
 31
0.0
  0
LINE
  5
32C
330
1F
100
AcDbEntity
  8
0-7_金物
  6
Continuous
 62
     7
370
     9
100
AcDbLine
 10
-1451.19774150135
 20
-990.8487129867947
 30
0.0
 11
-1451.19774150135
 21
-1002.848712986796
 31
0.0
  0
LINE
  5
32D
330
1F
100
AcDbEntity
  8
0-7_金物
  6
Continuous
 62
     7
370
     9
100
AcDbLine
 10
-1499.197741501349
 20
-1002.848712986796
 30
0.0
 11
-1499.197741501349
 21
-990.8487129867947
 31
0.0
  0
LINE
  5
32E
330
1F
100
AcDbEntity
  8
0-7_金物
  6
Continuous
 62
     7
370
     9
100
AcDbLine
 10
-1506.697741501344
 20
-725.0487129867961
 30
0.0
 11
-1506.697741501344
 21
-794.6487129867942
 31
0.0
  0
LINE
  5
32F
330
1F
100
AcDbEntity
  8
0-7_金物
  6
Continuous
 62
     7
370
     9
100
AcDbLine
 10
-1506.697741501344
 20
-707.0487129867954
 30
0.0
 11
-1506.697741501344
 21
-725.0487129867961
 31
0.0
  0
LINE
  5
330
330
1F
100
AcDbEntity
  8
0-7_金物
  6
Continuous
 62
     7
370
     9
100
AcDbLine
 10
-1443.697741501344
 20
-725.0487129867961
 30
0.0
 11
-1443.697741501344
 21
-707.0487129867954
 31
0.0
  0
LINE
  5
331
330
1F
100
AcDbEntity
  8
0-7_金物
  6
Continuous
 62
     7
370
     9
100
AcDbLine
 10
-1506.697741501344
 20
-794.6487129867942
 30
0.0
 11
-1506.697741501344
 21
-821.0487129867956
 31
0.0
  0
LINE
  5
332
330
1F
100
AcDbEntity
  8
0-7_金物
  6
Continuous
 62
     7
370
     9
100
AcDbLine
 10
-1443.697741501344
 20
-821.0487129867956
 30
0.0
 11
-1443.697741501344
 21
-794.6487129867942
 31
0.0
  0
LINE
  5
333
330
1F
100
AcDbEntity
  8
0-7_金物
  6
Continuous
 62
     7
370
     9
100
AcDbLine
 10
-1451.197741501344
 20
-821.0487129867956
 30
0.0
 11
-1499.197741501344
 21
-821.0487129867956
 31
0.0
  0
LINE
  5
334
330
1F
100
AcDbEntity
  8
0-7_金物
  6
Continuous
 62
     7
370
     9
100
AcDbLine
 10
-1499.197741501344
 20
-821.0487129867956
 30
0.0
 11
-1499.197741501344
 21
-822.8487129867958
 31
0.0
  0
LINE
  5
335
330
1F
100
AcDbEntity
  8
0-7_金物
  6
Continuous
 62
     7
370
     9
100
AcDbLine
 10
-1451.197741501344
 20
-822.8487129867958
 30
0.0
 11
-1451.197741501344
 21
-821.0487129867956
 31
0.0
  0
LINE
  5
336
330
1F
100
AcDbEntity
  8
0-7_金物
  6
Continuous
 62
     7
370
     9
100
AcDbLine
 10
-1526.197741501344
 20
-683.048712986795
 30
0.0
 11
-1526.197741501344
 21
-707.0487129867954
 31
0.0
  0
LINE
  5
337
330
1F
100
AcDbEntity
  8
0-7_金物
  6
Continuous
 62
     7
370
     9
100
AcDbLine
 10
-1502.197741501343
 20
-683.048712986795
 30
0.0
 11
-1526.197741501344
 21
-683.048712986795
 31
0.0
  0
LINE
  5
338
330
1F
100
AcDbEntity
  8
0-7_金物
  6
Continuous
 62
     7
370
     9
100
AcDbLine
 10
-1502.197741501343
 20
-695.0487129867961
 30
0.0
 11
-1502.197741501343
 21
-683.048712986795
 31
0.0
  0
LINE
  5
339
330
1F
100
AcDbEntity
  8
0-7_金物
  6
Continuous
 62
     7
370
     9
100
AcDbLine
 10
-1448.197741501344
 20
-695.0487129867961
 30
0.0
 11
-1502.197741501343
 21
-695.0487129867961
 31
0.0
  0
LINE
  5
33A
330
1F
100
AcDbEntity
  8
0-7_金物
  6
Continuous
 62
     7
370
     9
100
AcDbLine
 10
-1448.197741501344
 20
-683.048712986795
 30
0.0
 11
-1448.197741501344
 21
-695.0487129867961
 31
0.0
  0
LINE
  5
33B
330
1F
100
AcDbEntity
  8
0-7_金物
  6
Continuous
 62
     7
370
     9
100
AcDbLine
 10
-1424.197741501344
 20
-707.0487129867954
 30
0.0
 11
-1424.197741501344
 21
-683.048712986795
 31
0.0
  0
LINE
  5
33C
330
1F
100
AcDbEntity
  8
0-7_金物
  6
Continuous
 62
     7
370
     9
100
AcDbLine
 10
-1475.197741501343
 20
-707.0487129867954
 30
0.0
 11
-1424.197741501344
 21
-707.0487129867954
 31
0.0
  0
LINE
  5
33D
330
1F
100
AcDbEntity
  8
0-7_金物
  6
Continuous
 62
     7
370
     9
100
AcDbLine
 10
-1526.197741501344
 20
-707.0487129867954
 30
0.0
 11
-1475.197741501343
 21
-707.0487129867954
 31
0.0
  0
LINE
  5
33E
330
1F
100
AcDbEntity
  8
0-7_金物
  6
Continuous
 62
     7
370
     9
100
AcDbLine
 10
-1424.197741501344
 20
-683.048712986795
 30
0.0
 11
-1448.197741501344
 21
-683.048712986795
 31
0.0
  0
LINE
  5
33F
330
1F
100
AcDbEntity
  8
0-7_金物
  6
Continuous
 62
     7
370
     9
100
AcDbLine
 10
-1443.697741501344
 20
-794.6487129867942
 30
0.0
 11
-1475.197741501343
 21
-794.6487129867942
 31
0.0
  0
LINE
  5
340
330
1F
100
AcDbEntity
  8
0-7_金物
  6
Continuous
 62
     7
370
     9
100
AcDbLine
 10
-1475.197741501343
 20
-725.0487129867961
 30
0.0
 11
-1443.697741501344
 21
-725.0487129867961
 31
0.0
  0
LINE
  5
341
330
1F
100
AcDbEntity
  8
0-7_金物
  6
Continuous
 62
     7
370
     9
100
AcDbLine
 10
-1475.197741501343
 20
-794.6487129867942
 30
0.0
 11
-1506.697741501344
 21
-794.6487129867942
 31
0.0
  0
LINE
  5
342
330
1F
100
AcDbEntity
  8
0-7_金物
  6
Continuous
 62
     7
370
     9
100
AcDbLine
 10
-1506.697741501344
 20
-725.0487129867961
 30
0.0
 11
-1475.197741501343
 21
-725.0487129867961
 31
0.0
  0
LINE
  5
343
330
1F
100
AcDbEntity
  8
0-7_金物
  6
Continuous
 62
     7
370
     9
100
AcDbLine
 10
-1443.697741501344
 20
-794.6487129867942
 30
0.0
 11
-1443.697741501344
 21
-725.0487129867961
 31
0.0
  0
LINE
  5
344
330
1F
100
AcDbEntity
  8
0-7_金物
  6
Continuous
 62
     7
370
     9
100
AcDbLine
 10
-1451.197741501344
 20
-821.0487129867956
 30
0.0
 11
-1443.697741501344
 21
-821.0487129867956
 31
0.0
  0
LINE
  5
345
330
1F
100
AcDbEntity
  8
0-7_金物
  6
Continuous
 62
     7
370
     9
100
AcDbLine
 10
-1506.697741501344
 20
-821.0487129867956
 30
0.0
 11
-1499.197741501344
 21
-821.0487129867956
 31
0.0
  0
LINE
  5
346
330
1F
100
AcDbEntity
  8
0-7_金物
  6
Continuous
 62
     7
370
     9
100
AcDbLine
 10
-1509.097967083475
 20
-642.8487129867974
 30
0.0
 11
-1441.297515919214
 21
-642.8487129867958
 31
0.0
  0
LINE
  5
347
330
1F
100
AcDbEntity
  8
0-7_金物
  6
Continuous
 62
     7
370
     9
100
AcDbLine
 10
-1394.197202499795
 20
-642.8487129867974
 30
0.0
 11
-1395.397741501344
 21
-642.8487129867958
 31
0.0
  0
LINE
  5
348
330
1F
100
AcDbEntity
  8
0-7_金物
  6
Continuous
 62
     7
370
     9
100
AcDbLine
 10
-1556.197741501344
 20
-642.8487129867958
 30
0.0
 11
-1554.997741501344
 21
-642.8487129867958
 31
0.0
  0
LINE
  5
349
330
1F
100
AcDbEntity
  8
0-7_金物
  6
Continuous
 62
     7
370
     9
100
AcDbLine
 10
-1427.797741501344
 20
-822.8487129867958
 30
0.0
 11
-1522.597741501345
 21
-822.8487129867958
 31
0.0
  0
LINE
  5
34A
330
1F
100
AcDbEntity
  8
0-7_金物
  6
Continuous
 62
     7
370
     9
100
AcDbLine
 10
-1592.798300465913
 20
-851.0493997146953
 30
0.0
 11
-1592.798300465913
 21
-743.0493997146946
 31
0.0
  0
ARC
  5
34B
330
1F
100
AcDbEntity
  8
0-7_金物
  6
Continuous
 62
     7
370
     9
100
AcDbCircle
 10
-1589.798300465914
 20
-851.0493997146953
 30
0.0
 40
2.999999999999915
100
AcDbArc
 50
180.0
 51
0.0
  0
LINE
  5
34C
330
1F
100
AcDbEntity
  8
0-7_金物
  6
Continuous
 62
     7
370
     9
100
AcDbLine
 10
-1398.397230448023
 20
-760.5873489128348
 30
0.0
 11
-1398.397230448023
 21
-675.8489325800181
 31
0.0
  0
ARC
  5
34D
330
1F
100
AcDbEntity
  8
0-7_金物
  6
Continuous
 62
     7
370
     9
100
AcDbCircle
 10
-1423.597398137394
 20
-744.8493917294891
 30
0.0
 40
30.00019963020328
100
AcDbArc
 50
238.109208198154
 51
326.0768879967404
  0
ARC
  5
34E
330
1F
100
AcDbEntity
  8
0-7_金物
  6
Continuous
 62
     7
370
     9
100
AcDbCircle
 10
-1440.397509930308
 20
-771.8495713966709
 30
0.0
 40
1.800011977811773
100
AcDbArc
 50
58.10920819813639
 51
180.0
  0
ARC
  5
34F
330
1F
100
AcDbEntity
  8
0-7_金物
  6
Continuous
 62
     7
370
     9
100
AcDbCircle
 10
-1400.197242425839
 20
-760.5873489128348
 30
0.0
 40
1.800011977815348
100
AcDbArc
 50
326.076887996758
 51
0.0000000000000127
  0
LINE
  5
350
330
1F
100
AcDbEntity
  8
0-7_金物
  6
Continuous
 62
     7
370
     9
100
AcDbLine
 10
-1447.297555845255
 20
-662.0488407501252
 30
0.0
 11
-1447.297555845255
 21
-653.6487848536674
 31
0.0
  0
LINE
  5
351
330
1F
100
AcDbEntity
  8
0-7_金物
  6
Continuous
 62
     7
370
     9
100
AcDbLine
 10
-1438.297495956194
 20
-651.8487728758557
 30
0.0
 11
-1438.297495956194
 21
-645.8487329498168
 31
0.0
  0
LINE
  5
352
330
1F
100
AcDbEntity
  8
0-7_金物
  6
Continuous
 62
     7
370
     9
100
AcDbLine
 10
-1401.397250411044
 20
-654.848792838877
 30
0.0
 11
-1435.297475993173
 21
-654.848792838877
 31
0.0
  0
LINE
  5
353
330
1F
100
AcDbEntity
  8
0-7_金物
  6
Continuous
 62
     7
370
     9
100
AcDbLine
 10
-1410.397310300105
 20
-663.8488527279387
 30
0.0
 11
-1445.497543867443
 21
-663.8488527279387
 31
0.0
  0
LINE
  5
354
330
1F
100
AcDbEntity
  8
0-7_金物
  6
Continuous
 62
     7
370
     9
100
AcDbLine
 10
-1398.397230448023
 20
-651.8487728758557
 30
0.0
 11
-1398.397230448023
 21
-645.8487329498168
 31
0.0
  0
ARC
  5
355
330
1F
100
AcDbEntity
  8
0-7_金物
  6
Continuous
 62
     7
370
     9
100
AcDbCircle
 10
-1441.297515919214
 20
-645.8487329498153
 30
0.0
 40
3.000019963019752
100
AcDbArc
 50
0.0
 51
90.00000000000163
  0
ARC
  5
356
330
1F
100
AcDbEntity
  8
0-7_金物
  6
Continuous
 62
     7
370
     9
100
AcDbCircle
 10
-1435.297475993174
 20
-651.8487728758557
 30
0.0
 40
3.000019963020116
100
AcDbArc
 50
180.0
 51
270.0000000000049
  0
ARC
  5
357
330
1F
100
AcDbEntity
  8
0-7_金物
  6
Continuous
 62
     7
370
     9
100
AcDbCircle
 10
-1401.397250411044
 20
-651.8487728758557
 30
0.0
 40
3.000019963020043
100
AcDbArc
 50
269.9999999999951
 51
0.0
  0
ARC
  5
358
330
1F
100
AcDbEntity
  8
0-7_金物
  6
Continuous
 62
     7
370
     9
100
AcDbCircle
 10
-1395.397210485003
 20
-645.8487329498153
 30
0.0
 40
3.000019963019753
100
AcDbArc
 50
89.99999999999022
 51
180.0
  0
ARC
  5
359
330
1F
100
AcDbEntity
  8
0-7_金物
  6
Continuous
 62
     7
370
     9
100
AcDbCircle
 10
-1394.197202499795
 20
-645.8487329498168
 30
0.0
 40
3.000019963020626
100
AcDbArc
 50
0.0
 51
89.99999999999349
  0
ARC
  5
35A
330
1F
100
AcDbEntity
  8
0-7_金物
  6
Continuous
 62
     7
370
     9
100
AcDbCircle
 10
-1410.397310300105
 20
-675.8489325800199
 30
0.0
 40
12.00007985208206
100
AcDbArc
 50
0.0
 51
89.99999999999841
  0
ARC
  5
35B
330
1F
100
AcDbEntity
  8
0-7_金物
  6
Continuous
 62
     7
370
     9
100
AcDbCircle
 10
-1445.497543867443
 20
-662.0488407501252
 30
0.0
 40
1.800011977812318
100
AcDbArc
 50
180.0
 51
269.9999999999968
  0
LINE
  5
35C
330
1F
100
AcDbEntity
  8
0-7_金物
  6
Continuous
 62
     7
370
     9
100
AcDbLine
 10
-1551.998252554665
 20
-760.5873489128348
 30
0.0
 11
-1551.998252554665
 21
-675.8489325800181
 31
0.0
  0
ARC
  5
35D
330
1F
100
AcDbEntity
  8
0-7_金物
  6
Continuous
 62
     7
370
     9
100
AcDbCircle
 10
-1550.198240576862
 20
-760.5873489128364
 30
0.0
 40
1.80001197780369
100
AcDbArc
 50
180.0
 51
213.9231120033558
  0
LINE
  5
35E
330
1F
100
AcDbEntity
  8
0-7_金物
  6
Continuous
 62
     7
370
     9
100
AcDbLine
 10
-1539.998172702584
 20
-663.8488527279387
 30
0.0
 11
-1504.897939135245
 21
-663.8488527279387
 31
0.0
  0
LINE
  5
35F
330
1F
100
AcDbEntity
  8
0-7_金物
  6
Continuous
 62
     7
370
     9
100
AcDbLine
 10
-1548.998232591645
 20
-654.848792838877
 30
0.0
 11
-1515.098007009516
 21
-654.848792838877
 31
0.0
  0
ARC
  5
360
330
1F
100
AcDbEntity
  8
0-7_金物
  6
Continuous
 62
     7
370
     9
100
AcDbCircle
 10
-1539.998172702584
 20
-675.8489325800181
 30
0.0
 40
12.00007985208111
100
AcDbArc
 50
90.0
 51
180.0
  0
ARC
  5
361
330
1F
100
AcDbEntity
  8
0-7_金物
  6
Continuous
 62
     7
370
     9
100
AcDbCircle
 10
-1556.198280502893
 20
-645.8487329498168
 30
0.0
 40
3.000019963020699
100
AcDbArc
 50
90.00000000000813
 51
180.0
  0
LINE
  5
362
330
1F
100
AcDbEntity
  8
0-7_金物
  6
Continuous
 62
     7
370
     9
100
AcDbLine
 10
-1551.998252554665
 20
-651.8487728758557
 30
0.0
 11
-1551.998252554665
 21
-645.8487329498168
 31
0.0
  0
ARC
  5
363
330
1F
100
AcDbEntity
  8
0-7_金物
  6
Continuous
 62
     7
370
     9
100
AcDbCircle
 10
-1554.998272517686
 20
-645.8487329498168
 30
0.0
 40
3.000019963020699
100
AcDbArc
 50
0.0
 51
89.99999999999349
  0
ARC
  5
364
330
1F
100
AcDbEntity
  8
0-7_金物
  6
Continuous
 62
     7
370
     9
100
AcDbCircle
 10
-1548.998232591645
 20
-651.8487728758557
 30
0.0
 40
3.000019963020043
100
AcDbArc
 50
180.0
 51
270.0000000000049
  0
LINE
  5
365
330
1F
100
AcDbEntity
  8
0-7_金物
  6
Continuous
 62
     7
370
     9
100
AcDbLine
 10
-1501.297915179621
 20
-651.8487728758557
 30
0.0
 11
-1476.997753479157
 21
-651.8487728758557
 31
0.0
  0
LINE
  5
366
330
1F
100
AcDbEntity
  8
0-7_金物
  6
Continuous
 62
     7
370
     9
100
AcDbLine
 10
-1503.097927157434
 20
-662.0488407501252
 30
0.0
 11
-1503.097927157434
 21
-653.6487848536674
 31
0.0
  0
ARC
  5
367
330
1F
100
AcDbEntity
  8
0-7_金物
  6
Continuous
 62
     7
370
     9
100
AcDbCircle
 10
-1504.897939135245
 20
-662.0488407501286
 30
0.0
 40
1.800011977811371
100
AcDbArc
 50
269.9999999999902
 51
0.0
  0
ARC
  5
368
330
1F
100
AcDbEntity
  8
0-7_金物
  6
Continuous
 62
     7
370
     9
100
AcDbCircle
 10
-1509.097967083475
 20
-645.8487329498153
 30
0.0
 40
3.000019963019753
100
AcDbArc
 50
89.99999999999841
 51
180.0
  0
LINE
  5
369
330
1F
100
AcDbEntity
  8
0-7_金物
  6
Continuous
 62
     7
370
     9
100
AcDbLine
 10
-1512.097987046494
 20
-651.8487728758557
 30
0.0
 11
-1512.097987046494
 21
-645.8487329498168
 31
0.0
  0
ARC
  5
36A
330
1F
100
AcDbEntity
  8
0-7_金物
  6
Continuous
 62
     7
370
     9
100
AcDbCircle
 10
-1515.098007009515
 20
-651.8487728758557
 30
0.0
 40
3.000019963020116
100
AcDbArc
 50
269.9999999999967
 51
0.0
  0
LINE
  5
36B
330
1F
100
AcDbEntity
  8
0-7_金物
  6
Continuous
 62
     7
370
     9
100
AcDbLine
 10
-1473.397729523533
 20
-651.8487728758557
 30
0.0
 11
-1449.097567823067
 21
-651.8487728758557
 31
0.0
  0
ARC
  5
36C
330
1F
100
AcDbEntity
  8
0-7_金物
  6
Continuous
 62
     7
370
     9
100
AcDbCircle
 10
-1449.097567823067
 20
-653.6487848536674
 30
0.0
 40
1.800011977812318
100
AcDbArc
 50
0.0
 51
89.99999999999675
  0
ARC
  5
36D
330
1F
100
AcDbEntity
  8
0-7_金物
  6
Continuous
 62
     7
370
     9
100
AcDbCircle
 10
-1501.297915179621
 20
-653.6487848536674
 30
0.0
 40
1.800011977812317
100
AcDbArc
 50
90.00000000000325
 51
180.0
  0
LINE
  5
36E
330
1F
100
AcDbEntity
  8
0-7_金物
  6
Continuous
 62
     7
370
     9
100
AcDbLine
 10
-1442.197521908103
 20
-775.3493926573217
 30
0.0
 11
-1442.19752190812
 21
-771.8495713966709
 31
0.0
  0
ARC
  5
36F
330
1F
100
AcDbEntity
  8
0-7_金物
  6
Continuous
 62
     7
370
     9
100
AcDbCircle
 10
-1436.197521908103
 20
-775.349392657291
 30
0.0
 40
6.000000000000762
100
AcDbArc
 50
180.0
 51
247.5535600967714
  0
ARC
  5
370
330
1F
100
AcDbEntity
  8
0-7_金物
  6
Continuous
 62
     7
370
     9
100
AcDbCircle
 10
-1423.597398137395
 20
-744.8493917294891
 30
0.0
 40
39.00019963020362
100
AcDbArc
 50
247.5535600967765
 51
319.0741272361626
  0
ARC
  5
371
330
1F
100
AcDbEntity
  8
0-7_金物
  6
Continuous
 62
     7
370
     9
100
AcDbCircle
 10
-1526.798084865295
 20
-744.8493917294891
 30
0.0
 40
30.00019963020324
100
AcDbArc
 50
213.9231120032596
 51
301.8907918018461
  0
ARC
  5
372
330
1F
100
AcDbEntity
  8
0-7_金物
  6
Continuous
 62
     7
370
     9
100
AcDbCircle
 10
-1509.99797307238
 20
-771.8495713966709
 30
0.0
 40
1.800011977811815
100
AcDbArc
 50
0.0
 51
121.8907918018614
  0
LINE
  5
373
330
1F
100
AcDbEntity
  8
0-7_金物
  6
Continuous
 62
     7
370
     9
100
AcDbLine
 10
-1508.197961094585
 20
-775.3493926573217
 30
0.0
 11
-1508.197961094568
 21
-771.8495713966709
 31
0.0
  0
ARC
  5
374
330
1F
100
AcDbEntity
  8
0-7_金物
  6
Continuous
 62
     7
370
     9
100
AcDbCircle
 10
-1514.197961094586
 20
-775.349392657291
 30
0.0
 40
6.000000000000811
100
AcDbArc
 50
292.4464399032286
 51
0.0
  0
ARC
  5
375
330
1F
100
AcDbEntity
  8
0-7_金物
  6
Continuous
 62
     7
370
     9
100
AcDbCircle
 10
-1526.798084865294
 20
-744.8493917294891
 30
0.0
 40
39.00019963020364
100
AcDbArc
 50
220.9258727638373
 51
292.4464399032233
  0
ARC
  5
376
330
1F
100
AcDbEntity
  8
0-7_金物
  6
Continuous
 62
     7
370
     9
100
AcDbCircle
 10
-1379.797182536774
 20
-749.6493997146954
 30
0.0
 40
3.59999999999971
100
AcDbArc
 50
0.0
 51
180.0
  0
ARC
  5
377
330
1F
100
AcDbEntity
  8
0-7_金物
  6
Continuous
 62
     7
370
     9
100
AcDbCircle
 10
-1403.197188483629
 20
-762.5367382278555
 30
0.0
 40
11.99999999999909
100
AcDbArc
 50
319.0741272361557
 51
328.260726288411
  0
ARC
  5
378
330
1F
100
AcDbEntity
  8
0-7_金物
  6
Continuous
 62
     7
370
     9
100
AcDbCircle
 10
-1383.397182536773
 20
-750.8493997146943
 30
0.0
 40
1.200000000000017
100
AcDbArc
 50
90.00000000002449
 51
270.0000000000261
  0
ARC
  5
379
330
1F
100
AcDbEntity
  8
0-7_金物
  6
Continuous
 62
     7
370
     9
100
AcDbCircle
 10
-1570.598300465914
 20
-749.6493997146954
 30
0.0
 40
3.59999999999971
100
AcDbArc
 50
0.0
 51
180.0
  0
ARC
  5
37A
330
1F
100
AcDbEntity
  8
0-7_金物
  6
Continuous
 62
     7
370
     9
100
AcDbCircle
 10
-1566.998300465915
 20
-750.8493997146943
 30
0.0
 40
1.200000000000017
100
AcDbArc
 50
269.9999999999723
 51
89.99999999997556
  0
ARC
  5
37B
330
1F
100
AcDbEntity
  8
0-7_金物
  6
Continuous
 62
     7
370
     9
100
AcDbCircle
 10
-1547.198294519059
 20
-762.5367382278555
 30
0.0
 40
11.99999999999904
100
AcDbArc
 50
211.7392737115898
 51
220.9258727638443
  0
LINE
  5
37C
330
1F
100
AcDbEntity
  8
0-7_金物
  6
Continuous
 62
     7
370
     9
100
AcDbLine
 10
-1376.197182536774
 20
-765.8494398432995
 30
0.0
 11
-1376.197182536774
 21
-749.6493997146954
 31
0.0
  0
LINE
  5
37D
330
1F
100
AcDbEntity
  8
0-7_金物
  6
Continuous
 62
     7
370
     9
100
AcDbLine
 10
-1379.197192315789
 20
-768.8494398432831
 30
0.0
 11
-1392.991779818404
 21
-768.8493948774558
 31
0.0
  0
ARC
  5
37E
330
1F
100
AcDbEntity
  8
0-7_金物
  6
Continuous
 62
     7
370
     9
100
AcDbCircle
 10
-1379.197182536775
 20
-765.8494398432995
 30
0.0
 40
3.000000000000129
100
AcDbArc
 50
269.9998132345706
 51
0.0
  0
LINE
  5
37F
330
1F
100
AcDbEntity
  8
0-7_金物
  6
Continuous
 62
     7
370
     9
100
AcDbLine
 10
-1574.198300465914
 20
-767.0494398432813
 30
0.0
 11
-1574.198300465914
 21
-749.6493997146954
 31
0.0
  0
LINE
  5
380
330
1F
100
AcDbEntity
  8
0-7_金物
  6
Continuous
 62
     7
370
     9
100
AcDbLine
 10
-1571.198290686898
 20
-768.8494398432831
 30
0.0
 11
-1557.403703184283
 21
-768.8493948774558
 31
0.0
  0
ARC
  5
381
330
1F
100
AcDbEntity
  8
0-7_金物
  6
Continuous
 62
     7
370
     9
100
AcDbCircle
 10
-1571.198300465913
 20
-765.8494398432995
 30
0.0
 40
3.000000000000171
100
AcDbArc
 50
180.0
 51
270.0001867654327
  0
LINE
  5
382
330
1F
100
AcDbEntity
  8
0-7_金物
  6
Continuous
 62
     7
370
     9
100
AcDbLine
 10
-1383.397182536775
 20
-758.6493997146956
 30
0.0
 11
-1383.397182536775
 21
-752.0493997146948
 31
0.0
  0
ARC
  5
383
330
1F
100
AcDbEntity
  8
0-7_金物
  6
Continuous
 62
     7
370
     9
100
AcDbCircle
 10
-1386.397182536774
 20
-758.6493997146956
 30
0.0
 40
2.999999999999745
100
AcDbArc
 50
269.9999999999951
 51
0.0
  0
LINE
  5
384
330
1F
100
AcDbEntity
  8
0-7_金物
  6
Continuous
 62
     7
370
     9
100
AcDbLine
 10
-1391.197182536774
 20
-758.6493997146956
 30
0.0
 11
-1391.197182536774
 21
-645.8487329498168
 31
0.0
  0
LINE
  5
385
330
1F
100
AcDbEntity
  8
0-7_金物
  6
Continuous
 62
     7
370
     9
100
AcDbLine
 10
-1388.197182536775
 20
-761.6493997146963
 30
0.0
 11
-1386.397182536774
 21
-761.6493997146963
 31
0.0
  0
ARC
  5
386
330
1F
100
AcDbEntity
  8
0-7_金物
  6
Continuous
 62
     7
370
     9
100
AcDbCircle
 10
-1388.197182536775
 20
-758.6493997146956
 30
0.0
 40
3.000000000000129
100
AcDbArc
 50
180.0
 51
269.9999999999935
  0
LINE
  5
387
330
1F
100
AcDbEntity
  8
0-7_金物
  6
Continuous
 62
     7
370
     9
100
AcDbLine
 10
-1559.198300465914
 20
-758.6493997146956
 30
0.0
 11
-1559.198300465914
 21
-645.8487329498168
 31
0.0
  0
ARC
  5
388
330
1F
100
AcDbEntity
  8
0-7_金物
  6
Continuous
 62
     7
370
     9
100
AcDbCircle
 10
-1562.198300465914
 20
-758.6493997146956
 30
0.0
 40
3.0
100
AcDbArc
 50
270.0000000000015
 51
0.0
  0
LINE
  5
389
330
1F
100
AcDbEntity
  8
0-7_金物
  6
Continuous
 62
     7
370
     9
100
AcDbLine
 10
-1562.198300465914
 20
-761.6493997146963
 30
0.0
 11
-1563.998300465913
 21
-761.6493997146963
 31
0.0
  0
LINE
  5
38A
330
1F
100
AcDbEntity
  8
0-7_金物
  6
Continuous
 62
     7
370
     9
100
AcDbLine
 10
-1566.998300465913
 20
-758.6493997146956
 30
0.0
 11
-1566.998300465913
 21
-752.0493997146948
 31
0.0
  0
ARC
  5
38B
330
1F
100
AcDbEntity
  8
0-7_金物
  6
Continuous
 62
     7
370
     9
100
AcDbCircle
 10
-1563.998300465913
 20
-758.6493997146956
 30
0.0
 40
3.0
100
AcDbArc
 50
180.0
 51
270.0
  0
ARC
  5
38C
330
1F
100
AcDbEntity
  8
0-7_金物
  6
Continuous
 62
     7
370
     9
100
AcDbCircle
 10
-1562.198300465914
 20
-758.0493997146946
 30
0.0
 40
3.000000000000171
100
AcDbArc
 50
180.0
 51
0.0
  0
ARC
  5
38D
330
1F
100
AcDbEntity
  8
0-7_金物
  6
Continuous
 62
     7
370
     9
100
AcDbCircle
 10
-1565.198300465914
 20
-756.8493997146957
 30
0.0
 40
1.200000000000017
100
AcDbArc
 50
90.00000000000324
 51
270.0
  0
ARC
  5
38E
330
1F
100
AcDbEntity
  8
0-7_金物
  6
Continuous
 62
     7
370
     9
100
AcDbCircle
 10
-1562.198300465914
 20
-743.0493997146946
 30
0.0
 40
3.0
100
AcDbArc
 50
0.0
 51
90.0
  0
LINE
  5
38F
330
1F
100
AcDbEntity
  8
0-7_金物
  6
Continuous
 62
     7
370
     9
100
AcDbLine
 10
-1565.198300465915
 20
-749.0493997146959
 30
0.0
 11
-1565.198300465915
 21
-755.6493997146968
 31
0.0
  0
ARC
  5
390
330
1F
100
AcDbEntity
  8
0-7_金物
  6
Continuous
 62
     7
370
     9
100
AcDbCircle
 10
-1568.198300465915
 20
-749.0493997146959
 30
0.0
 40
3.0
100
AcDbArc
 50
0.0
 51
90.0
  0
LINE
  5
391
330
1F
100
AcDbEntity
  8
0-7_金物
  6
Continuous
 62
     7
370
     9
100
AcDbLine
 10
-1583.798300465914
 20
-746.0493997146953
 30
0.0
 11
-1568.198300465915
 21
-746.0493997146953
 31
0.0
  0
ARC
  5
392
330
1F
100
AcDbEntity
  8
0-7_金物
  6
Continuous
 62
     7
370
     9
100
AcDbCircle
 10
-1583.798300465914
 20
-749.0493997146959
 30
0.0
 40
3.000000000000171
100
AcDbArc
 50
90.0
 51
180.0
  0
LINE
  5
393
330
1F
100
AcDbEntity
  8
0-7_金物
  6
Continuous
 62
     7
370
     9
100
AcDbLine
 10
-1589.798300465914
 20
-740.0493997146955
 30
0.0
 11
-1562.198300465914
 21
-740.0493997146955
 31
0.0
  0
ARC
  5
394
330
1F
100
AcDbEntity
  8
0-7_金物
  6
Continuous
 62
     7
370
     9
100
AcDbCircle
 10
-1589.798300465914
 20
-743.0493997146946
 30
0.0
 40
3.0
100
AcDbArc
 50
90.0
 51
180.0
  0
ARC
  5
395
330
1F
100
AcDbEntity
  8
0-7_金物
  6
Continuous
 62
     7
370
     9
100
AcDbCircle
 10
-1577.198300465914
 20
-762.8494398432836
 30
0.0
 40
2.999999999999829
100
AcDbArc
 50
0.0
 51
180.0
  0
ARC
  5
396
330
1F
100
AcDbEntity
  8
0-7_金物
  6
Continuous
 62
     7
370
     9
100
AcDbCircle
 10
-1575.998300465914
 20
-767.0494398432813
 30
0.0
 40
1.800000000000153
100
AcDbArc
 50
269.9999999999967
 51
0.0
  0
LINE
  5
397
330
1F
100
AcDbEntity
  8
0-7_金物
  6
Continuous
 62
     7
370
     9
100
AcDbLine
 10
-1586.798300465914
 20
-761.0494398432818
 30
0.0
 11
-1586.798300465914
 21
-749.0493997146959
 31
0.0
  0
LINE
  5
398
330
1F
100
AcDbEntity
  8
0-7_金物
  6
Continuous
 62
     7
370
     9
100
AcDbLine
 10
-1584.998300465914
 20
-762.8494398432836
 30
0.0
 11
-1580.198300465914
 21
-762.8494398432836
 31
0.0
  0
ARC
  5
399
330
1F
100
AcDbEntity
  8
0-7_金物
  6
Continuous
 62
     7
370
     9
100
AcDbCircle
 10
-1584.998300465914
 20
-761.0494398432818
 30
0.0
 40
1.800000000000069
100
AcDbArc
 50
180.0
 51
269.9999999999919
  0
LINE
  5
39A
330
1F
100
AcDbEntity
  8
0-7_金物
  6
Continuous
 62
     7
370
     9
100
AcDbLine
 10
-1584.998300465914
 20
-768.8494398432815
 30
0.0
 11
-1575.998300465914
 21
-768.8494398432815
 31
0.0
  0
LINE
  5
39B
330
1F
100
AcDbEntity
  8
0-7_金物
  6
Continuous
 62
     7
370
     9
100
AcDbLine
 10
-1586.798300465914
 20
-851.0493997146953
 30
0.0
 11
-1586.798300465914
 21
-770.6494398432815
 31
0.0
  0
ARC
  5
39C
330
1F
100
AcDbEntity
  8
0-7_金物
  6
Continuous
 62
     7
370
     9
100
AcDbCircle
 10
-1584.998300465914
 20
-770.6494398432815
 30
0.0
 40
1.799999999999898
100
AcDbArc
 50
90.0
 51
180.0
  0
LINE
  5
39D
330
1F
100
AcDbEntity
  8
0-7_金物
  6
Continuous
 62
     7
370
     9
100
AcDbLine
 10
-1473.39772952353
 20
-651.8487728758557
 30
0.0
 11
-1475.197741501344
 21
-650.0487608980441
 31
0.0
  0
LINE
  5
39E
330
1F
100
AcDbEntity
  8
0-7_金物
  6
Continuous
 62
     7
370
     9
100
AcDbLine
 10
-1475.197741501343
 20
-650.0487608980441
 30
0.0
 11
-1476.997753479157
 21
-651.8487728758557
 31
0.0
  0
LINE
  5
39F
330
1F
100
AcDbEntity
  8
0-0_補助線
  6
JWW_HOJO
 62
   120
370
     5
100
AcDbLine
 10
-2288.197741501337
 20
-3258.848713271374
 30
0.0
 11
-2288.197741501337
 21
-210.8487132713755
 31
0.0
  0
LINE
  5
3A0
330
1F
100
AcDbEntity
  8
0-B_寸法
  6
Continuous
 62
   120
370
     5
100
AcDbLine
 10
-2288.197741501341
 20
-738.8487132713761
 30
0.0
 11
-2099.197741501338
 21
-738.8487132713761
 31
0.0
  0
LINE
  5
3A1
330
1F
100
AcDbEntity
  8
0-B_寸法
  6
Continuous
 62
   120
370
     5
100
AcDbLine
 10
-2288.197741501341
 20
-642.8487132713748
 30
0.0
 11
-2099.197741501338
 21
-642.8487132713748
 31
0.0
  0
LINE
  5
3A2
330
1F
100
AcDbEntity
  8
0-B_寸法
  6
Continuous
 62
   120
370
     5
100
AcDbLine
 10
-2288.197741501341
 20
-588.8487132713761
 30
0.0
 11
-2099.197741501338
 21
-588.8487132713761
 31
0.0
  0
LINE
  5
3A3
330
1F
100
AcDbEntity
  8
0-B_寸法
  6
Continuous
 62
   120
370
     5
100
AcDbLine
 10
-2288.197741501341
 20
-558.8487132713761
 30
0.0
 11
-2099.197741501338
 21
-558.8487132713761
 31
0.0
  0
MTEXT
  5
3A4
330
1F
100
AcDbEntity
  8
0-B_寸法
  6
Continuous
 62
     7
370
   211
100
AcDbMText
 10
-2153.197741501341
 20
-660.1287132713754
 30
0.0
 40
91.44
 41
60.0
 46
0.0
 71
     7
 72
     1
  1
{\fＭＳ ゴシック|b0|i0|c128|p49;9}
 11
6.123031769111886E-17
 21
1.0
 31
0.0
 73
     1
 44
1.0
  0
MTEXT
  5
3A5
330
1F
100
AcDbEntity
  8
0-B_寸法
  6
Continuous
 62
     7
370
   211
100
AcDbMText
 10
-2303.197741501341
 20
-765.1287132713754
 30
0.0
 40
91.44
 41
120.0
 46
0.0
 71
     7
 72
     1
  1
{\fＭＳ ゴシック|b0|i0|c128|p49;16}
 11
6.123031769111886E-17
 21
1.0
 31
0.0
 73
     1
 44
1.0
  0
LWPOLYLINE
  5
3A6
330
1F
100
AcDbEntity
  8
0-B_寸法
  6
Continuous
 62
     7
370
     9
100
AcDbPolyline
 90
        4
 70
     1
 43
3.0
 10
-2286.697741501341
 20
-738.8487132713761
 42
0.4142135623731
 10
-2288.197741501341
 20
-737.348713271376
 42
0.4142135623731
 10
-2289.697741501341
 20
-738.8487132713761
 42
0.4142135623731
 10
-2288.197741501341
 20
-740.3487132713761
 42
0.4142135623731
  0
LINE
  5
3A7
330
1F
100
AcDbEntity
  8
0-B_寸法
  6
Continuous
 62
   120
370
     5
100
AcDbLine
 10
-2288.197741501341
 20
-642.8487132713748
 30
0.0
 11
-2288.197741501341
 21
-738.8487132713761
 31
0.0
  0
LWPOLYLINE
  5
3A8
330
1F
100
AcDbEntity
  8
0-B_寸法
  6
Continuous
 62
     7
370
     9
100
AcDbPolyline
 90
        4
 70
     1
 43
3.0
 10
-2286.697741501341
 20
-642.8487132713748
 42
0.4142135623731
 10
-2288.197741501341
 20
-641.3487132713747
 42
0.4142135623731
 10
-2289.697741501341
 20
-642.8487132713748
 42
0.4142135623731
 10
-2288.197741501341
 20
-644.3487132713748
 42
0.4142135623731
  0
LINE
  5
3A9
330
1F
100
AcDbEntity
  8
0-B_寸法
  6
Continuous
 62
   120
370
     5
100
AcDbLine
 10
-2288.197741501341
 20
-588.8487132713761
 30
0.0
 11
-2288.197741501341
 21
-642.8487132713748
 31
0.0
  0
LWPOLYLINE
  5
3AA
330
1F
100
AcDbEntity
  8
0-B_寸法
  6
Continuous
 62
     7
370
     9
100
AcDbPolyline
 90
        4
 70
     1
 43
3.0
 10
-2286.697741501341
 20
-588.8487132713761
 42
0.4142135623731
 10
-2288.197741501341
 20
-587.348713271376
 42
0.4142135623731
 10
-2289.697741501341
 20
-588.8487132713761
 42
0.4142135623731
 10
-2288.197741501341
 20
-590.3487132713761
 42
0.4142135623731
  0
LWPOLYLINE
  5
3AB
330
1F
100
AcDbEntity
  8
0-B_寸法
  6
Continuous
 62
     7
370
     9
100
AcDbPolyline
 90
        4
 70
     1
 43
3.0
 10
-2286.697741501341
 20
-558.8487132713761
 42
0.4142135623731
 10
-2288.197741501341
 20
-557.348713271376
 42
0.4142135623731
 10
-2289.697741501341
 20
-558.8487132713761
 42
0.4142135623731
 10
-2288.197741501341
 20
-560.3487132713761
 42
0.4142135623731
  0
LINE
  5
3AC
330
1F
100
AcDbEntity
  8
0-B_寸法
  6
Continuous
 62
   120
370
     5
100
AcDbLine
 10
-2288.197741501341
 20
-558.8487132713761
 30
0.0
 11
-2288.197741501341
 21
-588.8487132713761
 31
0.0
  0
MTEXT
  5
3AD
330
1F
100
AcDbEntity
  8
0-B_寸法
  6
Continuous
 62
     7
370
   211
100
AcDbMText
 10
-2303.197741501341
 20
-618.1287132713761
 30
0.0
 40
91.44
 41
60.0
 46
0.0
 71
     7
 72
     1
  1
{\fＭＳ ゴシック|b0|i0|c128|p49;5}
 11
6.123031769111886E-17
 21
1.0
 31
0.0
 73
     1
 44
1.0
  0
LINE
  5
3AE
330
1F
100
AcDbEntity
  8
0-0_補助線
  6
JWW_HOJO
 62
   120
370
     5
100
AcDbLine
 10
-101.1977415013379
 20
-210.8487132713755
 30
0.0
 11
-101.1977415013379
 21
-3258.848713271374
 31
0.0
  0
LINE
  5
3AF
330
1F
100
AcDbEntity
  8
0-B_寸法
  6
Continuous
 62
   120
370
     5
100
AcDbLine
 10
318.8022584986621
 20
-558.8487132713755
 30
0.0
 11
-521.197741501338
 21
-558.8487132713755
 31
0.0
  0
LINE
  5
3B0
330
1F
100
AcDbEntity
  8
0-B_寸法
  6
Continuous
 62
   120
370
     5
100
AcDbLine
 10
108.8022584986621
 20
-3168.848713271374
 30
0.0
 11
-521.197741501338
 21
-3168.848713271374
 31
0.0
  0
LWPOLYLINE
  5
3B1
330
1F
100
AcDbEntity
  8
0-B_寸法
  6
Continuous
 62
     7
370
     9
100
AcDbPolyline
 90
        4
 70
     1
 43
3.0
 10
110.3022584986621
 20
-558.8487132713755
 42
0.4142135623731
 10
108.8022584986621
 20
-557.3487132713755
 42
0.4142135623731
 10
107.3022584986621
 20
-558.8487132713755
 42
0.4142135623731
 10
108.8022584986621
 20
-560.3487132713755
 42
0.4142135623731
  0
LWPOLYLINE
  5
3B2
330
1F
100
AcDbEntity
  8
0-B_寸法
  6
Continuous
 62
     7
370
     9
100
AcDbPolyline
 90
        4
 70
     1
 43
3.0
 10
110.3022584986621
 20
-3168.848713271374
 42
0.4142135623731
 10
108.8022584986621
 20
-3167.348713271374
 42
0.4142135623731
 10
107.3022584986621
 20
-3168.848713271374
 42
0.4142135623731
 10
108.8022584986621
 20
-3170.348713271374
 42
0.4142135623731
  0
LINE
  5
3B3
330
1F
100
AcDbEntity
  8
0-0_補助線
  6
JWW_HOJO
 62
   120
370
     5
100
AcDbLine
 10
-521.197741501338
 20
-210.8487132713755
 30
0.0
 11
-521.197741501338
 21
-3258.848713271374
 31
0.0
  0
LINE
  5
3B4
330
1F
100
AcDbEntity
  8
0-0_補助線
  6
JWW_HOJO
 62
   120
370
     5
100
AcDbLine
 10
-311.1977415013379
 20
-210.8487132713755
 30
0.0
 11
-311.1977415013379
 21
-3258.848713271374
 31
0.0
  0
LINE
  5
3B5
330
1F
100
AcDbEntity
  8
0-B_寸法
  6
Continuous
 62
   120
370
     5
100
AcDbLine
 10
-311.1977415013379
 20
-782.0487129867957
 30
0.0
 11
-311.1977415013379
 21
-822.8487129867958
 31
0.0
  0
LWPOLYLINE
  5
3B6
330
1F
100
AcDbEntity
  8
0-B_寸法
  6
Continuous
 62
     7
370
     9
100
AcDbPolyline
 90
        4
 70
     1
 43
3.0
 10
-309.6977415013379
 20
-782.0487129867957
 42
0.4142135623731
 10
-311.1977415013379
 20
-780.5487129867957
 42
0.4142135623731
 10
-312.6977415013379
 20
-782.0487129867957
 42
0.4142135623731
 10
-311.1977415013379
 20
-783.5487129867957
 42
0.4142135623731
  0
LWPOLYLINE
  5
3B7
330
1F
100
AcDbEntity
  8
0-B_寸法
  6
Continuous
 62
     7
370
     9
100
AcDbPolyline
 90
        4
 70
     1
 43
3.0
 10
-309.6977415013379
 20
-822.8487129867958
 42
0.4142135623731
 10
-311.1977415013379
 20
-821.3487129867957
 42
0.4142135623731
 10
-312.6977415013379
 20
-822.8487129867958
 42
0.4142135623731
 10
-311.1977415013379
 20
-824.3487129867958
 42
0.4142135623731
  0
LINE
  5
3B8
330
1F
100
AcDbEntity
  8
0-B_寸法
  6
Continuous
 62
   120
370
     5
100
AcDbLine
 10
-311.1977415013379
 20
-782.0487129867957
 30
0.0
 11
-521.197741501338
 21
-782.0487129867957
 31
0.0
  0
LINE
  5
3B9
330
1F
100
AcDbEntity
  8
0-B_寸法
  6
Continuous
 62
   120
370
     5
100
AcDbLine
 10
-101.1977415013379
 20
-822.8487129867958
 30
0.0
 11
-521.197741501338
 21
-822.8487129867958
 31
0.0
  0
LINE
  5
3BA
330
1F
100
AcDbEntity
  8
0-B_寸法
  6
Continuous
 62
   120
370
     5
100
AcDbLine
 10
-101.1977415013379
 20
-738.8487132713806
 30
0.0
 11
-101.1977415013379
 21
-3138.849313271376
 31
0.0
  0
LWPOLYLINE
  5
3BB
330
1F
100
AcDbEntity
  8
0-B_寸法
  6
Continuous
 62
     7
370
     9
100
AcDbPolyline
 90
        4
 70
     1
 43
3.0
 10
-99.69774150133793
 20
-738.8487132713806
 42
0.4142135623731
 10
-101.1977415013379
 20
-737.3487132713806
 42
0.4142135623731
 10
-102.6977415013379
 20
-738.8487132713806
 42
0.4142135623731
 10
-101.1977415013379
 20
-740.3487132713806
 42
0.4142135623731
  0
LWPOLYLINE
  5
3BC
330
1F
100
AcDbEntity
  8
0-B_寸法
  6
Continuous
 62
     7
370
     9
100
AcDbPolyline
 90
        4
 70
     1
 43
3.0
 10
-99.69774150133793
 20
-822.8487129867958
 42
0.4142135623731
 10
-101.1977415013379
 20
-821.3487129867957
 42
0.4142135623731
 10
-102.6977415013379
 20
-822.8487129867958
 42
0.4142135623731
 10
-101.1977415013379
 20
-824.3487129867958
 42
0.4142135623731
  0
LINE
  5
3BD
330
1F
100
AcDbEntity
  8
0-B_寸法
  6
Continuous
 62
   120
370
     5
100
AcDbLine
 10
108.8022584986621
 20
-738.8487132713806
 30
0.0
 11
-521.197741501338
 21
-738.8487132713806
 31
0.0
  0
MTEXT
  5
3BE
330
1F
100
AcDbEntity
  8
0-B_寸法
  6
Continuous
 62
     7
370
   211
100
AcDbMText
 10
-326.1977415013379
 20
-1040.318712986796
 30
0.0
 40
99.06
 41
195.0
 46
0.0
 71
     7
 72
     1
  1
{\fＭＳ ゴシック|b0|i0|c128|p49;6.8}
 11
6.123031769111886E-17
 21
1.0
 31
0.0
 73
     1
 44
1.0
  0
MTEXT
  5
3BF
330
1F
100
AcDbEntity
  8
0-B_寸法
  6
Continuous
 62
     7
370
   211
100
AcDbMText
 10
-116.1977415013379
 20
-973.7712129867957
 30
0.0
 40
97.15499999999999
 41
127.5
 46
0.0
 71
     7
 72
     1
  1
{\fＭＳ ゴシック|b0|i0|c128|p49;14}
 11
6.123031769111886E-17
 21
1.0
 31
0.0
 73
     1
 44
1.0
  0
LINE
  5
3C0
330
1F
100
AcDbEntity
  8
0-B_寸法
  6
Continuous
 62
   120
370
     5
100
AcDbLine
 10
318.8022584986621
 20
-3258.848713271374
 30
0.0
 11
-521.197741501338
 21
-3258.848713271374
 31
0.0
  0
LINE
  5
3C1
330
1F
100
AcDbEntity
  8
0-0_補助線
  6
JWW_HOJO
 62
   120
370
     5
100
AcDbLine
 10
108.8022584986621
 20
-210.8487132713755
 30
0.0
 11
108.8022584986621
 21
-3258.848713271374
 31
0.0
  0
LINE
  5
3C2
330
1F
100
AcDbEntity
  8
0-B_寸法
  6
Continuous
 62
   120
370
     5
100
AcDbLine
 10
108.8022584986621
 20
-3258.848713271374
 30
0.0
 11
108.8022584986621
 21
-558.8487132713755
 31
0.0
  0
LWPOLYLINE
  5
3C3
330
1F
100
AcDbEntity
  8
0-B_寸法
  6
Continuous
 62
     7
370
     9
100
AcDbPolyline
 90
        4
 70
     1
 43
3.0
 10
110.3022584986621
 20
-3186.848713271374
 42
0.4142135623731
 10
108.8022584986621
 20
-3185.348713271374
 42
0.4142135623731
 10
107.3022584986621
 20
-3186.848713271374
 42
0.4142135623731
 10
108.8022584986621
 20
-3188.348713271374
 42
0.4142135623731
  0
LINE
  5
3C4
330
1F
100
AcDbEntity
  8
0-B_寸法
  6
Continuous
 62
   120
370
     5
100
AcDbLine
 10
-101.1977415013379
 20
-3168.849313271376
 30
0.0
 11
-101.1977415013379
 21
-3138.849313271376
 31
0.0
  0
LWPOLYLINE
  5
3C5
330
1F
100
AcDbEntity
  8
0-B_寸法
  6
Continuous
 62
     7
370
     9
100
AcDbPolyline
 90
        4
 70
     1
 43
3.0
 10
-99.69774150133793
 20
-3168.849313271376
 42
0.4142135623731
 10
-101.1977415013379
 20
-3167.349313271376
 42
0.4142135623731
 10
-102.6977415013379
 20
-3168.849313271376
 42
0.4142135623731
 10
-101.1977415013379
 20
-3170.349313271376
 42
0.4142135623731
  0
LWPOLYLINE
  5
3C6
330
1F
100
AcDbEntity
  8
0-B_寸法
  6
Continuous
 62
     7
370
     9
100
AcDbPolyline
 90
        4
 70
     1
 43
3.0
 10
-99.69774150133793
 20
-3138.849313271376
 42
0.4142135623731
 10
-101.1977415013379
 20
-3137.349313271376
 42
0.4142135623731
 10
-102.6977415013379
 20
-3138.849313271376
 42
0.4142135623731
 10
-101.1977415013379
 20
-3140.349313271376
 42
0.4142135623731
  0
LINE
  5
3C7
330
1F
100
AcDbEntity
  8
0-B_寸法
  6
Continuous
 62
   120
370
     5
100
AcDbLine
 10
-101.1977415013379
 20
-3168.849313271376
 30
0.0
 11
-521.197741501338
 21
-3168.849313271376
 31
0.0
  0
LINE
  5
3C8
330
1F
100
AcDbEntity
  8
0-B_寸法
  6
Continuous
 62
   120
370
     5
100
AcDbLine
 10
-101.1977415013379
 20
-3138.849313271376
 30
0.0
 11
-521.197741501338
 21
-3138.849313271376
 31
0.0
  0
MTEXT
  5
3C9
330
1F
100
AcDbEntity
  8
0-B_寸法
  6
Continuous
 62
     7
370
   211
100
AcDbMText
 10
-116.1977415013379
 20
-3141.129313271376
 30
0.0
 40
91.44
 41
60.0
 46
0.0
 71
     7
 72
     1
  1
{\fＭＳ ゴシック|b0|i0|c128|p49;5}
 11
6.123031769111886E-17
 21
1.0
 31
0.0
 73
     1
 44
1.0
  0
MTEXT
  5
3CA
330
1F
100
AcDbEntity
  8
0-B_寸法
  6
Continuous
 62
     7
370
   211
100
AcDbMText
 10
93.80225849866207
 20
-3165.128713271374
 30
0.0
 40
91.44
 41
60.0
 46
0.0
 71
     7
 72
     1
  1
{\fＭＳ ゴシック|b0|i0|c128|p49;3}
 11
6.123031769111886E-17
 21
1.0
 31
0.0
 73
     1
 44
1.0
  0
MTEXT
  5
3CB
330
1F
100
AcDbEntity
  8
0-B_寸法
  6
Continuous
 62
     7
370
   211
100
AcDbMText
 10
93.80225849866207
 20
-724.0212132713781
 30
0.0
 40
97.15499999999999
 41
127.5
 46
0.0
 71
     7
 72
     1
  1
{\fＭＳ ゴシック|b0|i0|c128|p49;30}
 11
6.123031769111886E-17
 21
1.0
 31
0.0
 73
     1
 44
1.0
  0
LWPOLYLINE
  5
3CC
330
1F
100
AcDbEntity
  8
0-B_寸法
  6
Continuous
 62
     7
370
     9
100
AcDbPolyline
 90
        4
 70
     1
 43
3.0
 10
110.3022584986621
 20
-738.8487132713806
 42
0.4142135623731
 10
108.8022584986621
 20
-737.3487132713806
 42
0.4142135623731
 10
107.3022584986621
 20
-738.8487132713806
 42
0.4142135623731
 10
108.8022584986621
 20
-740.3487132713806
 42
0.4142135623731
  0
MTEXT
  5
3CD
330
1F
100
AcDbEntity
  8
0-B_寸法
  6
Continuous
 62
     7
370
   211
100
AcDbMText
 10
-116.1977415013379
 20
-2557.481213271376
 30
0.0
 40
102.235
 41
1207.5
 46
0.0
 71
     7
 72
     1
  1
{\fＭＳ ゴシック|b0|i0|c128|p49;ＤＨ＝1,983(2,183)}
 11
6.123031769111886E-17
 21
1.0
 31
0.0
 73
     1
 44
1.0
  0
LINE
  5
3CE
330
1F
100
AcDbEntity
  8
0-B_寸法
  6
Continuous
 62
   120
370
     5
100
AcDbLine
 10
318.8022584986621
 20
-510.8487132713755
 30
0.0
 11
318.8022584986621
 21
-558.8487132713756
 31
0.0
  0
LWPOLYLINE
  5
3CF
330
1F
100
AcDbEntity
  8
0-B_寸法
  6
Continuous
 62
     7
370
     9
100
AcDbPolyline
 90
        4
 70
     1
 43
3.0
 10
320.3022584986621
 20
-510.8487132713755
 42
0.4142135623731
 10
318.8022584986621
 20
-509.3487132713755
 42
0.4142135623731
 10
317.3022584986621
 20
-510.8487132713755
 42
0.4142135623731
 10
318.8022584986621
 20
-512.3487132713756
 42
0.4142135623731
  0
LWPOLYLINE
  5
3D0
330
1F
100
AcDbEntity
  8
0-B_寸法
  6
Continuous
 62
     7
370
     9
100
AcDbPolyline
 90
        4
 70
     1
 43
3.0
 10
320.3022584986621
 20
-558.8487132713756
 42
0.4142135623731
 10
318.8022584986621
 20
-557.3487132713756
 42
0.4142135623731
 10
317.3022584986621
 20
-558.8487132713756
 42
0.4142135623731
 10
318.8022584986621
 20
-560.3487132713756
 42
0.4142135623731
  0
LINE
  5
3D1
330
1F
100
AcDbEntity
  8
0-B_寸法
  6
Continuous
 62
   120
370
     5
100
AcDbLine
 10
318.8022584986621
 20
-510.8487132713755
 30
0.0
 11
-521.197741501338
 21
-510.8487132713755
 31
0.0
  0
MTEXT
  5
3D2
330
1F
100
AcDbEntity
  8
0-B_寸法
  6
Continuous
 62
     7
370
   211
100
AcDbMText
 10
303.8022584986621
 20
-633.1287132713755
 30
0.0
 40
91.44
 41
60.0
 46
0.0
 71
     7
 72
     1
  1
{\fＭＳ ゴシック|b0|i0|c128|p49;8}
 11
6.123031769111886E-17
 21
1.0
 31
0.0
 73
     1
 44
1.0
  0
LINE
  5
3D3
330
1F
100
AcDbEntity
  8
0-0_補助線
  6
JWW_HOJO
 62
   120
370
     5
100
AcDbLine
 10
318.8022584986621
 20
-210.8487132713755
 30
0.0
 11
318.8022584986621
 21
-3258.848713271374
 31
0.0
  0
MTEXT
  5
3D4
330
1F
100
AcDbEntity
  8
0-A_文字
  6
Continuous
 62
     7
370
     0
100
AcDbMText
 10
-821.197741501338
 20
-3554.200069581004
 30
0.0
 40
78.97090909090909
 41
1140.0
 46
0.0
 71
     7
 72
     1
  1
{\fＭＳ ゴシック|b0|i0|c128|p49;※(　)内寸法はハイドア}
 73
     1
 44
1.0
  0
LWPOLYLINE
  5
3D5
330
1F
100
AcDbEntity
  8
0-B_寸法
  6
Continuous
 62
     7
370
     9
100
AcDbPolyline
 90
        4
 70
     1
 43
3.0
 10
-2754.697741501335
 20
-3258.848713271374
 42
0.4142135623731
 10
-2756.197741501334
 20
-3257.348713271374
 42
0.4142135623731
 10
-2757.697741501334
 20
-3258.848713271374
 42
0.4142135623731
 10
-2756.197741501334
 20
-3260.348713271374
 42
0.4142135623731
  0
LINE
  5
3D6
330
1F
100
AcDbEntity
  8
0-B_寸法
  6
Continuous
 62
   120
370
     5
100
AcDbLine
 10
-2756.197741501334
 20
-3258.848713271374
 30
0.0
 11
-2288.197741501337
 21
-3258.848713271374
 31
0.0
  0
LINE
  5
3D7
330
1F
100
AcDbEntity
  8
0-B_寸法
  6
Continuous
 62
   120
370
     5
100
AcDbLine
 10
-2756.197741501334
 20
-3258.848713271374
 30
0.0
 11
-2756.197741501334
 21
-510.8487132713754
 31
0.0
  0
LWPOLYLINE
  5
3D8
330
1F
100
AcDbEntity
  8
0-B_寸法
  6
Continuous
 62
     7
370
     9
100
AcDbPolyline
 90
        4
 70
     1
 43
3.0
 10
-2754.697741501335
 20
-510.8487132713754
 42
0.4142135623731
 10
-2756.197741501334
 20
-509.3487132713754
 42
0.4142135623731
 10
-2757.697741501334
 20
-510.8487132713754
 42
0.4142135623731
 10
-2756.197741501334
 20
-512.3487132713755
 42
0.4142135623731
  0
LINE
  5
3D9
330
1F
100
AcDbEntity
  8
0-B_寸法
  6
Continuous
 62
   120
370
     5
100
AcDbLine
 10
-2756.197741501334
 20
-510.8487132713754
 30
0.0
 11
-2288.197741501337
 21
-510.8487132713754
 31
0.0
  0
LINE
  5
3DA
330
1F
100
AcDbEntity
  8
0-0_補助線
  6
JWW_HOJO
 62
   120
370
     5
100
AcDbLine
 10
-2756.197741501334
 20
-3258.848713271374
 30
0.0
 11
-2756.197741501334
 21
-210.8487132713755
 31
0.0
  0
MTEXT
  5
3DB
330
1F
100
AcDbEntity
  8
0-B_寸法
  6
Continuous
 62
     7
370
   211
100
AcDbMText
 10
-2771.197741501334
 20
-2564.949463271374
 30
0.0
 40
102.2985
 41
1342.5
 46
0.0
 71
     7
 72
     1
  1
{\fＭＳ ゴシック|b0|i0|c128|p49;ＲＯＨ＝2,055(2,255)}
 11
6.123031769111886E-17
 21
1.0
 31
0.0
 73
     1
 44
1.0
  0
LINE
  5
3DC
330
1F
100
AcDbEntity
  8
0-1_通り芯
  6
JWW_CENTER1
 62
   120
370
     5
100
AcDbLine
 10
-2756.197741501334
 20
-510.8487132713755
 30
0.0
 11
432.802258498662
 21
-510.8487132713755
 31
0.0
  0
LINE
  5
3DD
330
1F
100
AcDbEntity
  8
0-1_通り芯
  6
JWW_CENTER1
 62
   120
370
     5
100
AcDbLine
 10
-2764.114235707967
 20
-3258.848713271374
 30
0.0
 11
432.802258498662
 21
-3258.848713271374
 31
0.0
  0
LINE
  5
3DE
330
1F
100
AcDbEntity
  8
0-0_補助線
  6
JWW_HOJO
 62
   120
370
     5
100
AcDbLine
 10
318.8022584986621
 20
-210.8487132713755
 30
0.0
 11
-2756.197741501334
 21
-210.8487132713755
 31
0.0
  0
MTEXT
  5
3DF
330
1F
100
AcDbEntity
  8
0-A_文字
  6
Continuous
 62
     7
370
     9
100
AcDbMText
 10
-2758.367705938822
 20
-64.21205768164336
 30
0.0
 40
91.43999999999997
 41
1140.0
 46
0.0
 71
     7
 72
     1
  1
{\fＭＳ ゴシック|b0|i0|c128|p49;■縦断面図[ﾚｰﾙﾀｲﾌﾟ]}
 73
     1
 44
1.0
  0
LWPOLYLINE
  5
3E0
330
1F
100
AcDbEntity
  8
0-B_寸法
  6
Continuous
 62
     7
370
     9
100
AcDbPolyline
 90
        4
 70
     1
 43
3.0
 10
110.3022584986621
 20
-3258.848713271374
 42
0.4142135623731
 10
108.8022584986621
 20
-3257.348713271374
 42
0.4142135623731
 10
107.3022584986621
 20
-3258.848713271374
 42
0.4142135623731
 10
108.8022584986621
 20
-3260.348713271374
 42
0.4142135623731
  0
MTEXT
  5
3E1
330
1F
100
AcDbEntity
  8
0-B_寸法
  6
Continuous
 62
     7
370
   211
100
AcDbMText
 10
93.80225849866207
 20
-3408.534797405559
 30
0.0
 40
97.15499999999999
 41
127.5
 46
0.0
 71
     7
 72
     1
  1
{\fＭＳ ゴシック|b0|i0|c128|p49;12}
 11
6.123031769111886E-17
 21
1.0
 31
0.0
 73
     1
 44
1.0
  0
LINE
  5
3E2
330
1F
100
AcDbEntity
  8
0-B_寸法
  6
Continuous
 62
   120
370
     5
100
AcDbLine
 10
108.8022584986621
 20
-3186.848713271373
 30
0.0
 11
-521.197741501338
 21
-3186.848713271373
 31
0.0
  0
LWPOLYLINE
  5
3E3
330
1F
100
AcDbEntity
  8
0-B_寸法
  6
Continuous
 62
     7
370
     9
100
AcDbPolyline
 90
        4
 70
     1
 43
3.0
 10
320.3022584986621
 20
-3258.848713271374
 42
0.4142135623731
 10
318.8022584986621
 20
-3257.348713271374
 42
0.4142135623731
 10
317.3022584986621
 20
-3258.848713271374
 42
0.4142135623731
 10
318.8022584986621
 20
-3260.348713271374
 42
0.4142135623731
  0
MTEXT
  5
3E4
330
1F
100
AcDbEntity
  8
0-B_寸法
  6
Continuous
 62
     7
370
   211
100
AcDbMText
 10
93.80225849866207
 20
-2557.481213271376
 30
0.0
 40
102.235
 41
1207.5
 46
0.0
 71
     7
 72
     1
  1
{\fＭＳ ゴシック|b0|i0|c128|p49;枠内＝2,002(2,202)}
 11
6.123031769111886E-17
 21
1.0
 31
0.0
 73
     1
 44
1.0
  0
LINE
  5
3E5
330
1F
100
AcDbEntity
  8
0-B_寸法
  6
Continuous
 62
   120
370
     5
100
AcDbLine
 10
318.8022584986621
 20
-3258.848713271374
 30
0.0
 11
318.8022584986621
 21
-558.8487132713755
 31
0.0
  0
MTEXT
  5
3E6
330
1F
100
AcDbEntity
  8
0-B_寸法
  6
Continuous
 62
     7
370
   211
100
AcDbMText
 10
303.8022584986621
 20
-2557.481213271376
 30
0.0
 40
102.235
 41
1207.5
 46
0.0
 71
     7
 72
     1
  1
{\fＭＳ ゴシック|b0|i0|c128|p49;枠外＝2,047(2,247)}
 11
6.123031769111886E-17
 21
1.0
 31
0.0
 73
     1
 44
1.0
  0
MTEXT
  5
3E7
330
1F
100
AcDbEntity
  8
F-A_文字
  6
Continuous
 62
     7
370
     9
100
AcDbMText
 10
5096.167700144058
 20
-4147.857012699985
 30
0.0
 40
74.295
 41
97.5
 46
0.0
 71
     7
 72
     1
  1
{\fＭＳ ゴシック|b0|i0|c128|p49;01}
 73
     1
 44
1.0
  0
MTEXT
  5
3E8
330
1F
100
AcDbEntity
  8
F-A_文字
  6
Continuous
 62
     7
370
     0
100
AcDbMText
 10
3569.917643811961
 20
-3946.903115907308
 30
0.0
 40
76.19999999999999
 41
150.0
 46
0.0
 71
     7
 72
     1
  1
{\fＭＳ ゴシック|b0|i0|c128|p49;1/5}
 73
     1
 44
1.0
  0
LINE
  5
3E9
330
1F
100
AcDbEntity
  8
0-4_枠
  6
Continuous
 62
   120
370
     5
100
AcDbLine
 10
-1250.197741501341
 20
-2004.848713271375
 30
0.0
 11
-1250.197741501341
 21
-3186.848713271373
 31
0.0
  0
LINE
  5
3EA
330
1F
100
AcDbEntity
  8
0-4_枠
  6
Continuous
 62
   120
370
     5
100
AcDbLine
 10
-1928.197741501341
 20
-2004.848713271375
 30
0.0
 11
-1928.197741501341
 21
-3186.848713271373
 31
0.0
  0
LINE
  5
3EB
330
1F
100
AcDbEntity
  8
0-6_扉
  6
Continuous
 62
   200
370
    20
100
AcDbLine
 10
-1385.197741501335
 20
-2004.848713271375
 30
0.0
 11
-1385.197741501335
 21
-3138.849313271376
 31
0.0
  0
LINE
  5
3EC
330
1F
100
AcDbEntity
  8
0-6_扉
  6
Continuous
 62
   200
370
    20
100
AcDbLine
 10
-1793.197741501332
 20
-2004.848713271375
 30
0.0
 11
-1793.197741501332
 21
-3138.849313271376
 31
0.0
  0
LINE
  5
3ED
330
1F
100
AcDbEntity
  8
0-0_補助線
  6
JWW_HOJO
 62
   120
370
     5
100
AcDbLine
 10
-1124.19774150134
 20
-1884.848713271375
 30
0.0
 11
-2054.19774150134
 21
-1884.848713271375
 31
0.0
  0
LINE
  5
3EE
330
1F
100
AcDbEntity
  8
0-0_補助線
  6
JWW_HOJO
 62
   120
370
     5
100
AcDbLine
 10
-1124.19774150134
 20
-2004.848713271375
 30
0.0
 11
-2054.19774150134
 21
-2004.848713271375
 31
0.0
  0
LINE
  5
3EF
330
1F
100
AcDbEntity
  8
0-A_文字
  6
Continuous
 62
     7
370
     9
100
AcDbLine
 10
-2642.197741501337
 20
-1824.848713271375
 30
0.0
 11
-2642.197741501337
 21
-2064.848713271377
 31
0.0
  0
LINE
  5
3F0
330
1F
100
AcDbEntity
  8
0-A_文字
  6
Continuous
 62
     7
370
     9
100
AcDbLine
 10
-2042.197741501337
 20
-2064.848713271377
 30
0.0
 11
-2042.197741501337
 21
-1824.848713271375
 31
0.0
  0
LINE
  5
3F1
330
1F
100
AcDbEntity
  8
0-A_文字
  6
Continuous
 62
     7
370
     9
100
AcDbLine
 10
-2642.197741501337
 20
-2064.848713271377
 30
0.0
 11
-2042.197741501337
 21
-2064.848713271377
 31
0.0
  0
LINE
  5
3F2
330
1F
100
AcDbEntity
  8
0-A_文字
  6
Continuous
 62
     7
370
     9
100
AcDbLine
 10
-2042.197741501337
 20
-1824.848713271375
 30
0.0
 11
-2642.197741501337
 21
-1824.848713271375
 31
0.0
  0
MTEXT
  5
3F3
330
1F
100
AcDbEntity
  8
0-A_文字
  6
Continuous
 62
     7
370
     9
100
AcDbMText
 10
-2582.197741501344
 20
-2019.128713271377
 30
0.0
 40
91.44
 41
480.0
 46
0.0
 71
     7
 72
     1
  1
{\fＭＳ ゴシック|b0|i0|c128|p49;和室側・}
 73
     1
 44
1.0
  0
LINE
  5
3F4
330
1F
100
AcDbEntity
  8
0-A_文字
  6
Continuous
 62
     7
370
     9
100
AcDbLine
 10
-614.5848455017481
 20
-3133.967215338785
 30
0.0
 11
-584.5848455017497
 21
-3185.928739565851
 31
0.0
  0
LINE
  5
3F5
330
1F
100
AcDbEntity
  8
0-A_文字
  6
Continuous
 62
     7
370
     9
100
AcDbLine
 10
-554.5848455017481
 20
-3133.967215338785
 30
0.0
 11
-614.5848455017481
 21
-3133.967215338785
 31
0.0
  0
LINE
  5
3F6
330
1F
100
AcDbEntity
  8
0-A_文字
  6
Continuous
 62
     7
370
     9
100
AcDbLine
 10
-554.5848455017481
 20
-3133.967215338785
 30
0.0
 11
-584.5848455017481
 21
-3185.928739565851
 31
0.0
  0
LINE
  5
3F7
330
1F
100
AcDbEntity
  8
0-3_仕上げ
  6
Continuous
 62
    40
370
    15
100
AcDbLine
 10
-521.197741501338
 20
-3186.848713271373
 30
0.0
 11
-1250.19774150134
 21
-3186.848713271373
 31
0.0
  0
LINE
  5
3F8
330
1F
100
AcDbEntity
  8
0-3_仕上げ
  6
Continuous
 62
     7
370
     9
100
AcDbLine
 10
-521.197741501338
 20
-3195.848713271374
 30
0.0
 11
-1250.19774150134
 21
-3195.848713271374
 31
0.0
  0
LINE
  5
3F9
330
1F
100
AcDbEntity
  8
0-3_仕上げ
  6
Continuous
 62
     7
370
     9
100
AcDbLine
 10
-521.197741501338
 20
-3222.848713271374
 30
0.0
 11
-1250.19774150134
 21
-3222.848713271374
 31
0.0
  0
LINE
  5
3FA
330
1F
100
AcDbEntity
  8
0-3_仕上げ
  6
Continuous
 62
     7
370
     9
100
AcDbLine
 10
-521.197741501338
 20
-3213.848713271372
 30
0.0
 11
-1250.19774150134
 21
-3213.848713271372
 31
0.0
  0
LINE
  5
3FB
330
1F
100
AcDbEntity
  8
0-3_仕上げ
  6
Continuous
 62
     7
370
     9
100
AcDbLine
 10
-521.197741501338
 20
-3204.848713271374
 30
0.0
 11
-1250.19774150134
 21
-3204.848713271374
 31
0.0
  0
LINE
  5
3FC
330
1F
100
AcDbEntity
  8
0-3_仕上げ
  6
Continuous
 62
     7
370
     9
100
AcDbLine
 10
-521.197741501338
 20
-3231.848713271373
 30
0.0
 11
-1250.19774150134
 21
-3231.848713271373
 31
0.0
  0
LINE
  5
3FD
330
1F
100
AcDbEntity
  8
0-3_仕上げ
  6
Continuous
 62
     7
370
     9
100
AcDbLine
 10
-521.197741501338
 20
-3240.848713271374
 30
0.0
 11
-1250.19774150134
 21
-3240.848713271374
 31
0.0
  0
LINE
  5
3FE
330
1F
100
AcDbEntity
  8
0-3_仕上げ
  6
Continuous
 62
     7
370
     9
100
AcDbLine
 10
-521.197741501338
 20
-3249.848713271373
 30
0.0
 11
-1250.19774150134
 21
-3249.848713271373
 31
0.0
  0
LINE
  5
3FF
330
1F
100
AcDbEntity
  8
0-3_仕上げ
  6
Continuous
 62
    40
370
    15
100
AcDbLine
 10
-521.197741501338
 20
-3258.848713271374
 30
0.0
 11
-1250.19774150134
 21
-3258.848713271374
 31
0.0
  0
LINE
  5
400
330
1F
100
AcDbEntity
  8
0-A_文字
  6
Continuous
 62
     7
370
     9
100
AcDbLine
 10
-1173.697741501345
 20
-1824.848713271375
 30
0.0
 11
-1173.697741501345
 21
-2064.848713271377
 31
0.0
  0
LINE
  5
401
330
1F
100
AcDbEntity
  8
0-A_文字
  6
Continuous
 62
     7
370
     9
100
AcDbLine
 10
-573.6977415013448
 20
-2064.848713271377
 30
0.0
 11
-573.6977415013448
 21
-1824.848713271375
 31
0.0
  0
LINE
  5
402
330
1F
100
AcDbEntity
  8
0-A_文字
  6
Continuous
 62
     7
370
     9
100
AcDbLine
 10
-1173.697741501345
 20
-2064.848713271377
 30
0.0
 11
-573.6977415013448
 21
-2064.848713271377
 31
0.0
  0
LINE
  5
403
330
1F
100
AcDbEntity
  8
0-A_文字
  6
Continuous
 62
     7
370
     9
100
AcDbLine
 10
-573.6977415013448
 20
-1824.848713271375
 30
0.0
 11
-1173.697741501345
 21
-1824.848713271375
 31
0.0
  0
MTEXT
  5
404
330
1F
100
AcDbEntity
  8
0-A_文字
  6
Continuous
 62
     7
370
     9
100
AcDbMText
 10
-1113.697741501345
 20
-2019.128713271377
 30
0.0
 40
91.44
 41
480.0
 46
0.0
 71
     7
 72
     1
  1
{\fＭＳ ゴシック|b0|i0|c128|p49;洋室側・}
 73
     1
 44
1.0
  0
LINE
  5
405
330
1F
100
AcDbEntity
  8
0-6_扉
  6
Continuous
 62
   200
370
    20
100
AcDbLine
 10
-1613.197741501332
 20
-2004.848713271375
 30
0.0
 11
-1613.197741501332
 21
-3138.849313271376
 31
0.0
  0
LINE
  5
406
330
1F
100
AcDbEntity
  8
0-6_扉
  6
Continuous
 62
   200
370
    20
100
AcDbLine
 10
-1565.197741501335
 20
-2004.848713271375
 30
0.0
 11
-1565.197741501335
 21
-3138.849313271376
 31
0.0
  0
MTEXT
  5
407
330
1F
100
AcDbEntity
  8
0-A_文字
  6
Continuous
 62
     7
370
     0
100
AcDbMText
 10
-2312.715135173849
 20
-3147.239324275509
 30
0.0
 40
91.44
 41
240.0
 46
0.0
 71
     7
 72
     1
  1
{\fＭＳ ゴシック|b0|i0|c128|p49;畳寄}
 73
     1
 44
1.0
  0
LINE
  5
408
330
1F
100
AcDbEntity
  8
0-A_文字
  6
Continuous
 62
     7
370
     9
100
AcDbLine
 10
-1982.936997495462
 20
-3215.289102499413
 30
0.0
 11
-2042.715135173849
 21
-3072.959324275509
 31
0.0
  0
LINE
  5
409
330
1F
100
AcDbEntity
  8
0-A_文字
  6
Continuous
 62
     7
370
     9
100
AcDbLine
 10
-2082.275768007327
 20
-3072.959324275509
 30
0.0
 11
-2042.715135173849
 21
-3072.959324275509
 31
0.0
  0
LINE
  5
40A
330
1F
100
AcDbEntity
  8
0-3_仕上げ
  6
Continuous
 62
    40
370
    15
100
AcDbLine
 10
-2018.197741501339
 20
-3258.849016271396
 30
0.0
 11
-1928.197741501339
 21
-3258.849016271396
 31
0.0
  0
LINE
  5
40B
330
1F
100
AcDbEntity
  8
0-C_ハッチ
  6
Continuous
 62
   120
370
     5
100
AcDbLine
 10
-2018.197741501338
 20
-3211.349753231293
 30
0.0
 11
-1993.697004541432
 21
-3186.849016271387
 31
0.0
  0
LINE
  5
40C
330
1F
100
AcDbEntity
  8
0-C_ハッチ
  6
Continuous
 62
   120
370
     5
100
AcDbLine
 10
-2006.300034921733
 20
-3258.84901627139
 30
0.0
 11
-1934.300034921738
 21
-3186.849016271399
 31
0.0
  0
LINE
  5
40D
330
1F
100
AcDbEntity
  8
0-C_ハッチ
  6
Continuous
 62
   120
370
     5
100
AcDbLine
 10
-1946.9030653021
 20
-3258.849016271403
 30
0.0
 11
-1928.197741501338
 21
-3240.143692470641
 31
0.0
  0
LINE
  5
40E
330
1F
100
AcDbEntity
  8
0-3_仕上げ
  6
Continuous
 62
    40
370
    15
100
AcDbLine
 10
-2018.197741501339
 20
-3186.849016271394
 30
0.0
 11
-2018.197741501339
 21
-3258.849016271396
 31
0.0
  0
LINE
  5
40F
330
1F
100
AcDbEntity
  8
0-3_仕上げ
  6
Continuous
 62
    40
370
    15
100
AcDbLine
 10
-1928.197741501339
 20
-3186.849016271394
 30
0.0
 11
-2018.197741501339
 21
-3186.849016271394
 31
0.0
  0
LINE
  5
410
330
1F
100
AcDbEntity
  8
0-3_仕上げ
  6
Continuous
 62
    40
370
    15
100
AcDbLine
 10
-1928.197741501341
 20
-3258.848713271374
 30
0.0
 11
-1928.197741501341
 21
-3186.848713271373
 31
0.0
  0
LINE
  5
411
330
1F
100
AcDbEntity
  8
0-3_仕上げ
  6
Continuous
 62
    40
370
    15
100
AcDbLine
 10
-1250.19774150134
 20
-3258.848713271374
 30
0.0
 11
-1250.19774150134
 21
-3186.848713271373
 31
0.0
  0
LINE
  5
412
330
1F
100
AcDbEntity
  8
0-7_金物
  6
Continuous
 62
     7
370
     9
100
AcDbLine
 10
-1448.197741501335
 20
-3168.849313271376
 30
0.0
 11
-1451.455141501334
 21
-3168.849313271376
 31
0.0
  0
LINE
  5
413
330
1F
100
AcDbEntity
  8
0-7_金物
  6
Continuous
 62
     7
370
     9
100
AcDbLine
 10
-1448.197741501335
 20
-3174.849313271376
 30
0.0
 11
-1448.197741501335
 21
-3168.849313271376
 31
0.0
  0
LINE
  5
414
330
1F
100
AcDbEntity
  8
0-7_金物
  6
Continuous
 62
     7
370
     9
100
AcDbLine
 10
-1484.797741501335
 20
-3194.048713271375
 30
0.0
 11
-1484.797741501335
 21
-3179.049313271375
 31
0.0
  0
LINE
  5
415
330
1F
100
AcDbEntity
  8
0-7_金物
  6
Continuous
 62
     7
370
     9
100
AcDbLine
 10
-1465.597741501335
 20
-3194.048713271375
 30
0.0
 11
-1465.597741501335
 21
-3179.049313271375
 31
0.0
  0
LINE
  5
416
330
1F
100
AcDbEntity
  8
0-7_金物
  6
Continuous
 62
     7
370
     9
100
AcDbLine
 10
-1488.997741501336
 20
-3204.848713271375
 30
0.0
 11
-1461.397741501334
 21
-3204.848713271375
 31
0.0
  0
LINE
  5
417
330
1F
100
AcDbEntity
  8
0-7_金物
  6
Continuous
 62
     7
370
     9
100
AcDbLine
 10
-1475.197741501335
 20
-3197.648713271377
 30
0.0
 11
-1476.997741501335
 21
-3195.848713271375
 31
0.0
  0
LINE
  5
418
330
1F
100
AcDbEntity
  8
0-7_金物
  6
Continuous
 62
     7
370
     9
100
AcDbLine
 10
-1452.397741501335
 20
-3204.848713271375
 30
0.0
 11
-1449.482341501336
 21
-3197.490913271374
 31
0.0
  0
LINE
  5
419
330
1F
100
AcDbEntity
  8
0-7_金物
  6
Continuous
 62
     7
370
     9
100
AcDbLine
 10
-1458.997741501336
 20
-3204.848713271375
 30
0.0
 11
-1452.397741501335
 21
-3204.848713271375
 31
0.0
  0
LINE
  5
41A
330
1F
100
AcDbEntity
  8
0-7_金物
  6
Continuous
 62
     7
370
     9
100
AcDbLine
 10
-1460.197741501335
 20
-3203.648713271376
 30
0.0
 11
-1461.397741501334
 21
-3204.848713271375
 31
0.0
  0
LINE
  5
41B
330
1F
100
AcDbEntity
  8
0-7_金物
  6
Continuous
 62
     7
370
     9
100
AcDbLine
 10
-1458.997741501336
 20
-3204.848713271375
 30
0.0
 11
-1460.197741501335
 21
-3203.648713271376
 31
0.0
  0
LINE
  5
41C
330
1F
100
AcDbEntity
  8
0-7_金物
  6
Continuous
 62
     7
370
     9
100
AcDbLine
 10
-1454.197741501335
 20
-3195.848713271375
 30
0.0
 11
-1454.197741501335
 21
-3188.265313271376
 31
0.0
  0
LINE
  5
41D
330
1F
100
AcDbEntity
  8
0-7_金物
  6
Continuous
 62
     7
370
     9
100
AcDbLine
 10
-1454.197741501335
 20
-3195.848713271375
 30
0.0
 11
-1450.597741501335
 21
-3195.848713271375
 31
0.0
  0
LINE
  5
41E
330
1F
100
AcDbEntity
  8
0-7_金物
  6
Continuous
 62
     7
370
     9
100
AcDbLine
 10
-1467.397741501335
 20
-3195.848713271375
 30
0.0
 11
-1473.397741501335
 21
-3195.848713271375
 31
0.0
  0
LINE
  5
41F
330
1F
100
AcDbEntity
  8
0-7_金物
  6
Continuous
 62
     7
370
     9
100
AcDbLine
 10
-1473.397741501335
 20
-3195.848713271375
 30
0.0
 11
-1475.197741501335
 21
-3197.648713271377
 31
0.0
  0
LINE
  5
420
330
1F
100
AcDbEntity
  8
0-7_金物
  6
Continuous
 62
     7
370
     9
100
AcDbLine
 10
-1497.997741501335
 20
-3204.848713271375
 30
0.0
 11
-1500.913141501334
 21
-3197.490913271374
 31
0.0
  0
LINE
  5
421
330
1F
100
AcDbEntity
  8
0-7_金物
  6
Continuous
 62
     7
370
     9
100
AcDbLine
 10
-1490.197741501335
 20
-3203.648713271376
 30
0.0
 11
-1488.997741501336
 21
-3204.848713271375
 31
0.0
  0
LINE
  5
422
330
1F
100
AcDbEntity
  8
0-7_金物
  6
Continuous
 62
     7
370
     9
100
AcDbLine
 10
-1491.397741501334
 20
-3204.848713271375
 30
0.0
 11
-1497.997741501335
 21
-3204.848713271375
 31
0.0
  0
LINE
  5
423
330
1F
100
AcDbEntity
  8
0-7_金物
  6
Continuous
 62
     7
370
     9
100
AcDbLine
 10
-1491.397741501334
 20
-3204.848713271375
 30
0.0
 11
-1490.197741501335
 21
-3203.648713271376
 31
0.0
  0
LINE
  5
424
330
1F
100
AcDbEntity
  8
0-7_金物
  6
Continuous
 62
     7
370
     9
100
AcDbLine
 10
-1476.997741501335
 20
-3195.848713271375
 30
0.0
 11
-1482.997741501335
 21
-3195.848713271375
 31
0.0
  0
LINE
  5
425
330
1F
100
AcDbEntity
  8
0-7_金物
  6
Continuous
 62
     7
370
     9
100
AcDbLine
 10
-1496.197741501336
 20
-3195.848713271375
 30
0.0
 11
-1496.197741501336
 21
-3188.265313271376
 31
0.0
  0
LINE
  5
426
330
1F
100
AcDbEntity
  8
0-7_金物
  6
Continuous
 62
     7
370
     9
100
AcDbLine
 10
-1496.197741501336
 20
-3195.848713271375
 30
0.0
 11
-1499.797741501335
 21
-3195.848713271375
 31
0.0
  0
LINE
  5
427
330
1F
100
AcDbEntity
  8
0-7_金物
  6
Continuous
 62
     7
370
     9
100
AcDbLine
 10
-1461.170341501335
 20
-3177.321913271376
 30
0.0
 11
-1453.576741501336
 21
-3169.727713271375
 31
0.0
  0
LINE
  5
428
330
1F
100
AcDbEntity
  8
0-7_金物
  6
Continuous
 62
     7
370
     9
100
AcDbLine
 10
-1462.443541501335
 20
-3177.849313271374
 30
0.0
 11
-1464.397741501334
 21
-3177.849313271374
 31
0.0
  0
LINE
  5
429
330
1F
100
AcDbEntity
  8
0-7_金物
  6
Continuous
 62
     7
370
     9
100
AcDbLine
 10
-1489.224541501336
 20
-3177.321913271376
 30
0.0
 11
-1496.818741501334
 21
-3169.727713271375
 31
0.0
  0
LINE
  5
42A
330
1F
100
AcDbEntity
  8
0-7_金物
  6
Continuous
 62
     7
370
     9
100
AcDbLine
 10
-1487.951941501335
 20
-3177.849313271374
 30
0.0
 11
-1485.997741501335
 21
-3177.849313271374
 31
0.0
  0
LINE
  5
42B
330
1F
100
AcDbEntity
  8
0-7_金物
  6
Continuous
 62
     7
370
     9
100
AcDbLine
 10
-1502.197741501334
 20
-3174.849313271376
 30
0.0
 11
-1502.197741501334
 21
-3168.849313271376
 31
0.0
  0
LINE
  5
42C
330
1F
100
AcDbEntity
  8
0-7_金物
  6
Continuous
 62
     7
370
     9
100
AcDbLine
 10
-1502.197741501334
 20
-3168.849313271376
 30
0.0
 11
-1498.940341501335
 21
-3168.849313271376
 31
0.0
  0
ARC
  5
42D
330
1F
100
AcDbEntity
  8
0-7_金物
  6
Continuous
 62
     7
370
     9
100
AcDbCircle
 10
-1436.197741501336
 20
-3188.265313271376
 30
0.0
 40
18.00000000000051
100
AcDbArc
 50
131.81
 51
180.0
  0
ARC
  5
42E
330
1F
100
AcDbEntity
  8
0-7_金物
  6
Continuous
 62
     7
370
     9
100
AcDbCircle
 10
-1514.197141501335
 20
-3188.265313271376
 30
0.0
 40
18.00000000000051
100
AcDbArc
 50
0.0
 51
48.18999999999998
  0
ARC
  5
42F
330
1F
100
AcDbEntity
  8
0-7_金物
  6
Continuous
 62
     7
370
     9
100
AcDbCircle
 10
-1450.597741501335
 20
-3197.048713271375
 30
0.0
 40
1.200000000000034
100
AcDbArc
 50
338.384
 51
89.99999999999997
  0
ARC
  5
430
330
1F
100
AcDbEntity
  8
0-7_金物
  6
Continuous
 62
     7
370
     9
100
AcDbCircle
 10
-1467.397741501335
 20
-3194.048713271375
 30
0.0
 40
1.800000000000052
100
AcDbArc
 50
269.9999999999999
 51
359.9999999999999
  0
ARC
  5
431
330
1F
100
AcDbEntity
  8
0-7_金物
  6
Continuous
 62
     7
370
     9
100
AcDbCircle
 10
-1482.997741501335
 20
-3194.048713271375
 30
0.0
 40
1.800000000000052
100
AcDbArc
 50
179.9999999999999
 51
269.9999999999999
  0
ARC
  5
432
330
1F
100
AcDbEntity
  8
0-7_金物
  6
Continuous
 62
     7
370
     9
100
AcDbCircle
 10
-1499.797741501335
 20
-3197.048713271375
 30
0.0
 40
1.200000000000034
100
AcDbArc
 50
89.99999999999987
 51
201.6159999999999
  0
ARC
  5
433
330
1F
100
AcDbEntity
  8
0-7_金物
  6
Continuous
 62
     7
370
     9
100
AcDbCircle
 10
-1462.443541501335
 20
-3176.049313271376
 30
0.0
 40
1.800000000000052
100
AcDbArc
 50
270.0
 51
315.0
  0
ARC
  5
434
330
1F
100
AcDbEntity
  8
0-7_金物
  6
Continuous
 62
     7
370
     9
100
AcDbCircle
 10
-1451.455141501334
 20
-3171.849313271375
 30
0.0
 40
3.000000000000086
100
AcDbArc
 50
89.99999999999996
 51
135.0
  0
ARC
  5
435
330
1F
100
AcDbEntity
  8
0-7_金物
  6
Continuous
 62
     7
370
     9
100
AcDbCircle
 10
-1464.397741501334
 20
-3179.049313271375
 30
0.0
 40
1.200000000000034
100
AcDbArc
 50
89.99999999999997
 51
180.0
  0
ARC
  5
436
330
1F
100
AcDbEntity
  8
0-7_金物
  6
Continuous
 62
     7
370
     9
100
AcDbCircle
 10
-1485.997741501335
 20
-3179.049313271375
 30
0.0
 40
1.200000000000034
100
AcDbArc
 50
359.9999999999999
 51
89.99999999999997
  0
ARC
  5
437
330
1F
100
AcDbEntity
  8
0-7_金物
  6
Continuous
 62
     7
370
     9
100
AcDbCircle
 10
-1487.951941501335
 20
-3176.049313271376
 30
0.0
 40
1.800000000000052
100
AcDbArc
 50
224.9999999999999
 51
269.9999999999999
  0
ARC
  5
438
330
1F
100
AcDbEntity
  8
0-7_金物
  6
Continuous
 62
     7
370
     9
100
AcDbCircle
 10
-1498.940341501335
 20
-3171.849313271375
 30
0.0
 40
3.000000000000086
100
AcDbArc
 50
44.99999999999995
 51
89.99999999999996
  0
LINE
  5
439
330
1F
100
AcDbEntity
  8
0-7_金物
  6
Continuous
 62
     7
370
     9
100
AcDbLine
 10
-1427.197741501334
 20
-3138.849313271376
 30
0.0
 11
-1427.197741501334
 21
-2898.849313271376
 31
0.0
  0
LINE
  5
43A
330
1F
100
AcDbEntity
  8
0-7_金物
  6
Continuous
 62
     7
370
     9
100
AcDbLine
 10
-1523.197741501335
 20
-3138.849313271376
 30
0.0
 11
-1427.197741501334
 21
-3138.849313271376
 31
0.0
  0
LINE
  5
43B
330
1F
100
AcDbEntity
  8
0-7_金物
  6
Continuous
 62
     7
370
     9
100
AcDbLine
 10
-1523.197741501335
 20
-2898.849313271376
 30
0.0
 11
-1523.197741501335
 21
-3138.849313271376
 31
0.0
  0
ARC
  5
43C
330
1F
100
AcDbEntity
  8
0-7_金物
  6
Continuous
 62
     7
370
     9
100
AcDbCircle
 10
-1475.197741501335
 20
-2898.849313271376
 30
0.0
 40
47.99999999999999
100
AcDbArc
 50
0.0000000000000064
 51
180.0
  0
ARC
  5
43D
330
1F
100
AcDbEntity
  8
0-7_金物
  6
Continuous
 62
     7
370
     9
100
AcDbCircle
 10
-1475.197741501335
 20
-2892.849313271377
 30
0.0
 40
24.9
100
AcDbArc
 50
91.36450306982846
 51
208.6354969301637
  0
ARC
  5
43E
330
1F
100
AcDbEntity
  8
0-7_金物
  6
Continuous
 62
     7
370
     9
100
AcDbCircle
 10
-1475.197741501335
 20
-2892.849313271377
 30
0.0
 40
24.9
100
AcDbArc
 50
211.3645030698352
 51
328.6354969301648
  0
ARC
  5
43F
330
1F
100
AcDbEntity
  8
0-7_金物
  6
Continuous
 62
     7
370
     9
100
AcDbCircle
 10
-1475.197741501335
 20
-2892.849313271377
 30
0.0
 40
24.9
100
AcDbArc
 50
331.3645030698363
 51
88.63549693017154
  0
CIRCLE
  5
440
330
1F
100
AcDbEntity
  8
0-7_金物
  6
Continuous
 62
     7
370
     9
100
AcDbCircle
 10
-1475.197741501335
 20
-3066.849313271377
 30
0.0
 40
21.00000000000001
  0
LINE
  5
441
330
1F
100
AcDbEntity
  8
0-7_金物
  6
Continuous
 62
     7
370
     9
100
AcDbLine
 10
-1475.790680722725
 20
-2867.956374049986
 30
0.0
 11
-1475.197741501335
 21
-2868.549313271375
 31
0.0
  0
LINE
  5
442
330
1F
100
AcDbEntity
  8
0-7_金物
  6
Continuous
 62
     7
370
     9
100
AcDbLine
 10
-1474.604802279945
 20
-2867.956374049986
 30
0.0
 11
-1475.197741501335
 21
-2868.549313271375
 31
0.0
  0
LINE
  5
443
330
1F
100
AcDbEntity
  8
0-7_金物
  6
Continuous
 62
     7
370
     9
100
AcDbLine
 10
-1496.459189631224
 20
-2905.809283310694
 30
0.0
 11
-1496.242158813295
 21
-2904.999313271373
 31
0.0
  0
LINE
  5
444
330
1F
100
AcDbEntity
  8
0-7_金物
  6
Continuous
 62
     7
370
     9
100
AcDbLine
 10
-1497.052128852614
 20
-2904.782282453446
 30
0.0
 11
-1496.242158813295
 21
-2904.999313271373
 31
0.0
  0
LINE
  5
445
330
1F
100
AcDbEntity
  8
0-7_金物
  6
Continuous
 62
     7
370
     9
100
AcDbLine
 10
-1453.343354150055
 20
-2904.782282453446
 30
0.0
 11
-1454.153324189374
 21
-2904.999313271373
 31
0.0
  0
LINE
  5
446
330
1F
100
AcDbEntity
  8
0-7_金物
  6
Continuous
 62
     7
370
     9
100
AcDbLine
 10
-1453.936293371447
 20
-2905.809283310696
 30
0.0
 11
-1454.153324189374
 21
-2904.999313271373
 31
0.0
  0
CIRCLE
  5
447
330
1F
100
AcDbEntity
  8
0-7_金物
  6
Continuous
 62
     7
370
     9
100
AcDbCircle
 10
-1475.197741501335
 20
-2964.849313271376
 30
0.0
 40
32.09999999999997
  0
LINE
  5
448
330
1F
100
AcDbEntity
  8
0-7_金物
  6
Continuous
 62
     7
370
     9
100
AcDbLine
 10
-1478.197741501335
 20
-3052.449313271376
 30
0.0
 11
-1478.197741501335
 21
-3056.049313271376
 31
0.0
  0
LINE
  5
449
330
1F
100
AcDbEntity
  8
0-7_金物
  6
Continuous
 62
     7
370
     9
100
AcDbLine
 10
-1478.197741501327
 20
-3081.249313271377
 30
0.0
 11
-1472.197741501341
 21
-3081.249313271377
 31
0.0
  0
LINE
  5
44A
330
1F
100
AcDbEntity
  8
0-7_金物
  6
Continuous
 62
     7
370
     9
100
AcDbLine
 10
-1485.997741501335
 20
-3063.849313271376
 30
0.0
 11
-1489.597741501335
 21
-3063.849313271376
 31
0.0
  0
ARC
  5
44B
330
1F
100
AcDbEntity
  8
0-7_金物
  6
Continuous
 62
     7
370
     9
100
AcDbCircle
 10
-1485.997741501335
 20
-3056.049313271376
 30
0.0
 40
7.800000000000001
100
AcDbArc
 50
270.0
 51
0.0
  0
LINE
  5
44C
330
1F
100
AcDbEntity
  8
0-7_金物
  6
Continuous
 62
     7
370
     9
100
AcDbLine
 10
-1472.197741501334
 20
-3052.449313271376
 30
0.0
 11
-1478.197741501335
 21
-3052.449313271376
 31
0.0
  0
LINE
  5
44D
330
1F
100
AcDbEntity
  8
0-7_金物
  6
Continuous
 62
     7
370
     9
100
AcDbLine
 10
-1489.597741501335
 20
-3063.849313271376
 30
0.0
 11
-1489.597741501335
 21
-3069.84931327139
 31
0.0
  0
LINE
  5
44E
330
1F
100
AcDbEntity
  8
0-7_金物
  6
Continuous
 62
     7
370
     9
100
AcDbLine
 10
-1489.597741501329
 20
-3069.84931327139
 30
0.0
 11
-1485.997741501328
 21
-3069.84931327139
 31
0.0
  0
LINE
  5
44F
330
1F
100
AcDbEntity
  8
0-7_金物
  6
Continuous
 62
     7
370
     9
100
AcDbLine
 10
-1478.197741501327
 20
-3077.649313271389
 30
0.0
 11
-1478.197741501327
 21
-3081.249313271387
 31
0.0
  0
ARC
  5
450
330
1F
100
AcDbEntity
  8
0-7_金物
  6
Continuous
 62
     7
370
     9
100
AcDbCircle
 10
-1485.997741501327
 20
-3077.649313271389
 30
0.0
 40
7.800000000000001
100
AcDbArc
 50
0.0000000000065265
 51
90.00000000000651
  0
LINE
  5
451
330
1F
100
AcDbEntity
  8
0-7_金物
  6
Continuous
 62
     7
370
     9
100
AcDbLine
 10
-1472.197741501334
 20
-3052.449313271376
 30
0.0
 11
-1472.197741501334
 21
-3056.049313271376
 31
0.0
  0
LINE
  5
452
330
1F
100
AcDbEntity
  8
0-7_金物
  6
Continuous
 62
     7
370
     9
100
AcDbLine
 10
-1464.397741501334
 20
-3063.849313271376
 30
0.0
 11
-1460.797741501334
 21
-3063.849313271376
 31
0.0
  0
ARC
  5
453
330
1F
100
AcDbEntity
  8
0-7_金物
  6
Continuous
 62
     7
370
     9
100
AcDbCircle
 10
-1464.397741501334
 20
-3056.049313271376
 30
0.0
 40
7.800000000000001
100
AcDbArc
 50
180.0
 51
270.0
  0
LINE
  5
454
330
1F
100
AcDbEntity
  8
0-7_金物
  6
Continuous
 62
     7
370
     9
100
AcDbLine
 10
-1460.797741501334
 20
-3063.849313271376
 30
0.0
 11
-1460.797741501334
 21
-3069.84931327139
 31
0.0
  0
LINE
  5
455
330
1F
100
AcDbEntity
  8
0-7_金物
  6
Continuous
 62
     7
370
     9
100
AcDbLine
 10
-1472.197741501341
 20
-3077.649313271389
 30
0.0
 11
-1472.197741501341
 21
-3081.249313271387
 31
0.0
  0
LINE
  5
456
330
1F
100
AcDbEntity
  8
0-7_金物
  6
Continuous
 62
     7
370
     9
100
AcDbLine
 10
-1460.797741501341
 20
-3069.84931327139
 30
0.0
 11
-1464.397741501341
 21
-3069.84931327139
 31
0.0
  0
ARC
  5
457
330
1F
100
AcDbEntity
  8
0-7_金物
  6
Continuous
 62
     7
370
     9
100
AcDbCircle
 10
-1464.397741501341
 20
-3077.649313271389
 30
0.0
 40
7.800000000000001
100
AcDbArc
 50
89.99999999999352
 51
179.9999999999935
  0
LINE
  5
458
330
1F
100
AcDbEntity
  8
0-7_金物
  6
Continuous
 62
     7
370
     9
100
AcDbLine
 10
-1454.197741501335
 20
-3165.376389523717
 30
0.0
 11
-1454.197741501335
 21
-3138.849313271376
 31
0.0
  0
LINE
  5
459
330
1F
100
AcDbEntity
  8
0-7_金物
  6
Continuous
 62
     7
370
     9
100
AcDbLine
 10
-1484.197741501335
 20
-3138.849313271376
 30
0.0
 11
-1484.197741501335
 21
-3184.576389523719
 31
0.0
  0
LINE
  5
45A
330
1F
100
AcDbEntity
  8
0-7_金物
  6
Continuous
 62
     7
370
     9
100
AcDbLine
 10
-1466.197741501336
 20
-3138.849313271376
 30
0.0
 11
-1466.197741501336
 21
-3184.576389523719
 31
0.0
  0
LINE
  5
45B
330
1F
100
AcDbEntity
  8
0-7_金物
  6
Continuous
 62
     7
370
     9
100
AcDbLine
 10
-1496.197741501336
 20
-3165.376389523717
 30
0.0
 11
-1496.197741501336
 21
-3138.849313271376
 31
0.0
  0
ARC
  5
45C
330
1F
100
AcDbEntity
  8
0-7_金物
  6
Continuous
 62
     7
370
     9
100
AcDbCircle
 10
-1464.997741501334
 20
-3178.521729523719
 30
0.0
 40
1.2
100
AcDbArc
 50
95.21590900000078
 51
180.0
  0
ARC
  5
45D
330
1F
100
AcDbEntity
  8
0-7_金物
  6
Continuous
 62
     7
370
     9
100
AcDbCircle
 10
-1467.997741501335
 20
-3184.576389523719
 30
0.0
 40
1.8
100
AcDbArc
 50
270.0
 51
0.0
  0
ARC
  5
45E
330
1F
100
AcDbEntity
  8
0-7_金物
  6
Continuous
 62
     7
370
     9
100
AcDbCircle
 10
-1485.397741501336
 20
-3178.521729523719
 30
0.0
 40
1.2
100
AcDbArc
 50
0.0000000000000127
 51
84.7840909999992
  0
ARC
  5
45F
330
1F
100
AcDbEntity
  8
0-7_金物
  6
Continuous
 62
     7
370
     9
100
AcDbCircle
 10
-1482.397741501335
 20
-3184.576389523719
 30
0.0
 40
1.8
100
AcDbArc
 50
180.0
 51
270.0
  0
ARC
  5
460
330
1F
100
AcDbEntity
  8
0-7_金物
  6
Continuous
 62
     7
370
     9
100
AcDbCircle
 10
-1466.197741501336
 20
-3165.376389523717
 30
0.0
 40
12.0
100
AcDbArc
 50
275.2159090000008
 51
0.0000000000000254
  0
ARC
  5
461
330
1F
100
AcDbEntity
  8
0-7_金物
  6
Continuous
 62
     7
370
     9
100
AcDbCircle
 10
-1484.197741501335
 20
-3165.376389523717
 30
0.0
 40
12.0
100
AcDbArc
 50
180.0
 51
264.7840909999994
  0
LINE
  5
462
330
1F
100
AcDbEntity
  8
0-7_金物
  6
Continuous
 62
     7
370
     9
100
AcDbLine
 10
-1482.397741501335
 20
-3186.376389523718
 30
0.0
 11
-1467.997741501335
 21
-3186.376389523718
 31
0.0
  0
ARC
  5
463
330
1F
100
AcDbEntity
  8
0-7_金物
  6
Continuous
 62
     7
370
     9
100
AcDbCircle
 10
-1488.397741501333
 20
-2978.049313271377
 30
0.0
 40
10.2
100
AcDbArc
 50
0.0000000000000127
 51
90.00000000000001
  0
ARC
  5
464
330
1F
100
AcDbEntity
  8
0-7_金物
  6
Continuous
 62
     7
370
     9
100
AcDbCircle
 10
-1461.997741501335
 20
-2978.049313271377
 30
0.0
 40
10.2
100
AcDbArc
 50
90.0
 51
180.0
  0
ARC
  5
465
330
1F
100
AcDbEntity
  8
0-7_金物
  6
Continuous
 62
     7
370
     9
100
AcDbCircle
 10
-1488.397741501333
 20
-2951.649313271375
 30
0.0
 40
10.2
100
AcDbArc
 50
270.0
 51
0.0
  0
LINE
  5
466
330
1F
100
AcDbEntity
  8
0-7_金物
  6
Continuous
 62
     7
370
     9
100
AcDbLine
 10
-1494.097741501335
 20
-2961.849313271377
 30
0.0
 11
-1488.397741501333
 21
-2961.849313271377
 31
0.0
  0
LINE
  5
467
330
1F
100
AcDbEntity
  8
0-7_金物
  6
Continuous
 62
     7
370
     9
100
AcDbLine
 10
-1494.097741501335
 20
-2967.849313271377
 30
0.0
 11
-1494.097741501335
 21
-2961.849313271377
 31
0.0
  0
LINE
  5
468
330
1F
100
AcDbEntity
  8
0-7_金物
  6
Continuous
 62
     7
370
     9
100
AcDbLine
 10
-1488.397741501333
 20
-2967.849313271377
 30
0.0
 11
-1494.097741501335
 21
-2967.849313271377
 31
0.0
  0
LINE
  5
469
330
1F
100
AcDbEntity
  8
0-7_金物
  6
Continuous
 62
     7
370
     9
100
AcDbLine
 10
-1478.197741501335
 20
-2951.649313271375
 30
0.0
 11
-1478.197741501335
 21
-2945.949313271377
 31
0.0
  0
LINE
  5
46A
330
1F
100
AcDbEntity
  8
0-7_金物
  6
Continuous
 62
     7
370
     9
100
AcDbLine
 10
-1472.197741501334
 20
-2945.949313271377
 30
0.0
 11
-1472.197741501334
 21
-2951.649313271375
 31
0.0
  0
LINE
  5
46B
330
1F
100
AcDbEntity
  8
0-7_金物
  6
Continuous
 62
     7
370
     9
100
AcDbLine
 10
-1478.197741501335
 20
-2945.949313271377
 30
0.0
 11
-1472.197741501334
 21
-2945.949313271377
 31
0.0
  0
LINE
  5
46C
330
1F
100
AcDbEntity
  8
0-7_金物
  6
Continuous
 62
     7
370
     9
100
AcDbLine
 10
-1456.297741501335
 20
-2967.849313271377
 30
0.0
 11
-1461.997741501335
 21
-2967.849313271377
 31
0.0
  0
LINE
  5
46D
330
1F
100
AcDbEntity
  8
0-7_金物
  6
Continuous
 62
     7
370
     9
100
AcDbLine
 10
-1461.997741501335
 20
-2961.849313271377
 30
0.0
 11
-1456.297741501335
 21
-2961.849313271377
 31
0.0
  0
ARC
  5
46E
330
1F
100
AcDbEntity
  8
0-7_金物
  6
Continuous
 62
     7
370
     9
100
AcDbCircle
 10
-1461.997741501335
 20
-2951.649313271375
 30
0.0
 40
10.2
100
AcDbArc
 50
180.0
 51
270.0
  0
LINE
  5
46F
330
1F
100
AcDbEntity
  8
0-7_金物
  6
Continuous
 62
     7
370
     9
100
AcDbLine
 10
-1456.297741501335
 20
-2961.849313271377
 30
0.0
 11
-1456.297741501335
 21
-2967.849313271377
 31
0.0
  0
LINE
  5
470
330
1F
100
AcDbEntity
  8
0-7_金物
  6
Continuous
 62
     7
370
     9
100
AcDbLine
 10
-1478.197741501335
 20
-2983.749313271377
 30
0.0
 11
-1478.197741501335
 21
-2978.049313271377
 31
0.0
  0
LINE
  5
471
330
1F
100
AcDbEntity
  8
0-7_金物
  6
Continuous
 62
     7
370
     9
100
AcDbLine
 10
-1472.197741501334
 20
-2978.049313271377
 30
0.0
 11
-1472.197741501334
 21
-2983.749313271377
 31
0.0
  0
LINE
  5
472
330
1F
100
AcDbEntity
  8
0-7_金物
  6
Continuous
 62
     7
370
     9
100
AcDbLine
 10
-1472.197741501334
 20
-2983.749313271377
 30
0.0
 11
-1478.197741501335
 21
-2983.749313271377
 31
0.0
  0
LINE
  5
473
330
1F
100
AcDbEntity
  8
0-7_金物
  6
Continuous
 62
     7
370
     9
100
AcDbLine
 10
-1435.597741501333
 20
-3146.049313271376
 30
0.0
 11
-1454.39221251242
 21
-3146.049313271376
 31
0.0
  0
LINE
  5
474
330
1F
100
AcDbEntity
  8
0-7_金物
  6
Continuous
 62
     7
370
     9
100
AcDbLine
 10
-1496.003270490252
 20
-3146.049313271376
 30
0.0
 11
-1514.797741501335
 21
-3146.049313271376
 31
0.0
  0
LINE
  5
475
330
1F
100
AcDbEntity
  8
0-7_金物
  6
Continuous
 62
     7
370
     9
100
AcDbLine
 10
-1435.597741501333
 20
-3138.849313271376
 30
0.0
 11
-1435.597741501333
 21
-3146.049313271376
 31
0.0
  0
LINE
  5
476
330
1F
100
AcDbEntity
  8
0-7_金物
  6
Continuous
 62
     7
370
     9
100
AcDbLine
 10
-1514.797741501335
 20
-3138.849313271376
 30
0.0
 11
-1514.797741501335
 21
-3146.049313271376
 31
0.0
  0
LINE
  5
477
330
1F
100
AcDbEntity
  8
0-7_金物
  6
Continuous
 62
     7
370
     9
100
AcDbLine
 10
-1676.197741501335
 20
-3168.849313271376
 30
0.0
 11
-1679.455141501334
 21
-3168.849313271376
 31
0.0
  0
LINE
  5
478
330
1F
100
AcDbEntity
  8
0-7_金物
  6
Continuous
 62
     7
370
     9
100
AcDbLine
 10
-1676.197741501335
 20
-3174.849313271376
 30
0.0
 11
-1676.197741501335
 21
-3168.849313271376
 31
0.0
  0
LINE
  5
479
330
1F
100
AcDbEntity
  8
0-7_金物
  6
Continuous
 62
     7
370
     9
100
AcDbLine
 10
-1712.797741501334
 20
-3194.048713271375
 30
0.0
 11
-1712.797741501334
 21
-3179.049313271375
 31
0.0
  0
LINE
  5
47A
330
1F
100
AcDbEntity
  8
0-7_金物
  6
Continuous
 62
     7
370
     9
100
AcDbLine
 10
-1693.597741501334
 20
-3194.048713271375
 30
0.0
 11
-1693.597741501334
 21
-3179.049313271375
 31
0.0
  0
LINE
  5
47B
330
1F
100
AcDbEntity
  8
0-7_金物
  6
Continuous
 62
     7
370
     9
100
AcDbLine
 10
-1716.997741501336
 20
-3204.848713271375
 30
0.0
 11
-1689.397741501334
 21
-3204.848713271375
 31
0.0
  0
LINE
  5
47C
330
1F
100
AcDbEntity
  8
0-7_金物
  6
Continuous
 62
     7
370
     9
100
AcDbLine
 10
-1703.197741501335
 20
-3197.648713271377
 30
0.0
 11
-1704.997741501334
 21
-3195.848713271375
 31
0.0
  0
LINE
  5
47D
330
1F
100
AcDbEntity
  8
0-7_金物
  6
Continuous
 62
     7
370
     9
100
AcDbLine
 10
-1680.397741501335
 20
-3204.848713271375
 30
0.0
 11
-1677.482341501336
 21
-3197.490913271374
 31
0.0
  0
LINE
  5
47E
330
1F
100
AcDbEntity
  8
0-7_金物
  6
Continuous
 62
     7
370
     9
100
AcDbLine
 10
-1686.997741501336
 20
-3204.848713271375
 30
0.0
 11
-1680.397741501335
 21
-3204.848713271375
 31
0.0
  0
LINE
  5
47F
330
1F
100
AcDbEntity
  8
0-7_金物
  6
Continuous
 62
     7
370
     9
100
AcDbLine
 10
-1688.197741501335
 20
-3203.648713271376
 30
0.0
 11
-1689.397741501334
 21
-3204.848713271375
 31
0.0
  0
LINE
  5
480
330
1F
100
AcDbEntity
  8
0-7_金物
  6
Continuous
 62
     7
370
     9
100
AcDbLine
 10
-1686.997741501336
 20
-3204.848713271375
 30
0.0
 11
-1688.197741501335
 21
-3203.648713271376
 31
0.0
  0
LINE
  5
481
330
1F
100
AcDbEntity
  8
0-7_金物
  6
Continuous
 62
     7
370
     9
100
AcDbLine
 10
-1682.197741501334
 20
-3195.848713271375
 30
0.0
 11
-1682.197741501334
 21
-3188.265313271376
 31
0.0
  0
LINE
  5
482
330
1F
100
AcDbEntity
  8
0-7_金物
  6
Continuous
 62
     7
370
     9
100
AcDbLine
 10
-1682.197741501334
 20
-3195.848713271375
 30
0.0
 11
-1678.597741501334
 21
-3195.848713271375
 31
0.0
  0
LINE
  5
483
330
1F
100
AcDbEntity
  8
0-7_金物
  6
Continuous
 62
     7
370
     9
100
AcDbLine
 10
-1695.397741501335
 20
-3195.848713271375
 30
0.0
 11
-1701.397741501334
 21
-3195.848713271375
 31
0.0
  0
LINE
  5
484
330
1F
100
AcDbEntity
  8
0-7_金物
  6
Continuous
 62
     7
370
     9
100
AcDbLine
 10
-1701.397741501334
 20
-3195.848713271375
 30
0.0
 11
-1703.197741501335
 21
-3197.648713271377
 31
0.0
  0
LINE
  5
485
330
1F
100
AcDbEntity
  8
0-7_金物
  6
Continuous
 62
     7
370
     9
100
AcDbLine
 10
-1725.997741501335
 20
-3204.848713271375
 30
0.0
 11
-1728.913141501334
 21
-3197.490913271374
 31
0.0
  0
LINE
  5
486
330
1F
100
AcDbEntity
  8
0-7_金物
  6
Continuous
 62
     7
370
     9
100
AcDbLine
 10
-1718.197741501335
 20
-3203.648713271376
 30
0.0
 11
-1716.997741501336
 21
-3204.848713271375
 31
0.0
  0
LINE
  5
487
330
1F
100
AcDbEntity
  8
0-7_金物
  6
Continuous
 62
     7
370
     9
100
AcDbLine
 10
-1719.397741501334
 20
-3204.848713271375
 30
0.0
 11
-1725.997741501335
 21
-3204.848713271375
 31
0.0
  0
LINE
  5
488
330
1F
100
AcDbEntity
  8
0-7_金物
  6
Continuous
 62
     7
370
     9
100
AcDbLine
 10
-1719.397741501334
 20
-3204.848713271375
 30
0.0
 11
-1718.197741501335
 21
-3203.648713271376
 31
0.0
  0
LINE
  5
489
330
1F
100
AcDbEntity
  8
0-7_金物
  6
Continuous
 62
     7
370
     9
100
AcDbLine
 10
-1704.997741501334
 20
-3195.848713271375
 30
0.0
 11
-1710.997741501335
 21
-3195.848713271375
 31
0.0
  0
LINE
  5
48A
330
1F
100
AcDbEntity
  8
0-7_金物
  6
Continuous
 62
     7
370
     9
100
AcDbLine
 10
-1724.197741501336
 20
-3195.848713271375
 30
0.0
 11
-1724.197741501336
 21
-3188.265313271376
 31
0.0
  0
LINE
  5
48B
330
1F
100
AcDbEntity
  8
0-7_金物
  6
Continuous
 62
     7
370
     9
100
AcDbLine
 10
-1724.197741501336
 20
-3195.848713271375
 30
0.0
 11
-1727.797741501334
 21
-3195.848713271375
 31
0.0
  0
LINE
  5
48C
330
1F
100
AcDbEntity
  8
0-7_金物
  6
Continuous
 62
     7
370
     9
100
AcDbLine
 10
-1689.170341501335
 20
-3177.321913271376
 30
0.0
 11
-1681.576741501336
 21
-3169.727713271375
 31
0.0
  0
LINE
  5
48D
330
1F
100
AcDbEntity
  8
0-7_金物
  6
Continuous
 62
     7
370
     9
100
AcDbLine
 10
-1690.443541501334
 20
-3177.849313271374
 30
0.0
 11
-1692.397741501334
 21
-3177.849313271374
 31
0.0
  0
LINE
  5
48E
330
1F
100
AcDbEntity
  8
0-7_金物
  6
Continuous
 62
     7
370
     9
100
AcDbLine
 10
-1717.224541501336
 20
-3177.321913271376
 30
0.0
 11
-1724.818741501334
 21
-3169.727713271375
 31
0.0
  0
LINE
  5
48F
330
1F
100
AcDbEntity
  8
0-7_金物
  6
Continuous
 62
     7
370
     9
100
AcDbLine
 10
-1715.951941501334
 20
-3177.849313271374
 30
0.0
 11
-1713.997741501335
 21
-3177.849313271374
 31
0.0
  0
LINE
  5
490
330
1F
100
AcDbEntity
  8
0-7_金物
  6
Continuous
 62
     7
370
     9
100
AcDbLine
 10
-1730.197741501334
 20
-3174.849313271376
 30
0.0
 11
-1730.197741501334
 21
-3168.849313271376
 31
0.0
  0
LINE
  5
491
330
1F
100
AcDbEntity
  8
0-7_金物
  6
Continuous
 62
     7
370
     9
100
AcDbLine
 10
-1730.197741501334
 20
-3168.849313271376
 30
0.0
 11
-1726.940341501335
 21
-3168.849313271376
 31
0.0
  0
ARC
  5
492
330
1F
100
AcDbEntity
  8
0-7_金物
  6
Continuous
 62
     7
370
     9
100
AcDbCircle
 10
-1664.197741501336
 20
-3188.265313271376
 30
0.0
 40
18.00000000000051
100
AcDbArc
 50
131.81
 51
180.0
  0
ARC
  5
493
330
1F
100
AcDbEntity
  8
0-7_金物
  6
Continuous
 62
     7
370
     9
100
AcDbCircle
 10
-1742.197141501335
 20
-3188.265313271376
 30
0.0
 40
18.00000000000051
100
AcDbArc
 50
0.0
 51
48.18999999999998
  0
ARC
  5
494
330
1F
100
AcDbEntity
  8
0-7_金物
  6
Continuous
 62
     7
370
     9
100
AcDbCircle
 10
-1678.597741501334
 20
-3197.048713271375
 30
0.0
 40
1.200000000000034
100
AcDbArc
 50
338.384
 51
89.99999999999997
  0
ARC
  5
495
330
1F
100
AcDbEntity
  8
0-7_金物
  6
Continuous
 62
     7
370
     9
100
AcDbCircle
 10
-1695.397741501335
 20
-3194.048713271375
 30
0.0
 40
1.800000000000052
100
AcDbArc
 50
269.9999999999999
 51
359.9999999999999
  0
ARC
  5
496
330
1F
100
AcDbEntity
  8
0-7_金物
  6
Continuous
 62
     7
370
     9
100
AcDbCircle
 10
-1710.997741501335
 20
-3194.048713271375
 30
0.0
 40
1.800000000000052
100
AcDbArc
 50
179.9999999999999
 51
269.9999999999999
  0
ARC
  5
497
330
1F
100
AcDbEntity
  8
0-7_金物
  6
Continuous
 62
     7
370
     9
100
AcDbCircle
 10
-1727.797741501334
 20
-3197.048713271375
 30
0.0
 40
1.200000000000034
100
AcDbArc
 50
89.99999999999987
 51
201.6159999999999
  0
ARC
  5
498
330
1F
100
AcDbEntity
  8
0-7_金物
  6
Continuous
 62
     7
370
     9
100
AcDbCircle
 10
-1690.443541501334
 20
-3176.049313271376
 30
0.0
 40
1.800000000000052
100
AcDbArc
 50
270.0
 51
315.0
  0
ARC
  5
499
330
1F
100
AcDbEntity
  8
0-7_金物
  6
Continuous
 62
     7
370
     9
100
AcDbCircle
 10
-1679.455141501334
 20
-3171.849313271375
 30
0.0
 40
3.000000000000086
100
AcDbArc
 50
89.99999999999996
 51
135.0
  0
ARC
  5
49A
330
1F
100
AcDbEntity
  8
0-7_金物
  6
Continuous
 62
     7
370
     9
100
AcDbCircle
 10
-1692.397741501334
 20
-3179.049313271375
 30
0.0
 40
1.200000000000034
100
AcDbArc
 50
89.99999999999997
 51
180.0
  0
ARC
  5
49B
330
1F
100
AcDbEntity
  8
0-7_金物
  6
Continuous
 62
     7
370
     9
100
AcDbCircle
 10
-1713.997741501335
 20
-3179.049313271375
 30
0.0
 40
1.200000000000034
100
AcDbArc
 50
359.9999999999999
 51
89.99999999999997
  0
ARC
  5
49C
330
1F
100
AcDbEntity
  8
0-7_金物
  6
Continuous
 62
     7
370
     9
100
AcDbCircle
 10
-1715.951941501334
 20
-3176.049313271376
 30
0.0
 40
1.800000000000052
100
AcDbArc
 50
224.9999999999999
 51
269.9999999999999
  0
ARC
  5
49D
330
1F
100
AcDbEntity
  8
0-7_金物
  6
Continuous
 62
     7
370
     9
100
AcDbCircle
 10
-1726.940341501335
 20
-3171.849313271375
 30
0.0
 40
3.000000000000086
100
AcDbArc
 50
44.99999999999995
 51
89.99999999999996
  0
LINE
  5
49E
330
1F
100
AcDbEntity
  8
0-7_金物
  6
Continuous
 62
     7
370
     9
100
AcDbLine
 10
-1655.197741501334
 20
-3138.849313271376
 30
0.0
 11
-1655.197741501334
 21
-2898.849313271376
 31
0.0
  0
LINE
  5
49F
330
1F
100
AcDbEntity
  8
0-7_金物
  6
Continuous
 62
     7
370
     9
100
AcDbLine
 10
-1751.197741501335
 20
-3138.849313271376
 30
0.0
 11
-1655.197741501334
 21
-3138.849313271376
 31
0.0
  0
LINE
  5
4A0
330
1F
100
AcDbEntity
  8
0-7_金物
  6
Continuous
 62
     7
370
     9
100
AcDbLine
 10
-1751.197741501335
 20
-2898.849313271376
 30
0.0
 11
-1751.197741501335
 21
-3138.849313271376
 31
0.0
  0
ARC
  5
4A1
330
1F
100
AcDbEntity
  8
0-7_金物
  6
Continuous
 62
     7
370
     9
100
AcDbCircle
 10
-1703.197741501335
 20
-2898.849313271376
 30
0.0
 40
47.99999999999999
100
AcDbArc
 50
0.0000000000000064
 51
180.0
  0
ARC
  5
4A2
330
1F
100
AcDbEntity
  8
0-7_金物
  6
Continuous
 62
     7
370
     9
100
AcDbCircle
 10
-1703.197741501335
 20
-2892.849313271377
 30
0.0
 40
24.9
100
AcDbArc
 50
91.36450306982846
 51
208.6354969301637
  0
ARC
  5
4A3
330
1F
100
AcDbEntity
  8
0-7_金物
  6
Continuous
 62
     7
370
     9
100
AcDbCircle
 10
-1703.197741501335
 20
-2892.849313271377
 30
0.0
 40
24.9
100
AcDbArc
 50
211.3645030698352
 51
328.6354969301648
  0
ARC
  5
4A4
330
1F
100
AcDbEntity
  8
0-7_金物
  6
Continuous
 62
     7
370
     9
100
AcDbCircle
 10
-1703.197741501335
 20
-2892.849313271377
 30
0.0
 40
24.9
100
AcDbArc
 50
331.3645030698363
 51
88.63549693017154
  0
CIRCLE
  5
4A5
330
1F
100
AcDbEntity
  8
0-7_金物
  6
Continuous
 62
     7
370
     9
100
AcDbCircle
 10
-1703.197741501335
 20
-3066.849313271377
 30
0.0
 40
21.00000000000001
  0
LINE
  5
4A6
330
1F
100
AcDbEntity
  8
0-7_金物
  6
Continuous
 62
     7
370
     9
100
AcDbLine
 10
-1703.790680722725
 20
-2867.956374049986
 30
0.0
 11
-1703.197741501335
 21
-2868.549313271375
 31
0.0
  0
LINE
  5
4A7
330
1F
100
AcDbEntity
  8
0-7_金物
  6
Continuous
 62
     7
370
     9
100
AcDbLine
 10
-1702.604802279945
 20
-2867.956374049986
 30
0.0
 11
-1703.197741501335
 21
-2868.549313271375
 31
0.0
  0
LINE
  5
4A8
330
1F
100
AcDbEntity
  8
0-7_金物
  6
Continuous
 62
     7
370
     9
100
AcDbLine
 10
-1724.459189631224
 20
-2905.809283310694
 30
0.0
 11
-1724.242158813295
 21
-2904.999313271373
 31
0.0
  0
LINE
  5
4A9
330
1F
100
AcDbEntity
  8
0-7_金物
  6
Continuous
 62
     7
370
     9
100
AcDbLine
 10
-1725.052128852614
 20
-2904.782282453446
 30
0.0
 11
-1724.242158813295
 21
-2904.999313271373
 31
0.0
  0
LINE
  5
4AA
330
1F
100
AcDbEntity
  8
0-7_金物
  6
Continuous
 62
     7
370
     9
100
AcDbLine
 10
-1681.343354150055
 20
-2904.782282453446
 30
0.0
 11
-1682.153324189374
 21
-2904.999313271373
 31
0.0
  0
LINE
  5
4AB
330
1F
100
AcDbEntity
  8
0-7_金物
  6
Continuous
 62
     7
370
     9
100
AcDbLine
 10
-1681.936293371446
 20
-2905.809283310696
 30
0.0
 11
-1682.153324189374
 21
-2904.999313271373
 31
0.0
  0
CIRCLE
  5
4AC
330
1F
100
AcDbEntity
  8
0-7_金物
  6
Continuous
 62
     7
370
     9
100
AcDbCircle
 10
-1703.197741501335
 20
-2964.849313271376
 30
0.0
 40
32.09999999999997
  0
LINE
  5
4AD
330
1F
100
AcDbEntity
  8
0-7_金物
  6
Continuous
 62
     7
370
     9
100
AcDbLine
 10
-1706.197741501335
 20
-3052.449313271376
 30
0.0
 11
-1706.197741501335
 21
-3056.049313271376
 31
0.0
  0
LINE
  5
4AE
330
1F
100
AcDbEntity
  8
0-7_金物
  6
Continuous
 62
     7
370
     9
100
AcDbLine
 10
-1706.197741501326
 20
-3081.249313271377
 30
0.0
 11
-1700.197741501341
 21
-3081.249313271377
 31
0.0
  0
LINE
  5
4AF
330
1F
100
AcDbEntity
  8
0-7_金物
  6
Continuous
 62
     7
370
     9
100
AcDbLine
 10
-1713.997741501335
 20
-3063.849313271376
 30
0.0
 11
-1717.597741501335
 21
-3063.849313271376
 31
0.0
  0
ARC
  5
4B0
330
1F
100
AcDbEntity
  8
0-7_金物
  6
Continuous
 62
     7
370
     9
100
AcDbCircle
 10
-1713.997741501335
 20
-3056.049313271376
 30
0.0
 40
7.800000000000001
100
AcDbArc
 50
270.0
 51
0.0
  0
LINE
  5
4B1
330
1F
100
AcDbEntity
  8
0-7_金物
  6
Continuous
 62
     7
370
     9
100
AcDbLine
 10
-1700.197741501334
 20
-3052.449313271376
 30
0.0
 11
-1706.197741501335
 21
-3052.449313271376
 31
0.0
  0
LINE
  5
4B2
330
1F
100
AcDbEntity
  8
0-7_金物
  6
Continuous
 62
     7
370
     9
100
AcDbLine
 10
-1717.597741501335
 20
-3063.849313271376
 30
0.0
 11
-1717.597741501335
 21
-3069.84931327139
 31
0.0
  0
LINE
  5
4B3
330
1F
100
AcDbEntity
  8
0-7_金物
  6
Continuous
 62
     7
370
     9
100
AcDbLine
 10
-1717.597741501329
 20
-3069.84931327139
 30
0.0
 11
-1713.997741501328
 21
-3069.84931327139
 31
0.0
  0
LINE
  5
4B4
330
1F
100
AcDbEntity
  8
0-7_金物
  6
Continuous
 62
     7
370
     9
100
AcDbLine
 10
-1706.197741501326
 20
-3077.649313271389
 30
0.0
 11
-1706.197741501326
 21
-3081.249313271387
 31
0.0
  0
ARC
  5
4B5
330
1F
100
AcDbEntity
  8
0-7_金物
  6
Continuous
 62
     7
370
     9
100
AcDbCircle
 10
-1713.997741501326
 20
-3077.649313271389
 30
0.0
 40
7.800000000000001
100
AcDbArc
 50
0.0000000000065265
 51
90.00000000000651
  0
LINE
  5
4B6
330
1F
100
AcDbEntity
  8
0-7_金物
  6
Continuous
 62
     7
370
     9
100
AcDbLine
 10
-1700.197741501334
 20
-3052.449313271376
 30
0.0
 11
-1700.197741501334
 21
-3056.049313271376
 31
0.0
  0
LINE
  5
4B7
330
1F
100
AcDbEntity
  8
0-7_金物
  6
Continuous
 62
     7
370
     9
100
AcDbLine
 10
-1692.397741501334
 20
-3063.849313271376
 30
0.0
 11
-1688.797741501334
 21
-3063.849313271376
 31
0.0
  0
ARC
  5
4B8
330
1F
100
AcDbEntity
  8
0-7_金物
  6
Continuous
 62
     7
370
     9
100
AcDbCircle
 10
-1692.397741501334
 20
-3056.049313271376
 30
0.0
 40
7.800000000000001
100
AcDbArc
 50
180.0
 51
270.0
  0
LINE
  5
4B9
330
1F
100
AcDbEntity
  8
0-7_金物
  6
Continuous
 62
     7
370
     9
100
AcDbLine
 10
-1688.797741501334
 20
-3063.849313271376
 30
0.0
 11
-1688.797741501334
 21
-3069.84931327139
 31
0.0
  0
LINE
  5
4BA
330
1F
100
AcDbEntity
  8
0-7_金物
  6
Continuous
 62
     7
370
     9
100
AcDbLine
 10
-1700.197741501341
 20
-3077.649313271389
 30
0.0
 11
-1700.197741501341
 21
-3081.249313271387
 31
0.0
  0
LINE
  5
4BB
330
1F
100
AcDbEntity
  8
0-7_金物
  6
Continuous
 62
     7
370
     9
100
AcDbLine
 10
-1688.797741501341
 20
-3069.84931327139
 30
0.0
 11
-1692.397741501341
 21
-3069.84931327139
 31
0.0
  0
ARC
  5
4BC
330
1F
100
AcDbEntity
  8
0-7_金物
  6
Continuous
 62
     7
370
     9
100
AcDbCircle
 10
-1692.397741501341
 20
-3077.649313271389
 30
0.0
 40
7.800000000000001
100
AcDbArc
 50
89.99999999999352
 51
179.9999999999935
  0
LINE
  5
4BD
330
1F
100
AcDbEntity
  8
0-7_金物
  6
Continuous
 62
     7
370
     9
100
AcDbLine
 10
-1682.197741501334
 20
-3165.376389523717
 30
0.0
 11
-1682.197741501334
 21
-3138.849313271376
 31
0.0
  0
LINE
  5
4BE
330
1F
100
AcDbEntity
  8
0-7_金物
  6
Continuous
 62
     7
370
     9
100
AcDbLine
 10
-1712.197741501334
 20
-3138.849313271376
 30
0.0
 11
-1712.197741501334
 21
-3184.576389523719
 31
0.0
  0
LINE
  5
4BF
330
1F
100
AcDbEntity
  8
0-7_金物
  6
Continuous
 62
     7
370
     9
100
AcDbLine
 10
-1694.197741501336
 20
-3138.849313271376
 30
0.0
 11
-1694.197741501336
 21
-3184.576389523719
 31
0.0
  0
LINE
  5
4C0
330
1F
100
AcDbEntity
  8
0-7_金物
  6
Continuous
 62
     7
370
     9
100
AcDbLine
 10
-1724.197741501336
 20
-3165.376389523717
 30
0.0
 11
-1724.197741501336
 21
-3138.849313271376
 31
0.0
  0
ARC
  5
4C1
330
1F
100
AcDbEntity
  8
0-7_金物
  6
Continuous
 62
     7
370
     9
100
AcDbCircle
 10
-1692.997741501334
 20
-3178.521729523719
 30
0.0
 40
1.2
100
AcDbArc
 50
95.21590900000078
 51
180.0
  0
ARC
  5
4C2
330
1F
100
AcDbEntity
  8
0-7_金物
  6
Continuous
 62
     7
370
     9
100
AcDbCircle
 10
-1695.997741501335
 20
-3184.576389523719
 30
0.0
 40
1.8
100
AcDbArc
 50
270.0
 51
0.0
  0
ARC
  5
4C3
330
1F
100
AcDbEntity
  8
0-7_金物
  6
Continuous
 62
     7
370
     9
100
AcDbCircle
 10
-1713.397741501336
 20
-3178.521729523719
 30
0.0
 40
1.2
100
AcDbArc
 50
0.0000000000000127
 51
84.7840909999992
  0
ARC
  5
4C4
330
1F
100
AcDbEntity
  8
0-7_金物
  6
Continuous
 62
     7
370
     9
100
AcDbCircle
 10
-1710.397741501335
 20
-3184.576389523719
 30
0.0
 40
1.8
100
AcDbArc
 50
180.0
 51
270.0
  0
ARC
  5
4C5
330
1F
100
AcDbEntity
  8
0-7_金物
  6
Continuous
 62
     7
370
     9
100
AcDbCircle
 10
-1694.197741501336
 20
-3165.376389523717
 30
0.0
 40
12.0
100
AcDbArc
 50
275.2159090000008
 51
0.0000000000000254
  0
ARC
  5
4C6
330
1F
100
AcDbEntity
  8
0-7_金物
  6
Continuous
 62
     7
370
     9
100
AcDbCircle
 10
-1712.197741501334
 20
-3165.376389523717
 30
0.0
 40
12.0
100
AcDbArc
 50
180.0
 51
264.7840909999994
  0
LINE
  5
4C7
330
1F
100
AcDbEntity
  8
0-7_金物
  6
Continuous
 62
     7
370
     9
100
AcDbLine
 10
-1710.397741501335
 20
-3186.376389523718
 30
0.0
 11
-1695.997741501335
 21
-3186.376389523718
 31
0.0
  0
ARC
  5
4C8
330
1F
100
AcDbEntity
  8
0-7_金物
  6
Continuous
 62
     7
370
     9
100
AcDbCircle
 10
-1716.397741501333
 20
-2978.049313271377
 30
0.0
 40
10.2
100
AcDbArc
 50
0.0000000000000127
 51
90.00000000000001
  0
ARC
  5
4C9
330
1F
100
AcDbEntity
  8
0-7_金物
  6
Continuous
 62
     7
370
     9
100
AcDbCircle
 10
-1689.997741501334
 20
-2978.049313271377
 30
0.0
 40
10.2
100
AcDbArc
 50
90.0
 51
180.0
  0
ARC
  5
4CA
330
1F
100
AcDbEntity
  8
0-7_金物
  6
Continuous
 62
     7
370
     9
100
AcDbCircle
 10
-1716.397741501333
 20
-2951.649313271375
 30
0.0
 40
10.2
100
AcDbArc
 50
270.0
 51
0.0
  0
LINE
  5
4CB
330
1F
100
AcDbEntity
  8
0-7_金物
  6
Continuous
 62
     7
370
     9
100
AcDbLine
 10
-1722.097741501334
 20
-2961.849313271377
 30
0.0
 11
-1716.397741501333
 21
-2961.849313271377
 31
0.0
  0
LINE
  5
4CC
330
1F
100
AcDbEntity
  8
0-7_金物
  6
Continuous
 62
     7
370
     9
100
AcDbLine
 10
-1722.097741501334
 20
-2967.849313271377
 30
0.0
 11
-1722.097741501334
 21
-2961.849313271377
 31
0.0
  0
LINE
  5
4CD
330
1F
100
AcDbEntity
  8
0-7_金物
  6
Continuous
 62
     7
370
     9
100
AcDbLine
 10
-1716.397741501333
 20
-2967.849313271377
 30
0.0
 11
-1722.097741501334
 21
-2967.849313271377
 31
0.0
  0
LINE
  5
4CE
330
1F
100
AcDbEntity
  8
0-7_金物
  6
Continuous
 62
     7
370
     9
100
AcDbLine
 10
-1706.197741501335
 20
-2951.649313271375
 30
0.0
 11
-1706.197741501335
 21
-2945.949313271377
 31
0.0
  0
LINE
  5
4CF
330
1F
100
AcDbEntity
  8
0-7_金物
  6
Continuous
 62
     7
370
     9
100
AcDbLine
 10
-1700.197741501334
 20
-2945.949313271377
 30
0.0
 11
-1700.197741501334
 21
-2951.649313271375
 31
0.0
  0
LINE
  5
4D0
330
1F
100
AcDbEntity
  8
0-7_金物
  6
Continuous
 62
     7
370
     9
100
AcDbLine
 10
-1706.197741501335
 20
-2945.949313271377
 30
0.0
 11
-1700.197741501334
 21
-2945.949313271377
 31
0.0
  0
LINE
  5
4D1
330
1F
100
AcDbEntity
  8
0-7_金物
  6
Continuous
 62
     7
370
     9
100
AcDbLine
 10
-1684.297741501335
 20
-2967.849313271377
 30
0.0
 11
-1689.997741501334
 21
-2967.849313271377
 31
0.0
  0
LINE
  5
4D2
330
1F
100
AcDbEntity
  8
0-7_金物
  6
Continuous
 62
     7
370
     9
100
AcDbLine
 10
-1689.997741501334
 20
-2961.849313271377
 30
0.0
 11
-1684.297741501335
 21
-2961.849313271377
 31
0.0
  0
ARC
  5
4D3
330
1F
100
AcDbEntity
  8
0-7_金物
  6
Continuous
 62
     7
370
     9
100
AcDbCircle
 10
-1689.997741501334
 20
-2951.649313271375
 30
0.0
 40
10.2
100
AcDbArc
 50
180.0
 51
270.0
  0
LINE
  5
4D4
330
1F
100
AcDbEntity
  8
0-7_金物
  6
Continuous
 62
     7
370
     9
100
AcDbLine
 10
-1684.297741501335
 20
-2961.849313271377
 30
0.0
 11
-1684.297741501335
 21
-2967.849313271377
 31
0.0
  0
LINE
  5
4D5
330
1F
100
AcDbEntity
  8
0-7_金物
  6
Continuous
 62
     7
370
     9
100
AcDbLine
 10
-1706.197741501335
 20
-2983.749313271377
 30
0.0
 11
-1706.197741501335
 21
-2978.049313271377
 31
0.0
  0
LINE
  5
4D6
330
1F
100
AcDbEntity
  8
0-7_金物
  6
Continuous
 62
     7
370
     9
100
AcDbLine
 10
-1700.197741501334
 20
-2978.049313271377
 30
0.0
 11
-1700.197741501334
 21
-2983.749313271377
 31
0.0
  0
LINE
  5
4D7
330
1F
100
AcDbEntity
  8
0-7_金物
  6
Continuous
 62
     7
370
     9
100
AcDbLine
 10
-1700.197741501334
 20
-2983.749313271377
 30
0.0
 11
-1706.197741501335
 21
-2983.749313271377
 31
0.0
  0
LINE
  5
4D8
330
1F
100
AcDbEntity
  8
0-7_金物
  6
Continuous
 62
     7
370
     9
100
AcDbLine
 10
-1663.597741501333
 20
-3146.049313271376
 30
0.0
 11
-1682.392212512418
 21
-3146.049313271376
 31
0.0
  0
LINE
  5
4D9
330
1F
100
AcDbEntity
  8
0-7_金物
  6
Continuous
 62
     7
370
     9
100
AcDbLine
 10
-1724.003270490252
 20
-3146.049313271376
 30
0.0
 11
-1742.797741501334
 21
-3146.049313271376
 31
0.0
  0
LINE
  5
4DA
330
1F
100
AcDbEntity
  8
0-7_金物
  6
Continuous
 62
     7
370
     9
100
AcDbLine
 10
-1663.597741501333
 20
-3138.849313271376
 30
0.0
 11
-1663.597741501333
 21
-3146.049313271376
 31
0.0
  0
LINE
  5
4DB
330
1F
100
AcDbEntity
  8
0-7_金物
  6
Continuous
 62
     7
370
     9
100
AcDbLine
 10
-1742.797741501334
 20
-3138.849313271376
 30
0.0
 11
-1742.797741501334
 21
-3146.049313271376
 31
0.0
  0
LINE
  5
4DC
330
1F
100
AcDbEntity
  8
0-6_扉
  6
Continuous
 62
   200
370
    20
100
AcDbLine
 10
-1613.197741501332
 20
-3138.849313271376
 30
0.0
 11
-1793.197741501332
 21
-3138.849313271376
 31
0.0
  0
LINE
  5
4DD
330
1F
100
AcDbEntity
  8
0-6_扉
  6
Continuous
 62
   200
370
    20
100
AcDbLine
 10
-1565.197741501335
 20
-3138.849313271376
 30
0.0
 11
-1385.197741501335
 21
-3138.849313271376
 31
0.0
  0
LINE
  5
4DE
330
1F
100
AcDbEntity
  8
0-4_枠
  6
Continuous
 62
    92
370
    13
100
AcDbLine
 10
-1928.197741501341
 20
-3173.091050690061
 30
0.0
 11
-1928.197741501341
 21
-3258.848713271374
 31
0.0
  0
LINE
  5
4DF
330
1F
100
AcDbEntity
  8
0-4_枠
  6
Continuous
 62
    92
370
    13
100
AcDbLine
 10
-1925.197741501342
 20
-3258.84891926503
 30
0.0
 11
-1925.197741501342
 21
-3171.848123900646
 31
0.0
  0
LINE
  5
4E0
330
1F
100
AcDbEntity
  8
0-4_枠
  6
Continuous
 62
    92
370
    13
100
AcDbLine
 10
-1923.955100814222
 20
-3168.848410002943
 30
0.0
 11
-1928.197741501341
 21
-3173.091050690061
 31
0.0
  0
LINE
  5
4E1
330
1F
100
AcDbEntity
  8
0-4_枠
  6
Continuous
 62
    92
370
    13
100
AcDbLine
 10
-1250.197741501341
 20
-3173.091050690061
 30
0.0
 11
-1254.440382188459
 21
-3168.848410002943
 31
0.0
  0
LINE
  5
4E2
330
1F
100
AcDbEntity
  8
0-4_枠
  6
Continuous
 62
    92
370
    13
100
AcDbLine
 10
-1253.197741501341
 20
-3258.84891926503
 30
0.0
 11
-1253.197741501341
 21
-3171.848123900646
 31
0.0
  0
LINE
  5
4E3
330
1F
100
AcDbEntity
  8
0-4_枠
  6
Continuous
 62
    92
370
    13
100
AcDbLine
 10
-1250.197741501341
 20
-3173.091050690061
 30
0.0
 11
-1250.197741501341
 21
-3258.848713271374
 31
0.0
  0
LINE
  5
4E4
330
1F
100
AcDbEntity
  8
0-4_枠
  6
Continuous
 62
    92
370
    13
100
AcDbLine
 10
-1250.197741501341
 20
-3258.848713271374
 30
0.0
 11
-1928.197741501341
 21
-3258.848713271374
 31
0.0
  0
LINE
  5
4E5
330
1F
100
AcDbEntity
  8
0-4_枠
  6
Continuous
 62
    92
370
    13
100
AcDbLine
 10
-1501.597741501341
 20
-3168.848410002943
 30
0.0
 11
-1501.597741501341
 21
-3204.848410002944
 31
0.0
  0
LINE
  5
4E6
330
1F
100
AcDbEntity
  8
0-4_枠
  6
Continuous
 62
    92
370
    13
100
AcDbLine
 10
-1254.440382188459
 20
-3168.848410002943
 30
0.0
 11
-1448.797741501341
 21
-3168.848410002943
 31
0.0
  0
LINE
  5
4E7
330
1F
100
AcDbEntity
  8
0-4_枠
  6
Continuous
 62
    92
370
    13
100
AcDbLine
 10
-1253.197741501341
 20
-3171.848123900646
 30
0.0
 11
-1448.797741501341
 21
-3171.848123900646
 31
0.0
  0
LINE
  5
4E8
330
1F
100
AcDbEntity
  8
0-4_枠
  6
Continuous
 62
    92
370
    13
100
AcDbLine
 10
-1501.597741501341
 20
-3204.848410002944
 30
0.0
 11
-1448.797741501341
 21
-3204.848410002944
 31
0.0
  0
LINE
  5
4E9
330
1F
100
AcDbEntity
  8
0-4_枠
  6
Continuous
 62
    92
370
    13
100
AcDbLine
 10
-1448.797741501341
 20
-3168.848410002943
 30
0.0
 11
-1448.797741501341
 21
-3204.848410002944
 31
0.0
  0
LINE
  5
4EA
330
1F
100
AcDbEntity
  8
0-4_枠
  6
Continuous
 62
    92
370
    13
100
AcDbLine
 10
-1925.197741501342
 20
-3171.848123900646
 30
0.0
 11
-1729.597741501341
 21
-3171.848123900646
 31
0.0
  0
LINE
  5
4EB
330
1F
100
AcDbEntity
  8
0-4_枠
  6
Continuous
 62
    92
370
    13
100
AcDbLine
 10
-1923.955100814222
 20
-3168.848410002943
 30
0.0
 11
-1729.597741501341
 21
-3168.848410002943
 31
0.0
  0
LINE
  5
4EC
330
1F
100
AcDbEntity
  8
0-4_枠
  6
Continuous
 62
    92
370
    13
100
AcDbLine
 10
-1729.597741501341
 20
-3168.848410002943
 30
0.0
 11
-1729.597741501341
 21
-3204.848410002944
 31
0.0
  0
LINE
  5
4ED
330
1F
100
AcDbEntity
  8
0-4_枠
  6
Continuous
 62
    92
370
    13
100
AcDbLine
 10
-1501.597741501341
 20
-3168.848410002943
 30
0.0
 11
-1676.797741501341
 21
-3168.848410002943
 31
0.0
  0
LINE
  5
4EE
330
1F
100
AcDbEntity
  8
0-4_枠
  6
Continuous
 62
    92
370
    13
100
AcDbLine
 10
-1501.597741501341
 20
-3171.848123900646
 30
0.0
 11
-1676.797741501341
 21
-3171.848123900646
 31
0.0
  0
LINE
  5
4EF
330
1F
100
AcDbEntity
  8
0-4_枠
  6
Continuous
 62
    92
370
    13
100
AcDbLine
 10
-1729.597741501341
 20
-3204.848410002944
 30
0.0
 11
-1676.797741501341
 21
-3204.848410002944
 31
0.0
  0
LINE
  5
4F0
330
1F
100
AcDbEntity
  8
0-4_枠
  6
Continuous
 62
    92
370
    13
100
AcDbLine
 10
-1676.797741501341
 20
-3168.848410002943
 30
0.0
 11
-1676.797741501341
 21
-3204.848410002944
 31
0.0
  0
LINE
  5
4F1
330
1F
100
AcDbEntity
  8
0-B_寸法
  6
Continuous
 62
   120
370
     5
100
AcDbLine
 10
-1250.197741501342
 20
-3498.848713271374
 30
0.0
 11
-1928.197741501342
 21
-3498.848713271374
 31
0.0
  0
LWPOLYLINE
  5
4F2
330
1F
100
AcDbEntity
  8
0-B_寸法
  6
Continuous
 62
     7
370
     9
100
AcDbPolyline
 90
        4
 70
     1
 43
3.0
 10
-1248.697741501342
 20
-3498.848713271374
 42
0.4142135623731
 10
-1250.197741501342
 20
-3497.348713271374
 42
0.4142135623731
 10
-1251.697741501342
 20
-3498.848713271374
 42
0.4142135623731
 10
-1250.197741501342
 20
-3500.348713271374
 42
0.4142135623731
  0
LWPOLYLINE
  5
4F3
330
1F
100
AcDbEntity
  8
0-B_寸法
  6
Continuous
 62
     7
370
     9
100
AcDbPolyline
 90
        4
 70
     1
 43
3.0
 10
-1926.697741501343
 20
-3498.848713271374
 42
0.4142135623731
 10
-1928.197741501342
 20
-3497.348713271374
 42
0.4142135623731
 10
-1929.697741501342
 20
-3498.848713271374
 42
0.4142135623731
 10
-1928.197741501342
 20
-3500.348713271374
 42
0.4142135623731
  0
LINE
  5
4F4
330
1F
100
AcDbEntity
  8
0-B_寸法
  6
Continuous
 62
   120
370
     5
100
AcDbLine
 10
-1250.197741501342
 20
-3498.848713271374
 30
0.0
 11
-1250.197741501342
 21
-3318.848713271374
 31
0.0
  0
LINE
  5
4F5
330
1F
100
AcDbEntity
  8
0-B_寸法
  6
Continuous
 62
   120
370
     5
100
AcDbLine
 10
-1928.197741501342
 20
-3498.848713271374
 30
0.0
 11
-1928.197741501342
 21
-3318.848713271374
 31
0.0
  0
MTEXT
  5
4F6
330
1F
100
AcDbEntity
  8
0-B_寸法
  6
Continuous
 62
     7
370
   211
100
AcDbMText
 10
-1686.697741501342
 20
-3494.318713271373
 30
0.0
 40
99.06
 41
195.0
 46
0.0
 71
     7
 72
     1
  1
{\fＭＳ ゴシック|b0|i0|c128|p49;113}
 73
     1
 44
1.0
  0
LINE
  5
4F7
330
1F
100
AcDbEntity
  8
0-C_ハッチ
  6
Continuous
 62
   120
370
     5
100
AcDbLine
 10
-1597.736376594646
 20
-3258.849016271408
 30
0.0
 11
-1510.735787223912
 21
-3171.848426900674
 31
0.0
  0
LINE
  5
4F8
330
1F
100
AcDbEntity
  8
0-C_ハッチ
  6
Continuous
 62
   120
370
     5
100
AcDbLine
 10
-1852.294817821818
 20
-3258.849016271396
 30
0.0
 11
-1765.294228451092
 21
-3171.848426900662
 31
0.0
  0
LINE
  5
4F9
330
1F
100
AcDbEntity
  8
0-C_ハッチ
  6
Continuous
 62
   120
370
     5
100
AcDbLine
 10
-1894.721224693006
 20
-3258.849016271396
 30
0.0
 11
-1807.720635322281
 21
-3171.848426900662
 31
0.0
  0
LINE
  5
4FA
330
1F
100
AcDbEntity
  8
0-C_ハッチ
  6
Continuous
 62
   120
370
     5
100
AcDbLine
 10
-1385.604342238699
 20
-3258.849016271408
 30
0.0
 11
-1298.603752867963
 21
-3171.848426900669
 31
0.0
  0
LINE
  5
4FB
330
1F
100
AcDbEntity
  8
0-C_ハッチ
  6
Continuous
 62
   120
370
     5
100
AcDbLine
 10
-1343.177935367501
 20
-3258.849016271408
 30
0.0
 11
-1256.177345996766
 21
-3171.848426900669
 31
0.0
  0
LINE
  5
4FC
330
1F
100
AcDbEntity
  8
0-C_ハッチ
  6
Continuous
 62
   120
370
     5
100
AcDbLine
 10
-1925.197741501338
 20
-3204.472719337345
 30
0.0
 11
-1892.573449064663
 21
-3171.848426900662
 31
0.0
  0
LINE
  5
4FD
330
1F
100
AcDbEntity
  8
0-C_ハッチ
  6
Continuous
 62
   120
370
     5
100
AcDbLine
 10
-1925.197741501338
 20
-3246.899126208536
 30
0.0
 11
-1850.147042193471
 21
-3171.848426900662
 31
0.0
  0
LINE
  5
4FE
330
1F
100
AcDbEntity
  8
0-C_ハッチ
  6
Continuous
 62
   120
370
     5
100
AcDbLine
 10
-1258.325121625108
 20
-3258.849016271408
 30
0.0
 11
-1253.197741501337
 21
-3253.721636147638
 31
0.0
  0
LINE
  5
4FF
330
1F
100
AcDbEntity
  8
0-C_ハッチ
  6
Continuous
 62
   120
370
     5
100
AcDbLine
 10
-1300.751528496304
 20
-3258.849016271408
 30
0.0
 11
-1253.197741501337
 21
-3211.295229276438
 31
0.0
  0
LINE
  5
500
330
1F
100
AcDbEntity
  8
0-C_ハッチ
  6
Continuous
 62
   120
370
     5
100
AcDbLine
 10
-1428.030749109899
 20
-3258.849016271402
 30
0.0
 11
-1341.03015973916
 21
-3171.848426900669
 31
0.0
  0
LINE
  5
501
330
1F
100
AcDbEntity
  8
0-C_ハッチ
  6
Continuous
 62
   120
370
     5
100
AcDbLine
 10
-1470.457155981091
 20
-3258.849016271397
 30
0.0
 11
-1383.456566610362
 21
-3171.84842690067
 31
0.0
  0
LINE
  5
502
330
1F
100
AcDbEntity
  8
0-C_ハッチ
  6
Continuous
 62
   120
370
     5
100
AcDbLine
 10
-1448.19774150134
 20
-3194.163194920447
 30
0.0
 11
-1425.882973481562
 21
-3171.848426900669
 31
0.0
  0
LINE
  5
503
330
1F
100
AcDbEntity
  8
0-C_ハッチ
  6
Continuous
 62
   120
370
     5
100
AcDbLine
 10
-1512.883562852287
 20
-3258.849016271395
 30
0.0
 11
-1458.883259583859
 21
-3204.848713002966
 31
0.0
  0
LINE
  5
504
330
1F
100
AcDbEntity
  8
0-C_ハッチ
  6
Continuous
 62
   120
370
     5
100
AcDbLine
 10
-1555.309969723433
 20
-3258.849016271395
 30
0.0
 11
-1501.309666455004
 21
-3204.848713002966
 31
0.0
  0
LINE
  5
505
330
1F
100
AcDbEntity
  8
0-C_ハッチ
  6
Continuous
 62
   120
370
     5
100
AcDbLine
 10
-1640.162783465845
 20
-3258.849016271403
 30
0.0
 11
-1553.162194095112
 21
-3171.848426900674
 31
0.0
  0
LINE
  5
506
330
1F
100
AcDbEntity
  8
0-C_ハッチ
  6
Continuous
 62
   120
370
     5
100
AcDbLine
 10
-1682.589190337045
 20
-3258.849016271402
 30
0.0
 11
-1595.588600966305
 21
-3171.848426900672
 31
0.0
  0
LINE
  5
507
330
1F
100
AcDbEntity
  8
0-C_ハッチ
  6
Continuous
 62
   120
370
     5
100
AcDbLine
 10
-1725.015597208236
 20
-3258.849016271402
 30
0.0
 11
-1638.015007837512
 21
-3171.848426900669
 31
0.0
  0
LINE
  5
508
330
1F
100
AcDbEntity
  8
0-C_ハッチ
  6
Continuous
 62
   120
370
     5
100
AcDbLine
 10
-1767.44200407944
 20
-3258.849016271396
 30
0.0
 11
-1713.441700811008
 21
-3204.848713002966
 31
0.0
  0
LINE
  5
509
330
1F
100
AcDbEntity
  8
0-C_ハッチ
  6
Continuous
 62
   120
370
     5
100
AcDbLine
 10
-1809.868410950631
 20
-3258.849016271396
 30
0.0
 11
-1729.59774150134
 21
-3178.578346822099
 31
0.0
  0
LINE
  5
50A
330
1F
100
AcDbEntity
  8
0-A_文字
  6
Continuous
 62
    92
370
    13
100
AcDbLine
 10
3409.918254163524
 20
-510.848713271375
 30
0.0
 11
3409.918254163524
 21
-3378.848919265028
 31
0.0
  0
LINE
  5
50B
330
1F
100
AcDbEntity
  8
0-A_文字
  6
Continuous
 62
    92
370
    13
100
AcDbLine
 10
3409.918254163524
 20
-3378.848919265028
 30
0.0
 11
1009.918254163524
 21
-3378.848919265028
 31
0.0
  0
MTEXT
  5
50C
330
1F
100
AcDbEntity
  8
0-A_文字
  6
Continuous
 62
     7
370
     0
100
AcDbMText
 10
1587.418232705097
 20
-675.128713271375
 30
0.0
 40
91.43999999999998
 41
1200.0
 46
0.0
 71
     7
 72
     1
  1
{\fＭＳ ゴシック|b0|i0|c128|p49;フロアー貼り込み位置}
 73
     1
 44
1.0
  0
LINE
  5
50D
330
1F
100
AcDbEntity
  8
0-A_文字
  6
Continuous
 62
    92
370
    13
100
AcDbLine
 10
1009.918254163524
 20
-2410.002927911376
 30
0.0
 11
3409.918254163524
 21
-2410.002927911376
 31
0.0
  0
ARC
  5
50E
330
1F
100
AcDbEntity
  8
1-7_金物
  6
Continuous
 62
     7
370
     9
100
AcDbCircle
 10
2631.844897603301
 20
-2945.071168421353
 30
0.0
 40
7.500000000000213
100
AcDbArc
 50
90.00000000000006
 51
135.0000000000001
  0
ARC
  5
50F
330
1F
100
AcDbEntity
  8
1-7_金物
  6
Continuous
 62
     7
370
     9
100
AcDbCircle
 10
2604.373897603301
 20
-2955.571168421356
 30
0.0
 40
4.500000000000128
100
AcDbArc
 50
270.0000000000001
 51
315.0000000000001
  0
ARC
  5
510
330
1F
100
AcDbEntity
  8
1-7_金物
  6
Continuous
 62
     7
370
     9
100
AcDbCircle
 10
2599.488397603301
 20
-2963.071168421353
 30
0.0
 40
3.000000000000086
100
AcDbArc
 50
90.00000000000001
 51
180.0
  0
ARC
  5
511
330
1F
100
AcDbEntity
  8
1-7_金物
  6
Continuous
 62
     7
370
     9
100
AcDbCircle
 10
2545.488397603299
 20
-2963.071168421353
 30
0.0
 40
3.000000000000086
100
AcDbArc
 50
0.0000000000000127
 51
90.00000000000004
  0
ARC
  5
512
330
1F
100
AcDbEntity
  8
1-7_金物
  6
Continuous
 62
     7
370
     9
100
AcDbCircle
 10
2513.131897603299
 20
-2945.071168421353
 30
0.0
 40
7.500000000000213
100
AcDbArc
 50
45.00000000000003
 51
90.00000000000004
  0
ARC
  5
513
330
1F
100
AcDbEntity
  8
1-7_金物
  6
Continuous
 62
     7
370
     9
100
AcDbCircle
 10
2540.602897603301
 20
-2955.571168421356
 30
0.0
 40
4.500000000000128
100
AcDbArc
 50
225.0
 51
270.0000000000001
  0
ARC
  5
514
330
1F
100
AcDbEntity
  8
1-7_金物
  6
Continuous
 62
     7
370
     9
100
AcDbCircle
 10
2633.9883976033
 20
-3008.069668421354
 30
0.0
 40
3.000000000000086
100
AcDbArc
 50
338.3840000000001
 51
90.00000000000011
  0
ARC
  5
515
330
1F
100
AcDbEntity
  8
1-7_金物
  6
Continuous
 62
     7
370
     9
100
AcDbCircle
 10
2591.988397603299
 20
-3000.569668421353
 30
0.0
 40
4.500000000000128
100
AcDbArc
 50
270.0000000000001
 51
0.0000000000000763
  0
ARC
  5
516
330
1F
100
AcDbEntity
  8
1-7_金物
  6
Continuous
 62
     7
370
     9
100
AcDbCircle
 10
2552.988397603301
 20
-3000.569668421353
 30
0.0
 40
4.500000000000128
100
AcDbArc
 50
180.0
 51
270.0000000000001
  0
ARC
  5
517
330
1F
100
AcDbEntity
  8
1-7_金物
  6
Continuous
 62
     7
370
     9
100
AcDbCircle
 10
2510.988397603301
 20
-3008.069668421354
 30
0.0
 40
3.000000000000086
100
AcDbArc
 50
90.00000000000001
 51
201.6160000000001
  0
ARC
  5
518
330
1F
100
AcDbEntity
  8
1-7_金物
  6
Continuous
 62
     7
370
     9
100
AcDbCircle
 10
2669.9868976033
 20
-2986.111168421355
 30
0.0
 40
45.00000000000128
100
AcDbArc
 50
131.81
 51
180.0
  0
ARC
  5
519
330
1F
100
AcDbEntity
  8
1-7_金物
  6
Continuous
 62
     7
370
     9
100
AcDbCircle
 10
2474.988397603303
 20
-2986.111168421355
 30
0.0
 40
45.00000000000128
100
AcDbArc
 50
0.0000000000000127
 51
48.19000000000003
  0
LINE
  5
51A
330
1F
100
AcDbEntity
  8
1-7_金物
  6
Continuous
 62
     7
370
     9
100
AcDbLine
 10
2639.988397603298
 20
-2937.571168421355
 30
0.0
 11
2631.844897603301
 21
-2937.571168421355
 31
0.0
  0
LINE
  5
51B
330
1F
100
AcDbEntity
  8
1-7_金物
  6
Continuous
 62
     7
370
     9
100
AcDbLine
 10
2639.988397603298
 20
-2952.571168421354
 30
0.0
 11
2639.988397603298
 21
-2937.571168421355
 31
0.0
  0
LINE
  5
51C
330
1F
100
AcDbEntity
  8
1-7_金物
  6
Continuous
 62
     7
370
     9
100
AcDbLine
 10
2604.373897603301
 20
-2960.071168421352
 30
0.0
 11
2599.488397603301
 21
-2960.071168421352
 31
0.0
  0
LINE
  5
51D
330
1F
100
AcDbEntity
  8
1-7_金物
  6
Continuous
 62
     7
370
     9
100
AcDbLine
 10
2607.555397603303
 20
-2958.752668421355
 30
0.0
 11
2626.540897603297
 21
-2939.767168421353
 31
0.0
  0
LINE
  5
51E
330
1F
100
AcDbEntity
  8
1-7_金物
  6
Continuous
 62
     7
370
     9
100
AcDbLine
 10
2540.602897603301
 20
-2960.071168421352
 30
0.0
 11
2545.488397603299
 21
-2960.071168421352
 31
0.0
  0
LINE
  5
51F
330
1F
100
AcDbEntity
  8
1-7_金物
  6
Continuous
 62
     7
370
     9
100
AcDbLine
 10
2537.4198976033
 20
-2958.752668421355
 30
0.0
 11
2518.435897603303
 21
-2939.767168421353
 31
0.0
  0
LINE
  5
520
330
1F
100
AcDbEntity
  8
1-7_金物
  6
Continuous
 62
     7
370
     9
100
AcDbLine
 10
2624.988397603303
 20
-3005.069668421353
 30
0.0
 11
2633.9883976033
 21
-3005.069668421353
 31
0.0
  0
LINE
  5
521
330
1F
100
AcDbEntity
  8
1-7_金物
  6
Continuous
 62
     7
370
     9
100
AcDbLine
 10
2624.988397603303
 20
-3005.069668421353
 30
0.0
 11
2624.988397603303
 21
-2986.111168421355
 31
0.0
  0
LINE
  5
522
330
1F
100
AcDbEntity
  8
1-7_金物
  6
Continuous
 62
     7
370
     9
100
AcDbLine
 10
2576.988397603301
 20
-3005.069668421353
 30
0.0
 11
2591.988397603299
 21
-3005.069668421353
 31
0.0
  0
LINE
  5
523
330
1F
100
AcDbEntity
  8
1-7_金物
  6
Continuous
 62
     7
370
     9
100
AcDbLine
 10
2612.988397603297
 20
-3027.569668421354
 30
0.0
 11
2609.9883976033
 21
-3024.569668421357
 31
0.0
  0
LINE
  5
524
330
1F
100
AcDbEntity
  8
1-7_金物
  6
Continuous
 62
     7
370
     9
100
AcDbLine
 10
2612.988397603297
 20
-3027.569668421354
 30
0.0
 11
2629.488397603299
 21
-3027.569668421354
 31
0.0
  0
LINE
  5
525
330
1F
100
AcDbEntity
  8
1-7_金物
  6
Continuous
 62
     7
370
     9
100
AcDbLine
 10
2609.9883976033
 20
-3024.569668421357
 30
0.0
 11
2606.988397603302
 21
-3027.569668421354
 31
0.0
  0
LINE
  5
526
330
1F
100
AcDbEntity
  8
1-7_金物
  6
Continuous
 62
     7
370
     9
100
AcDbLine
 10
2629.488397603299
 20
-3027.569668421354
 30
0.0
 11
2636.776897603298
 21
-3009.175168421352
 31
0.0
  0
LINE
  5
527
330
1F
100
AcDbEntity
  8
1-7_金物
  6
Continuous
 62
     7
370
     9
100
AcDbLine
 10
2567.988397603301
 20
-3005.069668421353
 30
0.0
 11
2572.4883976033
 21
-3009.569668421358
 31
0.0
  0
LINE
  5
528
330
1F
100
AcDbEntity
  8
1-7_金物
  6
Continuous
 62
     7
370
     9
100
AcDbLine
 10
2552.988397603301
 20
-3005.069668421353
 30
0.0
 11
2567.988397603301
 21
-3005.069668421353
 31
0.0
  0
LINE
  5
529
330
1F
100
AcDbEntity
  8
1-7_金物
  6
Continuous
 62
     7
370
     9
100
AcDbLine
 10
2519.988397603302
 20
-3005.069668421353
 30
0.0
 11
2510.988397603301
 21
-3005.069668421353
 31
0.0
  0
LINE
  5
52A
330
1F
100
AcDbEntity
  8
1-7_金物
  6
Continuous
 62
     7
370
     9
100
AcDbLine
 10
2519.988397603302
 20
-3005.069668421353
 30
0.0
 11
2519.988397603302
 21
-2986.111168421355
 31
0.0
  0
LINE
  5
52B
330
1F
100
AcDbEntity
  8
1-7_金物
  6
Continuous
 62
     7
370
     9
100
AcDbLine
 10
2531.988397603302
 20
-3027.569668421354
 30
0.0
 11
2534.9883976033
 21
-3024.569668421357
 31
0.0
  0
LINE
  5
52C
330
1F
100
AcDbEntity
  8
1-7_金物
  6
Continuous
 62
     7
370
     9
100
AcDbLine
 10
2534.9883976033
 20
-3024.569668421357
 30
0.0
 11
2537.988397603297
 21
-3027.569668421354
 31
0.0
  0
LINE
  5
52D
330
1F
100
AcDbEntity
  8
1-7_金物
  6
Continuous
 62
     7
370
     9
100
AcDbLine
 10
2531.988397603302
 20
-3027.569668421354
 30
0.0
 11
2515.488397603301
 21
-3027.569668421354
 31
0.0
  0
LINE
  5
52E
330
1F
100
AcDbEntity
  8
1-7_金物
  6
Continuous
 62
     7
370
     9
100
AcDbLine
 10
2515.488397603301
 20
-3027.569668421354
 30
0.0
 11
2508.199897603302
 21
-3009.175168421352
 31
0.0
  0
LINE
  5
52F
330
1F
100
AcDbEntity
  8
1-7_金物
  6
Continuous
 62
     7
370
     9
100
AcDbLine
 10
2572.4883976033
 20
-3009.569668421358
 30
0.0
 11
2576.988397603301
 21
-3005.069668421353
 31
0.0
  0
LINE
  5
530
330
1F
100
AcDbEntity
  8
1-7_金物
  6
Continuous
 62
     7
370
     9
100
AcDbLine
 10
2606.988397603302
 20
-3027.569668421354
 30
0.0
 11
2537.988397603297
 21
-3027.569668421354
 31
0.0
  0
LINE
  5
531
330
1F
100
AcDbEntity
  8
1-7_金物
  6
Continuous
 62
     7
370
     9
100
AcDbLine
 10
2548.488397603301
 20
-3000.569668421353
 30
0.0
 11
2548.488397603301
 21
-2963.071168421353
 31
0.0
  0
LINE
  5
532
330
1F
100
AcDbEntity
  8
1-7_金物
  6
Continuous
 62
     7
370
     9
100
AcDbLine
 10
2596.4883976033
 20
-3000.569668421353
 30
0.0
 11
2596.4883976033
 21
-2963.071168421353
 31
0.0
  0
LINE
  5
533
330
1F
100
AcDbEntity
  8
1-7_金物
  6
Continuous
 62
     7
370
     9
100
AcDbLine
 10
2504.988397603302
 20
-2952.571168421354
 30
0.0
 11
2504.988397603302
 21
-2937.571168421355
 31
0.0
  0
LINE
  5
534
330
1F
100
AcDbEntity
  8
1-7_金物
  6
Continuous
 62
     7
370
     9
100
AcDbLine
 10
2504.988397603302
 20
-2937.571168421355
 30
0.0
 11
2513.131897603299
 21
-2937.571168421355
 31
0.0
  0
ARC
  5
535
330
1F
100
AcDbEntity
  8
1-7_金物
  6
Continuous
 62
     7
370
     9
100
AcDbCircle
 10
2061.844897603301
 20
-2945.071168421353
 30
0.0
 40
7.500000000000213
100
AcDbArc
 50
90.00000000000006
 51
135.0000000000001
  0
ARC
  5
536
330
1F
100
AcDbEntity
  8
1-7_金物
  6
Continuous
 62
     7
370
     9
100
AcDbCircle
 10
2034.373897603301
 20
-2955.571168421356
 30
0.0
 40
4.500000000000128
100
AcDbArc
 50
270.0000000000001
 51
315.0000000000001
  0
ARC
  5
537
330
1F
100
AcDbEntity
  8
1-7_金物
  6
Continuous
 62
     7
370
     9
100
AcDbCircle
 10
2029.488397603302
 20
-2963.071168421353
 30
0.0
 40
3.000000000000086
100
AcDbArc
 50
90.00000000000001
 51
180.0
  0
ARC
  5
538
330
1F
100
AcDbEntity
  8
1-7_金物
  6
Continuous
 62
     7
370
     9
100
AcDbCircle
 10
1975.488397603301
 20
-2963.071168421353
 30
0.0
 40
3.000000000000086
100
AcDbArc
 50
0.0000000000000127
 51
90.00000000000004
  0
ARC
  5
539
330
1F
100
AcDbEntity
  8
1-7_金物
  6
Continuous
 62
     7
370
     9
100
AcDbCircle
 10
1943.131897603299
 20
-2945.071168421353
 30
0.0
 40
7.500000000000213
100
AcDbArc
 50
45.00000000000003
 51
90.00000000000004
  0
ARC
  5
53A
330
1F
100
AcDbEntity
  8
1-7_金物
  6
Continuous
 62
     7
370
     9
100
AcDbCircle
 10
1970.602897603303
 20
-2955.571168421356
 30
0.0
 40
4.500000000000128
100
AcDbArc
 50
225.0
 51
270.0000000000001
  0
ARC
  5
53B
330
1F
100
AcDbEntity
  8
1-7_金物
  6
Continuous
 62
     7
370
     9
100
AcDbCircle
 10
2063.988397603302
 20
-3008.069668421354
 30
0.0
 40
3.000000000000086
100
AcDbArc
 50
338.3840000000001
 51
90.00000000000011
  0
ARC
  5
53C
330
1F
100
AcDbEntity
  8
1-7_金物
  6
Continuous
 62
     7
370
     9
100
AcDbCircle
 10
2021.988397603299
 20
-3000.569668421353
 30
0.0
 40
4.500000000000128
100
AcDbArc
 50
270.0000000000001
 51
0.0000000000000763
  0
ARC
  5
53D
330
1F
100
AcDbEntity
  8
1-7_金物
  6
Continuous
 62
     7
370
     9
100
AcDbCircle
 10
1982.988397603301
 20
-3000.569668421353
 30
0.0
 40
4.500000000000128
100
AcDbArc
 50
180.0
 51
270.0000000000001
  0
ARC
  5
53E
330
1F
100
AcDbEntity
  8
1-7_金物
  6
Continuous
 62
     7
370
     9
100
AcDbCircle
 10
1940.988397603301
 20
-3008.069668421354
 30
0.0
 40
3.000000000000086
100
AcDbArc
 50
90.00000000000001
 51
201.6160000000001
  0
ARC
  5
53F
330
1F
100
AcDbEntity
  8
1-7_金物
  6
Continuous
 62
     7
370
     9
100
AcDbCircle
 10
2099.9868976033
 20
-2986.111168421355
 30
0.0
 40
45.00000000000128
100
AcDbArc
 50
131.81
 51
180.0
  0
ARC
  5
540
330
1F
100
AcDbEntity
  8
1-7_金物
  6
Continuous
 62
     7
370
     9
100
AcDbCircle
 10
1904.988397603303
 20
-2986.111168421355
 30
0.0
 40
45.00000000000128
100
AcDbArc
 50
0.0000000000000127
 51
48.19000000000003
  0
LINE
  5
541
330
1F
100
AcDbEntity
  8
1-7_金物
  6
Continuous
 62
     7
370
     9
100
AcDbLine
 10
2069.9883976033
 20
-2937.571168421355
 30
0.0
 11
2061.844897603301
 21
-2937.571168421355
 31
0.0
  0
LINE
  5
542
330
1F
100
AcDbEntity
  8
1-7_金物
  6
Continuous
 62
     7
370
     9
100
AcDbLine
 10
2069.9883976033
 20
-2952.571168421354
 30
0.0
 11
2069.9883976033
 21
-2937.571168421355
 31
0.0
  0
LINE
  5
543
330
1F
100
AcDbEntity
  8
1-7_金物
  6
Continuous
 62
     7
370
     9
100
AcDbLine
 10
2034.373897603301
 20
-2960.071168421352
 30
0.0
 11
2029.488397603302
 21
-2960.071168421352
 31
0.0
  0
LINE
  5
544
330
1F
100
AcDbEntity
  8
1-7_金物
  6
Continuous
 62
     7
370
     9
100
AcDbLine
 10
2037.555397603303
 20
-2958.752668421355
 30
0.0
 11
2056.540897603299
 21
-2939.767168421353
 31
0.0
  0
LINE
  5
545
330
1F
100
AcDbEntity
  8
1-7_金物
  6
Continuous
 62
     7
370
     9
100
AcDbLine
 10
1970.602897603303
 20
-2960.071168421352
 30
0.0
 11
1975.488397603301
 21
-2960.071168421352
 31
0.0
  0
LINE
  5
546
330
1F
100
AcDbEntity
  8
1-7_金物
  6
Continuous
 62
     7
370
     9
100
AcDbLine
 10
1967.4198976033
 20
-2958.752668421355
 30
0.0
 11
1948.435897603304
 21
-2939.767168421353
 31
0.0
  0
LINE
  5
547
330
1F
100
AcDbEntity
  8
1-7_金物
  6
Continuous
 62
     7
370
     9
100
AcDbLine
 10
2054.988397603303
 20
-3005.069668421353
 30
0.0
 11
2063.988397603302
 21
-3005.069668421353
 31
0.0
  0
LINE
  5
548
330
1F
100
AcDbEntity
  8
1-7_金物
  6
Continuous
 62
     7
370
     9
100
AcDbLine
 10
2054.988397603303
 20
-3005.069668421353
 30
0.0
 11
2054.988397603303
 21
-2986.111168421355
 31
0.0
  0
LINE
  5
549
330
1F
100
AcDbEntity
  8
1-7_金物
  6
Continuous
 62
     7
370
     9
100
AcDbLine
 10
2006.988397603302
 20
-3005.069668421353
 30
0.0
 11
2021.988397603299
 21
-3005.069668421353
 31
0.0
  0
LINE
  5
54A
330
1F
100
AcDbEntity
  8
1-7_金物
  6
Continuous
 62
     7
370
     9
100
AcDbLine
 10
2042.988397603297
 20
-3027.569668421354
 30
0.0
 11
2039.9883976033
 21
-3024.569668421357
 31
0.0
  0
LINE
  5
54B
330
1F
100
AcDbEntity
  8
1-7_金物
  6
Continuous
 62
     7
370
     9
100
AcDbLine
 10
2042.988397603297
 20
-3027.569668421354
 30
0.0
 11
2059.488397603299
 21
-3027.569668421354
 31
0.0
  0
LINE
  5
54C
330
1F
100
AcDbEntity
  8
1-7_金物
  6
Continuous
 62
     7
370
     9
100
AcDbLine
 10
2039.9883976033
 20
-3024.569668421357
 30
0.0
 11
2036.988397603302
 21
-3027.569668421354
 31
0.0
  0
LINE
  5
54D
330
1F
100
AcDbEntity
  8
1-7_金物
  6
Continuous
 62
     7
370
     9
100
AcDbLine
 10
2059.488397603299
 20
-3027.569668421354
 30
0.0
 11
2066.776897603298
 21
-3009.175168421352
 31
0.0
  0
LINE
  5
54E
330
1F
100
AcDbEntity
  8
1-7_金物
  6
Continuous
 62
     7
370
     9
100
AcDbLine
 10
1997.988397603301
 20
-3005.069668421353
 30
0.0
 11
2002.4883976033
 21
-3009.569668421358
 31
0.0
  0
LINE
  5
54F
330
1F
100
AcDbEntity
  8
1-7_金物
  6
Continuous
 62
     7
370
     9
100
AcDbLine
 10
1982.988397603301
 20
-3005.069668421353
 30
0.0
 11
1997.988397603301
 21
-3005.069668421353
 31
0.0
  0
LINE
  5
550
330
1F
100
AcDbEntity
  8
1-7_金物
  6
Continuous
 62
     7
370
     9
100
AcDbLine
 10
1949.988397603303
 20
-3005.069668421353
 30
0.0
 11
1940.988397603301
 21
-3005.069668421353
 31
0.0
  0
LINE
  5
551
330
1F
100
AcDbEntity
  8
1-7_金物
  6
Continuous
 62
     7
370
     9
100
AcDbLine
 10
1949.988397603303
 20
-3005.069668421353
 30
0.0
 11
1949.988397603303
 21
-2986.111168421355
 31
0.0
  0
LINE
  5
552
330
1F
100
AcDbEntity
  8
1-7_金物
  6
Continuous
 62
     7
370
     9
100
AcDbLine
 10
1961.988397603302
 20
-3027.569668421354
 30
0.0
 11
1964.9883976033
 21
-3024.569668421357
 31
0.0
  0
LINE
  5
553
330
1F
100
AcDbEntity
  8
1-7_金物
  6
Continuous
 62
     7
370
     9
100
AcDbLine
 10
1964.9883976033
 20
-3024.569668421357
 30
0.0
 11
1967.988397603297
 21
-3027.569668421354
 31
0.0
  0
LINE
  5
554
330
1F
100
AcDbEntity
  8
1-7_金物
  6
Continuous
 62
     7
370
     9
100
AcDbLine
 10
1961.988397603302
 20
-3027.569668421354
 30
0.0
 11
1945.488397603301
 21
-3027.569668421354
 31
0.0
  0
LINE
  5
555
330
1F
100
AcDbEntity
  8
1-7_金物
  6
Continuous
 62
     7
370
     9
100
AcDbLine
 10
1945.488397603301
 20
-3027.569668421354
 30
0.0
 11
1938.199897603302
 21
-3009.175168421352
 31
0.0
  0
LINE
  5
556
330
1F
100
AcDbEntity
  8
1-7_金物
  6
Continuous
 62
     7
370
     9
100
AcDbLine
 10
2002.4883976033
 20
-3009.569668421358
 30
0.0
 11
2006.988397603302
 21
-3005.069668421353
 31
0.0
  0
LINE
  5
557
330
1F
100
AcDbEntity
  8
1-7_金物
  6
Continuous
 62
     7
370
     9
100
AcDbLine
 10
2036.988397603302
 20
-3027.569668421354
 30
0.0
 11
1967.988397603297
 21
-3027.569668421354
 31
0.0
  0
LINE
  5
558
330
1F
100
AcDbEntity
  8
1-7_金物
  6
Continuous
 62
     7
370
     9
100
AcDbLine
 10
1978.488397603301
 20
-3000.569668421353
 30
0.0
 11
1978.488397603301
 21
-2963.071168421353
 31
0.0
  0
LINE
  5
559
330
1F
100
AcDbEntity
  8
1-7_金物
  6
Continuous
 62
     7
370
     9
100
AcDbLine
 10
2026.488397603302
 20
-3000.569668421353
 30
0.0
 11
2026.488397603302
 21
-2963.071168421353
 31
0.0
  0
LINE
  5
55A
330
1F
100
AcDbEntity
  8
1-7_金物
  6
Continuous
 62
     7
370
     9
100
AcDbLine
 10
1934.988397603303
 20
-2952.571168421354
 30
0.0
 11
1934.988397603303
 21
-2937.571168421355
 31
0.0
  0
LINE
  5
55B
330
1F
100
AcDbEntity
  8
1-7_金物
  6
Continuous
 62
     7
370
     9
100
AcDbLine
 10
1934.988397603303
 20
-2937.571168421355
 30
0.0
 11
1943.131897603299
 21
-2937.571168421355
 31
0.0
  0
LINE
  5
55C
330
1F
100
AcDbEntity
  8
1-0_補助線
  6
JWW_HOJO
 62
   120
370
     5
100
AcDbLine
 10
2572.488396219909
 20
-2934.13886277732
 30
0.0
 11
2572.488396219909
 21
-3099.196818520207
 31
0.0
  0
LINE
  5
55D
330
1F
100
AcDbEntity
  8
1-0_補助線
  6
JWW_HOJO
 62
   120
370
     5
100
AcDbLine
 10
2002.488396219911
 20
-2965.666786907984
 30
0.0
 11
2002.488396219911
 21
-3117.742656244126
 31
0.0
  0
LINE
  5
55E
330
1F
100
AcDbEntity
  8
1-4_枠
  6
Continuous
 62
    92
370
    13
100
AcDbLine
 10
2506.488396219909
 20
-2937.568910250272
 30
0.0
 11
2506.488396219909
 21
-3027.568910250275
 31
0.0
  0
LINE
  5
55F
330
1F
100
AcDbEntity
  8
1-4_枠
  6
Continuous
 62
    92
370
    13
100
AcDbLine
 10
2638.488396219909
 20
-3027.568910250275
 30
0.0
 11
2506.488396219909
 21
-3027.568910250275
 31
0.0
  0
LINE
  5
560
330
1F
100
AcDbEntity
  8
1-4_枠
  6
Continuous
 62
    92
370
    13
100
AcDbLine
 10
2068.488396219909
 20
-2945.068194994532
 30
0.0
 11
2506.488396219909
 21
-2945.068194994532
 31
0.0
  0
LINE
  5
561
330
1F
100
AcDbEntity
  8
1-4_枠
  6
Continuous
 62
    92
370
    13
100
AcDbLine
 10
2068.488396219909
 20
-2937.568910250272
 30
0.0
 11
2506.488396219909
 21
-2937.568910250272
 31
0.0
  0
LINE
  5
562
330
1F
100
AcDbEntity
  8
1-4_枠
  6
Continuous
 62
    92
370
    13
100
AcDbLine
 10
2638.488396219909
 20
-2937.568910250272
 30
0.0
 11
2638.488396219909
 21
-3027.568910250275
 31
0.0
  0
LINE
  5
563
330
1F
100
AcDbEntity
  8
1-4_枠
  6
Continuous
 62
    92
370
    13
100
AcDbLine
 10
3124.381794502114
 20
-2937.568910250272
 30
0.0
 11
2638.488396219909
 21
-2937.568910250272
 31
0.0
  0
LINE
  5
564
330
1F
100
AcDbEntity
  8
1-4_枠
  6
Continuous
 62
    92
370
    13
100
AcDbLine
 10
3127.488396219911
 20
-2945.068194994532
 30
0.0
 11
2638.488396219909
 21
-2945.068194994532
 31
0.0
  0
LINE
  5
565
330
1F
100
AcDbEntity
  8
1-4_枠
  6
Continuous
 62
    92
370
    13
100
AcDbLine
 10
1936.488396219909
 20
-2937.568910250272
 30
0.0
 11
1936.488396219909
 21
-3027.568910250275
 31
0.0
  0
LINE
  5
566
330
1F
100
AcDbEntity
  8
1-4_枠
  6
Continuous
 62
    92
370
    13
100
AcDbLine
 10
2068.488396219909
 20
-3027.568910250275
 30
0.0
 11
1936.488396219909
 21
-3027.568910250275
 31
0.0
  0
LINE
  5
567
330
1F
100
AcDbEntity
  8
1-4_枠
  6
Continuous
 62
    92
370
    13
100
AcDbLine
 10
1447.488396219911
 20
-2945.068194994532
 30
0.0
 11
1936.488396219909
 21
-2945.068194994532
 31
0.0
  0
LINE
  5
568
330
1F
100
AcDbEntity
  8
1-4_枠
  6
Continuous
 62
    92
370
    13
100
AcDbLine
 10
1450.594997937707
 20
-2937.568910250272
 30
0.0
 11
1936.488396219909
 21
-2937.568910250272
 31
0.0
  0
LINE
  5
569
330
1F
100
AcDbEntity
  8
1-4_枠
  6
Continuous
 62
    92
370
    13
100
AcDbLine
 10
2068.488396219909
 20
-2937.568910250272
 30
0.0
 11
2068.488396219909
 21
-3027.568910250275
 31
0.0
  0
MTEXT
  5
56A
330
1F
100
AcDbEntity
  8
1-B_寸法
  6
Continuous
 62
     7
370
   211
100
AcDbMText
 10
2722.488396219909
 20
-2782.562145937213
 30
0.0
 40
100.0125
 41
262.5
 46
0.0
 71
     7
 72
     1
  1
{\fＭＳ ゴシック|b0|i0|c128|p49;37.5}
 73
     1
 44
1.0
  0
MTEXT
  5
56B
330
1F
100
AcDbEntity
  8
1-B_寸法
  6
Continuous
 62
     7
370
   211
100
AcDbMText
 10
1589.988396219911
 20
-2782.562145937213
 30
0.0
 40
100.0125
 41
262.5
 46
0.0
 71
     7
 72
     1
  1
{\fＭＳ ゴシック|b0|i0|c128|p49;37.5}
 73
     1
 44
1.0
  0
LINE
  5
56C
330
1F
100
AcDbEntity
  8
1-B_寸法
  6
Continuous
 62
   120
370
     5
100
AcDbLine
 10
2572.488396219909
 20
-2787.568395937213
 30
0.0
 11
2002.488396219911
 21
-2787.568395937213
 31
0.0
  0
LINE
  5
56D
330
1F
100
AcDbEntity
  8
1-B_寸法
  6
Continuous
 62
   120
370
     5
100
AcDbLine
 10
3134.988396219911
 20
-2787.568395937213
 30
0.0
 11
2572.488396219909
 21
-2787.568395937213
 31
0.0
  0
LINE
  5
56E
330
1F
100
AcDbEntity
  8
1-B_寸法
  6
Continuous
 62
   120
370
     5
100
AcDbLine
 10
2572.488396219909
 20
-2787.568395937213
 30
0.0
 11
2572.488396219909
 21
-2892.568395937213
 31
0.0
  0
LWPOLYLINE
  5
56F
330
1F
100
AcDbEntity
  8
1-B_寸法
  6
Continuous
 62
     7
370
     9
100
AcDbPolyline
 90
        4
 70
     1
 43
3.0
 10
2573.988396219909
 20
-2787.568395937213
 42
0.4142135623731
 10
2572.488396219909
 20
-2786.068395937213
 42
0.4142135623731
 10
2570.988396219909
 20
-2787.568395937213
 42
0.4142135623731
 10
2572.488396219909
 20
-2789.068395937213
 42
0.4142135623731
  0
LINE
  5
570
330
1F
100
AcDbEntity
  8
1-B_寸法
  6
Continuous
 62
   120
370
     5
100
AcDbLine
 10
2002.488396219911
 20
-2787.568395937213
 30
0.0
 11
1439.988396219911
 21
-2787.568395937213
 31
0.0
  0
LINE
  5
571
330
1F
100
AcDbEntity
  8
1-B_寸法
  6
Continuous
 62
   120
370
     5
100
AcDbLine
 10
2002.488396219911
 20
-2787.568395937213
 30
0.0
 11
2002.488396219911
 21
-2892.568395937213
 31
0.0
  0
LWPOLYLINE
  5
572
330
1F
100
AcDbEntity
  8
1-B_寸法
  6
Continuous
 62
     7
370
     9
100
AcDbPolyline
 90
        4
 70
     1
 43
3.0
 10
2003.988396219911
 20
-2787.568395937213
 42
0.4142135623731
 10
2002.488396219911
 20
-2786.068395937213
 42
0.4142135623731
 10
2000.988396219911
 20
-2787.568395937213
 42
0.4142135623731
 10
2002.488396219911
 20
-2789.068395937213
 42
0.4142135623731
  0
LINE
  5
573
330
1F
100
AcDbEntity
  8
1-4_枠
  6
Continuous
 62
    92
370
    13
100
AcDbLine
 10
1439.988396219911
 20
-3162.569668421351
 30
0.0
 11
3134.988396219911
 21
-3162.569668421351
 31
0.0
  0
LINE
  5
574
330
1F
100
AcDbEntity
  8
1-B_寸法
  6
Continuous
 62
   120
370
     5
100
AcDbLine
 10
1439.988396219911
 20
-2622.568395937213
 30
0.0
 11
3134.988396219911
 21
-2622.568395937213
 31
0.0
  0
LINE
  5
575
330
1F
100
AcDbEntity
  8
1-4_枠
  6
Continuous
 62
    92
370
    13
100
AcDbLine
 10
1439.988396219911
 20
-2948.175511968068
 30
0.0
 11
1439.988396219911
 21
-3162.569668421351
 31
0.0
  0
LINE
  5
576
330
1F
100
AcDbEntity
  8
1-4_枠
  6
Continuous
 62
    92
370
    13
100
AcDbLine
 10
1447.488396219911
 20
-3162.570183405489
 30
0.0
 11
1447.488396219911
 21
-2945.068194994532
 31
0.0
  0
LINE
  5
577
330
1F
100
AcDbEntity
  8
1-4_枠
  6
Continuous
 62
    92
370
    13
100
AcDbLine
 10
1439.988396219911
 20
-2948.175511968068
 30
0.0
 11
1450.594997937707
 21
-2937.568910250272
 31
0.0
  0
LWPOLYLINE
  5
578
330
1F
100
AcDbEntity
  8
1-B_寸法
  6
Continuous
 62
     7
370
     9
100
AcDbPolyline
 90
        4
 70
     1
 43
3.0
 10
1441.488396219911
 20
-2622.568395937213
 42
0.4142135623731
 10
1439.988396219911
 20
-2621.068395937213
 42
0.4142135623731
 10
1438.488396219911
 20
-2622.568395937213
 42
0.4142135623731
 10
1439.988396219911
 20
-2624.068395937213
 42
0.4142135623731
  0
LINE
  5
579
330
1F
100
AcDbEntity
  8
1-B_寸法
  6
Continuous
 62
   120
370
     5
100
AcDbLine
 10
1439.988396219911
 20
-2622.568395937213
 30
0.0
 11
1439.988396219911
 21
-2892.568395937213
 31
0.0
  0
LWPOLYLINE
  5
57A
330
1F
100
AcDbEntity
  8
1-B_寸法
  6
Continuous
 62
     7
370
     9
100
AcDbPolyline
 90
        4
 70
     1
 43
3.0
 10
1441.488396219911
 20
-2787.568395937213
 42
0.4142135623731
 10
1439.988396219911
 20
-2786.068395937213
 42
0.4142135623731
 10
1438.488396219911
 20
-2787.568395937213
 42
0.4142135623731
 10
1439.988396219911
 20
-2789.068395937213
 42
0.4142135623731
  0
LINE
  5
57B
330
1F
100
AcDbEntity
  8
1-4_枠
  6
Continuous
 62
    92
370
    13
100
AcDbLine
 10
3124.381794502114
 20
-2937.568910250272
 30
0.0
 11
3134.988396219911
 21
-2948.175511968068
 31
0.0
  0
LINE
  5
57C
330
1F
100
AcDbEntity
  8
1-4_枠
  6
Continuous
 62
    92
370
    13
100
AcDbLine
 10
3127.488396219911
 20
-3162.570183405489
 30
0.0
 11
3127.488396219911
 21
-2945.068194994532
 31
0.0
  0
LINE
  5
57D
330
1F
100
AcDbEntity
  8
1-4_枠
  6
Continuous
 62
    92
370
    13
100
AcDbLine
 10
3134.988396219911
 20
-2948.175511968068
 30
0.0
 11
3134.988396219911
 21
-3162.569668421351
 31
0.0
  0
LWPOLYLINE
  5
57E
330
1F
100
AcDbEntity
  8
1-B_寸法
  6
Continuous
 62
     7
370
     9
100
AcDbPolyline
 90
        4
 70
     1
 43
3.0
 10
3136.488396219911
 20
-2622.568395937213
 42
0.4142135623731
 10
3134.988396219911
 20
-2621.068395937213
 42
0.4142135623731
 10
3133.488396219911
 20
-2622.568395937213
 42
0.4142135623731
 10
3134.988396219911
 20
-2624.068395937213
 42
0.4142135623731
  0
LINE
  5
57F
330
1F
100
AcDbEntity
  8
1-B_寸法
  6
Continuous
 62
   120
370
     5
100
AcDbLine
 10
3134.988396219911
 20
-2622.568395937213
 30
0.0
 11
3134.988396219911
 21
-2892.568395937213
 31
0.0
  0
LWPOLYLINE
  5
580
330
1F
100
AcDbEntity
  8
1-B_寸法
  6
Continuous
 62
     7
370
     9
100
AcDbPolyline
 90
        4
 70
     1
 43
3.0
 10
3136.488396219911
 20
-2787.568395937213
 42
0.4142135623731
 10
3134.988396219911
 20
-2786.068395937213
 42
0.4142135623731
 10
3133.488396219911
 20
-2787.568395937213
 42
0.4142135623731
 10
3134.988396219911
 20
-2789.068395937213
 42
0.4142135623731
  0
MTEXT
  5
581
330
1F
100
AcDbEntity
  8
1-B_寸法
  6
Continuous
 62
     7
370
   211
100
AcDbMText
 10
2223.738281778993
 20
-2783.990895937214
 30
0.0
 40
97.1549999999987
 41
127.4999999999983
 46
0.0
 71
     7
 72
     1
  1
{\fＭＳ ゴシック|b0|i0|c128|p49;38}
 73
     1
 44
1.0
  0
MTEXT
  5
582
330
1F
100
AcDbEntity
  8
1-B_寸法
  6
Continuous
 62
     7
370
   211
100
AcDbMText
 10
2189.988281778993
 20
-2618.038395937213
 30
0.0
 40
99.06
 41
195.0
 46
0.0
 71
     7
 72
     1
  1
{\fＭＳ ゴシック|b0|i0|c128|p49;113}
 73
     1
 44
1.0
  0
LINE
  5
583
330
1F
100
AcDbEntity
  8
1-B_寸法
  6
Continuous
 62
   120
370
     5
100
AcDbLine
 10
1292.348112107138
 20
-3162.569668421351
 30
0.0
 11
1292.348112107138
 21
-2937.568910250272
 31
0.0
  0
LWPOLYLINE
  5
584
330
1F
100
AcDbEntity
  8
1-B_寸法
  6
Continuous
 62
     7
370
     9
100
AcDbPolyline
 90
        4
 70
     1
 43
3.0
 10
1293.848112107137
 20
-3162.569668421351
 42
0.4142135623731
 10
1292.348112107138
 20
-3161.069668421351
 42
0.4142135623731
 10
1290.848112107138
 20
-3162.569668421351
 42
0.4142135623731
 10
1292.348112107138
 20
-3164.06966842135
 42
0.4142135623731
  0
LWPOLYLINE
  5
585
330
1F
100
AcDbEntity
  8
1-B_寸法
  6
Continuous
 62
     7
370
     9
100
AcDbPolyline
 90
        4
 70
     1
 43
3.0
 10
1293.848112107137
 20
-2937.568910250272
 42
0.4142135623731
 10
1292.348112107138
 20
-2936.068910250272
 42
0.4142135623731
 10
1290.848112107138
 20
-2937.568910250272
 42
0.4142135623731
 10
1292.348112107138
 20
-2939.068910250272
 42
0.4142135623731
  0
LINE
  5
586
330
1F
100
AcDbEntity
  8
1-B_寸法
  6
Continuous
 62
   120
370
     5
100
AcDbLine
 10
1292.348112107138
 20
-3162.569668421351
 30
0.0
 11
1394.988396219911
 21
-3162.569668421351
 31
0.0
  0
LINE
  5
587
330
1F
100
AcDbEntity
  8
1-B_寸法
  6
Continuous
 62
   120
370
     5
100
AcDbLine
 10
1292.348112107138
 20
-2937.568910250272
 30
0.0
 11
1394.988396219911
 21
-2937.568910250272
 31
0.0
  0
MTEXT
  5
588
330
1F
100
AcDbEntity
  8
1-B_寸法
  6
Continuous
 62
     7
370
   211
100
AcDbMText
 10
1277.348112107138
 20
-3125.241789335812
 30
0.0
 40
97.15499999999999
 41
127.5
 46
0.0
 71
     7
 72
     1
  1
{\fＭＳ ゴシック|b0|i0|c128|p49;15}
 11
6.123031769111886E-17
 21
1.0
 31
0.0
 73
     1
 44
1.0
  0
MTEXT
  5
589
330
1F
100
AcDbEntity
  8
0-A_文字
  6
Continuous
 62
     7
370
     0
100
AcDbMText
 10
1699.918254163524
 20
-2394.226599031169
 30
0.0
 40
91.43999999999997
 41
1080.0
 46
0.0
 71
     7
 72
     1
  1
{\fＭＳ ゴシック|b0|i0|c128|p49;敷居詳細図 (S=1/2)}
 73
     1
 44
1.0
  0
LINE
  5
58A
330
1F
100
AcDbEntity
  8
0-A_文字
  6
Continuous
 62
    92
370
    13
100
AcDbLine
 10
1009.918254163524
 20
-3378.848919265028
 30
0.0
 11
1009.918254163524
 21
-510.848713271375
 31
0.0
  0
LINE
  5
58B
330
1F
100
AcDbEntity
  8
0-A_文字
  6
Continuous
 62
    92
370
    13
100
AcDbLine
 10
3409.918254163524
 20
-510.848713271375
 30
0.0
 11
1009.918254163524
 21
-510.848713271375
 31
0.0
  0
LINE
  5
58C
330
1F
100
AcDbEntity
  8
0-A_文字
  6
Continuous
 62
    92
370
    13
100
AcDbLine
 10
3409.918254163524
 20
-690.848713271375
 30
0.0
 11
1009.918254163524
 21
-690.848713271375
 31
0.0
  0
LINE
  5
58D
330
1F
100
AcDbEntity
  8
0-A_文字
  6
Continuous
 62
    92
370
    13
100
AcDbLine
 10
3409.918254163524
 20
-2230.002927911378
 30
0.0
 11
1009.918254163524
 21
-2230.002927911378
 31
0.0
  0
LINE
  5
58E
330
1F
100
AcDbEntity
  8
0-A_文字
  6
Continuous
 62
    92
370
    13
100
AcDbLine
 10
-5659.999495325863
 20
4000.00018145587
 30
0.0
 11
-5659.999495325863
 21
3730.00018145587
 31
0.0
  0
MTEXT
  5
58F
330
1F
100
AcDbEntity
  8
0-A_文字
  6
Continuous
 62
     7
370
     0
100
AcDbMText
 10
1789.918254163524
 20
-860.1574250440929
 30
0.0
 40
91.44
 41
840.0
 46
0.0
 71
     7
 72
     1
  1
{\fＭＳ ゴシック|b0|i0|c128|p49;壁(枠)センター}
 73
     1
 44
1.0
  0
MTEXT
  5
590
330
1F
100
AcDbEntity
  8
0-A_文字
  6
Continuous
 62
     7
370
     9
100
AcDbMText
 10
2580.449269359028
 20
-1225.756339470834
 30
0.0
 40
91.44
 41
600.0
 46
0.0
 71
     7
 72
     1
  1
{\fＭＳ ゴシック|b0|i0|c128|p49;（洋室側）}
 73
     1
 44
1.0
  0
MTEXT
  5
591
330
1F
100
AcDbEntity
  8
0-A_文字
  6
Continuous
 62
     7
370
     9
100
AcDbMText
 10
1197.479168816036
 20
-1242.570172095167
 30
0.0
 40
91.44
 41
600.0
 46
0.0
 71
     7
 72
     1
  1
{\fＭＳ ゴシック|b0|i0|c128|p49;（和室側）}
 73
     1
 44
1.0
  0
LINE
  5
592
330
1F
100
AcDbEntity
  8
0-A_文字
  6
Continuous
 62
     7
370
     9
100
AcDbLine
 10
1646.372442378922
 20
-1997.058698946672
 30
0.0
 11
1705.440975937759
 21
-1997.058698946672
 31
0.0
  0
MTEXT
  5
593
330
1F
100
AcDbEntity
  8
0-A_文字
  6
Continuous
 62
     7
370
     0
100
AcDbMText
 10
1385.808412371894
 20
-2073.986112703433
 30
0.0
 40
91.44
 41
240.0
 46
0.0
 71
     7
 72
     1
  1
{\fＭＳ ゴシック|b0|i0|c128|p49;畳寄}
 73
     1
 44
1.0
  0
MTEXT
  5
594
330
1F
100
AcDbEntity
  8
0-A_文字
  6
Continuous
 62
     7
370
     0
100
AcDbMText
 10
2736.565395613458
 20
-1832.716822039886
 30
0.0
 40
91.44
 41
120.0
 46
0.0
 71
     7
 72
     1
  1
{\fＭＳ ゴシック|b0|i0|c128|p49;床}
 73
     1
 44
1.0
  0
LINE
  5
595
330
1F
100
AcDbEntity
  8
0-3_仕上げ
  6
Continuous
 62
   120
370
     5
100
AcDbLine
 10
2548.918254163525
 20
-2058.149289103761
 30
0.0
 11
3169.918254163523
 21
-2058.149289103761
 31
0.0
  0
LINE
  5
596
330
1F
100
AcDbEntity
  8
0-3_仕上げ
  6
Continuous
 62
   120
370
     5
100
AcDbLine
 10
2548.918254163525
 20
-1458.724354976009
 30
0.0
 11
3169.918254163523
 21
-1458.724354976009
 31
0.0
  0
LINE
  5
597
330
1F
100
AcDbEntity
  8
0-3_仕上げ
  6
Continuous
 62
   120
370
     5
100
AcDbLine
 10
2548.918254163525
 20
-1858.340977727845
 30
0.0
 11
3169.918254163523
 21
-1858.340977727845
 31
0.0
  0
LINE
  5
598
330
1F
100
AcDbEntity
  8
0-A_文字
  6
Continuous
 62
     7
370
     9
100
AcDbLine
 10
1831.918254163525
 20
-1902.20074027735
 30
0.0
 11
1705.440975937759
 21
-1997.058698946672
 31
0.0
  0
LINE
  5
599
330
1F
100
AcDbEntity
  8
0-3_仕上げ
  6
Continuous
 62
    40
370
    15
100
AcDbLine
 10
1780.918254163523
 20
-1116.439741305278
 30
0.0
 11
1780.918254163523
 21
-2118.149289103761
 31
0.0
  0
LINE
  5
59A
330
1F
100
AcDbEntity
  8
0-4_枠
  6
Continuous
 62
    92
370
    13
100
AcDbLine
 10
1870.918254163523
 20
-1336.182299376079
 30
0.0
 11
1870.918254163523
 21
-2118.149289103761
 31
0.0
  0
LINE
  5
59B
330
1F
100
AcDbEntity
  8
0-4_枠
  6
Continuous
 62
    92
370
    13
100
AcDbLine
 10
2548.918254163525
 20
-1336.182299376079
 30
0.0
 11
2548.918254163525
 21
-2118.149289103761
 31
0.0
  0
LINE
  5
59C
330
1F
100
AcDbEntity
  8
0-1_通り芯
  6
JWW_CENTER1
 62
   120
370
     5
100
AcDbLine
 10
2209.918254163524
 20
-1107.230008543285
 30
0.0
 11
2209.918254163524
 21
-2118.149289103761
 31
0.0
  0
LINE
  5
59D
330
1F
100
AcDbEntity
  8
0-3_仕上げ
  6
Continuous
 62
   120
370
     5
100
AcDbLine
 10
2548.918254163524
 20
-1258.91604360009
 30
0.0
 11
3169.918254163523
 21
-1258.91604360009
 31
0.0
  0
LINE
  5
59E
330
1F
100
AcDbEntity
  8
0-B_寸法
  6
Continuous
 62
   120
370
     5
100
AcDbLine
 10
1870.918254163523
 20
-1550.85435357304
 30
0.0
 11
2209.918254163524
 21
-1550.85435357304
 31
0.0
  0
LWPOLYLINE
  5
59F
330
1F
100
AcDbEntity
  8
0-B_寸法
  6
Continuous
 62
     7
370
     9
100
AcDbPolyline
 90
        4
 70
     1
 43
3.0
 10
1872.418254163523
 20
-1550.85435357304
 42
0.4142135623731
 10
1870.918254163523
 20
-1549.35435357304
 42
0.4142135623731
 10
1869.418254163523
 20
-1550.85435357304
 42
0.4142135623731
 10
1870.918254163523
 20
-1552.35435357304
 42
0.4142135623731
  0
LWPOLYLINE
  5
5A0
330
1F
100
AcDbEntity
  8
0-B_寸法
  6
Continuous
 62
     7
370
     9
100
AcDbPolyline
 90
        4
 70
     1
 43
3.0
 10
2211.418254163524
 20
-1550.85435357304
 42
0.4142135623731
 10
2209.918254163524
 20
-1549.35435357304
 42
0.4142135623731
 10
2208.418254163524
 20
-1550.85435357304
 42
0.4142135623731
 10
2209.918254163524
 20
-1552.35435357304
 42
0.4142135623731
  0
MTEXT
  5
5A1
330
1F
100
AcDbEntity
  8
0-B_寸法
  6
Continuous
 62
     7
370
   211
100
AcDbMText
 10
1909.168254163525
 20
-1545.84810357304
 30
0.0
 40
100.0125
 41
262.5
 46
0.0
 71
     7
 72
     1
  1
{\fＭＳ ゴシック|b0|i0|c128|p49;56.5}
 73
     1
 44
1.0
  0
LINE
  5
5A2
330
1F
100
AcDbEntity
  8
0-B_寸法
  6
Continuous
 62
   120
370
     5
100
AcDbLine
 10
2209.918254163524
 20
-1550.85435357304
 30
0.0
 11
2548.918254163525
 21
-1550.85435357304
 31
0.0
  0
LWPOLYLINE
  5
5A3
330
1F
100
AcDbEntity
  8
0-B_寸法
  6
Continuous
 62
     7
370
     9
100
AcDbPolyline
 90
        4
 70
     1
 43
3.0
 10
2550.418254163525
 20
-1550.85435357304
 42
0.4142135623731
 10
2548.918254163525
 20
-1549.35435357304
 42
0.4142135623731
 10
2547.418254163525
 20
-1550.85435357304
 42
0.4142135623731
 10
2548.918254163525
 20
-1552.35435357304
 42
0.4142135623731
  0
MTEXT
  5
5A4
330
1F
100
AcDbEntity
  8
0-B_寸法
  6
Continuous
 62
     7
370
   211
100
AcDbMText
 10
2248.168254163524
 20
-1545.84810357304
 30
0.0
 40
100.0125
 41
262.5
 46
0.0
 71
     7
 72
     1
  1
{\fＭＳ ゴシック|b0|i0|c128|p49;56.5}
 73
     1
 44
1.0
  0
LINE
  5
5A5
330
1F
100
AcDbEntity
  8
0-B_寸法
  6
Continuous
 62
   120
370
     5
100
AcDbLine
 10
1870.918254163523
 20
-1739.162206984823
 30
0.0
 11
2548.918254163525
 21
-1739.162206984823
 31
0.0
  0
LWPOLYLINE
  5
5A6
330
1F
100
AcDbEntity
  8
0-B_寸法
  6
Continuous
 62
     7
370
     9
100
AcDbPolyline
 90
        4
 70
     1
 43
3.0
 10
1872.418254163523
 20
-1739.162206984823
 42
0.4142135623731
 10
1870.918254163523
 20
-1737.662206984824
 42
0.4142135623731
 10
1869.418254163523
 20
-1739.162206984823
 42
0.4142135623731
 10
1870.918254163523
 20
-1740.662206984823
 42
0.4142135623731
  0
LWPOLYLINE
  5
5A7
330
1F
100
AcDbEntity
  8
0-B_寸法
  6
Continuous
 62
     7
370
     9
100
AcDbPolyline
 90
        4
 70
     1
 43
3.0
 10
2550.418254163525
 20
-1739.162206984823
 42
0.4142135623731
 10
2548.918254163525
 20
-1737.662206984824
 42
0.4142135623731
 10
2547.418254163525
 20
-1739.162206984823
 42
0.4142135623731
 10
2548.918254163525
 20
-1740.662206984823
 42
0.4142135623731
  0
MTEXT
  5
5A8
330
1F
100
AcDbEntity
  8
0-B_寸法
  6
Continuous
 62
     7
370
   211
100
AcDbMText
 10
2112.418254163524
 20
-1734.632206984823
 30
0.0
 40
99.06
 41
195.0
 46
0.0
 71
     7
 72
     1
  1
{\fＭＳ ゴシック|b0|i0|c128|p49;113}
 73
     1
 44
1.0
  0
LWPOLYLINE
  5
5A9
330
1F
100
AcDbEntity
  8
0-B_寸法
  6
Continuous
 62
     7
370
     9
100
AcDbPolyline
 90
        4
 70
     1
 43
3.0
 10
1872.418254163523
 20
-1550.85435357304
 42
0.4142135623731
 10
1870.918254163523
 20
-1549.35435357304
 42
0.4142135623731
 10
1869.418254163523
 20
-1550.85435357304
 42
0.4142135623731
 10
1870.918254163523
 20
-1552.35435357304
 42
0.4142135623731
  0
LINE
  5
5AA
330
1F
100
AcDbEntity
  8
0-B_寸法
  6
Continuous
 62
   120
370
     5
100
AcDbLine
 10
1870.918254163523
 20
-1550.85435357304
 30
0.0
 11
1870.918254163523
 21
-1421.738853261526
 31
0.0
  0
LWPOLYLINE
  5
5AB
330
1F
100
AcDbEntity
  8
0-B_寸法
  6
Continuous
 62
     7
370
     9
100
AcDbPolyline
 90
        4
 70
     1
 43
3.0
 10
2550.418254163525
 20
-1550.85435357304
 42
0.4142135623731
 10
2548.918254163525
 20
-1549.35435357304
 42
0.4142135623731
 10
2547.418254163525
 20
-1550.85435357304
 42
0.4142135623731
 10
2548.918254163525
 20
-1552.35435357304
 42
0.4142135623731
  0
LINE
  5
5AC
330
1F
100
AcDbEntity
  8
0-B_寸法
  6
Continuous
 62
   120
370
     5
100
AcDbLine
 10
2548.918254163525
 20
-1550.85435357304
 30
0.0
 11
2548.918254163525
 21
-1421.738853261526
 31
0.0
  0
MTEXT
  5
5AD
330
1F
100
AcDbEntity
  8
0-A_文字
  6
Continuous
 62
    92
370
    13
100
AcDbMText
 10
-5573.749495325863
 20
3758.93799395587
 30
0.0
 40
147.875625
 41
3105.0
 46
0.0
 71
     7
 72
     1
  1
{\fＭＳ ゴシック|b0|i0|c128|p49;引き違い戸　レールタイプ　調整枠}
 73
     1
 44
1.0
  0
LINE
  5
5AE
330
1F
100
AcDbEntity
  8
0-A_文字
  6
Continuous
 62
    92
370
    13
100
AcDbLine
 10
-5659.999495325863
 20
4000.00018145587
 30
0.0
 11
-2392.857142857143
 21
4000.00018145587
 31
0.0
  0
LINE
  5
5AF
330
1F
100
AcDbEntity
  8
0-A_文字
  6
Continuous
 62
    92
370
    13
100
AcDbLine
 10
-5659.999495325863
 20
3730.00018145587
 30
0.0
 11
-2392.857142857143
 21
3730.00018145587
 31
0.0
  0
LINE
  5
5B0
330
1F
100
AcDbEntity
  8
0-A_文字
  6
Continuous
 62
    92
370
    13
100
AcDbLine
 10
-2392.857142857143
 20
4000.00018145587
 30
0.0
 11
-2392.857142857143
 21
3730.00018145587
 31
0.0
  0
MTEXT
  5
5B1
330
1F
100
AcDbEntity
  8
F-A_文字
  6
Continuous
 62
     7
370
     0
100
AcDbMText
 10
-5080.081323642279
 20
-4045.214743770698
 30
0.0
 40
79.57038461538461
 41
2715.0
 46
0.0
 71
     7
 72
     1
  1
{\fＭＳ ゴシック|b0|i0|c128|p49;ドレタス　引き違い戸　レールタイプ　調整枠　幅広敷居}
 73
     1
 44
1.0
  0
LINE
  5
5B2
330
1F
100
AcDbEntity
  8
F-0_補助線
  6
JWW_HOJO
 62
     7
370
     9
100
AcDbLine
 10
1109.918584083287
 20
-3795.000003092998
 30
0.0
 11
1109.918584083287
 21
-4195.000008247994
 31
0.0
  0
LINE
  5
5B3
330
1F
100
AcDbEntity
  8
F-0_補助線
  6
JWW_HOJO
 62
     7
370
     9
100
AcDbLine
 10
4889.917891251784
 20
-3795.000003092998
 30
0.0
 11
4889.917891251784
 21
-4195.000008247994
 31
0.0
  0
MTEXT
  5
5B4
330
1F
100
AcDbEntity
  8
F-0_補助線
  6
Continuous
 62
     7
370
     0
100
AcDbMText
 10
1109.918584083287
 20
-3945.948259655243
 30
0.0
 40
78.105
 41
615.0
 46
0.0
 71
     7
 72
     1
  1
{\fＭＳ ゴシック|b0|i0|c128|p49;建具納まり図}
 73
     1
 44
1.0
  0
MTEXT
  5
5B5
330
1F
100
AcDbEntity
  8
F-0_補助線
  6
Continuous
 62
     7
370
     0
100
AcDbMText
 10
509.9185840832865
 20
-3945.709576962234
 30
0.0
 40
78.58125
 41
412.5
 46
0.0
 71
     7
 72
     1
  1
{\fＭＳ ゴシック|b0|i0|c128|p49;DOORETUS}
 73
     1
 44
1.0
  0
LINE
  5
5B6
330
1F
100
AcDbEntity
  8
0-6_扉
  6
JWW_DASHED2
 62
    40
370
    15
100
AcDbLine
 10
-2246.197741501334
 20
1967.962168973793
 30
0.0
 11
-2246.197741501334
 21
2147.962168664493
 31
0.0
  0
LINE
  5
5B7
330
1F
100
AcDbEntity
  8
0-6_扉
  6
JWW_DASHED2
 62
    40
370
    15
100
AcDbLine
 10
117.9725326340453
 20
1967.962168973793
 30
0.0
 11
117.9725326340453
 21
2147.962168973793
 31
0.0
  0
LINE
  5
5B8
330
1F
100
AcDbEntity
  8
0-6_扉
  6
JWW_DASHED2
 62
    40
370
    15
100
AcDbLine
 10
-2246.197741501334
 20
2147.962168973793
 30
0.0
 11
-1142.112604433642
 21
2147.962168973793
 31
0.0
  0
LINE
  5
5B9
330
1F
100
AcDbEntity
  8
0-6_扉
  6
JWW_DASHED2
 62
    40
370
    15
100
AcDbLine
 10
-2246.197741501334
 20
1967.962168973793
 30
0.0
 11
-1142.112604433642
 21
1967.962168973793
 31
0.0
  0
LINE
  5
5BA
330
1F
100
AcDbEntity
  8
0-6_扉
  6
JWW_DASHED2
 62
    40
370
    15
100
AcDbLine
 10
-1022.112604433642
 20
2147.962168973793
 30
0.0
 11
117.9725326340453
 21
2147.962168973793
 31
0.0
  0
LINE
  5
5BB
330
1F
100
AcDbEntity
  8
0-6_扉
  6
JWW_DASHED2
 62
    40
370
    15
100
AcDbLine
 10
-1022.112604433642
 20
1967.962168973793
 30
0.0
 11
117.9725326340453
 21
1967.962168973793
 31
0.0
  0
LINE
  5
5BC
330
1F
100
AcDbEntity
  8
0-1_通り芯
  6
JWW_CENTER1
 62
   120
370
     5
100
AcDbLine
 10
-2312.197741501333
 20
2285.962168973789
 30
0.0
 11
2332.034827187959
 21
2285.962168973789
 31
0.0
  0
LINE
  5
5BD
330
1F
100
AcDbEntity
  8
0-1_通り芯
  6
JWW_CENTER1
 62
   120
370
     5
100
AcDbLine
 10
-2312.197741501333
 20
2057.962168973793
 30
0.0
 11
2332.034827187959
 21
2057.962168973793
 31
0.0
  0
LINE
  5
5BE
330
1F
100
AcDbEntity
  8
0-B_寸法
  6
Continuous
 62
   120
370
     5
100
AcDbLine
 10
339.9725326340442
 20
2285.962168973789
 30
0.0
 11
339.9725326340442
 21
2171.962168973791
 31
0.0
  0
LWPOLYLINE
  5
5BF
330
1F
100
AcDbEntity
  8
0-B_寸法
  6
Continuous
 62
     7
370
     9
100
AcDbPolyline
 90
        4
 70
     1
 43
3.0
 10
341.4725326340442
 20
2285.962168973789
 42
0.4142135623731
 10
339.9725326340442
 20
2287.462168973789
 42
0.4142135623731
 10
338.4725326340442
 20
2285.962168973789
 42
0.4142135623731
 10
339.9725326340442
 20
2284.462168973789
 42
0.4142135623731
  0
LWPOLYLINE
  5
5C0
330
1F
100
AcDbEntity
  8
0-B_寸法
  6
Continuous
 62
     7
370
     9
100
AcDbPolyline
 90
        4
 70
     1
 43
3.0
 10
341.4725326340442
 20
2171.962168973791
 42
0.4142135623731
 10
339.9725326340442
 20
2173.462168973791
 42
0.4142135623731
 10
338.4725326340442
 20
2171.962168973791
 42
0.4142135623731
 10
339.9725326340442
 20
2170.462168973791
 42
0.4142135623731
  0
LINE
  5
5C1
330
1F
100
AcDbEntity
  8
0-B_寸法
  6
Continuous
 62
   120
370
     5
100
AcDbLine
 10
339.9725326340442
 20
2171.962168973791
 30
0.0
 11
339.9725326340442
 21
2057.962168973793
 31
0.0
  0
LWPOLYLINE
  5
5C2
330
1F
100
AcDbEntity
  8
0-B_寸法
  6
Continuous
 62
     7
370
     9
100
AcDbPolyline
 90
        4
 70
     1
 43
3.0
 10
341.4725326340442
 20
2057.962168973793
 42
0.4142135623731
 10
339.9725326340442
 20
2059.462168973793
 42
0.4142135623731
 10
338.4725326340442
 20
2057.962168973793
 42
0.4142135623731
 10
339.9725326340442
 20
2056.462168973793
 42
0.4142135623731
  0
LINE
  5
5C3
330
1F
100
AcDbEntity
  8
0-1_通り芯
  6
JWW_CENTER1
 62
   120
370
     5
100
AcDbLine
 10
-1703.197742054702
 20
-642.8487132713792
 30
0.0
 11
-1703.197742054702
 21
-3258.848713271374
 31
0.0
  0
LINE
  5
5C4
330
1F
100
AcDbEntity
  8
0-1_通り芯
  6
JWW_CENTER1
 62
   120
370
     5
100
AcDbLine
 10
-1475.197742054702
 20
-642.8487132713877
 30
0.0
 11
-1475.197742054702
 21
-3258.848713271374
 31
0.0
  0
LINE
  5
5C5
330
1F
100
AcDbEntity
  8
0-1_通り芯
  6
JWW_CENTER1
 62
   120
370
     5
100
AcDbLine
 10
-1589.19774150134
 20
-210.8487132713754
 30
0.0
 11
-1589.19774150134
 21
-3318.848713271374
 31
0.0
  0
LINE
  5
5C6
330
1F
100
AcDbEntity
  8
0-B_寸法
  6
JWW_CENTER1
 62
   120
370
     5
100
AcDbLine
 10
-1793.197741501346
 20
-1764.84884011995
 30
0.0
 11
-1385.197741501348
 21
-1764.84884011995
 31
0.0
  0
LINE
  5
5C7
330
1F
100
AcDbEntity
  8
0-B_寸法
  6
Continuous
 62
   120
370
     5
100
AcDbLine
 10
-1703.197742054702
 20
-1764.84884011995
 30
0.0
 11
-1589.19774150134
 21
-1764.84884011995
 31
0.0
  0
LWPOLYLINE
  5
5C8
330
1F
100
AcDbEntity
  8
0-B_寸法
  6
Continuous
 62
     7
370
     9
100
AcDbPolyline
 90
        4
 70
     1
 43
3.0
 10
-1701.697742054702
 20
-1764.84884011995
 42
0.4142135623731
 10
-1703.197742054702
 20
-1763.34884011995
 42
0.4142135623731
 10
-1704.697742054702
 20
-1764.84884011995
 42
0.4142135623731
 10
-1703.197742054702
 20
-1766.34884011995
 42
0.4142135623731
  0
LWPOLYLINE
  5
5C9
330
1F
100
AcDbEntity
  8
0-B_寸法
  6
Continuous
 62
     7
370
     9
100
AcDbPolyline
 90
        4
 70
     1
 43
3.0
 10
-1587.69774150134
 20
-1764.84884011995
 42
0.4142135623731
 10
-1589.19774150134
 20
-1763.34884011995
 42
0.4142135623731
 10
-1590.69774150134
 20
-1764.84884011995
 42
0.4142135623731
 10
-1589.19774150134
 20
-1766.34884011995
 42
0.4142135623731
  0
LINE
  5
5CA
330
1F
100
AcDbEntity
  8
0-B_寸法
  6
Continuous
 62
   120
370
     5
100
AcDbLine
 10
-1589.19774150134
 20
-1764.84884011995
 30
0.0
 11
-1475.197742054702
 21
-1764.84884011995
 31
0.0
  0
LWPOLYLINE
  5
5CB
330
1F
100
AcDbEntity
  8
0-B_寸法
  6
Continuous
 62
     7
370
     9
100
AcDbPolyline
 90
        4
 70
     1
 43
3.0
 10
-1473.697742054702
 20
-1764.84884011995
 42
0.4142135623731
 10
-1475.197742054702
 20
-1763.34884011995
 42
0.4142135623731
 10
-1476.697742054702
 20
-1764.84884011995
 42
0.4142135623731
 10
-1475.197742054702
 20
-1766.34884011995
 42
0.4142135623731
  0
MTEXT
  5
5CC
330
1F
100
AcDbEntity
  8
F-A_文字
  6
Continuous
 62
     7
370
     0
100
AcDbMText
 10
4889.917891251784
 20
-3945.570773120548
 30
0.0
 40
78.86699999999999
 41
517.5
 46
0.0
 71
     7
 72
     1
  1
{\fＭＳ ゴシック|b0|i0|c128|p49;2022.04.01}
 73
     1
 44
1.0
  0
MTEXT
  5
5CD
330
1F
100
AcDbEntity
  8
0-B_寸法
  6
Continuous
 62
     7
370
   211
100
AcDbMText
 10
-2498.98454527442
 20
2753.973310787092
 30
0.0
 40
91.44
 41
60.0
 46
0.0
 71
     7
 72
     1
  1
{\fＭＳ ゴシック|b0|i0|c128|p49;5}
 73
     1
 44
1.0
  0
MTEXT
  5
5CE
330
1F
100
AcDbEntity
  8
0-B_寸法
  6
Continuous
 62
     7
370
   211
100
AcDbMText
 10
-2304.060085199128
 20
2895.539668973791
 30
0.0
 40
97.15499999999999
 41
127.5
 46
0.0
 71
     7
 72
     1
  1
{\fＭＳ ゴシック|b0|i0|c128|p49;10}
 73
     1
 44
1.0
  0
LINE
  5
5CF
330
1F
100
AcDbEntity
  8
0-6_扉
  6
Continuous
 62
   200
370
    20
100
AcDbLine
 10
-2264.197741501335
 20
2195.962169128439
 30
0.0
 11
-1142.112604433646
 21
2195.962169128439
 31
0.0
  0
MTEXT
  5
5D0
330
1F
100
AcDbEntity
  8
0-B_寸法
  6
Continuous
 62
     7
370
     0
100
AcDbMText
 10
-1962.799671181933
 20
1971.874833564493
 30
0.0
 40
99.06
 41
195.0
 46
0.0
 71
     7
 72
     1
  1
{\fＭＳ ゴシック|b0|i0|c128|p49;113}
 11
6.123031769111886E-17
 21
1.0
 31
0.0
 73
     1
 44
1.0
  0
MTEXT
  5
5D1
330
1F
100
AcDbEntity
  8
0-B_寸法
  6
Continuous
 62
     7
370
   211
100
AcDbMText
 10
324.9725326340442
 20
2210.789668973789
 30
0.0
 40
97.15499999999999
 41
127.5
 46
0.0
 71
     7
 72
     1
  1
{\fＭＳ ゴシック|b0|i0|c128|p49;19}
 11
6.123031769111886E-17
 21
1.0
 31
0.0
 73
     1
 44
1.0
  0
MTEXT
  5
5D2
330
1F
100
AcDbEntity
  8
0-B_寸法
  6
Continuous
 62
     7
370
   211
100
AcDbMText
 10
324.9725326340442
 20
1982.789668973793
 30
0.0
 40
97.15499999999999
 41
127.5
 46
0.0
 71
     7
 72
     1
  1
{\fＭＳ ゴシック|b0|i0|c128|p49;19}
 11
6.123031769111886E-17
 21
1.0
 31
0.0
 73
     1
 44
1.0
  0
LINE
  5
5D3
330
1F
100
AcDbEntity
  8
0-B_寸法
  6
Continuous
 62
   120
370
     5
100
AcDbLine
 10
-594.6841287116231
 20
2069.673290518194
 30
0.0
 11
-594.6841287116231
 21
2135.933227659995
 31
0.0
  0
LINE
  5
5D4
330
1F
100
AcDbEntity
  8
0-B_寸法
  6
Continuous
 62
   120
370
     5
100
AcDbLine
 10
-393.9492575536812
 20
2171.960684489505
 30
0.0
 11
-594.6841287116231
 21
2135.933227659995
 31
0.0
  0
MTEXT
  5
5D5
330
1F
100
AcDbEntity
  8
0-B_寸法
  6
Continuous
 62
     7
370
   211
100
AcDbMText
 10
-594.6841287116231
 20
2054.382013017732
 30
0.0
 40
91.44
 41
60.0
 46
0.0
 71
     7
 72
     1
  1
{\fＭＳ ゴシック|b0|i0|c128|p49;8}
 11
6.123031769111886E-17
 21
1.0
 31
0.0
 73
     1
 44
1.0
  0
LINE
  5
5D6
330
1F
100
AcDbEntity
  8
0-6_扉
  6
Continuous
 62
   200
370
    20
100
AcDbLine
 10
-1613.197741501346
 20
-822.8487129867958
 30
0.0
 11
-1613.197741501346
 21
-1884.848713271375
 31
0.0
  0
LINE
  5
5D7
330
1F
100
AcDbEntity
  8
0-6_扉
  6
Continuous
 62
   200
370
    20
100
AcDbLine
 10
-1565.197741501348
 20
-822.8487129867958
 30
0.0
 11
-1565.197741501348
 21
-1884.848713271375
 31
0.0
  0
MTEXT
  5
5D8
330
1F
100
AcDbEntity
  8
0-B_寸法
  6
Continuous
 62
     7
370
     0
100
AcDbMText
 10
-1770.31938363954
 20
-1273.953709612477
 30
0.0
 40
91.44
 41
180.0
 46
0.0
 71
     7
 72
     1
  1
{\fＭＳ ゴシック|b0|i0|c128|p49;110}
 73
     1
 44
1.0
  0
MTEXT
  5
5D9
330
1F
100
AcDbEntity
  8
0-B_寸法
  6
Continuous
 62
     7
370
   211
100
AcDbMText
 10
-1766.947742054702
 20
-1761.27134011995
 30
0.0
 40
97.15499999999999
 41
127.5
 46
0.0
 71
     7
 72
     1
  1
{\fＭＳ ゴシック|b0|i0|c128|p49;19}
 73
     1
 44
1.0
  0
MTEXT
  5
5DA
330
1F
100
AcDbEntity
  8
0-B_寸法
  6
Continuous
 62
     7
370
   211
100
AcDbMText
 10
-1538.947742054702
 20
-1761.27134011995
 30
0.0
 40
97.15499999999999
 41
127.5
 46
0.0
 71
     7
 72
     1
  1
{\fＭＳ ゴシック|b0|i0|c128|p49;19}
 73
     1
 44
1.0
  0
MTEXT
  5
5DB
330
1F
100
AcDbEntity
  8
0-B_寸法
  6
Continuous
 62
     7
370
   211
100
AcDbMText
 10
-1535.197741501348
 20
-1554.12884011995
 30
0.0
 40
91.44
 41
120.0
 46
0.0
 71
     7
 72
     1
  1
{\fＭＳ ゴシック|b0|i0|c128|p49;30}
 73
     1
 44
1.0
  0
LWPOLYLINE
  5
5DC
330
1F
100
AcDbEntity
  8
0-B_寸法
  6
Continuous
 62
     7
370
     9
100
AcDbPolyline
 90
        4
 70
     1
 43
3.0
 10
-1383.697741501349
 20
-1554.84884011995
 42
0.4142135623731
 10
-1385.197741501348
 20
-1553.34884011995
 42
0.4142135623731
 10
-1386.697741501348
 20
-1554.84884011995
 42
0.4142135623731
 10
-1385.197741501348
 20
-1556.34884011995
 42
0.4142135623731
  0
LWPOLYLINE
  5
5DD
330
1F
100
AcDbEntity
  8
0-B_寸法
  6
Continuous
 62
     7
370
     9
100
AcDbPolyline
 90
        4
 70
     1
 43
3.0
 10
-1563.697741501349
 20
-1554.84884011995
 42
0.4142135623731
 10
-1565.197741501348
 20
-1553.34884011995
 42
0.4142135623731
 10
-1566.697741501348
 20
-1554.84884011995
 42
0.4142135623731
 10
-1565.197741501348
 20
-1556.34884011995
 42
0.4142135623731
  0
MTEXT
  5
5DE
330
1F
100
AcDbEntity
  8
0-B_寸法
  6
Continuous
 62
     7
370
   211
100
AcDbMText
 10
-1763.197741501346
 20
-1554.12884011995
 30
0.0
 40
91.44
 41
120.0
 46
0.0
 71
     7
 72
     1
  1
{\fＭＳ ゴシック|b0|i0|c128|p49;30}
 73
     1
 44
1.0
  0
LWPOLYLINE
  5
5DF
330
1F
100
AcDbEntity
  8
0-B_寸法
  6
Continuous
 62
     7
370
     9
100
AcDbPolyline
 90
        4
 70
     1
 43
3.0
 10
-1611.697741501346
 20
-1554.84884011995
 42
0.4142135623731
 10
-1613.197741501346
 20
-1553.34884011995
 42
0.4142135623731
 10
-1614.697741501346
 20
-1554.84884011995
 42
0.4142135623731
 10
-1613.197741501346
 20
-1556.34884011995
 42
0.4142135623731
  0
LWPOLYLINE
  5
5E0
330
1F
100
AcDbEntity
  8
0-B_寸法
  6
Continuous
 62
     7
370
     9
100
AcDbPolyline
 90
        4
 70
     1
 43
3.0
 10
-1791.697741501346
 20
-1554.84884011995
 42
0.4142135623731
 10
-1793.197741501346
 20
-1553.34884011995
 42
0.4142135623731
 10
-1794.697741501346
 20
-1554.84884011995
 42
0.4142135623731
 10
-1793.197741501346
 20
-1556.34884011995
 42
0.4142135623731
  0
LINE
  5
5E1
330
1F
100
AcDbEntity
  8
0-B_寸法
  6
Continuous
 62
   120
370
     5
100
AcDbLine
 10
-1793.197741501346
 20
-1554.84884011995
 30
0.0
 11
-1385.197741501348
 21
-1554.84884011995
 31
0.0
  0
LINE
  5
5E2
330
1F
100
AcDbEntity
  8
0-B_寸法
  6
Continuous
 62
   120
370
     5
100
AcDbLine
 10
-1589.19774150134
 20
-1554.84884011995
 30
0.0
 11
-1550.703661597923
 21
-1412.035638342076
 31
0.0
  0
LINE
  5
5E3
330
1F
100
AcDbEntity
  8
0-B_寸法
  6
Continuous
 62
   120
370
     5
100
AcDbLine
 10
-1550.703661597923
 20
-1412.035638342076
 30
0.0
 11
-1487.76886014419
 21
-1412.035638342076
 31
0.0
  0
MTEXT
  5
5E4
330
1F
100
AcDbEntity
  8
0-B_寸法
  6
Continuous
 62
     7
370
   211
100
AcDbMText
 10
-1549.236260871057
 20
-1426.315638342076
 30
0.0
 40
91.44
 41
60.0
 46
0.0
 71
     7
 72
     1
  1
{\fＭＳ ゴシック|b0|i0|c128|p49;8}
 73
     1
 44
1.0
  0
ENDSEC
  0
SECTION
  2
OBJECTS
  0
DICTIONARY
  5
C
330
0
100
AcDbDictionary
281
     1
  3
ACAD_GROUP
350
D
  3
ACAD_LAYOUT
350
1A
  3
ACAD_MATERIAL
350
3B
  3
ACAD_MLEADERSTYLE
350
5E6
  3
ACAD_MLINESTYLE
350
17
  3
ACAD_PLOTSETTINGS
350
19
  3
ACAD_PLOTSTYLENAME
350
E
  3
ACAD_TABLESTYLE
350
5E5
  3
ACAD_VISUALSTYLE
350
2A
  0
DICTIONARY
  5
D
102
{ACAD_REACTORS
330
C
102
}
330
C
100
AcDbDictionary
281
     1
  0
DICTIONARY
  5
1A
102
{ACAD_REACTORS
330
C
102
}
330
C
100
AcDbDictionary
281
     1
  3
Layout1
350
1E
  3
Layout2
350
26
  3
Model
350
22
  0
DICTIONARY
  5
3B
102
{ACAD_REACTORS
330
C
102
}
330
C
100
AcDbDictionary
281
     1
  3
ByBlock
350
3D
  3
ByLayer
350
3C
  3
Global
350
3E
  0
DICTIONARY
  5
5E6
102
{ACAD_REACTORS
330
C
102
}
330
C
100
AcDbDictionary
281
     1
  0
DICTIONARY
  5
17
102
{ACAD_REACTORS
330
C
102
}
330
C
100
AcDbDictionary
281
     1
  3
Standard
350
18
  0
DICTIONARY
  5
19
102
{ACAD_REACTORS
330
C
102
}
330
C
100
AcDbDictionary
281
     1
  0
ACDBDICTIONARYWDFLT
  5
E
102
{ACAD_REACTORS
330
C
102
}
330
C
100
AcDbDictionary
281
     1
  3
Normal
350
F
100
AcDbDictionaryWithDefault
340
F
  0
DICTIONARY
  5
5E5
102
{ACAD_REACTORS
330
C
102
}
330
C
100
AcDbDictionary
281
     1
  0
DICTIONARY
  5
2A
102
{ACAD_REACTORS
330
C
102
}
330
C
100
AcDbDictionary
281
     1
  3
2dWireframe
350
2F
  3
3D Hidden
350
31
  3
3dWireframe
350
30
  3
Basic
350
32
  3
Brighten
350
36
  3
ColorChange
350
3A
  3
Conceptual
350
34
  3
Dim
350
35
  3
Facepattern
350
39
  3
Flat
350
2B
  3
FlatWithEdges
350
2C
  3
Gouraud
350
2D
  3
GouraudWithEdges
350
2E
  3
Linepattern
350
38
  3
Realistic
350
33
  3
Thicken
350
37
  0
LAYOUT
  5
1E
102
{ACAD_REACTORS
330
1A
102
}
330
1A
100
AcDbPlotSettings
  1

  2
none_device
  4

  6

 40
0.0
 41
0.0
 42
0.0
 43
0.0
 44
0.0
 45
0.0
 46
0.0
 47
0.0
 48
0.0
 49
0.0
140
0.0
141
0.0
142
1.0
143
1.0
 70
   688
 72
     0
 73
     0
 74
     5
  7

 75
    16
 76
     0
 77
     5
 78
   300
147
1.0
148
0.0
149
0.0
100
AcDbLayout
  1
Layout1
 70
     1
 71
     1
 10
0.0
 20
0.0
 11
420.0
 21
297.0
 12
0.0
 22
0.0
 32
0.0
 14
1.000000000000000E+20
 24
1.000000000000000E+20
 34
1.000000000000000E+20
 15
-1.000000000000000E+20
 25
-1.000000000000000E+20
 35
-1.000000000000000E+20
146
0.0
 13
0.0
 23
0.0
 33
0.0
 16
1.0
 26
0.0
 36
0.0
 17
0.0
 27
1.0
 37
0.0
 76
     0
330
1B
  0
LAYOUT
  5
26
102
{ACAD_REACTORS
330
1A
102
}
330
1A
100
AcDbPlotSettings
  1

  2
none_device
  4

  6

 40
0.0
 41
0.0
 42
0.0
 43
0.0
 44
0.0
 45
0.0
 46
0.0
 47
0.0
 48
0.0
 49
0.0
140
0.0
141
0.0
142
1.0
143
1.0
 70
   688
 72
     0
 73
     0
 74
     5
  7

 75
    16
 76
     0
 77
     5
 78
   300
147
1.0
148
0.0
149
0.0
100
AcDbLayout
  1
Layout2
 70
     1
 71
     2
 10
0.0
 20
0.0
 11
0.0
 21
0.0
 12
0.0
 22
0.0
 32
0.0
 14
0.0
 24
0.0
 34
0.0
 15
0.0
 25
0.0
 35
0.0
146
0.0
 13
0.0
 23
0.0
 33
0.0
 16
1.0
 26
0.0
 36
0.0
 17
0.0
 27
1.0
 37
0.0
 76
     0
330
23
  0
LAYOUT
  5
22
102
{ACAD_REACTORS
330
1A
102
}
330
1A
100
AcDbPlotSettings
  1

  2
none_device
  4

  6

 40
0.0
 41
0.0
 42
0.0
 43
0.0
 44
0.0
 45
0.0
 46
0.0
 47
0.0
 48
0.0
 49
0.0
140
0.0
141
0.0
142
1.0
143
1.0
 70
  1712
 72
     0
 73
     0
 74
     0
  7

 75
     0
 76
     0
 77
     5
 78
   300
147
1.0
148
0.0
149
0.0
100
AcDbLayout
  1
Model
 70
     1
 71
     0
 10
-8910.0
 20
-6300.0
 11
8910.0
 21
6300.0
 12
0.0
 22
0.0
 32
0.0
 14
-8910.0
 24
-6300.0
 34
0.0
 15
8910.0
 25
6300.0
 35
0.0
146
0.0
 13
0.0
 23
0.0
 33
0.0
 16
1.0
 26
0.0
 36
0.0
 17
0.0
 27
1.0
 37
0.0
 76
     0
330
1F
331
29
  0
MATERIAL
  5
3D
102
{ACAD_REACTORS
330
3B
102
}
330
3B
100
AcDbMaterial
  1
ByBlock
 72
     1
 94
      127
  0
MATERIAL
  5
3C
102
{ACAD_REACTORS
330
3B
102
}
330
3B
100
AcDbMaterial
  1
ByLayer
 72
     1
 94
      127
  0
MATERIAL
  5
3E
102
{ACAD_REACTORS
330
3B
102
}
330
3B
100
AcDbMaterial
  1
Global
 72
     1
 94
      127
  0
MLINESTYLE
  5
18
102
{ACAD_REACTORS
330
17
102
}
330
17
100
AcDbMlineStyle
  2
Standard
 70
     0
  3

 62
   256
 51
90.0
 52
90.0
 71
     2
 49
0.5
 62
   256
  6
BYLAYER
 49
-0.5
 62
   256
  6
BYLAYER
  0
ACDBPLACEHOLDER
  5
F
102
{ACAD_REACTORS
330
E
102
}
330
E
  0
VISUALSTYLE
  5
2F
102
{ACAD_REACTORS
330
2A
102
}
330
2A
100
AcDbVisualStyle
  2
2dWireframe
 70
     4
177
     2
291
     0
 71
     0
176
     1
 72
     2
176
     1
 73
     0
176
     1
 90
        0
176
     1
 40
-0.6
176
     1
 41
-30.0
176
     1
 62
     5
 63
     7
421
 16777215
176
     1
 74
     1
176
     1
 91
        4
176
     1
 64
     7
176
     1
 65
   257
176
     1
 75
     1
176
     1
175
     1
176
     1
 42
1.0
176
     1
 92
        0
176
     1
 66
   257
176
     1
 43
1.0
176
     1
 76
     1
176
     1
 77
     6
176
     1
 78
     2
176
     1
 67
     7
176
     1
 79
     5
176
     1
170
     0
176
     1
171
     0
176
     1
290
     0
176
     1
 93
        1
176
     1
 44
0.0
176
     1
173
     0
176
     1
  0
VISUALSTYLE
  5
31
102
{ACAD_REACTORS
330
2A
102
}
330
2A
100
AcDbVisualStyle
  2
3D Hidden
 70
     6
177
     2
291
     0
 71
     1
176
     1
 72
     2
176
     1
 73
     2
176
     1
 90
        0
176
     1
 40
-0.6
176
     1
 41
-30.0
176
     1
 62
     5
 63
     7
421
 16777215
176
     1
 74
     2
176
     1
 91
        2
176
     1
 64
     7
176
     1
 65
   257
176
     1
 75
     2
176
     1
175
     1
176
     1
 42
40.0
176
     1
 92
        0
176
     1
 66
   257
176
     1
 43
1.0
176
     1
 76
     1
176
     1
 77
     6
176
     1
 78
     2
176
     1
 67
     7
176
     1
 79
     3
176
     1
170
     0
176
     1
171
     0
176
     1
290
     0
176
     1
 93
        1
176
     1
 44
0.0
176
     1
173
     0
176
     1
  0
VISUALSTYLE
  5
30
102
{ACAD_REACTORS
330
2A
102
}
330
2A
100
AcDbVisualStyle
  2
3dWireframe
 70
     5
177
     2
291
     0
 71
     0
176
     1
 72
     2
176
     1
 73
     0
176
     1
 90
        0
176
     1
 40
-0.6
176
     1
 41
-30.0
176
     1
 62
     5
 63
     7
421
 16777215
176
     1
 74
     1
176
     1
 91
        4
176
     1
 64
     7
176
     1
 65
   257
176
     1
 75
     1
176
     1
175
     1
176
     1
 42
1.0
176
     1
 92
        0
176
     1
 66
   257
176
     1
 43
1.0
176
     1
 76
     1
176
     1
 77
     6
176
     1
 78
     2
176
     1
 67
     7
176
     1
 79
     5
176
     1
170
     0
176
     1
171
     0
176
     1
290
     0
176
     1
 93
        1
176
     1
 44
0.0
176
     1
173
     0
176
     1
  0
VISUALSTYLE
  5
32
102
{ACAD_REACTORS
330
2A
102
}
330
2A
100
AcDbVisualStyle
  2
Basic
 70
     7
177
     2
291
     1
 71
     1
176
     1
 72
     0
176
     1
 73
     1
176
     1
 90
        0
176
     1
 40
-0.6
176
     1
 41
-30.0
176
     1
 62
     5
 63
     7
421
 16777215
176
     1
 74
     0
176
     1
 91
        4
176
     1
 64
     7
176
     1
 65
   257
176
     1
 75
     1
176
     1
175
     1
176
     1
 42
1.0
176
     1
 92
        8
176
     1
 66
     7
176
     1
 43
1.0
176
     1
 76
     1
176
     1
 77
     6
176
     1
 78
     2
176
     1
 67
     7
176
     1
 79
     5
176
     1
170
     0
176
     1
171
     0
176
     1
290
     0
176
     1
 93
        1
176
     1
 44
0.0
176
     1
173
     0
176
     1
  0
VISUALSTYLE
  5
36
102
{ACAD_REACTORS
330
2A
102
}
330
2A
100
AcDbVisualStyle
  2
Brighten
 70
    12
177
     2
291
     1
 71
     2
176
     1
 72
     2
176
     1
 73
     0
176
     1
 90
        0
176
     1
 40
-0.6
176
     1
 41
-30.0
176
     1
 62
     5
 63
     7
421
 16777215
176
     1
 74
     1
176
     1
 91
        4
176
     1
 64
     7
176
     1
 65
   257
176
     1
 75
     1
176
     1
175
     1
176
     1
 42
1.0
176
     1
 92
        8
176
     1
 66
     7
176
     1
 43
1.0
176
     1
 76
     1
176
     1
 77
     6
176
     1
 78
     2
176
     1
 67
     7
176
     1
 79
     5
176
     1
170
     0
176
     1
171
     0
176
     1
290
     0
176
     1
 93
        1
176
     1
 44
50.0
176
     1
173
     0
176
     1
  0
VISUALSTYLE
  5
3A
102
{ACAD_REACTORS
330
2A
102
}
330
2A
100
AcDbVisualStyle
  2
ColorChange
 70
    16
177
     2
291
     1
 71
     2
176
     1
 72
     2
176
     1
 73
     3
176
     1
 90
        0
176
     1
 40
-0.6
176
     1
 41
-30.0
176
     1
 62
     5
 63
     8
421
  8421504
176
     1
 74
     1
176
     1
 91
        4
176
     1
 64
     7
176
     1
 65
   257
176
     1
 75
     1
176
     1
175
     1
176
     1
 42
1.0
176
     1
 92
        8
176
     1
 66
     8
424
  8421504
176
     1
 43
1.0
176
     1
 76
     1
176
     1
 77
     6
176
     1
 78
     2
176
     1
 67
     7
176
     1
 79
     5
176
     1
170
     0
176
     1
171
     0
176
     1
290
     0
176
     1
 93
        1
176
     1
 44
0.0
176
     1
173
     0
176
     1
  0
VISUALSTYLE
  5
34
102
{ACAD_REACTORS
330
2A
102
}
330
2A
100
AcDbVisualStyle
  2
Conceptual
 70
     9
177
     2
291
     0
 71
     3
176
     1
 72
     2
176
     1
 73
     0
176
     1
 90
        0
176
     1
 40
-0.6
176
     1
 41
-30.0
176
     1
 62
     5
 63
     7
421
 16777215
176
     1
 74
     2
176
     1
 91
        2
176
     1
 64
     7
176
     1
 65
   257
176
     1
 75
     1
176
     1
175
     1
176
     1
 42
40.0
176
     1
 92
        8
176
     1
 66
     7
176
     1
 43
1.0
176
     1
 76
     1
176
     1
 77
     6
176
     1
 78
     2
176
     1
 67
     7
176
     1
 79
     3
176
     1
170
     0
176
     1
171
     0
176
     1
290
     0
176
     1
 93
        1
176
     1
 44
0.0
176
     1
173
     0
176
     1
  0
VISUALSTYLE
  5
35
102
{ACAD_REACTORS
330
2A
102
}
330
2A
100
AcDbVisualStyle
  2
Dim
 70
    11
177
     2
291
     1
 71
     2
176
     1
 72
     2
176
     1
 73
     0
176
     1
 90
        0
176
     1
 40
-0.6
176
     1
 41
-30.0
176
     1
 62
     5
 63
     7
421
 16777215
176
     1
 74
     1
176
     1
 91
        4
176
     1
 64
     7
176
     1
 65
   257
176
     1
 75
     1
176
     1
175
     1
176
     1
 42
1.0
176
     1
 92
        8
176
     1
 66
     7
176
     1
 43
1.0
176
     1
 76
     1
176
     1
 77
     6
176
     1
 78
     2
176
     1
 67
     7
176
     1
 79
     5
176
     1
170
     0
176
     1
171
     0
176
     1
290
     0
176
     1
 93
        1
176
     1
 44
-50.0
176
     1
173
     0
176
     1
  0
VISUALSTYLE
  5
39
102
{ACAD_REACTORS
330
2A
102
}
330
2A
100
AcDbVisualStyle
  2
Facepattern
 70
    15
177
     2
291
     1
 71
     2
176
     1
 72
     2
176
     1
 73
     0
176
     1
 90
        0
176
     1
 40
-0.6
176
     1
 41
-30.0
176
     1
 62
     5
 63
     7
421
 16777215
176
     1
 74
     1
176
     1
 91
        4
176
     1
 64
     7
176
     1
 65
   257
176
     1
 75
     1
176
     1
175
     1
176
     1
 42
1.0
176
     1
 92
        8
176
     1
 66
     7
176
     1
 43
1.0
176
     1
 76
     1
176
     1
 77
     6
176
     1
 78
     2
176
     1
 67
     7
176
     1
 79
     5
176
     1
170
     0
176
     1
171
     0
176
     1
290
     0
176
     1
 93
        1
176
     1
 44
0.0
176
     1
173
     0
176
     1
  0
VISUALSTYLE
  5
2B
102
{ACAD_REACTORS
330
2A
102
}
330
2A
100
AcDbVisualStyle
  2
Flat
 70
     0
177
     2
291
     1
 71
     2
176
     1
 72
     1
176
     1
 73
     1
176
     1
 90
        2
176
     1
 40
-0.6
176
     1
 41
30.0
176
     1
 62
     5
 63
     7
421
 16777215
176
     1
 74
     0
176
     1
 91
        4
176
     1
 64
     7
176
     1
 65
   257
176
     1
 75
     1
176
     1
175
     1
176
     1
 42
1.0
176
     1
 92
        8
176
     1
 66
     7
176
     1
 43
1.0
176
     1
 76
     1
176
     1
 77
     6
176
     1
 78
     2
176
     1
 67
     7
176
     1
 79
     5
176
     1
170
     0
176
     1
171
     0
176
     1
290
     0
176
     1
 93
       13
176
     1
 44
0.0
176
     1
173
     0
176
     1
  0
VISUALSTYLE
  5
2C
102
{ACAD_REACTORS
330
2A
102
}
330
2A
100
AcDbVisualStyle
  2
FlatWithEdges
 70
     1
177
     2
291
     1
 71
     2
176
     1
 72
     1
176
     1
 73
     1
176
     1
 90
        2
176
     1
 40
-0.6
176
     1
 41
30.0
176
     1
 62
     5
 63
     7
421
 16777215
176
     1
 74
     1
176
     1
 91
        4
176
     1
 64
     7
176
     1
 65
   257
176
     1
 75
     1
176
     1
175
     1
176
     1
 42
1.0
176
     1
 92
        0
176
     1
 66
   257
176
     1
 43
1.0
176
     1
 76
     1
176
     1
 77
     6
176
     1
 78
     2
176
     1
 67
     7
176
     1
 79
     5
176
     1
170
     0
176
     1
171
     0
176
     1
290
     0
176
     1
 93
       13
176
     1
 44
0.0
176
     1
173
     0
176
     1
  0
VISUALSTYLE
  5
2D
102
{ACAD_REACTORS
330
2A
102
}
330
2A
100
AcDbVisualStyle
  2
Gouraud
 70
     2
177
     2
291
     1
 71
     2
176
     1
 72
     2
176
     1
 73
     1
176
     1
 90
        2
176
     1
 40
-0.6
176
     1
 41
30.0
176
     1
 62
     5
 63
     7
421
 16777215
176
     1
 74
     0
176
     1
 91
        4
176
     1
 64
     7
176
     1
 65
   257
176
     1
 75
     1
176
     1
175
     1
176
     1
 42
1.0
176
     1
 92
        0
176
     1
 66
     7
176
     1
 43
1.0
176
     1
 76
     1
176
     1
 77
     6
176
     1
 78
     2
176
     1
 67
     7
176
     1
 79
     5
176
     1
170
     0
176
     1
171
     0
176
     1
290
     0
176
     1
 93
       13
176
     1
 44
0.0
176
     1
173
     0
176
     1
  0
VISUALSTYLE
  5
2E
102
{ACAD_REACTORS
330
2A
102
}
330
2A
100
AcDbVisualStyle
  2
GouraudWithEdges
 70
     3
177
     2
291
     1
 71
     2
176
     1
 72
     2
176
     1
 73
     1
176
     1
 90
        2
176
     1
 40
-0.6
176
     1
 41
30.0
176
     1
 62
     5
 63
     7
421
 16777215
176
     1
 74
     1
176
     1
 91
        4
176
     1
 64
     7
176
     1
 65
   257
176
     1
 75
     1
176
     1
175
     1
176
     1
 42
1.0
176
     1
 92
        0
176
     1
 66
   257
176
     1
 43
1.0
176
     1
 76
     1
176
     1
 77
     6
176
     1
 78
     2
176
     1
 67
     7
176
     1
 79
     5
176
     1
170
     0
176
     1
171
     0
176
     1
290
     0
176
     1
 93
       13
176
     1
 44
0.0
176
     1
173
     0
176
     1
  0
VISUALSTYLE
  5
38
102
{ACAD_REACTORS
330
2A
102
}
330
2A
100
AcDbVisualStyle
  2
Linepattern
 70
    14
177
     2
291
     1
 71
     2
176
     1
 72
     2
176
     1
 73
     0
176
     1
 90
        0
176
     1
 40
-0.6
176
     1
 41
-30.0
176
     1
 62
     5
 63
     7
421
 16777215
176
     1
 74
     1
176
     1
 91
        4
176
     1
 64
     7
176
     1
 65
   257
176
     1
 75
     7
176
     1
175
     7
176
     1
 42
1.0
176
     1
 92
        8
176
     1
 66
     7
176
     1
 43
1.0
176
     1
 76
     1
176
     1
 77
     6
176
     1
 78
     2
176
     1
 67
     7
176
     1
 79
     5
176
     1
170
     0
176
     1
171
     0
176
     1
290
     0
176
     1
 93
        1
176
     1
 44
0.0
176
     1
173
     0
176
     1
  0
VISUALSTYLE
  5
33
102
{ACAD_REACTORS
330
2A
102
}
330
2A
100
AcDbVisualStyle
  2
Realistic
 70
     8
177
     2
291
     0
 71
     2
176
     1
 72
     2
176
     1
 73
     0
176
     1
 90
        0
176
     1
 40
-0.6
176
     1
 41
-30.0
176
     1
 62
     5
 63
     7
421
 16777215
176
     1
 74
     1
176
     1
 91
        0
176
     1
 64
     7
176
     1
 65
   257
176
     1
 75
     1
176
     1
175
     1
176
     1
 42
1.0
176
     1
 92
        8
176
     1
 66
     8
424
  7895160
176
     1
 43
1.0
176
     1
 76
     1
176
     1
 77
     6
176
     1
 78
     2
176
     1
 67
     7
176
     1
 79
     5
176
     1
170
     0
176
     1
171
     0
176
     1
290
     0
176
     1
 93
       13
176
     1
 44
0.0
176
     1
173
     0
176
     1
  0
VISUALSTYLE
  5
37
102
{ACAD_REACTORS
330
2A
102
}
330
2A
100
AcDbVisualStyle
  2
Thicken
 70
    13
177
     2
291
     1
 71
     2
176
     1
 72
     2
176
     1
 73
     0
176
     1
 90
        0
176
     1
 40
-0.6
176
     1
 41
-30.0
176
     1
 62
     5
 63
     7
421
 16777215
176
     1
 74
     1
176
     1
 91
        4
176
     1
 64
     7
176
     1
 65
   257
176
     1
 75
     1
176
     1
175
     1
176
     1
 42
1.0
176
     1
 92
       12
176
     1
 66
     7
176
     1
 43
1.0
176
     1
 76
     1
176
     1
 77
     6
176
     1
 78
     2
176
     1
 67
     7
176
     1
 79
     5
176
     1
170
     0
176
     1
171
     0
176
     1
290
     0
176
     1
 93
        1
176
     1
 44
0.0
176
     1
173
     0
176
     1
  0
ENDSEC
  0
EOF
