  0
SECTION
  2
HEADER
  9
$ACADVER
  1
AC1024
  9
$ACADMAINTVER
 70
     6
  9
$DWGCODEPAGE
  3
ANSI_932
  9
$INSBASE
 10
0.0
 20
0.0
 30
0.0
  9
$EXTMIN
 10
-8910.0
 20
-6300.0
 30
0.0
  9
$EXTMAX
 10
8910.0
 20
6300.0
 30
0.0
  9
$LIMMIN
 10
-8910.0
 20
-6300.0
  9
$LIMMAX
 10
8910.0
 20
6300.0
  9
$ORTHOMODE
 70
     0
  9
$REGENMODE
 70
     1
  9
$FILLMODE
 70
     1
  9
$QTEXTMODE
 70
     0
  9
$MIRRTEXT
 70
     1
  9
$LTSCALE
 40
30.0
  9
$ATTMODE
 70
     1
  9
$TEXTSIZE
 40
2.5
  9
$TRACEWID
 40
1.0
  9
$TEXTSTYLE
  7
Standard
  9
$CLAYER
  8
0
  9
$CELTYPE
  6
ByLayer
  9
$CECOLOR
 62
   256
  9
$CELTSCALE
 40
1.0
  9
$DISPSILH
 70
     0
  9
$DIMSCALE
 40
1.0
  9
$DIMASZ
 40
2.5
  9
$DIMEXO
 40
0.625
  9
$DIMDLI
 40
3.75
  9
$DIMRND
 40
0.0
  9
$DIMDLE
 40
0.0
  9
$DIMEXE
 40
1.25
  9
$DIMTP
 40
0.0
  9
$DIMTM
 40
0.0
  9
$DIMTXT
 40
2.5
  9
$DIMCEN
 40
2.5
  9
$DIMTSZ
 40
0.0
  9
$DIMTOL
 70
     0
  9
$DIMLIM
 70
     0
  9
$DIMTIH
 70
     0
  9
$DIMTOH
 70
     0
  9
$DIMSE1
 70
     0
  9
$DIMSE2
 70
     0
  9
$DIMTAD
 70
     1
  9
$DIMZIN
 70
     8
  9
$DIMBLK
  1

  9
$DIMASO
 70
     1
  9
$DIMSHO
 70
     1
  9
$DIMPOST
  1

  9
$DIMAPOST
  1

  9
$DIMALT
 70
     0
  9
$DIMALTD
 70
     3
  9
$DIMALTF
 40
0.03937007874016
  9
$DIMLFAC
 40
1.0
  9
$DIMTOFL
 70
     1
  9
$DIMTVP
 40
0.0
  9
$DIMTIX
 70
     0
  9
$DIMSOXD
 70
     0
  9
$DIMSAH
 70
     0
  9
$DIMBLK1
  1

  9
$DIMBLK2
  1

  9
$DIMSTYLE
  2
ISO-25
  9
$DIMCLRD
 70
     0
  9
$DIMCLRE
 70
     0
  9
$DIMCLRT
 70
     0
  9
$DIMTFAC
 40
1.0
  9
$DIMGAP
 40
0.625
  9
$DIMJUST
 70
     0
  9
$DIMSD1
 70
     0
  9
$DIMSD2
 70
     0
  9
$DIMTOLJ
 70
     0
  9
$DIMTZIN
 70
     8
  9
$DIMALTZ
 70
     0
  9
$DIMALTTZ
 70
     0
  9
$DIMUPT
 70
     0
  9
$DIMDEC
 70
     2
  9
$DIMTDEC
 70
     2
  9
$DIMALTU
 70
     2
  9
$DIMALTTD
 70
     3
  9
$DIMTXSTY
  7
Standard
  9
$DIMAUNIT
 70
     0
  9
$DIMADEC
 70
     0
  9
$DIMALTRND
 40
0.0
  9
$DIMAZIN
 70
     0
  9
$DIMDSEP
 70
    44
  9
$DIMATFIT
 70
     3
  9
$DIMFRAC
 70
     0
  9
$DIMLDRBLK
  1

  9
$DIMLUNIT
 70
     2
  9
$DIMLWD
 70
    -2
  9
$DIMLWE
 70
    -2
  9
$DIMTMOVE
 70
     0
  9
$DIMFXL
 40
1.0
  9
$DIMFXLON
 70
     0
  9
$DIMJOGANG
 40
0.7853981633974483
  9
$DIMTFILL
 70
     0
  9
$DIMTFILLCLR
 70
     0
  9
$DIMARCSYM
 70
     0
  9
$DIMLTYPE
  6

  9
$DIMLTEX1
  6

  9
$DIMLTEX2
  6

  9
$DIMTXTDIRECTION
 70
     0
  9
$LUNITS
 70
     2
  9
$LUPREC
 70
     4
  9
$SKETCHINC
 40
1.0
  9
$FILLETRAD
 40
10.0
  9
$AUNITS
 70
     0
  9
$AUPREC
 70
     0
  9
$MENU
  1
.
  9
$ELEVATION
 40
0.0
  9
$PELEVATION
 40
0.0
  9
$THICKNESS
 40
0.0
  9
$LIMCHECK
 70
     0
  9
$CHAMFERA
 40
10.0
  9
$CHAMFERB
 40
10.0
  9
$CHAMFERC
 40
20.0
  9
$CHAMFERD
 40
0.0
  9
$SKPOLY
 70
     0
  9
$TDCREATE
 40
2459720.728904746
  9
$TDUCREATE
 40
2459720.353904746
  9
$TDUPDATE
 40
2459720.728904757
  9
$TDUUPDATE
 40
2459720.353904757
  9
$TDINDWG
 40
0.0000000116
  9
$TDUSRTIMER
 40
0.0000000116
  9
$USRTIMER
 70
     1
  9
$ANGBASE
 50
0.0
  9
$ANGDIR
 70
     0
  9
$PDMODE
 70
     0
  9
$PDSIZE
 40
0.0
  9
$PLINEWID
 40
0.0
  9
$SPLFRAME
 70
     0
  9
$SPLINETYPE
 70
     6
  9
$SPLINESEGS
 70
     8
  9
$HANDSEED
  5
52F
  9
$SURFTAB1
 70
     6
  9
$SURFTAB2
 70
     6
  9
$SURFTYPE
 70
     6
  9
$SURFU
 70
     6
  9
$SURFV
 70
     6
  9
$UCSBASE
  2

  9
$UCSNAME
  2

  9
$UCSORG
 10
0.0
 20
0.0
 30
0.0
  9
$UCSXDIR
 10
1.0
 20
0.0
 30
0.0
  9
$UCSYDIR
 10
0.0
 20
1.0
 30
0.0
  9
$UCSORTHOREF
  2

  9
$UCSORTHOVIEW
 70
     0
  9
$UCSORGTOP
 10
0.0
 20
0.0
 30
0.0
  9
$UCSORGBOTTOM
 10
0.0
 20
0.0
 30
0.0
  9
$UCSORGLEFT
 10
0.0
 20
0.0
 30
0.0
  9
$UCSORGRIGHT
 10
0.0
 20
0.0
 30
0.0
  9
$UCSORGFRONT
 10
0.0
 20
0.0
 30
0.0
  9
$UCSORGBACK
 10
0.0
 20
0.0
 30
0.0
  9
$PUCSBASE
  2

  9
$PUCSNAME
  2

  9
$PUCSORG
 10
0.0
 20
0.0
 30
0.0
  9
$PUCSXDIR
 10
1.0
 20
0.0
 30
0.0
  9
$PUCSYDIR
 10
0.0
 20
1.0
 30
0.0
  9
$PUCSORTHOREF
  2

  9
$PUCSORTHOVIEW
 70
     0
  9
$PUCSORGTOP
 10
0.0
 20
0.0
 30
0.0
  9
$PUCSORGBOTTOM
 10
0.0
 20
0.0
 30
0.0
  9
$PUCSORGLEFT
 10
0.0
 20
0.0
 30
0.0
  9
$PUCSORGRIGHT
 10
0.0
 20
0.0
 30
0.0
  9
$PUCSORGFRONT
 10
0.0
 20
0.0
 30
0.0
  9
$PUCSORGBACK
 10
0.0
 20
0.0
 30
0.0
  9
$USERI1
 70
     0
  9
$USERI2
 70
     0
  9
$USERI3
 70
     0
  9
$USERI4
 70
     0
  9
$USERI5
 70
     0
  9
$USERR1
 40
0.0
  9
$USERR2
 40
0.0
  9
$USERR3
 40
0.0
  9
$USERR4
 40
0.0
  9
$USERR5
 40
0.0
  9
$WORLDVIEW
 70
     1
  9
$SHADEDGE
 70
     3
  9
$SHADEDIF
 70
    70
  9
$TILEMODE
 70
     1
  9
$MAXACTVP
 70
    64
  9
$PINSBASE
 10
0.0
 20
0.0
 30
0.0
  9
$PLIMCHECK
 70
     0
  9
$PEXTMIN
 10
1.000000000000000E+20
 20
1.000000000000000E+20
 30
1.000000000000000E+20
  9
$PEXTMAX
 10
-1.000000000000000E+20
 20
-1.000000000000000E+20
 30
-1.000000000000000E+20
  9
$PLIMMIN
 10
0.0
 20
0.0
  9
$PLIMMAX
 10
420.0
 20
297.0
  9
$UNITMODE
 70
     0
  9
$VISRETAIN
 70
     1
  9
$PLINEGEN
 70
     0
  9
$PSLTSCALE
 70
     1
  9
$TREEDEPTH
 70
  3020
  9
$CMLSTYLE
  2
Standard
  9
$CMLJUST
 70
     0
  9
$CMLSCALE
 40
20.0
  9
$PROXYGRAPHICS
 70
     1
  9
$MEASUREMENT
 70
     1
  9
$CELWEIGHT
370
    -1
  9
$ENDCAPS
280
     0
  9
$JOINSTYLE
280
     0
  9
$LWDISPLAY
290
     0
  9
$INSUNITS
 70
     4
  9
$HYPERLINKBASE
  1

  9
$STYLESHEET
  1

  9
$XEDIT
290
     1
  9
$CEPSNTYPE
380
     0
  9
$PSTYLEMODE
290
     1
  9
$FINGERPRINTGUID
  2
{5ABF9BA6-E47F-4512-B7BF-3ECD15273A9D}
  9
$VERSIONGUID
  2
{FAEB1C32-E019-11D5-929B-00C0DF256EC4}
  9
$EXTNAMES
290
     1
  9
$PSVPSCALE
 40
0.0
  9
$OLESTARTUP
290
     0
  9
$SORTENTS
280
   127
  9
$INDEXCTL
280
     0
  9
$HIDETEXT
280
     1
  9
$XCLIPFRAME
280
     2
  9
$HALOGAP
280
     0
  9
$OBSCOLOR
 70
   257
  9
$OBSLTYPE
280
     0
  9
$INTERSECTIONDISPLAY
280
     0
  9
$INTERSECTIONCOLOR
 70
   257
  9
$DIMASSOC
280
     2
  9
$PROJECTNAME
  1

  9
$CAMERADISPLAY
290
     0
  9
$LENSLENGTH
 40
50.0
  9
$CAMERAHEIGHT
 40
0.0
  9
$STEPSPERSEC
 40
2.0
  9
$STEPSIZE
 40
6.0
  9
$3DDWFPREC
 40
2.0
  9
$PSOLWIDTH
 40
5.0
  9
$PSOLHEIGHT
 40
80.0
  9
$LOFTANG1
 40
1.570796326794897
  9
$LOFTANG2
 40
1.570796326794897
  9
$LOFTMAG1
 40
0.0
  9
$LOFTMAG2
 40
0.0
  9
$LOFTPARAM
 70
     7
  9
$LOFTNORMALS
280
     1
  9
$LATITUDE
 40
37.795
  9
$LONGITUDE
 40
-122.394
  9
$NORTHDIRECTION
 40
0.0
  9
$TIMEZONE
 70
 -8000
  9
$LIGHTGLYPHDISPLAY
280
     1
  9
$TILEMODELIGHTSYNCH
280
     1
  9
$SOLIDHIST
280
     1
  9
$SHOWHIST
280
     1
  9
$DWFFRAME
280
     2
  9
$DGNFRAME
280
     2
  9
$REALWORLDSCALE
290
     1
  9
$INTERFERECOLOR
 62
   256
  9
$CSHADOW
280
     0
  9
$SHADOWPLANELOCATION
 40
0.0
  0
ENDSEC
  0
SECTION
  2
CLASSES
  0
CLASS
  1
ACDBDICTIONARYWDFLT
  2
AcDbDictionaryWithDefault
  3
ObjectDBX Classes
 90
        0
 91
        4
280
     0
281
     0
  0
CLASS
  1
VISUALSTYLE
  2
AcDbVisualStyle
  3
ObjectDBX Classes
 90
     4095
 91
        4
280
     0
281
     0
  0
CLASS
  1
MATERIAL
  2
AcDbMaterial
  3
ObjectDBX Classes
 90
     1153
 91
        4
280
     0
281
     0
  0
ENDSEC
  0
SECTION
  2
TABLES
  0
TABLE
  2
VPORT
  5
8
330
0
100
AcDbSymbolTable
 70
     1
  0
VPORT
  5
29
330
8
100
AcDbSymbolTableRecord
100
AcDbViewportTableRecord
  2
*Active
 70
     0
 10
0.0
 20
0.0
 11
1.0
 21
1.0
 12
0.0
 22
0.0
 13
0.0
 23
0.0
 14
10.0
 24
10.0
 15
10.0
 25
10.0
 16
0.0
 26
0.0
 36
1.0
 17
0.0
 27
0.0
 37
0.0
 40
13860.0
 41
1.414285714285714
 42
50.0
 43
0.0
 44
0.0
 50
0.0
 51
0.0
 71
     0
 72
 10000
 73
     1
 74
     3
 75
     0
 76
     0
 77
     0
 78
     0
281
     0
 65
     1
110
0.0
120
0.0
130
0.0
111
1.0
121
0.0
131
0.0
112
0.0
122
1.0
132
0.0
 79
     0
146
0.0
 60
     3
 61
     5
292
     1
282
     1
141
0.0
142
0.0
 63
   250
  0
ENDTAB
  0
TABLE
  2
LTYPE
  5
5
330
0
100
AcDbSymbolTable
 70
     5
  0
LTYPE
  5
14
330
5
100
AcDbSymbolTableRecord
100
AcDbLinetypeTableRecord
  2
ByBlock
 70
     0
  3

 72
    65
 73
     0
 40
0.0
  0
LTYPE
  5
15
330
5
100
AcDbSymbolTableRecord
100
AcDbLinetypeTableRecord
  2
ByLayer
 70
     0
  3

 72
    65
 73
     0
 40
0.0
  0
LTYPE
  5
16
330
5
100
AcDbSymbolTableRecord
100
AcDbLinetypeTableRecord
  2
Continuous
 70
     0
  3
Solid line
 72
    65
 73
     0
 40
0.0
  0
LTYPE
  5
3F
330
5
100
AcDbSymbolTableRecord
100
AcDbLinetypeTableRecord
  2
JWW_HOJO
 70
     0
  3
  -   -   -   -   -   -   -   - 
 72
    65
 73
     2
 40
1.693333333333333
 49
-1.27
 74
     0
 49
0.4233333333333333
 74
     0
  0
LTYPE
  5
40
330
5
100
AcDbSymbolTableRecord
100
AcDbLinetypeTableRecord
  2
JWW_DASHED2
 70
     0
  3
--    ----    ----    ----    --
 72
    65
 73
     2
 40
3.386666666666667
 49
1.693333333333333
 74
     0
 49
-1.693333333333333
 74
     0
  0
LTYPE
  5
41
330
5
100
AcDbSymbolTableRecord
100
AcDbLinetypeTableRecord
  2
JWW_DASHED1
 70
     0
  3
-  --  --  --  --  --  --  --  -
 72
    65
 73
     2
 40
1.693333333333333
 49
0.8466666666666667
 74
     0
 49
-0.8466666666666667
 74
     0
  0
LTYPE
  5
42
330
5
100
AcDbSymbolTableRecord
100
AcDbLinetypeTableRecord
  2
JWW_CENTER1
 70
     0
  3
-----  --  ----------  --  -----
 72
    65
 73
     4
 40
6.773333333333333
 49
4.233333333333333
 74
     0
 49
-0.8466666666666667
 74
     0
 49
0.8466666666666667
 74
     0
 49
-0.8466666666666667
 74
     0
  0
ENDTAB
  0
TABLE
  2
LAYER
  5
2
330
0
100
AcDbSymbolTable
 70
    19
  0
LAYER
  5
10
330
2
100
AcDbSymbolTableRecord
100
AcDbLayerTableRecord
  2
0
 70
     0
 62
     7
  6
Continuous
370
    -3
390
F
347
3E
  0
LAYER
  5
43
330
2
100
AcDbSymbolTableRecord
100
AcDbLayerTableRecord
  2
F-1_枠
 70
     0
 62
     7
  6
Continuous
370
    -3
390
F
347
3E
  0
LAYER
  5
44
330
2
100
AcDbSymbolTableRecord
100
AcDbLayerTableRecord
  2
F-0_補助線
 70
     0
 62
     7
  6
Continuous
370
    -3
390
F
347
3E
  0
LAYER
  5
45
330
2
100
AcDbSymbolTableRecord
100
AcDbLayerTableRecord
  2
F-A_文字
 70
     0
 62
     7
  6
Continuous
370
    -3
390
F
347
3E
  0
LAYER
  5
46
330
2
100
AcDbSymbolTableRecord
100
AcDbLayerTableRecord
  2
0-A_文字
 70
     0
 62
     7
  6
Continuous
370
    -3
390
F
347
3E
  0
LAYER
  5
47
330
2
100
AcDbSymbolTableRecord
100
AcDbLayerTableRecord
  2
戸当り
 70
     0
 62
     7
  6
Continuous
370
    -3
390
F
347
3E
  0
LAYER
  5
48
330
2
100
AcDbSymbolTableRecord
100
AcDbLayerTableRecord
  2
0-0_補助線
 70
     0
 62
     7
  6
Continuous
370
    -3
390
F
347
3E
  0
LAYER
  5
49
330
2
100
AcDbSymbolTableRecord
100
AcDbLayerTableRecord
  2
0-4_枠
 70
     0
 62
     7
  6
Continuous
370
    -3
390
F
347
3E
  0
LAYER
  5
4A
330
2
100
AcDbSymbolTableRecord
100
AcDbLayerTableRecord
  2
0-B_寸法
 70
     0
 62
     7
  6
Continuous
370
    -3
390
F
347
3E
  0
LAYER
  5
4B
330
2
100
AcDbSymbolTableRecord
100
AcDbLayerTableRecord
  2
0-2_柱
 70
     0
 62
     7
  6
Continuous
370
    -3
390
F
347
3E
  0
LAYER
  5
4C
330
2
100
AcDbSymbolTableRecord
100
AcDbLayerTableRecord
  2
仕上げ
 70
     0
 62
     7
  6
Continuous
370
    -3
390
F
347
3E
  0
LAYER
  5
4D
330
2
100
AcDbSymbolTableRecord
100
AcDbLayerTableRecord
  2
ハッチ
 70
     0
 62
     7
  6
Continuous
370
    -3
390
F
347
3E
  0
LAYER
  5
4E
330
2
100
AcDbSymbolTableRecord
100
AcDbLayerTableRecord
  2
0-7_金物
 70
     0
 62
     7
  6
Continuous
370
    -3
390
F
347
3E
  0
LAYER
  5
4F
330
2
100
AcDbSymbolTableRecord
100
AcDbLayerTableRecord
  2
0-6_扉
 70
     0
 62
     7
  6
Continuous
370
    -3
390
F
347
3E
  0
LAYER
  5
50
330
2
100
AcDbSymbolTableRecord
100
AcDbLayerTableRecord
  2
0-1_通り芯
 70
     0
 62
     7
  6
Continuous
370
    -3
390
F
347
3E
  0
LAYER
  5
51
330
2
100
AcDbSymbolTableRecord
100
AcDbLayerTableRecord
  2
1-B_寸法
 70
     0
 62
     7
  6
Continuous
370
    -3
390
F
347
3E
  0
LAYER
  5
52
330
2
100
AcDbSymbolTableRecord
100
AcDbLayerTableRecord
  2
1-7_金物
 70
     0
 62
     7
  6
Continuous
370
    -3
390
F
347
3E
  0
LAYER
  5
53
330
2
100
AcDbSymbolTableRecord
100
AcDbLayerTableRecord
  2
1-0_補助線
 70
     0
 62
     7
  6
Continuous
370
    -3
390
F
347
3E
  0
LAYER
  5
54
330
2
100
AcDbSymbolTableRecord
100
AcDbLayerTableRecord
  2
1-4_枠
 70
     0
 62
     7
  6
Continuous
370
    -3
390
F
347
3E
  0
ENDTAB
  0
TABLE
  2
STYLE
  5
3
330
0
100
AcDbSymbolTable
 70
     1
  0
STYLE
  5
11
330
3
100
AcDbSymbolTableRecord
100
AcDbTextStyleTableRecord
  2
Standard
 70
     0
 40
0.0
 41
1.0
 50
0.0
 71
     0
 42
2.5
  3
txt
  4

  0
ENDTAB
  0
TABLE
  2
VIEW
  5
6
330
0
100
AcDbSymbolTable
 70
     0
  0
ENDTAB
  0
TABLE
  2
UCS
  5
7
330
0
100
AcDbSymbolTable
 70
     0
  0
ENDTAB
  0
TABLE
  2
APPID
  5
9
330
0
100
AcDbSymbolTable
 70
     1
  0
APPID
  5
12
330
9
100
AcDbSymbolTableRecord
100
AcDbRegAppTableRecord
  2
ACAD
 70
     0
  0
ENDTAB
  0
TABLE
  2
DIMSTYLE
  5
A
330
0
100
AcDbSymbolTable
 70
     1
100
AcDbDimStyleTable
  0
DIMSTYLE
105
27
330
A
100
AcDbSymbolTableRecord
100
AcDbDimStyleTableRecord
  2
ISO-25
 70
     0
 41
2.5
 42
0.625
 43
3.75
 44
1.25
 73
     0
 74
     0
 77
     1
 78
     8
140
2.5
141
2.5
143
0.03937007874016
147
0.625
171
     3
172
     1
178
     0
271
     2
272
     2
274
     3
278
    44
283
     0
284
     8
340
11
  0
ENDTAB
  0
TABLE
  2
BLOCK_RECORD
  5
1
330
0
100
AcDbSymbolTable
 70
     1
  0
BLOCK_RECORD
  5
1F
330
1
100
AcDbSymbolTableRecord
100
AcDbBlockTableRecord
  2
*Model_Space
340
22
 70
     0
280
     1
281
     0
  0
BLOCK_RECORD
  5
1B
330
1
100
AcDbSymbolTableRecord
100
AcDbBlockTableRecord
  2
*Paper_Space
340
1E
 70
     0
280
     1
281
     0
  0
BLOCK_RECORD
  5
23
330
1
100
AcDbSymbolTableRecord
100
AcDbBlockTableRecord
  2
*Paper_Space0
340
26
 70
     0
280
     1
281
     0
  0
ENDTAB
  0
ENDSEC
  0
SECTION
  2
BLOCKS
  0
BLOCK
  5
20
330
1F
100
AcDbEntity
  8
0
100
AcDbBlockBegin
  2
*Model_Space
 70
     0
 10
0.0
 20
0.0
 30
0.0
  3
*Model_Space
  1

  0
ENDBLK
  5
21
330
1F
100
AcDbEntity
  8
0
100
AcDbBlockEnd
  0
BLOCK
  5
1C
330
1B
100
AcDbEntity
 67
     1
  8
0
100
AcDbBlockBegin
  2
*Paper_Space
 70
     0
 10
0.0
 20
0.0
 30
0.0
  3
*Paper_Space
  1

  0
ENDBLK
  5
1D
330
1B
100
AcDbEntity
 67
     1
  8
0
100
AcDbBlockEnd
  0
BLOCK
  5
24
330
23
100
AcDbEntity
  8
0
100
AcDbBlockBegin
  2
*Paper_Space0
 70
     0
 10
0.0
 20
0.0
 30
0.0
  3
*Paper_Space0
  1

  0
ENDBLK
  5
25
330
23
100
AcDbEntity
  8
0
100
AcDbBlockEnd
  0
ENDSEC
  0
SECTION
  2
ENTITIES
  0
LINE
  5
55
330
1F
100
AcDbEntity
  8
F-1_枠
  6
Continuous
 62
   200
370
    20
100
AcDbLine
 10
5859.917429364114
 20
-4205.000002577498
 30
0.0
 11
-5840.081085996952
 21
-4205.000002577498
 31
0.0
  0
LINE
  5
56
330
1F
100
AcDbEntity
  8
F-1_枠
  6
Continuous
 62
   200
370
    20
100
AcDbLine
 10
5859.917429364114
 20
-4199.999993814004
 30
0.0
 11
-5840.081085996952
 21
-4199.999993814004
 31
0.0
  0
LINE
  5
57
330
1F
100
AcDbEntity
  8
F-1_枠
  6
Continuous
 62
   200
370
    20
100
AcDbLine
 10
5859.917429364114
 20
-4195.000008247994
 30
0.0
 11
-5840.081085996952
 21
-4195.000008247994
 31
0.0
  0
LINE
  5
58
330
1F
100
AcDbEntity
  8
F-0_補助線
  6
JWW_HOJO
 62
   120
370
     5
100
AcDbLine
 10
-6140.081333436773
 20
-4455.0
 30
0.0
 11
-6140.081333436773
 21
4424.999604096284
 31
0.0
  0
LINE
  5
59
330
1F
100
AcDbEntity
  8
F-0_補助線
  6
JWW_HOJO
 62
   120
370
     5
100
AcDbLine
 10
-6140.081333436773
 20
4424.999604096284
 30
0.0
 11
6159.917676803936
 21
4424.999604096284
 31
0.0
  0
LINE
  5
5A
330
1F
100
AcDbEntity
  8
F-0_補助線
  6
JWW_HOJO
 62
   120
370
     5
100
AcDbLine
 10
6159.917676803936
 20
4424.999604096284
 30
0.0
 11
6159.917676803936
 21
-4455.0
 31
0.0
  0
LINE
  5
5B
330
1F
100
AcDbEntity
  8
F-0_補助線
  6
JWW_HOJO
 62
   120
370
     5
100
AcDbLine
 10
6159.917676803936
 20
-4455.0
 30
0.0
 11
-6140.081333436773
 21
-4455.0
 31
0.0
  0
LINE
  5
5C
330
1F
100
AcDbEntity
  8
F-0_補助線
  6
JWW_HOJO
 62
     7
370
     9
100
AcDbLine
 10
509.9185840832865
 20
-3795.000003092998
 30
0.0
 11
509.9185840832865
 21
-4195.000008247994
 31
0.0
  0
LINE
  5
5D
330
1F
100
AcDbEntity
  8
F-1_枠
  6
Continuous
 62
   200
370
    20
100
AcDbLine
 10
5859.917429364114
 20
4174.999769056166
 30
0.0
 11
5859.917429364114
 21
-4205.000164959882
 31
0.0
  0
LINE
  5
5E
330
1F
100
AcDbEntity
  8
F-1_枠
  6
Continuous
 62
   200
370
    20
100
AcDbLine
 10
-5840.081317971782
 20
4174.999769056166
 30
0.0
 11
-5840.081317971782
 21
-4205.000164959882
 31
0.0
  0
LINE
  5
5F
330
1F
100
AcDbEntity
  8
F-1_枠
  6
Continuous
 62
   200
370
    20
100
AcDbLine
 10
-5830.081323642279
 20
4174.999769056166
 30
0.0
 11
-5830.081323642279
 21
-4205.000164959882
 31
0.0
  0
LINE
  5
60
330
1F
100
AcDbEntity
  8
F-1_枠
  6
Continuous
 62
   200
370
    20
100
AcDbLine
 10
-5835.081309208291
 20
4174.999769056166
 30
0.0
 11
-5835.081309208291
 21
-4205.000164959882
 31
0.0
  0
LINE
  5
61
330
1F
100
AcDbEntity
  8
F-1_枠
  6
Continuous
 62
   200
370
    20
100
AcDbLine
 10
5854.917165428304
 20
4174.999769056166
 30
0.0
 11
5854.917165428304
 21
-4205.000164959882
 31
0.0
  0
LINE
  5
62
330
1F
100
AcDbEntity
  8
F-1_枠
  6
Continuous
 62
   200
370
    20
100
AcDbLine
 10
5849.917643811961
 20
4174.999769056166
 30
0.0
 11
5849.917643811961
 21
-4205.000164959882
 31
0.0
  0
LINE
  5
63
330
1F
100
AcDbEntity
  8
F-1_枠
  6
Continuous
 62
   200
370
    20
100
AcDbLine
 10
4349.917891251784
 20
-3795.000003092998
 30
0.0
 11
4349.917891251784
 21
-4195.000008247994
 31
0.0
  0
LINE
  5
64
330
1F
100
AcDbEntity
  8
F-1_枠
  6
Continuous
 62
   200
370
    20
100
AcDbLine
 10
2849.917396372139
 20
-3795.000003092998
 30
0.0
 11
2849.917396372139
 21
-4195.000008247994
 31
0.0
  0
LINE
  5
65
330
1F
100
AcDbEntity
  8
F-1_枠
  6
Continuous
 62
   200
370
    20
100
AcDbLine
 10
9.918542843316231
 20
-3795.000003092998
 30
0.0
 11
9.918542843316231
 21
-4195.000008247994
 31
0.0
  0
LINE
  5
66
330
1F
100
AcDbEntity
  8
F-1_枠
  6
Continuous
 62
   200
370
    20
100
AcDbLine
 10
9.918542843316231
 20
-3994.999936078046
 30
0.0
 11
5849.917643811961
 21
-3995.005364289155
 31
0.0
  0
LINE
  5
67
330
1F
100
AcDbEntity
  8
F-1_枠
  6
Continuous
 62
   200
370
    20
100
AcDbLine
 10
-5840.081085996952
 20
4174.999769056166
 30
0.0
 11
5859.917429364114
 21
4174.999769056166
 31
0.0
  0
LINE
  5
68
330
1F
100
AcDbEntity
  8
F-1_枠
  6
Continuous
 62
   200
370
    20
100
AcDbLine
 10
-5840.081085996952
 20
4164.999983504013
 30
0.0
 11
5859.917429364114
 21
4164.999983504013
 31
0.0
  0
LINE
  5
69
330
1F
100
AcDbEntity
  8
F-1_枠
  6
Continuous
 62
   200
370
    20
100
AcDbLine
 10
-5840.081085996952
 20
4169.999505120355
 30
0.0
 11
5859.917429364114
 21
4169.999505120355
 31
0.0
  0
LINE
  5
6A
330
1F
100
AcDbEntity
  8
F-0_補助線
  6
JWW_HOJO
 62
     7
370
     9
100
AcDbLine
 10
-5830.081323642279
 20
-3994.99993607839
 30
0.0
 11
9.918542843316231
 21
-3994.99993607839
 31
0.0
  0
LINE
  5
6B
330
1F
100
AcDbEntity
  8
F-0_補助線
  6
JWW_HOJO
 62
     7
370
     9
100
AcDbLine
 10
-5830.081323642279
 20
-3904.99993607839
 30
0.0
 11
9.918542843316231
 21
-3904.99993607839
 31
0.0
  0
LINE
  5
6C
330
1F
100
AcDbEntity
  8
F-0_補助線
  6
JWW_HOJO
 62
     7
370
     9
100
AcDbLine
 10
-5830.081323642279
 20
-4084.99993607839
 30
0.0
 11
9.918542843316231
 21
-4084.99993607839
 31
0.0
  0
LINE
  5
6D
330
1F
100
AcDbEntity
  8
F-0_補助線
  6
JWW_HOJO
 62
     7
370
     9
100
AcDbLine
 10
9.918408067688347
 20
-4139.999739777983
 30
0.0
 11
5849.917509036332
 21
-4140.005167989091
 31
0.0
  0
LINE
  5
6E
330
1F
100
AcDbEntity
  8
F-0_補助線
  6
JWW_HOJO
 62
     7
370
     9
100
AcDbLine
 10
9.918491721639953
 20
-4049.999739778022
 30
0.0
 11
5849.917592690284
 21
-4050.005167989131
 31
0.0
  0
LINE
  5
6F
330
1F
100
AcDbEntity
  8
F-0_補助線
  6
JWW_HOJO
 62
     7
370
     9
100
AcDbLine
 10
9.918593965360003
 20
-3939.99973721807
 30
0.0
 11
5849.917694934004
 21
-3940.005165429179
 31
0.0
  0
LINE
  5
70
330
1F
100
AcDbEntity
  8
F-0_補助線
  6
JWW_HOJO
 62
     7
370
     9
100
AcDbLine
 10
9.918677619311609
 20
-3849.999737218109
 30
0.0
 11
5849.917778587956
 21
-3850.005165429218
 31
0.0
  0
LINE
  5
71
330
1F
100
AcDbEntity
  8
F-0_補助線
  6
JWW_HOJO
 62
     7
370
     9
100
AcDbLine
 10
2939.917396372139
 20
-3795.000003092998
 30
0.0
 11
2939.917396372139
 21
-4195.000008247994
 31
0.0
  0
LINE
  5
72
330
1F
100
AcDbEntity
  8
F-0_補助線
  6
JWW_HOJO
 62
     7
370
     9
100
AcDbLine
 10
99.91854284331623
 20
-3795.000003092998
 30
0.0
 11
99.91854284331623
 21
-4195.000008247994
 31
0.0
  0
LINE
  5
73
330
1F
100
AcDbEntity
  8
F-0_補助線
  6
JWW_HOJO
 62
     7
370
     9
100
AcDbLine
 10
4439.917891251784
 20
-3795.000003092998
 30
0.0
 11
4439.917891251784
 21
-4195.000008247994
 31
0.0
  0
MTEXT
  5
74
330
1F
100
AcDbEntity
  8
F-A_文字
  6
Continuous
 62
     7
370
     0
100
AcDbMText
 10
99.91854284331623
 20
-3887.139820871936
 30
0.0
 40
45.72
 41
180.0
 46
0.0
 71
     7
 72
     1
  1
{\fＭＳ ゴシック|b0|i0|c128|p49;図面名}
 73
     1
 44
1.0
  0
MTEXT
  5
75
330
1F
100
AcDbEntity
  8
F-A_文字
  6
Continuous
 62
     7
370
     0
100
AcDbMText
 10
2939.917396372139
 20
-3887.142460617774
 30
0.0
 40
45.72
 41
300.0
 46
0.0
 71
     7
 72
     1
  1
{\fＭＳ ゴシック|b0|i0|c128|p49;ＳＣＡＬＥ}
 73
     1
 44
1.0
  0
MTEXT
  5
76
330
1F
100
AcDbEntity
  8
F-A_文字
  6
Continuous
 62
     7
370
     0
100
AcDbMText
 10
4439.917891251784
 20
-3887.143854850754
 30
0.0
 40
45.72
 41
240.0
 46
0.0
 71
     7
 72
     1
  1
{\fＭＳ ゴシック|b0|i0|c128|p49;ＤＡＴＥ}
 73
     1
 44
1.0
  0
LINE
  5
77
330
1F
100
AcDbEntity
  8
F-1_枠
  6
Continuous
 62
   200
370
    20
100
AcDbLine
 10
5859.917429364114
 20
-3795.000003092998
 30
0.0
 11
-5840.081085996952
 21
-3795.000003092998
 31
0.0
  0
LINE
  5
78
330
1F
100
AcDbEntity
  8
F-1_枠
  6
Continuous
 62
   200
370
    20
100
AcDbLine
 10
5859.917429364114
 20
-3790.000017526987
 30
0.0
 11
-5840.081085996952
 21
-3790.000017526987
 31
0.0
  0
LINE
  5
79
330
1F
100
AcDbEntity
  8
F-0_補助線
  6
JWW_HOJO
 62
     7
370
     9
100
AcDbLine
 10
-5087.628710189611
 20
-3795.000003092999
 30
0.0
 11
-5087.628710189611
 21
-4205.000164959882
 31
0.0
  0
MTEXT
  5
7A
330
1F
100
AcDbEntity
  8
F-A_文字
  6
Continuous
 62
     7
370
     0
100
AcDbMText
 10
2939.917396372139
 20
-4087.14246317786
 30
0.0
 40
45.72
 41
240.0
 46
0.0
 71
     7
 72
     1
  1
{\fＭＳ ゴシック|b0|i0|c128|p49;ＦＩＬＥ}
 73
     1
 44
1.0
  0
LINE
  5
7B
330
1F
100
AcDbEntity
  8
F-0_補助線
  6
JWW_HOJO
 62
     7
370
     9
100
AcDbLine
 10
-50.08145715668377
 20
-3795.000003092998
 30
0.0
 11
-50.08145715668377
 21
-4195.000008247994
 31
0.0
  0
MTEXT
  5
7C
330
1F
100
AcDbEntity
  8
F-A_文字
  6
Continuous
 62
     7
370
     0
100
AcDbMText
 10
4439.917891251784
 20
-4087.143857410839
 30
0.0
 40
45.72
 41
180.0
 46
0.0
 71
     7
 72
     1
  1
{\fＭＳ ゴシック|b0|i0|c128|p49;ＮＯ．}
 73
     1
 44
1.0
  0
MTEXT
  5
7D
330
1F
100
AcDbEntity
  8
F-A_文字
  6
Continuous
 62
     7
370
     0
100
AcDbMText
 10
1394.917396372138
 20
-4096.140669266149
 30
0.0
 40
45.72
 41
120.0
 46
0.0
 71
     7
 72
     1
  1
{\fＭＳ ゴシック|b0|i0|c128|p49;株式}
 73
     1
 44
1.0
  0
MTEXT
  5
7E
330
1F
100
AcDbEntity
  8
F-A_文字
  6
Continuous
 62
     7
370
     0
100
AcDbMText
 10
1604.917396372138
 20
-4164.281754523929
 30
0.0
 40
101.44125
 41
1065.0
 46
0.0
 71
     7
 72
     1
  1
{\fＭＳ ゴシック|b0|i0|c128|p49;ウッドワン・・・}
 73
     1
 44
1.0
  0
MTEXT
  5
7F
330
1F
100
AcDbEntity
  8
F-A_文字
  6
Continuous
 62
     7
370
     0
100
AcDbMText
 10
1394.917396372138
 20
-4168.140669266187
 30
0.0
 40
45.72
 41
120.0
 46
0.0
 71
     7
 72
     1
  1
{\fＭＳ ゴシック|b0|i0|c128|p49;会社}
 73
     1
 44
1.0
  0
LINE
  5
80
330
1F
100
AcDbEntity
  8
0-A_文字
  6
Continuous
 62
    92
370
    13
100
AcDbLine
 10
5369.917643811961
 20
2870.904841517505
 30
0.0
 11
3545.917643811961
 21
2870.904841517505
 31
0.0
  0
ELLIPSE
  5
81
330
1F
100
AcDbEntity
  8
戸当り
  6
Continuous
 62
    92
370
    13
100
AcDbEllipse
 10
4233.313678937562
 20
3035.238193140387
 30
0.0
 11
12.98493368979624
 21
48.46043226323234
 31
0.0
210
0.0
220
0.0
230
0.9999999999999999
 40
0.6
 41
1.570796326794897
 42
4.71238898038469
  0
LINE
  5
82
330
1F
100
AcDbEntity
  8
戸当り
  6
Continuous
 62
    92
370
    13
100
AcDbLine
 10
4262.389938295501
 20
3027.44723292651
 30
0.0
 11
4204.237419579623
 21
3043.029153354265
 31
0.0
  0
LINE
  5
83
330
1F
100
AcDbEntity
  8
戸当り
  6
Continuous
 62
    92
370
    13
100
AcDbLine
 10
4266.116932544978
 20
3041.356564825072
 30
0.0
 11
4207.9644138291
 21
3056.938485252827
 31
0.0
  0
ELLIPSE
  5
84
330
1F
100
AcDbEntity
  8
戸当り
  6
Continuous
 62
    92
370
    13
100
AcDbEllipse
 10
4260.940414134911
 20
3138.342572544142
 30
0.0
 11
24.98936911097744
 21
93.26159517126003
 31
0.0
210
0.0
220
0.0
230
0.9999999999999998
 40
0.5
 41
4.340591432030095
 42
8.225779182329084
  0
ELLIPSE
  5
85
330
1F
100
AcDbEntity
  8
戸当り
  6
Continuous
 62
    92
370
    13
100
AcDbEllipse
 10
4260.225416565652
 20
3135.67416528838
 30
0.0
 11
30.28038072946014
 21
113.0079193548746
 31
0.0
210
0.0
220
0.0
230
0.9999999999999999
 40
0.4
 41
3.840308517104467
 42
4.432552034522944
  0
ELLIPSE
  5
86
330
1F
100
AcDbEntity
  8
戸当り
  6
Continuous
 62
    92
370
    13
100
AcDbEllipse
 10
4260.225416565652
 20
3135.67416528838
 30
0.0
 11
30.28038072946014
 21
113.0079193548746
 31
0.0
210
0.0
220
0.0
230
0.9999999999999999
 40
0.4
 41
1.850633272656679
 42
2.442876790075129
  0
ELLIPSE
  5
87
330
1F
100
AcDbEntity
  8
戸当り
  6
Continuous
 62
    92
370
    13
100
AcDbEllipse
 10
4101.75458208419
 20
2992.073915009757
 30
0.0
 11
-8.711917129073296
 21
49.40773722812951
 31
0.0
210
0.0
220
0.0
230
1.0
 40
0.6
 41
1.570796326794897
 42
4.71238898038469
  0
LINE
  5
88
330
1F
100
AcDbEntity
  8
戸当り
  6
Continuous
 62
    92
370
    13
100
AcDbLine
 10
4131.399224421068
 20
2997.301065287201
 30
0.0
 11
4072.109939747311
 21
2986.846764732314
 31
0.0
  0
LINE
  5
89
330
1F
100
AcDbEntity
  8
戸当り
  6
Continuous
 62
    92
370
    13
100
AcDbLine
 10
4128.898690662663
 20
3011.482296930578
 30
0.0
 11
4069.609405988908
 21
3001.027996375689
 31
0.0
  0
ELLIPSE
  5
8A
330
1F
100
AcDbEntity
  8
戸当り
  6
Continuous
 62
    92
370
    13
100
AcDbEllipse
 10
4083.219113722477
 20
3097.193779747636
 30
0.0
 11
-16.76599342003076
 21
95.08467367085059
 31
0.0
210
0.0
220
0.0
230
1.0
 40
0.5
 41
4.340591432030095
 42
8.225779182329084
  0
ELLIPSE
  5
8B
330
1F
100
AcDbEntity
  8
戸当り
  6
Continuous
 62
    92
370
    13
100
AcDbEllipse
 10
4083.698823493793
 20
3094.473210442884
 30
0.0
 11
-20.31586559114605
 21
115.2169991768636
 31
0.0
210
0.0
220
0.0
230
1.0
 40
0.4
 41
3.840308517104467
 42
4.432552034522944
  0
ELLIPSE
  5
8C
330
1F
100
AcDbEntity
  8
戸当り
  6
Continuous
 62
    92
370
    13
100
AcDbEllipse
 10
4083.698823493793
 20
3094.473210442884
 30
0.0
 11
-20.31586559114605
 21
115.2169991768636
 31
0.0
210
0.0
220
0.0
230
1.0
 40
0.4
 41
1.850633272656679
 42
2.442876790075129
  0
ELLIPSE
  5
8D
330
1F
100
AcDbEntity
  8
戸当り
  6
Continuous
 62
    92
370
    13
100
AcDbEllipse
 10
4810.210362065312
 20
3032.557584718086
 30
0.0
 11
12.98493368979624
 21
48.46043226323234
 31
0.0
210
0.0
220
0.0
230
0.9999999999999999
 40
0.6
 41
1.570796326794897
 42
4.71238898038469
  0
LINE
  5
8E
330
1F
100
AcDbEntity
  8
戸当り
  6
Continuous
 62
    92
370
    13
100
AcDbLine
 10
4839.286621423252
 20
3024.766624504208
 30
0.0
 11
4781.134102707373
 21
3040.348544931964
 31
0.0
  0
LINE
  5
8F
330
1F
100
AcDbEntity
  8
戸当り
  6
Continuous
 62
    92
370
    13
100
AcDbLine
 10
4843.013615672727
 20
3038.675956402771
 30
0.0
 11
4784.861096956848
 21
3054.257876830526
 31
0.0
  0
ELLIPSE
  5
90
330
1F
100
AcDbEntity
  8
戸当り
  6
Continuous
 62
    92
370
    13
100
AcDbEllipse
 10
4837.837097262661
 20
3135.661964121842
 30
0.0
 11
24.98936911097744
 21
93.26159517126003
 31
0.0
210
0.0
220
0.0
230
0.9999999999999998
 40
0.5
 41
4.340591432030095
 42
8.225779182329084
  0
ELLIPSE
  5
91
330
1F
100
AcDbEntity
  8
戸当り
  6
Continuous
 62
    92
370
    13
100
AcDbEllipse
 10
4837.122099693401
 20
3132.993556866079
 30
0.0
 11
30.28038072946014
 21
113.0079193548746
 31
0.0
210
0.0
220
0.0
230
0.9999999999999999
 40
0.4
 41
3.840308517104467
 42
4.432552034522944
  0
ELLIPSE
  5
92
330
1F
100
AcDbEntity
  8
戸当り
  6
Continuous
 62
    92
370
    13
100
AcDbEllipse
 10
4837.122099693401
 20
3132.993556866079
 30
0.0
 11
30.28038072946014
 21
113.0079193548746
 31
0.0
210
0.0
220
0.0
230
0.9999999999999999
 40
0.4
 41
1.850633272656679
 42
2.442876790075129
  0
ELLIPSE
  5
93
330
1F
100
AcDbEntity
  8
戸当り
  6
Continuous
 62
    92
370
    13
100
AcDbEllipse
 10
4678.651265211938
 20
2989.393306587457
 30
0.0
 11
-8.711917129073296
 21
49.40773722812951
 31
0.0
210
0.0
220
0.0
230
1.0
 40
0.6
 41
1.570796326794897
 42
4.71238898038469
  0
LINE
  5
94
330
1F
100
AcDbEntity
  8
戸当り
  6
Continuous
 62
    92
370
    13
100
AcDbLine
 10
4708.295907548816
 20
2994.620456864901
 30
0.0
 11
4649.006622875059
 21
2984.166156310012
 31
0.0
  0
LINE
  5
95
330
1F
100
AcDbEntity
  8
戸当り
  6
Continuous
 62
    92
370
    13
100
AcDbLine
 10
4705.79537379041
 20
3008.801688508277
 30
0.0
 11
4646.506089116656
 21
2998.347387953389
 31
0.0
  0
ELLIPSE
  5
96
330
1F
100
AcDbEntity
  8
戸当り
  6
Continuous
 62
    92
370
    13
100
AcDbEllipse
 10
4660.115796850226
 20
3094.513171325335
 30
0.0
 11
-16.76599342003076
 21
95.08467367085059
 31
0.0
210
0.0
220
0.0
230
1.0
 40
0.5
 41
4.340591432030095
 42
8.225779182329084
  0
ELLIPSE
  5
97
330
1F
100
AcDbEntity
  8
戸当り
  6
Continuous
 62
    92
370
    13
100
AcDbEllipse
 10
4660.59550662154
 20
3091.792602020584
 30
0.0
 11
-20.31586559114605
 21
115.2169991768636
 31
0.0
210
0.0
220
0.0
230
1.0
 40
0.4
 41
3.840308517104467
 42
4.432552034522944
  0
ELLIPSE
  5
98
330
1F
100
AcDbEntity
  8
戸当り
  6
Continuous
 62
    92
370
    13
100
AcDbEllipse
 10
4660.59550662154
 20
3091.792602020584
 30
0.0
 11
-20.31586559114605
 21
115.2169991768636
 31
0.0
210
0.0
220
0.0
230
1.0
 40
0.4
 41
1.850633272656679
 42
2.442876790075129
  0
LINE
  5
99
330
1F
100
AcDbEntity
  8
戸当り
  6
Continuous
 62
    40
370
    15
100
AcDbLine
 10
4009.117643811961
 20
3334.062939445516
 30
0.0
 11
4009.117643811961
 21
3355.662939445517
 31
0.0
  0
LINE
  5
9A
330
1F
100
AcDbEntity
  8
戸当り
  6
Continuous
 62
    40
370
    15
100
AcDbLine
 10
3569.917643811961
 20
3334.062939445516
 30
0.0
 11
4009.117643811961
 21
3334.062939445516
 31
0.0
  0
LINE
  5
9B
330
1F
100
AcDbEntity
  8
戸当り
  6
Continuous
 62
    40
370
    15
100
AcDbLine
 10
3641.917643811961
 20
3355.662939445517
 30
0.0
 11
4009.117643811961
 21
3355.662939445517
 31
0.0
  0
LINE
  5
9C
330
1F
100
AcDbEntity
  8
戸当り
  6
Continuous
 62
    40
370
    15
100
AcDbLine
 10
3641.917643811961
 20
3355.662939445517
 30
0.0
 11
3641.917643811961
 21
3377.262939445516
 31
0.0
  0
LINE
  5
9D
330
1F
100
AcDbEntity
  8
戸当り
  6
JWW_DASHED2
 62
    40
370
    15
100
AcDbLine
 10
3994.71764381196
 20
3366.462939445516
 30
0.0
 11
3641.917643811961
 21
3366.462939445516
 31
0.0
  0
LINE
  5
9E
330
1F
100
AcDbEntity
  8
戸当り
  6
Continuous
 62
    40
370
    15
100
AcDbLine
 10
3641.917643811961
 20
3377.262939445516
 30
0.0
 11
3569.917643811961
 21
3377.262939445516
 31
0.0
  0
LINE
  5
9F
330
1F
100
AcDbEntity
  8
戸当り
  6
Continuous
 62
    40
370
    15
100
AcDbLine
 10
4361.917643811961
 20
3334.062939445516
 30
0.0
 11
4361.917643811961
 21
3377.262939445516
 31
0.0
  0
LINE
  5
A0
330
1F
100
AcDbEntity
  8
戸当り
  6
Continuous
 62
    40
370
    15
100
AcDbLine
 10
3994.71764381196
 20
3366.462939445516
 30
0.0
 11
4361.917643811961
 21
3366.462939445516
 31
0.0
  0
LINE
  5
A1
330
1F
100
AcDbEntity
  8
戸当り
  6
Continuous
 62
    40
370
    15
100
AcDbLine
 10
4361.917643811961
 20
3334.062939445516
 30
0.0
 11
4433.917643811961
 21
3334.062939445516
 31
0.0
  0
LINE
  5
A2
330
1F
100
AcDbEntity
  8
戸当り
  6
Continuous
 62
    40
370
    15
100
AcDbLine
 10
4361.917643811961
 20
3377.262939445516
 30
0.0
 11
4433.917643811961
 21
3377.262939445516
 31
0.0
  0
LINE
  5
A3
330
1F
100
AcDbEntity
  8
戸当り
  6
Continuous
 62
    92
370
    13
100
AcDbLine
 10
4185.517643811962
 20
3294.462939445516
 30
0.0
 11
4185.517643811962
 21
3438.462939445516
 31
0.0
  0
LINE
  5
A4
330
1F
100
AcDbEntity
  8
戸当り
  6
Continuous
 62
    40
370
    15
100
AcDbLine
 10
4906.717643811961
 20
3334.062939445516
 30
0.0
 11
4906.717643811961
 21
3355.662939445517
 31
0.0
  0
LINE
  5
A5
330
1F
100
AcDbEntity
  8
戸当り
  6
Continuous
 62
    40
370
    15
100
AcDbLine
 10
5345.917643811961
 20
3334.062939445516
 30
0.0
 11
4906.717643811961
 21
3334.062939445516
 31
0.0
  0
LINE
  5
A6
330
1F
100
AcDbEntity
  8
戸当り
  6
Continuous
 62
    40
370
    15
100
AcDbLine
 10
5273.917643811962
 20
3355.662939445517
 30
0.0
 11
4906.717643811961
 21
3355.662939445517
 31
0.0
  0
LINE
  5
A7
330
1F
100
AcDbEntity
  8
戸当り
  6
Continuous
 62
    40
370
    15
100
AcDbLine
 10
5273.917643811962
 20
3355.662939445517
 30
0.0
 11
5273.917643811962
 21
3377.262939445516
 31
0.0
  0
LINE
  5
A8
330
1F
100
AcDbEntity
  8
戸当り
  6
JWW_DASHED2
 62
    40
370
    15
100
AcDbLine
 10
4921.117643811962
 20
3366.462939445516
 30
0.0
 11
5273.917643811962
 21
3366.462939445516
 31
0.0
  0
LINE
  5
A9
330
1F
100
AcDbEntity
  8
戸当り
  6
Continuous
 62
    40
370
    15
100
AcDbLine
 10
5273.917643811962
 20
3377.262939445516
 30
0.0
 11
5345.917643811961
 21
3377.262939445516
 31
0.0
  0
LINE
  5
AA
330
1F
100
AcDbEntity
  8
戸当り
  6
Continuous
 62
    40
370
    15
100
AcDbLine
 10
4553.917643811961
 20
3334.062939445516
 30
0.0
 11
4553.917643811961
 21
3377.262939445516
 31
0.0
  0
LINE
  5
AB
330
1F
100
AcDbEntity
  8
戸当り
  6
Continuous
 62
    40
370
    15
100
AcDbLine
 10
4921.117643811962
 20
3366.462939445516
 30
0.0
 11
4553.917643811961
 21
3366.462939445516
 31
0.0
  0
LINE
  5
AC
330
1F
100
AcDbEntity
  8
戸当り
  6
Continuous
 62
    40
370
    15
100
AcDbLine
 10
4553.917643811961
 20
3334.062939445516
 30
0.0
 11
4481.917643811962
 21
3334.062939445516
 31
0.0
  0
LINE
  5
AD
330
1F
100
AcDbEntity
  8
戸当り
  6
Continuous
 62
    40
370
    15
100
AcDbLine
 10
4553.917643811961
 20
3377.262939445516
 30
0.0
 11
4481.917643811962
 21
3377.262939445516
 31
0.0
  0
LINE
  5
AE
330
1F
100
AcDbEntity
  8
戸当り
  6
Continuous
 62
    92
370
    13
100
AcDbLine
 10
4730.317643811962
 20
3294.462939445516
 30
0.0
 11
4730.317643811962
 21
3438.462939445516
 31
0.0
  0
LINE
  5
AF
330
1F
100
AcDbEntity
  8
0-0_補助線
  6
JWW_HOJO
 62
   120
370
     5
100
AcDbLine
 10
4001.917643811961
 20
3684.999983504013
 30
0.0
 11
4001.917643811961
 21
2870.904841517505
 31
0.0
  0
LINE
  5
B0
330
1F
100
AcDbEntity
  8
0-0_補助線
  6
JWW_HOJO
 62
   120
370
     5
100
AcDbLine
 10
4913.917643811962
 20
3684.999983504013
 30
0.0
 11
4913.917643811962
 21
2870.904841517505
 31
0.0
  0
LINE
  5
B1
330
1F
100
AcDbEntity
  8
0-0_補助線
  6
JWW_HOJO
 62
   120
370
     5
100
AcDbLine
 10
3569.917643811961
 20
3684.999983504013
 30
0.0
 11
3569.917643811961
 21
2870.904841517505
 31
0.0
  0
LINE
  5
B2
330
1F
100
AcDbEntity
  8
0-0_補助線
  6
JWW_HOJO
 62
   120
370
     5
100
AcDbLine
 10
4433.917643811961
 20
3684.999983504013
 30
0.0
 11
4433.917643811961
 21
2870.904841517505
 31
0.0
  0
LINE
  5
B3
330
1F
100
AcDbEntity
  8
0-0_補助線
  6
JWW_HOJO
 62
   120
370
     5
100
AcDbLine
 10
4481.917643811962
 20
3684.999983504013
 30
0.0
 11
4481.917643811962
 21
2870.904841517505
 31
0.0
  0
LINE
  5
B4
330
1F
100
AcDbEntity
  8
0-0_補助線
  6
JWW_HOJO
 62
   120
370
     5
100
AcDbLine
 10
5345.917643811961
 20
3684.999983504013
 30
0.0
 11
5345.917643811961
 21
2870.904841517505
 31
0.0
  0
LINE
  5
B5
330
1F
100
AcDbEntity
  8
0-A_文字
  6
Continuous
 62
    92
370
    13
100
AcDbLine
 10
3545.917643811961
 20
3684.999983504013
 30
0.0
 11
3545.917643811961
 21
2870.904841517505
 31
0.0
  0
LINE
  5
B6
330
1F
100
AcDbEntity
  8
0-A_文字
  6
Continuous
 62
    92
370
    13
100
AcDbLine
 10
4457.917643811961
 20
3684.999983504013
 30
0.0
 11
4457.917643811961
 21
2870.904841517505
 31
0.0
  0
LINE
  5
B7
330
1F
100
AcDbEntity
  8
0-A_文字
  6
Continuous
 62
    92
370
    13
100
AcDbLine
 10
5369.917643811961
 20
3684.999983504013
 30
0.0
 11
5369.917643811961
 21
2870.904841517505
 31
0.0
  0
LINE
  5
B8
330
1F
100
AcDbEntity
  8
0-A_文字
  6
Continuous
 62
    92
370
    13
100
AcDbLine
 10
5369.917643811961
 20
3684.999983504013
 30
0.0
 11
3545.917643811961
 21
3684.999983504013
 31
0.0
  0
LINE
  5
B9
330
1F
100
AcDbEntity
  8
0-A_文字
  6
Continuous
 62
    92
370
    13
100
AcDbLine
 10
3545.917643811961
 20
3540.999983504013
 30
0.0
 11
5369.917643811961
 21
3540.999983504013
 31
0.0
  0
MTEXT
  5
BA
330
1F
100
AcDbEntity
  8
0-A_文字
  6
Continuous
 62
     7
370
     9
100
AcDbMText
 10
3799.417643811961
 20
3561.576233504014
 30
0.0
 40
77.15249999999999
 41
405.0
 46
0.0
 71
     7
 72
     1
  1
{\fＭＳ ゴシック|b0|i0|c128|p49;右引き手}
 73
     1
 44
1.0
  0
MTEXT
  5
BB
330
1F
100
AcDbEntity
  8
0-A_文字
  6
Continuous
 62
     7
370
     9
100
AcDbMText
 10
4711.417643811962
 20
3561.576233504014
 30
0.0
 40
77.15249999999999
 41
405.0
 46
0.0
 71
     7
 72
     1
  1
{\fＭＳ ゴシック|b0|i0|c128|p49;左引き手}
 73
     1
 44
1.0
  0
MTEXT
  5
BC
330
1F
100
AcDbEntity
  8
0-A_文字
  6
Continuous
 62
     7
370
     9
100
AcDbMText
 10
3545.917643811961
 20
3700.719983504012
 30
0.0
 40
91.44
 41
720.0
 46
0.0
 71
     7
 72
     1
  1
{\fＭＳ ゴシック|b0|i0|c128|p49;■引き手方向}
 73
     1
 44
1.0
  0
LINE
  5
BD
330
1F
100
AcDbEntity
  8
0-4_枠
  6
Continuous
 62
    92
370
    13
100
AcDbLine
 10
2326.034776066287
 20
2507.962168973791
 30
0.0
 11
2269.034776066287
 21
2507.962168973791
 31
0.0
  0
LINE
  5
BE
330
1F
100
AcDbEntity
  8
0-4_枠
  6
Continuous
 62
    92
370
    13
100
AcDbLine
 10
2266.034776066287
 20
2036.962168973789
 30
0.0
 11
2266.034776066287
 21
2162.962168973789
 31
0.0
  0
LINE
  5
BF
330
1F
100
AcDbEntity
  8
0-B_寸法
  6
Continuous
 62
   120
370
     5
100
AcDbLine
 10
2098.367897389674
 20
2510.96216897379
 30
0.0
 11
2211.34906402073
 21
2510.96216897379
 31
0.0
  0
LWPOLYLINE
  5
C0
330
1F
100
AcDbEntity
  8
0-B_寸法
  6
Continuous
 62
     7
370
     9
100
AcDbPolyline
 90
        4
 70
     1
 43
3.0
 10
2099.867897389674
 20
2510.96216897379
 42
0.4142135623731
 10
2098.367897389674
 20
2512.46216897379
 42
0.4142135623731
 10
2096.867897389674
 20
2510.96216897379
 42
0.4142135623731
 10
2098.367897389674
 20
2509.46216897379
 42
0.4142135623731
  0
LINE
  5
C1
330
1F
100
AcDbEntity
  8
0-B_寸法
  6
Continuous
 62
   120
370
     5
100
AcDbLine
 10
2098.367897389674
 20
2036.962168973789
 30
0.0
 11
2211.34906402073
 21
2036.962168973789
 31
0.0
  0
LWPOLYLINE
  5
C2
330
1F
100
AcDbEntity
  8
0-B_寸法
  6
Continuous
 62
     7
370
     9
100
AcDbPolyline
 90
        4
 70
     1
 43
3.0
 10
2099.867897389674
 20
2036.962168973789
 42
0.4142135623731
 10
2098.367897389674
 20
2038.462168973789
 42
0.4142135623731
 10
2096.867897389674
 20
2036.962168973789
 42
0.4142135623731
 10
2098.367897389674
 20
2035.462168973789
 42
0.4142135623731
  0
LINE
  5
C3
330
1F
100
AcDbEntity
  8
0-B_寸法
  6
Continuous
 62
   120
370
     5
100
AcDbLine
 10
2098.367897389674
 20
2036.962168973789
 30
0.0
 11
2098.367897389674
 21
2510.96216897379
 31
0.0
  0
LINE
  5
C4
330
1F
100
AcDbEntity
  8
0-2_柱
  6
Continuous
 62
     7
370
     9
100
AcDbLine
 10
2475.95133889813
 20
1856.962168973789
 30
0.0
 11
2475.95133889813
 21
2486.962168973789
 31
0.0
  0
LINE
  5
C5
330
1F
100
AcDbEntity
  8
仕上げ
  6
Continuous
 62
    40
370
    15
100
AcDbLine
 10
2775.951338898112
 20
2486.962168973789
 30
0.0
 11
2415.951338898112
 21
2486.962168973789
 31
0.0
  0
LINE
  5
C6
330
1F
100
AcDbEntity
  8
仕上げ
  6
Continuous
 62
    40
370
    15
100
AcDbLine
 10
2775.951338898112
 20
2561.962168973789
 30
0.0
 11
2415.951338898112
 21
2561.962168973789
 31
0.0
  0
LINE
  5
C7
330
1F
100
AcDbEntity
  8
仕上げ
  6
Continuous
 62
    40
370
    15
100
AcDbLine
 10
2415.951338898112
 20
2486.962168973789
 30
0.0
 11
2415.951338898112
 21
2561.962168973789
 31
0.0
  0
LINE
  5
C8
330
1F
100
AcDbEntity
  8
0-2_柱
  6
Continuous
 62
     7
370
     9
100
AcDbLine
 10
2637.95133889813
 20
1856.962168973789
 30
0.0
 11
2475.95133889813
 21
1856.962168973789
 31
0.0
  0
LINE
  5
C9
330
1F
100
AcDbEntity
  8
0-2_柱
  6
Continuous
 62
     7
370
     9
100
AcDbLine
 10
2637.95133889813
 20
2486.962168973789
 30
0.0
 11
2637.95133889813
 21
1856.962168973789
 31
0.0
  0
LINE
  5
CA
330
1F
100
AcDbEntity
  8
0-2_柱
  6
Continuous
 62
     7
370
     9
100
AcDbLine
 10
2475.95133889813
 20
2486.962168973789
 30
0.0
 11
2637.95133889813
 21
2486.962168973789
 31
0.0
  0
LINE
  5
CB
330
1F
100
AcDbEntity
  8
0-4_枠
  6
Continuous
 62
    92
370
    13
100
AcDbLine
 10
2326.034776066287
 20
2450.96216897379
 30
0.0
 11
2326.034776066287
 21
2510.96216897379
 31
0.0
  0
LINE
  5
CC
330
1F
100
AcDbEntity
  8
0-4_枠
  6
Continuous
 62
    92
370
    13
100
AcDbLine
 10
2380.034776066285
 20
2450.96216897379
 30
0.0
 11
2380.034776066285
 21
2510.96216897379
 31
0.0
  0
LINE
  5
CD
330
1F
100
AcDbEntity
  8
0-4_枠
  6
Continuous
 62
    92
370
    13
100
AcDbLine
 10
2326.034776066287
 20
2450.96216897379
 30
0.0
 11
2380.034776066285
 21
2450.96216897379
 31
0.0
  0
LINE
  5
CE
330
1F
100
AcDbEntity
  8
0-4_枠
  6
Continuous
 62
    92
370
    13
100
AcDbLine
 10
2416.034776066287
 20
2468.96216897379
 30
0.0
 11
2446.034776066287
 21
2468.96216897379
 31
0.0
  0
LINE
  5
CF
330
1F
100
AcDbEntity
  8
0-4_枠
  6
Continuous
 62
    92
370
    13
100
AcDbLine
 10
2416.034776066287
 20
2468.96216897379
 30
0.0
 11
2416.034776066287
 21
2510.96216897379
 31
0.0
  0
LINE
  5
D0
330
1F
100
AcDbEntity
  8
0-4_枠
  6
Continuous
 62
    92
370
    13
100
AcDbLine
 10
2380.034776066285
 20
2510.96216897379
 30
0.0
 11
2416.034776066287
 21
2510.96216897379
 31
0.0
  0
LINE
  5
D1
330
1F
100
AcDbEntity
  8
0-4_枠
  6
Continuous
 62
    92
370
    13
100
AcDbLine
 10
2326.034776066287
 20
2510.96216897379
 30
0.0
 11
2266.034776066287
 21
2510.96216897379
 31
0.0
  0
LINE
  5
D2
330
1F
100
AcDbEntity
  8
0-4_枠
  6
Continuous
 62
    92
370
    13
100
AcDbLine
 10
2266.034776066287
 20
2510.96216897379
 30
0.0
 11
2266.034776066287
 21
2408.962168973788
 31
0.0
  0
LINE
  5
D3
330
1F
100
AcDbEntity
  8
0-4_枠
  6
Continuous
 62
    92
370
    13
100
AcDbLine
 10
2269.034776066287
 20
2507.962168973791
 30
0.0
 11
2269.034776066287
 21
2411.962168973787
 31
0.0
  0
LINE
  5
D4
330
1F
100
AcDbEntity
  8
0-4_枠
  6
Continuous
 62
    92
370
    13
100
AcDbLine
 10
2302.034776066285
 20
2408.962168973788
 30
0.0
 11
2266.034776066287
 21
2408.962168973788
 31
0.0
  0
LINE
  5
D5
330
1F
100
AcDbEntity
  8
0-4_枠
  6
Continuous
 62
    92
370
    13
100
AcDbLine
 10
2305.034776066285
 20
2411.962168973787
 30
0.0
 11
2269.034776066287
 21
2411.962168973787
 31
0.0
  0
LINE
  5
D6
330
1F
100
AcDbEntity
  8
0-4_枠
  6
Continuous
 62
    92
370
    13
100
AcDbLine
 10
2302.034776066285
 20
2408.962168973788
 30
0.0
 11
2302.034776066285
 21
2162.962168973789
 31
0.0
  0
LINE
  5
D7
330
1F
100
AcDbEntity
  8
0-4_枠
  6
Continuous
 62
    92
370
    13
100
AcDbLine
 10
2305.034776066285
 20
2411.962168973787
 30
0.0
 11
2305.034776066285
 21
2159.962168973788
 31
0.0
  0
LINE
  5
D8
330
1F
100
AcDbEntity
  8
0-4_枠
  6
Continuous
 62
    92
370
    13
100
AcDbLine
 10
2302.034776066285
 20
2162.962168973789
 30
0.0
 11
2266.034776066287
 21
2162.962168973789
 31
0.0
  0
LINE
  5
D9
330
1F
100
AcDbEntity
  8
0-4_枠
  6
Continuous
 62
    92
370
    13
100
AcDbLine
 10
2305.034776066285
 20
2159.962168973788
 30
0.0
 11
2269.034776066287
 21
2159.962168973788
 31
0.0
  0
LINE
  5
DA
330
1F
100
AcDbEntity
  8
0-4_枠
  6
Continuous
 62
    92
370
    13
100
AcDbLine
 10
2446.034776066287
 20
2036.962168973789
 30
0.0
 11
2266.034776066287
 21
2036.962168973789
 31
0.0
  0
LINE
  5
DB
330
1F
100
AcDbEntity
  8
0-4_枠
  6
Continuous
 62
    92
370
    13
100
AcDbLine
 10
2446.034776066287
 20
2468.96216897379
 30
0.0
 11
2446.034776066287
 21
2036.962168973789
 31
0.0
  0
LINE
  5
DC
330
1F
100
AcDbEntity
  8
0-4_枠
  6
Continuous
 62
    92
370
    13
100
AcDbLine
 10
2269.034776066287
 20
2036.962168973789
 30
0.0
 11
2269.034776066287
 21
2159.962168973788
 31
0.0
  0
LINE
  5
DD
330
1F
100
AcDbEntity
  8
ハッチ
  6
JWW_DASHED1
 62
   120
370
     5
100
AcDbLine
 10
2754.055119274158
 20
2486.962168973786
 30
0.0
 11
2775.951338898113
 21
2508.858388597737
 31
0.0
  0
LINE
  5
DE
330
1F
100
AcDbEntity
  8
ハッチ
  6
JWW_DASHED1
 62
   120
370
     5
100
AcDbLine
 10
2711.628712402963
 20
2486.962168973789
 30
0.0
 11
2775.951338898118
 21
2551.284795468939
 31
0.0
  0
LINE
  5
DF
330
1F
100
AcDbEntity
  8
ハッチ
  6
JWW_DASHED1
 62
   120
370
     5
100
AcDbLine
 10
2669.202305531768
 20
2486.962168973792
 30
0.0
 11
2744.202305531763
 21
2561.962168973789
 31
0.0
  0
LINE
  5
E0
330
1F
100
AcDbEntity
  8
ハッチ
  6
JWW_DASHED1
 62
   120
370
     5
100
AcDbLine
 10
2626.77589866057
 20
2486.962168973796
 30
0.0
 11
2701.775898660568
 21
2561.962168973792
 31
0.0
  0
LINE
  5
E1
330
1F
100
AcDbEntity
  8
ハッチ
  6
JWW_DASHED1
 62
   120
370
     5
100
AcDbLine
 10
2584.34949178942
 20
2486.962168973789
 30
0.0
 11
2659.349491789413
 21
2561.962168973786
 31
0.0
  0
LINE
  5
E2
330
1F
100
AcDbEntity
  8
ハッチ
  6
JWW_DASHED1
 62
   120
370
     5
100
AcDbLine
 10
2541.923084918224
 20
2486.962168973794
 30
0.0
 11
2616.923084918218
 21
2561.962168973789
 31
0.0
  0
LINE
  5
E3
330
1F
100
AcDbEntity
  8
ハッチ
  6
JWW_DASHED1
 62
   120
370
     5
100
AcDbLine
 10
2499.496678047011
 20
2486.962168973782
 30
0.0
 11
2574.496678047022
 21
2561.962168973792
 31
0.0
  0
LINE
  5
E4
330
1F
100
AcDbEntity
  8
ハッチ
  6
JWW_DASHED1
 62
   120
370
     5
100
AcDbLine
 10
2457.070271175813
 20
2486.962168973786
 30
0.0
 11
2532.070271175824
 21
2561.962168973796
 31
0.0
  0
LINE
  5
E5
330
1F
100
AcDbEntity
  8
ハッチ
  6
JWW_DASHED1
 62
   120
370
     5
100
AcDbLine
 10
2415.951338898112
 20
2488.269643567283
 30
0.0
 11
2489.643864304613
 21
2561.962168973782
 31
0.0
  0
LINE
  5
E6
330
1F
100
AcDbEntity
  8
ハッチ
  6
JWW_DASHED1
 62
   120
370
     5
100
AcDbLine
 10
2415.951338898112
 20
2530.696050438483
 30
0.0
 11
2447.217457433413
 21
2561.962168973782
 31
0.0
  0
LINE
  5
E7
330
1F
100
AcDbEntity
  8
ハッチ
  6
Continuous
 62
   120
370
     5
100
AcDbLine
 10
2421.500949592414
 20
2036.962168973789
 30
0.0
 11
2446.034776066297
 21
2061.495995447672
 31
0.0
  0
LINE
  5
E8
330
1F
100
AcDbEntity
  8
ハッチ
  6
Continuous
 62
   120
370
     5
100
AcDbLine
 10
2305.034776066285
 20
2395.671752405001
 30
0.0
 11
2360.325192635071
 21
2450.962168973788
 31
0.0
  0
LINE
  5
E9
330
1F
100
AcDbEntity
  8
ハッチ
  6
Continuous
 62
   120
370
     5
100
AcDbLine
 10
2305.034776066285
 20
2276.877813165653
 30
0.0
 11
2446.034776066287
 21
2417.877813165652
 31
0.0
  0
LINE
  5
EA
330
1F
100
AcDbEntity
  8
ハッチ
  6
Continuous
 62
   120
370
     5
100
AcDbLine
 10
2362.103979972767
 20
2036.962168973789
 30
0.0
 11
2446.034776066287
 21
2120.892965067309
 31
0.0
  0
LINE
  5
EB
330
1F
100
AcDbEntity
  8
ハッチ
  6
Continuous
 62
   120
370
     5
100
AcDbLine
 10
2269.034776066304
 20
2122.083873926377
 30
0.0
 11
2446.034776066287
 21
2299.08387392636
 31
0.0
  0
LINE
  5
EC
330
1F
100
AcDbEntity
  8
ハッチ
  6
Continuous
 62
   120
370
     5
100
AcDbLine
 10
2269.034776066288
 20
2062.68690430666
 30
0.0
 11
2446.034776066287
 21
2239.686904306658
 31
0.0
  0
LINE
  5
ED
330
1F
100
AcDbEntity
  8
ハッチ
  6
Continuous
 62
   120
370
     5
100
AcDbLine
 10
2302.707010353064
 20
2036.962168973789
 30
0.0
 11
2446.034776066287
 21
2180.289934687012
 31
0.0
  0
LINE
  5
EE
330
1F
100
AcDbEntity
  8
ハッチ
  6
Continuous
 62
   120
370
     5
100
AcDbLine
 10
2305.034776066286
 20
2217.480843546006
 30
0.0
 11
2446.034776066287
 21
2358.480843546007
 31
0.0
  0
LINE
  5
EF
330
1F
100
AcDbEntity
  8
ハッチ
  6
Continuous
 62
   120
370
     5
100
AcDbLine
 10
2305.034776066285
 20
2336.274782785353
 30
0.0
 11
2437.722162254723
 21
2468.96216897379
 31
0.0
  0
LINE
  5
F0
330
1F
100
AcDbEntity
  8
ハッチ
  6
Continuous
 62
   120
370
     5
100
AcDbLine
 10
2380.034776066285
 20
2470.671752405002
 30
0.0
 11
2415.951338898112
 21
2506.588315236829
 31
0.0
  0
LINE
  5
F1
330
1F
100
AcDbEntity
  8
ハッチ
  6
Continuous
 62
   120
370
     5
100
AcDbLine
 10
2269.034776066304
 20
2419.068722024723
 30
0.0
 11
2326.034776066287
 21
2476.068722024704
 31
0.0
  0
LINE
  5
F2
330
1F
100
AcDbEntity
  8
ハッチ
  6
Continuous
 62
   120
370
     5
100
AcDbLine
 10
2269.034776066287
 20
2478.465691644386
 30
0.0
 11
2298.531253395722
 21
2507.962168973791
 31
0.0
  0
LINE
  5
F3
330
1F
100
AcDbEntity
  8
0-2_柱
  6
Continuous
 62
     7
370
     9
100
AcDbLine
 10
2475.95133889813
 20
1856.962168973789
 30
0.0
 11
2313.95133889813
 21
1856.962168973789
 31
0.0
  0
LINE
  5
F4
330
1F
100
AcDbEntity
  8
0-2_柱
  6
Continuous
 62
     7
370
     9
100
AcDbLine
 10
2475.95133889813
 20
1856.962168973789
 30
0.0
 11
2637.95133889813
 21
2486.962168973789
 31
0.0
  0
LINE
  5
F5
330
1F
100
AcDbEntity
  8
0-2_柱
  6
Continuous
 62
     7
370
     9
100
AcDbLine
 10
2313.95133889813
 20
1856.962168973789
 30
0.0
 11
2313.95133889813
 21
2036.962168973789
 31
0.0
  0
LINE
  5
F6
330
1F
100
AcDbEntity
  8
0-2_柱
  6
Continuous
 62
     7
370
     9
100
AcDbLine
 10
2313.95133889813
 20
2036.962168973789
 30
0.0
 11
2475.95133889813
 21
2036.962168973789
 31
0.0
  0
LINE
  5
F7
330
1F
100
AcDbEntity
  8
0-2_柱
  6
Continuous
 62
     7
370
     9
100
AcDbLine
 10
2475.95133889813
 20
2036.962168973789
 30
0.0
 11
2313.95133889813
 21
1856.962168973789
 31
0.0
  0
LINE
  5
F8
330
1F
100
AcDbEntity
  8
ハッチ
  6
JWW_DASHED1
 62
   120
370
     5
100
AcDbLine
 10
2258.465216385115
 20
2036.962168973789
 30
0.0
 11
2266.034776066289
 21
2044.531728654963
 31
0.0
  0
LINE
  5
F9
330
1F
100
AcDbEntity
  8
ハッチ
  6
JWW_DASHED1
 62
   120
370
     5
100
AcDbLine
 10
2216.038809513902
 20
2036.962168973777
 30
0.0
 11
2266.0347760663
 21
2086.958135526174
 31
0.0
  0
LINE
  5
FA
330
1F
100
AcDbEntity
  8
ハッチ
  6
JWW_DASHED1
 62
   120
370
     5
100
AcDbLine
 10
2173.612402642706
 20
2036.962168973781
 30
0.0
 11
2245.612402642705
 21
2108.96216897378
 31
0.0
  0
LINE
  5
FB
330
1F
100
AcDbEntity
  8
ハッチ
  6
JWW_DASHED1
 62
   120
370
     5
100
AcDbLine
 10
2131.18599577151
 20
2036.962168973784
 30
0.0
 11
2203.185995771509
 21
2108.962168973783
 31
0.0
  0
LINE
  5
FC
330
1F
100
AcDbEntity
  8
ハッチ
  6
JWW_DASHED1
 62
   120
370
     5
100
AcDbLine
 10
2088.759588900314
 20
2036.962168973788
 30
0.0
 11
2160.759588900313
 21
2108.962168973787
 31
0.0
  0
LINE
  5
FD
330
1F
100
AcDbEntity
  8
ハッチ
  6
JWW_DASHED1
 62
   120
370
     5
100
AcDbLine
 10
2046.333182029117
 20
2036.962168973792
 30
0.0
 11
2118.333182029116
 21
2108.962168973791
 31
0.0
  0
LINE
  5
FE
330
1F
100
AcDbEntity
  8
ハッチ
  6
JWW_DASHED1
 62
   120
370
     5
100
AcDbLine
 10
2003.906775157921
 20
2036.962168973796
 30
0.0
 11
2075.90677515792
 21
2108.962168973795
 31
0.0
  0
LINE
  5
FF
330
1F
100
AcDbEntity
  8
ハッチ
  6
JWW_DASHED1
 62
   120
370
     5
100
AcDbLine
 10
1961.480368286771
 20
2036.962168973791
 30
0.0
 11
2033.480368286753
 21
2108.962168973773
 31
0.0
  0
LINE
  5
100
330
1F
100
AcDbEntity
  8
ハッチ
  6
JWW_DASHED1
 62
   120
370
     5
100
AcDbLine
 10
1919.053961415559
 20
2036.962168973779
 30
0.0
 11
1991.053961415558
 21
2108.962168973777
 31
0.0
  0
LINE
  5
101
330
1F
100
AcDbEntity
  8
ハッチ
  6
JWW_DASHED1
 62
   120
370
     5
100
AcDbLine
 10
1876.62755454436
 20
2036.962168973779
 30
0.0
 11
1948.627554544359
 21
2108.962168973779
 31
0.0
  0
LINE
  5
102
330
1F
100
AcDbEntity
  8
ハッチ
  6
JWW_DASHED1
 62
   120
370
     5
100
AcDbLine
 10
1834.201147673163
 20
2036.962168973783
 30
0.0
 11
1906.201147673162
 21
2108.962168973782
 31
0.0
  0
LINE
  5
103
330
1F
100
AcDbEntity
  8
ハッチ
  6
JWW_DASHED1
 62
   120
370
     5
100
AcDbLine
 10
1791.774740801967
 20
2036.962168973787
 30
0.0
 11
1863.774740801966
 21
2108.962168973786
 31
0.0
  0
LINE
  5
104
330
1F
100
AcDbEntity
  8
ハッチ
  6
JWW_DASHED1
 62
   120
370
     5
100
AcDbLine
 10
1749.348333930771
 20
2036.962168973791
 30
0.0
 11
1821.34833393077
 21
2108.96216897379
 31
0.0
  0
LINE
  5
105
330
1F
100
AcDbEntity
  8
ハッチ
  6
JWW_DASHED1
 62
   120
370
     5
100
AcDbLine
 10
1706.921927059575
 20
2036.962168973794
 30
0.0
 11
1778.921927059574
 21
2108.962168973794
 31
0.0
  0
LINE
  5
106
330
1F
100
AcDbEntity
  8
ハッチ
  6
JWW_DASHED1
 62
   120
370
     5
100
AcDbLine
 10
1664.495520188378
 20
2036.962168973798
 30
0.0
 11
1736.495520188362
 21
2108.962168973781
 31
0.0
  0
LINE
  5
107
330
1F
100
AcDbEntity
  8
ハッチ
  6
JWW_DASHED1
 62
   120
370
     5
100
AcDbLine
 10
1622.069113317231
 20
2036.962168973796
 30
0.0
 11
1694.069113317214
 21
2108.962168973779
 31
0.0
  0
LINE
  5
108
330
1F
100
AcDbEntity
  8
ハッチ
  6
JWW_DASHED1
 62
   120
370
     5
100
AcDbLine
 10
1579.642706446013
 20
2036.962168973778
 30
0.0
 11
1651.642706446012
 21
2108.962168973777
 31
0.0
  0
LINE
  5
109
330
1F
100
AcDbEntity
  8
ハッチ
  6
JWW_DASHED1
 62
   120
370
     5
100
AcDbLine
 10
1537.216299574817
 20
2036.962168973782
 30
0.0
 11
1609.216299574816
 21
2108.962168973781
 31
0.0
  0
LINE
  5
10A
330
1F
100
AcDbEntity
  8
ハッチ
  6
JWW_DASHED1
 62
   120
370
     5
100
AcDbLine
 10
1494.78989270362
 20
2036.962168973786
 30
0.0
 11
1566.78989270362
 21
2108.962168973785
 31
0.0
  0
LINE
  5
10B
330
1F
100
AcDbEntity
  8
ハッチ
  6
JWW_DASHED1
 62
   120
370
     5
100
AcDbLine
 10
1452.363485832424
 20
2036.96216897379
 30
0.0
 11
1524.363485832423
 21
2108.962168973789
 31
0.0
  0
LINE
  5
10C
330
1F
100
AcDbEntity
  8
ハッチ
  6
JWW_DASHED1
 62
   120
370
     5
100
AcDbLine
 10
1409.937078961228
 20
2036.962168973793
 30
0.0
 11
1481.937078961227
 21
2108.962168973792
 31
0.0
  0
LINE
  5
10D
330
1F
100
AcDbEntity
  8
ハッチ
  6
JWW_DASHED1
 62
   120
370
     5
100
AcDbLine
 10
1367.510672090031
 20
2036.962168973797
 30
0.0
 11
1439.510672090031
 21
2108.962168973796
 31
0.0
  0
LINE
  5
10E
330
1F
100
AcDbEntity
  8
0-7_金物
  6
Continuous
 62
     7
370
     9
100
AcDbLine
 10
2302.034776066286
 20
2222.962743188825
 30
0.0
 11
2302.034776066286
 21
2330.962168973787
 31
0.0
  0
LINE
  5
10F
330
1F
100
AcDbEntity
  8
0-7_金物
  6
Continuous
 62
     7
370
     9
100
AcDbLine
 10
2332.034776066286
 20
2300.962168973787
 30
0.0
 11
2332.034776066286
 21
2270.962168973787
 31
0.0
  0
LINE
  5
110
330
1F
100
AcDbEntity
  8
0-7_金物
  6
Continuous
 62
     7
370
     9
100
AcDbLine
 10
2302.034776066286
 20
2330.962168973787
 30
0.0
 11
2284.034776066287
 21
2330.962168973787
 31
0.0
  0
LINE
  5
111
330
1F
100
AcDbEntity
  8
0-7_金物
  6
Continuous
 62
     7
370
     9
100
AcDbLine
 10
2284.034776066287
 20
2240.962168973787
 30
0.0
 11
2302.034776066286
 21
2240.962168973787
 31
0.0
  0
LINE
  5
112
330
1F
100
AcDbEntity
  8
0-7_金物
  6
Continuous
 62
     7
370
     9
100
AcDbLine
 10
2302.034776066286
 20
2300.962168973787
 30
0.0
 11
2332.034776066286
 21
2300.962168973787
 31
0.0
  0
LINE
  5
113
330
1F
100
AcDbEntity
  8
0-7_金物
  6
Continuous
 62
     7
370
     9
100
AcDbLine
 10
2332.034776066286
 20
2270.962168973787
 30
0.0
 11
2302.034776066286
 21
2270.962168973787
 31
0.0
  0
ARC
  5
114
330
1F
100
AcDbEntity
  8
0-7_金物
  6
Continuous
 62
     7
370
     9
100
AcDbCircle
 10
2449.784776066285
 20
2285.962168973787
 30
0.0
 40
171.7499999999977
100
AcDbArc
 50
164.8107132628169
 51
195.1892867371831
  0
LINE
  5
115
330
1F
100
AcDbEntity
  8
0-7_金物
  6
Continuous
 62
     7
370
     9
100
AcDbLine
 10
2463.951002379969
 20
2195.962243205734
 30
0.0
 11
2463.951002379969
 21
2375.96209474184
 31
0.0
  0
LINE
  5
116
330
1F
100
AcDbEntity
  8
0-7_金物
  6
Continuous
 62
     7
370
     9
100
AcDbLine
 10
2475.95133889813
 20
2375.96209474184
 30
0.0
 11
2463.951002379969
 21
2375.96209474184
 31
0.0
  0
LINE
  5
117
330
1F
100
AcDbEntity
  8
0-7_金物
  6
Continuous
 62
     7
370
     9
100
AcDbLine
 10
2475.95133889813
 20
2195.962243205734
 30
0.0
 11
2463.951002379969
 21
2195.962243205734
 31
0.0
  0
LINE
  5
118
330
1F
100
AcDbEntity
  8
0-7_金物
  6
Continuous
 62
     7
370
     9
100
AcDbLine
 10
2475.95133889813
 20
2195.962243205734
 30
0.0
 11
2475.95133889813
 21
2375.96209474184
 31
0.0
  0
LINE
  5
119
330
1F
100
AcDbEntity
  8
0-7_金物
  6
Continuous
 62
     7
370
     9
100
AcDbLine
 10
2463.951002379969
 20
2225.962342181663
 30
0.0
 11
2451.952150500746
 21
2225.962342181663
 31
0.0
  0
LINE
  5
11A
330
1F
100
AcDbEntity
  8
0-7_金物
  6
Continuous
 62
     7
370
     9
100
AcDbLine
 10
2463.951002379969
 20
2345.961995765911
 30
0.0
 11
2451.952150500746
 21
2345.961995765911
 31
0.0
  0
LINE
  5
11B
330
1F
100
AcDbEntity
  8
0-7_金物
  6
Continuous
 62
     7
370
     9
100
AcDbLine
 10
2451.952150500746
 20
2225.962342181663
 30
0.0
 11
2451.952150500746
 21
2345.961995765911
 31
0.0
  0
LINE
  5
11C
330
1F
100
AcDbEntity
  8
0-7_金物
  6
Continuous
 62
     7
370
     9
100
AcDbLine
 10
2451.952150500746
 20
2339.962569826299
 30
0.0
 11
2445.95133889813
 21
2339.962569826299
 31
0.0
  0
LINE
  5
11D
330
1F
100
AcDbEntity
  8
0-7_金物
  6
Continuous
 62
     7
370
     9
100
AcDbLine
 10
2451.952150500746
 20
2231.962510440741
 30
0.0
 11
2445.95133889813
 21
2231.962510440741
 31
0.0
  0
LINE
  5
11E
330
1F
100
AcDbEntity
  8
0-6_扉
  6
JWW_DASHED2
 62
    40
370
    15
100
AcDbLine
 10
2284.034776066284
 20
2195.962168973789
 30
0.0
 11
2284.034776066284
 21
2375.962168973789
 31
0.0
  0
LINE
  5
11F
330
1F
100
AcDbEntity
  8
ハッチ
  6
JWW_DASHED1
 62
   120
370
     5
100
AcDbLine
 10
2767.140540066556
 20
1781.962168973793
 30
0.0
 11
2776.034776066284
 21
1790.856404973522
 31
0.0
  0
LINE
  5
120
330
1F
100
AcDbEntity
  8
ハッチ
  6
JWW_DASHED1
 62
   120
370
     5
100
AcDbLine
 10
2724.714133195343
 20
1781.962168973781
 30
0.0
 11
2776.034776066288
 21
1833.282811844726
 31
0.0
  0
LINE
  5
121
330
1F
100
AcDbEntity
  8
ハッチ
  6
JWW_DASHED1
 62
   120
370
     5
100
AcDbLine
 10
2682.287726324206
 20
1781.962168973789
 30
0.0
 11
2757.287726324217
 21
1856.9621689738
 31
0.0
  0
LINE
  5
122
330
1F
100
AcDbEntity
  8
ハッチ
  6
JWW_DASHED1
 62
   120
370
     5
100
AcDbLine
 10
2639.86131945301
 20
1781.962168973793
 30
0.0
 11
2714.861319453005
 21
1856.962168973788
 31
0.0
  0
LINE
  5
123
330
1F
100
AcDbEntity
  8
ハッチ
  6
JWW_DASHED1
 62
   120
370
     5
100
AcDbLine
 10
2597.434912581799
 20
1781.962168973782
 30
0.0
 11
2672.434912581794
 21
1856.962168973777
 31
0.0
  0
LINE
  5
124
330
1F
100
AcDbEntity
  8
ハッチ
  6
JWW_DASHED1
 62
   120
370
     5
100
AcDbLine
 10
2555.008505710603
 20
1781.962168973787
 30
0.0
 11
2630.008505710598
 21
1856.962168973781
 31
0.0
  0
LINE
  5
125
330
1F
100
AcDbEntity
  8
ハッチ
  6
JWW_DASHED1
 62
   120
370
     5
100
AcDbLine
 10
2512.582098839408
 20
1781.962168973791
 30
0.0
 11
2587.582098839402
 21
1856.962168973785
 31
0.0
  0
LINE
  5
126
330
1F
100
AcDbEntity
  8
ハッチ
  6
JWW_DASHED1
 62
   120
370
     5
100
AcDbLine
 10
2470.155691968208
 20
1781.962168973792
 30
0.0
 11
2545.155691968204
 21
1856.962168973787
 31
0.0
  0
LINE
  5
127
330
1F
100
AcDbEntity
  8
ハッチ
  6
JWW_DASHED1
 62
   120
370
     5
100
AcDbLine
 10
2427.729285097012
 20
1781.962168973795
 30
0.0
 11
2502.729285097007
 21
1856.962168973791
 31
0.0
  0
LINE
  5
128
330
1F
100
AcDbEntity
  8
ハッチ
  6
JWW_DASHED1
 62
   120
370
     5
100
AcDbLine
 10
2385.3028782258
 20
1781.962168973783
 30
0.0
 11
2460.302878225811
 21
1856.962168973794
 31
0.0
  0
LINE
  5
129
330
1F
100
AcDbEntity
  8
ハッチ
  6
JWW_DASHED1
 62
   120
370
     5
100
AcDbLine
 10
2342.876471354662
 20
1781.962168973791
 30
0.0
 11
2417.876471354657
 21
1856.962168973786
 31
0.0
  0
LINE
  5
12A
330
1F
100
AcDbEntity
  8
ハッチ
  6
JWW_DASHED1
 62
   120
370
     5
100
AcDbLine
 10
2300.450064483456
 20
1781.962168973784
 30
0.0
 11
2375.45006448345
 21
1856.962168973778
 31
0.0
  0
LINE
  5
12B
330
1F
100
AcDbEntity
  8
ハッチ
  6
JWW_DASHED1
 62
   120
370
     5
100
AcDbLine
 10
2258.02365761226
 20
1781.962168973788
 30
0.0
 11
2333.023657612254
 21
1856.962168973783
 31
0.0
  0
LINE
  5
12C
330
1F
100
AcDbEntity
  8
ハッチ
  6
JWW_DASHED1
 62
   120
370
     5
100
AcDbLine
 10
2215.597250741063
 20
1781.962168973793
 30
0.0
 11
2290.597250741058
 21
1856.962168973787
 31
0.0
  0
LINE
  5
12D
330
1F
100
AcDbEntity
  8
ハッチ
  6
JWW_DASHED1
 62
   120
370
     5
100
AcDbLine
 10
2173.170843869867
 20
1781.962168973796
 30
0.0
 11
2248.170843869862
 21
1856.962168973791
 31
0.0
  0
LINE
  5
12E
330
1F
100
AcDbEntity
  8
ハッチ
  6
JWW_DASHED1
 62
   120
370
     5
100
AcDbLine
 10
2130.744436998665
 20
1781.962168973793
 30
0.0
 11
2205.74443699866
 21
1856.962168973789
 31
0.0
  0
LINE
  5
12F
330
1F
100
AcDbEntity
  8
ハッチ
  6
JWW_DASHED1
 62
   120
370
     5
100
AcDbLine
 10
2088.318030127453
 20
1781.962168973781
 30
0.0
 11
2163.318030127463
 21
1856.962168973793
 31
0.0
  0
LINE
  5
130
330
1F
100
AcDbEntity
  8
ハッチ
  6
JWW_DASHED1
 62
   120
370
     5
100
AcDbLine
 10
2045.891623256315
 20
1781.962168973789
 30
0.0
 11
2120.891623256327
 21
1856.9621689738
 31
0.0
  0
LINE
  5
131
330
1F
100
AcDbEntity
  8
ハッチ
  6
JWW_DASHED1
 62
   120
370
     5
100
AcDbLine
 10
2003.465216385119
 20
1781.962168973793
 30
0.0
 11
2078.465216385114
 21
1856.962168973788
 31
0.0
  0
LINE
  5
132
330
1F
100
AcDbEntity
  8
ハッチ
  6
JWW_DASHED1
 62
   120
370
     5
100
AcDbLine
 10
1961.038809513916
 20
1781.96216897379
 30
0.0
 11
2036.03880951391
 21
1856.962168973784
 31
0.0
  0
LINE
  5
133
330
1F
100
AcDbEntity
  8
ハッチ
  6
JWW_DASHED1
 62
   120
370
     5
100
AcDbLine
 10
1918.61240264272
 20
1781.962168973794
 30
0.0
 11
1993.612402642714
 21
1856.962168973788
 31
0.0
  0
LINE
  5
134
330
1F
100
AcDbEntity
  8
ハッチ
  6
JWW_DASHED1
 62
   120
370
     5
100
AcDbLine
 10
1876.185995771524
 20
1781.962168973798
 30
0.0
 11
1951.185995771518
 21
1856.962168973793
 31
0.0
  0
LINE
  5
135
330
1F
100
AcDbEntity
  8
ハッチ
  6
JWW_DASHED1
 62
   120
370
     5
100
AcDbLine
 10
1833.759588900317
 20
1781.962168973792
 30
0.0
 11
1908.759588900313
 21
1856.962168973787
 31
0.0
  0
LINE
  5
136
330
1F
100
AcDbEntity
  8
ハッチ
  6
JWW_DASHED1
 62
   120
370
     5
100
AcDbLine
 10
1791.333182029121
 20
1781.962168973795
 30
0.0
 11
1866.333182029116
 21
1856.962168973791
 31
0.0
  0
LINE
  5
137
330
1F
100
AcDbEntity
  8
ハッチ
  6
JWW_DASHED1
 62
   120
370
     5
100
AcDbLine
 10
1748.906775157909
 20
1781.962168973783
 30
0.0
 11
1823.90677515792
 21
1856.962168973794
 31
0.0
  0
LINE
  5
138
330
1F
100
AcDbEntity
  8
ハッチ
  6
JWW_DASHED1
 62
   120
370
     5
100
AcDbLine
 10
1706.480368286771
 20
1781.962168973791
 30
0.0
 11
1781.480368286767
 21
1856.962168973787
 31
0.0
  0
LINE
  5
139
330
1F
100
AcDbEntity
  8
ハッチ
  6
JWW_DASHED1
 62
   120
370
     5
100
AcDbLine
 10
1664.053961415575
 20
1781.962168973795
 30
0.0
 11
1739.05396141557
 21
1856.96216897379
 31
0.0
  0
LINE
  5
13A
330
1F
100
AcDbEntity
  8
ハッチ
  6
JWW_DASHED1
 62
   120
370
     5
100
AcDbLine
 10
1621.627554544375
 20
1781.962168973795
 30
0.0
 11
1696.62755454437
 21
1856.96216897379
 31
0.0
  0
LINE
  5
13B
330
1F
100
AcDbEntity
  8
ハッチ
  6
JWW_DASHED1
 62
   120
370
     5
100
AcDbLine
 10
1579.20114767318
 20
1781.962168973799
 30
0.0
 11
1654.201147673174
 21
1856.962168973794
 31
0.0
  0
LINE
  5
13C
330
1F
100
AcDbEntity
  8
ハッチ
  6
JWW_DASHED1
 62
   120
370
     5
100
AcDbLine
 10
1536.774740801984
 20
1781.962168973804
 30
0.0
 11
1611.774740801978
 21
1856.962168973798
 31
0.0
  0
LINE
  5
13D
330
1F
100
AcDbEntity
  8
ハッチ
  6
JWW_DASHED1
 62
   120
370
     5
100
AcDbLine
 10
1494.348333930774
 20
1781.962168973793
 30
0.0
 11
1569.348333930769
 21
1856.962168973789
 31
0.0
  0
LINE
  5
13E
330
1F
100
AcDbEntity
  8
ハッチ
  6
JWW_DASHED1
 62
   120
370
     5
100
AcDbLine
 10
1451.921927059577
 20
1781.962168973797
 30
0.0
 11
1526.921927059573
 21
1856.962168973793
 31
0.0
  0
LINE
  5
13F
330
1F
100
AcDbEntity
  8
ハッチ
  6
JWW_DASHED1
 62
   120
370
     5
100
AcDbLine
 10
1409.495520188365
 20
1781.962168973785
 30
0.0
 11
1484.495520188376
 21
1856.962168973796
 31
0.0
  0
LINE
  5
140
330
1F
100
AcDbEntity
  8
ハッチ
  6
JWW_DASHED1
 62
   120
370
     5
100
AcDbLine
 10
1367.069113317228
 20
1781.962168973793
 30
0.0
 11
1442.069113317223
 21
1856.962168973788
 31
0.0
  0
LWPOLYLINE
  5
141
330
1F
100
AcDbEntity
  8
0-B_寸法
  6
Continuous
 62
     7
370
     9
100
AcDbPolyline
 90
        4
 70
     1
 43
3.0
 10
2267.534776066288
 20
1061.961624593966
 42
0.4142135623731
 10
2266.034776066288
 20
1063.461624593966
 42
0.4142135623731
 10
2264.534776066288
 20
1061.961624593966
 42
0.4142135623731
 10
2266.034776066288
 20
1060.461624593966
 42
0.4142135623731
  0
MTEXT
  5
142
330
1F
100
AcDbEntity
  8
0-B_寸法
  6
Continuous
 62
     7
370
     0
100
AcDbMText
 10
2296.035444153808
 20
852.6816740819313
 30
0.0
 40
91.44
 41
120.0
 46
0.0
 71
     7
 72
     1
  1
{\fＭＳ ゴシック|b0|i0|c128|p49;30}
 73
     1
 44
1.0
  0
LWPOLYLINE
  5
143
330
1F
100
AcDbEntity
  8
0-B_寸法
  6
Continuous
 62
     7
370
     9
100
AcDbPolyline
 90
        4
 70
     1
 43
3.0
 10
2267.534776066288
 20
851.9616245939665
 42
0.4142135623731
 10
2266.034776066288
 20
853.4616245939665
 42
0.4142135623731
 10
2264.534776066288
 20
851.9616245939665
 42
0.4142135623731
 10
2266.034776066288
 20
850.4616245939665
 42
0.4142135623731
  0
LINE
  5
144
330
1F
100
AcDbEntity
  8
0-B_寸法
  6
Continuous
 62
   120
370
     5
100
AcDbLine
 10
2266.034776066288
 20
1421.961624593966
 30
0.0
 11
2266.034776066288
 21
851.9616245939665
 31
0.0
  0
LWPOLYLINE
  5
145
330
1F
100
AcDbEntity
  8
0-B_寸法
  6
Continuous
 62
     7
370
     9
100
AcDbPolyline
 90
        4
 70
     1
 43
3.0
 10
2447.534776066288
 20
851.9616245939665
 42
0.4142135623731
 10
2446.034776066288
 20
853.4616245939665
 42
0.4142135623731
 10
2444.534776066288
 20
851.9616245939665
 42
0.4142135623731
 10
2446.034776066288
 20
850.4616245939665
 42
0.4142135623731
  0
LWPOLYLINE
  5
146
330
1F
100
AcDbEntity
  8
0-B_寸法
  6
Continuous
 62
     7
370
     9
100
AcDbPolyline
 90
        4
 70
     1
 43
3.0
 10
2447.534776066288
 20
641.9616245939665
 42
0.4142135623731
 10
2446.034776066288
 20
643.4616245939665
 42
0.4142135623731
 10
2444.534776066288
 20
641.9616245939665
 42
0.4142135623731
 10
2446.034776066288
 20
640.4616245939665
 42
0.4142135623731
  0
LWPOLYLINE
  5
147
330
1F
100
AcDbEntity
  8
0-B_寸法
  6
Continuous
 62
     7
370
     9
100
AcDbPolyline
 90
        4
 70
     1
 43
3.0
 10
2477.534776066288
 20
641.9616245939665
 42
0.4142135623731
 10
2476.034776066288
 20
643.4616245939665
 42
0.4142135623731
 10
2474.534776066288
 20
641.9616245939665
 42
0.4142135623731
 10
2476.034776066288
 20
640.4616245939665
 42
0.4142135623731
  0
LWPOLYLINE
  5
148
330
1F
100
AcDbEntity
  8
0-B_寸法
  6
Continuous
 62
     7
370
     9
100
AcDbPolyline
 90
        4
 70
     1
 43
3.0
 10
2477.534776066288
 20
431.9616245939665
 42
0.4142135623731
 10
2476.034776066288
 20
433.4616245939665
 42
0.4142135623731
 10
2474.534776066288
 20
431.9616245939665
 42
0.4142135623731
 10
2476.034776066288
 20
430.4616245939665
 42
0.4142135623731
  0
MTEXT
  5
149
330
1F
100
AcDbEntity
  8
0-B_寸法
  6
Continuous
 62
     7
370
   211
100
AcDbMText
 10
2381.861965787511
 20
642.6816245939665
 30
0.0
 40
91.44
 41
60.0
 46
0.0
 71
     7
 72
     1
  1
{\fＭＳ ゴシック|b0|i0|c128|p49;5}
 73
     1
 44
1.0
  0
LINE
  5
14A
330
1F
100
AcDbEntity
  8
0-B_寸法
  6
Continuous
 62
   120
370
     5
100
AcDbLine
 10
2446.034776066288
 20
1421.961624593966
 30
0.0
 11
2446.034776066288
 21
641.9616245939665
 31
0.0
  0
LINE
  5
14B
330
1F
100
AcDbEntity
  8
0-B_寸法
  6
Continuous
 62
   120
370
     5
100
AcDbLine
 10
2476.034776066288
 20
431.9616245939665
 30
0.0
 11
2476.034776066288
 21
1421.961624593966
 31
0.0
  0
MTEXT
  5
14C
330
1F
100
AcDbEntity
  8
0-A_文字
  6
Continuous
 62
     7
370
     9
100
AcDbMText
 10
2013.418360651372
 20
235.4796838604108
 30
0.0
 40
68.58000000000001
 41
720.0
 46
0.0
 71
     7
 72
     1
  1
{\fＭＳ ゴシック|b0|i0|c128|p49;※図示：左引き手}
 73
     1
 44
1.0
  0
LINE
  5
14D
330
1F
100
AcDbEntity
  8
0-A_文字
  6
Continuous
 62
     7
370
     9
100
AcDbLine
 10
2545.595780059498
 20
2714.851663017821
 30
0.0
 11
2506.03514722602
 21
2714.851663017821
 31
0.0
  0
MTEXT
  5
14E
330
1F
100
AcDbEntity
  8
0-A_文字
  6
Continuous
 62
     7
370
     0
100
AcDbMText
 10
2536.035147226022
 20
2640.57166301782
 30
0.0
 40
91.44
 41
240.0
 46
0.0
 71
     7
 72
     1
  1
{\fＭＳ ゴシック|b0|i0|c128|p49;畳寄}
 73
     1
 44
1.0
  0
LINE
  5
14F
330
1F
100
AcDbEntity
  8
0-A_文字
  6
Continuous
 62
     7
370
     9
100
AcDbLine
 10
2446.257009547632
 20
2572.521884793916
 30
0.0
 11
2506.03514722602
 21
2714.851663017821
 31
0.0
  0
LINE
  5
150
330
1F
100
AcDbEntity
  8
0-0_補助線
  6
JWW_HOJO
 62
   120
370
     5
100
AcDbLine
 10
2776.034776066288
 20
431.9616245939665
 30
0.0
 11
2776.034776066288
 21
2780.962396613789
 31
0.0
  0
LINE
  5
151
330
1F
100
AcDbEntity
  8
仕上げ
  6
Continuous
 62
    40
370
    15
100
AcDbLine
 10
2266.034776066287
 20
2108.962168973789
 30
0.0
 11
1161.976819473829
 21
2108.962168973789
 31
0.0
  0
LINE
  5
152
330
1F
100
AcDbEntity
  8
仕上げ
  6
Continuous
 62
    40
370
    15
100
AcDbLine
 10
2266.034776066287
 20
2036.962168973789
 30
0.0
 11
1161.976819473829
 21
2036.962168973789
 31
0.0
  0
LINE
  5
153
330
1F
100
AcDbEntity
  8
仕上げ
  6
Continuous
 62
    40
370
    15
100
AcDbLine
 10
2775.951338898112
 20
1856.962168973789
 30
0.0
 11
1161.976819473829
 21
1856.962168973789
 31
0.0
  0
LINE
  5
154
330
1F
100
AcDbEntity
  8
仕上げ
  6
Continuous
 62
    40
370
    15
100
AcDbLine
 10
2775.951338898112
 20
1781.962168973789
 30
0.0
 11
1161.976819473829
 21
1781.962168973789
 31
0.0
  0
LINE
  5
155
330
1F
100
AcDbEntity
  8
0-6_扉
  6
JWW_DASHED2
 62
    40
370
    15
100
AcDbLine
 10
2284.034776066284
 20
2375.962168973789
 30
0.0
 11
1161.976819473828
 21
2375.962168973789
 31
0.0
  0
LINE
  5
156
330
1F
100
AcDbEntity
  8
0-6_扉
  6
JWW_DASHED2
 62
    40
370
    15
100
AcDbLine
 10
2284.034776066284
 20
2195.962168973789
 30
0.0
 11
1161.976819473828
 21
2195.962168973789
 31
0.0
  0
LINE
  5
157
330
1F
100
AcDbEntity
  8
0-0_補助線
  6
JWW_HOJO
 62
   120
370
     5
100
AcDbLine
 10
1161.976819473829
 20
1421.961624593966
 30
0.0
 11
1161.976819473829
 21
2771.961624593789
 31
0.0
  0
LINE
  5
158
330
1F
100
AcDbEntity
  8
0-0_補助線
  6
JWW_HOJO
 62
   120
370
     5
100
AcDbLine
 10
1041.976819473829
 20
1421.961624593966
 30
0.0
 11
1041.976819473829
 21
2771.961624593789
 31
0.0
  0
LINE
  5
159
330
1F
100
AcDbEntity
  8
0-4_枠
  6
Continuous
 62
   120
370
     5
100
AcDbLine
 10
1161.976819473829
 20
2510.96216897379
 30
0.0
 11
2266.034776066287
 21
2510.96216897379
 31
0.0
  0
LINE
  5
15A
330
1F
100
AcDbEntity
  8
仕上げ
  6
Continuous
 62
    40
370
    15
100
AcDbLine
 10
1161.976819473829
 20
2600.96216897379
 30
0.0
 11
2776.034776066288
 21
2600.96216897379
 31
0.0
  0
LINE
  5
15B
330
1F
100
AcDbEntity
  8
0-B_寸法
  6
Continuous
 62
   120
370
     5
100
AcDbLine
 10
-114.0316004909334
 20
1832.962168973789
 30
0.0
 11
-264.3093516918429
 21
1832.962168973789
 31
0.0
  0
LWPOLYLINE
  5
15C
330
1F
100
AcDbEntity
  8
0-B_寸法
  6
Continuous
 62
     7
370
     9
100
AcDbPolyline
 90
        4
 70
     1
 43
3.0
 10
-262.8093516918429
 20
1832.962168973789
 42
0.4142135623731
 10
-264.3093516918429
 20
1834.462168973789
 42
0.4142135623731
 10
-265.8093516918429
 20
1832.962168973789
 42
0.4142135623731
 10
-264.3093516918429
 20
1831.462168973789
 42
0.4142135623731
  0
LINE
  5
15D
330
1F
100
AcDbEntity
  8
0-4_枠
  6
Continuous
 62
    92
370
    13
100
AcDbLine
 10
99.91886288137266
 20
1832.962168973789
 30
0.0
 11
33.91886288137471
 21
1832.962168973789
 31
0.0
  0
LINE
  5
15E
330
1F
100
AcDbEntity
  8
0-4_枠
  6
Continuous
 62
    92
370
    13
100
AcDbLine
 10
-20.08113711863075
 20
1832.962168973789
 30
0.0
 11
-80.08113711863075
 21
1832.962168973789
 31
0.0
  0
LINE
  5
15F
330
1F
100
AcDbEntity
  8
0-4_枠
  6
Continuous
 62
    92
370
    13
100
AcDbLine
 10
-20.08113711863075
 20
1835.962168973789
 30
0.0
 11
-77.08113711862666
 21
1835.962168973789
 31
0.0
  0
LINE
  5
160
330
1F
100
AcDbEntity
  8
ハッチ
  6
Continuous
 62
   120
370
     5
100
AcDbLine
 10
53.79327564338723
 20
1832.962168973789
 30
0.0
 11
99.91886288136584
 21
1879.087756211771
 31
0.0
  0
LINE
  5
161
330
1F
100
AcDbEntity
  8
ハッチ
  6
Continuous
 62
   120
370
     5
100
AcDbLine
 10
33.91886288137471
 20
1872.484725831427
 30
0.0
 11
99.91886288136925
 21
1938.484725831418
 31
0.0
  0
LINE
  5
162
330
1F
100
AcDbEntity
  8
ハッチ
  6
Continuous
 62
   120
370
     5
100
AcDbLine
 10
-62.00066359591688
 20
1835.962168973786
 30
0.0
 11
-20.08113711863075
 21
1877.881695451068
 31
0.0
  0
LINE
  5
163
330
1F
100
AcDbEntity
  8
ハッチ
  6
Continuous
 62
   120
370
     5
100
AcDbLine
 10
-77.0811371186096
 20
1880.27866507079
 30
0.0
 11
99.91886288136925
 21
2057.278665070767
 31
0.0
  0
LINE
  5
164
330
1F
100
AcDbEntity
  8
ハッチ
  6
Continuous
 62
   120
370
     5
100
AcDbLine
 10
-77.08113711862666
 20
1939.67563469042
 30
0.0
 11
96.91886288136857
 21
2113.675634690414
 31
0.0
  0
LINE
  5
165
330
1F
100
AcDbEntity
  8
0-4_枠
  6
Continuous
 62
    92
370
    13
100
AcDbLine
 10
-20.08113711863075
 20
1832.962168973789
 30
0.0
 11
-20.08113711863075
 21
1892.962168973789
 31
0.0
  0
LINE
  5
166
330
1F
100
AcDbEntity
  8
0-4_枠
  6
Continuous
 62
    92
370
    13
100
AcDbLine
 10
33.91886288137471
 20
1892.962168973789
 30
0.0
 11
-20.08113711863075
 21
1892.962168973789
 31
0.0
  0
LINE
  5
167
330
1F
100
AcDbEntity
  8
0-4_枠
  6
Continuous
 62
    92
370
    13
100
AcDbLine
 10
33.91886288137471
 20
1892.962168973789
 30
0.0
 11
33.91886288137471
 21
1832.962168973789
 31
0.0
  0
LINE
  5
168
330
1F
100
AcDbEntity
  8
ハッチ
  6
Continuous
 62
   120
370
     5
100
AcDbLine
 10
-5.000663595907326
 20
1892.962168973789
 30
0.0
 11
99.91886288138289
 21
1997.881695451079
 31
0.0
  0
LINE
  5
169
330
1F
100
AcDbEntity
  8
ハッチ
  6
JWW_DASHED1
 62
   120
370
     5
100
AcDbLine
 10
704.5258239916853
 20
2036.962168973796
 30
0.0
 11
776.5258239916847
 21
2108.962168973795
 31
0.0
  0
LINE
  5
16A
330
1F
100
AcDbEntity
  8
ハッチ
  6
JWW_DASHED1
 62
   120
370
     5
100
AcDbLine
 10
662.0994171204887
 20
2036.9621689738
 30
0.0
 11
734.099417120488
 21
2108.962168973799
 31
0.0
  0
LINE
  5
16B
330
1F
100
AcDbEntity
  8
ハッチ
  6
JWW_DASHED1
 62
   120
370
     5
100
AcDbLine
 10
619.6730102493472
 20
2036.962168973803
 30
0.0
 11
691.6730102493298
 21
2108.962168973786
 31
0.0
  0
LINE
  5
16C
330
1F
100
AcDbEntity
  8
ハッチ
  6
JWW_DASHED1
 62
   120
370
     5
100
AcDbLine
 10
577.2466033781236
 20
2036.96216897378
 30
0.0
 11
649.2466033781229
 21
2108.962168973779
 31
0.0
  0
LINE
  5
16D
330
1F
100
AcDbEntity
  8
ハッチ
  6
JWW_DASHED1
 62
   120
370
     5
100
AcDbLine
 10
534.8201965069275
 20
2036.962168973784
 30
0.0
 11
606.8201965069268
 21
2108.962168973783
 31
0.0
  0
LINE
  5
16E
330
1F
100
AcDbEntity
  8
ハッチ
  6
JWW_DASHED1
 62
   120
370
     5
100
AcDbLine
 10
492.3937896357313
 20
2036.962168973787
 30
0.0
 11
564.3937896357302
 21
2108.962168973787
 31
0.0
  0
LINE
  5
16F
330
1F
100
AcDbEntity
  8
ハッチ
  6
JWW_DASHED1
 62
   120
370
     5
100
AcDbLine
 10
449.9673827645347
 20
2036.962168973791
 30
0.0
 11
521.967382764534
 21
2108.962168973791
 31
0.0
  0
LINE
  5
170
330
1F
100
AcDbEntity
  8
ハッチ
  6
JWW_DASHED1
 62
   120
370
     5
100
AcDbLine
 10
407.5409758933386
 20
2036.962168973795
 30
0.0
 11
479.5409758933383
 21
2108.962168973795
 31
0.0
  0
LINE
  5
171
330
1F
100
AcDbEntity
  8
ハッチ
  6
JWW_DASHED1
 62
   120
370
     5
100
AcDbLine
 10
365.1145690221423
 20
2036.962168973799
 30
0.0
 11
437.1145690221417
 21
2108.962168973798
 31
0.0
  0
LINE
  5
172
330
1F
100
AcDbEntity
  8
ハッチ
  6
JWW_DASHED1
 62
   120
370
     5
100
AcDbLine
 10
322.6881621509739
 20
2036.962168973803
 30
0.0
 11
394.6881621509561
 21
2108.962168973785
 31
0.0
  0
LINE
  5
173
330
1F
100
AcDbEntity
  8
ハッチ
  6
JWW_DASHED1
 62
   120
370
     5
100
AcDbLine
 10
280.2617552798071
 20
2036.962168973809
 30
0.0
 11
352.2617552797902
 21
2108.962168973792
 31
0.0
  0
LINE
  5
174
330
1F
100
AcDbEntity
  8
ハッチ
  6
JWW_DASHED1
 62
   120
370
     5
100
AcDbLine
 10
237.8353484085807
 20
2036.962168973783
 30
0.0
 11
309.83534840858
 21
2108.962168973782
 31
0.0
  0
LINE
  5
175
330
1F
100
AcDbEntity
  8
ハッチ
  6
JWW_DASHED1
 62
   120
370
     5
100
AcDbLine
 10
195.4089415373849
 20
2036.962168973787
 30
0.0
 11
267.4089415373838
 21
2108.962168973786
 31
0.0
  0
LINE
  5
176
330
1F
100
AcDbEntity
  8
ハッチ
  6
JWW_DASHED1
 62
   120
370
     5
100
AcDbLine
 10
152.9825346661883
 20
2036.962168973791
 30
0.0
 11
224.9825346661876
 21
2108.962168973789
 31
0.0
  0
LINE
  5
177
330
1F
100
AcDbEntity
  8
ハッチ
  6
JWW_DASHED1
 62
   120
370
     5
100
AcDbLine
 10
110.5561277949921
 20
2036.962168973794
 30
0.0
 11
182.5561277949915
 21
2108.962168973793
 31
0.0
  0
LINE
  5
178
330
1F
100
AcDbEntity
  8
ハッチ
  6
JWW_DASHED1
 62
   120
370
     5
100
AcDbLine
 10
99.91886288136413
 20
2068.751310931366
 30
0.0
 11
140.1297209237953
 21
2108.962168973797
 31
0.0
  0
LINE
  5
179
330
1F
100
AcDbEntity
  8
仕上げ
  6
Continuous
 62
    40
370
    15
100
AcDbLine
 10
1041.976819473829
 20
2108.962168973789
 30
0.0
 11
99.91886288137266
 21
2108.962168973789
 31
0.0
  0
LINE
  5
17A
330
1F
100
AcDbEntity
  8
仕上げ
  6
Continuous
 62
    40
370
    15
100
AcDbLine
 10
1041.976819473829
 20
2036.962168973789
 30
0.0
 11
99.91886288137266
 21
2036.962168973789
 31
0.0
  0
LINE
  5
17B
330
1F
100
AcDbEntity
  8
仕上げ
  6
Continuous
 62
    40
370
    15
100
AcDbLine
 10
99.91886288137266
 20
1781.962168973789
 30
0.0
 11
99.91886288137266
 21
1856.962168973789
 31
0.0
  0
LINE
  5
17C
330
1F
100
AcDbEntity
  8
仕上げ
  6
Continuous
 62
    40
370
    15
100
AcDbLine
 10
1041.976819473829
 20
1856.962168973789
 30
0.0
 11
99.91886288137266
 21
1856.962168973789
 31
0.0
  0
LINE
  5
17D
330
1F
100
AcDbEntity
  8
仕上げ
  6
Continuous
 62
    40
370
    15
100
AcDbLine
 10
1041.976819473829
 20
1781.962168973789
 30
0.0
 11
99.91886288137266
 21
1781.962168973789
 31
0.0
  0
LINE
  5
17E
330
1F
100
AcDbEntity
  8
0-2_柱
  6
Continuous
 62
     7
370
     9
100
AcDbLine
 10
262.2617552797954
 20
1856.962168973789
 30
0.0
 11
100.2617552797952
 21
1856.962168973789
 31
0.0
  0
LINE
  5
17F
330
1F
100
AcDbEntity
  8
0-2_柱
  6
Continuous
 62
     7
370
     9
100
AcDbLine
 10
100.2617552797952
 20
1856.962168973789
 30
0.0
 11
100.2617552797952
 21
2036.962168973789
 31
0.0
  0
LINE
  5
180
330
1F
100
AcDbEntity
  8
0-2_柱
  6
Continuous
 62
     7
370
     9
100
AcDbLine
 10
100.2617552797952
 20
2036.962168973789
 30
0.0
 11
262.2617552797954
 21
2036.962168973789
 31
0.0
  0
LINE
  5
181
330
1F
100
AcDbEntity
  8
0-2_柱
  6
Continuous
 62
     7
370
     9
100
AcDbLine
 10
262.2617552797954
 20
2036.962168973789
 30
0.0
 11
262.2617552797954
 21
1856.962168973789
 31
0.0
  0
LINE
  5
182
330
1F
100
AcDbEntity
  8
0-2_柱
  6
Continuous
 62
     7
370
     9
100
AcDbLine
 10
262.2617552797954
 20
2036.962168973789
 30
0.0
 11
100.2617552797952
 21
1856.962168973789
 31
0.0
  0
LINE
  5
183
330
1F
100
AcDbEntity
  8
0-B_寸法
  6
Continuous
 62
   120
370
     5
100
AcDbLine
 10
-114.0316004909334
 20
2156.962168973789
 30
0.0
 11
-264.3093516918429
 21
2156.962168973789
 31
0.0
  0
MTEXT
  5
184
330
1F
100
AcDbEntity
  8
0-B_寸法
  6
Continuous
 62
     7
370
     0
100
AcDbMText
 10
-279.3094011798053
 20
2211.684826477484
 30
0.0
 40
91.44
 41
120.0
 46
0.0
 71
     7
 72
     1
  1
{\fＭＳ ゴシック|b0|i0|c128|p49;30}
 11
6.123031769111886E-17
 21
1.0
 31
0.0
 73
     1
 44
1.0
  0
LWPOLYLINE
  5
185
330
1F
100
AcDbEntity
  8
0-B_寸法
  6
Continuous
 62
     7
370
     9
100
AcDbPolyline
 90
        4
 70
     1
 43
3.0
 10
-262.8093516918429
 20
2375.964395932193
 42
0.4142135623731
 10
-264.3093516918429
 20
2377.464395932193
 42
0.4142135623731
 10
-265.8093516918429
 20
2375.964395932193
 42
0.4142135623731
 10
-264.3093516918429
 20
2374.464395932193
 42
0.4142135623731
  0
LWPOLYLINE
  5
186
330
1F
100
AcDbEntity
  8
0-B_寸法
  6
Continuous
 62
     7
370
     9
100
AcDbPolyline
 90
        4
 70
     1
 43
3.0
 10
-262.8093516918429
 20
2195.963653612725
 42
0.4142135623731
 10
-264.3093516918429
 20
2197.463653612725
 42
0.4142135623731
 10
-265.8093516918429
 20
2195.963653612725
 42
0.4142135623731
 10
-264.3093516918429
 20
2194.463653612725
 42
0.4142135623731
  0
LINE
  5
187
330
1F
100
AcDbEntity
  8
0-B_寸法
  6
Continuous
 62
   120
370
     5
100
AcDbLine
 10
-264.3093516918429
 20
2375.964395932193
 30
0.0
 11
-264.3093516918429
 21
1832.962168973789
 31
0.0
  0
LWPOLYLINE
  5
188
330
1F
100
AcDbEntity
  8
0-B_寸法
  6
Continuous
 62
     7
370
     9
100
AcDbPolyline
 90
        4
 70
     1
 43
3.0
 10
-262.8093516918429
 20
2156.962168973789
 42
0.4142135623731
 10
-264.3093516918429
 20
2158.462168973789
 42
0.4142135623731
 10
-265.8093516918429
 20
2156.962168973789
 42
0.4142135623731
 10
-264.3093516918429
 20
2155.462168973789
 42
0.4142135623731
  0
MTEXT
  5
189
330
1F
100
AcDbEntity
  8
0-B_寸法
  6
Continuous
 62
     7
370
   211
100
AcDbMText
 10
-136.5148581282585
 20
2063.574232816245
 30
0.0
 40
91.44
 41
180.0
 46
0.0
 71
     7
 72
     1
  1
{\fＭＳ ゴシック|b0|i0|c128|p49;6.5}
 11
6.123031769111886E-17
 21
1.0
 31
0.0
 73
     1
 44
1.0
  0
LINE
  5
18A
330
1F
100
AcDbEntity
  8
0-4_枠
  6
Continuous
 62
    92
370
    13
100
AcDbLine
 10
-26.08113711862529
 20
2141.962168973789
 30
0.0
 11
-26.08113711862529
 21
2156.962168973789
 31
0.0
  0
LINE
  5
18B
330
1F
100
AcDbEntity
  8
0-4_枠
  6
Continuous
 62
    92
370
    13
100
AcDbLine
 10
45.91886288137403
 20
2141.962168973789
 30
0.0
 11
45.91886288137403
 21
2156.962168973789
 31
0.0
  0
LINE
  5
18C
330
1F
100
AcDbEntity
  8
0-4_枠
  6
Continuous
 62
    92
370
    13
100
AcDbLine
 10
-26.08113711862529
 20
2141.962168973789
 30
0.0
 11
45.91886288137403
 21
2141.962168973789
 31
0.0
  0
LINE
  5
18D
330
1F
100
AcDbEntity
  8
0-4_枠
  6
Continuous
 62
    92
370
    13
100
AcDbLine
 10
96.91886288137539
 20
2096.962168973789
 30
0.0
 11
99.91886288137266
 21
2096.962168973789
 31
0.0
  0
LINE
  5
18E
330
1F
100
AcDbEntity
  8
0-4_枠
  6
Continuous
 62
    92
370
    13
100
AcDbLine
 10
99.91886288137266
 20
1832.962168973789
 30
0.0
 11
99.91886288137266
 21
2156.962168973789
 31
0.0
  0
LINE
  5
18F
330
1F
100
AcDbEntity
  8
0-4_枠
  6
Continuous
 62
    92
370
    13
100
AcDbLine
 10
45.91886288137403
 20
2156.962168973789
 30
0.0
 11
99.91886288137266
 21
2156.962168973789
 31
0.0
  0
LINE
  5
190
330
1F
100
AcDbEntity
  8
0-4_枠
  6
Continuous
 62
    92
370
    13
100
AcDbLine
 10
45.91886288137403
 20
2153.962168973789
 30
0.0
 11
96.91886288137539
 21
2153.962168973789
 31
0.0
  0
LINE
  5
191
330
1F
100
AcDbEntity
  8
0-4_枠
  6
Continuous
 62
    92
370
    13
100
AcDbLine
 10
96.91886288137539
 20
2096.962168973789
 30
0.0
 11
96.91886288137539
 21
2153.962168973789
 31
0.0
  0
LINE
  5
192
330
1F
100
AcDbEntity
  8
0-4_枠
  6
Continuous
 62
    92
370
    13
100
AcDbLine
 10
-26.08113711862529
 20
2156.962168973789
 30
0.0
 11
-80.08113711863075
 21
2156.962168973789
 31
0.0
  0
LINE
  5
193
330
1F
100
AcDbEntity
  8
0-4_枠
  6
Continuous
 62
    92
370
    13
100
AcDbLine
 10
-26.08113711862529
 20
2153.962168973789
 30
0.0
 11
-77.08113711862666
 21
2153.962168973789
 31
0.0
  0
LINE
  5
194
330
1F
100
AcDbEntity
  8
0-4_枠
  6
Continuous
 62
    92
370
    13
100
AcDbLine
 10
-80.08113711863075
 20
2156.962168973789
 30
0.0
 11
-80.08113711863075
 21
1832.962168973789
 31
0.0
  0
LINE
  5
195
330
1F
100
AcDbEntity
  8
0-4_枠
  6
Continuous
 62
    92
370
    13
100
AcDbLine
 10
-77.08113711862666
 20
2153.962168973789
 30
0.0
 11
-77.08113711862666
 21
1835.962168973789
 31
0.0
  0
MTEXT
  5
196
330
1F
100
AcDbEntity
  8
0-B_寸法
  6
Continuous
 62
     7
370
     0
100
AcDbMText
 10
-279.3094011798053
 20
1920.682168973789
 30
0.0
 40
91.44
 41
120.0
 46
0.0
 71
     7
 72
     1
  1
{\fＭＳ ゴシック|b0|i0|c128|p49;54}
 11
6.123031769111886E-17
 21
1.0
 31
0.0
 73
     1
 44
1.0
  0
LINE
  5
197
330
1F
100
AcDbEntity
  8
0-6_扉
  6
Continuous
 62
   200
370
    20
100
AcDbLine
 10
99.91860306955942
 20
2375.962168973789
 30
0.0
 11
99.91860306955942
 21
2195.962168973789
 31
0.0
  0
LINE
  5
198
330
1F
100
AcDbEntity
  8
0-6_扉
  6
JWW_DASHED2
 62
    40
370
    15
100
AcDbLine
 10
-80.08139693044058
 20
2375.962168973789
 30
0.0
 11
-80.08139693044058
 21
2195.962168973789
 31
0.0
  0
LINE
  5
199
330
1F
100
AcDbEntity
  8
0-6_扉
  6
JWW_DASHED2
 62
    40
370
    15
100
AcDbLine
 10
1041.976819473828
 20
2375.962168973789
 30
0.0
 11
-80.08139693044058
 21
2375.962168973789
 31
0.0
  0
LINE
  5
19A
330
1F
100
AcDbEntity
  8
0-6_扉
  6
JWW_DASHED2
 62
    40
370
    15
100
AcDbLine
 10
1041.976819473828
 20
2195.962168973789
 30
0.0
 11
-80.08139693044058
 21
2195.962168973789
 31
0.0
  0
LINE
  5
19B
330
1F
100
AcDbEntity
  8
ハッチ
  6
Continuous
 62
   120
370
     5
100
AcDbLine
 10
-77.08113711863348
 20
2117.86654354941
 30
0.0
 11
-40.98551169425747
 21
2153.962168973789
 31
0.0
  0
LINE
  5
19C
330
1F
100
AcDbEntity
  8
ハッチ
  6
Continuous
 62
   120
370
     5
100
AcDbLine
 10
-77.08113711861984
 20
2058.46957392978
 30
0.0
 11
6.411457925393051
 21
2141.962168973789
 31
0.0
  0
LINE
  5
19D
330
1F
100
AcDbEntity
  8
ハッチ
  6
Continuous
 62
   120
370
     5
100
AcDbLine
 10
-77.08113711861984
 20
1999.072604310129
 30
0.0
 11
77.80842754503837
 21
2153.962168973789
 31
0.0
  0
LINE
  5
19E
330
1F
100
AcDbEntity
  8
ハッチ
  6
JWW_DASHED1
 62
   120
370
     5
100
AcDbLine
 10
704.0842652188812
 20
1781.962168973792
 30
0.0
 11
779.0842652188915
 21
1856.962168973802
 31
0.0
  0
LINE
  5
19F
330
1F
100
AcDbEntity
  8
ハッチ
  6
JWW_DASHED1
 62
   120
370
     5
100
AcDbLine
 10
661.657858347685
 20
1781.962168973796
 30
0.0
 11
736.6578583476798
 21
1856.962168973791
 31
0.0
  0
LINE
  5
1A0
330
1F
100
AcDbEntity
  8
ハッチ
  6
JWW_DASHED1
 62
   120
370
     5
100
AcDbLine
 10
619.2314514764842
 20
1781.962168973795
 30
0.0
 11
694.2314514764803
 21
1856.962168973791
 31
0.0
  0
LINE
  5
1A1
330
1F
100
AcDbEntity
  8
ハッチ
  6
JWW_DASHED1
 62
   120
370
     5
100
AcDbLine
 10
576.8050446052875
 20
1781.962168973798
 30
0.0
 11
651.8050446052837
 21
1856.962168973794
 31
0.0
  0
LINE
  5
1A2
330
1F
100
AcDbEntity
  8
ハッチ
  6
JWW_DASHED1
 62
   120
370
     5
100
AcDbLine
 10
534.3786377340905
 20
1781.962168973801
 30
0.0
 11
609.3786377340866
 21
1856.962168973798
 31
0.0
  0
LINE
  5
1A3
330
1F
100
AcDbEntity
  8
ハッチ
  6
JWW_DASHED1
 62
   120
370
     5
100
AcDbLine
 10
491.9522308628939
 20
1781.962168973805
 30
0.0
 11
566.95223086289
 21
1856.962168973801
 31
0.0
  0
LINE
  5
1A4
330
1F
100
AcDbEntity
  8
ハッチ
  6
JWW_DASHED1
 62
   120
370
     5
100
AcDbLine
 10
449.5258239916896
 20
1781.9621689738
 30
0.0
 11
524.5258239916841
 21
1856.962168973795
 31
0.0
  0
LINE
  5
1A5
330
1F
100
AcDbEntity
  8
ハッチ
  6
JWW_DASHED1
 62
   120
370
     5
100
AcDbLine
 10
407.0994171204781
 20
1781.962168973789
 30
0.0
 11
482.0994171204883
 21
1856.962168973799
 31
0.0
  0
LINE
  5
1A6
330
1F
100
AcDbEntity
  8
ハッチ
  6
JWW_DASHED1
 62
   120
370
     5
100
AcDbLine
 10
364.6730102493411
 20
1781.962168973797
 30
0.0
 11
439.6730102493356
 21
1856.962168973792
 31
0.0
  0
LINE
  5
1A7
330
1F
100
AcDbEntity
  8
ハッチ
  6
JWW_DASHED1
 62
   120
370
     5
100
AcDbLine
 10
322.2466033781339
 20
1781.96216897379
 30
0.0
 11
397.2466033781301
 21
1856.962168973786
 31
0.0
  0
LINE
  5
1A8
330
1F
100
AcDbEntity
  8
ハッチ
  6
JWW_DASHED1
 62
   120
370
     5
100
AcDbLine
 10
279.8201965069369
 20
1781.962168973793
 30
0.0
 11
354.820196506933
 21
1856.96216897379
 31
0.0
  0
LINE
  5
1A9
330
1F
100
AcDbEntity
  8
ハッチ
  6
JWW_DASHED1
 62
   120
370
     5
100
AcDbLine
 10
237.3937896357403
 20
1781.962168973796
 30
0.0
 11
312.3937896357364
 21
1856.962168973793
 31
0.0
  0
LINE
  5
1AA
330
1F
100
AcDbEntity
  8
ハッチ
  6
JWW_DASHED1
 62
   120
370
     5
100
AcDbLine
 10
194.9673827645432
 20
1781.962168973799
 30
0.0
 11
269.9673827645398
 21
1856.962168973796
 31
0.0
  0
LINE
  5
1AB
330
1F
100
AcDbEntity
  8
ハッチ
  6
JWW_DASHED1
 62
   120
370
     5
100
AcDbLine
 10
152.5409758933466
 20
1781.962168973803
 30
0.0
 11
227.5409758933428
 21
1856.962168973799
 31
0.0
  0
LINE
  5
1AC
330
1F
100
AcDbEntity
  8
ハッチ
  6
JWW_DASHED1
 62
   120
370
     5
100
AcDbLine
 10
110.1145690221338
 20
1781.96216897379
 30
0.0
 11
185.1145690221441
 21
1856.9621689738
 31
0.0
  0
LINE
  5
1AD
330
1F
100
AcDbEntity
  8
ハッチ
  6
JWW_DASHED1
 62
   120
370
     5
100
AcDbLine
 10
99.91886288136115
 20
1814.19286970419
 30
0.0
 11
142.6881621509777
 21
1856.962168973807
 31
0.0
  0
LINE
  5
1AE
330
1F
100
AcDbEntity
  8
ハッチ
  6
JWW_DASHED1
 62
   120
370
     5
100
AcDbLine
 10
99.91886288136499
 20
1856.619276575367
 30
0.0
 11
100.2617552797952
 21
1856.962168973797
 31
0.0
  0
MTEXT
  5
1AF
330
1F
100
AcDbEntity
  8
0-B_寸法
  6
Continuous
 62
     7
370
     0
100
AcDbMText
 10
-50.08169385822725
 20
1062.681674081931
 30
0.0
 40
91.44
 41
120.0
 46
0.0
 71
     7
 72
     1
  1
{\fＭＳ ゴシック|b0|i0|c128|p49;30}
 73
     1
 44
1.0
  0
LWPOLYLINE
  5
1B0
330
1F
100
AcDbEntity
  8
0-B_寸法
  6
Continuous
 62
     7
370
     9
100
AcDbPolyline
 90
        4
 70
     1
 43
3.0
 10
-78.58113711863075
 20
1061.961624593966
 42
0.4142135623731
 10
-80.08113711863075
 20
1063.461624593966
 42
0.4142135623731
 10
-81.58113711863075
 20
1061.961624593966
 42
0.4142135623731
 10
-80.08113711863075
 20
1060.461624593966
 42
0.4142135623731
  0
LINE
  5
1B1
330
1F
100
AcDbEntity
  8
0-B_寸法
  6
Continuous
 62
   120
370
     5
100
AcDbLine
 10
-80.08113711863075
 20
1421.961624593966
 30
0.0
 11
-80.08113711863075
 21
1061.961624593966
 31
0.0
  0
LWPOLYLINE
  5
1B2
330
1F
100
AcDbEntity
  8
0-B_寸法
  6
Continuous
 62
     7
370
     9
100
AcDbPolyline
 90
        4
 70
     1
 43
3.0
 10
101.4188628813727
 20
1061.961624593966
 42
0.4142135623731
 10
99.91886288137266
 20
1063.461624593966
 42
0.4142135623731
 10
98.41886288137266
 20
1061.961624593966
 42
0.4142135623731
 10
99.91886288137266
 20
1060.461624593966
 42
0.4142135623731
  0
LINE
  5
1B3
330
1F
100
AcDbEntity
  8
0-B_寸法
  6
Continuous
 62
   120
370
     5
100
AcDbLine
 10
99.91886288137266
 20
1421.961624593966
 30
0.0
 11
99.91886288137266
 21
1061.961624593966
 31
0.0
  0
LINE
  5
1B4
330
1F
100
AcDbEntity
  8
0-A_文字
  6
Continuous
 62
     7
370
     9
100
AcDbLine
 10
-290.0811371186299
 20
1721.961624593966
 30
0.0
 11
-290.0811371186299
 21
1481.961624593966
 31
0.0
  0
LINE
  5
1B5
330
1F
100
AcDbEntity
  8
0-A_文字
  6
Continuous
 62
     7
370
     9
100
AcDbLine
 10
309.9188628813718
 20
1481.961624593966
 30
0.0
 11
309.9188628813718
 21
1721.961624593966
 31
0.0
  0
LINE
  5
1B6
330
1F
100
AcDbEntity
  8
0-A_文字
  6
Continuous
 62
     7
370
     9
100
AcDbLine
 10
-290.0811371186299
 20
1481.961624593966
 30
0.0
 11
309.9188628813718
 21
1481.961624593966
 31
0.0
  0
LINE
  5
1B7
330
1F
100
AcDbEntity
  8
0-A_文字
  6
Continuous
 62
     7
370
     9
100
AcDbLine
 10
309.9188628813718
 20
1721.961624593966
 30
0.0
 11
-290.0811371186299
 21
1721.961624593966
 31
0.0
  0
MTEXT
  5
1B8
330
1F
100
AcDbEntity
  8
0-A_文字
  6
Continuous
 62
     7
370
     9
100
AcDbMText
 10
-230.0811371186333
 20
1527.681624593967
 30
0.0
 40
91.44000000000129
 41
480.0000000000068
 46
0.0
 71
     7
 72
     1
  1
{\fＭＳ ゴシック|b0|i0|c128|p49;洋室側・}
 73
     1
 44
1.0
  0
MTEXT
  5
1B9
330
1F
100
AcDbEntity
  8
0-A_文字
  6
Continuous
 62
     7
370
     9
100
AcDbMText
 10
-230.0811371186333
 20
2706.68216897379
 30
0.0
 40
91.44000000000129
 41
480.0000000000068
 46
0.0
 71
     7
 72
     1
  1
{\fＭＳ ゴシック|b0|i0|c128|p49;和室側・}
 73
     1
 44
1.0
  0
LINE
  5
1BA
330
1F
100
AcDbEntity
  8
0-A_文字
  6
Continuous
 62
     7
370
     9
100
AcDbLine
 10
-290.0811371186299
 20
2900.962168973791
 30
0.0
 11
-290.0811371186299
 21
2660.96216897379
 31
0.0
  0
LINE
  5
1BB
330
1F
100
AcDbEntity
  8
0-A_文字
  6
Continuous
 62
     7
370
     9
100
AcDbLine
 10
309.9188628813718
 20
2900.962168973791
 30
0.0
 11
-290.0811371186299
 21
2900.962168973791
 31
0.0
  0
LINE
  5
1BC
330
1F
100
AcDbEntity
  8
0-A_文字
  6
Continuous
 62
     7
370
     9
100
AcDbLine
 10
-290.0811371186299
 20
2660.96216897379
 30
0.0
 11
309.9188628813718
 21
2660.96216897379
 31
0.0
  0
LINE
  5
1BD
330
1F
100
AcDbEntity
  8
0-A_文字
  6
Continuous
 62
     7
370
     9
100
AcDbLine
 10
309.9188628813718
 20
2660.96216897379
 30
0.0
 11
309.9188628813718
 21
2900.962168973791
 31
0.0
  0
LINE
  5
1BE
330
1F
100
AcDbEntity
  8
0-0_補助線
  6
JWW_HOJO
 62
   120
370
     5
100
AcDbLine
 10
9.918862881372661
 20
431.9616245939665
 30
0.0
 11
9.918862881372661
 21
2771.961624593789
 31
0.0
  0
LINE
  5
1BF
330
1F
100
AcDbEntity
  8
仕上げ
  6
Continuous
 62
    40
370
    15
100
AcDbLine
 10
-1022.139594776723
 20
2600.96216897379
 30
0.0
 11
1041.976819473829
 21
2600.96216897379
 31
0.0
  0
LINE
  5
1C0
330
1F
100
AcDbEntity
  8
0-6_扉
  6
Continuous
 62
   200
370
    20
100
AcDbLine
 10
-1022.139594776724
 20
2195.962168973789
 30
0.0
 11
99.91860306955942
 21
2195.962168973789
 31
0.0
  0
LINE
  5
1C1
330
1F
100
AcDbEntity
  8
0-6_扉
  6
Continuous
 62
   200
370
    20
100
AcDbLine
 10
-1022.139594776724
 20
2375.962168973789
 30
0.0
 11
99.91860306955942
 21
2375.962168973789
 31
0.0
  0
LINE
  5
1C2
330
1F
100
AcDbEntity
  8
0-0_補助線
  6
JWW_HOJO
 62
   120
370
     5
100
AcDbLine
 10
-1142.139594776723
 20
1421.961624593966
 30
0.0
 11
-1142.139594776723
 21
2771.961624593789
 31
0.0
  0
LINE
  5
1C3
330
1F
100
AcDbEntity
  8
0-0_補助線
  6
JWW_HOJO
 62
   120
370
     5
100
AcDbLine
 10
-1022.139594776723
 20
1421.961624593966
 30
0.0
 11
-1022.139594776723
 21
2771.961624593789
 31
0.0
  0
LINE
  5
1C4
330
1F
100
AcDbEntity
  8
0-4_枠
  6
Continuous
 62
   120
370
     5
100
AcDbLine
 10
-1022.139594776723
 20
2510.96216897379
 30
0.0
 11
1041.976819473829
 21
2510.96216897379
 31
0.0
  0
LINE
  5
1C5
330
1F
100
AcDbEntity
  8
0-4_枠
  6
Continuous
 62
   120
370
     5
100
AcDbLine
 10
-1022.139594776723
 20
1832.962168973789
 30
0.0
 11
-80.08113711863075
 21
1832.962168973789
 31
0.0
  0
LINE
  5
1C6
330
1F
100
AcDbEntity
  8
0-1_通り芯
  6
JWW_CENTER1
 62
   120
370
     5
100
AcDbLine
 10
-2755.658076881877
 20
2171.962168973789
 30
0.0
 11
2776.034776066288
 21
2171.962168973789
 31
0.0
  0
LINE
  5
1C7
330
1F
100
AcDbEntity
  8
0-0_補助線
  6
JWW_HOJO
 62
   120
370
     5
100
AcDbLine
 10
-2755.658076881877
 20
2063.962168973789
 30
0.0
 11
2776.034776066288
 21
2063.962168973789
 31
0.0
  0
LINE
  5
1C8
330
1F
100
AcDbEntity
  8
0-B_寸法
  6
Continuous
 62
   120
370
     5
100
AcDbLine
 10
-2001.386822216189
 20
2510.96216897379
 30
0.0
 11
-2181.774006074639
 21
2510.96216897379
 31
0.0
  0
LWPOLYLINE
  5
1C9
330
1F
100
AcDbEntity
  8
0-B_寸法
  6
Continuous
 62
     7
370
     9
100
AcDbPolyline
 90
        4
 70
     1
 43
3.0
 10
-1999.886822216189
 20
2510.96216897379
 42
0.4142135623731
 10
-2001.386822216189
 20
2512.46216897379
 42
0.4142135623731
 10
-2002.886822216189
 20
2510.96216897379
 42
0.4142135623731
 10
-2001.386822216189
 20
2509.46216897379
 42
0.4142135623731
  0
LINE
  5
1CA
330
1F
100
AcDbEntity
  8
0-B_寸法
  6
Continuous
 62
   120
370
     5
100
AcDbLine
 10
-2001.386822216189
 20
1832.962168973789
 30
0.0
 11
-2181.774006074639
 21
1832.962168973789
 31
0.0
  0
LWPOLYLINE
  5
1CB
330
1F
100
AcDbEntity
  8
0-B_寸法
  6
Continuous
 62
     7
370
     9
100
AcDbPolyline
 90
        4
 70
     1
 43
3.0
 10
-1999.886822216189
 20
1832.962168973789
 42
0.4142135623731
 10
-2001.386822216189
 20
1834.462168973789
 42
0.4142135623731
 10
-2002.886822216189
 20
1832.962168973789
 42
0.4142135623731
 10
-2001.386822216189
 20
1831.462168973789
 42
0.4142135623731
  0
LINE
  5
1CC
330
1F
100
AcDbEntity
  8
0-B_寸法
  6
Continuous
 62
   120
370
     5
100
AcDbLine
 10
-2001.386822216189
 20
1838.962168973788
 30
0.0
 11
-2001.386822216189
 21
2504.962168973789
 31
0.0
  0
LINE
  5
1CD
330
1F
100
AcDbEntity
  8
仕上げ
  6
Continuous
 62
    40
370
    15
100
AcDbLine
 10
-2756.197792623008
 20
2561.962168973789
 30
0.0
 11
-2396.197792623008
 21
2561.962168973789
 31
0.0
  0
LINE
  5
1CE
330
1F
100
AcDbEntity
  8
仕上げ
  6
Continuous
 62
    40
370
    15
100
AcDbLine
 10
-2756.197792623008
 20
2486.962168973789
 30
0.0
 11
-2396.197792623008
 21
2486.962168973789
 31
0.0
  0
LINE
  5
1CF
330
1F
100
AcDbEntity
  8
仕上げ
  6
Continuous
 62
    40
370
    15
100
AcDbLine
 10
-2396.197792623008
 20
2561.962168973789
 30
0.0
 11
-2396.197792623008
 21
2486.962168973789
 31
0.0
  0
LINE
  5
1D0
330
1F
100
AcDbEntity
  8
0-2_柱
  6
Continuous
 62
     7
370
     9
100
AcDbLine
 10
-2456.197792623025
 20
2486.962168973789
 30
0.0
 11
-2456.197792623025
 21
1856.962168973789
 31
0.0
  0
LINE
  5
1D1
330
1F
100
AcDbEntity
  8
仕上げ
  6
Continuous
 62
    40
370
    15
100
AcDbLine
 10
-2756.197792623008
 20
1856.962168973789
 30
0.0
 11
-2396.197792623008
 21
1856.962168973789
 31
0.0
  0
LINE
  5
1D2
330
1F
100
AcDbEntity
  8
仕上げ
  6
Continuous
 62
    40
370
    15
100
AcDbLine
 10
-2756.197792623008
 20
1781.962168973789
 30
0.0
 11
-2396.197792623008
 21
1781.962168973789
 31
0.0
  0
LINE
  5
1D3
330
1F
100
AcDbEntity
  8
仕上げ
  6
Continuous
 62
    40
370
    15
100
AcDbLine
 10
-2396.197792623008
 20
1856.962168973789
 30
0.0
 11
-2396.197792623008
 21
1781.962168973789
 31
0.0
  0
LINE
  5
1D4
330
1F
100
AcDbEntity
  8
0-2_柱
  6
Continuous
 62
     7
370
     9
100
AcDbLine
 10
-2618.197792623026
 20
2486.962168973789
 30
0.0
 11
-2456.197792623025
 21
2486.962168973789
 31
0.0
  0
LINE
  5
1D5
330
1F
100
AcDbEntity
  8
0-2_柱
  6
Continuous
 62
     7
370
     9
100
AcDbLine
 10
-2618.197792623026
 20
1856.962168973789
 30
0.0
 11
-2618.197792623026
 21
2486.962168973789
 31
0.0
  0
LINE
  5
1D6
330
1F
100
AcDbEntity
  8
0-2_柱
  6
Continuous
 62
     7
370
     9
100
AcDbLine
 10
-2456.197792623025
 20
1856.962168973789
 30
0.0
 11
-2618.197792623026
 21
1856.962168973789
 31
0.0
  0
LINE
  5
1D7
330
1F
100
AcDbEntity
  8
0-2_柱
  6
Continuous
 62
     7
370
     9
100
AcDbLine
 10
-2456.197792623025
 20
2486.962168973789
 30
0.0
 11
-2618.197792623026
 21
1856.962168973789
 31
0.0
  0
LINE
  5
1D8
330
1F
100
AcDbEntity
  8
ハッチ
  6
JWW_DASHED1
 62
   120
370
     5
100
AcDbLine
 10
-2734.301572999055
 20
2561.962168973792
 30
0.0
 11
-2756.19779262301
 21
2540.065949349841
 31
0.0
  0
LINE
  5
1D9
330
1F
100
AcDbEntity
  8
ハッチ
  6
JWW_DASHED1
 62
   120
370
     5
100
AcDbLine
 10
-2691.87516612786
 20
2561.962168973789
 30
0.0
 11
-2756.197792623013
 21
2497.639542478639
 31
0.0
  0
LINE
  5
1DA
330
1F
100
AcDbEntity
  8
ハッチ
  6
JWW_DASHED1
 62
   120
370
     5
100
AcDbLine
 10
-2649.448759256663
 20
2561.962168973786
 30
0.0
 11
-2724.44875925666
 21
2486.962168973789
 31
0.0
  0
LINE
  5
1DB
330
1F
100
AcDbEntity
  8
ハッチ
  6
JWW_DASHED1
 62
   120
370
     5
100
AcDbLine
 10
-2607.022352385467
 20
2561.962168973782
 30
0.0
 11
-2682.022352385463
 21
2486.962168973786
 31
0.0
  0
LINE
  5
1DC
330
1F
100
AcDbEntity
  8
ハッチ
  6
JWW_DASHED1
 62
   120
370
     5
100
AcDbLine
 10
-2564.595945514316
 20
2561.962168973789
 30
0.0
 11
-2639.595945514309
 21
2486.962168973792
 31
0.0
  0
LINE
  5
1DD
330
1F
100
AcDbEntity
  8
ハッチ
  6
JWW_DASHED1
 62
   120
370
     5
100
AcDbLine
 10
-2522.16953864312
 20
2561.962168973784
 30
0.0
 11
-2597.169538643115
 21
2486.962168973789
 31
0.0
  0
LINE
  5
1DE
330
1F
100
AcDbEntity
  8
ハッチ
  6
JWW_DASHED1
 62
   120
370
     5
100
AcDbLine
 10
-2479.743131771907
 20
2561.962168973796
 30
0.0
 11
-2554.743131771918
 21
2486.962168973786
 31
0.0
  0
LINE
  5
1DF
330
1F
100
AcDbEntity
  8
ハッチ
  6
JWW_DASHED1
 62
   120
370
     5
100
AcDbLine
 10
-2437.316724900709
 20
2561.962168973792
 30
0.0
 11
-2512.316724900721
 21
2486.962168973782
 31
0.0
  0
LINE
  5
1E0
330
1F
100
AcDbEntity
  8
ハッチ
  6
JWW_DASHED1
 62
   120
370
     5
100
AcDbLine
 10
-2396.197792623008
 20
2560.654694380295
 30
0.0
 11
-2469.890318029509
 21
2486.962168973796
 31
0.0
  0
LINE
  5
1E1
330
1F
100
AcDbEntity
  8
ハッチ
  6
JWW_DASHED1
 62
   120
370
     5
100
AcDbLine
 10
-2396.197792623008
 20
2518.228287509095
 30
0.0
 11
-2427.463911158309
 21
2486.962168973796
 31
0.0
  0
LINE
  5
1E2
330
1F
100
AcDbEntity
  8
ハッチ
  6
JWW_DASHED1
 62
   120
370
     5
100
AcDbLine
 10
-2734.301572999055
 20
1856.962168973793
 30
0.0
 11
-2756.19779262301
 21
1835.065949349841
 31
0.0
  0
LINE
  5
1E3
330
1F
100
AcDbEntity
  8
ハッチ
  6
JWW_DASHED1
 62
   120
370
     5
100
AcDbLine
 10
-2691.87516612786
 20
1856.962168973789
 30
0.0
 11
-2756.197792623013
 21
1792.639542478639
 31
0.0
  0
LINE
  5
1E4
330
1F
100
AcDbEntity
  8
ハッチ
  6
JWW_DASHED1
 62
   120
370
     5
100
AcDbLine
 10
-2649.448759256663
 20
1856.962168973786
 30
0.0
 11
-2724.44875925666
 21
1781.962168973789
 31
0.0
  0
LINE
  5
1E5
330
1F
100
AcDbEntity
  8
ハッチ
  6
JWW_DASHED1
 62
   120
370
     5
100
AcDbLine
 10
-2607.022352385467
 20
1856.962168973782
 30
0.0
 11
-2682.022352385463
 21
1781.962168973786
 31
0.0
  0
LINE
  5
1E6
330
1F
100
AcDbEntity
  8
ハッチ
  6
JWW_DASHED1
 62
   120
370
     5
100
AcDbLine
 10
-2564.595945514316
 20
1856.962168973789
 30
0.0
 11
-2639.595945514309
 21
1781.962168973793
 31
0.0
  0
LINE
  5
1E7
330
1F
100
AcDbEntity
  8
ハッチ
  6
JWW_DASHED1
 62
   120
370
     5
100
AcDbLine
 10
-2522.16953864312
 20
1856.962168973784
 30
0.0
 11
-2597.169538643115
 21
1781.962168973789
 31
0.0
  0
LINE
  5
1E8
330
1F
100
AcDbEntity
  8
ハッチ
  6
JWW_DASHED1
 62
   120
370
     5
100
AcDbLine
 10
-2479.743131771907
 20
1856.962168973796
 30
0.0
 11
-2554.743131771918
 21
1781.962168973786
 31
0.0
  0
LINE
  5
1E9
330
1F
100
AcDbEntity
  8
ハッチ
  6
JWW_DASHED1
 62
   120
370
     5
100
AcDbLine
 10
-2437.316724900709
 20
1856.962168973793
 30
0.0
 11
-2512.316724900721
 21
1781.962168973782
 31
0.0
  0
LINE
  5
1EA
330
1F
100
AcDbEntity
  8
ハッチ
  6
JWW_DASHED1
 62
   120
370
     5
100
AcDbLine
 10
-2396.197792623008
 20
1855.654694380295
 30
0.0
 11
-2469.890318029509
 21
1781.962168973796
 31
0.0
  0
LINE
  5
1EB
330
1F
100
AcDbEntity
  8
ハッチ
  6
JWW_DASHED1
 62
   120
370
     5
100
AcDbLine
 10
-2396.197792623008
 20
1813.228287509095
 30
0.0
 11
-2427.463911158309
 21
1781.962168973796
 31
0.0
  0
LINE
  5
1EC
330
1F
100
AcDbEntity
  8
ハッチ
  6
Continuous
 62
   120
370
     5
100
AcDbLine
 10
-2396.197792623007
 20
2508.465691644365
 30
0.0
 11
-2393.701315293584
 21
2510.962168973786
 31
0.0
  0
LINE
  5
1ED
330
1F
100
AcDbEntity
  8
ハッチ
  6
Continuous
 62
   120
370
     5
100
AcDbLine
 10
-2306.197792623012
 20
1885.70205620832
 30
0.0
 11
-2249.197792623006
 21
1942.702056208326
 31
0.0
  0
LINE
  5
1EE
330
1F
100
AcDbEntity
  8
0-4_枠
  6
Continuous
 62
    92
370
    13
100
AcDbLine
 10
-2306.197792623008
 20
2450.962168973788
 30
0.0
 11
-2306.197792623008
 21
2510.96216897379
 31
0.0
  0
LINE
  5
1EF
330
1F
100
AcDbEntity
  8
0-4_枠
  6
Continuous
 62
    92
370
    13
100
AcDbLine
 10
-2360.197792623007
 20
2450.962168973788
 30
0.0
 11
-2360.197792623007
 21
2510.96216897379
 31
0.0
  0
LINE
  5
1F0
330
1F
100
AcDbEntity
  8
0-4_枠
  6
Continuous
 62
    92
370
    13
100
AcDbLine
 10
-2306.197792623008
 20
2450.962168973788
 30
0.0
 11
-2360.197792623007
 21
2450.962168973788
 31
0.0
  0
LINE
  5
1F1
330
1F
100
AcDbEntity
  8
0-4_枠
  6
Continuous
 62
    92
370
    13
100
AcDbLine
 10
-2396.197792623008
 20
2468.962168973789
 30
0.0
 11
-2426.197792623008
 21
2468.962168973789
 31
0.0
  0
LINE
  5
1F2
330
1F
100
AcDbEntity
  8
0-4_枠
  6
Continuous
 62
    92
370
    13
100
AcDbLine
 10
-2396.197792623008
 20
2468.962168973789
 30
0.0
 11
-2396.197792623008
 21
2510.96216897379
 31
0.0
  0
LINE
  5
1F3
330
1F
100
AcDbEntity
  8
0-4_枠
  6
Continuous
 62
    92
370
    13
100
AcDbLine
 10
-2360.197792623007
 20
2510.96216897379
 30
0.0
 11
-2396.197792623008
 21
2510.96216897379
 31
0.0
  0
LINE
  5
1F4
330
1F
100
AcDbEntity
  8
0-4_枠
  6
Continuous
 62
    92
370
    13
100
AcDbLine
 10
-2306.197792623008
 20
1892.962168973787
 30
0.0
 11
-2306.197792623008
 21
1832.962168973787
 31
0.0
  0
LINE
  5
1F5
330
1F
100
AcDbEntity
  8
0-4_枠
  6
Continuous
 62
    92
370
    13
100
AcDbLine
 10
-2360.197792623007
 20
1892.962168973787
 30
0.0
 11
-2360.197792623007
 21
1832.962168973787
 31
0.0
  0
LINE
  5
1F6
330
1F
100
AcDbEntity
  8
0-4_枠
  6
Continuous
 62
    92
370
    13
100
AcDbLine
 10
-2306.197792623008
 20
1892.962168973787
 30
0.0
 11
-2360.197792623007
 21
1892.962168973787
 31
0.0
  0
LINE
  5
1F7
330
1F
100
AcDbEntity
  8
0-4_枠
  6
Continuous
 62
    92
370
    13
100
AcDbLine
 10
-2396.197792623008
 20
1874.96216897379
 30
0.0
 11
-2426.197792623008
 21
1874.96216897379
 31
0.0
  0
LINE
  5
1F8
330
1F
100
AcDbEntity
  8
0-4_枠
  6
Continuous
 62
    92
370
    13
100
AcDbLine
 10
-2396.197792623008
 20
1874.96216897379
 30
0.0
 11
-2396.197792623008
 21
1832.962168973787
 31
0.0
  0
LINE
  5
1F9
330
1F
100
AcDbEntity
  8
0-4_枠
  6
Continuous
 62
    92
370
    13
100
AcDbLine
 10
-2360.197792623007
 20
1832.962168973787
 30
0.0
 11
-2396.197792623008
 21
1832.962168973787
 31
0.0
  0
LINE
  5
1FA
330
1F
100
AcDbEntity
  8
0-4_枠
  6
Continuous
 62
    92
370
    13
100
AcDbLine
 10
-2426.197792623008
 20
2468.962168973789
 30
0.0
 11
-2426.197792623008
 21
1874.96216897379
 31
0.0
  0
LINE
  5
1FB
330
1F
100
AcDbEntity
  8
0-4_枠
  6
Continuous
 62
    92
370
    13
100
AcDbLine
 10
-2306.197792623008
 20
2510.96216897379
 30
0.0
 11
-2246.197792623008
 21
2510.96216897379
 31
0.0
  0
LINE
  5
1FC
330
1F
100
AcDbEntity
  8
0-4_枠
  6
Continuous
 62
    92
370
    13
100
AcDbLine
 10
-2306.197792623008
 20
2507.962168973789
 30
0.0
 11
-2249.197792623007
 21
2507.962168973789
 31
0.0
  0
LINE
  5
1FD
330
1F
100
AcDbEntity
  8
0-4_枠
  6
Continuous
 62
    92
370
    13
100
AcDbLine
 10
-2306.197792623008
 20
1832.962168973787
 30
0.0
 11
-2246.197792623008
 21
1832.962168973787
 31
0.0
  0
LINE
  5
1FE
330
1F
100
AcDbEntity
  8
0-4_枠
  6
Continuous
 62
    92
370
    13
100
AcDbLine
 10
-2306.197792623008
 20
1835.962168973788
 30
0.0
 11
-2249.197792623007
 21
1835.962168973788
 31
0.0
  0
LINE
  5
1FF
330
1F
100
AcDbEntity
  8
ハッチ
  6
Continuous
 62
   120
370
     5
100
AcDbLine
 10
-2296.540710237896
 20
1835.962168973786
 30
0.0
 11
-2249.197792623012
 21
1883.305086588668
 31
0.0
  0
LINE
  5
200
330
1F
100
AcDbEntity
  8
ハッチ
  6
Continuous
 62
   120
370
     5
100
AcDbLine
 10
-2396.197792623015
 20
1855.099025828018
 30
0.0
 11
-2360.197792623021
 21
1891.099025828013
 31
0.0
  0
LINE
  5
201
330
1F
100
AcDbEntity
  8
ハッチ
  6
Continuous
 62
   120
370
     5
100
AcDbLine
 10
-2358.334649477233
 20
1892.962168973801
 30
0.0
 11
-2249.197792623012
 21
2002.099025828021
 31
0.0
  0
LINE
  5
202
330
1F
100
AcDbEntity
  8
ハッチ
  6
Continuous
 62
   120
370
     5
100
AcDbLine
 10
-2426.197792623008
 20
1884.495995447672
 30
0.0
 11
-2249.197792623009
 21
2061.49599544767
 31
0.0
  0
LINE
  5
203
330
1F
100
AcDbEntity
  8
ハッチ
  6
Continuous
 62
   120
370
     5
100
AcDbLine
 10
-2426.197792623012
 20
1943.892965067314
 30
0.0
 11
-2249.197792622999
 21
2120.892965067329
 31
0.0
  0
LINE
  5
204
330
1F
100
AcDbEntity
  8
ハッチ
  6
Continuous
 62
   120
370
     5
100
AcDbLine
 10
-2426.197792622995
 20
2300.274782785377
 30
0.0
 11
-2249.197792623019
 21
2477.274782785353
 31
0.0
  0
LINE
  5
205
330
1F
100
AcDbEntity
  8
ハッチ
  6
Continuous
 62
   120
370
     5
100
AcDbLine
 10
-2426.197792623015
 20
2359.671752405004
 30
0.0
 11
-2334.907376054235
 21
2450.962168973786
 31
0.0
  0
LINE
  5
206
330
1F
100
AcDbEntity
  8
ハッチ
  6
Continuous
 62
   120
370
     5
100
AcDbLine
 10
-2306.197792623012
 20
2479.671752405009
 30
0.0
 11
-2277.907376054229
 21
2507.962168973794
 31
0.0
  0
LINE
  5
207
330
1F
100
AcDbEntity
  8
ハッチ
  6
Continuous
 62
   120
370
     5
100
AcDbLine
 10
-2426.197792623002
 20
2419.068722024723
 30
0.0
 11
-2360.197792623
 21
2485.068722024721
 31
0.0
  0
LINE
  5
208
330
1F
100
AcDbEntity
  8
ハッチ
  6
Continuous
 62
   120
370
     5
100
AcDbLine
 10
-2426.197792623012
 20
2240.87781316566
 30
0.0
 11
-2285.197792623007
 21
2381.877813165665
 31
0.0
  0
LINE
  5
209
330
1F
100
AcDbEntity
  8
ハッチ
  6
Continuous
 62
   120
370
     5
100
AcDbLine
 10
-2426.197792623007
 20
2181.480843546018
 30
0.0
 11
-2285.197792623007
 21
2322.480843546019
 31
0.0
  0
LINE
  5
20A
330
1F
100
AcDbEntity
  8
ハッチ
  6
Continuous
 62
   120
370
     5
100
AcDbLine
 10
-2426.197792623002
 20
2122.083873926377
 30
0.0
 11
-2285.197792623007
 21
2263.083873926372
 31
0.0
  0
LINE
  5
20B
330
1F
100
AcDbEntity
  8
ハッチ
  6
Continuous
 62
   120
370
     5
100
AcDbLine
 10
-2426.197792623017
 20
2062.686904306659
 30
0.0
 11
-2285.197792623007
 21
2203.68690430667
 31
0.0
  0
LINE
  5
20C
330
1F
100
AcDbEntity
  8
0-4_枠
  6
Continuous
 62
    92
370
    13
100
AcDbLine
 10
-2246.197792623008
 20
2510.96216897379
 30
0.0
 11
-2246.197792623008
 21
2408.962168973787
 31
0.0
  0
LINE
  5
20D
330
1F
100
AcDbEntity
  8
0-4_枠
  6
Continuous
 62
    92
370
    13
100
AcDbLine
 10
-2249.197792623007
 20
2507.962168973789
 30
0.0
 11
-2249.197792623007
 21
2411.962168973786
 31
0.0
  0
LINE
  5
20E
330
1F
100
AcDbEntity
  8
0-4_枠
  6
Continuous
 62
    92
370
    13
100
AcDbLine
 10
-2282.197792623006
 20
2408.962168973787
 30
0.0
 11
-2246.197792623008
 21
2408.962168973787
 31
0.0
  0
LINE
  5
20F
330
1F
100
AcDbEntity
  8
0-4_枠
  6
Continuous
 62
    92
370
    13
100
AcDbLine
 10
-2285.197792623007
 20
2411.962168973786
 30
0.0
 11
-2249.197792623007
 21
2411.962168973786
 31
0.0
  0
LINE
  5
210
330
1F
100
AcDbEntity
  8
0-4_枠
  6
Continuous
 62
    92
370
    13
100
AcDbLine
 10
-2282.197792623006
 20
2408.962168973787
 30
0.0
 11
-2282.197792623006
 21
2162.962168973787
 31
0.0
  0
LINE
  5
211
330
1F
100
AcDbEntity
  8
0-4_枠
  6
Continuous
 62
    92
370
    13
100
AcDbLine
 10
-2285.197792623007
 20
2411.962168973786
 30
0.0
 11
-2285.197792623007
 21
2159.962168973786
 31
0.0
  0
LINE
  5
212
330
1F
100
AcDbEntity
  8
0-4_枠
  6
Continuous
 62
    92
370
    13
100
AcDbLine
 10
-2246.197792623008
 20
1832.962168973787
 30
0.0
 11
-2246.197792623008
 21
2162.962168973787
 31
0.0
  0
LINE
  5
213
330
1F
100
AcDbEntity
  8
0-4_枠
  6
Continuous
 62
    92
370
    13
100
AcDbLine
 10
-2249.197792623007
 20
1835.962168973788
 30
0.0
 11
-2249.197792623007
 21
2159.962168973786
 31
0.0
  0
LINE
  5
214
330
1F
100
AcDbEntity
  8
0-4_枠
  6
Continuous
 62
    92
370
    13
100
AcDbLine
 10
-2282.197792623006
 20
2162.962168973787
 30
0.0
 11
-2246.197792623008
 21
2162.962168973787
 31
0.0
  0
LINE
  5
215
330
1F
100
AcDbEntity
  8
0-4_枠
  6
Continuous
 62
    92
370
    13
100
AcDbLine
 10
-2285.197792623007
 20
2159.962168973786
 30
0.0
 11
-2249.197792623007
 21
2159.962168973786
 31
0.0
  0
LINE
  5
216
330
1F
100
AcDbEntity
  8
ハッチ
  6
Continuous
 62
   120
370
     5
100
AcDbLine
 10
-2255.113436814887
 20
2411.962168973786
 30
0.0
 11
-2249.197792623004
 21
2417.87781316567
 31
0.0
  0
LINE
  5
217
330
1F
100
AcDbEntity
  8
ハッチ
  6
Continuous
 62
   120
370
     5
100
AcDbLine
 10
-2426.197792622997
 20
2003.289934687032
 30
0.0
 11
-2269.525558336243
 21
2159.962168973786
 31
0.0
  0
LINE
  5
218
330
1F
100
AcDbEntity
  8
0-7_金物
  6
Continuous
 62
     7
370
     9
100
AcDbLine
 10
-2312.197792623006
 20
2270.962168973787
 30
0.0
 11
-2312.197792623006
 21
2300.962168973787
 31
0.0
  0
LINE
  5
219
330
1F
100
AcDbEntity
  8
0-7_金物
  6
Continuous
 62
     7
370
     9
100
AcDbLine
 10
-2282.197792623006
 20
2240.962168973787
 30
0.0
 11
-2264.197792623006
 21
2240.962168973787
 31
0.0
  0
LINE
  5
21A
330
1F
100
AcDbEntity
  8
0-7_金物
  6
Continuous
 62
     7
370
     9
100
AcDbLine
 10
-2264.197792623006
 20
2330.962168973787
 30
0.0
 11
-2282.197792623006
 21
2330.962168973787
 31
0.0
  0
LINE
  5
21B
330
1F
100
AcDbEntity
  8
0-7_金物
  6
Continuous
 62
     7
370
     9
100
AcDbLine
 10
-2282.197792623006
 20
2330.962168973787
 30
0.0
 11
-2282.197792623006
 21
2240.962168973787
 31
0.0
  0
LINE
  5
21C
330
1F
100
AcDbEntity
  8
0-7_金物
  6
Continuous
 62
     7
370
     9
100
AcDbLine
 10
-2282.197792623006
 20
2270.962168973787
 30
0.0
 11
-2312.197792623006
 21
2270.962168973787
 31
0.0
  0
LINE
  5
21D
330
1F
100
AcDbEntity
  8
0-7_金物
  6
Continuous
 62
     7
370
     9
100
AcDbLine
 10
-2312.197792623006
 20
2300.962168973787
 30
0.0
 11
-2282.197792623006
 21
2300.962168973787
 31
0.0
  0
ARC
  5
21E
330
1F
100
AcDbEntity
  8
0-7_金物
  6
Continuous
 62
     7
370
     9
100
AcDbCircle
 10
-2429.947792623005
 20
2285.962168973787
 30
0.0
 40
171.7499999999977
100
AcDbArc
 50
344.8107132628169
 51
15.1892867371831
  0
LINE
  5
21F
330
1F
100
AcDbEntity
  8
0-7_金物
  6
Continuous
 62
     7
370
     9
100
AcDbLine
 10
-2444.197456104852
 20
2195.962160725794
 30
0.0
 11
-2444.197456104852
 21
2375.9620122619
 31
0.0
  0
LINE
  5
220
330
1F
100
AcDbEntity
  8
0-7_金物
  6
Continuous
 62
     7
370
     9
100
AcDbLine
 10
-2456.197792623008
 20
2375.9620122619
 30
0.0
 11
-2444.197456104852
 21
2375.9620122619
 31
0.0
  0
LINE
  5
221
330
1F
100
AcDbEntity
  8
0-7_金物
  6
Continuous
 62
     7
370
     9
100
AcDbLine
 10
-2456.197792623008
 20
2195.962160725794
 30
0.0
 11
-2444.197456104852
 21
2195.962160725794
 31
0.0
  0
LINE
  5
222
330
1F
100
AcDbEntity
  8
0-7_金物
  6
Continuous
 62
     7
370
     9
100
AcDbLine
 10
-2456.197792623008
 20
2195.962160725794
 30
0.0
 11
-2456.197792623008
 21
2375.9620122619
 31
0.0
  0
LINE
  5
223
330
1F
100
AcDbEntity
  8
0-7_金物
  6
Continuous
 62
     7
370
     9
100
AcDbLine
 10
-2444.197456104852
 20
2225.962259701721
 30
0.0
 11
-2432.197861906158
 21
2225.962259701721
 31
0.0
  0
LINE
  5
224
330
1F
100
AcDbEntity
  8
0-7_金物
  6
Continuous
 62
     7
370
     9
100
AcDbLine
 10
-2444.197456104852
 20
2345.96191328597
 30
0.0
 11
-2432.197861906158
 21
2345.96191328597
 31
0.0
  0
LINE
  5
225
330
1F
100
AcDbEntity
  8
0-7_金物
  6
Continuous
 62
     7
370
     9
100
AcDbLine
 10
-2432.197861906158
 20
2225.962259701721
 30
0.0
 11
-2432.197861906158
 21
2345.96191328597
 31
0.0
  0
LINE
  5
226
330
1F
100
AcDbEntity
  8
0-7_金物
  6
Continuous
 62
     7
370
     9
100
AcDbLine
 10
-2432.197861906158
 20
2339.962487346359
 30
0.0
 11
-2426.155703109177
 21
2339.962487346359
 31
0.0
  0
LINE
  5
227
330
1F
100
AcDbEntity
  8
0-7_金物
  6
Continuous
 62
     7
370
     9
100
AcDbLine
 10
-2432.197861906158
 20
2231.962427960802
 30
0.0
 11
-2426.155703109177
 21
2231.962427960802
 31
0.0
  0
LINE
  5
228
330
1F
100
AcDbEntity
  8
0-6_扉
  6
Continuous
 62
   200
370
    20
100
AcDbLine
 10
-2264.197792623007
 20
2195.96166419655
 30
0.0
 11
-2264.197792623007
 21
2375.961812351144
 31
0.0
  0
LINE
  5
229
330
1F
100
AcDbEntity
  8
0-6_扉
  6
Continuous
 62
   200
370
    20
100
AcDbLine
 10
-2264.19779262301
 20
2375.962168973789
 30
0.0
 11
-1142.139594776724
 21
2375.962168973789
 31
0.0
  0
LINE
  5
22A
330
1F
100
AcDbEntity
  8
0-0_補助線
  6
JWW_HOJO
 62
   120
370
     5
100
AcDbLine
 10
-2755.658076881877
 20
1421.961624593966
 30
0.0
 11
2776.034776066288
 21
1421.961624593966
 31
0.0
  0
LWPOLYLINE
  5
22B
330
1F
100
AcDbEntity
  8
0-B_寸法
  6
Continuous
 62
     7
370
     9
100
AcDbPolyline
 90
        4
 70
     1
 43
3.0
 10
-2244.697792623008
 20
1061.961624593966
 42
0.4142135623731
 10
-2246.197792623008
 20
1063.461624593966
 42
0.4142135623731
 10
-2247.697792623008
 20
1061.961624593966
 42
0.4142135623731
 10
-2246.197792623008
 20
1060.461624593966
 42
0.4142135623731
  0
LINE
  5
22C
330
1F
100
AcDbEntity
  8
0-B_寸法
  6
Continuous
 62
   120
370
     5
100
AcDbLine
 10
-2246.197792623008
 20
1061.961624593966
 30
0.0
 11
2266.034776066288
 21
1061.961624593966
 31
0.0
  0
MTEXT
  5
22D
330
1F
100
AcDbEntity
  8
0-B_寸法
  6
Continuous
 62
     7
370
     0
100
AcDbMText
 10
-2396.197718391061
 20
852.6816740819313
 30
0.0
 40
91.44
 41
120.0
 46
0.0
 71
     7
 72
     1
  1
{\fＭＳ ゴシック|b0|i0|c128|p49;30}
 73
     1
 44
1.0
  0
LWPOLYLINE
  5
22E
330
1F
100
AcDbEntity
  8
0-B_寸法
  6
Continuous
 62
     7
370
     9
100
AcDbPolyline
 90
        4
 70
     1
 43
3.0
 10
-2244.697792623008
 20
851.9616245939665
 42
0.4142135623731
 10
-2246.197792623008
 20
853.4616245939665
 42
0.4142135623731
 10
-2247.697792623008
 20
851.9616245939665
 42
0.4142135623731
 10
-2246.197792623008
 20
850.4616245939665
 42
0.4142135623731
  0
LINE
  5
22F
330
1F
100
AcDbEntity
  8
0-B_寸法
  6
Continuous
 62
   120
370
     5
100
AcDbLine
 10
-2246.197792623008
 20
1421.961624593966
 30
0.0
 11
-2246.197792623008
 21
851.9616245939665
 31
0.0
  0
LWPOLYLINE
  5
230
330
1F
100
AcDbEntity
  8
0-B_寸法
  6
Continuous
 62
     7
370
     9
100
AcDbPolyline
 90
        4
 70
     1
 43
3.0
 10
-2424.697792623008
 20
851.9616245939665
 42
0.4142135623731
 10
-2426.197792623008
 20
853.4616245939665
 42
0.4142135623731
 10
-2427.697792623008
 20
851.9616245939665
 42
0.4142135623731
 10
-2426.197792623008
 20
850.4616245939665
 42
0.4142135623731
  0
LINE
  5
231
330
1F
100
AcDbEntity
  8
0-B_寸法
  6
Continuous
 62
   120
370
     5
100
AcDbLine
 10
-2426.197792623008
 20
851.9616245939665
 30
0.0
 11
2446.034776066288
 21
851.9616245939665
 31
0.0
  0
LWPOLYLINE
  5
232
330
1F
100
AcDbEntity
  8
0-B_寸法
  6
Continuous
 62
     7
370
     9
100
AcDbPolyline
 90
        4
 70
     1
 43
3.0
 10
-2424.697792623008
 20
641.9616245939665
 42
0.4142135623731
 10
-2426.197792623008
 20
643.4616245939665
 42
0.4142135623731
 10
-2427.697792623008
 20
641.9616245939665
 42
0.4142135623731
 10
-2426.197792623008
 20
640.4616245939665
 42
0.4142135623731
  0
LWPOLYLINE
  5
233
330
1F
100
AcDbEntity
  8
0-B_寸法
  6
Continuous
 62
     7
370
     9
100
AcDbPolyline
 90
        4
 70
     1
 43
3.0
 10
-2454.697792623008
 20
641.9616245939665
 42
0.4142135623731
 10
-2456.197792623008
 20
643.4616245939665
 42
0.4142135623731
 10
-2457.697792623008
 20
641.9616245939665
 42
0.4142135623731
 10
-2456.197792623008
 20
640.4616245939665
 42
0.4142135623731
  0
LWPOLYLINE
  5
234
330
1F
100
AcDbEntity
  8
0-B_寸法
  6
Continuous
 62
     7
370
     9
100
AcDbPolyline
 90
        4
 70
     1
 43
3.0
 10
-2454.697792623008
 20
431.9616245939665
 42
0.4142135623731
 10
-2456.197792623008
 20
433.4616245939665
 42
0.4142135623731
 10
-2457.697792623008
 20
431.9616245939665
 42
0.4142135623731
 10
-2456.197792623008
 20
430.4616245939665
 42
0.4142135623731
  0
LINE
  5
235
330
1F
100
AcDbEntity
  8
0-B_寸法
  6
Continuous
 62
   120
370
     5
100
AcDbLine
 10
-2456.197792623008
 20
431.9616245939665
 30
0.0
 11
2476.034776066288
 21
431.9616245939665
 31
0.0
  0
MTEXT
  5
236
330
1F
100
AcDbEntity
  8
0-B_寸法
  6
Continuous
 62
     7
370
   211
100
AcDbMText
 10
-2423.529601882884
 20
642.6816245939665
 30
0.0
 40
91.44
 41
60.0
 46
0.0
 71
     7
 72
     1
  1
{\fＭＳ ゴシック|b0|i0|c128|p49;5}
 73
     1
 44
1.0
  0
LINE
  5
237
330
1F
100
AcDbEntity
  8
0-B_寸法
  6
Continuous
 62
   120
370
     5
100
AcDbLine
 10
-2426.197792623008
 20
1421.961624593966
 30
0.0
 11
-2426.197792623008
 21
641.9616245939665
 31
0.0
  0
LINE
  5
238
330
1F
100
AcDbEntity
  8
0-B_寸法
  6
Continuous
 62
   120
370
     5
100
AcDbLine
 10
-2456.197792623008
 20
431.9616245939665
 30
0.0
 11
-2456.197792623008
 21
1421.961624593966
 31
0.0
  0
LINE
  5
239
330
1F
100
AcDbEntity
  8
0-B_寸法
  6
Continuous
 62
   120
370
     5
100
AcDbLine
 10
-2456.197792623008
 20
641.9616245939665
 30
0.0
 11
2476.034776066288
 21
641.9616245939665
 31
0.0
  0
LINE
  5
23A
330
1F
100
AcDbEntity
  8
0-0_補助線
  6
JWW_HOJO
 62
   120
370
     5
100
AcDbLine
 10
-2755.658076881877
 20
1061.961624593966
 30
0.0
 11
2776.034776066288
 21
1061.961624593966
 31
0.0
  0
LINE
  5
23B
330
1F
100
AcDbEntity
  8
0-0_補助線
  6
JWW_HOJO
 62
   120
370
     5
100
AcDbLine
 10
-2755.658076881877
 20
851.9616245939665
 30
0.0
 11
2776.034776066288
 21
851.9616245939665
 31
0.0
  0
LINE
  5
23C
330
1F
100
AcDbEntity
  8
0-0_補助線
  6
JWW_HOJO
 62
   120
370
     5
100
AcDbLine
 10
-2755.658076881877
 20
641.9616245939665
 30
0.0
 11
2776.034776066288
 21
641.9616245939665
 31
0.0
  0
LINE
  5
23D
330
1F
100
AcDbEntity
  8
0-0_補助線
  6
JWW_HOJO
 62
   120
370
     5
100
AcDbLine
 10
-2755.658076881877
 20
431.9616245939665
 30
0.0
 11
2776.034776066288
 21
431.9616245939665
 31
0.0
  0
LINE
  5
23E
330
1F
100
AcDbEntity
  8
0-0_補助線
  6
JWW_HOJO
 62
   120
370
     5
100
AcDbLine
 10
-2755.658076881877
 20
2771.961624593789
 30
0.0
 11
2776.034776066288
 21
2771.961624593789
 31
0.0
  0
LINE
  5
23F
330
1F
100
AcDbEntity
  8
0-B_寸法
  6
Continuous
 62
   120
370
     5
100
AcDbLine
 10
-2246.197792623008
 20
3071.962713341399
 30
0.0
 11
-2246.197792623008
 21
2711.962713341399
 31
0.0
  0
LWPOLYLINE
  5
240
330
1F
100
AcDbEntity
  8
0-B_寸法
  6
Continuous
 62
     7
370
     9
100
AcDbPolyline
 90
        4
 70
     1
 43
3.0
 10
-2244.697792623008
 20
2891.962713341399
 42
0.4142135623731
 10
-2246.197792623008
 20
2893.462713341398
 42
0.4142135623731
 10
-2247.697792623008
 20
2891.962713341399
 42
0.4142135623731
 10
-2246.197792623008
 20
2890.462713341399
 42
0.4142135623731
  0
LWPOLYLINE
  5
241
330
1F
100
AcDbEntity
  8
0-B_寸法
  6
Continuous
 62
     7
370
     9
100
AcDbPolyline
 90
        4
 70
     1
 43
3.0
 10
-2244.697792623008
 20
3071.962713341399
 42
0.4142135623731
 10
-2246.197792623008
 20
3073.462713341399
 42
0.4142135623731
 10
-2247.697792623008
 20
3071.962713341399
 42
0.4142135623731
 10
-2246.197792623008
 20
3070.462713341399
 42
0.4142135623731
  0
LINE
  5
242
330
1F
100
AcDbEntity
  8
0-B_寸法
  6
Continuous
 62
   120
370
     5
100
AcDbLine
 10
-2306.197792623008
 20
2891.962713341399
 30
0.0
 11
-2306.197792623008
 21
2711.962713341399
 31
0.0
  0
MTEXT
  5
243
330
1F
100
AcDbEntity
  8
0-B_寸法
  6
Continuous
 62
     7
370
   211
100
AcDbMText
 10
-2396.197520439202
 20
3072.682713341399
 30
0.0
 40
91.44
 41
120.0
 46
0.0
 71
     7
 72
     1
  1
{\fＭＳ ゴシック|b0|i0|c128|p49;30}
 73
     1
 44
1.0
  0
LWPOLYLINE
  5
244
330
1F
100
AcDbEntity
  8
0-B_寸法
  6
Continuous
 62
     7
370
     9
100
AcDbPolyline
 90
        4
 70
     1
 43
3.0
 10
-2304.697792623008
 20
2891.962713341399
 42
0.4142135623731
 10
-2306.197792623008
 20
2893.462713341398
 42
0.4142135623731
 10
-2307.697792623008
 20
2891.962713341399
 42
0.4142135623731
 10
-2306.197792623008
 20
2890.462713341399
 42
0.4142135623731
  0
LINE
  5
245
330
1F
100
AcDbEntity
  8
0-B_寸法
  6
Continuous
 62
   120
370
     5
100
AcDbLine
 10
-2360.197792623007
 20
2891.962713341399
 30
0.0
 11
-2360.197792623007
 21
2711.962713341399
 31
0.0
  0
MTEXT
  5
246
330
1F
100
AcDbEntity
  8
0-B_寸法
  6
Continuous
 62
     7
370
   211
100
AcDbMText
 10
-2408.197604568745
 20
2892.682713341399
 30
0.0
 40
91.44
 41
60.0
 46
0.0
 71
     7
 72
     1
  1
{\fＭＳ ゴシック|b0|i0|c128|p49;6}
 73
     1
 44
1.0
  0
LWPOLYLINE
  5
247
330
1F
100
AcDbEntity
  8
0-B_寸法
  6
Continuous
 62
     7
370
     9
100
AcDbPolyline
 90
        4
 70
     1
 43
3.0
 10
-2358.697792623007
 20
2891.962713341399
 42
0.4142135623731
 10
-2360.197792623007
 20
2893.462713341398
 42
0.4142135623731
 10
-2361.697792623007
 20
2891.962713341399
 42
0.4142135623731
 10
-2360.197792623007
 20
2890.462713341399
 42
0.4142135623731
  0
LINE
  5
248
330
1F
100
AcDbEntity
  8
0-B_寸法
  6
Continuous
 62
   120
370
     5
100
AcDbLine
 10
-2396.197792623008
 20
2891.962713341399
 30
0.0
 11
-2396.197792623008
 21
2711.962713341399
 31
0.0
  0
LWPOLYLINE
  5
249
330
1F
100
AcDbEntity
  8
0-B_寸法
  6
Continuous
 62
     7
370
     9
100
AcDbPolyline
 90
        4
 70
     1
 43
3.0
 10
-2394.697792623008
 20
2891.962713341399
 42
0.4142135623731
 10
-2396.197792623008
 20
2893.462713341398
 42
0.4142135623731
 10
-2397.697792623008
 20
2891.962713341399
 42
0.4142135623731
 10
-2396.197792623008
 20
2890.462713341399
 42
0.4142135623731
  0
LINE
  5
24A
330
1F
100
AcDbEntity
  8
0-B_寸法
  6
Continuous
 62
   120
370
     5
100
AcDbLine
 10
-2426.197792623008
 20
2891.962713341399
 30
0.0
 11
-2246.197792623008
 21
2891.962713341399
 31
0.0
  0
LINE
  5
24B
330
1F
100
AcDbEntity
  8
0-B_寸法
  6
Continuous
 62
   120
370
     5
100
AcDbLine
 10
-2426.197792623008
 20
3071.962713341399
 30
0.0
 11
-2426.197792623008
 21
2711.962713341399
 31
0.0
  0
LINE
  5
24C
330
1F
100
AcDbEntity
  8
0-B_寸法
  6
Continuous
 62
   120
370
     5
100
AcDbLine
 10
-2426.197792623008
 20
3071.962713341399
 30
0.0
 11
-2246.197792623008
 21
3071.962713341399
 31
0.0
  0
LWPOLYLINE
  5
24D
330
1F
100
AcDbEntity
  8
0-B_寸法
  6
Continuous
 62
     7
370
     9
100
AcDbPolyline
 90
        4
 70
     1
 43
3.0
 10
-2424.697792623008
 20
2891.962713341399
 42
0.4142135623731
 10
-2426.197792623008
 20
2893.462713341398
 42
0.4142135623731
 10
-2427.697792623008
 20
2891.962713341399
 42
0.4142135623731
 10
-2426.197792623008
 20
2890.462713341399
 42
0.4142135623731
  0
LWPOLYLINE
  5
24E
330
1F
100
AcDbEntity
  8
0-B_寸法
  6
Continuous
 62
     7
370
     9
100
AcDbPolyline
 90
        4
 70
     1
 43
3.0
 10
-2424.697792623008
 20
3071.962713341399
 42
0.4142135623731
 10
-2426.197792623008
 20
3073.462713341399
 42
0.4142135623731
 10
-2427.697792623008
 20
3071.962713341399
 42
0.4142135623731
 10
-2426.197792623008
 20
3070.462713341399
 42
0.4142135623731
  0
MTEXT
  5
24F
330
1F
100
AcDbEntity
  8
0-B_寸法
  6
Continuous
 62
     7
370
   211
100
AcDbMText
 10
-2363.197807469396
 20
2754.642698952932
 30
0.0
 40
91.44
 41
60.0
 46
0.0
 71
     7
 72
     1
  1
{\fＭＳ ゴシック|b0|i0|c128|p49;9}
 73
     1
 44
1.0
  0
MTEXT
  5
250
330
1F
100
AcDbEntity
  8
0-A_文字
  6
Continuous
 62
     7
370
     9
100
AcDbMText
 10
-2755.658076881877
 20
3237.748537396473
 30
0.0
 40
100.584
 41
660.0
 46
0.0
 71
     7
 72
     1
  1
{\fＭＳ ゴシック|b0|i0|c128|p49;■横断面図}
 73
     1
 44
1.0
  0
LINE
  5
251
330
1F
100
AcDbEntity
  8
0-0_補助線
  6
JWW_HOJO
 62
   120
370
     5
100
AcDbLine
 10
-2755.658076881877
 20
2771.961624593789
 30
0.0
 11
-2755.658076881877
 21
431.9616245939665
 31
0.0
  0
LINE
  5
252
330
1F
100
AcDbEntity
  8
0-4_枠
  6
Continuous
 62
   120
370
     5
100
AcDbLine
 10
-2246.197792623008
 20
2510.96216897379
 30
0.0
 11
-1142.139594776723
 21
2510.96216897379
 31
0.0
  0
LINE
  5
253
330
1F
100
AcDbEntity
  8
0-4_枠
  6
Continuous
 62
   120
370
     5
100
AcDbLine
 10
-2246.197792623008
 20
1832.962168973789
 30
0.0
 11
-1142.139594776723
 21
1832.962168973789
 31
0.0
  0
LINE
  5
254
330
1F
100
AcDbEntity
  8
仕上げ
  6
Continuous
 62
    40
370
    15
100
AcDbLine
 10
-2755.658076881877
 20
2600.962168973791
 30
0.0
 11
-1142.139594776723
 21
2600.962168973791
 31
0.0
  0
MTEXT
  5
255
330
1F
100
AcDbEntity
  8
0-B_寸法
  6
Continuous
 62
     7
370
     0
100
AcDbMText
 10
-1974.075671847188
 20
2357.975141946762
 30
0.0
 40
84.02594594594595
 41
2040.0
 46
0.0
 71
     7
 72
     1
  1
{\fＭＳ ゴシック|b0|i0|c128|p49;ＤＷ＝900（810）〈713〉［650］〔583〕}
 73
     1
 44
1.0
  0
MTEXT
  5
256
330
1F
100
AcDbEntity
  8
0-B_寸法
  6
Continuous
 62
     7
370
     0
100
AcDbMText
 10
-1400.081137118627
 20
855.1453156395978
 30
0.0
 40
91.44000000000001
 41
2820.0
 46
0.0
 71
     7
 72
     1
  1
{\fＭＳ ゴシック|b0|i0|c128|p49;枠内＝1,764（1,584）〈1,390〉［1,264］〔1,130〕}
 73
     1
 44
1.0
  0
MTEXT
  5
257
330
1F
100
AcDbEntity
  8
0-B_寸法
  6
Continuous
 62
     7
370
     0
100
AcDbMText
 10
-1400.081137118627
 20
636.428222014205
 30
0.0
 40
91.44000000000001
 41
2820.0
 46
0.0
 71
     7
 72
     1
  1
{\fＭＳ ゴシック|b0|i0|c128|p49;枠外＝1,824（1,644）〈1,450〉［1,324］〔1,190〕}
 73
     1
 44
1.0
  0
MTEXT
  5
258
330
1F
100
AcDbEntity
  8
0-B_寸法
  6
Continuous
 62
     7
370
   211
100
AcDbMText
 10
-1568.831137118627
 20
438.1534331046048
 30
0.0
 40
102.3836170212766
 41
3157.5
 46
0.0
 71
     7
 72
     1
  1
{\fＭＳ ゴシック|b0|i0|c128|p49;ＲＯＷ＝1,834（1,654）<1,460>［1,334］〔1,200〕}
 73
     1
 44
1.0
  0
MTEXT
  5
259
330
1F
100
AcDbEntity
  8
0-B_寸法
  6
Continuous
 62
     7
370
     0
100
AcDbMText
 10
-2093.13946487082
 20
1067.539896507875
 30
0.0
 40
91.43999999999998
 41
1860.0
 46
0.0
 71
     7
 72
     1
  1
{\fＭＳ ゴシック|b0|i0|c128|p49;867（777）〈680〉［617］〔550〕}
 73
     1
 44
1.0
  0
MTEXT
  5
25A
330
1F
100
AcDbEntity
  8
0-B_寸法
  6
Continuous
 62
     7
370
     0
100
AcDbMText
 10
144.2268194738304
 20
1072.886186830456
 30
0.0
 40
102.1325806451613
 41
2077.5
 46
0.0
 71
     7
 72
     1
  1
{\fＭＳ ゴシック|b0|i0|c128|p49;867（777）〈680〉［617］〔550〕}
 73
     1
 44
1.0
  0
LINE
  5
25B
330
1F
100
AcDbEntity
  8
0-B_寸法
  6
JWW_DASHED1
 62
   120
370
     5
100
AcDbLine
 10
746.952230862886
 20
2036.962168973796
 30
0.0
 11
818.9522308628854
 21
2108.962168973795
 31
0.0
  0
LINE
  5
25C
330
1F
100
AcDbEntity
  8
0-B_寸法
  6
JWW_DASHED1
 62
   120
370
     5
100
AcDbLine
 10
746.5106720900818
 20
1781.962168973792
 30
0.0
 11
821.510672090092
 21
1856.962168973802
 31
0.0
  0
LINE
  5
25D
330
1F
100
AcDbEntity
  8
0-B_寸法
  6
JWW_DASHED1
 62
   120
370
     5
100
AcDbLine
 10
789.3786377340865
 20
2036.962168973796
 30
0.0
 11
861.3786377340858
 21
2108.962168973795
 31
0.0
  0
LINE
  5
25E
330
1F
100
AcDbEntity
  8
0-B_寸法
  6
JWW_DASHED1
 62
   120
370
     5
100
AcDbLine
 10
788.9370789612824
 20
1781.962168973792
 30
0.0
 11
863.9370789612926
 21
1856.962168973802
 31
0.0
  0
LINE
  5
25F
330
1F
100
AcDbEntity
  8
0-B_寸法
  6
JWW_DASHED1
 62
   120
370
     5
100
AcDbLine
 10
831.8050446052871
 20
2036.962168973796
 30
0.0
 11
903.8050446052864
 21
2108.962168973795
 31
0.0
  0
LINE
  5
260
330
1F
100
AcDbEntity
  8
0-B_寸法
  6
JWW_DASHED1
 62
   120
370
     5
100
AcDbLine
 10
831.3634858324829
 20
1781.962168973792
 30
0.0
 11
906.3634858324931
 21
1856.962168973802
 31
0.0
  0
LINE
  5
261
330
1F
100
AcDbEntity
  8
0-B_寸法
  6
JWW_DASHED1
 62
   120
370
     5
100
AcDbLine
 10
874.2314514764878
 20
2036.962168973796
 30
0.0
 11
946.2314514764871
 21
2108.962168973795
 31
0.0
  0
LINE
  5
262
330
1F
100
AcDbEntity
  8
0-B_寸法
  6
JWW_DASHED1
 62
   120
370
     5
100
AcDbLine
 10
873.7898927036836
 20
1781.962168973792
 30
0.0
 11
948.7898927036938
 21
1856.962168973802
 31
0.0
  0
LINE
  5
263
330
1F
100
AcDbEntity
  8
0-B_寸法
  6
JWW_DASHED1
 62
   120
370
     5
100
AcDbLine
 10
916.6578583476884
 20
2036.962168973796
 30
0.0
 11
988.6578583476877
 21
2108.962168973795
 31
0.0
  0
LINE
  5
264
330
1F
100
AcDbEntity
  8
0-B_寸法
  6
JWW_DASHED1
 62
   120
370
     5
100
AcDbLine
 10
916.2162995748843
 20
1781.962168973792
 30
0.0
 11
991.2162995748945
 21
1856.962168973802
 31
0.0
  0
LINE
  5
265
330
1F
100
AcDbEntity
  8
0-B_寸法
  6
JWW_DASHED1
 62
   120
370
     5
100
AcDbLine
 10
959.084265218889
 20
2036.962168973796
 30
0.0
 11
1031.084265218888
 21
2108.962168973795
 31
0.0
  0
LINE
  5
266
330
1F
100
AcDbEntity
  8
0-B_寸法
  6
JWW_DASHED1
 62
   120
370
     5
100
AcDbLine
 10
958.6427064460847
 20
1781.962168973792
 30
0.0
 11
1033.642706446095
 21
1856.962168973802
 31
0.0
  0
LINE
  5
267
330
1F
100
AcDbEntity
  8
0-B_寸法
  6
JWW_DASHED1
 62
   120
370
     5
100
AcDbLine
 10
1001.069113317285
 20
1781.962168973792
 30
0.0
 11
1041.976819473829
 21
1822.869875130336
 31
0.0
  0
LINE
  5
268
330
1F
100
AcDbEntity
  8
0-B_寸法
  6
JWW_DASHED1
 62
   120
370
     5
100
AcDbLine
 10
1001.51067209009
 20
2036.962168973796
 30
0.0
 11
1041.976819473829
 21
2077.428316357536
 31
0.0
  0
LINE
  5
269
330
1F
100
AcDbEntity
  8
0-B_寸法
  6
JWW_DASHED1
 62
   120
370
     5
100
AcDbLine
 10
1325.084265218878
 20
2036.962168973793
 30
0.0
 11
1397.084265218878
 21
2108.962168973792
 31
0.0
  0
LINE
  5
26A
330
1F
100
AcDbEntity
  8
0-B_寸法
  6
JWW_DASHED1
 62
   120
370
     5
100
AcDbLine
 10
1282.657858347682
 20
2036.962168973797
 30
0.0
 11
1354.657858347681
 21
2108.962168973796
 31
0.0
  0
LINE
  5
26B
330
1F
100
AcDbEntity
  8
0-B_寸法
  6
JWW_DASHED1
 62
   120
370
     5
100
AcDbLine
 10
1324.642706446015
 20
1781.962168973785
 30
0.0
 11
1399.642706446026
 21
1856.962168973796
 31
0.0
  0
LINE
  5
26C
330
1F
100
AcDbEntity
  8
0-B_寸法
  6
JWW_DASHED1
 62
   120
370
     5
100
AcDbLine
 10
1282.216299574878
 20
1781.962168973793
 30
0.0
 11
1357.216299574873
 21
1856.962168973788
 31
0.0
  0
LINE
  5
26D
330
1F
100
AcDbEntity
  8
0-B_寸法
  6
JWW_DASHED1
 62
   120
370
     5
100
AcDbLine
 10
1240.231451476528
 20
2036.962168973793
 30
0.0
 11
1312.231451476528
 21
2108.962168973792
 31
0.0
  0
LINE
  5
26E
330
1F
100
AcDbEntity
  8
0-B_寸法
  6
JWW_DASHED1
 62
   120
370
     5
100
AcDbLine
 10
1197.805044605332
 20
2036.962168973797
 30
0.0
 11
1269.805044605331
 21
2108.962168973796
 31
0.0
  0
LINE
  5
26F
330
1F
100
AcDbEntity
  8
0-B_寸法
  6
JWW_DASHED1
 62
   120
370
     5
100
AcDbLine
 10
1239.789892703666
 20
1781.962168973785
 30
0.0
 11
1314.789892703677
 21
1856.962168973796
 31
0.0
  0
LINE
  5
270
330
1F
100
AcDbEntity
  8
0-B_寸法
  6
JWW_DASHED1
 62
   120
370
     5
100
AcDbLine
 10
1197.363485832528
 20
1781.962168973793
 30
0.0
 11
1272.363485832524
 21
1856.962168973788
 31
0.0
  0
LINE
  5
271
330
1F
100
AcDbEntity
  8
0-B_寸法
  6
JWW_DASHED1
 62
   120
370
     5
100
AcDbLine
 10
1161.976819473829
 20
2085.986757584644
 30
0.0
 11
1184.952230862982
 21
2108.962168973796
 31
0.0
  0
LINE
  5
272
330
1F
100
AcDbEntity
  8
0-B_寸法
  6
JWW_DASHED1
 62
   120
370
     5
100
AcDbLine
 10
1161.976819473829
 20
1789.001909486298
 30
0.0
 11
1229.937078961327
 21
1856.962168973796
 31
0.0
  0
LINE
  5
273
330
1F
100
AcDbEntity
  8
0-B_寸法
  6
JWW_DASHED1
 62
   120
370
     5
100
AcDbLine
 10
1161.976819473829
 20
2043.560350713443
 30
0.0
 11
1227.378637734178
 21
2108.962168973792
 31
0.0
  0
LINE
  5
274
330
1F
100
AcDbEntity
  8
0-B_寸法
  6
JWW_DASHED1
 62
   120
370
     5
100
AcDbLine
 10
1161.976819473829
 20
1831.428316357444
 30
0.0
 11
1187.510672090174
 21
1856.962168973788
 31
0.0
  0
MTEXT
  5
275
330
1F
100
AcDbEntity
  8
0-B_寸法
  6
Continuous
 62
     7
370
     0
100
AcDbMText
 10
-1523.139464870819
 20
1199.539896507875
 30
0.0
 40
91.44
 41
720.0
 46
0.0
 71
     7
 72
     1
  1
{\fＭＳ ゴシック|b0|i0|c128|p49;有効開口寸法}
 73
     1
 44
1.0
  0
LINE
  5
276
330
1F
100
AcDbEntity
  8
0-0_補助線
  6
JWW_CENTER1
 62
   120
370
     5
100
AcDbLine
 10
-2456.197792623025
 20
2486.962168973789
 30
0.0
 11
-2456.197792623025
 21
1421.961624593966
 31
0.0
  0
LINE
  5
277
330
1F
100
AcDbEntity
  8
0-0_補助線
  6
JWW_CENTER1
 62
   120
370
     5
100
AcDbLine
 10
2475.95133889813
 20
2486.962168973789
 30
0.0
 11
2475.95133889813
 21
1421.961624593966
 31
0.0
  0
MTEXT
  5
278
330
1F
100
AcDbEntity
  8
F-A_文字
  6
Continuous
 62
     7
370
     9
100
AcDbMText
 10
5096.167700144058
 20
-4147.857012699985
 30
0.0
 40
74.295
 41
97.5
 46
0.0
 71
     7
 72
     1
  1
{\fＭＳ ゴシック|b0|i0|c128|p49;01}
 73
     1
 44
1.0
  0
LINE
  5
279
330
1F
100
AcDbEntity
  8
0-0_補助線
  6
JWW_HOJO
 62
   120
370
     5
100
AcDbLine
 10
-988.6580768818777
 20
-210.8487132713799
 30
0.0
 11
-988.6580768818777
 21
-3258.848713373457
 31
0.0
  0
LINE
  5
27A
330
1F
100
AcDbEntity
  8
0-0_補助線
  6
JWW_HOJO
 62
   120
370
     5
100
AcDbLine
 10
-778.6580768818777
 20
-210.8487132713799
 30
0.0
 11
-778.6580768818777
 21
-3258.848713373457
 31
0.0
  0
LINE
  5
27B
330
1F
100
AcDbEntity
  8
0-0_補助線
  6
JWW_HOJO
 62
   120
370
     5
100
AcDbLine
 10
-358.6580768818777
 20
-210.8487132713799
 30
0.0
 11
-358.6580768818777
 21
-3258.848713373457
 31
0.0
  0
LINE
  5
27C
330
1F
100
AcDbEntity
  8
0-0_補助線
  6
JWW_HOJO
 62
   120
370
     5
100
AcDbLine
 10
-568.6580768818777
 20
-210.8487132713799
 30
0.0
 11
-568.6580768818777
 21
-3258.848713373457
 31
0.0
  0
LINE
  5
27D
330
1F
100
AcDbEntity
  8
0-B_寸法
  6
Continuous
 62
   120
370
     5
100
AcDbLine
 10
-148.6580768818777
 20
-558.8487132713772
 30
0.0
 11
-988.6580768818777
 21
-558.8487132713772
 31
0.0
  0
LINE
  5
27E
330
1F
100
AcDbEntity
  8
0-B_寸法
  6
Continuous
 62
   120
370
     5
100
AcDbLine
 10
-358.6580768818777
 20
-3168.848713271374
 30
0.0
 11
-988.6580768818777
 21
-3168.848713271374
 31
0.0
  0
LWPOLYLINE
  5
27F
330
1F
100
AcDbEntity
  8
0-B_寸法
  6
Continuous
 62
     7
370
     9
100
AcDbPolyline
 90
        4
 70
     1
 43
3.0
 10
-357.1580768818777
 20
-558.8487132713772
 42
0.4142135623731
 10
-358.6580768818777
 20
-557.3487132713772
 42
0.4142135623731
 10
-360.1580768818777
 20
-558.8487132713772
 42
0.4142135623731
 10
-358.6580768818777
 20
-560.3487132713772
 42
0.4142135623731
  0
LWPOLYLINE
  5
280
330
1F
100
AcDbEntity
  8
0-B_寸法
  6
Continuous
 62
     7
370
     9
100
AcDbPolyline
 90
        4
 70
     1
 43
3.0
 10
-357.1580768818777
 20
-3168.848713271374
 42
0.4142135623731
 10
-358.6580768818777
 20
-3167.348713271374
 42
0.4142135623731
 10
-360.1580768818777
 20
-3168.848713271374
 42
0.4142135623731
 10
-358.6580768818777
 20
-3170.348713271374
 42
0.4142135623731
  0
LINE
  5
281
330
1F
100
AcDbEntity
  8
0-B_寸法
  6
Continuous
 62
   120
370
     5
100
AcDbLine
 10
-778.6580768818777
 20
-782.0487129867979
 30
0.0
 11
-778.6580768818777
 21
-822.8487129867949
 31
0.0
  0
LWPOLYLINE
  5
282
330
1F
100
AcDbEntity
  8
0-B_寸法
  6
Continuous
 62
     7
370
     9
100
AcDbPolyline
 90
        4
 70
     1
 43
3.0
 10
-777.1580768818777
 20
-782.0487129867979
 42
0.4142135623731
 10
-778.6580768818777
 20
-780.5487129867979
 42
0.4142135623731
 10
-780.1580768818777
 20
-782.0487129867979
 42
0.4142135623731
 10
-778.6580768818777
 20
-783.5487129867979
 42
0.4142135623731
  0
LWPOLYLINE
  5
283
330
1F
100
AcDbEntity
  8
0-B_寸法
  6
Continuous
 62
     7
370
     9
100
AcDbPolyline
 90
        4
 70
     1
 43
3.0
 10
-777.1580768818777
 20
-822.8487129867949
 42
0.4142135623731
 10
-778.6580768818777
 20
-821.3487129867949
 42
0.4142135623731
 10
-780.1580768818777
 20
-822.8487129867949
 42
0.4142135623731
 10
-778.6580768818777
 20
-824.3487129867949
 42
0.4142135623731
  0
LINE
  5
284
330
1F
100
AcDbEntity
  8
0-B_寸法
  6
Continuous
 62
   120
370
     5
100
AcDbLine
 10
-778.6580768818777
 20
-782.0487129867979
 30
0.0
 11
-988.6580768818777
 21
-782.0487129867979
 31
0.0
  0
LINE
  5
285
330
1F
100
AcDbEntity
  8
0-B_寸法
  6
Continuous
 62
   120
370
     5
100
AcDbLine
 10
-568.6580768818777
 20
-822.8487129867949
 30
0.0
 11
-988.6580768818777
 21
-822.8487129867949
 31
0.0
  0
LINE
  5
286
330
1F
100
AcDbEntity
  8
0-B_寸法
  6
Continuous
 62
   120
370
     5
100
AcDbLine
 10
-568.6580768818777
 20
-738.8487132713806
 30
0.0
 11
-568.6580768818777
 21
-3138.849313271376
 31
0.0
  0
LWPOLYLINE
  5
287
330
1F
100
AcDbEntity
  8
0-B_寸法
  6
Continuous
 62
     7
370
     9
100
AcDbPolyline
 90
        4
 70
     1
 43
3.0
 10
-567.1580768818777
 20
-738.8487132713806
 42
0.4142135623731
 10
-568.6580768818777
 20
-737.3487132713806
 42
0.4142135623731
 10
-570.1580768818777
 20
-738.8487132713806
 42
0.4142135623731
 10
-568.6580768818777
 20
-740.3487132713806
 42
0.4142135623731
  0
LWPOLYLINE
  5
288
330
1F
100
AcDbEntity
  8
0-B_寸法
  6
Continuous
 62
     7
370
     9
100
AcDbPolyline
 90
        4
 70
     1
 43
3.0
 10
-567.1580768818777
 20
-822.8487129867949
 42
0.4142135623731
 10
-568.6580768818777
 20
-821.3487129867949
 42
0.4142135623731
 10
-570.1580768818777
 20
-822.8487129867949
 42
0.4142135623731
 10
-568.6580768818777
 20
-824.3487129867949
 42
0.4142135623731
  0
LINE
  5
289
330
1F
100
AcDbEntity
  8
0-B_寸法
  6
Continuous
 62
   120
370
     5
100
AcDbLine
 10
-358.6580768818777
 20
-738.8487132713806
 30
0.0
 11
-988.6580768818777
 21
-738.8487132713806
 31
0.0
  0
MTEXT
  5
28A
330
1F
100
AcDbEntity
  8
0-B_寸法
  6
Continuous
 62
     7
370
   211
100
AcDbMText
 10
-793.6580768818777
 20
-1040.318712986798
 30
0.0
 40
99.06
 41
195.0
 46
0.0
 71
     7
 72
     1
  1
{\fＭＳ ゴシック|b0|i0|c128|p49;6.8}
 11
6.123031769111886E-17
 21
1.0
 31
0.0
 73
     1
 44
1.0
  0
MTEXT
  5
28B
330
1F
100
AcDbEntity
  8
0-B_寸法
  6
Continuous
 62
     7
370
   211
100
AcDbMText
 10
-583.6580768818777
 20
-973.771212986796
 30
0.0
 40
97.15499999999999
 41
127.5
 46
0.0
 71
     7
 72
     1
  1
{\fＭＳ ゴシック|b0|i0|c128|p49;14}
 11
6.123031769111886E-17
 21
1.0
 31
0.0
 73
     1
 44
1.0
  0
LWPOLYLINE
  5
28C
330
1F
100
AcDbEntity
  8
0-B_寸法
  6
Continuous
 62
     7
370
     9
100
AcDbPolyline
 90
        4
 70
     1
 43
3.0
 10
-147.1580768818777
 20
-3258.848713271374
 42
0.4142135623731
 10
-148.6580768818777
 20
-3257.348713271374
 42
0.4142135623731
 10
-150.1580768818777
 20
-3258.848713271374
 42
0.4142135623731
 10
-148.6580768818777
 20
-3260.348713271374
 42
0.4142135623731
  0
LINE
  5
28D
330
1F
100
AcDbEntity
  8
0-B_寸法
  6
Continuous
 62
   120
370
     5
100
AcDbLine
 10
-148.6580768818777
 20
-3258.848713271374
 30
0.0
 11
-988.6580768818777
 21
-3258.848713271374
 31
0.0
  0
LINE
  5
28E
330
1F
100
AcDbEntity
  8
0-B_寸法
  6
Continuous
 62
   120
370
     5
100
AcDbLine
 10
-358.6580768818777
 20
-3258.848713373457
 30
0.0
 11
-358.6580768818777
 21
-558.8487132713772
 31
0.0
  0
LWPOLYLINE
  5
28F
330
1F
100
AcDbEntity
  8
0-B_寸法
  6
Continuous
 62
     7
370
     9
100
AcDbPolyline
 90
        4
 70
     1
 43
3.0
 10
-357.1580768818777
 20
-3186.848713271374
 42
0.4142135623731
 10
-358.6580768818777
 20
-3185.348713271374
 42
0.4142135623731
 10
-360.1580768818777
 20
-3186.848713271374
 42
0.4142135623731
 10
-358.6580768818777
 20
-3188.348713271374
 42
0.4142135623731
  0
LINE
  5
290
330
1F
100
AcDbEntity
  8
0-B_寸法
  6
Continuous
 62
   120
370
     5
100
AcDbLine
 10
-568.6580768818777
 20
-3168.849313271376
 30
0.0
 11
-568.6580768818777
 21
-3138.849313271376
 31
0.0
  0
LWPOLYLINE
  5
291
330
1F
100
AcDbEntity
  8
0-B_寸法
  6
Continuous
 62
     7
370
     9
100
AcDbPolyline
 90
        4
 70
     1
 43
3.0
 10
-567.1580768818777
 20
-3168.849313271376
 42
0.4142135623731
 10
-568.6580768818777
 20
-3167.349313271376
 42
0.4142135623731
 10
-570.1580768818777
 20
-3168.849313271376
 42
0.4142135623731
 10
-568.6580768818777
 20
-3170.349313271376
 42
0.4142135623731
  0
LWPOLYLINE
  5
292
330
1F
100
AcDbEntity
  8
0-B_寸法
  6
Continuous
 62
     7
370
     9
100
AcDbPolyline
 90
        4
 70
     1
 43
3.0
 10
-567.1580768818777
 20
-3138.849313271376
 42
0.4142135623731
 10
-568.6580768818777
 20
-3137.349313271376
 42
0.4142135623731
 10
-570.1580768818777
 20
-3138.849313271376
 42
0.4142135623731
 10
-568.6580768818777
 20
-3140.349313271376
 42
0.4142135623731
  0
LINE
  5
293
330
1F
100
AcDbEntity
  8
0-B_寸法
  6
Continuous
 62
   120
370
     5
100
AcDbLine
 10
-568.6580768818777
 20
-3168.849313271376
 30
0.0
 11
-988.6580768818777
 21
-3168.849313271376
 31
0.0
  0
LINE
  5
294
330
1F
100
AcDbEntity
  8
0-B_寸法
  6
Continuous
 62
   120
370
     5
100
AcDbLine
 10
-568.6580768818777
 20
-3138.849313271376
 30
0.0
 11
-988.6580768818777
 21
-3138.849313271376
 31
0.0
  0
MTEXT
  5
295
330
1F
100
AcDbEntity
  8
0-B_寸法
  6
Continuous
 62
     7
370
   211
100
AcDbMText
 10
-583.6580768818777
 20
-3141.129313271377
 30
0.0
 40
91.44
 41
60.0
 46
0.0
 71
     7
 72
     1
  1
{\fＭＳ ゴシック|b0|i0|c128|p49;5}
 11
6.123031769111886E-17
 21
1.0
 31
0.0
 73
     1
 44
1.0
  0
MTEXT
  5
296
330
1F
100
AcDbEntity
  8
0-B_寸法
  6
Continuous
 62
     7
370
   211
100
AcDbMText
 10
-373.6580768818777
 20
-3165.128713271373
 30
0.0
 40
91.44
 41
60.0
 46
0.0
 71
     7
 72
     1
  1
{\fＭＳ ゴシック|b0|i0|c128|p49;3}
 11
6.123031769111886E-17
 21
1.0
 31
0.0
 73
     1
 44
1.0
  0
MTEXT
  5
297
330
1F
100
AcDbEntity
  8
0-B_寸法
  6
Continuous
 62
     7
370
   211
100
AcDbMText
 10
-373.6580768818777
 20
-2557.481213271376
 30
0.0
 40
102.235
 41
1207.5
 46
0.0
 71
     7
 72
     1
  1
{\fＭＳ ゴシック|b0|i0|c128|p49;枠内＝2,002(2,202)}
 11
6.123031769111886E-17
 21
1.0
 31
0.0
 73
     1
 44
1.0
  0
MTEXT
  5
298
330
1F
100
AcDbEntity
  8
0-B_寸法
  6
Continuous
 62
     7
370
   211
100
AcDbMText
 10
-373.6580768818777
 20
-724.0212132713789
 30
0.0
 40
97.15499999999999
 41
127.5
 46
0.0
 71
     7
 72
     1
  1
{\fＭＳ ゴシック|b0|i0|c128|p49;30}
 11
6.123031769111886E-17
 21
1.0
 31
0.0
 73
     1
 44
1.0
  0
LWPOLYLINE
  5
299
330
1F
100
AcDbEntity
  8
0-B_寸法
  6
Continuous
 62
     7
370
     9
100
AcDbPolyline
 90
        4
 70
     1
 43
3.0
 10
-357.1580768818777
 20
-738.8487132713806
 42
0.4142135623731
 10
-358.6580768818777
 20
-737.3487132713806
 42
0.4142135623731
 10
-360.1580768818777
 20
-738.8487132713806
 42
0.4142135623731
 10
-358.6580768818777
 20
-740.3487132713806
 42
0.4142135623731
  0
MTEXT
  5
29A
330
1F
100
AcDbEntity
  8
0-B_寸法
  6
Continuous
 62
     7
370
   211
100
AcDbMText
 10
-583.6580768818777
 20
-2557.481213271376
 30
0.0
 40
102.235
 41
1207.5
 46
0.0
 71
     7
 72
     1
  1
{\fＭＳ ゴシック|b0|i0|c128|p49;ＤＨ＝1,983(2,183)}
 11
6.123031769111886E-17
 21
1.0
 31
0.0
 73
     1
 44
1.0
  0
LINE
  5
29B
330
1F
100
AcDbEntity
  8
0-B_寸法
  6
Continuous
 62
   120
370
     5
100
AcDbLine
 10
-148.6580768818777
 20
-510.8487132713765
 30
0.0
 11
-148.6580768818777
 21
-558.8487132713772
 31
0.0
  0
LWPOLYLINE
  5
29C
330
1F
100
AcDbEntity
  8
0-B_寸法
  6
Continuous
 62
     7
370
     9
100
AcDbPolyline
 90
        4
 70
     1
 43
3.0
 10
-147.1580768818777
 20
-510.8487132713765
 42
0.4142135623731
 10
-148.6580768818777
 20
-509.3487132713765
 42
0.4142135623731
 10
-150.1580768818777
 20
-510.8487132713765
 42
0.4142135623731
 10
-148.6580768818777
 20
-512.3487132713765
 42
0.4142135623731
  0
LWPOLYLINE
  5
29D
330
1F
100
AcDbEntity
  8
0-B_寸法
  6
Continuous
 62
     7
370
     9
100
AcDbPolyline
 90
        4
 70
     1
 43
3.0
 10
-147.1580768818777
 20
-558.8487132713772
 42
0.4142135623731
 10
-148.6580768818777
 20
-557.3487132713772
 42
0.4142135623731
 10
-150.1580768818777
 20
-558.8487132713772
 42
0.4142135623731
 10
-148.6580768818777
 20
-560.3487132713772
 42
0.4142135623731
  0
LINE
  5
29E
330
1F
100
AcDbEntity
  8
0-B_寸法
  6
Continuous
 62
   120
370
     5
100
AcDbLine
 10
-148.6580768818777
 20
-510.8487132713765
 30
0.0
 11
-988.6580768818777
 21
-510.8487132713765
 31
0.0
  0
MTEXT
  5
29F
330
1F
100
AcDbEntity
  8
0-B_寸法
  6
Continuous
 62
     7
370
   211
100
AcDbMText
 10
-163.6580768818777
 20
-633.1287132713754
 30
0.0
 40
91.44
 41
60.0
 46
0.0
 71
     7
 72
     1
  1
{\fＭＳ ゴシック|b0|i0|c128|p49;8}
 11
6.123031769111886E-17
 21
1.0
 31
0.0
 73
     1
 44
1.0
  0
LINE
  5
2A0
330
1F
100
AcDbEntity
  8
0-B_寸法
  6
Continuous
 62
   120
370
     5
100
AcDbLine
 10
-148.6580768818777
 20
-558.8487132713772
 30
0.0
 11
-148.6580768818777
 21
-3186.848713271374
 31
0.0
  0
LINE
  5
2A1
330
1F
100
AcDbEntity
  8
0-0_補助線
  6
JWW_HOJO
 62
   120
370
     5
100
AcDbLine
 10
-148.6580768818777
 20
-210.8487132713799
 30
0.0
 11
-148.6580768818777
 21
-3258.848713373457
 31
0.0
  0
LINE
  5
2A2
330
1F
100
AcDbEntity
  8
0-1_通り芯
  6
JWW_CENTER1
 62
   120
370
     5
100
AcDbLine
 10
-31.65807688187755
 20
-3258.848713271373
 30
0.0
 11
-3231.574571088508
 21
-3258.848713271377
 31
0.0
  0
LINE
  5
2A3
330
1F
100
AcDbEntity
  8
0-0_補助線
  6
JWW_HOJO
 62
   120
370
     5
100
AcDbLine
 10
-3223.658076881876
 20
-210.8487132713842
 30
0.0
 11
-148.6580768818777
 21
-210.8487132713799
 31
0.0
  0
LINE
  5
2A4
330
1F
100
AcDbEntity
  8
0-1_通り芯
  6
JWW_CENTER1
 62
   120
370
     5
100
AcDbLine
 10
-3223.658076881876
 20
-510.8487132713799
 30
0.0
 11
-34.6580768818778
 21
-510.8487132713756
 31
0.0
  0
MTEXT
  5
2A5
330
1F
100
AcDbEntity
  8
0-A_文字
  6
Continuous
 62
     7
370
     0
100
AcDbMText
 10
-1288.658076881878
 20
-3554.200069581004
 30
0.0
 40
78.97090909090909
 41
1140.0
 46
0.0
 71
     7
 72
     1
  1
{\fＭＳ ゴシック|b0|i0|c128|p49;※(　)内寸法はハイドア}
 73
     1
 44
1.0
  0
MTEXT
  5
2A6
330
1F
100
AcDbEntity
  8
0-B_寸法
  6
Continuous
 62
     7
370
   211
100
AcDbMText
 10
-2770.65807688188
 20
-618.1287132713805
 30
0.0
 40
91.44
 41
60.0
 46
0.0
 71
     7
 72
     1
  1
{\fＭＳ ゴシック|b0|i0|c128|p49;5}
 11
6.123031769111886E-17
 21
1.0
 31
0.0
 73
     1
 44
1.0
  0
LINE
  5
2A7
330
1F
100
AcDbEntity
  8
0-B_寸法
  6
Continuous
 62
   120
370
     5
100
AcDbLine
 10
-2755.65807688188
 20
-558.8487132713806
 30
0.0
 11
-2755.65807688188
 21
-588.8487132713806
 31
0.0
  0
LWPOLYLINE
  5
2A8
330
1F
100
AcDbEntity
  8
0-B_寸法
  6
Continuous
 62
     7
370
     9
100
AcDbPolyline
 90
        4
 70
     1
 43
3.0
 10
-2754.15807688188
 20
-558.8487132713806
 42
0.4142135623731
 10
-2755.65807688188
 20
-557.3487132713806
 42
0.4142135623731
 10
-2757.15807688188
 20
-558.8487132713806
 42
0.4142135623731
 10
-2755.65807688188
 20
-560.3487132713806
 42
0.4142135623731
  0
LWPOLYLINE
  5
2A9
330
1F
100
AcDbEntity
  8
0-B_寸法
  6
Continuous
 62
     7
370
     9
100
AcDbPolyline
 90
        4
 70
     1
 43
3.0
 10
-2754.15807688188
 20
-588.8487132713806
 42
0.4142135623731
 10
-2755.65807688188
 20
-587.3487132713806
 42
0.4142135623731
 10
-2757.15807688188
 20
-588.8487132713806
 42
0.4142135623731
 10
-2755.65807688188
 20
-590.3487132713806
 42
0.4142135623731
  0
LINE
  5
2AA
330
1F
100
AcDbEntity
  8
0-B_寸法
  6
Continuous
 62
   120
370
     5
100
AcDbLine
 10
-2755.65807688188
 20
-588.8487132713806
 30
0.0
 11
-2755.65807688188
 21
-642.8487132713792
 31
0.0
  0
LWPOLYLINE
  5
2AB
330
1F
100
AcDbEntity
  8
0-B_寸法
  6
Continuous
 62
     7
370
     9
100
AcDbPolyline
 90
        4
 70
     1
 43
3.0
 10
-2754.15807688188
 20
-642.8487132713792
 42
0.4142135623731
 10
-2755.65807688188
 20
-641.3487132713792
 42
0.4142135623731
 10
-2757.15807688188
 20
-642.8487132713792
 42
0.4142135623731
 10
-2755.65807688188
 20
-644.3487132713792
 42
0.4142135623731
  0
LINE
  5
2AC
330
1F
100
AcDbEntity
  8
0-B_寸法
  6
Continuous
 62
   120
370
     5
100
AcDbLine
 10
-2755.65807688188
 20
-642.8487132713792
 30
0.0
 11
-2755.65807688188
 21
-738.8487132713806
 31
0.0
  0
LWPOLYLINE
  5
2AD
330
1F
100
AcDbEntity
  8
0-B_寸法
  6
Continuous
 62
     7
370
     9
100
AcDbPolyline
 90
        4
 70
     1
 43
3.0
 10
-2754.15807688188
 20
-738.8487132713806
 42
0.4142135623731
 10
-2755.65807688188
 20
-737.3487132713806
 42
0.4142135623731
 10
-2757.15807688188
 20
-738.8487132713806
 42
0.4142135623731
 10
-2755.65807688188
 20
-740.3487132713806
 42
0.4142135623731
  0
MTEXT
  5
2AE
330
1F
100
AcDbEntity
  8
0-B_寸法
  6
Continuous
 62
     7
370
   211
100
AcDbMText
 10
-2770.65807688188
 20
-765.1287132713799
 30
0.0
 40
91.44
 41
120.0
 46
0.0
 71
     7
 72
     1
  1
{\fＭＳ ゴシック|b0|i0|c128|p49;16}
 11
6.123031769111886E-17
 21
1.0
 31
0.0
 73
     1
 44
1.0
  0
MTEXT
  5
2AF
330
1F
100
AcDbEntity
  8
0-B_寸法
  6
Continuous
 62
     7
370
   211
100
AcDbMText
 10
-2620.65807688188
 20
-660.1287132713799
 30
0.0
 40
91.44
 41
60.0
 46
0.0
 71
     7
 72
     1
  1
{\fＭＳ ゴシック|b0|i0|c128|p49;9}
 11
6.123031769111886E-17
 21
1.0
 31
0.0
 73
     1
 44
1.0
  0
LINE
  5
2B0
330
1F
100
AcDbEntity
  8
0-B_寸法
  6
Continuous
 62
   120
370
     5
100
AcDbLine
 10
-2755.65807688188
 20
-558.8487132713806
 30
0.0
 11
-2566.658076881879
 21
-558.8487132713806
 31
0.0
  0
LINE
  5
2B1
330
1F
100
AcDbEntity
  8
0-B_寸法
  6
Continuous
 62
   120
370
     5
100
AcDbLine
 10
-2755.65807688188
 20
-588.8487132713806
 30
0.0
 11
-2566.658076881879
 21
-588.8487132713806
 31
0.0
  0
LINE
  5
2B2
330
1F
100
AcDbEntity
  8
0-B_寸法
  6
Continuous
 62
   120
370
     5
100
AcDbLine
 10
-2755.65807688188
 20
-642.8487132713792
 30
0.0
 11
-2566.658076881879
 21
-642.8487132713792
 31
0.0
  0
LINE
  5
2B3
330
1F
100
AcDbEntity
  8
0-B_寸法
  6
Continuous
 62
   120
370
     5
100
AcDbLine
 10
-2755.65807688188
 20
-738.8487132713806
 30
0.0
 11
-2566.658076881879
 21
-738.8487132713806
 31
0.0
  0
LINE
  5
2B4
330
1F
100
AcDbEntity
  8
0-0_補助線
  6
JWW_HOJO
 62
   120
370
     5
100
AcDbLine
 10
-2755.658076881877
 20
-210.8487132713842
 30
0.0
 11
-2755.658076881877
 21
-3258.848713373462
 31
0.0
  0
LWPOLYLINE
  5
2B5
330
1F
100
AcDbEntity
  8
0-B_寸法
  6
Continuous
 62
     7
370
     9
100
AcDbPolyline
 90
        4
 70
     1
 43
3.0
 10
-3222.158076881876
 20
-3258.848713271378
 42
0.4142135623731
 10
-3223.658076881876
 20
-3257.348713271378
 42
0.4142135623731
 10
-3225.158076881876
 20
-3258.848713271378
 42
0.4142135623731
 10
-3223.658076881876
 20
-3260.348713271378
 42
0.4142135623731
  0
LINE
  5
2B6
330
1F
100
AcDbEntity
  8
0-B_寸法
  6
Continuous
 62
   120
370
     5
100
AcDbLine
 10
-2755.658076881877
 20
-3258.848713271378
 30
0.0
 11
-3223.658076881876
 21
-3258.848713271378
 31
0.0
  0
LWPOLYLINE
  5
2B7
330
1F
100
AcDbEntity
  8
0-B_寸法
  6
Continuous
 62
     7
370
     9
100
AcDbPolyline
 90
        4
 70
     1
 43
3.0
 10
-3222.158076881876
 20
-510.8487132713822
 42
0.4142135623731
 10
-3223.658076881876
 20
-509.3487132713822
 42
0.4142135623731
 10
-3225.158076881876
 20
-510.8487132713822
 42
0.4142135623731
 10
-3223.658076881876
 20
-512.3487132713823
 42
0.4142135623731
  0
LINE
  5
2B8
330
1F
100
AcDbEntity
  8
0-B_寸法
  6
Continuous
 62
   120
370
     5
100
AcDbLine
 10
-2755.658076881877
 20
-510.8487132713822
 30
0.0
 11
-3223.658076881876
 21
-510.8487132713822
 31
0.0
  0
LINE
  5
2B9
330
1F
100
AcDbEntity
  8
0-B_寸法
  6
Continuous
 62
   120
370
     5
100
AcDbLine
 10
-3223.658076881876
 20
-510.8487132713825
 30
0.0
 11
-3223.658076881876
 21
-3258.848713271378
 31
0.0
  0
LINE
  5
2BA
330
1F
100
AcDbEntity
  8
0-0_補助線
  6
JWW_HOJO
 62
   120
370
     5
100
AcDbLine
 10
-3223.658076881876
 20
-210.8487132713842
 30
0.0
 11
-3223.658076881876
 21
-3258.848713373462
 31
0.0
  0
MTEXT
  5
2BB
330
1F
100
AcDbEntity
  8
0-B_寸法
  6
Continuous
 62
     7
370
   211
100
AcDbMText
 10
-3238.658076881876
 20
-2499.128713271381
 30
0.0
 40
91.43999999999996
 41
1200.0
 46
0.0
 71
     7
 72
     1
  1
{\fＭＳ ゴシック|b0|i0|c128|p49;ＲＯＨ＝2,055(2,255)}
 11
6.123031769111886E-17
 21
1.0
 31
0.0
 73
     1
 44
1.0
  0
MTEXT
  5
2BC
330
1F
100
AcDbEntity
  8
0-A_文字
  6
Continuous
 62
     7
370
     9
100
AcDbMText
 10
-3223.658076881876
 20
-64.21205768165042
 30
0.0
 40
91.43999999999997
 41
1140.0
 46
0.0
 71
     7
 72
     1
  1
{\fＭＳ ゴシック|b0|i0|c128|p49;■縦断面図[ﾚｰﾙﾀｲﾌﾟ]}
 73
     1
 44
1.0
  0
LWPOLYLINE
  5
2BD
330
1F
100
AcDbEntity
  8
0-B_寸法
  6
Continuous
 62
     7
370
     9
100
AcDbPolyline
 90
        4
 70
     1
 43
3.0
 10
-357.1580768818777
 20
-3258.848713373457
 42
0.4142135623731
 10
-358.6580768818777
 20
-3257.348713373457
 42
0.4142135623731
 10
-360.1580768818777
 20
-3258.848713373457
 42
0.4142135623731
 10
-358.6580768818777
 20
-3260.348713373457
 42
0.4142135623731
  0
LINE
  5
2BE
330
1F
100
AcDbEntity
  8
0-B_寸法
  6
Continuous
 62
   120
370
     5
100
AcDbLine
 10
-358.6580768818777
 20
-3186.848713271374
 30
0.0
 11
-988.6580768818777
 21
-3186.848713271374
 31
0.0
  0
MTEXT
  5
2BF
330
1F
100
AcDbEntity
  8
0-B_寸法
  6
Continuous
 62
     7
370
   211
100
AcDbMText
 10
-373.6580768818777
 20
-3408.534797507643
 30
0.0
 40
97.15499999999999
 41
127.5
 46
0.0
 71
     7
 72
     1
  1
{\fＭＳ ゴシック|b0|i0|c128|p49;12}
 11
6.123031769111886E-17
 21
1.0
 31
0.0
 73
     1
 44
1.0
  0
LINE
  5
2C0
330
1F
100
AcDbEntity
  8
0-B_寸法
  6
Continuous
 62
   120
370
     5
100
AcDbLine
 10
-148.6580768818777
 20
-3258.848713373457
 30
0.0
 11
-148.6580768818777
 21
-3186.848713271374
 31
0.0
  0
MTEXT
  5
2C1
330
1F
100
AcDbEntity
  8
0-B_寸法
  6
Continuous
 62
     7
370
   211
100
AcDbMText
 10
-163.6580768818777
 20
-2557.481213271376
 30
0.0
 40
102.235
 41
1207.5
 46
0.0
 71
     7
 72
     1
  1
{\fＭＳ ゴシック|b0|i0|c128|p49;枠外＝2,047(2,247)}
 11
6.123031769111886E-17
 21
1.0
 31
0.0
 73
     1
 44
1.0
  0
MTEXT
  5
2C2
330
1F
100
AcDbEntity
  8
0-B_寸法
  6
Continuous
 62
     7
370
   211
100
AcDbMText
 10
-2230.658076881872
 20
-1524.128840119953
 30
0.0
 40
91.44
 41
120.0
 46
0.0
 71
     7
 72
     1
  1
{\fＭＳ ゴシック|b0|i0|c128|p49;30}
 73
     1
 44
1.0
  0
LINE
  5
2C3
330
1F
100
AcDbEntity
  8
0-7_金物
  6
Continuous
 62
     7
370
     9
100
AcDbLine
 10
-2224.658399942001
 20
-558.8487132713806
 30
0.0
 11
-2224.658399942001
 21
-534.8486446068284
 31
0.0
  0
LINE
  5
2C4
330
1F
100
AcDbEntity
  8
0-7_金物
  6
Continuous
 62
     7
370
     9
100
AcDbLine
 10
-2116.65833127745
 20
-534.8486446068284
 30
0.0
 11
-2116.65833127745
 21
-558.8487132713806
 31
0.0
  0
LINE
  5
2C5
330
1F
100
AcDbEntity
  8
0-7_金物
  6
Continuous
 62
     7
370
     9
100
AcDbLine
 10
-2110.658165338119
 20
-534.8486446068284
 30
0.0
 11
-2230.657822015365
 21
-534.8486446068284
 31
0.0
  0
LINE
  5
2C6
330
1F
100
AcDbEntity
  8
0-7_金物
  6
Continuous
 62
     7
370
     9
100
AcDbLine
 10
-2230.657822015365
 20
-522.8490508720893
 30
0.0
 11
-2230.657822015365
 21
-534.8486446068284
 31
0.0
  0
LINE
  5
2C7
330
1F
100
AcDbEntity
  8
0-7_金物
  6
Continuous
 62
     7
370
     9
100
AcDbLine
 10
-2110.658165338119
 20
-522.8490508720893
 30
0.0
 11
-2110.658165338119
 21
-534.8486446068284
 31
0.0
  0
LINE
  5
2C8
330
1F
100
AcDbEntity
  8
0-7_金物
  6
Continuous
 62
     7
370
     9
100
AcDbLine
 10
-2080.658062341296
 20
-510.8487132713799
 30
0.0
 11
-2260.657925012194
 21
-510.8487132713799
 31
0.0
  0
LINE
  5
2C9
330
1F
100
AcDbEntity
  8
0-7_金物
  6
Continuous
 62
     7
370
     9
100
AcDbLine
 10
-2080.658062341296
 20
-510.8487132713799
 30
0.0
 11
-2080.658062341296
 21
-522.8490508720893
 31
0.0
  0
LINE
  5
2CA
330
1F
100
AcDbEntity
  8
0-7_金物
  6
Continuous
 62
     7
370
     9
100
AcDbLine
 10
-2260.657925012194
 20
-510.8487132713799
 30
0.0
 11
-2260.657925012194
 21
-522.8490508720893
 31
0.0
  0
LINE
  5
2CB
330
1F
100
AcDbEntity
  8
0-7_金物
  6
Continuous
 62
     7
370
     9
100
AcDbLine
 10
-2080.658062341296
 20
-522.8490508720893
 30
0.0
 11
-2260.657925012194
 21
-522.8490508720893
 31
0.0
  0
LINE
  5
2CC
330
1F
100
AcDbEntity
  8
0-6_扉
  6
Continuous
 62
   200
370
    20
100
AcDbLine
 10
-2260.658076881872
 20
-822.8487129867983
 30
0.0
 11
-2080.658076881872
 21
-822.8487129867983
 31
0.0
  0
LINE
  5
2CD
330
1F
100
AcDbEntity
  8
ハッチ
  6
JWW_DASHED1
 62
   120
370
     5
100
AcDbLine
 10
-2371.65807688188
 20
-263.1713397665271
 30
0.0
 11
-2423.980703377027
 21
-210.8487132713799
 31
0.0
  0
LINE
  5
2CE
330
1F
100
AcDbEntity
  8
ハッチ
  6
JWW_DASHED1
 62
   120
370
     5
100
AcDbLine
 10
-2371.658076881877
 20
-220.7449328953322
 30
0.0
 11
-2381.554296505828
 21
-210.8487132713799
 31
0.0
  0
LINE
  5
2CF
330
1F
100
AcDbEntity
  8
ハッチ
  6
JWW_DASHED1
 62
   120
370
     5
100
AcDbLine
 10
-1666.65807688188
 20
-263.1713397665271
 30
0.0
 11
-1718.980703377026
 21
-210.8487132713799
 31
0.0
  0
LINE
  5
2D0
330
1F
100
AcDbEntity
  8
ハッチ
  6
JWW_DASHED1
 62
   120
370
     5
100
AcDbLine
 10
-1666.658076881877
 20
-220.7449328953322
 30
0.0
 11
-1676.554296505828
 21
-210.8487132713799
 31
0.0
  0
LINE
  5
2D1
330
1F
100
AcDbEntity
  8
0-0_補助線
  6
JWW_HOJO
 62
   120
370
     5
100
AcDbLine
 10
-1942.658076328519
 20
-210.8487132713799
 30
0.0
 11
-1942.658076328519
 21
-3258.848713271377
 31
0.0
  0
LINE
  5
2D2
330
1F
100
AcDbEntity
  8
ハッチ
  6
Continuous
 62
   120
370
     5
100
AcDbLine
 10
-1727.873135597794
 20
-558.8487132713772
 30
0.0
 11
-1726.658076881873
 21
-560.0637719872998
 31
0.0
  0
LINE
  5
2D3
330
1F
100
AcDbEntity
  8
ハッチ
  6
JWW_DASHED1
 62
   120
370
     5
100
AcDbLine
 10
-2415.391958346575
 20
-558.8487132713806
 30
0.0
 11
-2446.658076881873
 21
-527.5825947360778
 31
0.0
  0
LINE
  5
2D4
330
1F
100
AcDbEntity
  8
ハッチ
  6
JWW_DASHED1
 62
   120
370
     5
100
AcDbLine
 10
-2372.965551475375
 20
-558.8487132713806
 30
0.0
 11
-2446.658076881873
 21
-485.1561878648778
 31
0.0
  0
LINE
  5
2D5
330
1F
100
AcDbEntity
  8
ハッチ
  6
JWW_DASHED1
 62
   120
370
     5
100
AcDbLine
 10
-2371.658076881877
 20
-517.7297809936778
 30
0.0
 11
-2446.658076881887
 21
-442.7297809936658
 31
0.0
  0
LINE
  5
2D6
330
1F
100
AcDbEntity
  8
ハッチ
  6
JWW_DASHED1
 62
   120
370
     5
100
AcDbLine
 10
-2371.658076881873
 20
-475.3033741224795
 30
0.0
 11
-2446.658076881884
 21
-400.3033741224692
 31
0.0
  0
LINE
  5
2D7
330
1F
100
AcDbEntity
  8
ハッチ
  6
JWW_DASHED1
 62
   120
370
     5
100
AcDbLine
 10
-2371.658076881886
 20
-432.8769672512692
 30
0.0
 11
-2446.65807688188
 21
-357.8769672512726
 31
0.0
  0
LINE
  5
2D8
330
1F
100
AcDbEntity
  8
ハッチ
  6
JWW_DASHED1
 62
   120
370
     5
100
AcDbLine
 10
-2371.65807688188
 20
-390.4505603800709
 30
0.0
 11
-2446.658076881877
 21
-315.4505603800777
 31
0.0
  0
LINE
  5
2D9
330
1F
100
AcDbEntity
  8
ハッチ
  6
JWW_DASHED1
 62
   120
370
     5
100
AcDbLine
 10
-2371.658076881887
 20
-348.0241535089203
 30
0.0
 11
-2446.658076881884
 21
-273.0241535089237
 31
0.0
  0
LINE
  5
2DA
330
1F
100
AcDbEntity
  8
ハッチ
  6
JWW_DASHED1
 62
   120
370
     5
100
AcDbLine
 10
-2371.658076881884
 20
-305.5977466377237
 30
0.0
 11
-2446.65807688188
 21
-230.5977466377271
 31
0.0
  0
LINE
  5
2DB
330
1F
100
AcDbEntity
  8
ハッチ
  6
JWW_DASHED1
 62
   120
370
     5
100
AcDbLine
 10
-1710.391958346574
 20
-558.8487132713806
 30
0.0
 11
-1741.658076881873
 21
-527.5825947360778
 31
0.0
  0
LINE
  5
2DC
330
1F
100
AcDbEntity
  8
ハッチ
  6
JWW_DASHED1
 62
   120
370
     5
100
AcDbLine
 10
-1667.965551475374
 20
-558.8487132713806
 30
0.0
 11
-1741.658076881873
 21
-485.1561878648778
 31
0.0
  0
LINE
  5
2DD
330
1F
100
AcDbEntity
  8
ハッチ
  6
JWW_DASHED1
 62
   120
370
     5
100
AcDbLine
 10
-1666.658076881877
 20
-517.7297809936778
 30
0.0
 11
-1741.658076881887
 21
-442.7297809936658
 31
0.0
  0
LINE
  5
2DE
330
1F
100
AcDbEntity
  8
ハッチ
  6
JWW_DASHED1
 62
   120
370
     5
100
AcDbLine
 10
-1666.658076881873
 20
-475.3033741224795
 30
0.0
 11
-1741.658076881884
 21
-400.3033741224692
 31
0.0
  0
LINE
  5
2DF
330
1F
100
AcDbEntity
  8
ハッチ
  6
JWW_DASHED1
 62
   120
370
     5
100
AcDbLine
 10
-1666.658076881885
 20
-432.8769672512692
 30
0.0
 11
-1741.65807688188
 21
-357.8769672512726
 31
0.0
  0
LINE
  5
2E0
330
1F
100
AcDbEntity
  8
ハッチ
  6
JWW_DASHED1
 62
   120
370
     5
100
AcDbLine
 10
-1666.65807688188
 20
-390.4505603800709
 30
0.0
 11
-1741.658076881877
 21
-315.4505603800777
 31
0.0
  0
LINE
  5
2E1
330
1F
100
AcDbEntity
  8
ハッチ
  6
JWW_DASHED1
 62
   120
370
     5
100
AcDbLine
 10
-1666.658076881887
 20
-348.0241535089203
 30
0.0
 11
-1741.658076881884
 21
-273.0241535089237
 31
0.0
  0
LINE
  5
2E2
330
1F
100
AcDbEntity
  8
ハッチ
  6
JWW_DASHED1
 62
   120
370
     5
100
AcDbLine
 10
-1666.658076881884
 20
-305.5977466377237
 30
0.0
 11
-1741.65807688188
 21
-230.5977466377271
 31
0.0
  0
LINE
  5
2E3
330
1F
100
AcDbEntity
  8
0-2_柱
  6
Continuous
 62
     7
370
     9
100
AcDbLine
 10
-1741.65807688188
 20
-510.8487132713799
 30
0.0
 11
-2371.65807688188
 21
-348.8487132713806
 31
0.0
  0
LINE
  5
2E4
330
1F
100
AcDbEntity
  8
0-2_柱
  6
Continuous
 62
     7
370
     9
100
AcDbLine
 10
-2371.65807688188
 20
-510.8487132713799
 30
0.0
 11
-2371.65807688188
 21
-348.8487132713806
 31
0.0
  0
LINE
  5
2E5
330
1F
100
AcDbEntity
  8
0-2_柱
  6
Continuous
 62
     7
370
     9
100
AcDbLine
 10
-2371.65807688188
 20
-348.8487132713806
 30
0.0
 11
-1741.65807688188
 21
-348.8487132713806
 31
0.0
  0
LINE
  5
2E6
330
1F
100
AcDbEntity
  8
0-2_柱
  6
Continuous
 62
     7
370
     9
100
AcDbLine
 10
-1741.65807688188
 20
-348.8487132713806
 30
0.0
 11
-1741.65807688188
 21
-510.8487132713799
 31
0.0
  0
LINE
  5
2E7
330
1F
100
AcDbEntity
  8
0-2_柱
  6
Continuous
 62
     7
370
     9
100
AcDbLine
 10
-1741.65807688188
 20
-510.8487132713799
 30
0.0
 11
-2371.65807688188
 21
-510.8487132713799
 31
0.0
  0
LINE
  5
2E8
330
1F
100
AcDbEntity
  8
0-B_寸法
  6
Continuous
 62
   120
370
     5
100
AcDbLine
 10
-1726.658076881873
 20
-1274.67370961248
 30
0.0
 11
-2386.658076881873
 21
-1274.67370961248
 31
0.0
  0
LWPOLYLINE
  5
2E9
330
1F
100
AcDbEntity
  8
0-B_寸法
  6
Continuous
 62
     7
370
     9
100
AcDbPolyline
 90
        4
 70
     1
 43
3.0
 10
-1725.158076881873
 20
-1274.67370961248
 42
0.4142135623731
 10
-1726.658076881873
 20
-1273.17370961248
 42
0.4142135623731
 10
-1728.158076881873
 20
-1274.67370961248
 42
0.4142135623731
 10
-1726.658076881873
 20
-1276.17370961248
 42
0.4142135623731
  0
LWPOLYLINE
  5
2EA
330
1F
100
AcDbEntity
  8
0-B_寸法
  6
Continuous
 62
     7
370
     9
100
AcDbPolyline
 90
        4
 70
     1
 43
3.0
 10
-2385.158076881874
 20
-1274.67370961248
 42
0.4142135623731
 10
-2386.658076881873
 20
-1273.17370961248
 42
0.4142135623731
 10
-2388.158076881873
 20
-1274.67370961248
 42
0.4142135623731
 10
-2386.658076881873
 20
-1276.17370961248
 42
0.4142135623731
  0
LWPOLYLINE
  5
2EB
330
1F
100
AcDbEntity
  8
0-B_寸法
  6
Continuous
 62
     7
370
     9
100
AcDbPolyline
 90
        4
 70
     1
 43
3.0
 10
-2079.158076881872
 20
-1524.848840119953
 42
0.4142135623731
 10
-2080.658076881872
 20
-1523.348840119954
 42
0.4142135623731
 10
-2082.158076881872
 20
-1524.848840119953
 42
0.4142135623731
 10
-2080.658076881872
 20
-1526.348840119953
 42
0.4142135623731
  0
LWPOLYLINE
  5
2EC
330
1F
100
AcDbEntity
  8
0-B_寸法
  6
Continuous
 62
     7
370
     9
100
AcDbPolyline
 90
        4
 70
     1
 43
3.0
 10
-2259.158076881872
 20
-1524.848840119953
 42
0.4142135623731
 10
-2260.658076881872
 20
-1523.348840119954
 42
0.4142135623731
 10
-2262.158076881872
 20
-1524.848840119953
 42
0.4142135623731
 10
-2260.658076881872
 20
-1526.348840119953
 42
0.4142135623731
  0
LINE
  5
2ED
330
1F
100
AcDbEntity
  8
0-B_寸法
  6
Continuous
 62
   120
370
     5
100
AcDbLine
 10
-2386.658076881873
 20
-1274.67370961248
 30
0.0
 11
-2386.658076881873
 21
-1151.324276337999
 31
0.0
  0
LINE
  5
2EE
330
1F
100
AcDbEntity
  8
0-B_寸法
  6
Continuous
 62
   120
370
     5
100
AcDbLine
 10
-1726.658076881873
 20
-1274.67370961248
 30
0.0
 11
-1726.658076881873
 21
-1130.324276338005
 31
0.0
  0
LINE
  5
2EF
330
1F
100
AcDbEntity
  8
ハッチ
  6
Continuous
 62
   120
370
     5
100
AcDbLine
 10
-1782.72594934019
 20
-588.8487132713806
 30
0.0
 11
-1812.725949340189
 21
-558.8487132713806
 31
0.0
  0
LINE
  5
2F0
330
1F
100
AcDbEntity
  8
0-4_枠
  6
Continuous
 62
    92
370
    13
100
AcDbLine
 10
-2386.658076881873
 20
-558.8487132713806
 30
0.0
 11
-1726.658076881873
 21
-558.8487132713806
 31
0.0
  0
LINE
  5
2F1
330
1F
100
AcDbEntity
  8
ハッチ
  6
Continuous
 62
   120
370
     5
100
AcDbLine
 10
-2356.974866150485
 20
-735.8487132713765
 30
0.0
 11
-2383.658076881866
 21
-709.165502539995
 31
0.0
  0
LINE
  5
2F2
330
1F
100
AcDbEntity
  8
ハッチ
  6
Continuous
 62
   120
370
     5
100
AcDbLine
 10
-2314.548459279271
 20
-735.8487132713935
 30
0.0
 11
-2383.658076881866
 21
-666.739095668795
 31
0.0
  0
LINE
  5
2F3
330
1F
100
AcDbEntity
  8
ハッチ
  6
Continuous
 62
   120
370
     5
100
AcDbLine
 10
-2237.842831794461
 20
-642.8487132713997
 30
0.0
 11
-2321.84283179448
 21
-558.8487132713806
 31
0.0
  0
LINE
  5
2F4
330
1F
100
AcDbEntity
  8
ハッチ
  6
Continuous
 62
   120
370
     5
100
AcDbLine
 10
-2195.416424923271
 20
-642.8487132713894
 30
0.0
 11
-2279.416424923284
 21
-558.8487132713772
 31
0.0
  0
LINE
  5
2F5
330
1F
100
AcDbEntity
  8
ハッチ
  6
Continuous
 62
   120
370
     5
100
AcDbLine
 10
-2152.990018052129
 20
-642.848713271386
 30
0.0
 11
-2236.990018052134
 21
-558.848713271384
 31
0.0
  0
LINE
  5
2F6
330
1F
100
AcDbEntity
  8
ハッチ
  6
Continuous
 62
   120
370
     5
100
AcDbLine
 10
-2110.563611180936
 20
-642.8487132713792
 30
0.0
 11
-2194.563611180938
 21
-558.8487132713772
 31
0.0
  0
LINE
  5
2F7
330
1F
100
AcDbEntity
  8
ハッチ
  6
Continuous
 62
   120
370
     5
100
AcDbLine
 10
-1786.658076881887
 20
-627.3429926008828
 30
0.0
 11
-1855.152356211386
 21
-558.848713271384
 31
0.0
  0
LINE
  5
2F8
330
1F
100
AcDbEntity
  8
0-4_枠
  6
Continuous
 62
    92
370
    13
100
AcDbLine
 10
-2257.058076881874
 20
-642.8487132713929
 30
0.0
 11
-2257.058076881874
 21
-738.848713271384
 31
0.0
  0
LINE
  5
2F9
330
1F
100
AcDbEntity
  8
0-4_枠
  6
Continuous
 62
    92
370
    13
100
AcDbLine
 10
-2257.058076881874
 20
-738.848713271384
 30
0.0
 11
-2386.658076881873
 21
-738.848713271384
 31
0.0
  0
LINE
  5
2FA
330
1F
100
AcDbEntity
  8
0-4_枠
  6
Continuous
 62
    92
370
    13
100
AcDbLine
 10
-2257.058076881874
 20
-735.8487132713833
 30
0.0
 11
-2383.658076881873
 21
-735.8487132713833
 31
0.0
  0
LINE
  5
2FB
330
1F
100
AcDbEntity
  8
0-4_枠
  6
Continuous
 62
    92
370
    13
100
AcDbLine
 10
-2084.258076881874
 20
-642.8487132713929
 30
0.0
 11
-2084.258076881874
 21
-738.848713271384
 31
0.0
  0
LINE
  5
2FC
330
1F
100
AcDbEntity
  8
0-4_枠
  6
Continuous
 62
    92
370
    13
100
AcDbLine
 10
-2084.258076881874
 20
-642.8487132713929
 30
0.0
 11
-2257.058076881874
 21
-642.8487132713929
 31
0.0
  0
LINE
  5
2FD
330
1F
100
AcDbEntity
  8
0-4_枠
  6
Continuous
 62
    92
370
    13
100
AcDbLine
 10
-2386.658076881873
 20
-588.8487132713806
 30
0.0
 11
-2326.658076881873
 21
-588.8487132713806
 31
0.0
  0
LINE
  5
2FE
330
1F
100
AcDbEntity
  8
0-4_枠
  6
Continuous
 62
    92
370
    13
100
AcDbLine
 10
-1726.658076881873
 20
-588.8487132713806
 30
0.0
 11
-1786.658076881873
 21
-588.8487132713806
 31
0.0
  0
LINE
  5
2FF
330
1F
100
AcDbEntity
  8
0-4_枠
  6
Continuous
 62
    92
370
    13
100
AcDbLine
 10
-2386.658076881873
 20
-588.8487132713806
 30
0.0
 11
-2386.658076881873
 21
-558.8487132713806
 31
0.0
  0
LINE
  5
300
330
1F
100
AcDbEntity
  8
0-4_枠
  6
Continuous
 62
    92
370
    13
100
AcDbLine
 10
-1726.658076881873
 20
-588.8487132713806
 30
0.0
 11
-1726.658076881873
 21
-558.8487132713806
 31
0.0
  0
LINE
  5
301
330
1F
100
AcDbEntity
  8
0-4_枠
  6
Continuous
 62
    92
370
    13
100
AcDbLine
 10
-2326.658076881873
 20
-642.8487132713792
 30
0.0
 11
-2386.658076881873
 21
-642.8487132713792
 31
0.0
  0
LINE
  5
302
330
1F
100
AcDbEntity
  8
0-4_枠
  6
Continuous
 62
    92
370
    13
100
AcDbLine
 10
-1786.658076881873
 20
-642.8487132713792
 30
0.0
 11
-1726.658076881873
 21
-642.8487132713792
 31
0.0
  0
LINE
  5
303
330
1F
100
AcDbEntity
  8
0-4_枠
  6
Continuous
 62
    92
370
    13
100
AcDbLine
 10
-1726.658076881873
 20
-642.8487132713792
 30
0.0
 11
-1726.658076881873
 21
-738.848713271384
 31
0.0
  0
LINE
  5
304
330
1F
100
AcDbEntity
  8
0-4_枠
  6
Continuous
 62
    92
370
    13
100
AcDbLine
 10
-1729.658076881874
 20
-642.8487132713792
 30
0.0
 11
-1729.658076881874
 21
-735.8487132713833
 31
0.0
  0
LINE
  5
305
330
1F
100
AcDbEntity
  8
0-4_枠
  6
Continuous
 62
    92
370
    13
100
AcDbLine
 10
-2386.658076881873
 20
-642.8487132713792
 30
0.0
 11
-2386.658076881873
 21
-738.848713271384
 31
0.0
  0
LINE
  5
306
330
1F
100
AcDbEntity
  8
0-4_枠
  6
Continuous
 62
    92
370
    13
100
AcDbLine
 10
-2383.658076881873
 20
-642.8487132713792
 30
0.0
 11
-2383.658076881873
 21
-735.8487132713833
 31
0.0
  0
LINE
  5
307
330
1F
100
AcDbEntity
  8
0-4_枠
  6
Continuous
 62
    92
370
    13
100
AcDbLine
 10
-1786.658076881873
 20
-588.8487132713806
 30
0.0
 11
-1786.658076881873
 21
-642.8487132713792
 31
0.0
  0
LINE
  5
308
330
1F
100
AcDbEntity
  8
0-4_枠
  6
Continuous
 62
    92
370
    13
100
AcDbLine
 10
-2326.658076881873
 20
-588.8487132713806
 30
0.0
 11
-2326.658076881873
 21
-642.8487132713792
 31
0.0
  0
LINE
  5
309
330
1F
100
AcDbEntity
  8
ハッチ
  6
Continuous
 62
   120
370
     5
100
AcDbLine
 10
-2257.058076881874
 20
-708.4862819263924
 30
0.0
 11
-2326.658076881884
 21
-638.8862819263773
 31
0.0
  0
LINE
  5
30A
330
1F
100
AcDbEntity
  8
ハッチ
  6
Continuous
 62
   120
370
     5
100
AcDbLine
 10
-2272.122052408071
 20
-735.8487132713935
 30
0.0
 11
-2365.122052408086
 21
-642.8487132713792
 31
0.0
  0
LINE
  5
30B
330
1F
100
AcDbEntity
  8
ハッチ
  6
Continuous
 62
   120
370
     5
100
AcDbLine
 10
-2376.695645536884
 20
-588.8487132713806
 30
0.0
 11
-2386.65807688187
 21
-578.8862819263909
 31
0.0
  0
LINE
  5
30C
330
1F
100
AcDbEntity
  8
ハッチ
  6
Continuous
 62
   120
370
     5
100
AcDbLine
 10
-2257.058076881874
 20
-666.0598750551856
 30
0.0
 11
-2326.658076881873
 21
-596.4598750551875
 31
0.0
  0
LINE
  5
30D
330
1F
100
AcDbEntity
  8
ハッチ
  6
Continuous
 62
   120
370
     5
100
AcDbLine
 10
-2334.269238665682
 20
-588.8487132713806
 30
0.0
 11
-2364.269238665677
 21
-558.848713271384
 31
0.0
  0
LINE
  5
30E
330
1F
100
AcDbEntity
  8
ハッチ
  6
Continuous
 62
   120
370
     5
100
AcDbLine
 10
-1740.299542468991
 20
-588.8487132713806
 30
0.0
 11
-1770.299542468993
 21
-558.8487132713772
 31
0.0
  0
LINE
  5
30F
330
1F
100
AcDbEntity
  8
ハッチ
  6
Continuous
 62
   120
370
     5
100
AcDbLine
 10
-1729.658076881871
 20
-684.3429926009026
 30
0.0
 11
-1771.152356211389
 21
-642.8487132713792
 31
0.0
  0
LINE
  5
310
330
1F
100
AcDbEntity
  8
0-4_枠
  6
Continuous
 62
   120
370
     5
100
AcDbLine
 10
-1726.658076881879
 20
-558.8487132713806
 30
0.0
 11
-1717.658076881881
 21
-558.8487132713806
 31
0.0
  0
LINE
  5
311
330
1F
100
AcDbEntity
  8
0-4_枠
  6
Continuous
 62
   120
370
     5
100
AcDbLine
 10
-2386.658076881884
 20
-558.8487132713806
 30
0.0
 11
-2395.658076881881
 21
-558.8487132713806
 31
0.0
  0
LINE
  5
312
330
1F
100
AcDbEntity
  8
仕上げ
  6
Continuous
 62
    40
370
    15
100
AcDbLine
 10
-1666.65807688188
 20
-558.8487132713806
 30
0.0
 11
-1741.65807688188
 21
-558.8487132713806
 31
0.0
  0
LINE
  5
313
330
1F
100
AcDbEntity
  8
仕上げ
  6
Continuous
 62
    40
370
    15
100
AcDbLine
 10
-2371.65807688188
 20
-558.8487132713806
 30
0.0
 11
-2446.65807688188
 21
-558.8487132713806
 31
0.0
  0
LINE
  5
314
330
1F
100
AcDbEntity
  8
仕上げ
  6
Continuous
 62
    40
370
    15
100
AcDbLine
 10
-1666.65807688188
 20
-210.8487132713799
 30
0.0
 11
-1666.65807688188
 21
-558.8487132713806
 31
0.0
  0
LINE
  5
315
330
1F
100
AcDbEntity
  8
仕上げ
  6
Continuous
 62
    40
370
    15
100
AcDbLine
 10
-1741.65807688188
 20
-210.8487132713799
 30
0.0
 11
-1741.65807688188
 21
-558.8487132713806
 31
0.0
  0
LINE
  5
316
330
1F
100
AcDbEntity
  8
仕上げ
  6
Continuous
 62
    40
370
    15
100
AcDbLine
 10
-2371.65807688188
 20
-210.8487132713799
 30
0.0
 11
-2371.65807688188
 21
-558.8487132713806
 31
0.0
  0
LINE
  5
317
330
1F
100
AcDbEntity
  8
仕上げ
  6
Continuous
 62
    40
370
    15
100
AcDbLine
 10
-2446.65807688188
 20
-210.8487132713799
 30
0.0
 11
-2446.65807688188
 21
-558.8487132713806
 31
0.0
  0
LINE
  5
318
330
1F
100
AcDbEntity
  8
0-4_枠
  6
Continuous
 62
   120
370
     5
100
AcDbLine
 10
-1717.658076881881
 20
-2016.848713271381
 30
0.0
 11
-1717.658076881881
 21
-3186.848713271378
 31
0.0
  0
LINE
  5
319
330
1F
100
AcDbEntity
  8
0-4_枠
  6
Continuous
 62
   120
370
     5
100
AcDbLine
 10
-2395.658076881881
 20
-2016.848713271381
 30
0.0
 11
-2395.658076881881
 21
-3186.848713271378
 31
0.0
  0
LINE
  5
31A
330
1F
100
AcDbEntity
  8
0-4_枠
  6
Continuous
 62
   120
370
     5
100
AcDbLine
 10
-1717.658076881881
 20
-558.8487132713806
 30
0.0
 11
-1717.658076881881
 21
-1896.848713271381
 31
0.0
  0
LINE
  5
31B
330
1F
100
AcDbEntity
  8
0-4_枠
  6
Continuous
 62
   120
370
     5
100
AcDbLine
 10
-2395.658076881881
 20
-558.8487132713806
 30
0.0
 11
-2395.658076881881
 21
-1896.848713271381
 31
0.0
  0
LINE
  5
31C
330
1F
100
AcDbEntity
  8
0-4_枠
  6
Continuous
 62
    92
370
    13
100
AcDbLine
 10
-1726.658076881873
 20
-738.848713271384
 30
0.0
 11
-2084.258076881874
 21
-738.848713271384
 31
0.0
  0
LINE
  5
31D
330
1F
100
AcDbEntity
  8
0-4_枠
  6
Continuous
 62
    92
370
    13
100
AcDbLine
 10
-1729.658076881874
 20
-735.8487132713833
 30
0.0
 11
-2084.258076881874
 21
-735.8487132713833
 31
0.0
  0
LINE
  5
31E
330
1F
100
AcDbEntity
  8
ハッチ
  6
Continuous
 62
   120
370
     5
100
AcDbLine
 10
-1729.658076881864
 20
-726.769399472106
 30
0.0
 11
-1897.578763082596
 21
-558.8487132713772
 31
0.0
  0
LINE
  5
31F
330
1F
100
AcDbEntity
  8
ハッチ
  6
Continuous
 62
   120
370
     5
100
AcDbLine
 10
-1805.431576824932
 20
-735.8487132713867
 30
0.0
 11
-1982.431576824932
 21
-558.848713271381
 31
0.0
  0
LINE
  5
320
330
1F
100
AcDbEntity
  8
ハッチ
  6
Continuous
 62
   120
370
     5
100
AcDbLine
 10
-1763.005169953735
 20
-735.8487132713799
 30
0.0
 11
-1940.005169953735
 21
-558.8487132713806
 31
0.0
  0
LINE
  5
321
330
1F
100
AcDbEntity
  8
ハッチ
  6
Continuous
 62
   120
370
     5
100
AcDbLine
 10
-1847.857983696132
 20
-735.8487132713833
 30
0.0
 11
-2024.857983696128
 21
-558.8487132713874
 31
0.0
  0
LINE
  5
322
330
1F
100
AcDbEntity
  8
ハッチ
  6
Continuous
 62
   120
370
     5
100
AcDbLine
 10
-2059.990018052132
 20
-735.8487132713833
 30
0.0
 11
-2084.258076881874
 21
-711.5806544416466
 31
0.0
  0
LINE
  5
323
330
1F
100
AcDbEntity
  8
ハッチ
  6
Continuous
 62
   120
370
     5
100
AcDbLine
 10
-1932.710797438532
 20
-735.8487132713833
 30
0.0
 11
-2109.710797438538
 21
-558.8487132713772
 31
0.0
  0
LINE
  5
324
330
1F
100
AcDbEntity
  8
ハッチ
  6
Continuous
 62
   120
370
     5
100
AcDbLine
 10
-1890.284390567329
 20
-735.8487132713833
 30
0.0
 11
-2067.284390567328
 21
-558.8487132713908
 31
0.0
  0
LINE
  5
325
330
1F
100
AcDbEntity
  8
ハッチ
  6
Continuous
 62
   120
370
     5
100
AcDbLine
 10
-1975.137204309734
 20
-735.8487132713833
 30
0.0
 11
-2152.137204309734
 21
-558.8487132713806
 31
0.0
  0
LINE
  5
326
330
1F
100
AcDbEntity
  8
ハッチ
  6
Continuous
 62
   120
370
     5
100
AcDbLine
 10
-2084.258076881874
 20
-669.1542475704415
 30
0.0
 11
-2017.563611180936
 21
-735.8487132713833
 31
0.0
  0
LINE
  5
327
330
1F
100
AcDbEntity
  8
0-B_寸法
  6
Continuous
 62
   120
370
     5
100
AcDbLine
 10
-2080.658076881872
 20
-1524.848840119953
 30
0.0
 11
-2260.658076881872
 21
-1524.848840119953
 31
0.0
  0
LINE
  5
328
330
1F
100
AcDbEntity
  8
0-6_扉
  6
Continuous
 62
   200
370
    20
100
AcDbLine
 10
-2260.658076328518
 20
-822.8487129867983
 30
0.0
 11
-2260.658076328518
 21
-1896.848713271381
 31
0.0
  0
LINE
  5
329
330
1F
100
AcDbEntity
  8
0-6_扉
  6
Continuous
 62
   200
370
    20
100
AcDbLine
 10
-2260.658076328518
 20
-2016.848713271381
 30
0.0
 11
-2260.658076328518
 21
-3138.849313271383
 31
0.0
  0
LINE
  5
32A
330
1F
100
AcDbEntity
  8
0-7_金物
  6
Continuous
 62
     7
370
     9
100
AcDbLine
 10
-2218.058076881869
 20
-1033.448712986798
 30
0.0
 11
-2218.058076881869
 21
-963.2487129867985
 31
0.0
  0
ARC
  5
32B
330
1F
100
AcDbEntity
  8
0-7_金物
  6
Continuous
 62
     7
370
     9
100
AcDbCircle
 10
-2170.658076881868
 20
-1033.448712986798
 30
0.0
 40
47.40000000000003
100
AcDbArc
 50
180.0
 51
0.0
  0
LINE
  5
32C
330
1F
100
AcDbEntity
  8
0-7_金物
  6
Continuous
 62
     7
370
     9
100
AcDbLine
 10
-2123.258076881868
 20
-963.2487129867985
 30
0.0
 11
-2123.258076881868
 21
-1033.448712986798
 31
0.0
  0
ARC
  5
32D
330
1F
100
AcDbEntity
  8
0-7_金物
  6
Continuous
 62
     7
370
     9
100
AcDbCircle
 10
-2170.658076881868
 20
-1033.448712986798
 30
0.0
 40
41.40000000000003
100
AcDbArc
 50
180.0
 51
0.0
  0
LINE
  5
32E
330
1F
100
AcDbEntity
  8
0-7_金物
  6
Continuous
 62
     7
370
     9
100
AcDbLine
 10
-2129.258076881868
 20
-1033.448712986798
 30
0.0
 11
-2129.258076881868
 21
-963.2487129867985
 31
0.0
  0
LINE
  5
32F
330
1F
100
AcDbEntity
  8
0-7_金物
  6
Continuous
 62
     7
370
     9
100
AcDbLine
 10
-2218.058076881869
 20
-963.2487129867985
 30
0.0
 11
-2212.058076881869
 21
-963.2487129867985
 31
0.0
  0
LINE
  5
330
330
1F
100
AcDbEntity
  8
0-7_金物
  6
Continuous
 62
     7
370
     9
100
AcDbLine
 10
-2212.058076881869
 20
-963.2487129867985
 30
0.0
 11
-2212.058076881869
 21
-1033.448712986798
 31
0.0
  0
LINE
  5
331
330
1F
100
AcDbEntity
  8
0-7_金物
  6
Continuous
 62
     7
370
     9
100
AcDbLine
 10
-2129.258076881868
 20
-963.2487129867985
 30
0.0
 11
-2123.258076881868
 21
-963.2487129867985
 31
0.0
  0
LINE
  5
332
330
1F
100
AcDbEntity
  8
0-7_金物
  6
Continuous
 62
     7
370
     9
100
AcDbLine
 10
-2145.458076881868
 20
-963.2487129867985
 30
0.0
 11
-2145.458076881868
 21
-969.2487129867965
 31
0.0
  0
LINE
  5
333
330
1F
100
AcDbEntity
  8
0-7_金物
  6
Continuous
 62
     7
370
     9
100
AcDbLine
 10
-2134.058076881869
 20
-969.2487129867965
 30
0.0
 11
-2145.458076881868
 21
-969.2487129867965
 31
0.0
  0
LINE
  5
334
330
1F
100
AcDbEntity
  8
0-7_金物
  6
Continuous
 62
     7
370
     9
100
AcDbLine
 10
-2134.058076881869
 20
-969.2487129867965
 30
0.0
 11
-2134.058076881869
 21
-997.4487129867964
 31
0.0
  0
LINE
  5
335
330
1F
100
AcDbEntity
  8
0-7_金物
  6
Continuous
 62
     7
370
     9
100
AcDbLine
 10
-2145.458076881868
 20
-997.4487129867964
 30
0.0
 11
-2134.058076881869
 21
-997.4487129867964
 31
0.0
  0
LINE
  5
336
330
1F
100
AcDbEntity
  8
0-7_金物
  6
Continuous
 62
     7
370
     9
100
AcDbLine
 10
-2145.458076881868
 20
-997.4487129867964
 30
0.0
 11
-2145.458076881868
 21
-1008.848712986798
 31
0.0
  0
LINE
  5
337
330
1F
100
AcDbEntity
  8
0-7_金物
  6
Continuous
 62
     7
370
     9
100
AcDbLine
 10
-2195.858076881869
 20
-1008.848712986798
 30
0.0
 11
-2195.858076881869
 21
-997.4487129867964
 31
0.0
  0
LINE
  5
338
330
1F
100
AcDbEntity
  8
0-7_金物
  6
Continuous
 62
     7
370
     9
100
AcDbLine
 10
-2207.258076881868
 20
-997.4487129867964
 30
0.0
 11
-2195.858076881869
 21
-997.4487129867964
 31
0.0
  0
LINE
  5
339
330
1F
100
AcDbEntity
  8
0-7_金物
  6
Continuous
 62
     7
370
     9
100
AcDbLine
 10
-2207.258076881868
 20
-997.4487129867964
 30
0.0
 11
-2207.258076881868
 21
-969.2487129867965
 31
0.0
  0
LINE
  5
33A
330
1F
100
AcDbEntity
  8
0-7_金物
  6
Continuous
 62
     7
370
     9
100
AcDbLine
 10
-2195.858076881869
 20
-969.2487129867965
 30
0.0
 11
-2207.258076881868
 21
-969.2487129867965
 31
0.0
  0
LINE
  5
33B
330
1F
100
AcDbEntity
  8
0-7_金物
  6
Continuous
 62
     7
370
     9
100
AcDbLine
 10
-2195.858076881869
 20
-969.2487129867965
 30
0.0
 11
-2195.858076881869
 21
-963.2487129867985
 31
0.0
  0
LINE
  5
33C
330
1F
100
AcDbEntity
  8
0-7_金物
  6
Continuous
 62
     7
370
     9
100
AcDbLine
 10
-2212.058076881869
 20
-963.2487129867985
 30
0.0
 11
-2195.858076881869
 21
-963.2487129867985
 31
0.0
  0
LINE
  5
33D
330
1F
100
AcDbEntity
  8
0-7_金物
  6
Continuous
 62
     7
370
     9
100
AcDbLine
 10
-2145.458076881868
 20
-963.2487129867985
 30
0.0
 11
-2129.258076881868
 21
-963.2487129867985
 31
0.0
  0
LINE
  5
33E
330
1F
100
AcDbEntity
  8
0-7_金物
  6
Continuous
 62
     7
370
     9
100
AcDbLine
 10
-2207.258076881868
 20
-975.2487129867978
 30
0.0
 11
-2195.858076881869
 21
-975.2487129867978
 31
0.0
  0
LINE
  5
33F
330
1F
100
AcDbEntity
  8
0-7_金物
  6
Continuous
 62
     7
370
     9
100
AcDbLine
 10
-2195.858076881869
 20
-975.2487129867978
 30
0.0
 11
-2195.858076881869
 21
-969.2487129867965
 31
0.0
  0
LINE
  5
340
330
1F
100
AcDbEntity
  8
0-7_金物
  6
Continuous
 62
     7
370
     9
100
AcDbLine
 10
-2145.458076881868
 20
-975.2487129867978
 30
0.0
 11
-2134.058076881869
 21
-975.2487129867978
 31
0.0
  0
LINE
  5
341
330
1F
100
AcDbEntity
  8
0-7_金物
  6
Continuous
 62
     7
370
     9
100
AcDbLine
 10
-2145.458076881868
 20
-969.2487129867965
 30
0.0
 11
-2145.458076881868
 21
-975.2487129867978
 31
0.0
  0
LINE
  5
342
330
1F
100
AcDbEntity
  8
0-7_金物
  6
Continuous
 62
     7
370
     9
100
AcDbLine
 10
-2195.858076881869
 20
-991.4487129867967
 30
0.0
 11
-2207.258076881868
 21
-991.4487129867967
 31
0.0
  0
LINE
  5
343
330
1F
100
AcDbEntity
  8
0-7_金物
  6
Continuous
 62
     7
370
     9
100
AcDbLine
 10
-2195.858076881869
 20
-997.4487129867964
 30
0.0
 11
-2195.858076881869
 21
-991.4487129867967
 31
0.0
  0
LINE
  5
344
330
1F
100
AcDbEntity
  8
0-7_金物
  6
Continuous
 62
     7
370
     9
100
AcDbLine
 10
-2134.058076881869
 20
-991.4487129867967
 30
0.0
 11
-2145.458076881868
 21
-991.4487129867967
 31
0.0
  0
LINE
  5
345
330
1F
100
AcDbEntity
  8
0-7_金物
  6
Continuous
 62
     7
370
     9
100
AcDbLine
 10
-2145.458076881868
 20
-991.4487129867967
 30
0.0
 11
-2145.458076881868
 21
-997.4487129867964
 31
0.0
  0
LINE
  5
346
330
1F
100
AcDbEntity
  8
0-7_金物
  6
Continuous
 62
     7
370
     9
100
AcDbLine
 10
-2200.058076881868
 20
-962.6487129867974
 30
0.0
 11
-2200.058076881868
 21
-963.2487129867985
 31
0.0
  0
LINE
  5
347
330
1F
100
AcDbEntity
  8
0-7_金物
  6
Continuous
 62
     7
370
     9
100
AcDbLine
 10
-2218.058076881869
 20
-962.6487129867974
 30
0.0
 11
-2218.058076881869
 21
-963.2487129867985
 31
0.0
  0
LINE
  5
348
330
1F
100
AcDbEntity
  8
0-7_金物
  6
Continuous
 62
     7
370
     9
100
AcDbLine
 10
-2141.258076881869
 20
-963.2487129867985
 30
0.0
 11
-2141.258076881869
 21
-962.6487129867974
 31
0.0
  0
LINE
  5
349
330
1F
100
AcDbEntity
  8
0-7_金物
  6
Continuous
 62
     7
370
     9
100
AcDbLine
 10
-2123.258076881868
 20
-962.6487129867974
 30
0.0
 11
-2123.258076881868
 21
-963.2487129867985
 31
0.0
  0
ARC
  5
34A
330
1F
100
AcDbEntity
  8
0-7_金物
  6
Continuous
 62
     7
370
     9
100
AcDbCircle
 10
-2161.658076881869
 20
-873.848712986798
 30
0.0
 40
6.0
100
AcDbArc
 50
180.0
 51
270.0
  0
LINE
  5
34B
330
1F
100
AcDbEntity
  8
0-7_金物
  6
Continuous
 62
     7
370
     9
100
AcDbLine
 10
-2155.658076881868
 20
-885.8487129867973
 30
0.0
 11
-2161.658076881869
 21
-885.8487129867973
 31
0.0
  0
ARC
  5
34C
330
1F
100
AcDbEntity
  8
0-7_金物
  6
Continuous
 62
     7
370
     9
100
AcDbCircle
 10
-2161.658076881869
 20
-891.848712986797
 30
0.0
 40
6.0
100
AcDbArc
 50
90.0
 51
180.0
  0
LINE
  5
34D
330
1F
100
AcDbEntity
  8
0-7_金物
  6
Continuous
 62
     7
370
     9
100
AcDbLine
 10
-2167.658076881869
 20
-891.848712986797
 30
0.0
 11
-2167.658076881869
 21
-897.8487129867983
 31
0.0
  0
ARC
  5
34E
330
1F
100
AcDbEntity
  8
0-7_金物
  6
Continuous
 62
     7
370
     9
100
AcDbCircle
 10
-2185.658076881868
 20
-882.8487129867983
 30
0.0
 40
3.0
100
AcDbArc
 50
90.0
 51
180.0
  0
LINE
  5
34F
330
1F
100
AcDbEntity
  8
0-7_金物
  6
Continuous
 62
     7
370
     9
100
AcDbLine
 10
-2173.658076881869
 20
-873.848712986798
 30
0.0
 11
-2173.658076881869
 21
-867.8487129867983
 31
0.0
  0
ARC
  5
350
330
1F
100
AcDbEntity
  8
0-7_金物
  6
Continuous
 62
     7
370
     9
100
AcDbCircle
 10
-2170.658076881868
 20
-867.8487129867983
 30
0.0
 40
3.0
100
AcDbArc
 50
90.0
 51
180.0
  0
ARC
  5
351
330
1F
100
AcDbEntity
  8
0-7_金物
  6
Continuous
 62
     7
370
     9
100
AcDbCircle
 10
-2179.658076881868
 20
-891.848712986797
 30
0.0
 40
6.0
100
AcDbArc
 50
0.0
 51
90.0
  0
LINE
  5
352
330
1F
100
AcDbEntity
  8
0-7_金物
  6
Continuous
 62
     7
370
     9
100
AcDbLine
 10
-2179.658076881868
 20
-885.8487129867973
 30
0.0
 11
-2185.658076881868
 21
-885.8487129867973
 31
0.0
  0
LINE
  5
353
330
1F
100
AcDbEntity
  8
0-7_金物
  6
Continuous
 62
     7
370
     9
100
AcDbLine
 10
-2185.658076881868
 20
-879.8487129867976
 30
0.0
 11
-2179.658076881868
 21
-879.8487129867976
 31
0.0
  0
ARC
  5
354
330
1F
100
AcDbEntity
  8
0-7_金物
  6
Continuous
 62
     7
370
     9
100
AcDbCircle
 10
-2179.658076881868
 20
-873.848712986798
 30
0.0
 40
6.0
100
AcDbArc
 50
270.0
 51
0.0
  0
ARC
  5
355
330
1F
100
AcDbEntity
  8
0-7_金物
  6
Continuous
 62
     7
370
     9
100
AcDbCircle
 10
-2170.658076881868
 20
-867.8487129867983
 30
0.0
 40
3.0
100
AcDbArc
 50
0.0
 51
90.0
  0
ARC
  5
356
330
1F
100
AcDbEntity
  8
0-7_金物
  6
Continuous
 62
     7
370
     9
100
AcDbCircle
 10
-2155.658076881868
 20
-882.8487129867983
 30
0.0
 40
3.0
100
AcDbArc
 50
270.0
 51
0.0
  0
LINE
  5
357
330
1F
100
AcDbEntity
  8
0-7_金物
  6
Continuous
 62
     7
370
     9
100
AcDbLine
 10
-2167.658076881869
 20
-867.8487129867983
 30
0.0
 11
-2167.658076881869
 21
-873.848712986798
 31
0.0
  0
ARC
  5
358
330
1F
100
AcDbEntity
  8
0-7_金物
  6
Continuous
 62
     7
370
     9
100
AcDbCircle
 10
-2185.658076881868
 20
-882.8487129867983
 30
0.0
 40
3.0
100
AcDbArc
 50
180.0
 51
270.0
  0
ARC
  5
359
330
1F
100
AcDbEntity
  8
0-7_金物
  6
Continuous
 62
     7
370
     9
100
AcDbCircle
 10
-2170.658076881868
 20
-897.8487129867983
 30
0.0
 40
3.0
100
AcDbArc
 50
270.0
 51
0.0
  0
LINE
  5
35A
330
1F
100
AcDbEntity
  8
0-7_金物
  6
Continuous
 62
     7
370
     9
100
AcDbLine
 10
-2173.658076881869
 20
-897.8487129867983
 30
0.0
 11
-2173.658076881869
 21
-891.848712986797
 31
0.0
  0
LINE
  5
35B
330
1F
100
AcDbEntity
  8
0-7_金物
  6
Continuous
 62
     7
370
     9
100
AcDbLine
 10
-2161.658076881869
 20
-879.8487129867976
 30
0.0
 11
-2155.658076881868
 21
-879.8487129867976
 31
0.0
  0
ARC
  5
35C
330
1F
100
AcDbEntity
  8
0-7_金物
  6
Continuous
 62
     7
370
     9
100
AcDbCircle
 10
-2155.658076881868
 20
-882.8487129867983
 30
0.0
 40
3.0
100
AcDbArc
 50
0.0
 51
90.0
  0
ARC
  5
35D
330
1F
100
AcDbEntity
  8
0-7_金物
  6
Continuous
 62
     7
370
     9
100
AcDbCircle
 10
-2170.658076881868
 20
-897.8487129867983
 30
0.0
 40
3.0
100
AcDbArc
 50
180.0
 51
270.0
  0
LINE
  5
35E
330
1F
100
AcDbEntity
  8
0-7_金物
  6
Continuous
 62
     7
370
     9
100
AcDbLine
 10
-2206.05807688187
 20
-1008.848712986798
 30
0.0
 11
-2206.05807688187
 21
-1026.848712986797
 31
0.0
  0
LINE
  5
35F
330
1F
100
AcDbEntity
  8
0-7_金物
  6
Continuous
 62
     7
370
     9
100
AcDbLine
 10
-2200.058076881868
 20
-1026.848712986797
 30
0.0
 11
-2200.058076881868
 21
-1008.848712986798
 31
0.0
  0
LINE
  5
360
330
1F
100
AcDbEntity
  8
0-7_金物
  6
Continuous
 62
     7
370
     9
100
AcDbLine
 10
-2206.05807688187
 20
-1026.848712986797
 30
0.0
 11
-2200.058076881868
 21
-1026.848712986797
 31
0.0
  0
LINE
  5
361
330
1F
100
AcDbEntity
  8
0-7_金物
  6
Continuous
 62
     7
370
     9
100
AcDbLine
 10
-2200.058076881868
 20
-1008.848712986798
 30
0.0
 11
-2206.05807688187
 21
-1008.848712986798
 31
0.0
  0
LINE
  5
362
330
1F
100
AcDbEntity
  8
0-7_金物
  6
Continuous
 62
     7
370
     9
100
AcDbLine
 10
-2141.258076881869
 20
-1008.848712986798
 30
0.0
 11
-2141.258076881869
 21
-1026.848712986797
 31
0.0
  0
LINE
  5
363
330
1F
100
AcDbEntity
  8
0-7_金物
  6
Continuous
 62
     7
370
     9
100
AcDbLine
 10
-2200.058076881868
 20
-1026.848712986797
 30
0.0
 11
-2141.258076881869
 21
-1026.848712986797
 31
0.0
  0
LINE
  5
364
330
1F
100
AcDbEntity
  8
0-7_金物
  6
Continuous
 62
     7
370
     9
100
AcDbLine
 10
-2141.258076881869
 20
-1008.848712986798
 30
0.0
 11
-2200.058076881868
 21
-1008.848712986798
 31
0.0
  0
LINE
  5
365
330
1F
100
AcDbEntity
  8
0-7_金物
  6
Continuous
 62
     7
370
     9
100
AcDbLine
 10
-2123.258076881868
 20
-822.8487129867983
 30
0.0
 11
-2123.258076881868
 21
-962.6487129867974
 31
0.0
  0
LINE
  5
366
330
1F
100
AcDbEntity
  8
0-7_金物
  6
Continuous
 62
     7
370
     9
100
AcDbLine
 10
-2218.058076881869
 20
-822.8487129867983
 30
0.0
 11
-2218.058076881869
 21
-962.6487129867974
 31
0.0
  0
CIRCLE
  5
367
330
1F
100
AcDbEntity
  8
0-7_金物
  6
Continuous
 62
     7
370
     9
100
AcDbCircle
 10
-2170.658076881868
 20
-882.8487129867983
 30
0.0
 40
21.00000000000001
  0
LINE
  5
368
330
1F
100
AcDbEntity
  8
0-7_金物
  6
Continuous
 62
     7
370
     9
100
AcDbLine
 10
-2218.058076881869
 20
-962.6487129867974
 30
0.0
 11
-2123.258076881868
 21
-962.6487129867974
 31
0.0
  0
LINE
  5
369
330
1F
100
AcDbEntity
  8
0-7_金物
  6
Continuous
 62
     7
370
     9
100
AcDbLine
 10
-2135.258076881869
 20
-1026.848712986797
 30
0.0
 11
-2135.258076881869
 21
-1008.848712986798
 31
0.0
  0
LINE
  5
36A
330
1F
100
AcDbEntity
  8
0-7_金物
  6
Continuous
 62
     7
370
     9
100
AcDbLine
 10
-2141.258076881869
 20
-1026.848712986797
 30
0.0
 11
-2135.258076881869
 21
-1026.848712986797
 31
0.0
  0
LINE
  5
36B
330
1F
100
AcDbEntity
  8
0-7_金物
  6
Continuous
 62
     7
370
     9
100
AcDbLine
 10
-2135.258076881869
 20
-1008.848712986798
 30
0.0
 11
-2141.258076881869
 21
-1008.848712986798
 31
0.0
  0
LINE
  5
36C
330
1F
100
AcDbEntity
  8
0-7_金物
  6
Continuous
 62
     7
370
     9
100
AcDbLine
 10
-2206.05807688187
 20
-990.8487129867973
 30
0.0
 11
-2135.258076881869
 21
-990.8487129867973
 31
0.0
  0
LINE
  5
36D
330
1F
100
AcDbEntity
  8
0-7_金物
  6
Continuous
 62
     7
370
     9
100
AcDbLine
 10
-2135.258076881869
 20
-990.8487129867973
 30
0.0
 11
-2135.258076881869
 21
-978.848712986798
 31
0.0
  0
LINE
  5
36E
330
1F
100
AcDbEntity
  8
0-7_金物
  6
Continuous
 62
     7
370
     9
100
AcDbLine
 10
-2135.258076881869
 20
-978.848712986798
 30
0.0
 11
-2206.05807688187
 21
-978.848712986798
 31
0.0
  0
LINE
  5
36F
330
1F
100
AcDbEntity
  8
0-7_金物
  6
Continuous
 62
     7
370
     9
100
AcDbLine
 10
-2206.05807688187
 20
-978.848712986798
 30
0.0
 11
-2206.05807688187
 21
-990.8487129867973
 31
0.0
  0
LINE
  5
370
330
1F
100
AcDbEntity
  8
0-7_金物
  6
Continuous
 62
     7
370
     9
100
AcDbLine
 10
-2146.658076881869
 20
-975.8487129867973
 30
0.0
 11
-2135.258076881869
 21
-975.8487129867973
 31
0.0
  0
LINE
  5
371
330
1F
100
AcDbEntity
  8
0-7_金物
  6
Continuous
 62
     7
370
     9
100
AcDbLine
 10
-2146.658076881869
 20
-975.8487129867973
 30
0.0
 11
-2146.658076881869
 21
-962.6487129867974
 31
0.0
  0
LINE
  5
372
330
1F
100
AcDbEntity
  8
0-7_金物
  6
Continuous
 62
     7
370
     9
100
AcDbLine
 10
-2206.05807688187
 20
-975.8487129867973
 30
0.0
 11
-2194.658076881868
 21
-975.8487129867973
 31
0.0
  0
LINE
  5
373
330
1F
100
AcDbEntity
  8
0-7_金物
  6
Continuous
 62
     7
370
     9
100
AcDbLine
 10
-2194.658076881868
 20
-962.6487129867974
 30
0.0
 11
-2194.658076881868
 21
-975.8487129867973
 31
0.0
  0
LINE
  5
374
330
1F
100
AcDbEntity
  8
0-7_金物
  6
Continuous
 62
     7
370
     9
100
AcDbLine
 10
-2206.05807688187
 20
-978.848712986798
 30
0.0
 11
-2206.05807688187
 21
-975.8487129867973
 31
0.0
  0
LINE
  5
375
330
1F
100
AcDbEntity
  8
0-7_金物
  6
Continuous
 62
     7
370
     9
100
AcDbLine
 10
-2135.258076881869
 20
-975.8487129867973
 30
0.0
 11
-2135.258076881869
 21
-978.848712986798
 31
0.0
  0
LINE
  5
376
330
1F
100
AcDbEntity
  8
0-7_金物
  6
Continuous
 62
     7
370
     9
100
AcDbLine
 10
-2161.658076881869
 20
-990.8487129867973
 30
0.0
 11
-2161.658076881869
 21
-1008.848712986798
 31
0.0
  0
LINE
  5
377
330
1F
100
AcDbEntity
  8
0-7_金物
  6
Continuous
 62
     7
370
     9
100
AcDbLine
 10
-2179.658076881868
 20
-990.8487129867973
 30
0.0
 11
-2179.658076881868
 21
-1008.848712986798
 31
0.0
  0
LINE
  5
378
330
1F
100
AcDbEntity
  8
0-7_金物
  6
Continuous
 62
     7
370
     9
100
AcDbLine
 10
-2146.658076881869
 20
-1002.848712986798
 30
0.0
 11
-2161.658076881869
 21
-1002.848712986798
 31
0.0
  0
LINE
  5
379
330
1F
100
AcDbEntity
  8
0-7_金物
  6
Continuous
 62
     7
370
     9
100
AcDbLine
 10
-2146.658076881869
 20
-1008.848712986798
 30
0.0
 11
-2146.658076881869
 21
-1002.848712986798
 31
0.0
  0
LINE
  5
37A
330
1F
100
AcDbEntity
  8
0-7_金物
  6
Continuous
 62
     7
370
     9
100
AcDbLine
 10
-2179.658076881868
 20
-1002.848712986798
 30
0.0
 11
-2194.658076881868
 21
-1002.848712986798
 31
0.0
  0
LINE
  5
37B
330
1F
100
AcDbEntity
  8
0-7_金物
  6
Continuous
 62
     7
370
     9
100
AcDbLine
 10
-2194.658076881868
 20
-1002.848712986798
 30
0.0
 11
-2194.658076881868
 21
-1008.848712986798
 31
0.0
  0
LINE
  5
37C
330
1F
100
AcDbEntity
  8
0-7_金物
  6
Continuous
 62
     7
370
     9
100
AcDbLine
 10
-2194.658076881868
 20
-990.8487129867973
 30
0.0
 11
-2194.658076881868
 21
-1002.848712986798
 31
0.0
  0
LINE
  5
37D
330
1F
100
AcDbEntity
  8
0-7_金物
  6
Continuous
 62
     7
370
     9
100
AcDbLine
 10
-2146.658076881869
 20
-1002.848712986798
 30
0.0
 11
-2146.658076881869
 21
-990.8487129867973
 31
0.0
  0
LINE
  5
37E
330
1F
100
AcDbEntity
  8
0-7_金物
  6
Continuous
 62
     7
370
     9
100
AcDbLine
 10
-2139.158076881874
 20
-725.0487129867986
 30
0.0
 11
-2139.158076881874
 21
-794.6487129867967
 31
0.0
  0
LINE
  5
37F
330
1F
100
AcDbEntity
  8
0-7_金物
  6
Continuous
 62
     7
370
     9
100
AcDbLine
 10
-2139.158076881874
 20
-707.0487129867979
 30
0.0
 11
-2139.158076881874
 21
-725.0487129867986
 31
0.0
  0
LINE
  5
380
330
1F
100
AcDbEntity
  8
0-7_金物
  6
Continuous
 62
     7
370
     9
100
AcDbLine
 10
-2202.158076881874
 20
-725.0487129867986
 30
0.0
 11
-2202.158076881874
 21
-707.0487129867979
 31
0.0
  0
LINE
  5
381
330
1F
100
AcDbEntity
  8
0-7_金物
  6
Continuous
 62
     7
370
     9
100
AcDbLine
 10
-2139.158076881874
 20
-794.6487129867967
 30
0.0
 11
-2139.158076881874
 21
-821.0487129867983
 31
0.0
  0
LINE
  5
382
330
1F
100
AcDbEntity
  8
0-7_金物
  6
Continuous
 62
     7
370
     9
100
AcDbLine
 10
-2202.158076881874
 20
-821.0487129867983
 30
0.0
 11
-2202.158076881874
 21
-794.6487129867967
 31
0.0
  0
LINE
  5
383
330
1F
100
AcDbEntity
  8
0-7_金物
  6
Continuous
 62
     7
370
     9
100
AcDbLine
 10
-2194.658076881874
 20
-821.0487129867983
 30
0.0
 11
-2146.658076881874
 21
-821.0487129867983
 31
0.0
  0
LINE
  5
384
330
1F
100
AcDbEntity
  8
0-7_金物
  6
Continuous
 62
     7
370
     9
100
AcDbLine
 10
-2146.658076881874
 20
-821.0487129867983
 30
0.0
 11
-2146.658076881874
 21
-822.8487129867983
 31
0.0
  0
LINE
  5
385
330
1F
100
AcDbEntity
  8
0-7_金物
  6
Continuous
 62
     7
370
     9
100
AcDbLine
 10
-2194.658076881874
 20
-822.8487129867983
 30
0.0
 11
-2194.658076881874
 21
-821.0487129867983
 31
0.0
  0
LINE
  5
386
330
1F
100
AcDbEntity
  8
0-7_金物
  6
Continuous
 62
     7
370
     9
100
AcDbLine
 10
-2119.658076881874
 20
-683.0487129867976
 30
0.0
 11
-2119.658076881874
 21
-707.0487129867979
 31
0.0
  0
LINE
  5
387
330
1F
100
AcDbEntity
  8
0-7_金物
  6
Continuous
 62
     7
370
     9
100
AcDbLine
 10
-2143.658076881874
 20
-683.0487129867976
 30
0.0
 11
-2119.658076881874
 21
-683.0487129867976
 31
0.0
  0
LINE
  5
388
330
1F
100
AcDbEntity
  8
0-7_金物
  6
Continuous
 62
     7
370
     9
100
AcDbLine
 10
-2143.658076881874
 20
-695.0487129867986
 30
0.0
 11
-2143.658076881874
 21
-683.0487129867976
 31
0.0
  0
LINE
  5
389
330
1F
100
AcDbEntity
  8
0-7_金物
  6
Continuous
 62
     7
370
     9
100
AcDbLine
 10
-2197.658076881874
 20
-695.0487129867986
 30
0.0
 11
-2143.658076881874
 21
-695.0487129867986
 31
0.0
  0
LINE
  5
38A
330
1F
100
AcDbEntity
  8
0-7_金物
  6
Continuous
 62
     7
370
     9
100
AcDbLine
 10
-2197.658076881874
 20
-683.0487129867976
 30
0.0
 11
-2197.658076881874
 21
-695.0487129867986
 31
0.0
  0
LINE
  5
38B
330
1F
100
AcDbEntity
  8
0-7_金物
  6
Continuous
 62
     7
370
     9
100
AcDbLine
 10
-2221.658076881874
 20
-707.0487129867979
 30
0.0
 11
-2221.658076881874
 21
-683.0487129867976
 31
0.0
  0
LINE
  5
38C
330
1F
100
AcDbEntity
  8
0-7_金物
  6
Continuous
 62
     7
370
     9
100
AcDbLine
 10
-2170.658076881874
 20
-707.0487129867979
 30
0.0
 11
-2221.658076881874
 21
-707.0487129867979
 31
0.0
  0
LINE
  5
38D
330
1F
100
AcDbEntity
  8
0-7_金物
  6
Continuous
 62
     7
370
     9
100
AcDbLine
 10
-2119.658076881874
 20
-707.0487129867979
 30
0.0
 11
-2170.658076881874
 21
-707.0487129867979
 31
0.0
  0
LINE
  5
38E
330
1F
100
AcDbEntity
  8
0-7_金物
  6
Continuous
 62
     7
370
     9
100
AcDbLine
 10
-2221.658076881874
 20
-683.0487129867976
 30
0.0
 11
-2197.658076881874
 21
-683.0487129867976
 31
0.0
  0
LINE
  5
38F
330
1F
100
AcDbEntity
  8
0-7_金物
  6
Continuous
 62
     7
370
     9
100
AcDbLine
 10
-2202.158076881874
 20
-794.6487129867967
 30
0.0
 11
-2170.658076881874
 21
-794.6487129867967
 31
0.0
  0
LINE
  5
390
330
1F
100
AcDbEntity
  8
0-7_金物
  6
Continuous
 62
     7
370
     9
100
AcDbLine
 10
-2170.658076881874
 20
-725.0487129867986
 30
0.0
 11
-2202.158076881874
 21
-725.0487129867986
 31
0.0
  0
LINE
  5
391
330
1F
100
AcDbEntity
  8
0-7_金物
  6
Continuous
 62
     7
370
     9
100
AcDbLine
 10
-2170.658076881874
 20
-794.6487129867967
 30
0.0
 11
-2139.158076881874
 21
-794.6487129867967
 31
0.0
  0
LINE
  5
392
330
1F
100
AcDbEntity
  8
0-7_金物
  6
Continuous
 62
     7
370
     9
100
AcDbLine
 10
-2139.158076881874
 20
-725.0487129867986
 30
0.0
 11
-2170.658076881874
 21
-725.0487129867986
 31
0.0
  0
LINE
  5
393
330
1F
100
AcDbEntity
  8
0-7_金物
  6
Continuous
 62
     7
370
     9
100
AcDbLine
 10
-2202.158076881874
 20
-794.6487129867967
 30
0.0
 11
-2202.158076881874
 21
-725.0487129867986
 31
0.0
  0
LINE
  5
394
330
1F
100
AcDbEntity
  8
0-7_金物
  6
Continuous
 62
     7
370
     9
100
AcDbLine
 10
-2194.658076881874
 20
-821.0487129867983
 30
0.0
 11
-2202.158076881874
 21
-821.0487129867983
 31
0.0
  0
LINE
  5
395
330
1F
100
AcDbEntity
  8
0-7_金物
  6
Continuous
 62
     7
370
     9
100
AcDbLine
 10
-2139.158076881874
 20
-821.0487129867983
 30
0.0
 11
-2146.658076881874
 21
-821.0487129867983
 31
0.0
  0
LINE
  5
396
330
1F
100
AcDbEntity
  8
0-7_金物
  6
Continuous
 62
     7
370
     9
100
AcDbLine
 10
-2136.757851299743
 20
-642.8487129868
 30
0.0
 11
-2204.558302464005
 21
-642.8487129867983
 31
0.0
  0
LINE
  5
397
330
1F
100
AcDbEntity
  8
0-7_金物
  6
Continuous
 62
     7
370
     9
100
AcDbLine
 10
-2251.658615883423
 20
-642.8487129868
 30
0.0
 11
-2250.458076881874
 21
-642.8487129867983
 31
0.0
  0
LINE
  5
398
330
1F
100
AcDbEntity
  8
0-7_金物
  6
Continuous
 62
     7
370
     9
100
AcDbLine
 10
-2089.658076881874
 20
-642.8487129867983
 30
0.0
 11
-2090.858076881874
 21
-642.8487129867983
 31
0.0
  0
LINE
  5
399
330
1F
100
AcDbEntity
  8
0-7_金物
  6
Continuous
 62
     7
370
     9
100
AcDbLine
 10
-2218.058076881874
 20
-822.8487129867983
 30
0.0
 11
-2123.258076881873
 21
-822.8487129867983
 31
0.0
  0
LINE
  5
39A
330
1F
100
AcDbEntity
  8
0-7_金物
  6
Continuous
 62
     7
370
     9
100
AcDbLine
 10
-2053.057517917304
 20
-851.0493997146978
 30
0.0
 11
-2053.057517917304
 21
-743.0493997146971
 31
0.0
  0
ARC
  5
39B
330
1F
100
AcDbEntity
  8
0-7_金物
  6
Continuous
 62
     7
370
     9
100
AcDbCircle
 10
-2056.057517917304
 20
-851.0493997146978
 30
0.0
 40
2.999999999999915
100
AcDbArc
 50
180.0
 51
0.0
  0
LINE
  5
39C
330
1F
100
AcDbEntity
  8
0-7_金物
  6
Continuous
 62
     7
370
     9
100
AcDbLine
 10
-2247.458587935195
 20
-760.5873489128373
 30
0.0
 11
-2247.458587935195
 21
-675.8489325800207
 31
0.0
  0
ARC
  5
39D
330
1F
100
AcDbEntity
  8
0-7_金物
  6
Continuous
 62
     7
370
     9
100
AcDbCircle
 10
-2222.258420245824
 20
-744.8493917294917
 30
0.0
 40
30.00019963020328
100
AcDbArc
 50
213.9231120032596
 51
301.890791801846
  0
ARC
  5
39E
330
1F
100
AcDbEntity
  8
0-7_金物
  6
Continuous
 62
     7
370
     9
100
AcDbCircle
 10
-2205.458308452909
 20
-771.8495713966735
 30
0.0
 40
1.800011977811773
100
AcDbArc
 50
0.0000000000000064
 51
121.8907918018636
  0
ARC
  5
39F
330
1F
100
AcDbEntity
  8
0-7_金物
  6
Continuous
 62
     7
370
     9
100
AcDbCircle
 10
-2245.658575957379
 20
-760.5873489128373
 30
0.0
 40
1.800011977815348
100
AcDbArc
 50
180.0
 51
213.923112003242
  0
LINE
  5
3A0
330
1F
100
AcDbEntity
  8
0-7_金物
  6
Continuous
 62
     7
370
     9
100
AcDbLine
 10
-2198.558262537963
 20
-662.0488407501279
 30
0.0
 11
-2198.558262537963
 21
-653.64878485367
 31
0.0
  0
LINE
  5
3A1
330
1F
100
AcDbEntity
  8
0-7_金物
  6
Continuous
 62
     7
370
     9
100
AcDbLine
 10
-2207.558322427024
 20
-651.8487728758583
 30
0.0
 11
-2207.558322427024
 21
-645.8487329498195
 31
0.0
  0
LINE
  5
3A2
330
1F
100
AcDbEntity
  8
0-7_金物
  6
Continuous
 62
     7
370
     9
100
AcDbLine
 10
-2244.458567972174
 20
-654.8487928388795
 30
0.0
 11
-2210.558342390045
 21
-654.8487928388795
 31
0.0
  0
LINE
  5
3A3
330
1F
100
AcDbEntity
  8
0-7_金物
  6
Continuous
 62
     7
370
     9
100
AcDbLine
 10
-2235.458508083113
 20
-663.8488527279412
 30
0.0
 11
-2200.358274515775
 21
-663.8488527279412
 31
0.0
  0
LINE
  5
3A4
330
1F
100
AcDbEntity
  8
0-7_金物
  6
Continuous
 62
     7
370
     9
100
AcDbLine
 10
-2247.458587935195
 20
-651.8487728758583
 30
0.0
 11
-2247.458587935195
 21
-645.8487329498195
 31
0.0
  0
ARC
  5
3A5
330
1F
100
AcDbEntity
  8
0-7_金物
  6
Continuous
 62
     7
370
     9
100
AcDbCircle
 10
-2204.558302464005
 20
-645.8487329498178
 30
0.0
 40
3.000019963019752
100
AcDbArc
 50
89.99999999999837
 51
180.0
  0
ARC
  5
3A6
330
1F
100
AcDbEntity
  8
0-7_金物
  6
Continuous
 62
     7
370
     9
100
AcDbCircle
 10
-2210.558342390044
 20
-651.8487728758583
 30
0.0
 40
3.000019963020116
100
AcDbArc
 50
269.9999999999951
 51
0.0000000000000127
  0
ARC
  5
3A7
330
1F
100
AcDbEntity
  8
0-7_金物
  6
Continuous
 62
     7
370
     9
100
AcDbCircle
 10
-2244.458567972174
 20
-651.8487728758583
 30
0.0
 40
3.000019963020043
100
AcDbArc
 50
180.0
 51
270.0000000000049
  0
ARC
  5
3A8
330
1F
100
AcDbEntity
  8
0-7_金物
  6
Continuous
 62
     7
370
     9
100
AcDbCircle
 10
-2250.458607898215
 20
-645.8487329498178
 30
0.0
 40
3.000019963019753
100
AcDbArc
 50
0.0000000000000127
 51
90.00000000000979
  0
ARC
  5
3A9
330
1F
100
AcDbEntity
  8
0-7_金物
  6
Continuous
 62
     7
370
     9
100
AcDbCircle
 10
-2251.658615883423
 20
-645.8487329498195
 30
0.0
 40
3.000019963020626
100
AcDbArc
 50
90.00000000000654
 51
180.0
  0
ARC
  5
3AA
330
1F
100
AcDbEntity
  8
0-7_金物
  6
Continuous
 62
     7
370
     9
100
AcDbCircle
 10
-2235.458508083113
 20
-675.8489325800224
 30
0.0
 40
12.00007985208206
100
AcDbArc
 50
90.00000000000159
 51
180.0
  0
ARC
  5
3AB
330
1F
100
AcDbEntity
  8
0-7_金物
  6
Continuous
 62
     7
370
     9
100
AcDbCircle
 10
-2200.358274515775
 20
-662.0488407501279
 30
0.0
 40
1.800011977812318
100
AcDbArc
 50
270.0000000000032
 51
359.9999999999999
  0
LINE
  5
3AC
330
1F
100
AcDbEntity
  8
0-7_金物
  6
Continuous
 62
     7
370
     9
100
AcDbLine
 10
-2093.857565828553
 20
-760.5873489128373
 30
0.0
 11
-2093.857565828553
 21
-675.8489325800207
 31
0.0
  0
ARC
  5
3AD
330
1F
100
AcDbEntity
  8
0-7_金物
  6
Continuous
 62
     7
370
     9
100
AcDbCircle
 10
-2095.657577806356
 20
-760.587348912839
 30
0.0
 40
1.80001197780369
100
AcDbArc
 50
326.0768879966443
 51
0.0000000000000318
  0
LINE
  5
3AE
330
1F
100
AcDbEntity
  8
0-7_金物
  6
Continuous
 62
     7
370
     9
100
AcDbLine
 10
-2105.857645680634
 20
-663.8488527279412
 30
0.0
 11
-2140.957879247972
 21
-663.8488527279412
 31
0.0
  0
LINE
  5
3AF
330
1F
100
AcDbEntity
  8
0-7_金物
  6
Continuous
 62
     7
370
     9
100
AcDbLine
 10
-2096.857585791573
 20
-654.8487928388795
 30
0.0
 11
-2130.757811373702
 21
-654.8487928388795
 31
0.0
  0
ARC
  5
3B0
330
1F
100
AcDbEntity
  8
0-7_金物
  6
Continuous
 62
     7
370
     9
100
AcDbCircle
 10
-2105.857645680634
 20
-675.8489325800207
 30
0.0
 40
12.00007985208111
100
AcDbArc
 50
0.0000000000000127
 51
90.00000000000001
  0
ARC
  5
3B1
330
1F
100
AcDbEntity
  8
0-7_金物
  6
Continuous
 62
     7
370
     9
100
AcDbCircle
 10
-2089.657537880325
 20
-645.8487329498195
 30
0.0
 40
3.000019963020699
100
AcDbArc
 50
0.0000000000000127
 51
89.99999999999187
  0
LINE
  5
3B2
330
1F
100
AcDbEntity
  8
0-7_金物
  6
Continuous
 62
     7
370
     9
100
AcDbLine
 10
-2093.857565828553
 20
-651.8487728758583
 30
0.0
 11
-2093.857565828553
 21
-645.8487329498195
 31
0.0
  0
ARC
  5
3B3
330
1F
100
AcDbEntity
  8
0-7_金物
  6
Continuous
 62
     7
370
     9
100
AcDbCircle
 10
-2090.857545865532
 20
-645.8487329498195
 30
0.0
 40
3.000019963020699
100
AcDbArc
 50
90.00000000000654
 51
180.0
  0
ARC
  5
3B4
330
1F
100
AcDbEntity
  8
0-7_金物
  6
Continuous
 62
     7
370
     9
100
AcDbCircle
 10
-2096.857585791573
 20
-651.8487728758583
 30
0.0
 40
3.000019963020043
100
AcDbArc
 50
269.9999999999951
 51
0.0000000000000127
  0
LINE
  5
3B5
330
1F
100
AcDbEntity
  8
0-7_金物
  6
Continuous
 62
     7
370
     9
100
AcDbLine
 10
-2144.557903203597
 20
-651.8487728758583
 30
0.0
 11
-2168.858064904061
 21
-651.8487728758583
 31
0.0
  0
LINE
  5
3B6
330
1F
100
AcDbEntity
  8
0-7_金物
  6
Continuous
 62
     7
370
     9
100
AcDbLine
 10
-2142.757891225784
 20
-662.0488407501279
 30
0.0
 11
-2142.757891225784
 21
-653.64878485367
 31
0.0
  0
ARC
  5
3B7
330
1F
100
AcDbEntity
  8
0-7_金物
  6
Continuous
 62
     7
370
     9
100
AcDbCircle
 10
-2140.957879247972
 20
-662.0488407501313
 30
0.0
 40
1.800011977811371
100
AcDbArc
 50
180.0
 51
270.0000000000098
  0
ARC
  5
3B8
330
1F
100
AcDbEntity
  8
0-7_金物
  6
Continuous
 62
     7
370
     9
100
AcDbCircle
 10
-2136.757851299743
 20
-645.8487329498178
 30
0.0
 40
3.000019963019753
100
AcDbArc
 50
0.0000000000000127
 51
90.00000000000162
  0
LINE
  5
3B9
330
1F
100
AcDbEntity
  8
0-7_金物
  6
Continuous
 62
     7
370
     9
100
AcDbLine
 10
-2133.757831336723
 20
-651.8487728758583
 30
0.0
 11
-2133.757831336723
 21
-645.8487329498195
 31
0.0
  0
ARC
  5
3BA
330
1F
100
AcDbEntity
  8
0-7_金物
  6
Continuous
 62
     7
370
     9
100
AcDbCircle
 10
-2130.757811373703
 20
-651.8487728758583
 30
0.0
 40
3.000019963020116
100
AcDbArc
 50
180.0
 51
270.0000000000033
  0
LINE
  5
3BB
330
1F
100
AcDbEntity
  8
0-7_金物
  6
Continuous
 62
     7
370
     9
100
AcDbLine
 10
-2172.458088859685
 20
-651.8487728758583
 30
0.0
 11
-2196.758250560151
 21
-651.8487728758583
 31
0.0
  0
ARC
  5
3BC
330
1F
100
AcDbEntity
  8
0-7_金物
  6
Continuous
 62
     7
370
     9
100
AcDbCircle
 10
-2196.758250560151
 20
-653.64878485367
 30
0.0
 40
1.800011977812318
100
AcDbArc
 50
90.00000000000325
 51
180.0
  0
ARC
  5
3BD
330
1F
100
AcDbEntity
  8
0-7_金物
  6
Continuous
 62
     7
370
     9
100
AcDbCircle
 10
-2144.557903203597
 20
-653.64878485367
 30
0.0
 40
1.800011977812317
100
AcDbArc
 50
0.0000000000000127
 51
89.99999999999675
  0
LINE
  5
3BE
330
1F
100
AcDbEntity
  8
0-7_金物
  6
Continuous
 62
     7
370
     9
100
AcDbLine
 10
-2203.658296475115
 20
-775.3493926573242
 30
0.0
 11
-2203.658296475098
 21
-771.8495713966735
 31
0.0
  0
ARC
  5
3BF
330
1F
100
AcDbEntity
  8
0-7_金物
  6
Continuous
 62
     7
370
     9
100
AcDbCircle
 10
-2209.658296475115
 20
-775.3493926572935
 30
0.0
 40
6.000000000000762
100
AcDbArc
 50
292.4464399032286
 51
0.0
  0
ARC
  5
3C0
330
1F
100
AcDbEntity
  8
0-7_金物
  6
Continuous
 62
     7
370
     9
100
AcDbCircle
 10
-2222.258420245823
 20
-744.8493917294917
 30
0.0
 40
39.00019963020362
100
AcDbArc
 50
220.9258727638374
 51
292.4464399032235
  0
ARC
  5
3C1
330
1F
100
AcDbEntity
  8
0-7_金物
  6
Continuous
 62
     7
370
     9
100
AcDbCircle
 10
-2119.057733517923
 20
-744.8493917294917
 30
0.0
 40
30.00019963020324
100
AcDbArc
 50
238.1092081981539
 51
326.0768879967404
  0
ARC
  5
3C2
330
1F
100
AcDbEntity
  8
0-7_金物
  6
Continuous
 62
     7
370
     9
100
AcDbCircle
 10
-2135.857845310838
 20
-771.8495713966735
 30
0.0
 40
1.800011977811815
100
AcDbArc
 50
58.10920819813862
 51
180.0
  0
LINE
  5
3C3
330
1F
100
AcDbEntity
  8
0-7_金物
  6
Continuous
 62
     7
370
     9
100
AcDbLine
 10
-2137.657857288633
 20
-775.3493926573242
 30
0.0
 11
-2137.65785728865
 21
-771.8495713966735
 31
0.0
  0
ARC
  5
3C4
330
1F
100
AcDbEntity
  8
0-7_金物
  6
Continuous
 62
     7
370
     9
100
AcDbCircle
 10
-2131.657857288632
 20
-775.3493926572935
 30
0.0
 40
6.000000000000811
100
AcDbArc
 50
180.0
 51
247.5535600967714
  0
ARC
  5
3C5
330
1F
100
AcDbEntity
  8
0-7_金物
  6
Continuous
 62
     7
370
     9
100
AcDbCircle
 10
-2119.057733517924
 20
-744.8493917294917
 30
0.0
 40
39.00019963020364
100
AcDbArc
 50
247.5535600967767
 51
319.0741272361627
  0
ARC
  5
3C6
330
1F
100
AcDbEntity
  8
0-7_金物
  6
Continuous
 62
     7
370
     9
100
AcDbCircle
 10
-2266.058635846443
 20
-749.6493997146979
 30
0.0
 40
3.59999999999971
100
AcDbArc
 50
0.0000000000000064
 51
180.0
  0
ARC
  5
3C7
330
1F
100
AcDbEntity
  8
0-7_金物
  6
Continuous
 62
     7
370
     9
100
AcDbCircle
 10
-2242.658629899589
 20
-762.536738227858
 30
0.0
 40
11.99999999999909
100
AcDbArc
 50
211.739273711589
 51
220.9258727638443
  0
ARC
  5
3C8
330
1F
100
AcDbEntity
  8
0-7_金物
  6
Continuous
 62
     7
370
     9
100
AcDbCircle
 10
-2262.458635846445
 20
-750.8493997146968
 30
0.0
 40
1.200000000000017
100
AcDbArc
 50
269.9999999999739
 51
89.99999999997551
  0
ARC
  5
3C9
330
1F
100
AcDbEntity
  8
0-7_金物
  6
Continuous
 62
     7
370
     9
100
AcDbCircle
 10
-2075.257517917304
 20
-749.6493997146979
 30
0.0
 40
3.59999999999971
100
AcDbArc
 50
0.0000000000000064
 51
180.0
  0
ARC
  5
3CA
330
1F
100
AcDbEntity
  8
0-7_金物
  6
Continuous
 62
     7
370
     9
100
AcDbCircle
 10
-2078.857517917303
 20
-750.8493997146968
 30
0.0
 40
1.200000000000017
100
AcDbArc
 50
90.00000000002441
 51
270.0000000000277
  0
ARC
  5
3CB
330
1F
100
AcDbEntity
  8
0-7_金物
  6
Continuous
 62
     7
370
     9
100
AcDbCircle
 10
-2098.657523864159
 20
-762.536738227858
 30
0.0
 40
11.99999999999904
100
AcDbArc
 50
319.0741272361557
 51
328.2607262884101
  0
LINE
  5
3CC
330
1F
100
AcDbEntity
  8
0-7_金物
  6
Continuous
 62
     7
370
     9
100
AcDbLine
 10
-2269.658635846444
 20
-765.8494398433021
 30
0.0
 11
-2269.658635846444
 21
-749.6493997146979
 31
0.0
  0
LINE
  5
3CD
330
1F
100
AcDbEntity
  8
0-7_金物
  6
Continuous
 62
     7
370
     9
100
AcDbLine
 10
-2266.658626067429
 20
-768.8494398432857
 30
0.0
 11
-2252.864038564813
 21
-768.8493948774584
 31
0.0
  0
ARC
  5
3CE
330
1F
100
AcDbEntity
  8
0-7_金物
  6
Continuous
 62
     7
370
     9
100
AcDbCircle
 10
-2266.658635846443
 20
-765.8494398433021
 30
0.0
 40
3.000000000000129
100
AcDbArc
 50
180.0
 51
270.0001867654294
  0
LINE
  5
3CF
330
1F
100
AcDbEntity
  8
0-7_金物
  6
Continuous
 62
     7
370
     9
100
AcDbLine
 10
-2071.657517917304
 20
-767.049439843284
 30
0.0
 11
-2071.657517917304
 21
-749.6493997146979
 31
0.0
  0
LINE
  5
3D0
330
1F
100
AcDbEntity
  8
0-7_金物
  6
Continuous
 62
     7
370
     9
100
AcDbLine
 10
-2074.657527696319
 20
-768.8494398432857
 30
0.0
 11
-2088.452115198935
 21
-768.8493948774584
 31
0.0
  0
ARC
  5
3D1
330
1F
100
AcDbEntity
  8
0-7_金物
  6
Continuous
 62
     7
370
     9
100
AcDbCircle
 10
-2074.657517917304
 20
-765.8494398433021
 30
0.0
 40
3.000000000000171
100
AcDbArc
 50
269.9998132345673
 51
0.0
  0
LINE
  5
3D2
330
1F
100
AcDbEntity
  8
0-7_金物
  6
Continuous
 62
     7
370
     9
100
AcDbLine
 10
-2262.458635846443
 20
-758.6493997146982
 30
0.0
 11
-2262.458635846443
 21
-752.0493997146974
 31
0.0
  0
ARC
  5
3D3
330
1F
100
AcDbEntity
  8
0-7_金物
  6
Continuous
 62
     7
370
     9
100
AcDbCircle
 10
-2259.458635846443
 20
-758.6493997146982
 30
0.0
 40
2.999999999999745
100
AcDbArc
 50
180.0
 51
270.0000000000049
  0
LINE
  5
3D4
330
1F
100
AcDbEntity
  8
0-7_金物
  6
Continuous
 62
     7
370
     9
100
AcDbLine
 10
-2254.658635846444
 20
-758.6493997146982
 30
0.0
 11
-2254.658635846444
 21
-645.8487329498195
 31
0.0
  0
LINE
  5
3D5
330
1F
100
AcDbEntity
  8
0-7_金物
  6
Continuous
 62
     7
370
     9
100
AcDbLine
 10
-2257.658635846443
 20
-761.6493997146989
 30
0.0
 11
-2259.458635846443
 21
-761.6493997146989
 31
0.0
  0
ARC
  5
3D6
330
1F
100
AcDbEntity
  8
0-7_金物
  6
Continuous
 62
     7
370
     9
100
AcDbCircle
 10
-2257.658635846443
 20
-758.6493997146982
 30
0.0
 40
3.000000000000129
100
AcDbArc
 50
270.0000000000065
 51
0.0
  0
LINE
  5
3D7
330
1F
100
AcDbEntity
  8
0-7_金物
  6
Continuous
 62
     7
370
     9
100
AcDbLine
 10
-2086.657517917304
 20
-758.6493997146982
 30
0.0
 11
-2086.657517917304
 21
-645.8487329498195
 31
0.0
  0
ARC
  5
3D8
330
1F
100
AcDbEntity
  8
0-7_金物
  6
Continuous
 62
     7
370
     9
100
AcDbCircle
 10
-2083.657517917304
 20
-758.6493997146982
 30
0.0
 40
3.0
100
AcDbArc
 50
180.0
 51
269.9999999999985
  0
LINE
  5
3D9
330
1F
100
AcDbEntity
  8
0-7_金物
  6
Continuous
 62
     7
370
     9
100
AcDbLine
 10
-2083.657517917304
 20
-761.6493997146989
 30
0.0
 11
-2081.857517917305
 21
-761.6493997146989
 31
0.0
  0
LINE
  5
3DA
330
1F
100
AcDbEntity
  8
0-7_金物
  6
Continuous
 62
     7
370
     9
100
AcDbLine
 10
-2078.857517917305
 20
-758.6493997146982
 30
0.0
 11
-2078.857517917305
 21
-752.0493997146974
 31
0.0
  0
ARC
  5
3DB
330
1F
100
AcDbEntity
  8
0-7_金物
  6
Continuous
 62
     7
370
     9
100
AcDbCircle
 10
-2081.857517917305
 20
-758.6493997146982
 30
0.0
 40
3.0
100
AcDbArc
 50
270.0
 51
0.0
  0
ARC
  5
3DC
330
1F
100
AcDbEntity
  8
0-7_金物
  6
Continuous
 62
     7
370
     9
100
AcDbCircle
 10
-2083.657517917304
 20
-758.0493997146971
 30
0.0
 40
3.000000000000171
100
AcDbArc
 50
180.0
 51
0.0
  0
ARC
  5
3DD
330
1F
100
AcDbEntity
  8
0-7_金物
  6
Continuous
 62
     7
370
     9
100
AcDbCircle
 10
-2080.657517917304
 20
-756.8493997146982
 30
0.0
 40
1.200000000000017
100
AcDbArc
 50
270.0
 51
89.99999999999677
  0
ARC
  5
3DE
330
1F
100
AcDbEntity
  8
0-7_金物
  6
Continuous
 62
     7
370
     9
100
AcDbCircle
 10
-2083.657517917304
 20
-743.0493997146971
 30
0.0
 40
3.0
100
AcDbArc
 50
90.0
 51
180.0
  0
LINE
  5
3DF
330
1F
100
AcDbEntity
  8
0-7_金物
  6
Continuous
 62
     7
370
     9
100
AcDbLine
 10
-2080.657517917303
 20
-749.0493997146984
 30
0.0
 11
-2080.657517917303
 21
-755.6493997146993
 31
0.0
  0
ARC
  5
3E0
330
1F
100
AcDbEntity
  8
0-7_金物
  6
Continuous
 62
     7
370
     9
100
AcDbCircle
 10
-2077.657517917303
 20
-749.0493997146984
 30
0.0
 40
3.0
100
AcDbArc
 50
90.0
 51
180.0
  0
LINE
  5
3E1
330
1F
100
AcDbEntity
  8
0-7_金物
  6
Continuous
 62
     7
370
     9
100
AcDbLine
 10
-2062.057517917304
 20
-746.0493997146978
 30
0.0
 11
-2077.657517917303
 21
-746.0493997146978
 31
0.0
  0
ARC
  5
3E2
330
1F
100
AcDbEntity
  8
0-7_金物
  6
Continuous
 62
     7
370
     9
100
AcDbCircle
 10
-2062.057517917304
 20
-749.0493997146984
 30
0.0
 40
3.000000000000171
100
AcDbArc
 50
0.0000000000000127
 51
90.00000000000001
  0
LINE
  5
3E3
330
1F
100
AcDbEntity
  8
0-7_金物
  6
Continuous
 62
     7
370
     9
100
AcDbLine
 10
-2056.057517917304
 20
-740.0493997146981
 30
0.0
 11
-2083.657517917304
 21
-740.0493997146981
 31
0.0
  0
ARC
  5
3E4
330
1F
100
AcDbEntity
  8
0-7_金物
  6
Continuous
 62
     7
370
     9
100
AcDbCircle
 10
-2056.057517917304
 20
-743.0493997146971
 30
0.0
 40
3.0
100
AcDbArc
 50
0.0000000000000127
 51
90.00000000000001
  0
ARC
  5
3E5
330
1F
100
AcDbEntity
  8
0-7_金物
  6
Continuous
 62
     7
370
     9
100
AcDbCircle
 10
-2068.657517917304
 20
-762.8494398432861
 30
0.0
 40
2.999999999999829
100
AcDbArc
 50
0.0000000000000064
 51
180.0
  0
ARC
  5
3E6
330
1F
100
AcDbEntity
  8
0-7_金物
  6
Continuous
 62
     7
370
     9
100
AcDbCircle
 10
-2069.857517917304
 20
-767.049439843284
 30
0.0
 40
1.800000000000153
100
AcDbArc
 50
180.0
 51
270.0000000000033
  0
LINE
  5
3E7
330
1F
100
AcDbEntity
  8
0-7_金物
  6
Continuous
 62
     7
370
     9
100
AcDbLine
 10
-2059.057517917304
 20
-761.0494398432843
 30
0.0
 11
-2059.057517917304
 21
-749.0493997146984
 31
0.0
  0
LINE
  5
3E8
330
1F
100
AcDbEntity
  8
0-7_金物
  6
Continuous
 62
     7
370
     9
100
AcDbLine
 10
-2060.857517917304
 20
-762.8494398432861
 30
0.0
 11
-2065.657517917304
 21
-762.8494398432861
 31
0.0
  0
ARC
  5
3E9
330
1F
100
AcDbEntity
  8
0-7_金物
  6
Continuous
 62
     7
370
     9
100
AcDbCircle
 10
-2060.857517917304
 20
-761.0494398432843
 30
0.0
 40
1.800000000000069
100
AcDbArc
 50
270.0000000000081
 51
0.0000000000000127
  0
LINE
  5
3EA
330
1F
100
AcDbEntity
  8
0-7_金物
  6
Continuous
 62
     7
370
     9
100
AcDbLine
 10
-2060.857517917304
 20
-768.849439843284
 30
0.0
 11
-2069.857517917304
 21
-768.849439843284
 31
0.0
  0
LINE
  5
3EB
330
1F
100
AcDbEntity
  8
0-7_金物
  6
Continuous
 62
     7
370
     9
100
AcDbLine
 10
-2059.057517917304
 20
-851.0493997146978
 30
0.0
 11
-2059.057517917304
 21
-770.6494398432841
 31
0.0
  0
ARC
  5
3EC
330
1F
100
AcDbEntity
  8
0-7_金物
  6
Continuous
 62
     7
370
     9
100
AcDbCircle
 10
-2060.857517917304
 20
-770.6494398432841
 30
0.0
 40
1.799999999999898
100
AcDbArc
 50
0.0000000000000127
 51
90.00000000000001
  0
LINE
  5
3ED
330
1F
100
AcDbEntity
  8
0-7_金物
  6
Continuous
 62
     7
370
     9
100
AcDbLine
 10
-2172.458088859688
 20
-651.8487728758583
 30
0.0
 11
-2170.658076881874
 21
-650.0487608980467
 31
0.0
  0
LINE
  5
3EE
330
1F
100
AcDbEntity
  8
0-7_金物
  6
Continuous
 62
     7
370
     9
100
AcDbLine
 10
-2170.658076881875
 20
-650.0487608980467
 30
0.0
 11
-2168.858064904061
 21
-651.8487728758583
 31
0.0
  0
LINE
  5
3EF
330
1F
100
AcDbEntity
  8
0-6_扉
  6
Continuous
 62
   200
370
    20
100
AcDbLine
 10
-2080.658076328518
 20
-2016.848713271381
 30
0.0
 11
-2080.658076328518
 21
-3138.849313271379
 31
0.0
  0
LINE
  5
3F0
330
1F
100
AcDbEntity
  8
0-7_金物
  6
Continuous
 62
     7
370
     9
100
AcDbLine
 10
-2210.258076881874
 20
-3138.849313271379
 30
0.0
 11
-2210.258076881874
 21
-3146.049313271379
 31
0.0
  0
LINE
  5
3F1
330
1F
100
AcDbEntity
  8
0-7_金物
  6
Continuous
 62
     7
370
     9
100
AcDbLine
 10
-2131.058076881873
 20
-3138.849313271379
 30
0.0
 11
-2131.058076881873
 21
-3146.049313271379
 31
0.0
  0
LINE
  5
3F2
330
1F
100
AcDbEntity
  8
0-7_金物
  6
Continuous
 62
     7
370
     9
100
AcDbLine
 10
-2191.463605870792
 20
-3146.049313271379
 30
0.0
 11
-2210.258076881874
 21
-3146.049313271379
 31
0.0
  0
LINE
  5
3F3
330
1F
100
AcDbEntity
  8
0-7_金物
  6
Continuous
 62
     7
370
     9
100
AcDbLine
 10
-2131.058076881873
 20
-3146.049313271379
 30
0.0
 11
-2149.852547892959
 21
-3146.049313271379
 31
0.0
  0
LINE
  5
3F4
330
1F
100
AcDbEntity
  8
0-7_金物
  6
Continuous
 62
     7
370
     9
100
AcDbLine
 10
-2167.658076881874
 20
-2983.74931327138
 30
0.0
 11
-2173.658076881875
 21
-2983.74931327138
 31
0.0
  0
LINE
  5
3F5
330
1F
100
AcDbEntity
  8
0-7_金物
  6
Continuous
 62
     7
370
     9
100
AcDbLine
 10
-2167.658076881874
 20
-2978.049313271382
 30
0.0
 11
-2167.658076881874
 21
-2983.74931327138
 31
0.0
  0
LINE
  5
3F6
330
1F
100
AcDbEntity
  8
0-7_金物
  6
Continuous
 62
     7
370
     9
100
AcDbLine
 10
-2173.658076881875
 20
-2983.74931327138
 30
0.0
 11
-2173.658076881875
 21
-2978.049313271382
 31
0.0
  0
LINE
  5
3F7
330
1F
100
AcDbEntity
  8
0-7_金物
  6
Continuous
 62
     7
370
     9
100
AcDbLine
 10
-2151.758076881875
 20
-2961.84931327138
 30
0.0
 11
-2151.758076881875
 21
-2967.849313271379
 31
0.0
  0
ARC
  5
3F8
330
1F
100
AcDbEntity
  8
0-7_金物
  6
Continuous
 62
     7
370
     9
100
AcDbCircle
 10
-2157.458076881875
 20
-2951.649313271379
 30
0.0
 40
10.2
100
AcDbArc
 50
180.0
 51
270.0
  0
LINE
  5
3F9
330
1F
100
AcDbEntity
  8
0-7_金物
  6
Continuous
 62
     7
370
     9
100
AcDbLine
 10
-2157.458076881875
 20
-2961.84931327138
 30
0.0
 11
-2151.758076881875
 21
-2961.84931327138
 31
0.0
  0
LINE
  5
3FA
330
1F
100
AcDbEntity
  8
0-7_金物
  6
Continuous
 62
     7
370
     9
100
AcDbLine
 10
-2151.758076881875
 20
-2967.849313271379
 30
0.0
 11
-2157.458076881875
 21
-2967.849313271379
 31
0.0
  0
LINE
  5
3FB
330
1F
100
AcDbEntity
  8
0-7_金物
  6
Continuous
 62
     7
370
     9
100
AcDbLine
 10
-2173.658076881875
 20
-2945.949313271381
 30
0.0
 11
-2167.658076881874
 21
-2945.949313271381
 31
0.0
  0
LINE
  5
3FC
330
1F
100
AcDbEntity
  8
0-7_金物
  6
Continuous
 62
     7
370
     9
100
AcDbLine
 10
-2167.658076881874
 20
-2945.949313271381
 30
0.0
 11
-2167.658076881874
 21
-2951.649313271379
 31
0.0
  0
LINE
  5
3FD
330
1F
100
AcDbEntity
  8
0-7_金物
  6
Continuous
 62
     7
370
     9
100
AcDbLine
 10
-2173.658076881875
 20
-2951.649313271379
 30
0.0
 11
-2173.658076881875
 21
-2945.949313271381
 31
0.0
  0
LINE
  5
3FE
330
1F
100
AcDbEntity
  8
0-7_金物
  6
Continuous
 62
     7
370
     9
100
AcDbLine
 10
-2183.858076881873
 20
-2967.849313271379
 30
0.0
 11
-2189.558076881875
 21
-2967.849313271379
 31
0.0
  0
LINE
  5
3FF
330
1F
100
AcDbEntity
  8
0-7_金物
  6
Continuous
 62
     7
370
     9
100
AcDbLine
 10
-2189.558076881875
 20
-2967.849313271379
 30
0.0
 11
-2189.558076881875
 21
-2961.84931327138
 31
0.0
  0
LINE
  5
400
330
1F
100
AcDbEntity
  8
0-7_金物
  6
Continuous
 62
     7
370
     9
100
AcDbLine
 10
-2189.558076881875
 20
-2961.84931327138
 30
0.0
 11
-2183.858076881873
 21
-2961.84931327138
 31
0.0
  0
ARC
  5
401
330
1F
100
AcDbEntity
  8
0-7_金物
  6
Continuous
 62
     7
370
     9
100
AcDbCircle
 10
-2183.858076881873
 20
-2951.649313271379
 30
0.0
 40
10.2
100
AcDbArc
 50
270.0
 51
0.0
  0
ARC
  5
402
330
1F
100
AcDbEntity
  8
0-7_金物
  6
Continuous
 62
     7
370
     9
100
AcDbCircle
 10
-2157.458076881875
 20
-2978.049313271382
 30
0.0
 40
10.2
100
AcDbArc
 50
90.0
 51
180.0
  0
ARC
  5
403
330
1F
100
AcDbEntity
  8
0-7_金物
  6
Continuous
 62
     7
370
     9
100
AcDbCircle
 10
-2183.858076881873
 20
-2978.049313271382
 30
0.0
 40
10.2
100
AcDbArc
 50
0.0000000000000127
 51
90.00000000000001
  0
LINE
  5
404
330
1F
100
AcDbEntity
  8
0-7_金物
  6
Continuous
 62
     7
370
     9
100
AcDbLine
 10
-2177.858076881875
 20
-3186.376389523722
 30
0.0
 11
-2163.458076881874
 21
-3186.376389523722
 31
0.0
  0
LINE
  5
405
330
1F
100
AcDbEntity
  8
0-7_金物
  6
Continuous
 62
     7
370
     9
100
AcDbLine
 10
-2179.658076881875
 20
-3184.576389523723
 30
0.0
 11
-2179.658076881875
 21
-3138.849313271379
 31
0.0
  0
LINE
  5
406
330
1F
100
AcDbEntity
  8
0-7_金物
  6
Continuous
 62
     7
370
     9
100
AcDbLine
 10
-2161.658076881876
 20
-3138.849313271379
 30
0.0
 11
-2161.658076881876
 21
-3184.576389523723
 31
0.0
  0
ARC
  5
407
330
1F
100
AcDbEntity
  8
0-7_金物
  6
Continuous
 62
     7
370
     9
100
AcDbCircle
 10
-2179.658076881875
 20
-3165.376389523721
 30
0.0
 40
12.0
100
AcDbArc
 50
180.0
 51
264.7840909999994
  0
ARC
  5
408
330
1F
100
AcDbEntity
  8
0-7_金物
  6
Continuous
 62
     7
370
     9
100
AcDbCircle
 10
-2161.658076881876
 20
-3165.376389523721
 30
0.0
 40
12.0
100
AcDbArc
 50
275.2159090000008
 51
0.0000000000000254
  0
ARC
  5
409
330
1F
100
AcDbEntity
  8
0-7_金物
  6
Continuous
 62
     7
370
     9
100
AcDbCircle
 10
-2177.858076881875
 20
-3184.576389523723
 30
0.0
 40
1.8
100
AcDbArc
 50
180.0
 51
270.0
  0
ARC
  5
40A
330
1F
100
AcDbEntity
  8
0-7_金物
  6
Continuous
 62
     7
370
     9
100
AcDbCircle
 10
-2180.858076881876
 20
-3178.521729523723
 30
0.0
 40
1.2
100
AcDbArc
 50
0.0000000000000127
 51
84.7840909999992
  0
ARC
  5
40B
330
1F
100
AcDbEntity
  8
0-7_金物
  6
Continuous
 62
     7
370
     9
100
AcDbCircle
 10
-2163.458076881874
 20
-3184.576389523723
 30
0.0
 40
1.8
100
AcDbArc
 50
270.0
 51
0.0
  0
ARC
  5
40C
330
1F
100
AcDbEntity
  8
0-7_金物
  6
Continuous
 62
     7
370
     9
100
AcDbCircle
 10
-2160.458076881874
 20
-3178.521729523723
 30
0.0
 40
1.2
100
AcDbArc
 50
95.21590900000078
 51
180.0
  0
LINE
  5
40D
330
1F
100
AcDbEntity
  8
0-7_金物
  6
Continuous
 62
     7
370
     9
100
AcDbLine
 10
-2191.658076881876
 20
-3165.376389523721
 30
0.0
 11
-2191.658076881876
 21
-3138.849313271379
 31
0.0
  0
LINE
  5
40E
330
1F
100
AcDbEntity
  8
0-7_金物
  6
Continuous
 62
     7
370
     9
100
AcDbLine
 10
-2149.658076881875
 20
-3165.376389523721
 30
0.0
 11
-2149.658076881875
 21
-3138.849313271379
 31
0.0
  0
ARC
  5
40F
330
1F
100
AcDbEntity
  8
0-7_金物
  6
Continuous
 62
     7
370
     9
100
AcDbCircle
 10
-2159.858076881881
 20
-3077.649313271394
 30
0.0
 40
7.800000000000001
100
AcDbArc
 50
89.99999999999352
 51
179.9999999999935
  0
LINE
  5
410
330
1F
100
AcDbEntity
  8
0-7_金物
  6
Continuous
 62
     7
370
     9
100
AcDbLine
 10
-2156.258076881881
 20
-3069.849313271394
 30
0.0
 11
-2159.858076881881
 21
-3069.849313271394
 31
0.0
  0
LINE
  5
411
330
1F
100
AcDbEntity
  8
0-7_金物
  6
Continuous
 62
     7
370
     9
100
AcDbLine
 10
-2167.658076881881
 20
-3077.649313271394
 30
0.0
 11
-2167.658076881881
 21
-3081.249313271391
 31
0.0
  0
LINE
  5
412
330
1F
100
AcDbEntity
  8
0-7_金物
  6
Continuous
 62
     7
370
     9
100
AcDbLine
 10
-2156.258076881874
 20
-3063.849313271379
 30
0.0
 11
-2156.258076881874
 21
-3069.849313271394
 31
0.0
  0
ARC
  5
413
330
1F
100
AcDbEntity
  8
0-7_金物
  6
Continuous
 62
     7
370
     9
100
AcDbCircle
 10
-2159.858076881874
 20
-3056.049313271379
 30
0.0
 40
7.800000000000001
100
AcDbArc
 50
180.0
 51
270.0
  0
LINE
  5
414
330
1F
100
AcDbEntity
  8
0-7_金物
  6
Continuous
 62
     7
370
     9
100
AcDbLine
 10
-2159.858076881874
 20
-3063.849313271379
 30
0.0
 11
-2156.258076881874
 21
-3063.849313271379
 31
0.0
  0
LINE
  5
415
330
1F
100
AcDbEntity
  8
0-7_金物
  6
Continuous
 62
     7
370
     9
100
AcDbLine
 10
-2167.658076881874
 20
-3052.449313271379
 30
0.0
 11
-2167.658076881874
 21
-3056.049313271379
 31
0.0
  0
ARC
  5
416
330
1F
100
AcDbEntity
  8
0-7_金物
  6
Continuous
 62
     7
370
     9
100
AcDbCircle
 10
-2181.458076881866
 20
-3077.649313271394
 30
0.0
 40
7.800000000000001
100
AcDbArc
 50
0.0000000000065265
 51
90.00000000000651
  0
LINE
  5
417
330
1F
100
AcDbEntity
  8
0-7_金物
  6
Continuous
 62
     7
370
     9
100
AcDbLine
 10
-2173.658076881867
 20
-3077.649313271394
 30
0.0
 11
-2173.658076881867
 21
-3081.249313271391
 31
0.0
  0
LINE
  5
418
330
1F
100
AcDbEntity
  8
0-7_金物
  6
Continuous
 62
     7
370
     9
100
AcDbLine
 10
-2185.058076881868
 20
-3069.849313271394
 30
0.0
 11
-2181.458076881868
 21
-3069.849313271394
 31
0.0
  0
LINE
  5
419
330
1F
100
AcDbEntity
  8
0-7_金物
  6
Continuous
 62
     7
370
     9
100
AcDbLine
 10
-2185.058076881875
 20
-3063.849313271379
 30
0.0
 11
-2185.058076881875
 21
-3069.849313271394
 31
0.0
  0
LINE
  5
41A
330
1F
100
AcDbEntity
  8
0-7_金物
  6
Continuous
 62
     7
370
     9
100
AcDbLine
 10
-2167.658076881874
 20
-3052.449313271379
 30
0.0
 11
-2173.658076881875
 21
-3052.449313271379
 31
0.0
  0
ARC
  5
41B
330
1F
100
AcDbEntity
  8
0-7_金物
  6
Continuous
 62
     7
370
     9
100
AcDbCircle
 10
-2181.458076881875
 20
-3056.049313271379
 30
0.0
 40
7.800000000000001
100
AcDbArc
 50
270.0
 51
0.0
  0
LINE
  5
41C
330
1F
100
AcDbEntity
  8
0-7_金物
  6
Continuous
 62
     7
370
     9
100
AcDbLine
 10
-2181.458076881875
 20
-3063.849313271379
 30
0.0
 11
-2185.058076881875
 21
-3063.849313271379
 31
0.0
  0
LINE
  5
41D
330
1F
100
AcDbEntity
  8
0-7_金物
  6
Continuous
 62
     7
370
     9
100
AcDbLine
 10
-2173.658076881867
 20
-3081.24931327138
 30
0.0
 11
-2167.658076881881
 21
-3081.24931327138
 31
0.0
  0
LINE
  5
41E
330
1F
100
AcDbEntity
  8
0-7_金物
  6
Continuous
 62
     7
370
     9
100
AcDbLine
 10
-2173.658076881875
 20
-3052.449313271379
 30
0.0
 11
-2173.658076881875
 21
-3056.049313271379
 31
0.0
  0
CIRCLE
  5
41F
330
1F
100
AcDbEntity
  8
0-7_金物
  6
Continuous
 62
     7
370
     9
100
AcDbCircle
 10
-2170.658076881874
 20
-2964.84931327138
 30
0.0
 40
32.09999999999997
  0
LINE
  5
420
330
1F
100
AcDbEntity
  8
0-7_金物
  6
Continuous
 62
     7
370
     9
100
AcDbLine
 10
-2149.396628751987
 20
-2905.809283310699
 30
0.0
 11
-2149.613659569914
 21
-2904.999313271377
 31
0.0
  0
LINE
  5
421
330
1F
100
AcDbEntity
  8
0-7_金物
  6
Continuous
 62
     7
370
     9
100
AcDbLine
 10
-2148.803689530595
 20
-2904.782282453451
 30
0.0
 11
-2149.613659569914
 21
-2904.999313271377
 31
0.0
  0
LINE
  5
422
330
1F
100
AcDbEntity
  8
0-7_金物
  6
Continuous
 62
     7
370
     9
100
AcDbLine
 10
-2192.512464233154
 20
-2904.782282453451
 30
0.0
 11
-2191.702494193835
 21
-2904.999313271377
 31
0.0
  0
LINE
  5
423
330
1F
100
AcDbEntity
  8
0-7_金物
  6
Continuous
 62
     7
370
     9
100
AcDbLine
 10
-2191.919525011764
 20
-2905.809283310699
 30
0.0
 11
-2191.702494193835
 21
-2904.999313271377
 31
0.0
  0
LINE
  5
424
330
1F
100
AcDbEntity
  8
0-7_金物
  6
Continuous
 62
     7
370
     9
100
AcDbLine
 10
-2170.065137660485
 20
-2867.95637404999
 30
0.0
 11
-2170.658076881874
 21
-2868.549313271379
 31
0.0
  0
LINE
  5
425
330
1F
100
AcDbEntity
  8
0-7_金物
  6
Continuous
 62
     7
370
     9
100
AcDbLine
 10
-2171.251016103264
 20
-2867.95637404999
 30
0.0
 11
-2170.658076881874
 21
-2868.549313271379
 31
0.0
  0
CIRCLE
  5
426
330
1F
100
AcDbEntity
  8
0-7_金物
  6
Continuous
 62
     7
370
     9
100
AcDbCircle
 10
-2170.658076881874
 20
-3066.84931327138
 30
0.0
 40
21.00000000000001
  0
ARC
  5
427
330
1F
100
AcDbEntity
  8
0-7_金物
  6
Continuous
 62
     7
370
     9
100
AcDbCircle
 10
-2170.658076881874
 20
-2892.849313271379
 30
0.0
 40
24.9
100
AcDbArc
 50
331.3645030698363
 51
88.63549693017154
  0
ARC
  5
428
330
1F
100
AcDbEntity
  8
0-7_金物
  6
Continuous
 62
     7
370
     9
100
AcDbCircle
 10
-2170.658076881874
 20
-2892.849313271379
 30
0.0
 40
24.9
100
AcDbArc
 50
211.3645030698352
 51
328.6354969301648
  0
ARC
  5
429
330
1F
100
AcDbEntity
  8
0-7_金物
  6
Continuous
 62
     7
370
     9
100
AcDbCircle
 10
-2170.658076881874
 20
-2892.849313271379
 30
0.0
 40
24.9
100
AcDbArc
 50
91.36450306982846
 51
208.6354969301637
  0
ARC
  5
42A
330
1F
100
AcDbEntity
  8
0-7_金物
  6
Continuous
 62
     7
370
     9
100
AcDbCircle
 10
-2170.658076881874
 20
-2898.849313271379
 30
0.0
 40
47.99999999999999
100
AcDbArc
 50
0.0000000000000064
 51
180.0
  0
LINE
  5
42B
330
1F
100
AcDbEntity
  8
0-7_金物
  6
Continuous
 62
     7
370
     9
100
AcDbLine
 10
-2218.658076881875
 20
-2898.849313271379
 30
0.0
 11
-2218.658076881875
 21
-3138.849313271379
 31
0.0
  0
LINE
  5
42C
330
1F
100
AcDbEntity
  8
0-7_金物
  6
Continuous
 62
     7
370
     9
100
AcDbLine
 10
-2218.658076881875
 20
-3138.849313271379
 30
0.0
 11
-2122.658076881874
 21
-3138.849313271379
 31
0.0
  0
LINE
  5
42D
330
1F
100
AcDbEntity
  8
0-7_金物
  6
Continuous
 62
     7
370
     9
100
AcDbLine
 10
-2122.658076881874
 20
-3138.849313271379
 30
0.0
 11
-2122.658076881874
 21
-2898.849313271379
 31
0.0
  0
ARC
  5
42E
330
1F
100
AcDbEntity
  8
0-7_金物
  6
Continuous
 62
     7
370
     9
100
AcDbCircle
 10
-2194.400676881875
 20
-3171.849313271378
 30
0.0
 40
3.000000000000086
100
AcDbArc
 50
44.99999999999995
 51
89.99999999999996
  0
ARC
  5
42F
330
1F
100
AcDbEntity
  8
0-7_金物
  6
Continuous
 62
     7
370
     9
100
AcDbCircle
 10
-2183.412276881874
 20
-3176.049313271379
 30
0.0
 40
1.800000000000052
100
AcDbArc
 50
224.9999999999999
 51
269.9999999999999
  0
ARC
  5
430
330
1F
100
AcDbEntity
  8
0-7_金物
  6
Continuous
 62
     7
370
     9
100
AcDbCircle
 10
-2181.458076881875
 20
-3179.049313271378
 30
0.0
 40
1.200000000000034
100
AcDbArc
 50
359.9999999999999
 51
89.99999999999997
  0
ARC
  5
431
330
1F
100
AcDbEntity
  8
0-7_金物
  6
Continuous
 62
     7
370
     9
100
AcDbCircle
 10
-2159.858076881874
 20
-3179.049313271378
 30
0.0
 40
1.200000000000034
100
AcDbArc
 50
89.99999999999997
 51
180.0
  0
ARC
  5
432
330
1F
100
AcDbEntity
  8
0-7_金物
  6
Continuous
 62
     7
370
     9
100
AcDbCircle
 10
-2146.915476881874
 20
-3171.849313271378
 30
0.0
 40
3.000000000000086
100
AcDbArc
 50
89.99999999999996
 51
135.0
  0
ARC
  5
433
330
1F
100
AcDbEntity
  8
0-7_金物
  6
Continuous
 62
     7
370
     9
100
AcDbCircle
 10
-2157.903876881875
 20
-3176.049313271379
 30
0.0
 40
1.800000000000052
100
AcDbArc
 50
270.0
 51
315.0
  0
ARC
  5
434
330
1F
100
AcDbEntity
  8
0-7_金物
  6
Continuous
 62
     7
370
     9
100
AcDbCircle
 10
-2195.258076881874
 20
-3197.048713271379
 30
0.0
 40
1.200000000000034
100
AcDbArc
 50
89.99999999999987
 51
201.6159999999999
  0
ARC
  5
435
330
1F
100
AcDbEntity
  8
0-7_金物
  6
Continuous
 62
     7
370
     9
100
AcDbCircle
 10
-2178.458076881874
 20
-3194.048713271378
 30
0.0
 40
1.800000000000052
100
AcDbArc
 50
179.9999999999999
 51
269.9999999999999
  0
ARC
  5
436
330
1F
100
AcDbEntity
  8
0-7_金物
  6
Continuous
 62
     7
370
     9
100
AcDbCircle
 10
-2162.858076881875
 20
-3194.048713271378
 30
0.0
 40
1.800000000000052
100
AcDbArc
 50
269.9999999999999
 51
359.9999999999999
  0
ARC
  5
437
330
1F
100
AcDbEntity
  8
0-7_金物
  6
Continuous
 62
     7
370
     9
100
AcDbCircle
 10
-2146.058076881875
 20
-3197.048713271379
 30
0.0
 40
1.200000000000034
100
AcDbArc
 50
338.384
 51
89.99999999999997
  0
ARC
  5
438
330
1F
100
AcDbEntity
  8
0-7_金物
  6
Continuous
 62
     7
370
     9
100
AcDbCircle
 10
-2209.657476881875
 20
-3188.265313271379
 30
0.0
 40
18.00000000000051
100
AcDbArc
 50
0.0
 51
48.18999999999998
  0
ARC
  5
439
330
1F
100
AcDbEntity
  8
0-7_金物
  6
Continuous
 62
     7
370
     9
100
AcDbCircle
 10
-2131.658076881876
 20
-3188.265313271379
 30
0.0
 40
18.00000000000051
100
AcDbArc
 50
131.81
 51
180.0
  0
LINE
  5
43A
330
1F
100
AcDbEntity
  8
0-7_金物
  6
Continuous
 62
     7
370
     9
100
AcDbLine
 10
-2197.658076881874
 20
-3168.849313271379
 30
0.0
 11
-2194.400676881875
 21
-3168.849313271379
 31
0.0
  0
LINE
  5
43B
330
1F
100
AcDbEntity
  8
0-7_金物
  6
Continuous
 62
     7
370
     9
100
AcDbLine
 10
-2197.658076881874
 20
-3174.84931327138
 30
0.0
 11
-2197.658076881874
 21
-3168.849313271379
 31
0.0
  0
LINE
  5
43C
330
1F
100
AcDbEntity
  8
0-7_金物
  6
Continuous
 62
     7
370
     9
100
AcDbLine
 10
-2183.412276881874
 20
-3177.849313271377
 30
0.0
 11
-2181.458076881875
 21
-3177.849313271377
 31
0.0
  0
LINE
  5
43D
330
1F
100
AcDbEntity
  8
0-7_金物
  6
Continuous
 62
     7
370
     9
100
AcDbLine
 10
-2184.684876881876
 20
-3177.321913271379
 30
0.0
 11
-2192.279076881874
 21
-3169.727713271378
 31
0.0
  0
LINE
  5
43E
330
1F
100
AcDbEntity
  8
0-7_金物
  6
Continuous
 62
     7
370
     9
100
AcDbLine
 10
-2157.903876881875
 20
-3177.849313271377
 30
0.0
 11
-2159.858076881874
 21
-3177.849313271377
 31
0.0
  0
LINE
  5
43F
330
1F
100
AcDbEntity
  8
0-7_金物
  6
Continuous
 62
     7
370
     9
100
AcDbLine
 10
-2156.630676881874
 20
-3177.321913271379
 30
0.0
 11
-2149.037076881876
 21
-3169.727713271378
 31
0.0
  0
LINE
  5
440
330
1F
100
AcDbEntity
  8
0-7_金物
  6
Continuous
 62
     7
370
     9
100
AcDbLine
 10
-2191.658076881876
 20
-3195.848713271378
 30
0.0
 11
-2195.258076881874
 21
-3195.848713271378
 31
0.0
  0
LINE
  5
441
330
1F
100
AcDbEntity
  8
0-7_金物
  6
Continuous
 62
     7
370
     9
100
AcDbLine
 10
-2191.658076881876
 20
-3195.848713271378
 30
0.0
 11
-2191.658076881876
 21
-3188.265313271379
 31
0.0
  0
LINE
  5
442
330
1F
100
AcDbEntity
  8
0-7_金物
  6
Continuous
 62
     7
370
     9
100
AcDbLine
 10
-2172.458076881875
 20
-3195.848713271378
 30
0.0
 11
-2178.458076881874
 21
-3195.848713271378
 31
0.0
  0
LINE
  5
443
330
1F
100
AcDbEntity
  8
0-7_金物
  6
Continuous
 62
     7
370
     9
100
AcDbLine
 10
-2186.858076881873
 20
-3204.848713271379
 30
0.0
 11
-2185.658076881874
 21
-3203.64871327138
 31
0.0
  0
LINE
  5
444
330
1F
100
AcDbEntity
  8
0-7_金物
  6
Continuous
 62
     7
370
     9
100
AcDbLine
 10
-2186.858076881873
 20
-3204.848713271379
 30
0.0
 11
-2193.458076881874
 21
-3204.848713271379
 31
0.0
  0
LINE
  5
445
330
1F
100
AcDbEntity
  8
0-7_金物
  6
Continuous
 62
     7
370
     9
100
AcDbLine
 10
-2185.658076881874
 20
-3203.64871327138
 30
0.0
 11
-2184.458076881876
 21
-3204.848713271379
 31
0.0
  0
LINE
  5
446
330
1F
100
AcDbEntity
  8
0-7_金物
  6
Continuous
 62
     7
370
     9
100
AcDbLine
 10
-2193.458076881874
 20
-3204.848713271379
 30
0.0
 11
-2196.373476881874
 21
-3197.490913271377
 31
0.0
  0
LINE
  5
447
330
1F
100
AcDbEntity
  8
0-7_金物
  6
Continuous
 62
     7
370
     9
100
AcDbLine
 10
-2168.858076881874
 20
-3195.848713271378
 30
0.0
 11
-2170.658076881874
 21
-3197.648713271382
 31
0.0
  0
LINE
  5
448
330
1F
100
AcDbEntity
  8
0-7_金物
  6
Continuous
 62
     7
370
     9
100
AcDbLine
 10
-2162.858076881875
 20
-3195.848713271378
 30
0.0
 11
-2168.858076881874
 21
-3195.848713271378
 31
0.0
  0
LINE
  5
449
330
1F
100
AcDbEntity
  8
0-7_金物
  6
Continuous
 62
     7
370
     9
100
AcDbLine
 10
-2149.658076881875
 20
-3195.848713271378
 30
0.0
 11
-2146.058076881875
 21
-3195.848713271378
 31
0.0
  0
LINE
  5
44A
330
1F
100
AcDbEntity
  8
0-7_金物
  6
Continuous
 62
     7
370
     9
100
AcDbLine
 10
-2149.658076881875
 20
-3195.848713271378
 30
0.0
 11
-2149.658076881875
 21
-3188.265313271379
 31
0.0
  0
LINE
  5
44B
330
1F
100
AcDbEntity
  8
0-7_金物
  6
Continuous
 62
     7
370
     9
100
AcDbLine
 10
-2154.458076881876
 20
-3204.848713271379
 30
0.0
 11
-2155.658076881874
 21
-3203.64871327138
 31
0.0
  0
LINE
  5
44C
330
1F
100
AcDbEntity
  8
0-7_金物
  6
Continuous
 62
     7
370
     9
100
AcDbLine
 10
-2155.658076881874
 20
-3203.64871327138
 30
0.0
 11
-2156.858076881873
 21
-3204.848713271379
 31
0.0
  0
LINE
  5
44D
330
1F
100
AcDbEntity
  8
0-7_金物
  6
Continuous
 62
     7
370
     9
100
AcDbLine
 10
-2154.458076881876
 20
-3204.848713271379
 30
0.0
 11
-2147.858076881875
 21
-3204.848713271379
 31
0.0
  0
LINE
  5
44E
330
1F
100
AcDbEntity
  8
0-7_金物
  6
Continuous
 62
     7
370
     9
100
AcDbLine
 10
-2147.858076881875
 20
-3204.848713271379
 30
0.0
 11
-2144.942676881875
 21
-3197.490913271377
 31
0.0
  0
LINE
  5
44F
330
1F
100
AcDbEntity
  8
0-7_金物
  6
Continuous
 62
     7
370
     9
100
AcDbLine
 10
-2170.658076881874
 20
-3197.648713271382
 30
0.0
 11
-2172.458076881875
 21
-3195.848713271378
 31
0.0
  0
LINE
  5
450
330
1F
100
AcDbEntity
  8
0-7_金物
  6
Continuous
 62
     7
370
     9
100
AcDbLine
 10
-2184.458076881876
 20
-3204.848713271379
 30
0.0
 11
-2156.858076881873
 21
-3204.848713271379
 31
0.0
  0
LINE
  5
451
330
1F
100
AcDbEntity
  8
0-7_金物
  6
Continuous
 62
     7
370
     9
100
AcDbLine
 10
-2161.058076881875
 20
-3194.048713271378
 30
0.0
 11
-2161.058076881875
 21
-3179.049313271378
 31
0.0
  0
LINE
  5
452
330
1F
100
AcDbEntity
  8
0-7_金物
  6
Continuous
 62
     7
370
     9
100
AcDbLine
 10
-2180.258076881874
 20
-3194.048713271378
 30
0.0
 11
-2180.258076881874
 21
-3179.049313271378
 31
0.0
  0
LINE
  5
453
330
1F
100
AcDbEntity
  8
0-7_金物
  6
Continuous
 62
     7
370
     9
100
AcDbLine
 10
-2143.658076881875
 20
-3174.84931327138
 30
0.0
 11
-2143.658076881875
 21
-3168.849313271379
 31
0.0
  0
LINE
  5
454
330
1F
100
AcDbEntity
  8
0-7_金物
  6
Continuous
 62
     7
370
     9
100
AcDbLine
 10
-2143.658076881875
 20
-3168.849313271379
 30
0.0
 11
-2146.915476881874
 21
-3168.849313271379
 31
0.0
  0
LINE
  5
455
330
1F
100
AcDbEntity
  8
0-0_補助線
  6
JWW_HOJO
 62
   120
370
     5
100
AcDbLine
 10
-2521.658076881881
 20
-2016.848713271381
 30
0.0
 11
-1591.658076881881
 21
-2016.848713271381
 31
0.0
  0
LINE
  5
456
330
1F
100
AcDbEntity
  8
0-0_補助線
  6
JWW_HOJO
 62
   120
370
     5
100
AcDbLine
 10
-2521.658076881881
 20
-1896.848713271381
 30
0.0
 11
-1591.658076881881
 21
-1896.848713271381
 31
0.0
  0
LINE
  5
457
330
1F
100
AcDbEntity
  8
0-6_扉
  6
Continuous
 62
   200
370
    20
100
AcDbLine
 10
-2080.658076328518
 20
-3138.849313271379
 30
0.0
 11
-2260.658076328518
 21
-3138.849313271379
 31
0.0
  0
LINE
  5
458
330
1F
100
AcDbEntity
  8
ハッチ
  6
Continuous
 62
   120
370
     5
100
AcDbLine
 10
-2048.119441788573
 20
-3258.849016002981
 30
0.0
 11
-2135.120031159306
 21
-3171.848426632247
 31
0.0
  0
LINE
  5
459
330
1F
100
AcDbEntity
  8
ハッチ
  6
Continuous
 62
   120
370
     5
100
AcDbLine
 10
-1793.561000561402
 20
-3258.849016002968
 30
0.0
 11
-1880.561589932127
 21
-3171.848426632234
 31
0.0
  0
LINE
  5
45A
330
1F
100
AcDbEntity
  8
ハッチ
  6
Continuous
 62
   120
370
     5
100
AcDbLine
 10
-1751.134593690213
 20
-3258.849016002968
 30
0.0
 11
-1838.135183060938
 21
-3171.848426632234
 31
0.0
  0
LINE
  5
45B
330
1F
100
AcDbEntity
  8
ハッチ
  6
Continuous
 62
   120
370
     5
100
AcDbLine
 10
-2260.25147614452
 20
-3258.849016002981
 30
0.0
 11
-2347.252065515257
 21
-3171.848426632241
 31
0.0
  0
LINE
  5
45C
330
1F
100
AcDbEntity
  8
ハッチ
  6
Continuous
 62
   120
370
     5
100
AcDbLine
 10
-2302.677883015719
 20
-3258.849016002981
 30
0.0
 11
-2389.678472386451
 21
-3171.848426632241
 31
0.0
  0
LINE
  5
45D
330
1F
100
AcDbEntity
  8
ハッチ
  6
Continuous
 62
   120
370
     5
100
AcDbLine
 10
-1720.65807688188
 20
-3204.472719068918
 30
0.0
 11
-1753.282369318557
 21
-3171.848426632234
 31
0.0
  0
LINE
  5
45E
330
1F
100
AcDbEntity
  8
ハッチ
  6
Continuous
 62
   120
370
     5
100
AcDbLine
 10
-1720.65807688188
 20
-3246.899125940108
 30
0.0
 11
-1795.708776189747
 21
-3171.848426632234
 31
0.0
  0
LINE
  5
45F
330
1F
100
AcDbEntity
  8
ハッチ
  6
Continuous
 62
   120
370
     5
100
AcDbLine
 10
-2387.53069675811
 20
-3258.849016002981
 30
0.0
 11
-2392.658076881882
 21
-3253.72163587921
 31
0.0
  0
LINE
  5
460
330
1F
100
AcDbEntity
  8
ハッチ
  6
Continuous
 62
   120
370
     5
100
AcDbLine
 10
-2345.104289886915
 20
-3258.849016002981
 30
0.0
 11
-2392.658076881882
 21
-3211.29522900801
 31
0.0
  0
LINE
  5
461
330
1F
100
AcDbEntity
  8
ハッチ
  6
Continuous
 62
   120
370
     5
100
AcDbLine
 10
-2217.82506927332
 20
-3258.849016002974
 30
0.0
 11
-2304.82565864406
 21
-3171.848426632241
 31
0.0
  0
LINE
  5
462
330
1F
100
AcDbEntity
  8
ハッチ
  6
Continuous
 62
   120
370
     5
100
AcDbLine
 10
-2175.398662402129
 20
-3258.849016002968
 30
0.0
 11
-2262.399251772858
 21
-3171.848426632243
 31
0.0
  0
LINE
  5
463
330
1F
100
AcDbEntity
  8
ハッチ
  6
Continuous
 62
   120
370
     5
100
AcDbLine
 10
-2197.658076881881
 20
-3194.16319465202
 30
0.0
 11
-2219.972844901658
 21
-3171.848426632241
 31
0.0
  0
LINE
  5
464
330
1F
100
AcDbEntity
  8
ハッチ
  6
Continuous
 62
   120
370
     5
100
AcDbLine
 10
-2132.972255530932
 20
-3258.849016002967
 30
0.0
 11
-2186.972558799359
 21
-3204.848712734539
 31
0.0
  0
LINE
  5
465
330
1F
100
AcDbEntity
  8
ハッチ
  6
Continuous
 62
   120
370
     5
100
AcDbLine
 10
-2090.545848659787
 20
-3258.849016002967
 30
0.0
 11
-2144.546151928213
 21
-3204.848712734539
 31
0.0
  0
LINE
  5
466
330
1F
100
AcDbEntity
  8
ハッチ
  6
Continuous
 62
   120
370
     5
100
AcDbLine
 10
-2005.693034917375
 20
-3258.849016002975
 30
0.0
 11
-2092.693624288106
 21
-3171.848426632247
 31
0.0
  0
LINE
  5
467
330
1F
100
AcDbEntity
  8
ハッチ
  6
Continuous
 62
   120
370
     5
100
AcDbLine
 10
-1963.266628046175
 20
-3258.849016002975
 30
0.0
 11
-2050.267217416914
 21
-3171.848426632244
 31
0.0
  0
LINE
  5
468
330
1F
100
AcDbEntity
  8
0-4_枠
  6
Continuous
 62
    92
370
    13
100
AcDbLine
 10
-2395.658076881879
 20
-3173.091050421634
 30
0.0
 11
-2395.658076881879
 21
-3258.848713002946
 31
0.0
  0
LINE
  5
469
330
1F
100
AcDbEntity
  8
0-4_枠
  6
Continuous
 62
    92
370
    13
100
AcDbLine
 10
-2392.658076881881
 20
-3258.848918996602
 30
0.0
 11
-2392.658076881881
 21
-3171.848123632219
 31
0.0
  0
LINE
  5
46A
330
1F
100
AcDbEntity
  8
0-4_枠
  6
Continuous
 62
    92
370
    13
100
AcDbLine
 10
-2391.415436194761
 20
-3168.848409734515
 30
0.0
 11
-2395.658076881879
 21
-3173.091050421634
 31
0.0
  0
LINE
  5
46B
330
1F
100
AcDbEntity
  8
0-4_枠
  6
Continuous
 62
    92
370
    13
100
AcDbLine
 10
-1717.65807688188
 20
-3173.091050421634
 30
0.0
 11
-1721.900717568999
 21
-3168.848409734515
 31
0.0
  0
LINE
  5
46C
330
1F
100
AcDbEntity
  8
0-4_枠
  6
Continuous
 62
    92
370
    13
100
AcDbLine
 10
-1720.65807688188
 20
-3258.848918996602
 30
0.0
 11
-1720.65807688188
 21
-3171.848123632219
 31
0.0
  0
LINE
  5
46D
330
1F
100
AcDbEntity
  8
0-4_枠
  6
Continuous
 62
    92
370
    13
100
AcDbLine
 10
-1717.65807688188
 20
-3173.091050421634
 30
0.0
 11
-1717.65807688188
 21
-3258.848713002946
 31
0.0
  0
LINE
  5
46E
330
1F
100
AcDbEntity
  8
0-4_枠
  6
Continuous
 62
    92
370
    13
100
AcDbLine
 10
-1717.65807688188
 20
-3258.848713002946
 30
0.0
 11
-2395.658076881879
 21
-3258.848713002946
 31
0.0
  0
LINE
  5
46F
330
1F
100
AcDbEntity
  8
0-4_枠
  6
Continuous
 62
    92
370
    13
100
AcDbLine
 10
-2392.658076881881
 20
-3171.848123632219
 30
0.0
 11
-2197.05807688188
 21
-3171.848123632219
 31
0.0
  0
LINE
  5
470
330
1F
100
AcDbEntity
  8
0-4_枠
  6
Continuous
 62
    92
370
    13
100
AcDbLine
 10
-2391.415436194761
 20
-3168.848409734515
 30
0.0
 11
-2197.05807688188
 21
-3168.848409734515
 31
0.0
  0
LINE
  5
471
330
1F
100
AcDbEntity
  8
0-4_枠
  6
Continuous
 62
    92
370
    13
100
AcDbLine
 10
-2197.05807688188
 20
-3168.848409734515
 30
0.0
 11
-2197.05807688188
 21
-3204.848409734517
 31
0.0
  0
LINE
  5
472
330
1F
100
AcDbEntity
  8
0-4_枠
  6
Continuous
 62
    92
370
    13
100
AcDbLine
 10
-2197.05807688188
 20
-3204.848409734517
 30
0.0
 11
-2144.25807688188
 21
-3204.848409734517
 31
0.0
  0
LINE
  5
473
330
1F
100
AcDbEntity
  8
0-4_枠
  6
Continuous
 62
    92
370
    13
100
AcDbLine
 10
-2144.25807688188
 20
-3168.848409734515
 30
0.0
 11
-2144.25807688188
 21
-3204.848409734517
 31
0.0
  0
LINE
  5
474
330
1F
100
AcDbEntity
  8
ハッチ
  6
Continuous
 62
   120
370
     5
100
AcDbLine
 10
-1920.840221174983
 20
-3258.849016002974
 30
0.0
 11
-2007.840810545706
 21
-3171.848426632241
 31
0.0
  0
LINE
  5
475
330
1F
100
AcDbEntity
  8
0-4_枠
  6
Continuous
 62
    92
370
    13
100
AcDbLine
 10
-1721.900717568999
 20
-3168.848409734515
 30
0.0
 11
-2144.25807688188
 21
-3168.848409734515
 31
0.0
  0
LINE
  5
476
330
1F
100
AcDbEntity
  8
0-4_枠
  6
Continuous
 62
    92
370
    13
100
AcDbLine
 10
-1720.65807688188
 20
-3171.848123632219
 30
0.0
 11
-2144.25807688188
 21
-3171.848123632219
 31
0.0
  0
LINE
  5
477
330
1F
100
AcDbEntity
  8
ハッチ
  6
Continuous
 62
   120
370
     5
100
AcDbLine
 10
-1835.987407432588
 20
-3258.849016002968
 30
0.0
 11
-1922.988299803332
 21
-3171.848123632219
 31
0.0
  0
LINE
  5
478
330
1F
100
AcDbEntity
  8
ハッチ
  6
Continuous
 62
   120
370
     5
100
AcDbLine
 10
-1878.413814303778
 20
-3258.849016002968
 30
0.0
 11
-1965.414706674532
 21
-3171.848123632219
 31
0.0
  0
LINE
  5
479
330
1F
100
AcDbEntity
  8
0-A_文字
  6
Continuous
 62
     7
370
     9
100
AcDbLine
 10
-1022.045180882287
 20
-3133.967215338789
 30
0.0
 11
-1052.045180882287
 21
-3185.928739565854
 31
0.0
  0
LINE
  5
47A
330
1F
100
AcDbEntity
  8
0-A_文字
  6
Continuous
 62
     7
370
     9
100
AcDbLine
 10
-1022.045180882287
 20
-3133.967215338789
 30
0.0
 11
-1082.045180882287
 21
-3133.967215338789
 31
0.0
  0
LINE
  5
47B
330
1F
100
AcDbEntity
  8
0-A_文字
  6
Continuous
 62
     7
370
     9
100
AcDbLine
 10
-1082.045180882287
 20
-3133.967215338789
 30
0.0
 11
-1052.04518088229
 21
-3185.928739565854
 31
0.0
  0
LINE
  5
47C
330
1F
100
AcDbEntity
  8
仕上げ
  6
Continuous
 62
    40
370
    15
100
AcDbLine
 10
-1717.658031105516
 20
-3258.848713271378
 30
0.0
 11
-1717.658031105516
 21
-3186.848713271378
 31
0.0
  0
LINE
  5
47D
330
1F
100
AcDbEntity
  8
仕上げ
  6
Continuous
 62
    40
370
    15
100
AcDbLine
 10
-1717.65807688188
 20
-3258.848713373462
 30
0.0
 11
-1717.65807688188
 21
-3186.848713002946
 31
0.0
  0
LINE
  5
47E
330
1F
100
AcDbEntity
  8
仕上げ
  6
Continuous
 62
    40
370
    15
100
AcDbLine
 10
-988.6580768818773
 20
-3258.848713271374
 30
0.0
 11
-1717.658031105516
 21
-3258.848713271378
 31
0.0
  0
LINE
  5
47F
330
1F
100
AcDbEntity
  8
仕上げ
  6
Continuous
 62
    40
370
    15
100
AcDbLine
 10
-988.6580768818773
 20
-3186.848713271374
 30
0.0
 11
-1717.658031105516
 21
-3186.848713271378
 31
0.0
  0
LINE
  5
480
330
1F
100
AcDbEntity
  8
仕上げ
  6
Continuous
 62
     7
370
     9
100
AcDbLine
 10
-988.6580768818773
 20
-3195.848713271373
 30
0.0
 11
-1717.658031105516
 21
-3195.848713271376
 31
0.0
  0
LINE
  5
481
330
1F
100
AcDbEntity
  8
仕上げ
  6
Continuous
 62
     7
370
     9
100
AcDbLine
 10
-988.6580768818773
 20
-3249.848713271374
 30
0.0
 11
-1717.658031105516
 21
-3249.848713271378
 31
0.0
  0
LINE
  5
482
330
1F
100
AcDbEntity
  8
仕上げ
  6
Continuous
 62
     7
370
     9
100
AcDbLine
 10
-988.6580768818773
 20
-3204.848713271374
 30
0.0
 11
-1717.658031105516
 21
-3204.848713271378
 31
0.0
  0
LINE
  5
483
330
1F
100
AcDbEntity
  8
仕上げ
  6
Continuous
 62
     7
370
     9
100
AcDbLine
 10
-988.6580768818773
 20
-3213.848713271372
 30
0.0
 11
-1717.658031105516
 21
-3213.848713271377
 31
0.0
  0
LINE
  5
484
330
1F
100
AcDbEntity
  8
仕上げ
  6
Continuous
 62
     7
370
     9
100
AcDbLine
 10
-988.6580768818773
 20
-3222.848713271373
 30
0.0
 11
-1717.658031105516
 21
-3222.848713271378
 31
0.0
  0
LINE
  5
485
330
1F
100
AcDbEntity
  8
仕上げ
  6
Continuous
 62
     7
370
     9
100
AcDbLine
 10
-988.6580768818773
 20
-3231.848713271372
 30
0.0
 11
-1717.658031105516
 21
-3231.848713271376
 31
0.0
  0
LINE
  5
486
330
1F
100
AcDbEntity
  8
仕上げ
  6
Continuous
 62
     7
370
     9
100
AcDbLine
 10
-988.6580768818773
 20
-3240.848713271373
 30
0.0
 11
-1717.658031105516
 21
-3240.848713271376
 31
0.0
  0
MTEXT
  5
487
330
1F
100
AcDbEntity
  8
0-A_文字
  6
Continuous
 62
     7
370
     0
100
AcDbMText
 10
-2780.175470554396
 20
-3147.23932427551
 30
0.0
 40
91.44
 41
240.0
 46
0.0
 71
     7
 72
     1
  1
{\fＭＳ ゴシック|b0|i0|c128|p49;畳寄}
 73
     1
 44
1.0
  0
LINE
  5
488
330
1F
100
AcDbEntity
  8
0-A_文字
  6
Continuous
 62
     7
370
     9
100
AcDbLine
 10
-2549.736103387874
 20
-3072.95932427551
 30
0.0
 11
-2510.175470554396
 21
-3072.95932427551
 31
0.0
  0
LINE
  5
489
330
1F
100
AcDbEntity
  8
0-A_文字
  6
Continuous
 62
     7
370
     9
100
AcDbLine
 10
-2450.397332876008
 20
-3215.289102499413
 30
0.0
 11
-2510.175470554396
 21
-3072.95932427551
 31
0.0
  0
LINE
  5
48A
330
1F
100
AcDbEntity
  8
仕上げ
  6
Continuous
 62
    40
370
    15
100
AcDbLine
 10
-2485.658076881885
 20
-3258.849016271396
 30
0.0
 11
-2485.658076881888
 21
-3186.84891926503
 31
0.0
  0
LINE
  5
48B
330
1F
100
AcDbEntity
  8
仕上げ
  6
Continuous
 62
    40
370
    15
100
AcDbLine
 10
-2395.658076881885
 20
-3258.849016271396
 30
0.0
 11
-2395.658076881885
 21
-3186.84891926503
 31
0.0
  0
LINE
  5
48C
330
1F
100
AcDbEntity
  8
仕上げ
  6
Continuous
 62
    40
370
    15
100
AcDbLine
 10
-2395.658076881885
 20
-3186.849016271395
 30
0.0
 11
-2485.658076881885
 21
-3186.849016271395
 31
0.0
  0
LINE
  5
48D
330
1F
100
AcDbEntity
  8
仕上げ
  6
Continuous
 62
    40
370
    15
100
AcDbLine
 10
-2485.658076881885
 20
-3258.849016271396
 30
0.0
 11
-2395.658076881885
 21
-3258.849016271396
 31
0.0
  0
LINE
  5
48E
330
1F
100
AcDbEntity
  8
ハッチ
  6
Continuous
 62
   120
370
     5
100
AcDbLine
 10
-2414.363400682643
 20
-3258.849016271404
 30
0.0
 11
-2395.658076881881
 21
-3240.143692470641
 31
0.0
  0
LINE
  5
48F
330
1F
100
AcDbEntity
  8
ハッチ
  6
Continuous
 62
   120
370
     5
100
AcDbLine
 10
-2473.760370302277
 20
-3258.849016271391
 30
0.0
 11
-2401.760370302284
 21
-3186.849016271398
 31
0.0
  0
LINE
  5
490
330
1F
100
AcDbEntity
  8
ハッチ
  6
Continuous
 62
   120
370
     5
100
AcDbLine
 10
-2485.658076881882
 20
-3211.349753231294
 30
0.0
 11
-2461.157339921976
 21
-3186.849016271388
 31
0.0
  0
LINE
  5
491
330
1F
100
AcDbEntity
  8
0-B_寸法
  6
Continuous
 62
   120
370
     5
100
AcDbLine
 10
-1717.658076881881
 20
-3498.848713271378
 30
0.0
 11
-2395.658076881882
 21
-3498.848713271378
 31
0.0
  0
LWPOLYLINE
  5
492
330
1F
100
AcDbEntity
  8
0-B_寸法
  6
Continuous
 62
     7
370
     9
100
AcDbPolyline
 90
        4
 70
     1
 43
3.0
 10
-1716.158076881881
 20
-3498.848713271378
 42
0.4142135623731
 10
-1717.658076881881
 20
-3497.348713271378
 42
0.4142135623731
 10
-1719.158076881881
 20
-3498.848713271378
 42
0.4142135623731
 10
-1717.658076881881
 20
-3500.348713271378
 42
0.4142135623731
  0
LWPOLYLINE
  5
493
330
1F
100
AcDbEntity
  8
0-B_寸法
  6
Continuous
 62
     7
370
     9
100
AcDbPolyline
 90
        4
 70
     1
 43
3.0
 10
-2394.158076881882
 20
-3498.848713271378
 42
0.4142135623731
 10
-2395.658076881882
 20
-3497.348713271378
 42
0.4142135623731
 10
-2397.158076881882
 20
-3498.848713271378
 42
0.4142135623731
 10
-2395.658076881882
 20
-3500.348713271378
 42
0.4142135623731
  0
LINE
  5
494
330
1F
100
AcDbEntity
  8
0-B_寸法
  6
Continuous
 62
   120
370
     5
100
AcDbLine
 10
-1717.658076881881
 20
-3498.848713271378
 30
0.0
 11
-1717.658076881881
 21
-3318.848713271378
 31
0.0
  0
LINE
  5
495
330
1F
100
AcDbEntity
  8
0-B_寸法
  6
Continuous
 62
   120
370
     5
100
AcDbLine
 10
-2395.658076881882
 20
-3498.848713271378
 30
0.0
 11
-2395.658076881882
 21
-3318.848713271378
 31
0.0
  0
MTEXT
  5
496
330
1F
100
AcDbEntity
  8
0-B_寸法
  6
Continuous
 62
     7
370
   211
100
AcDbMText
 10
-2154.158076881882
 20
-3494.318713271378
 30
0.0
 40
99.06
 41
195.0
 46
0.0
 71
     7
 72
     1
  1
{\fＭＳ ゴシック|b0|i0|c128|p49;113}
 73
     1
 44
1.0
  0
LINE
  5
497
330
1F
100
AcDbEntity
  8
0-A_文字
  6
Continuous
 62
     7
370
     9
100
AcDbLine
 10
-1003.658076881882
 20
-1824.848713002948
 30
0.0
 11
-1003.658076881882
 21
-2064.848713002949
 31
0.0
  0
LINE
  5
498
330
1F
100
AcDbEntity
  8
0-A_文字
  6
Continuous
 62
     7
370
     9
100
AcDbLine
 10
-1603.658076881881
 20
-2064.848713002949
 30
0.0
 11
-1603.658076881881
 21
-1824.848713002948
 31
0.0
  0
LINE
  5
499
330
1F
100
AcDbEntity
  8
0-A_文字
  6
Continuous
 62
     7
370
     9
100
AcDbLine
 10
-1003.658076881882
 20
-2064.848713002949
 30
0.0
 11
-1603.658076881881
 21
-2064.848713002949
 31
0.0
  0
LINE
  5
49A
330
1F
100
AcDbEntity
  8
0-A_文字
  6
Continuous
 62
     7
370
     9
100
AcDbLine
 10
-1603.658076881881
 20
-1824.848713002948
 30
0.0
 11
-1003.658076881882
 21
-1824.848713002948
 31
0.0
  0
MTEXT
  5
49B
330
1F
100
AcDbEntity
  8
0-A_文字
  6
Continuous
 62
     7
370
     9
100
AcDbMText
 10
-1543.658076881889
 20
-2019.128713002948
 30
0.0
 40
91.4400000000026
 41
480.0000000000136
 46
0.0
 71
     7
 72
     1
  1
{\fＭＳ ゴシック|b0|i0|c128|p49;洋室側・}
 73
     1
 44
1.0
  0
LINE
  5
49C
330
1F
100
AcDbEntity
  8
0-A_文字
  6
Continuous
 62
     7
370
     9
100
AcDbLine
 10
-2521.658076881881
 20
-1824.848713002948
 30
0.0
 11
-2521.658076881881
 21
-2064.848713002949
 31
0.0
  0
LINE
  5
49D
330
1F
100
AcDbEntity
  8
0-A_文字
  6
Continuous
 62
     7
370
     9
100
AcDbLine
 10
-3121.658076881881
 20
-2064.848713002949
 30
0.0
 11
-3121.658076881881
 21
-1824.848713002948
 31
0.0
  0
LINE
  5
49E
330
1F
100
AcDbEntity
  8
0-A_文字
  6
Continuous
 62
     7
370
     9
100
AcDbLine
 10
-2521.658076881881
 20
-2064.848713002949
 30
0.0
 11
-3121.658076881881
 21
-2064.848713002949
 31
0.0
  0
LINE
  5
49F
330
1F
100
AcDbEntity
  8
0-A_文字
  6
Continuous
 62
     7
370
     9
100
AcDbLine
 10
-3121.658076881881
 20
-1824.848713002948
 30
0.0
 11
-2521.658076881881
 21
-1824.848713002948
 31
0.0
  0
MTEXT
  5
4A0
330
1F
100
AcDbEntity
  8
0-A_文字
  6
Continuous
 62
     7
370
     9
100
AcDbMText
 10
-3061.658076881881
 20
-2019.128713002949
 30
0.0
 40
91.44
 41
480.0
 46
0.0
 71
     7
 72
     1
  1
{\fＭＳ ゴシック|b0|i0|c128|p49;和室側・}
 73
     1
 44
1.0
  0
MTEXT
  5
4A1
330
1F
100
AcDbEntity
  8
F-A_文字
  6
Continuous
 62
     7
370
     0
100
AcDbMText
 10
3569.917643811961
 20
-3946.903115907308
 30
0.0
 40
76.19999999999999
 41
150.0
 46
0.0
 71
     7
 72
     1
  1
{\fＭＳ ゴシック|b0|i0|c128|p49;1/5}
 73
     1
 44
1.0
  0
MTEXT
  5
4A2
330
1F
100
AcDbEntity
  8
0-A_文字
  6
Continuous
 62
     7
370
     0
100
AcDbMText
 10
1087.418562624859
 20
-675.1287132713743
 30
0.0
 40
91.43999999999998
 41
1200.0
 46
0.0
 71
     7
 72
     1
  1
{\fＭＳ ゴシック|b0|i0|c128|p49;フロアー貼り込み位置}
 73
     1
 44
1.0
  0
LINE
  5
4A3
330
1F
100
AcDbEntity
  8
1-B_寸法
  6
Continuous
 62
   120
370
     5
100
AcDbLine
 10
792.3484420268995
 20
-3162.56966842135
 30
0.0
 11
792.3484420268995
 21
-2937.56891025027
 31
0.0
  0
LWPOLYLINE
  5
4A4
330
1F
100
AcDbEntity
  8
1-B_寸法
  6
Continuous
 62
     7
370
     9
100
AcDbPolyline
 90
        4
 70
     1
 43
3.0
 10
793.8484420268995
 20
-3162.56966842135
 42
0.4142135623731
 10
792.3484420268995
 20
-3161.06966842135
 42
0.4142135623731
 10
790.8484420268995
 20
-3162.56966842135
 42
0.4142135623731
 10
792.3484420268995
 20
-3164.06966842135
 42
0.4142135623731
  0
LWPOLYLINE
  5
4A5
330
1F
100
AcDbEntity
  8
1-B_寸法
  6
Continuous
 62
     7
370
     9
100
AcDbPolyline
 90
        4
 70
     1
 43
3.0
 10
793.8484420268995
 20
-2937.56891025027
 42
0.4142135623731
 10
792.3484420268995
 20
-2936.06891025027
 42
0.4142135623731
 10
790.8484420268995
 20
-2937.56891025027
 42
0.4142135623731
 10
792.3484420268995
 20
-2939.06891025027
 42
0.4142135623731
  0
LINE
  5
4A6
330
1F
100
AcDbEntity
  8
1-B_寸法
  6
Continuous
 62
   120
370
     5
100
AcDbLine
 10
792.3484420268995
 20
-3162.56966842135
 30
0.0
 11
894.9887261396726
 21
-3162.56966842135
 31
0.0
  0
LINE
  5
4A7
330
1F
100
AcDbEntity
  8
1-B_寸法
  6
Continuous
 62
   120
370
     5
100
AcDbLine
 10
792.3484420268995
 20
-2937.56891025027
 30
0.0
 11
894.9887261396726
 21
-2937.56891025027
 31
0.0
  0
MTEXT
  5
4A8
330
1F
100
AcDbEntity
  8
1-B_寸法
  6
Continuous
 62
     7
370
   211
100
AcDbMText
 10
777.3484420268995
 20
-3125.24178933581
 30
0.0
 40
97.15499999999999
 41
127.5
 46
0.0
 71
     7
 72
     1
  1
{\fＭＳ ゴシック|b0|i0|c128|p49;15}
 11
6.123031769111886E-17
 21
1.0
 31
0.0
 73
     1
 44
1.0
  0
MTEXT
  5
4A9
330
1F
100
AcDbEntity
  8
0-A_文字
  6
Continuous
 62
     7
370
     0
100
AcDbMText
 10
1199.918584083286
 20
-2394.226599031168
 30
0.0
 40
91.44
 41
1080.0
 46
0.0
 71
     7
 72
     1
  1
{\fＭＳ ゴシック|b0|i0|c128|p49;敷居詳細図 (S=1/2)}
 73
     1
 44
1.0
  0
LINE
  5
4AA
330
1F
100
AcDbEntity
  8
0-A_文字
  6
Continuous
 62
    92
370
    13
100
AcDbLine
 10
2909.918584083287
 20
-510.8487132713743
 30
0.0
 11
2909.918584083287
 21
-3378.848919265027
 31
0.0
  0
LINE
  5
4AB
330
1F
100
AcDbEntity
  8
0-A_文字
  6
Continuous
 62
    92
370
    13
100
AcDbLine
 10
2909.918584083287
 20
-3378.848919265027
 30
0.0
 11
509.9185840832861
 21
-3378.848919265027
 31
0.0
  0
LINE
  5
4AC
330
1F
100
AcDbEntity
  8
0-A_文字
  6
Continuous
 62
    92
370
    13
100
AcDbLine
 10
509.9185840832861
 20
-3378.848919265027
 30
0.0
 11
509.9185840832861
 21
-510.8487132713743
 31
0.0
  0
LINE
  5
4AD
330
1F
100
AcDbEntity
  8
0-A_文字
  6
Continuous
 62
    92
370
    13
100
AcDbLine
 10
2909.918584083287
 20
-2410.002927911375
 30
0.0
 11
509.9185840832861
 21
-2410.002927911375
 31
0.0
  0
LINE
  5
4AE
330
1F
100
AcDbEntity
  8
0-A_文字
  6
Continuous
 62
    92
370
    13
100
AcDbLine
 10
2909.918584083287
 20
-510.8487132713743
 30
0.0
 11
509.9185840832861
 21
-510.8487132713743
 31
0.0
  0
LINE
  5
4AF
330
1F
100
AcDbEntity
  8
0-A_文字
  6
Continuous
 62
    92
370
    13
100
AcDbLine
 10
2909.918584083287
 20
-690.8487132713743
 30
0.0
 11
509.9185840832861
 21
-690.8487132713743
 31
0.0
  0
LINE
  5
4B0
330
1F
100
AcDbEntity
  8
0-A_文字
  6
Continuous
 62
    92
370
    13
100
AcDbLine
 10
2909.918584083287
 20
-2230.002927911375
 30
0.0
 11
509.9185840832861
 21
-2230.002927911375
 31
0.0
  0
LINE
  5
4B1
330
1F
100
AcDbEntity
  8
1-B_寸法
  6
Continuous
 62
   120
370
     5
100
AcDbLine
 10
1502.488726139674
 20
-2787.568395937212
 30
0.0
 11
1502.488726139674
 21
-2892.568395937212
 31
0.0
  0
LWPOLYLINE
  5
4B2
330
1F
100
AcDbEntity
  8
1-B_寸法
  6
Continuous
 62
     7
370
     9
100
AcDbPolyline
 90
        4
 70
     1
 43
3.0
 10
1503.988726139674
 20
-2787.568395937212
 42
0.4142135623731
 10
1502.488726139674
 20
-2786.068395937212
 42
0.4142135623731
 10
1500.988726139674
 20
-2787.568395937212
 42
0.4142135623731
 10
1502.488726139674
 20
-2789.068395937212
 42
0.4142135623731
  0
LINE
  5
4B3
330
1F
100
AcDbEntity
  8
1-B_寸法
  6
Continuous
 62
   120
370
     5
100
AcDbLine
 10
2634.988726139673
 20
-2622.568395937212
 30
0.0
 11
2634.988726139673
 21
-2892.568395937212
 31
0.0
  0
LINE
  5
4B4
330
1F
100
AcDbEntity
  8
1-B_寸法
  6
Continuous
 62
   120
370
     5
100
AcDbLine
 10
939.9887261396726
 20
-2787.568395937212
 30
0.0
 11
1502.488726139674
 21
-2787.568395937212
 31
0.0
  0
LWPOLYLINE
  5
4B5
330
1F
100
AcDbEntity
  8
1-B_寸法
  6
Continuous
 62
     7
370
     9
100
AcDbPolyline
 90
        4
 70
     1
 43
3.0
 10
2636.488726139673
 20
-2622.568395937212
 42
0.4142135623731
 10
2634.988726139673
 20
-2621.068395937212
 42
0.4142135623731
 10
2633.488726139673
 20
-2622.568395937212
 42
0.4142135623731
 10
2634.988726139673
 20
-2624.068395937212
 42
0.4142135623731
  0
ARC
  5
4B6
330
1F
100
AcDbEntity
  8
1-7_金物
  6
Continuous
 62
     7
370
     9
100
AcDbCircle
 10
1443.132224756282
 20
-2945.071168421352
 30
0.0
 40
7.500000000000213
100
AcDbArc
 50
44.99999999999995
 51
89.99999999999996
  0
ARC
  5
4B7
330
1F
100
AcDbEntity
  8
1-7_金物
  6
Continuous
 62
     7
370
     9
100
AcDbCircle
 10
1470.603224756283
 20
-2955.571168421356
 30
0.0
 40
4.500000000000128
100
AcDbArc
 50
224.9999999999999
 51
269.9999999999999
  0
ARC
  5
4B8
330
1F
100
AcDbEntity
  8
1-7_金物
  6
Continuous
 62
     7
370
     9
100
AcDbCircle
 10
1475.488724756282
 20
-2963.071168421352
 30
0.0
 40
3.000000000000086
100
AcDbArc
 50
359.9999999999999
 51
89.99999999999997
  0
ARC
  5
4B9
330
1F
100
AcDbEntity
  8
1-7_金物
  6
Continuous
 62
     7
370
     9
100
AcDbCircle
 10
1529.488724756284
 20
-2963.071168421352
 30
0.0
 40
3.000000000000086
100
AcDbArc
 50
89.99999999999997
 51
180.0
  0
ARC
  5
4BA
330
1F
100
AcDbEntity
  8
1-7_金物
  6
Continuous
 62
     7
370
     9
100
AcDbCircle
 10
1561.845224756285
 20
-2945.071168421352
 30
0.0
 40
7.500000000000213
100
AcDbArc
 50
89.99999999999996
 51
135.0
  0
ARC
  5
4BB
330
1F
100
AcDbEntity
  8
1-7_金物
  6
Continuous
 62
     7
370
     9
100
AcDbCircle
 10
1534.374224756283
 20
-2955.571168421356
 30
0.0
 40
4.500000000000128
100
AcDbArc
 50
270.0
 51
315.0
  0
ARC
  5
4BC
330
1F
100
AcDbEntity
  8
1-7_金物
  6
Continuous
 62
     7
370
     9
100
AcDbCircle
 10
1440.988724756283
 20
-3008.069668421354
 30
0.0
 40
3.000000000000086
100
AcDbArc
 50
89.99999999999987
 51
201.6159999999999
  0
ARC
  5
4BD
330
1F
100
AcDbEntity
  8
1-7_金物
  6
Continuous
 62
     7
370
     9
100
AcDbCircle
 10
1482.988724756284
 20
-3000.569668421353
 30
0.0
 40
4.500000000000128
100
AcDbArc
 50
179.9999999999999
 51
269.9999999999999
  0
ARC
  5
4BE
330
1F
100
AcDbEntity
  8
1-7_金物
  6
Continuous
 62
     7
370
     9
100
AcDbCircle
 10
1521.988724756283
 20
-3000.569668421353
 30
0.0
 40
4.500000000000128
100
AcDbArc
 50
269.9999999999999
 51
359.9999999999999
  0
ARC
  5
4BF
330
1F
100
AcDbEntity
  8
1-7_金物
  6
Continuous
 62
     7
370
     9
100
AcDbCircle
 10
1563.988724756282
 20
-3008.069668421354
 30
0.0
 40
3.000000000000086
100
AcDbArc
 50
338.384
 51
89.99999999999997
  0
ARC
  5
4C0
330
1F
100
AcDbEntity
  8
1-7_金物
  6
Continuous
 62
     7
370
     9
100
AcDbCircle
 10
1404.990224756283
 20
-2986.111168421355
 30
0.0
 40
45.00000000000129
100
AcDbArc
 50
0.0
 51
48.18999999999998
  0
ARC
  5
4C1
330
1F
100
AcDbEntity
  8
1-7_金物
  6
Continuous
 62
     7
370
     9
100
AcDbCircle
 10
1599.98872475628
 20
-2986.111168421355
 30
0.0
 40
45.00000000000129
100
AcDbArc
 50
131.81
 51
180.0
  0
LINE
  5
4C2
330
1F
100
AcDbEntity
  8
1-7_金物
  6
Continuous
 62
     7
370
     9
100
AcDbLine
 10
1434.988724756285
 20
-2937.571168421355
 30
0.0
 11
1443.132224756282
 21
-2937.571168421355
 31
0.0
  0
LINE
  5
4C3
330
1F
100
AcDbEntity
  8
1-7_金物
  6
Continuous
 62
     7
370
     9
100
AcDbLine
 10
1434.988724756285
 20
-2952.571168421353
 30
0.0
 11
1434.988724756285
 21
-2937.571168421355
 31
0.0
  0
LINE
  5
4C4
330
1F
100
AcDbEntity
  8
1-7_金物
  6
Continuous
 62
     7
370
     9
100
AcDbLine
 10
1470.603224756283
 20
-2960.071168421352
 30
0.0
 11
1475.488724756282
 21
-2960.071168421352
 31
0.0
  0
LINE
  5
4C5
330
1F
100
AcDbEntity
  8
1-7_金物
  6
Continuous
 62
     7
370
     9
100
AcDbLine
 10
1467.42172475628
 20
-2958.752668421355
 30
0.0
 11
1448.436224756286
 21
-2939.767168421353
 31
0.0
  0
LINE
  5
4C6
330
1F
100
AcDbEntity
  8
1-7_金物
  6
Continuous
 62
     7
370
     9
100
AcDbLine
 10
1534.374224756283
 20
-2960.071168421352
 30
0.0
 11
1529.488724756284
 21
-2960.071168421352
 31
0.0
  0
LINE
  5
4C7
330
1F
100
AcDbEntity
  8
1-7_金物
  6
Continuous
 62
     7
370
     9
100
AcDbLine
 10
1537.557224756283
 20
-2958.752668421355
 30
0.0
 11
1556.541224756281
 21
-2939.767168421353
 31
0.0
  0
LINE
  5
4C8
330
1F
100
AcDbEntity
  8
1-7_金物
  6
Continuous
 62
     7
370
     9
100
AcDbLine
 10
1449.98872475628
 20
-3005.069668421352
 30
0.0
 11
1440.988724756283
 21
-3005.069668421352
 31
0.0
  0
LINE
  5
4C9
330
1F
100
AcDbEntity
  8
1-7_金物
  6
Continuous
 62
     7
370
     9
100
AcDbLine
 10
1449.98872475628
 20
-3005.069668421352
 30
0.0
 11
1449.98872475628
 21
-2986.111168421355
 31
0.0
  0
LINE
  5
4CA
330
1F
100
AcDbEntity
  8
1-7_金物
  6
Continuous
 62
     7
370
     9
100
AcDbLine
 10
1497.988724756282
 20
-3005.069668421352
 30
0.0
 11
1482.988724756284
 21
-3005.069668421352
 31
0.0
  0
LINE
  5
4CB
330
1F
100
AcDbEntity
  8
1-7_金物
  6
Continuous
 62
     7
370
     9
100
AcDbLine
 10
1461.988724756286
 20
-3027.569668421354
 30
0.0
 11
1464.988724756284
 21
-3024.569668421356
 31
0.0
  0
LINE
  5
4CC
330
1F
100
AcDbEntity
  8
1-7_金物
  6
Continuous
 62
     7
370
     9
100
AcDbLine
 10
1461.988724756286
 20
-3027.569668421354
 30
0.0
 11
1445.488724756284
 21
-3027.569668421354
 31
0.0
  0
LINE
  5
4CD
330
1F
100
AcDbEntity
  8
1-7_金物
  6
Continuous
 62
     7
370
     9
100
AcDbLine
 10
1464.988724756284
 20
-3024.569668421356
 30
0.0
 11
1467.988724756281
 21
-3027.569668421354
 31
0.0
  0
LINE
  5
4CE
330
1F
100
AcDbEntity
  8
1-7_金物
  6
Continuous
 62
     7
370
     9
100
AcDbLine
 10
1445.488724756284
 20
-3027.569668421354
 30
0.0
 11
1438.200224756286
 21
-3009.175168421351
 31
0.0
  0
LINE
  5
4CF
330
1F
100
AcDbEntity
  8
1-7_金物
  6
Continuous
 62
     7
370
     9
100
AcDbLine
 10
1506.988724756283
 20
-3005.069668421352
 30
0.0
 11
1502.488724756284
 21
-3009.569668421356
 31
0.0
  0
LINE
  5
4D0
330
1F
100
AcDbEntity
  8
1-7_金物
  6
Continuous
 62
     7
370
     9
100
AcDbLine
 10
1521.988724756283
 20
-3005.069668421352
 30
0.0
 11
1506.988724756283
 21
-3005.069668421352
 31
0.0
  0
LINE
  5
4D1
330
1F
100
AcDbEntity
  8
1-7_金物
  6
Continuous
 62
     7
370
     9
100
AcDbLine
 10
1554.988724756282
 20
-3005.069668421352
 30
0.0
 11
1563.988724756282
 21
-3005.069668421352
 31
0.0
  0
LINE
  5
4D2
330
1F
100
AcDbEntity
  8
1-7_金物
  6
Continuous
 62
     7
370
     9
100
AcDbLine
 10
1554.988724756282
 20
-3005.069668421352
 30
0.0
 11
1554.988724756282
 21
-2986.111168421355
 31
0.0
  0
LINE
  5
4D3
330
1F
100
AcDbEntity
  8
1-7_金物
  6
Continuous
 62
     7
370
     9
100
AcDbLine
 10
1542.988724756281
 20
-3027.569668421354
 30
0.0
 11
1539.988724756284
 21
-3024.569668421356
 31
0.0
  0
LINE
  5
4D4
330
1F
100
AcDbEntity
  8
1-7_金物
  6
Continuous
 62
     7
370
     9
100
AcDbLine
 10
1539.988724756284
 20
-3024.569668421356
 30
0.0
 11
1536.988724756286
 21
-3027.569668421354
 31
0.0
  0
LINE
  5
4D5
330
1F
100
AcDbEntity
  8
1-7_金物
  6
Continuous
 62
     7
370
     9
100
AcDbLine
 10
1542.988724756281
 20
-3027.569668421354
 30
0.0
 11
1559.488724756283
 21
-3027.569668421354
 31
0.0
  0
LINE
  5
4D6
330
1F
100
AcDbEntity
  8
1-7_金物
  6
Continuous
 62
     7
370
     9
100
AcDbLine
 10
1559.488724756283
 20
-3027.569668421354
 30
0.0
 11
1566.777224756281
 21
-3009.175168421351
 31
0.0
  0
LINE
  5
4D7
330
1F
100
AcDbEntity
  8
1-7_金物
  6
Continuous
 62
     7
370
     9
100
AcDbLine
 10
1502.488724756284
 20
-3009.569668421356
 30
0.0
 11
1497.988724756282
 21
-3005.069668421352
 31
0.0
  0
LINE
  5
4D8
330
1F
100
AcDbEntity
  8
1-7_金物
  6
Continuous
 62
     7
370
     9
100
AcDbLine
 10
1467.988724756281
 20
-3027.569668421354
 30
0.0
 11
1536.988724756286
 21
-3027.569668421354
 31
0.0
  0
LINE
  5
4D9
330
1F
100
AcDbEntity
  8
1-7_金物
  6
Continuous
 62
     7
370
     9
100
AcDbLine
 10
1526.488724756282
 20
-3000.569668421353
 30
0.0
 11
1526.488724756282
 21
-2963.071168421352
 31
0.0
  0
LINE
  5
4DA
330
1F
100
AcDbEntity
  8
1-7_金物
  6
Continuous
 62
     7
370
     9
100
AcDbLine
 10
1478.488724756283
 20
-3000.569668421353
 30
0.0
 11
1478.488724756283
 21
-2963.071168421352
 31
0.0
  0
LINE
  5
4DB
330
1F
100
AcDbEntity
  8
1-7_金物
  6
Continuous
 62
     7
370
     9
100
AcDbLine
 10
1569.988724756282
 20
-2952.571168421353
 30
0.0
 11
1569.988724756282
 21
-2937.571168421355
 31
0.0
  0
LINE
  5
4DC
330
1F
100
AcDbEntity
  8
1-7_金物
  6
Continuous
 62
     7
370
     9
100
AcDbLine
 10
1569.988724756282
 20
-2937.571168421355
 30
0.0
 11
1561.845224756285
 21
-2937.571168421355
 31
0.0
  0
LINE
  5
4DD
330
1F
100
AcDbEntity
  8
1-0_補助線
  6
JWW_HOJO
 62
   120
370
     5
100
AcDbLine
 10
1502.488726139674
 20
-2934.138862777319
 30
0.0
 11
1502.488726139674
 21
-3099.196818520206
 31
0.0
  0
LINE
  5
4DE
330
1F
100
AcDbEntity
  8
1-4_枠
  6
Continuous
 62
    92
370
    13
100
AcDbLine
 10
1568.488726139674
 20
-2937.56891025027
 30
0.0
 11
1568.488726139674
 21
-3027.568910250274
 31
0.0
  0
LINE
  5
4DF
330
1F
100
AcDbEntity
  8
1-4_枠
  6
Continuous
 62
    92
370
    13
100
AcDbLine
 10
1436.488726139675
 20
-3027.568910250274
 30
0.0
 11
1568.488726139674
 21
-3027.568910250274
 31
0.0
  0
LINE
  5
4E0
330
1F
100
AcDbEntity
  8
1-4_枠
  6
Continuous
 62
    92
370
    13
100
AcDbLine
 10
1436.488726139675
 20
-2937.56891025027
 30
0.0
 11
1436.488726139675
 21
-3027.568910250274
 31
0.0
  0
LINE
  5
4E1
330
1F
100
AcDbEntity
  8
1-4_枠
  6
Continuous
 62
    92
370
    13
100
AcDbLine
 10
950.5953278574692
 20
-2937.56891025027
 30
0.0
 11
1436.488726139675
 21
-2937.56891025027
 31
0.0
  0
LINE
  5
4E2
330
1F
100
AcDbEntity
  8
1-4_枠
  6
Continuous
 62
    92
370
    13
100
AcDbLine
 10
947.4887261396726
 20
-2945.068194994531
 30
0.0
 11
1436.488726139675
 21
-2945.068194994531
 31
0.0
  0
MTEXT
  5
4E3
330
1F
100
AcDbEntity
  8
1-B_寸法
  6
Continuous
 62
     7
370
   211
100
AcDbMText
 10
1089.988726139674
 20
-2782.562145937212
 30
0.0
 40
100.0125
 41
262.5
 46
0.0
 71
     7
 72
     1
  1
{\fＭＳ ゴシック|b0|i0|c128|p49;37.5}
 73
     1
 44
1.0
  0
LINE
  5
4E4
330
1F
100
AcDbEntity
  8
1-4_枠
  6
Continuous
 62
    92
370
    13
100
AcDbLine
 10
2634.988726139673
 20
-3162.56966842135
 30
0.0
 11
939.9887261396726
 21
-3162.56966842135
 31
0.0
  0
LINE
  5
4E5
330
1F
100
AcDbEntity
  8
1-B_寸法
  6
Continuous
 62
   120
370
     5
100
AcDbLine
 10
2634.988726139673
 20
-2622.568395937212
 30
0.0
 11
939.9887261396726
 21
-2622.568395937212
 31
0.0
  0
LINE
  5
4E6
330
1F
100
AcDbEntity
  8
1-4_枠
  6
Continuous
 62
    92
370
    13
100
AcDbLine
 10
2634.988726139673
 20
-2948.175511968067
 30
0.0
 11
2634.988726139673
 21
-3162.56966842135
 31
0.0
  0
LINE
  5
4E7
330
1F
100
AcDbEntity
  8
1-4_枠
  6
Continuous
 62
    92
370
    13
100
AcDbLine
 10
2627.488726139673
 20
-3162.570183405488
 30
0.0
 11
2627.488726139673
 21
-2945.068194994531
 31
0.0
  0
LINE
  5
4E8
330
1F
100
AcDbEntity
  8
1-4_枠
  6
Continuous
 62
    92
370
    13
100
AcDbLine
 10
2634.988726139673
 20
-2948.175511968067
 30
0.0
 11
2624.382124421876
 21
-2937.56891025027
 31
0.0
  0
LINE
  5
4E9
330
1F
100
AcDbEntity
  8
1-4_枠
  6
Continuous
 62
    92
370
    13
100
AcDbLine
 10
950.5953278574692
 20
-2937.56891025027
 30
0.0
 11
939.9887261396726
 21
-2948.175511968067
 31
0.0
  0
LINE
  5
4EA
330
1F
100
AcDbEntity
  8
1-4_枠
  6
Continuous
 62
    92
370
    13
100
AcDbLine
 10
947.4887261396726
 20
-3162.570183405488
 30
0.0
 11
947.4887261396726
 21
-2945.068194994531
 31
0.0
  0
LINE
  5
4EB
330
1F
100
AcDbEntity
  8
1-4_枠
  6
Continuous
 62
    92
370
    13
100
AcDbLine
 10
939.9887261396726
 20
-2948.175511968067
 30
0.0
 11
939.9887261396726
 21
-3162.56966842135
 31
0.0
  0
LWPOLYLINE
  5
4EC
330
1F
100
AcDbEntity
  8
1-B_寸法
  6
Continuous
 62
     7
370
     9
100
AcDbPolyline
 90
        4
 70
     1
 43
3.0
 10
941.4887261396726
 20
-2622.568395937212
 42
0.4142135623731
 10
939.9887261396726
 20
-2621.068395937212
 42
0.4142135623731
 10
938.4887261396726
 20
-2622.568395937212
 42
0.4142135623731
 10
939.9887261396726
 20
-2624.068395937212
 42
0.4142135623731
  0
LINE
  5
4ED
330
1F
100
AcDbEntity
  8
1-B_寸法
  6
Continuous
 62
   120
370
     5
100
AcDbLine
 10
939.9887261396726
 20
-2622.568395937212
 30
0.0
 11
939.9887261396726
 21
-2892.568395937212
 31
0.0
  0
LWPOLYLINE
  5
4EE
330
1F
100
AcDbEntity
  8
1-B_寸法
  6
Continuous
 62
     7
370
     9
100
AcDbPolyline
 90
        4
 70
     1
 43
3.0
 10
941.4887261396726
 20
-2787.568395937212
 42
0.4142135623731
 10
939.9887261396726
 20
-2786.068395937212
 42
0.4142135623731
 10
938.4887261396726
 20
-2787.568395937212
 42
0.4142135623731
 10
939.9887261396726
 20
-2789.068395937212
 42
0.4142135623731
  0
MTEXT
  5
4EF
330
1F
100
AcDbEntity
  8
1-B_寸法
  6
Continuous
 62
     7
370
   211
100
AcDbMText
 10
1689.988840580591
 20
-2618.038395937212
 30
0.0
 40
99.06
 41
195.0
 46
0.0
 71
     7
 72
     1
  1
{\fＭＳ ゴシック|b0|i0|c128|p49;113}
 73
     1
 44
1.0
  0
LINE
  5
4F0
330
1F
100
AcDbEntity
  8
1-B_寸法
  6
Continuous
 62
   120
370
     5
100
AcDbLine
 10
1502.488726139674
 20
-2787.568395937212
 30
0.0
 11
2634.988726139673
 21
-2787.568395937212
 31
0.0
  0
LWPOLYLINE
  5
4F1
330
1F
100
AcDbEntity
  8
1-B_寸法
  6
Continuous
 62
     7
370
     9
100
AcDbPolyline
 90
        4
 70
     1
 43
3.0
 10
2636.488726139673
 20
-2787.568395937212
 42
0.4142135623731
 10
2634.988726139673
 20
-2786.068395937212
 42
0.4142135623731
 10
2633.488726139673
 20
-2787.568395937212
 42
0.4142135623731
 10
2634.988726139673
 20
-2789.068395937212
 42
0.4142135623731
  0
MTEXT
  5
4F2
330
1F
100
AcDbEntity
  8
1-B_寸法
  6
Continuous
 62
     7
370
   211
100
AcDbMText
 10
1937.488726139674
 20
-2782.562145937212
 30
0.0
 40
100.0125
 41
262.5
 46
0.0
 71
     7
 72
     1
  1
{\fＭＳ ゴシック|b0|i0|c128|p49;75.5}
 73
     1
 44
1.0
  0
LINE
  5
4F3
330
1F
100
AcDbEntity
  8
1-4_枠
  6
Continuous
 62
    92
370
    13
100
AcDbLine
 10
2627.488726139673
 20
-2945.068194994531
 30
0.0
 11
1568.488726139674
 21
-2945.068194994531
 31
0.0
  0
LINE
  5
4F4
330
1F
100
AcDbEntity
  8
1-4_枠
  6
Continuous
 62
    92
370
    13
100
AcDbLine
 10
2624.382124421876
 20
-2937.56891025027
 30
0.0
 11
1568.488726139674
 21
-2937.56891025027
 31
0.0
  0
LINE
  5
4F5
330
1F
100
AcDbEntity
  8
0-1_通り芯
  6
JWW_CENTER1
 62
   120
370
     5
100
AcDbLine
 10
1709.918584083287
 20
-930.8487132713743
 30
0.0
 11
1709.918584083287
 21
-2109.890270150964
 31
0.0
  0
MTEXT
  5
4F6
330
1F
100
AcDbEntity
  8
0-A_文字
  6
Continuous
 62
     7
370
     9
100
AcDbMText
 10
2080.44959927879
 20
-1157.497320518036
 30
0.0
 40
91.44
 41
600.0
 46
0.0
 71
     7
 72
     1
  1
{\fＭＳ ゴシック|b0|i0|c128|p49;（洋室側）}
 73
     1
 44
1.0
  0
MTEXT
  5
4F7
330
1F
100
AcDbEntity
  8
0-A_文字
  6
Continuous
 62
     7
370
     9
100
AcDbMText
 10
697.4794987357983
 20
-1174.311153142369
 30
0.0
 40
91.44000000000001
 41
600.0000000000001
 46
0.0
 71
     7
 72
     1
  1
{\fＭＳ ゴシック|b0|i0|c128|p49;（和室側）}
 73
     1
 44
1.0
  0
LINE
  5
4F8
330
1F
100
AcDbEntity
  8
0-4_枠
  6
Continuous
 62
    92
370
    13
100
AcDbLine
 10
1370.918584083285
 20
-990.8487132713743
 30
0.0
 11
1370.918584083285
 21
-2049.890270150964
 31
0.0
  0
LINE
  5
4F9
330
1F
100
AcDbEntity
  8
0-4_枠
  6
Continuous
 62
    92
370
    13
100
AcDbLine
 10
2048.918584083287
 20
-990.8487132713743
 30
0.0
 11
2048.918584083287
 21
-2049.890270150964
 31
0.0
  0
LINE
  5
4FA
330
1F
100
AcDbEntity
  8
0-B_寸法
  6
Continuous
 62
   120
370
     5
100
AcDbLine
 10
1370.918584083285
 20
-1473.229256925271
 30
0.0
 11
1709.918584083287
 21
-1473.229256925271
 31
0.0
  0
LWPOLYLINE
  5
4FB
330
1F
100
AcDbEntity
  8
0-B_寸法
  6
Continuous
 62
     7
370
     9
100
AcDbPolyline
 90
        4
 70
     1
 43
3.0
 10
1372.418584083285
 20
-1473.229256925271
 42
0.4142135623731
 10
1370.918584083285
 20
-1471.729256925271
 42
0.4142135623731
 10
1369.418584083285
 20
-1473.229256925271
 42
0.4142135623731
 10
1370.918584083285
 20
-1474.72925692527
 42
0.4142135623731
  0
LWPOLYLINE
  5
4FC
330
1F
100
AcDbEntity
  8
0-B_寸法
  6
Continuous
 62
     7
370
     9
100
AcDbPolyline
 90
        4
 70
     1
 43
3.0
 10
1711.418584083287
 20
-1473.229256925271
 42
0.4142135623731
 10
1709.918584083287
 20
-1471.729256925271
 42
0.4142135623731
 10
1708.418584083287
 20
-1473.229256925271
 42
0.4142135623731
 10
1709.918584083287
 20
-1474.72925692527
 42
0.4142135623731
  0
MTEXT
  5
4FD
330
1F
100
AcDbEntity
  8
0-B_寸法
  6
Continuous
 62
     7
370
   211
100
AcDbMText
 10
1409.168584083287
 20
-1468.223006925271
 30
0.0
 40
100.0125
 41
262.5
 46
0.0
 71
     7
 72
     1
  1
{\fＭＳ ゴシック|b0|i0|c128|p49;56.5}
 73
     1
 44
1.0
  0
LINE
  5
4FE
330
1F
100
AcDbEntity
  8
0-B_寸法
  6
Continuous
 62
   120
370
     5
100
AcDbLine
 10
1709.918584083287
 20
-1473.229256925271
 30
0.0
 11
2048.918584083287
 21
-1473.229256925271
 31
0.0
  0
LWPOLYLINE
  5
4FF
330
1F
100
AcDbEntity
  8
0-B_寸法
  6
Continuous
 62
     7
370
     9
100
AcDbPolyline
 90
        4
 70
     1
 43
3.0
 10
2050.418584083287
 20
-1473.229256925271
 42
0.4142135623731
 10
2048.918584083287
 20
-1471.729256925271
 42
0.4142135623731
 10
2047.418584083287
 20
-1473.229256925271
 42
0.4142135623731
 10
2048.918584083287
 20
-1474.72925692527
 42
0.4142135623731
  0
MTEXT
  5
500
330
1F
100
AcDbEntity
  8
0-B_寸法
  6
Continuous
 62
     7
370
   211
100
AcDbMText
 10
1748.168584083286
 20
-1468.223006925271
 30
0.0
 40
100.0125
 41
262.5
 46
0.0
 71
     7
 72
     1
  1
{\fＭＳ ゴシック|b0|i0|c128|p49;56.5}
 73
     1
 44
1.0
  0
LINE
  5
501
330
1F
100
AcDbEntity
  8
0-B_寸法
  6
Continuous
 62
   120
370
     5
100
AcDbLine
 10
1370.918584083285
 20
-1661.537110337054
 30
0.0
 11
2048.918584083287
 21
-1661.537110337054
 31
0.0
  0
LWPOLYLINE
  5
502
330
1F
100
AcDbEntity
  8
0-B_寸法
  6
Continuous
 62
     7
370
     9
100
AcDbPolyline
 90
        4
 70
     1
 43
3.0
 10
1372.418584083285
 20
-1661.537110337054
 42
0.4142135623731
 10
1370.918584083285
 20
-1660.037110337054
 42
0.4142135623731
 10
1369.418584083285
 20
-1661.537110337054
 42
0.4142135623731
 10
1370.918584083285
 20
-1663.037110337054
 42
0.4142135623731
  0
LWPOLYLINE
  5
503
330
1F
100
AcDbEntity
  8
0-B_寸法
  6
Continuous
 62
     7
370
     9
100
AcDbPolyline
 90
        4
 70
     1
 43
3.0
 10
2050.418584083287
 20
-1661.537110337054
 42
0.4142135623731
 10
2048.918584083287
 20
-1660.037110337054
 42
0.4142135623731
 10
2047.418584083287
 20
-1661.537110337054
 42
0.4142135623731
 10
2048.918584083287
 20
-1663.037110337054
 42
0.4142135623731
  0
MTEXT
  5
504
330
1F
100
AcDbEntity
  8
0-B_寸法
  6
Continuous
 62
     7
370
   211
100
AcDbMText
 10
1612.418584083287
 20
-1657.007110337054
 30
0.0
 40
99.06
 41
195.0
 46
0.0
 71
     7
 72
     1
  1
{\fＭＳ ゴシック|b0|i0|c128|p49;113}
 73
     1
 44
1.0
  0
LINE
  5
505
330
1F
100
AcDbEntity
  8
0-A_文字
  6
Continuous
 62
     7
370
     9
100
AcDbLine
 10
1146.372772298684
 20
-1928.799679993874
 30
0.0
 11
1205.441305857521
 21
-1928.799679993874
 31
0.0
  0
MTEXT
  5
506
330
1F
100
AcDbEntity
  8
0-A_文字
  6
Continuous
 62
     7
370
     0
100
AcDbMText
 10
885.8087422916558
 20
-2005.727093750634
 30
0.0
 40
91.44
 41
240.0
 46
0.0
 71
     7
 72
     1
  1
{\fＭＳ ゴシック|b0|i0|c128|p49;畳寄}
 73
     1
 44
1.0
  0
MTEXT
  5
507
330
1F
100
AcDbEntity
  8
0-A_文字
  6
Continuous
 62
     7
370
     0
100
AcDbMText
 10
1289.918584083287
 20
-945.1287132713743
 30
0.0
 40
91.44
 41
840.0
 46
0.0
 71
     7
 72
     1
  1
{\fＭＳ ゴシック|b0|i0|c128|p49;壁(枠)センター}
 73
     1
 44
1.0
  0
MTEXT
  5
508
330
1F
100
AcDbEntity
  8
0-A_文字
  6
Continuous
 62
     7
370
     0
100
AcDbMText
 10
2236.565725533221
 20
-1764.457803087088
 30
0.0
 40
91.44
 41
120.0
 46
0.0
 71
     7
 72
     1
  1
{\fＭＳ ゴシック|b0|i0|c128|p49;床}
 73
     1
 44
1.0
  0
LINE
  5
509
330
1F
100
AcDbEntity
  8
仕上げ
  6
Continuous
 62
   120
370
     5
100
AcDbLine
 10
2048.918584083287
 20
-1190.657024647292
 30
0.0
 11
2669.918584083285
 21
-1190.657024647292
 31
0.0
  0
LINE
  5
50A
330
1F
100
AcDbEntity
  8
仕上げ
  6
Continuous
 62
   120
370
     5
100
AcDbLine
 10
2048.918584083287
 20
-1989.890270150964
 30
0.0
 11
2669.918584083285
 21
-1989.890270150964
 31
0.0
  0
LINE
  5
50B
330
1F
100
AcDbEntity
  8
仕上げ
  6
Continuous
 62
   120
370
     5
100
AcDbLine
 10
2048.918584083287
 20
-1390.465336023211
 30
0.0
 11
2669.918584083285
 21
-1390.465336023211
 31
0.0
  0
LINE
  5
50C
330
1F
100
AcDbEntity
  8
仕上げ
  6
Continuous
 62
   120
370
     5
100
AcDbLine
 10
2048.918584083287
 20
-1590.27364739913
 30
0.0
 11
2669.918584083285
 21
-1590.27364739913
 31
0.0
  0
LINE
  5
50D
330
1F
100
AcDbEntity
  8
仕上げ
  6
Continuous
 62
   120
370
     5
100
AcDbLine
 10
2048.918584083287
 20
-1790.081958775047
 30
0.0
 11
2669.918584083285
 21
-1790.081958775047
 31
0.0
  0
LINE
  5
50E
330
1F
100
AcDbEntity
  8
仕上げ
  6
Continuous
 62
    40
370
    15
100
AcDbLine
 10
1280.918584083285
 20
-990.8487132713743
 30
0.0
 11
1280.918584083285
 21
-2049.890270150964
 31
0.0
  0
LINE
  5
50F
330
1F
100
AcDbEntity
  8
0-A_文字
  6
Continuous
 62
     7
370
     9
100
AcDbLine
 10
1331.918584083287
 20
-1833.941721324552
 30
0.0
 11
1205.441305857521
 21
-1928.799679993874
 31
0.0
  0
LINE
  5
510
330
1F
100
AcDbEntity
  8
0-A_文字
  6
Continuous
 62
    92
370
    13
100
AcDbLine
 10
-5659.999495325863
 20
4000.00018145587
 30
0.0
 11
-5659.999495325863
 21
3730.00018145587
 31
0.0
  0
MTEXT
  5
511
330
1F
100
AcDbEntity
  8
0-A_文字
  6
Continuous
 62
    92
370
    13
100
AcDbMText
 10
-5540.535209611578
 20
3758.914181455871
 30
0.0
 40
147.828
 41
2910.0
 46
0.0
 71
     7
 72
     1
  1
{\fＭＳ ゴシック|b0|i0|c128|p49;片引き戸　レールタイプ　調整枠}
 73
     1
 44
1.0
  0
LINE
  5
512
330
1F
100
AcDbEntity
  8
0-A_文字
  6
Continuous
 62
    92
370
    13
100
AcDbLine
 10
-5659.999495325863
 20
4000.00018145587
 30
0.0
 11
-2535.714285714285
 21
4000.00018145587
 31
0.0
  0
LINE
  5
513
330
1F
100
AcDbEntity
  8
0-A_文字
  6
Continuous
 62
    92
370
    13
100
AcDbLine
 10
-5659.999495325863
 20
3730.00018145587
 30
0.0
 11
-2535.714285714285
 21
3730.00018145587
 31
0.0
  0
LINE
  5
514
330
1F
100
AcDbEntity
  8
0-A_文字
  6
Continuous
 62
    92
370
    13
100
AcDbLine
 10
-2535.714285714285
 20
4000.00018145587
 30
0.0
 11
-2535.714285714285
 21
3730.00018145587
 31
0.0
  0
MTEXT
  5
515
330
1F
100
AcDbEntity
  8
F-A_文字
  6
Continuous
 62
     7
370
     0
100
AcDbMText
 10
-5080.081323642279
 20
-4045.22353607839
 30
0.0
 40
79.5528
 41
2610.0
 46
0.0
 71
     7
 72
     1
  1
{\fＭＳ ゴシック|b0|i0|c128|p49;ドレタス　片引き戸　レールタイプ　調整枠　幅広敷居}
 73
     1
 44
1.0
  0
LINE
  5
516
330
1F
100
AcDbEntity
  8
F-0_補助線
  6
JWW_HOJO
 62
     7
370
     9
100
AcDbLine
 10
1109.918584083287
 20
-3795.000003092998
 30
0.0
 11
1109.918584083287
 21
-4195.000008247994
 31
0.0
  0
LINE
  5
517
330
1F
100
AcDbEntity
  8
F-0_補助線
  6
JWW_HOJO
 62
     7
370
     9
100
AcDbLine
 10
4889.917891251784
 20
-3795.000003092998
 30
0.0
 11
4889.917891251784
 21
-4195.000008247994
 31
0.0
  0
MTEXT
  5
518
330
1F
100
AcDbEntity
  8
F-0_補助線
  6
Continuous
 62
     7
370
     0
100
AcDbMText
 10
1109.918584083287
 20
-3945.948259655243
 30
0.0
 40
78.105
 41
615.0
 46
0.0
 71
     7
 72
     1
  1
{\fＭＳ ゴシック|b0|i0|c128|p49;建具納まり図}
 73
     1
 44
1.0
  0
MTEXT
  5
519
330
1F
100
AcDbEntity
  8
F-0_補助線
  6
Continuous
 62
     7
370
     0
100
AcDbMText
 10
509.9185840832865
 20
-3945.709576962234
 30
0.0
 40
78.58125
 41
412.5
 46
0.0
 71
     7
 72
     1
  1
{\fＭＳ ゴシック|b0|i0|c128|p49;DOORETUS}
 73
     1
 44
1.0
  0
LINE
  5
51A
330
1F
100
AcDbEntity
  8
0-1_通り芯
  6
JWW_CENTER1
 62
   120
370
     5
100
AcDbLine
 10
-2170.658076328518
 20
-642.8487132713929
 30
0.0
 11
-2170.658076328518
 21
-3258.848713271377
 31
0.0
  0
LINE
  5
51B
330
1F
100
AcDbEntity
  8
0-1_通り芯
  6
JWW_CENTER1
 62
   120
370
     5
100
AcDbLine
 10
-2056.65807688188
 20
-210.8487132713799
 30
0.0
 11
-2056.65807688188
 21
-3318.848713271378
 31
0.0
  0
LWPOLYLINE
  5
51C
330
1F
100
AcDbEntity
  8
0-B_寸法
  6
Continuous
 62
     7
370
     9
100
AcDbPolyline
 90
        4
 70
     1
 43
3.0
 10
-2169.158076328518
 20
-1764.848840119953
 42
0.4142135623731
 10
-2170.658076328518
 20
-1763.348840119954
 42
0.4142135623731
 10
-2172.158076328518
 20
-1764.848840119953
 42
0.4142135623731
 10
-2170.658076328518
 20
-1766.348840119953
 42
0.4142135623731
  0
LWPOLYLINE
  5
51D
330
1F
100
AcDbEntity
  8
0-B_寸法
  6
Continuous
 62
     7
370
     9
100
AcDbPolyline
 90
        4
 70
     1
 43
3.0
 10
-2055.15807688188
 20
-1764.848840119953
 42
0.4142135623731
 10
-2056.65807688188
 20
-1763.348840119954
 42
0.4142135623731
 10
-2058.15807688188
 20
-1764.848840119953
 42
0.4142135623731
 10
-2056.65807688188
 20
-1766.348840119953
 42
0.4142135623731
  0
LINE
  5
51E
330
1F
100
AcDbEntity
  8
0-1_通り芯
  6
JWW_CENTER1
 62
   120
370
     5
100
AcDbLine
 10
-2312.197792623006
 20
2285.962168973787
 30
0.0
 11
2332.034776066286
 21
2285.962168973787
 31
0.0
  0
LWPOLYLINE
  5
51F
330
1F
100
AcDbEntity
  8
0-B_寸法
  6
Continuous
 62
     7
370
     9
100
AcDbPolyline
 90
        4
 70
     1
 43
3.0
 10
-1699.886822216189
 20
2285.962142944336
 42
0.4142135623731
 10
-1701.386822216189
 20
2287.462142944336
 42
0.4142135623731
 10
-1702.886822216189
 20
2285.962142944336
 42
0.4142135623731
 10
-1701.386822216189
 20
2284.462142944336
 42
0.4142135623731
  0
LWPOLYLINE
  5
520
330
1F
100
AcDbEntity
  8
0-B_寸法
  6
Continuous
 62
     7
370
     9
100
AcDbPolyline
 90
        4
 70
     1
 43
3.0
 10
-1699.886822216189
 20
2171.962168973789
 42
0.4142135623731
 10
-1701.386822216189
 20
2173.462168973789
 42
0.4142135623731
 10
-1702.886822216189
 20
2171.962168973789
 42
0.4142135623731
 10
-1701.386822216189
 20
2170.462168973789
 42
0.4142135623731
  0
MTEXT
  5
521
330
1F
100
AcDbEntity
  8
F-A_文字
  6
Continuous
 62
     7
370
     0
100
AcDbMText
 10
4889.917891251784
 20
-3945.570773120548
 30
0.0
 40
78.86699999999999
 41
517.5
 46
0.0
 71
     7
 72
     1
  1
{\fＭＳ ゴシック|b0|i0|c128|p49;2022.04.01}
 73
     1
 44
1.0
  0
LINE
  5
522
330
1F
100
AcDbEntity
  8
0-6_扉
  6
Continuous
 62
   200
370
    20
100
AcDbLine
 10
-2264.197792623007
 20
2195.962168973789
 30
0.0
 11
-1142.139594776724
 21
2195.962168973789
 31
0.0
  0
MTEXT
  5
523
330
1F
100
AcDbEntity
  8
0-B_寸法
  6
Continuous
 62
     7
370
     0
100
AcDbMText
 10
-2016.386822216189
 20
1966.638367346939
 30
0.0
 40
91.44
 41
180.0
 46
0.0
 71
     7
 72
     1
  1
{\fＭＳ ゴシック|b0|i0|c128|p49;113}
 11
6.123031769111886E-17
 21
1.0
 31
0.0
 73
     1
 44
1.0
  0
MTEXT
  5
524
330
1F
100
AcDbEntity
  8
0-B_寸法
  6
Continuous
 62
     7
370
   211
100
AcDbMText
 10
-1716.386822216189
 20
2021.789655959062
 30
0.0
 40
97.15499999999999
 41
127.5
 46
0.0
 71
     7
 72
     1
  1
{\fＭＳ ゴシック|b0|i0|c128|p49;19}
 11
6.123031769111886E-17
 21
1.0
 31
0.0
 73
     1
 44
1.0
  0
LINE
  5
525
330
1F
100
AcDbEntity
  8
0-B_寸法
  6
Continuous
 62
   120
370
     5
100
AcDbLine
 10
-1701.386822216189
 20
2285.962142944336
 30
0.0
 11
-1701.386822216189
 21
2039.962168973789
 31
0.0
  0
MTEXT
  5
526
330
1F
100
AcDbEntity
  8
0-B_寸法
  6
Continuous
 62
     7
370
     0
100
AcDbMText
 10
2090.259465284126
 20
2211.682168973787
 30
0.0
 40
91.44
 41
120.0
 46
0.0
 71
     7
 72
     1
  1
{\fＭＳ ゴシック|b0|i0|c128|p49;79}
 11
6.123031769111886E-17
 21
1.0
 31
0.0
 73
     1
 44
1.0
  0
LINE
  5
527
330
1F
100
AcDbEntity
  8
0-6_扉
  6
Continuous
 62
   200
370
    20
100
AcDbLine
 10
-2080.658076328518
 20
-822.8487129867983
 30
0.0
 11
-2080.658076328518
 21
-1896.848713271381
 31
0.0
  0
MTEXT
  5
528
330
1F
100
AcDbEntity
  8
0-B_寸法
  6
Continuous
 62
     7
370
     0
100
AcDbMText
 10
-2032.658076328519
 20
-1273.95370961248
 30
0.0
 40
91.44
 41
180.0
 46
0.0
 71
     7
 72
     1
  1
{\fＭＳ ゴシック|b0|i0|c128|p49;110}
 73
     1
 44
1.0
  0
MTEXT
  5
529
330
1F
100
AcDbEntity
  8
0-B_寸法
  6
Continuous
 62
     7
370
   211
100
AcDbMText
 10
-2045.408076605199
 20
-1761.271340119953
 30
0.0
 40
97.15499999999999
 41
127.5
 46
0.0
 71
     7
 72
     1
  1
{\fＭＳ ゴシック|b0|i0|c128|p49;19}
 73
     1
 44
1.0
  0
LINE
  5
52A
330
1F
100
AcDbEntity
  8
0-B_寸法
  6
Continuous
 62
   120
370
     5
100
AcDbLine
 10
-2170.658076328518
 20
-1764.848840119953
 30
0.0
 11
-1924.65807688188
 21
-1764.848840119953
 31
0.0
  0
MTEXT
  5
52B
330
1F
100
AcDbEntity
  8
0-B_寸法
  6
Continuous
 62
     7
370
   211
100
AcDbMText
 10
-2492.853498542274
 20
2754.642698952932
 30
0.0
 40
91.44
 41
60.0
 46
0.0
 71
     7
 72
     1
  1
{\fＭＳ ゴシック|b0|i0|c128|p49;5}
 73
     1
 44
1.0
  0
MTEXT
  5
52C
330
1F
100
AcDbEntity
  8
0-B_寸法
  6
Continuous
 62
     7
370
   211
100
AcDbMText
 10
-2299.285714285714
 20
2892.682713341399
 30
0.0
 40
91.44
 41
120.0
 46
0.0
 71
     7
 72
     1
  1
{\fＭＳ ゴシック|b0|i0|c128|p49;10}
 73
     1
 44
1.0
  0
ENDSEC
  0
SECTION
  2
OBJECTS
  0
DICTIONARY
  5
C
330
0
100
AcDbDictionary
281
     1
  3
ACAD_GROUP
350
D
  3
ACAD_LAYOUT
350
1A
  3
ACAD_MATERIAL
350
3B
  3
ACAD_MLEADERSTYLE
350
52E
  3
ACAD_MLINESTYLE
350
17
  3
ACAD_PLOTSETTINGS
350
19
  3
ACAD_PLOTSTYLENAME
350
E
  3
ACAD_TABLESTYLE
350
52D
  3
ACAD_VISUALSTYLE
350
2A
  0
DICTIONARY
  5
D
102
{ACAD_REACTORS
330
C
102
}
330
C
100
AcDbDictionary
281
     1
  0
DICTIONARY
  5
1A
102
{ACAD_REACTORS
330
C
102
}
330
C
100
AcDbDictionary
281
     1
  3
Layout1
350
1E
  3
Layout2
350
26
  3
Model
350
22
  0
DICTIONARY
  5
3B
102
{ACAD_REACTORS
330
C
102
}
330
C
100
AcDbDictionary
281
     1
  3
ByBlock
350
3D
  3
ByLayer
350
3C
  3
Global
350
3E
  0
DICTIONARY
  5
52E
102
{ACAD_REACTORS
330
C
102
}
330
C
100
AcDbDictionary
281
     1
  0
DICTIONARY
  5
17
102
{ACAD_REACTORS
330
C
102
}
330
C
100
AcDbDictionary
281
     1
  3
Standard
350
18
  0
DICTIONARY
  5
19
102
{ACAD_REACTORS
330
C
102
}
330
C
100
AcDbDictionary
281
     1
  0
ACDBDICTIONARYWDFLT
  5
E
102
{ACAD_REACTORS
330
C
102
}
330
C
100
AcDbDictionary
281
     1
  3
Normal
350
F
100
AcDbDictionaryWithDefault
340
F
  0
DICTIONARY
  5
52D
102
{ACAD_REACTORS
330
C
102
}
330
C
100
AcDbDictionary
281
     1
  0
DICTIONARY
  5
2A
102
{ACAD_REACTORS
330
C
102
}
330
C
100
AcDbDictionary
281
     1
  3
2dWireframe
350
2F
  3
3D Hidden
350
31
  3
3dWireframe
350
30
  3
Basic
350
32
  3
Brighten
350
36
  3
ColorChange
350
3A
  3
Conceptual
350
34
  3
Dim
350
35
  3
Facepattern
350
39
  3
Flat
350
2B
  3
FlatWithEdges
350
2C
  3
Gouraud
350
2D
  3
GouraudWithEdges
350
2E
  3
Linepattern
350
38
  3
Realistic
350
33
  3
Thicken
350
37
  0
LAYOUT
  5
1E
102
{ACAD_REACTORS
330
1A
102
}
330
1A
100
AcDbPlotSettings
  1

  2
none_device
  4

  6

 40
0.0
 41
0.0
 42
0.0
 43
0.0
 44
0.0
 45
0.0
 46
0.0
 47
0.0
 48
0.0
 49
0.0
140
0.0
141
0.0
142
1.0
143
1.0
 70
   688
 72
     0
 73
     0
 74
     5
  7

 75
    16
 76
     0
 77
     5
 78
   300
147
1.0
148
0.0
149
0.0
100
AcDbLayout
  1
Layout1
 70
     1
 71
     1
 10
0.0
 20
0.0
 11
420.0
 21
297.0
 12
0.0
 22
0.0
 32
0.0
 14
1.000000000000000E+20
 24
1.000000000000000E+20
 34
1.000000000000000E+20
 15
-1.000000000000000E+20
 25
-1.000000000000000E+20
 35
-1.000000000000000E+20
146
0.0
 13
0.0
 23
0.0
 33
0.0
 16
1.0
 26
0.0
 36
0.0
 17
0.0
 27
1.0
 37
0.0
 76
     0
330
1B
  0
LAYOUT
  5
26
102
{ACAD_REACTORS
330
1A
102
}
330
1A
100
AcDbPlotSettings
  1

  2
none_device
  4

  6

 40
0.0
 41
0.0
 42
0.0
 43
0.0
 44
0.0
 45
0.0
 46
0.0
 47
0.0
 48
0.0
 49
0.0
140
0.0
141
0.0
142
1.0
143
1.0
 70
   688
 72
     0
 73
     0
 74
     5
  7

 75
    16
 76
     0
 77
     5
 78
   300
147
1.0
148
0.0
149
0.0
100
AcDbLayout
  1
Layout2
 70
     1
 71
     2
 10
0.0
 20
0.0
 11
0.0
 21
0.0
 12
0.0
 22
0.0
 32
0.0
 14
0.0
 24
0.0
 34
0.0
 15
0.0
 25
0.0
 35
0.0
146
0.0
 13
0.0
 23
0.0
 33
0.0
 16
1.0
 26
0.0
 36
0.0
 17
0.0
 27
1.0
 37
0.0
 76
     0
330
23
  0
LAYOUT
  5
22
102
{ACAD_REACTORS
330
1A
102
}
330
1A
100
AcDbPlotSettings
  1

  2
none_device
  4

  6

 40
0.0
 41
0.0
 42
0.0
 43
0.0
 44
0.0
 45
0.0
 46
0.0
 47
0.0
 48
0.0
 49
0.0
140
0.0
141
0.0
142
1.0
143
1.0
 70
  1712
 72
     0
 73
     0
 74
     0
  7

 75
     0
 76
     0
 77
     5
 78
   300
147
1.0
148
0.0
149
0.0
100
AcDbLayout
  1
Model
 70
     1
 71
     0
 10
-8910.0
 20
-6300.0
 11
8910.0
 21
6300.0
 12
0.0
 22
0.0
 32
0.0
 14
-8910.0
 24
-6300.0
 34
0.0
 15
8910.0
 25
6300.0
 35
0.0
146
0.0
 13
0.0
 23
0.0
 33
0.0
 16
1.0
 26
0.0
 36
0.0
 17
0.0
 27
1.0
 37
0.0
 76
     0
330
1F
331
29
  0
MATERIAL
  5
3D
102
{ACAD_REACTORS
330
3B
102
}
330
3B
100
AcDbMaterial
  1
ByBlock
 72
     1
 94
      127
  0
MATERIAL
  5
3C
102
{ACAD_REACTORS
330
3B
102
}
330
3B
100
AcDbMaterial
  1
ByLayer
 72
     1
 94
      127
  0
MATERIAL
  5
3E
102
{ACAD_REACTORS
330
3B
102
}
330
3B
100
AcDbMaterial
  1
Global
 72
     1
 94
      127
  0
MLINESTYLE
  5
18
102
{ACAD_REACTORS
330
17
102
}
330
17
100
AcDbMlineStyle
  2
Standard
 70
     0
  3

 62
   256
 51
90.0
 52
90.0
 71
     2
 49
0.5
 62
   256
  6
BYLAYER
 49
-0.5
 62
   256
  6
BYLAYER
  0
ACDBPLACEHOLDER
  5
F
102
{ACAD_REACTORS
330
E
102
}
330
E
  0
VISUALSTYLE
  5
2F
102
{ACAD_REACTORS
330
2A
102
}
330
2A
100
AcDbVisualStyle
  2
2dWireframe
 70
     4
177
     2
291
     0
 71
     0
176
     1
 72
     2
176
     1
 73
     0
176
     1
 90
        0
176
     1
 40
-0.6
176
     1
 41
-30.0
176
     1
 62
     5
 63
     7
421
 16777215
176
     1
 74
     1
176
     1
 91
        4
176
     1
 64
     7
176
     1
 65
   257
176
     1
 75
     1
176
     1
175
     1
176
     1
 42
1.0
176
     1
 92
        0
176
     1
 66
   257
176
     1
 43
1.0
176
     1
 76
     1
176
     1
 77
     6
176
     1
 78
     2
176
     1
 67
     7
176
     1
 79
     5
176
     1
170
     0
176
     1
171
     0
176
     1
290
     0
176
     1
 93
        1
176
     1
 44
0.0
176
     1
173
     0
176
     1
  0
VISUALSTYLE
  5
31
102
{ACAD_REACTORS
330
2A
102
}
330
2A
100
AcDbVisualStyle
  2
3D Hidden
 70
     6
177
     2
291
     0
 71
     1
176
     1
 72
     2
176
     1
 73
     2
176
     1
 90
        0
176
     1
 40
-0.6
176
     1
 41
-30.0
176
     1
 62
     5
 63
     7
421
 16777215
176
     1
 74
     2
176
     1
 91
        2
176
     1
 64
     7
176
     1
 65
   257
176
     1
 75
     2
176
     1
175
     1
176
     1
 42
40.0
176
     1
 92
        0
176
     1
 66
   257
176
     1
 43
1.0
176
     1
 76
     1
176
     1
 77
     6
176
     1
 78
     2
176
     1
 67
     7
176
     1
 79
     3
176
     1
170
     0
176
     1
171
     0
176
     1
290
     0
176
     1
 93
        1
176
     1
 44
0.0
176
     1
173
     0
176
     1
  0
VISUALSTYLE
  5
30
102
{ACAD_REACTORS
330
2A
102
}
330
2A
100
AcDbVisualStyle
  2
3dWireframe
 70
     5
177
     2
291
     0
 71
     0
176
     1
 72
     2
176
     1
 73
     0
176
     1
 90
        0
176
     1
 40
-0.6
176
     1
 41
-30.0
176
     1
 62
     5
 63
     7
421
 16777215
176
     1
 74
     1
176
     1
 91
        4
176
     1
 64
     7
176
     1
 65
   257
176
     1
 75
     1
176
     1
175
     1
176
     1
 42
1.0
176
     1
 92
        0
176
     1
 66
   257
176
     1
 43
1.0
176
     1
 76
     1
176
     1
 77
     6
176
     1
 78
     2
176
     1
 67
     7
176
     1
 79
     5
176
     1
170
     0
176
     1
171
     0
176
     1
290
     0
176
     1
 93
        1
176
     1
 44
0.0
176
     1
173
     0
176
     1
  0
VISUALSTYLE
  5
32
102
{ACAD_REACTORS
330
2A
102
}
330
2A
100
AcDbVisualStyle
  2
Basic
 70
     7
177
     2
291
     1
 71
     1
176
     1
 72
     0
176
     1
 73
     1
176
     1
 90
        0
176
     1
 40
-0.6
176
     1
 41
-30.0
176
     1
 62
     5
 63
     7
421
 16777215
176
     1
 74
     0
176
     1
 91
        4
176
     1
 64
     7
176
     1
 65
   257
176
     1
 75
     1
176
     1
175
     1
176
     1
 42
1.0
176
     1
 92
        8
176
     1
 66
     7
176
     1
 43
1.0
176
     1
 76
     1
176
     1
 77
     6
176
     1
 78
     2
176
     1
 67
     7
176
     1
 79
     5
176
     1
170
     0
176
     1
171
     0
176
     1
290
     0
176
     1
 93
        1
176
     1
 44
0.0
176
     1
173
     0
176
     1
  0
VISUALSTYLE
  5
36
102
{ACAD_REACTORS
330
2A
102
}
330
2A
100
AcDbVisualStyle
  2
Brighten
 70
    12
177
     2
291
     1
 71
     2
176
     1
 72
     2
176
     1
 73
     0
176
     1
 90
        0
176
     1
 40
-0.6
176
     1
 41
-30.0
176
     1
 62
     5
 63
     7
421
 16777215
176
     1
 74
     1
176
     1
 91
        4
176
     1
 64
     7
176
     1
 65
   257
176
     1
 75
     1
176
     1
175
     1
176
     1
 42
1.0
176
     1
 92
        8
176
     1
 66
     7
176
     1
 43
1.0
176
     1
 76
     1
176
     1
 77
     6
176
     1
 78
     2
176
     1
 67
     7
176
     1
 79
     5
176
     1
170
     0
176
     1
171
     0
176
     1
290
     0
176
     1
 93
        1
176
     1
 44
50.0
176
     1
173
     0
176
     1
  0
VISUALSTYLE
  5
3A
102
{ACAD_REACTORS
330
2A
102
}
330
2A
100
AcDbVisualStyle
  2
ColorChange
 70
    16
177
     2
291
     1
 71
     2
176
     1
 72
     2
176
     1
 73
     3
176
     1
 90
        0
176
     1
 40
-0.6
176
     1
 41
-30.0
176
     1
 62
     5
 63
     8
421
  8421504
176
     1
 74
     1
176
     1
 91
        4
176
     1
 64
     7
176
     1
 65
   257
176
     1
 75
     1
176
     1
175
     1
176
     1
 42
1.0
176
     1
 92
        8
176
     1
 66
     8
424
  8421504
176
     1
 43
1.0
176
     1
 76
     1
176
     1
 77
     6
176
     1
 78
     2
176
     1
 67
     7
176
     1
 79
     5
176
     1
170
     0
176
     1
171
     0
176
     1
290
     0
176
     1
 93
        1
176
     1
 44
0.0
176
     1
173
     0
176
     1
  0
VISUALSTYLE
  5
34
102
{ACAD_REACTORS
330
2A
102
}
330
2A
100
AcDbVisualStyle
  2
Conceptual
 70
     9
177
     2
291
     0
 71
     3
176
     1
 72
     2
176
     1
 73
     0
176
     1
 90
        0
176
     1
 40
-0.6
176
     1
 41
-30.0
176
     1
 62
     5
 63
     7
421
 16777215
176
     1
 74
     2
176
     1
 91
        2
176
     1
 64
     7
176
     1
 65
   257
176
     1
 75
     1
176
     1
175
     1
176
     1
 42
40.0
176
     1
 92
        8
176
     1
 66
     7
176
     1
 43
1.0
176
     1
 76
     1
176
     1
 77
     6
176
     1
 78
     2
176
     1
 67
     7
176
     1
 79
     3
176
     1
170
     0
176
     1
171
     0
176
     1
290
     0
176
     1
 93
        1
176
     1
 44
0.0
176
     1
173
     0
176
     1
  0
VISUALSTYLE
  5
35
102
{ACAD_REACTORS
330
2A
102
}
330
2A
100
AcDbVisualStyle
  2
Dim
 70
    11
177
     2
291
     1
 71
     2
176
     1
 72
     2
176
     1
 73
     0
176
     1
 90
        0
176
     1
 40
-0.6
176
     1
 41
-30.0
176
     1
 62
     5
 63
     7
421
 16777215
176
     1
 74
     1
176
     1
 91
        4
176
     1
 64
     7
176
     1
 65
   257
176
     1
 75
     1
176
     1
175
     1
176
     1
 42
1.0
176
     1
 92
        8
176
     1
 66
     7
176
     1
 43
1.0
176
     1
 76
     1
176
     1
 77
     6
176
     1
 78
     2
176
     1
 67
     7
176
     1
 79
     5
176
     1
170
     0
176
     1
171
     0
176
     1
290
     0
176
     1
 93
        1
176
     1
 44
-50.0
176
     1
173
     0
176
     1
  0
VISUALSTYLE
  5
39
102
{ACAD_REACTORS
330
2A
102
}
330
2A
100
AcDbVisualStyle
  2
Facepattern
 70
    15
177
     2
291
     1
 71
     2
176
     1
 72
     2
176
     1
 73
     0
176
     1
 90
        0
176
     1
 40
-0.6
176
     1
 41
-30.0
176
     1
 62
     5
 63
     7
421
 16777215
176
     1
 74
     1
176
     1
 91
        4
176
     1
 64
     7
176
     1
 65
   257
176
     1
 75
     1
176
     1
175
     1
176
     1
 42
1.0
176
     1
 92
        8
176
     1
 66
     7
176
     1
 43
1.0
176
     1
 76
     1
176
     1
 77
     6
176
     1
 78
     2
176
     1
 67
     7
176
     1
 79
     5
176
     1
170
     0
176
     1
171
     0
176
     1
290
     0
176
     1
 93
        1
176
     1
 44
0.0
176
     1
173
     0
176
     1
  0
VISUALSTYLE
  5
2B
102
{ACAD_REACTORS
330
2A
102
}
330
2A
100
AcDbVisualStyle
  2
Flat
 70
     0
177
     2
291
     1
 71
     2
176
     1
 72
     1
176
     1
 73
     1
176
     1
 90
        2
176
     1
 40
-0.6
176
     1
 41
30.0
176
     1
 62
     5
 63
     7
421
 16777215
176
     1
 74
     0
176
     1
 91
        4
176
     1
 64
     7
176
     1
 65
   257
176
     1
 75
     1
176
     1
175
     1
176
     1
 42
1.0
176
     1
 92
        8
176
     1
 66
     7
176
     1
 43
1.0
176
     1
 76
     1
176
     1
 77
     6
176
     1
 78
     2
176
     1
 67
     7
176
     1
 79
     5
176
     1
170
     0
176
     1
171
     0
176
     1
290
     0
176
     1
 93
       13
176
     1
 44
0.0
176
     1
173
     0
176
     1
  0
VISUALSTYLE
  5
2C
102
{ACAD_REACTORS
330
2A
102
}
330
2A
100
AcDbVisualStyle
  2
FlatWithEdges
 70
     1
177
     2
291
     1
 71
     2
176
     1
 72
     1
176
     1
 73
     1
176
     1
 90
        2
176
     1
 40
-0.6
176
     1
 41
30.0
176
     1
 62
     5
 63
     7
421
 16777215
176
     1
 74
     1
176
     1
 91
        4
176
     1
 64
     7
176
     1
 65
   257
176
     1
 75
     1
176
     1
175
     1
176
     1
 42
1.0
176
     1
 92
        0
176
     1
 66
   257
176
     1
 43
1.0
176
     1
 76
     1
176
     1
 77
     6
176
     1
 78
     2
176
     1
 67
     7
176
     1
 79
     5
176
     1
170
     0
176
     1
171
     0
176
     1
290
     0
176
     1
 93
       13
176
     1
 44
0.0
176
     1
173
     0
176
     1
  0
VISUALSTYLE
  5
2D
102
{ACAD_REACTORS
330
2A
102
}
330
2A
100
AcDbVisualStyle
  2
Gouraud
 70
     2
177
     2
291
     1
 71
     2
176
     1
 72
     2
176
     1
 73
     1
176
     1
 90
        2
176
     1
 40
-0.6
176
     1
 41
30.0
176
     1
 62
     5
 63
     7
421
 16777215
176
     1
 74
     0
176
     1
 91
        4
176
     1
 64
     7
176
     1
 65
   257
176
     1
 75
     1
176
     1
175
     1
176
     1
 42
1.0
176
     1
 92
        0
176
     1
 66
     7
176
     1
 43
1.0
176
     1
 76
     1
176
     1
 77
     6
176
     1
 78
     2
176
     1
 67
     7
176
     1
 79
     5
176
     1
170
     0
176
     1
171
     0
176
     1
290
     0
176
     1
 93
       13
176
     1
 44
0.0
176
     1
173
     0
176
     1
  0
VISUALSTYLE
  5
2E
102
{ACAD_REACTORS
330
2A
102
}
330
2A
100
AcDbVisualStyle
  2
GouraudWithEdges
 70
     3
177
     2
291
     1
 71
     2
176
     1
 72
     2
176
     1
 73
     1
176
     1
 90
        2
176
     1
 40
-0.6
176
     1
 41
30.0
176
     1
 62
     5
 63
     7
421
 16777215
176
     1
 74
     1
176
     1
 91
        4
176
     1
 64
     7
176
     1
 65
   257
176
     1
 75
     1
176
     1
175
     1
176
     1
 42
1.0
176
     1
 92
        0
176
     1
 66
   257
176
     1
 43
1.0
176
     1
 76
     1
176
     1
 77
     6
176
     1
 78
     2
176
     1
 67
     7
176
     1
 79
     5
176
     1
170
     0
176
     1
171
     0
176
     1
290
     0
176
     1
 93
       13
176
     1
 44
0.0
176
     1
173
     0
176
     1
  0
VISUALSTYLE
  5
38
102
{ACAD_REACTORS
330
2A
102
}
330
2A
100
AcDbVisualStyle
  2
Linepattern
 70
    14
177
     2
291
     1
 71
     2
176
     1
 72
     2
176
     1
 73
     0
176
     1
 90
        0
176
     1
 40
-0.6
176
     1
 41
-30.0
176
     1
 62
     5
 63
     7
421
 16777215
176
     1
 74
     1
176
     1
 91
        4
176
     1
 64
     7
176
     1
 65
   257
176
     1
 75
     7
176
     1
175
     7
176
     1
 42
1.0
176
     1
 92
        8
176
     1
 66
     7
176
     1
 43
1.0
176
     1
 76
     1
176
     1
 77
     6
176
     1
 78
     2
176
     1
 67
     7
176
     1
 79
     5
176
     1
170
     0
176
     1
171
     0
176
     1
290
     0
176
     1
 93
        1
176
     1
 44
0.0
176
     1
173
     0
176
     1
  0
VISUALSTYLE
  5
33
102
{ACAD_REACTORS
330
2A
102
}
330
2A
100
AcDbVisualStyle
  2
Realistic
 70
     8
177
     2
291
     0
 71
     2
176
     1
 72
     2
176
     1
 73
     0
176
     1
 90
        0
176
     1
 40
-0.6
176
     1
 41
-30.0
176
     1
 62
     5
 63
     7
421
 16777215
176
     1
 74
     1
176
     1
 91
        0
176
     1
 64
     7
176
     1
 65
   257
176
     1
 75
     1
176
     1
175
     1
176
     1
 42
1.0
176
     1
 92
        8
176
     1
 66
     8
424
  7895160
176
     1
 43
1.0
176
     1
 76
     1
176
     1
 77
     6
176
     1
 78
     2
176
     1
 67
     7
176
     1
 79
     5
176
     1
170
     0
176
     1
171
     0
176
     1
290
     0
176
     1
 93
       13
176
     1
 44
0.0
176
     1
173
     0
176
     1
  0
VISUALSTYLE
  5
37
102
{ACAD_REACTORS
330
2A
102
}
330
2A
100
AcDbVisualStyle
  2
Thicken
 70
    13
177
     2
291
     1
 71
     2
176
     1
 72
     2
176
     1
 73
     0
176
     1
 90
        0
176
     1
 40
-0.6
176
     1
 41
-30.0
176
     1
 62
     5
 63
     7
421
 16777215
176
     1
 74
     1
176
     1
 91
        4
176
     1
 64
     7
176
     1
 65
   257
176
     1
 75
     1
176
     1
175
     1
176
     1
 42
1.0
176
     1
 92
       12
176
     1
 66
     7
176
     1
 43
1.0
176
     1
 76
     1
176
     1
 77
     6
176
     1
 78
     2
176
     1
 67
     7
176
     1
 79
     5
176
     1
170
     0
176
     1
171
     0
176
     1
290
     0
176
     1
 93
        1
176
     1
 44
0.0
176
     1
173
     0
176
     1
  0
ENDSEC
  0
EOF
