  0
SECTION
  2
HEADER
  9
$ACADVER
  1
AC1024
  9
$ACADMAINTVER
 70
     6
  9
$DWGCODEPAGE
  3
ANSI_932
  9
$INSBASE
 10
0.0
 20
0.0
 30
0.0
  9
$EXTMIN
 10
-8910.0
 20
-6300.0
 30
0.0
  9
$EXTMAX
 10
8910.0
 20
6300.0
 30
0.0
  9
$LIMMIN
 10
-8910.0
 20
-6300.0
  9
$LIMMAX
 10
8910.0
 20
6300.0
  9
$ORTHOMODE
 70
     0
  9
$REGENMODE
 70
     1
  9
$FILLMODE
 70
     1
  9
$QTEXTMODE
 70
     0
  9
$MIRRTEXT
 70
     1
  9
$LTSCALE
 40
30.0
  9
$ATTMODE
 70
     1
  9
$TEXTSIZE
 40
2.5
  9
$TRACEWID
 40
1.0
  9
$TEXTSTYLE
  7
Standard
  9
$CLAYER
  8
0
  9
$CELTYPE
  6
ByLayer
  9
$CECOLOR
 62
   256
  9
$CELTSCALE
 40
1.0
  9
$DISPSILH
 70
     0
  9
$DIMSCALE
 40
1.0
  9
$DIMASZ
 40
2.5
  9
$DIMEXO
 40
0.625
  9
$DIMDLI
 40
3.75
  9
$DIMRND
 40
0.0
  9
$DIMDLE
 40
0.0
  9
$DIMEXE
 40
1.25
  9
$DIMTP
 40
0.0
  9
$DIMTM
 40
0.0
  9
$DIMTXT
 40
2.5
  9
$DIMCEN
 40
2.5
  9
$DIMTSZ
 40
0.0
  9
$DIMTOL
 70
     0
  9
$DIMLIM
 70
     0
  9
$DIMTIH
 70
     0
  9
$DIMTOH
 70
     0
  9
$DIMSE1
 70
     0
  9
$DIMSE2
 70
     0
  9
$DIMTAD
 70
     1
  9
$DIMZIN
 70
     8
  9
$DIMBLK
  1

  9
$DIMASO
 70
     1
  9
$DIMSHO
 70
     1
  9
$DIMPOST
  1

  9
$DIMAPOST
  1

  9
$DIMALT
 70
     0
  9
$DIMALTD
 70
     3
  9
$DIMALTF
 40
0.03937007874016
  9
$DIMLFAC
 40
1.0
  9
$DIMTOFL
 70
     1
  9
$DIMTVP
 40
0.0
  9
$DIMTIX
 70
     0
  9
$DIMSOXD
 70
     0
  9
$DIMSAH
 70
     0
  9
$DIMBLK1
  1

  9
$DIMBLK2
  1

  9
$DIMSTYLE
  2
ISO-25
  9
$DIMCLRD
 70
     0
  9
$DIMCLRE
 70
     0
  9
$DIMCLRT
 70
     0
  9
$DIMTFAC
 40
1.0
  9
$DIMGAP
 40
0.625
  9
$DIMJUST
 70
     0
  9
$DIMSD1
 70
     0
  9
$DIMSD2
 70
     0
  9
$DIMTOLJ
 70
     0
  9
$DIMTZIN
 70
     8
  9
$DIMALTZ
 70
     0
  9
$DIMALTTZ
 70
     0
  9
$DIMUPT
 70
     0
  9
$DIMDEC
 70
     2
  9
$DIMTDEC
 70
     2
  9
$DIMALTU
 70
     2
  9
$DIMALTTD
 70
     3
  9
$DIMTXSTY
  7
Standard
  9
$DIMAUNIT
 70
     0
  9
$DIMADEC
 70
     0
  9
$DIMALTRND
 40
0.0
  9
$DIMAZIN
 70
     0
  9
$DIMDSEP
 70
    44
  9
$DIMATFIT
 70
     3
  9
$DIMFRAC
 70
     0
  9
$DIMLDRBLK
  1

  9
$DIMLUNIT
 70
     2
  9
$DIMLWD
 70
    -2
  9
$DIMLWE
 70
    -2
  9
$DIMTMOVE
 70
     0
  9
$DIMFXL
 40
1.0
  9
$DIMFXLON
 70
     0
  9
$DIMJOGANG
 40
0.7853981633974483
  9
$DIMTFILL
 70
     0
  9
$DIMTFILLCLR
 70
     0
  9
$DIMARCSYM
 70
     0
  9
$DIMLTYPE
  6

  9
$DIMLTEX1
  6

  9
$DIMLTEX2
  6

  9
$DIMTXTDIRECTION
 70
     0
  9
$LUNITS
 70
     2
  9
$LUPREC
 70
     4
  9
$SKETCHINC
 40
1.0
  9
$FILLETRAD
 40
10.0
  9
$AUNITS
 70
     0
  9
$AUPREC
 70
     0
  9
$MENU
  1
.
  9
$ELEVATION
 40
0.0
  9
$PELEVATION
 40
0.0
  9
$THICKNESS
 40
0.0
  9
$LIMCHECK
 70
     0
  9
$CHAMFERA
 40
10.0
  9
$CHAMFERB
 40
10.0
  9
$CHAMFERC
 40
20.0
  9
$CHAMFERD
 40
0.0
  9
$SKPOLY
 70
     0
  9
$TDCREATE
 40
2459720.72824544
  9
$TDUCREATE
 40
2459720.35324544
  9
$TDUPDATE
 40
2459720.728245452
  9
$TDUUPDATE
 40
2459720.353245452
  9
$TDINDWG
 40
0.0000000116
  9
$TDUSRTIMER
 40
0.0000000116
  9
$USRTIMER
 70
     1
  9
$ANGBASE
 50
0.0
  9
$ANGDIR
 70
     0
  9
$PDMODE
 70
     0
  9
$PDSIZE
 40
0.0
  9
$PLINEWID
 40
0.0
  9
$SPLFRAME
 70
     0
  9
$SPLINETYPE
 70
     6
  9
$SPLINESEGS
 70
     8
  9
$HANDSEED
  5
50F
  9
$SURFTAB1
 70
     6
  9
$SURFTAB2
 70
     6
  9
$SURFTYPE
 70
     6
  9
$SURFU
 70
     6
  9
$SURFV
 70
     6
  9
$UCSBASE
  2

  9
$UCSNAME
  2

  9
$UCSORG
 10
0.0
 20
0.0
 30
0.0
  9
$UCSXDIR
 10
1.0
 20
0.0
 30
0.0
  9
$UCSYDIR
 10
0.0
 20
1.0
 30
0.0
  9
$UCSORTHOREF
  2

  9
$UCSORTHOVIEW
 70
     0
  9
$UCSORGTOP
 10
0.0
 20
0.0
 30
0.0
  9
$UCSORGBOTTOM
 10
0.0
 20
0.0
 30
0.0
  9
$UCSORGLEFT
 10
0.0
 20
0.0
 30
0.0
  9
$UCSORGRIGHT
 10
0.0
 20
0.0
 30
0.0
  9
$UCSORGFRONT
 10
0.0
 20
0.0
 30
0.0
  9
$UCSORGBACK
 10
0.0
 20
0.0
 30
0.0
  9
$PUCSBASE
  2

  9
$PUCSNAME
  2

  9
$PUCSORG
 10
0.0
 20
0.0
 30
0.0
  9
$PUCSXDIR
 10
1.0
 20
0.0
 30
0.0
  9
$PUCSYDIR
 10
0.0
 20
1.0
 30
0.0
  9
$PUCSORTHOREF
  2

  9
$PUCSORTHOVIEW
 70
     0
  9
$PUCSORGTOP
 10
0.0
 20
0.0
 30
0.0
  9
$PUCSORGBOTTOM
 10
0.0
 20
0.0
 30
0.0
  9
$PUCSORGLEFT
 10
0.0
 20
0.0
 30
0.0
  9
$PUCSORGRIGHT
 10
0.0
 20
0.0
 30
0.0
  9
$PUCSORGFRONT
 10
0.0
 20
0.0
 30
0.0
  9
$PUCSORGBACK
 10
0.0
 20
0.0
 30
0.0
  9
$USERI1
 70
     0
  9
$USERI2
 70
     0
  9
$USERI3
 70
     0
  9
$USERI4
 70
     0
  9
$USERI5
 70
     0
  9
$USERR1
 40
0.0
  9
$USERR2
 40
0.0
  9
$USERR3
 40
0.0
  9
$USERR4
 40
0.0
  9
$USERR5
 40
0.0
  9
$WORLDVIEW
 70
     1
  9
$SHADEDGE
 70
     3
  9
$SHADEDIF
 70
    70
  9
$TILEMODE
 70
     1
  9
$MAXACTVP
 70
    64
  9
$PINSBASE
 10
0.0
 20
0.0
 30
0.0
  9
$PLIMCHECK
 70
     0
  9
$PEXTMIN
 10
1.000000000000000E+20
 20
1.000000000000000E+20
 30
1.000000000000000E+20
  9
$PEXTMAX
 10
-1.000000000000000E+20
 20
-1.000000000000000E+20
 30
-1.000000000000000E+20
  9
$PLIMMIN
 10
0.0
 20
0.0
  9
$PLIMMAX
 10
420.0
 20
297.0
  9
$UNITMODE
 70
     0
  9
$VISRETAIN
 70
     1
  9
$PLINEGEN
 70
     0
  9
$PSLTSCALE
 70
     1
  9
$TREEDEPTH
 70
  3020
  9
$CMLSTYLE
  2
Standard
  9
$CMLJUST
 70
     0
  9
$CMLSCALE
 40
20.0
  9
$PROXYGRAPHICS
 70
     1
  9
$MEASUREMENT
 70
     1
  9
$CELWEIGHT
370
    -1
  9
$ENDCAPS
280
     0
  9
$JOINSTYLE
280
     0
  9
$LWDISPLAY
290
     0
  9
$INSUNITS
 70
     4
  9
$HYPERLINKBASE
  1

  9
$STYLESHEET
  1

  9
$XEDIT
290
     1
  9
$CEPSNTYPE
380
     0
  9
$PSTYLEMODE
290
     1
  9
$FINGERPRINTGUID
  2
{217BD87C-5FE9-426D-ADED-7C1F75F35437}
  9
$VERSIONGUID
  2
{FAEB1C32-E019-11D5-929B-00C0DF256EC4}
  9
$EXTNAMES
290
     1
  9
$PSVPSCALE
 40
0.0
  9
$OLESTARTUP
290
     0
  9
$SORTENTS
280
   127
  9
$INDEXCTL
280
     0
  9
$HIDETEXT
280
     1
  9
$XCLIPFRAME
280
     2
  9
$HALOGAP
280
     0
  9
$OBSCOLOR
 70
   257
  9
$OBSLTYPE
280
     0
  9
$INTERSECTIONDISPLAY
280
     0
  9
$INTERSECTIONCOLOR
 70
   257
  9
$DIMASSOC
280
     2
  9
$PROJECTNAME
  1

  9
$CAMERADISPLAY
290
     0
  9
$LENSLENGTH
 40
50.0
  9
$CAMERAHEIGHT
 40
0.0
  9
$STEPSPERSEC
 40
2.0
  9
$STEPSIZE
 40
6.0
  9
$3DDWFPREC
 40
2.0
  9
$PSOLWIDTH
 40
5.0
  9
$PSOLHEIGHT
 40
80.0
  9
$LOFTANG1
 40
1.570796326794897
  9
$LOFTANG2
 40
1.570796326794897
  9
$LOFTMAG1
 40
0.0
  9
$LOFTMAG2
 40
0.0
  9
$LOFTPARAM
 70
     7
  9
$LOFTNORMALS
280
     1
  9
$LATITUDE
 40
37.795
  9
$LONGITUDE
 40
-122.394
  9
$NORTHDIRECTION
 40
0.0
  9
$TIMEZONE
 70
 -8000
  9
$LIGHTGLYPHDISPLAY
280
     1
  9
$TILEMODELIGHTSYNCH
280
     1
  9
$SOLIDHIST
280
     1
  9
$SHOWHIST
280
     1
  9
$DWFFRAME
280
     2
  9
$DGNFRAME
280
     2
  9
$REALWORLDSCALE
290
     1
  9
$INTERFERECOLOR
 62
   256
  9
$CSHADOW
280
     0
  9
$SHADOWPLANELOCATION
 40
0.0
  0
ENDSEC
  0
SECTION
  2
CLASSES
  0
CLASS
  1
ACDBDICTIONARYWDFLT
  2
AcDbDictionaryWithDefault
  3
ObjectDBX Classes
 90
        0
 91
        4
280
     0
281
     0
  0
CLASS
  1
VISUALSTYLE
  2
AcDbVisualStyle
  3
ObjectDBX Classes
 90
     4095
 91
        4
280
     0
281
     0
  0
CLASS
  1
MATERIAL
  2
AcDbMaterial
  3
ObjectDBX Classes
 90
     1153
 91
        4
280
     0
281
     0
  0
ENDSEC
  0
SECTION
  2
TABLES
  0
TABLE
  2
VPORT
  5
8
330
0
100
AcDbSymbolTable
 70
     1
  0
VPORT
  5
29
330
8
100
AcDbSymbolTableRecord
100
AcDbViewportTableRecord
  2
*Active
 70
     0
 10
0.0
 20
0.0
 11
1.0
 21
1.0
 12
0.0
 22
0.0
 13
0.0
 23
0.0
 14
10.0
 24
10.0
 15
10.0
 25
10.0
 16
0.0
 26
0.0
 36
1.0
 17
0.0
 27
0.0
 37
0.0
 40
13860.0
 41
1.414285714285714
 42
50.0
 43
0.0
 44
0.0
 50
0.0
 51
0.0
 71
     0
 72
 10000
 73
     1
 74
     3
 75
     0
 76
     0
 77
     0
 78
     0
281
     0
 65
     1
110
0.0
120
0.0
130
0.0
111
1.0
121
0.0
131
0.0
112
0.0
122
1.0
132
0.0
 79
     0
146
0.0
 60
     3
 61
     5
292
     1
282
     1
141
0.0
142
0.0
 63
   250
  0
ENDTAB
  0
TABLE
  2
LTYPE
  5
5
330
0
100
AcDbSymbolTable
 70
     5
  0
LTYPE
  5
14
330
5
100
AcDbSymbolTableRecord
100
AcDbLinetypeTableRecord
  2
ByBlock
 70
     0
  3

 72
    65
 73
     0
 40
0.0
  0
LTYPE
  5
15
330
5
100
AcDbSymbolTableRecord
100
AcDbLinetypeTableRecord
  2
ByLayer
 70
     0
  3

 72
    65
 73
     0
 40
0.0
  0
LTYPE
  5
16
330
5
100
AcDbSymbolTableRecord
100
AcDbLinetypeTableRecord
  2
Continuous
 70
     0
  3
Solid line
 72
    65
 73
     0
 40
0.0
  0
LTYPE
  5
3F
330
5
100
AcDbSymbolTableRecord
100
AcDbLinetypeTableRecord
  2
JWW_HOJO
 70
     0
  3
  -   -   -   -   -   -   -   - 
 72
    65
 73
     2
 40
1.693333333333333
 49
-1.27
 74
     0
 49
0.4233333333333333
 74
     0
  0
LTYPE
  5
40
330
5
100
AcDbSymbolTableRecord
100
AcDbLinetypeTableRecord
  2
JWW_DASHED2
 70
     0
  3
--    ----    ----    ----    --
 72
    65
 73
     2
 40
3.386666666666667
 49
1.693333333333333
 74
     0
 49
-1.693333333333333
 74
     0
  0
LTYPE
  5
41
330
5
100
AcDbSymbolTableRecord
100
AcDbLinetypeTableRecord
  2
JWW_CENTER1
 70
     0
  3
-----  --  ----------  --  -----
 72
    65
 73
     4
 40
6.773333333333333
 49
4.233333333333333
 74
     0
 49
-0.8466666666666667
 74
     0
 49
0.8466666666666667
 74
     0
 49
-0.8466666666666667
 74
     0
  0
LTYPE
  5
42
330
5
100
AcDbSymbolTableRecord
100
AcDbLinetypeTableRecord
  2
JWW_DASHED1
 70
     0
  3
-  --  --  --  --  --  --  --  -
 72
    65
 73
     2
 40
1.693333333333333
 49
0.8466666666666667
 74
     0
 49
-0.8466666666666667
 74
     0
  0
ENDTAB
  0
TABLE
  2
LAYER
  5
2
330
0
100
AcDbSymbolTable
 70
    19
  0
LAYER
  5
10
330
2
100
AcDbSymbolTableRecord
100
AcDbLayerTableRecord
  2
0
 70
     0
 62
     7
  6
Continuous
370
    -3
390
F
347
3E
  0
LAYER
  5
43
330
2
100
AcDbSymbolTableRecord
100
AcDbLayerTableRecord
  2
F-1_枠
 70
     0
 62
     7
  6
Continuous
370
    -3
390
F
347
3E
  0
LAYER
  5
44
330
2
100
AcDbSymbolTableRecord
100
AcDbLayerTableRecord
  2
F-0_補助線
 70
     0
 62
     7
  6
Continuous
370
    -3
390
F
347
3E
  0
LAYER
  5
45
330
2
100
AcDbSymbolTableRecord
100
AcDbLayerTableRecord
  2
0-0_補助線
 70
     0
 62
     7
  6
Continuous
370
    -3
390
F
347
3E
  0
LAYER
  5
46
330
2
100
AcDbSymbolTableRecord
100
AcDbLayerTableRecord
  2
0-B_寸法
 70
     0
 62
     7
  6
Continuous
370
    -3
390
F
347
3E
  0
LAYER
  5
47
330
2
100
AcDbSymbolTableRecord
100
AcDbLayerTableRecord
  2
0-A_文字
 70
     0
 62
     7
  6
Continuous
370
    -3
390
F
347
3E
  0
LAYER
  5
48
330
2
100
AcDbSymbolTableRecord
100
AcDbLayerTableRecord
  2
戸当り
 70
     0
 62
     7
  6
Continuous
370
    -3
390
F
347
3E
  0
LAYER
  5
49
330
2
100
AcDbSymbolTableRecord
100
AcDbLayerTableRecord
  2
0-4_枠
 70
     0
 62
     7
  6
Continuous
370
    -3
390
F
347
3E
  0
LAYER
  5
4A
330
2
100
AcDbSymbolTableRecord
100
AcDbLayerTableRecord
  2
仕上げ
 70
     0
 62
     7
  6
Continuous
370
    -3
390
F
347
3E
  0
LAYER
  5
4B
330
2
100
AcDbSymbolTableRecord
100
AcDbLayerTableRecord
  2
0-1_通り芯
 70
     0
 62
     7
  6
Continuous
370
    -3
390
F
347
3E
  0
LAYER
  5
4C
330
2
100
AcDbSymbolTableRecord
100
AcDbLayerTableRecord
  2
ハッチ
 70
     0
 62
     7
  6
Continuous
370
    -3
390
F
347
3E
  0
LAYER
  5
4D
330
2
100
AcDbSymbolTableRecord
100
AcDbLayerTableRecord
  2
0-7_金物
 70
     0
 62
     7
  6
Continuous
370
    -3
390
F
347
3E
  0
LAYER
  5
4E
330
2
100
AcDbSymbolTableRecord
100
AcDbLayerTableRecord
  2
0-6_扉
 70
     0
 62
     7
  6
Continuous
370
    -3
390
F
347
3E
  0
LAYER
  5
4F
330
2
100
AcDbSymbolTableRecord
100
AcDbLayerTableRecord
  2
0-2_柱
 70
     0
 62
     7
  6
Continuous
370
    -3
390
F
347
3E
  0
LAYER
  5
50
330
2
100
AcDbSymbolTableRecord
100
AcDbLayerTableRecord
  2
1-B_寸法
 70
     0
 62
     7
  6
Continuous
370
    -3
390
F
347
3E
  0
LAYER
  5
51
330
2
100
AcDbSymbolTableRecord
100
AcDbLayerTableRecord
  2
1-4_枠
 70
     0
 62
     7
  6
Continuous
370
    -3
390
F
347
3E
  0
LAYER
  5
52
330
2
100
AcDbSymbolTableRecord
100
AcDbLayerTableRecord
  2
1-0_補助線
 70
     0
 62
     7
  6
Continuous
370
    -3
390
F
347
3E
  0
LAYER
  5
53
330
2
100
AcDbSymbolTableRecord
100
AcDbLayerTableRecord
  2
1-7_金物
 70
     0
 62
     7
  6
Continuous
370
    -3
390
F
347
3E
  0
LAYER
  5
54
330
2
100
AcDbSymbolTableRecord
100
AcDbLayerTableRecord
  2
F-A_文字
 70
     0
 62
     7
  6
Continuous
370
    -3
390
F
347
3E
  0
ENDTAB
  0
TABLE
  2
STYLE
  5
3
330
0
100
AcDbSymbolTable
 70
     1
  0
STYLE
  5
11
330
3
100
AcDbSymbolTableRecord
100
AcDbTextStyleTableRecord
  2
Standard
 70
     0
 40
0.0
 41
1.0
 50
0.0
 71
     0
 42
2.5
  3
txt
  4

  0
ENDTAB
  0
TABLE
  2
VIEW
  5
6
330
0
100
AcDbSymbolTable
 70
     0
  0
ENDTAB
  0
TABLE
  2
UCS
  5
7
330
0
100
AcDbSymbolTable
 70
     0
  0
ENDTAB
  0
TABLE
  2
APPID
  5
9
330
0
100
AcDbSymbolTable
 70
     1
  0
APPID
  5
12
330
9
100
AcDbSymbolTableRecord
100
AcDbRegAppTableRecord
  2
ACAD
 70
     0
  0
ENDTAB
  0
TABLE
  2
DIMSTYLE
  5
A
330
0
100
AcDbSymbolTable
 70
     1
100
AcDbDimStyleTable
  0
DIMSTYLE
105
27
330
A
100
AcDbSymbolTableRecord
100
AcDbDimStyleTableRecord
  2
ISO-25
 70
     0
 41
2.5
 42
0.625
 43
3.75
 44
1.25
 73
     0
 74
     0
 77
     1
 78
     8
140
2.5
141
2.5
143
0.03937007874016
147
0.625
171
     3
172
     1
178
     0
271
     2
272
     2
274
     3
278
    44
283
     0
284
     8
340
11
  0
ENDTAB
  0
TABLE
  2
BLOCK_RECORD
  5
1
330
0
100
AcDbSymbolTable
 70
     1
  0
BLOCK_RECORD
  5
1F
330
1
100
AcDbSymbolTableRecord
100
AcDbBlockTableRecord
  2
*Model_Space
340
22
 70
     0
280
     1
281
     0
  0
BLOCK_RECORD
  5
1B
330
1
100
AcDbSymbolTableRecord
100
AcDbBlockTableRecord
  2
*Paper_Space
340
1E
 70
     0
280
     1
281
     0
  0
BLOCK_RECORD
  5
23
330
1
100
AcDbSymbolTableRecord
100
AcDbBlockTableRecord
  2
*Paper_Space0
340
26
 70
     0
280
     1
281
     0
  0
ENDTAB
  0
ENDSEC
  0
SECTION
  2
BLOCKS
  0
BLOCK
  5
20
330
1F
100
AcDbEntity
  8
0
100
AcDbBlockBegin
  2
*Model_Space
 70
     0
 10
0.0
 20
0.0
 30
0.0
  3
*Model_Space
  1

  0
ENDBLK
  5
21
330
1F
100
AcDbEntity
  8
0
100
AcDbBlockEnd
  0
BLOCK
  5
1C
330
1B
100
AcDbEntity
 67
     1
  8
0
100
AcDbBlockBegin
  2
*Paper_Space
 70
     0
 10
0.0
 20
0.0
 30
0.0
  3
*Paper_Space
  1

  0
ENDBLK
  5
1D
330
1B
100
AcDbEntity
 67
     1
  8
0
100
AcDbBlockEnd
  0
BLOCK
  5
24
330
23
100
AcDbEntity
  8
0
100
AcDbBlockBegin
  2
*Paper_Space0
 70
     0
 10
0.0
 20
0.0
 30
0.0
  3
*Paper_Space0
  1

  0
ENDBLK
  5
25
330
23
100
AcDbEntity
  8
0
100
AcDbBlockEnd
  0
ENDSEC
  0
SECTION
  2
ENTITIES
  0
LINE
  5
55
330
1F
100
AcDbEntity
  8
F-1_枠
  6
Continuous
 62
   200
370
    20
100
AcDbLine
 10
5859.917429364114
 20
-4205.000002577498
 30
0.0
 11
-5840.081085996952
 21
-4205.000002577498
 31
0.0
  0
LINE
  5
56
330
1F
100
AcDbEntity
  8
F-1_枠
  6
Continuous
 62
   200
370
    20
100
AcDbLine
 10
5859.917429364114
 20
-4199.999993814004
 30
0.0
 11
-5840.081085996952
 21
-4199.999993814004
 31
0.0
  0
LINE
  5
57
330
1F
100
AcDbEntity
  8
F-1_枠
  6
Continuous
 62
   200
370
    20
100
AcDbLine
 10
5859.917429364114
 20
-4195.000008247994
 30
0.0
 11
-5840.081085996952
 21
-4195.000008247994
 31
0.0
  0
LINE
  5
58
330
1F
100
AcDbEntity
  8
F-0_補助線
  6
JWW_HOJO
 62
   120
370
     5
100
AcDbLine
 10
-6140.081333436773
 20
-4455.0
 30
0.0
 11
-6140.081333436773
 21
4424.999604096284
 31
0.0
  0
LINE
  5
59
330
1F
100
AcDbEntity
  8
F-0_補助線
  6
JWW_HOJO
 62
   120
370
     5
100
AcDbLine
 10
-6140.081333436773
 20
4424.999604096284
 30
0.0
 11
6159.917676803936
 21
4424.999604096284
 31
0.0
  0
LINE
  5
5A
330
1F
100
AcDbEntity
  8
F-0_補助線
  6
JWW_HOJO
 62
   120
370
     5
100
AcDbLine
 10
6159.917676803936
 20
4424.999604096284
 30
0.0
 11
6159.917676803936
 21
-4455.0
 31
0.0
  0
LINE
  5
5B
330
1F
100
AcDbEntity
  8
F-0_補助線
  6
JWW_HOJO
 62
   120
370
     5
100
AcDbLine
 10
6159.917676803936
 20
-4455.0
 30
0.0
 11
-6140.081333436773
 21
-4455.0
 31
0.0
  0
LINE
  5
5C
330
1F
100
AcDbEntity
  8
F-0_補助線
  6
JWW_HOJO
 62
     7
370
     9
100
AcDbLine
 10
509.9185840832865
 20
-3795.000003092998
 30
0.0
 11
509.9185840832865
 21
-4195.000008247994
 31
0.0
  0
LINE
  5
5D
330
1F
100
AcDbEntity
  8
F-1_枠
  6
Continuous
 62
   200
370
    20
100
AcDbLine
 10
5859.917429364114
 20
4174.999769056166
 30
0.0
 11
5859.917429364114
 21
-4205.000164959882
 31
0.0
  0
LINE
  5
5E
330
1F
100
AcDbEntity
  8
F-1_枠
  6
Continuous
 62
   200
370
    20
100
AcDbLine
 10
-5840.081317971782
 20
4174.999769056166
 30
0.0
 11
-5840.081317971782
 21
-4205.000164959882
 31
0.0
  0
LINE
  5
5F
330
1F
100
AcDbEntity
  8
F-1_枠
  6
Continuous
 62
   200
370
    20
100
AcDbLine
 10
-5830.081323642279
 20
4174.999769056166
 30
0.0
 11
-5830.081323642279
 21
-4205.000164959882
 31
0.0
  0
LINE
  5
60
330
1F
100
AcDbEntity
  8
F-1_枠
  6
Continuous
 62
   200
370
    20
100
AcDbLine
 10
-5835.081309208291
 20
4174.999769056166
 30
0.0
 11
-5835.081309208291
 21
-4205.000164959882
 31
0.0
  0
LINE
  5
61
330
1F
100
AcDbEntity
  8
F-1_枠
  6
Continuous
 62
   200
370
    20
100
AcDbLine
 10
5854.917165428304
 20
4174.999769056166
 30
0.0
 11
5854.917165428304
 21
-4205.000164959882
 31
0.0
  0
LINE
  5
62
330
1F
100
AcDbEntity
  8
F-1_枠
  6
Continuous
 62
   200
370
    20
100
AcDbLine
 10
5849.917643811961
 20
4174.999769056166
 30
0.0
 11
5849.917643811961
 21
-4205.000164959882
 31
0.0
  0
LINE
  5
63
330
1F
100
AcDbEntity
  8
F-1_枠
  6
Continuous
 62
   200
370
    20
100
AcDbLine
 10
4349.917891251784
 20
-3795.000003092998
 30
0.0
 11
4349.917891251784
 21
-4195.000008247994
 31
0.0
  0
LINE
  5
64
330
1F
100
AcDbEntity
  8
F-1_枠
  6
Continuous
 62
   200
370
    20
100
AcDbLine
 10
2849.917396372139
 20
-3795.000003092998
 30
0.0
 11
2849.917396372139
 21
-4195.000008247994
 31
0.0
  0
LINE
  5
65
330
1F
100
AcDbEntity
  8
F-1_枠
  6
Continuous
 62
   200
370
    20
100
AcDbLine
 10
9.918542843316231
 20
-3795.000003092998
 30
0.0
 11
9.918542843316231
 21
-4195.000008247994
 31
0.0
  0
LINE
  5
66
330
1F
100
AcDbEntity
  8
F-1_枠
  6
Continuous
 62
   200
370
    20
100
AcDbLine
 10
9.918542843316231
 20
-3994.999936078046
 30
0.0
 11
5849.917643811961
 21
-3995.005364289155
 31
0.0
  0
LINE
  5
67
330
1F
100
AcDbEntity
  8
F-1_枠
  6
Continuous
 62
   200
370
    20
100
AcDbLine
 10
-5840.081085996952
 20
4174.999769056166
 30
0.0
 11
5859.917429364114
 21
4174.999769056166
 31
0.0
  0
LINE
  5
68
330
1F
100
AcDbEntity
  8
F-1_枠
  6
Continuous
 62
   200
370
    20
100
AcDbLine
 10
-5840.081085996952
 20
4164.999983504013
 30
0.0
 11
5859.917429364114
 21
4164.999983504013
 31
0.0
  0
LINE
  5
69
330
1F
100
AcDbEntity
  8
F-1_枠
  6
Continuous
 62
   200
370
    20
100
AcDbLine
 10
-5840.081085996952
 20
4169.999505120355
 30
0.0
 11
5859.917429364114
 21
4169.999505120355
 31
0.0
  0
LINE
  5
6A
330
1F
100
AcDbEntity
  8
F-0_補助線
  6
JWW_HOJO
 62
     7
370
     9
100
AcDbLine
 10
-5830.081323642279
 20
-3994.99993607839
 30
0.0
 11
9.918542843316231
 21
-3994.99993607839
 31
0.0
  0
LINE
  5
6B
330
1F
100
AcDbEntity
  8
F-0_補助線
  6
JWW_HOJO
 62
     7
370
     9
100
AcDbLine
 10
-5830.081323642279
 20
-3904.99993607839
 30
0.0
 11
9.918542843316231
 21
-3904.99993607839
 31
0.0
  0
LINE
  5
6C
330
1F
100
AcDbEntity
  8
F-0_補助線
  6
JWW_HOJO
 62
     7
370
     9
100
AcDbLine
 10
-5830.081323642279
 20
-4084.99993607839
 30
0.0
 11
9.918542843316231
 21
-4084.99993607839
 31
0.0
  0
LINE
  5
6D
330
1F
100
AcDbEntity
  8
F-0_補助線
  6
JWW_HOJO
 62
     7
370
     9
100
AcDbLine
 10
9.918408067688347
 20
-4139.999739777983
 30
0.0
 11
5849.917509036332
 21
-4140.005167989091
 31
0.0
  0
LINE
  5
6E
330
1F
100
AcDbEntity
  8
F-0_補助線
  6
JWW_HOJO
 62
     7
370
     9
100
AcDbLine
 10
9.918491721639953
 20
-4049.999739778022
 30
0.0
 11
5849.917592690284
 21
-4050.005167989131
 31
0.0
  0
LINE
  5
6F
330
1F
100
AcDbEntity
  8
F-0_補助線
  6
JWW_HOJO
 62
     7
370
     9
100
AcDbLine
 10
9.918593965360003
 20
-3939.99973721807
 30
0.0
 11
5849.917694934004
 21
-3940.005165429179
 31
0.0
  0
LINE
  5
70
330
1F
100
AcDbEntity
  8
F-0_補助線
  6
JWW_HOJO
 62
     7
370
     9
100
AcDbLine
 10
9.918677619311609
 20
-3849.999737218109
 30
0.0
 11
5849.917778587956
 21
-3850.005165429218
 31
0.0
  0
LINE
  5
71
330
1F
100
AcDbEntity
  8
F-0_補助線
  6
JWW_HOJO
 62
     7
370
     9
100
AcDbLine
 10
2939.917396372139
 20
-3795.000003092998
 30
0.0
 11
2939.917396372139
 21
-4195.000008247994
 31
0.0
  0
LINE
  5
72
330
1F
100
AcDbEntity
  8
F-0_補助線
  6
JWW_HOJO
 62
     7
370
     9
100
AcDbLine
 10
99.91854284331623
 20
-3795.000003092998
 30
0.0
 11
99.91854284331623
 21
-4195.000008247994
 31
0.0
  0
LINE
  5
73
330
1F
100
AcDbEntity
  8
F-0_補助線
  6
JWW_HOJO
 62
     7
370
     9
100
AcDbLine
 10
4439.917891251784
 20
-3795.000003092998
 30
0.0
 11
4439.917891251784
 21
-4195.000008247994
 31
0.0
  0
LINE
  5
74
330
1F
100
AcDbEntity
  8
F-1_枠
  6
Continuous
 62
   200
370
    20
100
AcDbLine
 10
5859.917429364114
 20
-3795.000003092998
 30
0.0
 11
-5840.081085996952
 21
-3795.000003092998
 31
0.0
  0
LINE
  5
75
330
1F
100
AcDbEntity
  8
F-1_枠
  6
Continuous
 62
   200
370
    20
100
AcDbLine
 10
5859.917429364114
 20
-3790.000017526987
 30
0.0
 11
-5840.081085996952
 21
-3790.000017526987
 31
0.0
  0
LINE
  5
76
330
1F
100
AcDbEntity
  8
F-0_補助線
  6
JWW_HOJO
 62
     7
370
     9
100
AcDbLine
 10
-5087.628710189611
 20
-3795.000003092999
 30
0.0
 11
-5087.628710189611
 21
-4205.000164959882
 31
0.0
  0
LINE
  5
77
330
1F
100
AcDbEntity
  8
F-0_補助線
  6
JWW_HOJO
 62
     7
370
     9
100
AcDbLine
 10
-50.08145715668377
 20
-3795.000003092998
 30
0.0
 11
-50.08145715668377
 21
-4195.000008247994
 31
0.0
  0
LINE
  5
78
330
1F
100
AcDbEntity
  8
0-0_補助線
  6
JWW_HOJO
 62
   120
370
     5
100
AcDbLine
 10
3067.834059887004
 20
1486.219047498118
 30
0.0
 11
-3083.95691108458
 21
1486.219047498118
 31
0.0
  0
LINE
  5
79
330
1F
100
AcDbEntity
  8
0-0_補助線
  6
JWW_HOJO
 62
   120
370
     5
100
AcDbLine
 10
3067.834059887004
 20
1126.219047498118
 30
0.0
 11
-3083.95691108458
 21
1126.219047498118
 31
0.0
  0
LWPOLYLINE
  5
7A
330
1F
100
AcDbEntity
  8
0-B_寸法
  6
Continuous
 62
     7
370
     9
100
AcDbPolyline
 90
        4
 70
     1
 43
3.0
 10
-1702.457059548474
 20
1126.219047498118
 42
0.4142135623731
 10
-1703.957059548474
 20
1127.719047498118
 42
0.4142135623731
 10
-1705.457059548474
 20
1126.219047498118
 42
0.4142135623731
 10
-1703.957059548474
 20
1124.719047498118
 42
0.4142135623731
  0
LWPOLYLINE
  5
7B
330
1F
100
AcDbEntity
  8
0-B_寸法
  6
Continuous
 62
     7
370
     9
100
AcDbPolyline
 90
        4
 70
     1
 43
3.0
 10
1689.333466031429
 20
1126.219047498118
 42
0.4142135623731
 10
1687.833466031429
 20
1127.719047498118
 42
0.4142135623731
 10
1686.333466031429
 20
1126.219047498118
 42
0.4142135623731
 10
1687.833466031429
 20
1124.719047498118
 42
0.4142135623731
  0
LINE
  5
7C
330
1F
100
AcDbEntity
  8
0-B_寸法
  6
Continuous
 62
   120
370
     5
100
AcDbLine
 10
-1703.957059548474
 20
1126.219047498118
 30
0.0
 11
1687.833466031429
 21
1126.219047498118
 31
0.0
  0
MTEXT
  5
7D
330
1F
100
AcDbEntity
  8
0-B_寸法
  6
Continuous
 62
     7
370
     0
100
AcDbMText
 10
-68.06198233839012
 20
1126.939096986081
 30
0.0
 40
91.44
 41
120.0
 46
0.0
 71
     7
 72
     1
  1
{\fＭＳ ゴシック|b0|i0|c128|p49;30}
 73
     1
 44
1.0
  0
LWPOLYLINE
  5
7E
330
1F
100
AcDbEntity
  8
0-B_寸法
  6
Continuous
 62
     7
370
     9
100
AcDbPolyline
 90
        4
 70
     1
 43
3.0
 10
-96.56190810644239
 20
1126.219047498118
 42
0.4142135623731
 10
-98.06190810644239
 20
1127.719047498118
 42
0.4142135623731
 10
-99.56190810644239
 20
1126.219047498118
 42
0.4142135623731
 10
-98.06190810644239
 20
1124.719047498118
 42
0.4142135623731
  0
LWPOLYLINE
  5
7F
330
1F
100
AcDbEntity
  8
0-B_寸法
  6
Continuous
 62
     7
370
     9
100
AcDbPolyline
 90
        4
 70
     1
 43
3.0
 10
83.43831458939741
 20
1126.219047498118
 42
0.4142135623731
 10
81.93831458939741
 20
1127.719047498118
 42
0.4142135623731
 10
80.43831458939741
 20
1126.219047498118
 42
0.4142135623731
 10
81.93831458939741
 20
1124.719047498118
 42
0.4142135623731
  0
LINE
  5
80
330
1F
100
AcDbEntity
  8
0-B_寸法
  6
Continuous
 62
   120
370
     5
100
AcDbLine
 10
-98.06190810644239
 20
1486.219047498118
 30
0.0
 11
-98.06190810644239
 21
1126.219047498118
 31
0.0
  0
LINE
  5
81
330
1F
100
AcDbEntity
  8
0-B_寸法
  6
Continuous
 62
   120
370
     5
100
AcDbLine
 10
81.93831458939741
 20
1486.219047498118
 30
0.0
 11
81.93831458939741
 21
1126.219047498118
 31
0.0
  0
LINE
  5
82
330
1F
100
AcDbEntity
  8
0-B_寸法
  6
Continuous
 62
   120
370
     5
100
AcDbLine
 10
-1703.957059548474
 20
1486.219047498118
 30
0.0
 11
-1703.957059548474
 21
916.2190474981176
 31
0.0
  0
MTEXT
  5
83
330
1F
100
AcDbEntity
  8
0-B_寸法
  6
Continuous
 62
     7
370
     0
100
AcDbMText
 10
-1853.956985316528
 20
916.9390969860813
 30
0.0
 40
91.44
 41
120.0
 46
0.0
 71
     7
 72
     1
  1
{\fＭＳ ゴシック|b0|i0|c128|p49;30}
 73
     1
 44
1.0
  0
LWPOLYLINE
  5
84
330
1F
100
AcDbEntity
  8
0-B_寸法
  6
Continuous
 62
     7
370
     9
100
AcDbPolyline
 90
        4
 70
     1
 43
3.0
 10
-1882.45691108458
 20
916.2190474981176
 42
0.4142135623731
 10
-1883.95691108458
 20
917.7190474981177
 42
0.4142135623731
 10
-1885.45691108458
 20
916.2190474981176
 42
0.4142135623731
 10
-1883.95691108458
 20
914.7190474981176
 42
0.4142135623731
  0
LWPOLYLINE
  5
85
330
1F
100
AcDbEntity
  8
0-B_寸法
  6
Continuous
 62
     7
370
     9
100
AcDbPolyline
 90
        4
 70
     1
 43
3.0
 10
-1702.457059548474
 20
916.2190474981176
 42
0.4142135623731
 10
-1703.957059548474
 20
917.7190474981177
 42
0.4142135623731
 10
-1705.457059548474
 20
916.2190474981176
 42
0.4142135623731
 10
-1703.957059548474
 20
914.7190474981176
 42
0.4142135623731
  0
LINE
  5
86
330
1F
100
AcDbEntity
  8
0-B_寸法
  6
Continuous
 62
   120
370
     5
100
AcDbLine
 10
-1883.95691108458
 20
916.2190474981176
 30
0.0
 11
1867.834059887004
 21
916.2190474981176
 31
0.0
  0
LINE
  5
87
330
1F
100
AcDbEntity
  8
0-B_寸法
  6
Continuous
 62
   120
370
     5
100
AcDbLine
 10
1687.833466031429
 20
1486.219047498118
 30
0.0
 11
1687.833466031429
 21
916.2190474981176
 31
0.0
  0
MTEXT
  5
88
330
1F
100
AcDbEntity
  8
0-B_寸法
  6
Continuous
 62
     7
370
     0
100
AcDbMText
 10
1717.834134118949
 20
916.9390969860813
 30
0.0
 40
91.44
 41
120.0
 46
0.0
 71
     7
 72
     1
  1
{\fＭＳ ゴシック|b0|i0|c128|p49;30}
 73
     1
 44
1.0
  0
LWPOLYLINE
  5
89
330
1F
100
AcDbEntity
  8
0-B_寸法
  6
Continuous
 62
     7
370
     9
100
AcDbPolyline
 90
        4
 70
     1
 43
3.0
 10
1689.333466031429
 20
916.2190474981176
 42
0.4142135623731
 10
1687.833466031429
 20
917.7190474981177
 42
0.4142135623731
 10
1686.333466031429
 20
916.2190474981176
 42
0.4142135623731
 10
1687.833466031429
 20
914.7190474981176
 42
0.4142135623731
  0
LWPOLYLINE
  5
8A
330
1F
100
AcDbEntity
  8
0-B_寸法
  6
Continuous
 62
     7
370
     9
100
AcDbPolyline
 90
        4
 70
     1
 43
3.0
 10
1869.334059887004
 20
916.2190474981176
 42
0.4142135623731
 10
1867.834059887004
 20
917.7190474981177
 42
0.4142135623731
 10
1866.334059887004
 20
916.2190474981176
 42
0.4142135623731
 10
1867.834059887004
 20
914.7190474981176
 42
0.4142135623731
  0
LINE
  5
8B
330
1F
100
AcDbEntity
  8
0-B_寸法
  6
Continuous
 62
   120
370
     5
100
AcDbLine
 10
-1883.95691108458
 20
1486.219047498118
 30
0.0
 11
-1883.95691108458
 21
706.2190474981176
 31
0.0
  0
LWPOLYLINE
  5
8C
330
1F
100
AcDbEntity
  8
0-B_寸法
  6
Continuous
 62
     7
370
     9
100
AcDbPolyline
 90
        4
 70
     1
 43
3.0
 10
-1882.45691108458
 20
706.2190474981176
 42
0.4142135623731
 10
-1883.95691108458
 20
707.7190474981177
 42
0.4142135623731
 10
-1885.45691108458
 20
706.2190474981176
 42
0.4142135623731
 10
-1883.95691108458
 20
704.7190474981176
 42
0.4142135623731
  0
LINE
  5
8D
330
1F
100
AcDbEntity
  8
0-B_寸法
  6
Continuous
 62
   120
370
     5
100
AcDbLine
 10
1867.834059887004
 20
1486.219047498118
 30
0.0
 11
1867.834059887004
 21
706.2190474981176
 31
0.0
  0
LWPOLYLINE
  5
8E
330
1F
100
AcDbEntity
  8
0-B_寸法
  6
Continuous
 62
     7
370
     9
100
AcDbPolyline
 90
        4
 70
     1
 43
3.0
 10
1869.334059887004
 20
706.2190474981176
 42
0.4142135623731
 10
1867.834059887004
 20
707.7190474981177
 42
0.4142135623731
 10
1866.334059887004
 20
706.2190474981176
 42
0.4142135623731
 10
1867.834059887004
 20
704.7190474981176
 42
0.4142135623731
  0
MTEXT
  5
8F
330
1F
100
AcDbEntity
  8
0-B_寸法
  6
Continuous
 62
     7
370
     0
100
AcDbMText
 10
-1328.061796758522
 20
700.6856449183549
 30
0.0
 40
91.44000000000004
 41
2640.0
 46
0.0
 71
     7
 72
     1
  1
{\fＭＳ ゴシック|b0|i0|c128|p49;枠外＝1,824（1,644）<1,450> [1,324]〔1,190〕}
 73
     1
 44
1.0
  0
LINE
  5
90
330
1F
100
AcDbEntity
  8
0-B_寸法
  6
Continuous
 62
   120
370
     5
100
AcDbLine
 10
-1883.95691108458
 20
706.2190474981176
 30
0.0
 11
1867.834059887004
 21
706.2190474981176
 31
0.0
  0
MTEXT
  5
91
330
1F
100
AcDbEntity
  8
0-B_寸法
  6
Continuous
 62
     7
370
     0
100
AcDbMText
 10
-1328.061796758522
 20
919.4027385437506
 30
0.0
 40
91.44000000000004
 41
2640.0
 46
0.0
 71
     7
 72
     1
  1
{\fＭＳ ゴシック|b0|i0|c128|p49;枠内＝1,764（1,584）<1,390> [1,264]〔1,130〕}
 73
     1
 44
1.0
  0
MTEXT
  5
92
330
1F
100
AcDbEntity
  8
0-B_寸法
  6
Continuous
 62
     7
370
     0
100
AcDbMText
 10
-1577.957170896394
 20
1125.265890840599
 30
0.0
 40
78.37714285714283
 41
1440.0
 46
0.0
 71
     7
 72
     1
  1
{\fＭＳ ゴシック|b0|i0|c128|p49;867（777）<680> [617]〔550〕}
 73
     1
 44
1.0
  0
LINE
  5
93
330
1F
100
AcDbEntity
  8
0-0_補助線
  6
JWW_HOJO
 62
   120
370
     5
100
AcDbLine
 10
3067.834059887004
 20
916.2190474981176
 30
0.0
 11
-3083.95691108458
 21
916.2190474981176
 31
0.0
  0
LINE
  5
94
330
1F
100
AcDbEntity
  8
0-0_補助線
  6
JWW_HOJO
 62
   120
370
     5
100
AcDbLine
 10
3067.834059887004
 20
706.2190474981176
 30
0.0
 11
-3083.95691108458
 21
706.2190474981176
 31
0.0
  0
LINE
  5
95
330
1F
100
AcDbEntity
  8
0-0_補助線
  6
JWW_HOJO
 62
   120
370
     5
100
AcDbLine
 10
-3083.95691108458
 20
706.2190474981176
 30
0.0
 11
-3083.95691108458
 21
3076.217884685602
 31
0.0
  0
LINE
  5
96
330
1F
100
AcDbEntity
  8
0-0_補助線
  6
JWW_HOJO
 62
   120
370
     5
100
AcDbLine
 10
3067.834059887004
 20
3076.217884685602
 30
0.0
 11
3067.834059887004
 21
706.2190474981176
 31
0.0
  0
LINE
  5
97
330
1F
100
AcDbEntity
  8
0-0_補助線
  6
JWW_HOJO
 62
   120
370
     5
100
AcDbLine
 10
-880.0093724795386
 20
3076.217884685602
 30
0.0
 11
-880.0093724795386
 21
1486.219047498118
 31
0.0
  0
LINE
  5
98
330
1F
100
AcDbEntity
  8
0-0_補助線
  6
JWW_HOJO
 62
   120
370
     5
100
AcDbLine
 10
944.8858903104135
 20
1486.219047498118
 30
0.0
 11
944.8858903104135
 21
3076.217884685602
 31
0.0
  0
LINE
  5
99
330
1F
100
AcDbEntity
  8
0-0_補助線
  6
JWW_HOJO
 62
   120
370
     5
100
AcDbLine
 10
824.8858903104135
 20
1486.219047498118
 30
0.0
 11
824.8858903104135
 21
3076.217884685602
 31
0.0
  0
LINE
  5
9A
330
1F
100
AcDbEntity
  8
0-0_補助線
  6
JWW_HOJO
 62
   120
370
     5
100
AcDbLine
 10
-760.0093724795386
 20
3076.217884685602
 30
0.0
 11
-760.0093724795386
 21
1486.219047498118
 31
0.0
  0
MTEXT
  5
9B
330
1F
100
AcDbEntity
  8
0-A_文字
  6
Continuous
 62
     7
370
     9
100
AcDbMText
 10
1282.283173135548
 20
441.6368436343583
 30
0.0
 40
79.60178571428573
 41
2925.0
 46
0.0
 71
     7
 72
     1
  1
{\fＭＳ ゴシック|b0|i0|c128|p49;※大型サムターン表示錠使用時は、引戸引き残しストッパーを}
 73
     1
 44
1.0
  0
MTEXT
  5
9C
330
1F
100
AcDbEntity
  8
0-A_文字
  6
Continuous
 62
     7
370
     9
100
AcDbMText
 10
1282.283173135548
 20
336.640424461426
 30
0.0
 40
79.60894736842104
 41
2977.5
 46
0.0
 71
     7
 72
     1
  1
{\fＭＳ ゴシック|b0|i0|c128|p49;　ご使用ください。ただし、有効開口は102ミリ狭くなります。}
 73
     1
 44
1.0
  0
MTEXT
  5
9D
330
1F
100
AcDbEntity
  8
0-B_寸法
  6
Continuous
 62
     7
370
     0
100
AcDbMText
 10
169.5290301116788
 20
1131.575528301516
 30
0.0
 40
81.64285714285707
 41
1499.999999999999
 46
0.0
 71
     7
 72
     1
  1
{\fＭＳ ゴシック|b0|i0|c128|p49;867（777）<680> [617]〔550〕}
 73
     1
 44
1.0
  0
MTEXT
  5
9E
330
1F
100
AcDbEntity
  8
0-A_文字
  6
Continuous
 62
     7
370
     9
100
AcDbMText
 10
1282.283173135548
 20
546.1265757772154
 30
0.0
 40
78.58125
 41
825.0
 46
0.0
 71
     7
 72
     1
  1
{\fＭＳ ゴシック|b0|i0|c128|p49;※図示：左引き手}
 73
     1
 44
1.0
  0
LINE
  5
9F
330
1F
100
AcDbEntity
  8
0-A_文字
  6
Continuous
 62
    92
370
    13
100
AcDbLine
 10
5539.99947212838
 20
2981.96162459379
 30
0.0
 11
3715.999472128379
 21
2981.96162459379
 31
0.0
  0
ELLIPSE
  5
A0
330
1F
100
AcDbEntity
  8
戸当り
  6
Continuous
 62
    92
370
    13
100
AcDbEllipse
 10
4403.395507253982
 20
3146.294976216673
 30
0.0
 11
12.98493368979624
 21
48.46043226323234
 31
0.0
210
0.0
220
0.0
230
0.9999999999999999
 40
0.6
 41
1.570796326794897
 42
4.71238898038469
  0
LINE
  5
A1
330
1F
100
AcDbEntity
  8
戸当り
  6
Continuous
 62
    92
370
    13
100
AcDbLine
 10
4432.471766611921
 20
3138.504016002795
 30
0.0
 11
4374.319247896043
 21
3154.085936430551
 31
0.0
  0
LINE
  5
A2
330
1F
100
AcDbEntity
  8
戸当り
  6
Continuous
 62
    92
370
    13
100
AcDbLine
 10
4436.198760861397
 20
3152.413347901357
 30
0.0
 11
4378.046242145519
 21
3167.995268329113
 31
0.0
  0
ELLIPSE
  5
A3
330
1F
100
AcDbEntity
  8
戸当り
  6
Continuous
 62
    92
370
    13
100
AcDbEllipse
 10
4431.022242451329
 20
3249.399355620428
 30
0.0
 11
24.98936911097744
 21
93.26159517126003
 31
0.0
210
0.0
220
0.0
230
0.9999999999999998
 40
0.5
 41
4.340591432030095
 42
8.225779182329084
  0
ELLIPSE
  5
A4
330
1F
100
AcDbEntity
  8
戸当り
  6
Continuous
 62
    92
370
    13
100
AcDbEllipse
 10
4430.30724488207
 20
3246.730948364665
 30
0.0
 11
30.28038072946014
 21
113.0079193548746
 31
0.0
210
0.0
220
0.0
230
0.9999999999999999
 40
0.4
 41
3.840308517104467
 42
4.432552034522944
  0
ELLIPSE
  5
A5
330
1F
100
AcDbEntity
  8
戸当り
  6
Continuous
 62
    92
370
    13
100
AcDbEllipse
 10
4430.30724488207
 20
3246.730948364665
 30
0.0
 11
30.28038072946014
 21
113.0079193548746
 31
0.0
210
0.0
220
0.0
230
0.9999999999999999
 40
0.4
 41
1.850633272656679
 42
2.442876790075129
  0
ELLIPSE
  5
A6
330
1F
100
AcDbEntity
  8
戸当り
  6
Continuous
 62
    92
370
    13
100
AcDbEllipse
 10
4271.83641040061
 20
3103.130698086043
 30
0.0
 11
-8.711917129073296
 21
49.40773722812951
 31
0.0
210
0.0
220
0.0
230
1.0
 40
0.6
 41
1.570796326794897
 42
4.71238898038469
  0
LINE
  5
A7
330
1F
100
AcDbEntity
  8
戸当り
  6
Continuous
 62
    92
370
    13
100
AcDbLine
 10
4301.481052737485
 20
3108.357848363487
 30
0.0
 11
4242.191768063729
 21
3097.9035478086
 31
0.0
  0
LINE
  5
A8
330
1F
100
AcDbEntity
  8
戸当り
  6
Continuous
 62
    92
370
    13
100
AcDbLine
 10
4298.980518979081
 20
3122.539080006864
 30
0.0
 11
4239.691234305327
 21
3112.084779451975
 31
0.0
  0
ELLIPSE
  5
A9
330
1F
100
AcDbEntity
  8
戸当り
  6
Continuous
 62
    92
370
    13
100
AcDbEllipse
 10
4253.300942038894
 20
3208.250562823921
 30
0.0
 11
-16.76599342003076
 21
95.08467367085059
 31
0.0
210
0.0
220
0.0
230
1.0
 40
0.5
 41
4.340591432030095
 42
8.225779182329084
  0
ELLIPSE
  5
AA
330
1F
100
AcDbEntity
  8
戸当り
  6
Continuous
 62
    92
370
    13
100
AcDbEllipse
 10
4253.780651810212
 20
3205.52999351917
 30
0.0
 11
-20.31586559114605
 21
115.2169991768636
 31
0.0
210
0.0
220
0.0
230
1.0
 40
0.4
 41
3.840308517104467
 42
4.432552034522944
  0
ELLIPSE
  5
AB
330
1F
100
AcDbEntity
  8
戸当り
  6
Continuous
 62
    92
370
    13
100
AcDbEllipse
 10
4253.780651810212
 20
3205.52999351917
 30
0.0
 11
-20.31586559114605
 21
115.2169991768636
 31
0.0
210
0.0
220
0.0
230
1.0
 40
0.4
 41
1.850633272656679
 42
2.442876790075129
  0
ELLIPSE
  5
AC
330
1F
100
AcDbEntity
  8
戸当り
  6
Continuous
 62
    92
370
    13
100
AcDbEllipse
 10
4980.292190381732
 20
3143.614367794372
 30
0.0
 11
12.98493368979624
 21
48.46043226323234
 31
0.0
210
0.0
220
0.0
230
0.9999999999999999
 40
0.6
 41
1.570796326794897
 42
4.71238898038469
  0
LINE
  5
AD
330
1F
100
AcDbEntity
  8
戸当り
  6
Continuous
 62
    92
370
    13
100
AcDbLine
 10
5009.368449739672
 20
3135.823407580494
 30
0.0
 11
4951.215931023793
 21
3151.405328008249
 31
0.0
  0
LINE
  5
AE
330
1F
100
AcDbEntity
  8
戸当り
  6
Continuous
 62
    92
370
    13
100
AcDbLine
 10
5013.095443989145
 20
3149.732739479057
 30
0.0
 11
4954.942925273266
 21
3165.314659906812
 31
0.0
  0
ELLIPSE
  5
AF
330
1F
100
AcDbEntity
  8
戸当り
  6
Continuous
 62
    92
370
    13
100
AcDbEllipse
 10
5007.91892557908
 20
3246.718747198127
 30
0.0
 11
24.98936911097744
 21
93.26159517126003
 31
0.0
210
0.0
220
0.0
230
0.9999999999999998
 40
0.5
 41
4.340591432030095
 42
8.225779182329084
  0
ELLIPSE
  5
B0
330
1F
100
AcDbEntity
  8
戸当り
  6
Continuous
 62
    92
370
    13
100
AcDbEllipse
 10
5007.203928009821
 20
3244.050339942364
 30
0.0
 11
30.28038072946014
 21
113.0079193548746
 31
0.0
210
0.0
220
0.0
230
0.9999999999999999
 40
0.4
 41
3.840308517104467
 42
4.432552034522944
  0
ELLIPSE
  5
B1
330
1F
100
AcDbEntity
  8
戸当り
  6
Continuous
 62
    92
370
    13
100
AcDbEllipse
 10
5007.203928009821
 20
3244.050339942364
 30
0.0
 11
30.28038072946014
 21
113.0079193548746
 31
0.0
210
0.0
220
0.0
230
0.9999999999999999
 40
0.4
 41
1.850633272656679
 42
2.442876790075129
  0
ELLIPSE
  5
B2
330
1F
100
AcDbEntity
  8
戸当り
  6
Continuous
 62
    92
370
    13
100
AcDbEllipse
 10
4848.733093528356
 20
3100.450089663742
 30
0.0
 11
-8.711917129073296
 21
49.40773722812951
 31
0.0
210
0.0
220
0.0
230
1.0
 40
0.6
 41
1.570796326794897
 42
4.71238898038469
  0
LINE
  5
B3
330
1F
100
AcDbEntity
  8
戸当り
  6
Continuous
 62
    92
370
    13
100
AcDbLine
 10
4878.377735865233
 20
3105.677239941187
 30
0.0
 11
4819.088451191479
 21
3095.222939386298
 31
0.0
  0
LINE
  5
B4
330
1F
100
AcDbEntity
  8
戸当り
  6
Continuous
 62
    92
370
    13
100
AcDbLine
 10
4875.87720210683
 20
3119.858471584563
 30
0.0
 11
4816.587917433075
 21
3109.404171029674
 31
0.0
  0
ELLIPSE
  5
B5
330
1F
100
AcDbEntity
  8
戸当り
  6
Continuous
 62
    92
370
    13
100
AcDbEllipse
 10
4830.197625166643
 20
3205.569954401621
 30
0.0
 11
-16.76599342003076
 21
95.08467367085059
 31
0.0
210
0.0
220
0.0
230
1.0
 40
0.5
 41
4.340591432030095
 42
8.225779182329084
  0
ELLIPSE
  5
B6
330
1F
100
AcDbEntity
  8
戸当り
  6
Continuous
 62
    92
370
    13
100
AcDbEllipse
 10
4830.677334937958
 20
3202.849385096869
 30
0.0
 11
-20.31586559114605
 21
115.2169991768636
 31
0.0
210
0.0
220
0.0
230
1.0
 40
0.4
 41
3.840308517104467
 42
4.432552034522944
  0
ELLIPSE
  5
B7
330
1F
100
AcDbEntity
  8
戸当り
  6
Continuous
 62
    92
370
    13
100
AcDbEllipse
 10
4830.677334937958
 20
3202.849385096869
 30
0.0
 11
-20.31586559114605
 21
115.2169991768636
 31
0.0
210
0.0
220
0.0
230
1.0
 40
0.4
 41
1.850633272656679
 42
2.442876790075129
  0
LINE
  5
B8
330
1F
100
AcDbEntity
  8
戸当り
  6
Continuous
 62
    40
370
    15
100
AcDbLine
 10
4179.199472128381
 20
3445.119722521802
 30
0.0
 11
4179.199472128381
 21
3466.719722521802
 31
0.0
  0
LINE
  5
B9
330
1F
100
AcDbEntity
  8
戸当り
  6
Continuous
 62
    40
370
    15
100
AcDbLine
 10
3739.999472128378
 20
3445.119722521802
 30
0.0
 11
4179.199472128381
 21
3445.119722521802
 31
0.0
  0
LINE
  5
BA
330
1F
100
AcDbEntity
  8
戸当り
  6
Continuous
 62
    40
370
    15
100
AcDbLine
 10
3811.999472128381
 20
3466.719722521802
 30
0.0
 11
4179.199472128381
 21
3466.719722521802
 31
0.0
  0
LINE
  5
BB
330
1F
100
AcDbEntity
  8
戸当り
  6
Continuous
 62
    40
370
    15
100
AcDbLine
 10
3811.999472128381
 20
3466.719722521802
 30
0.0
 11
3811.999472128381
 21
3488.319722521802
 31
0.0
  0
LINE
  5
BC
330
1F
100
AcDbEntity
  8
戸当り
  6
JWW_DASHED2
 62
    40
370
    15
100
AcDbLine
 10
4164.79947212838
 20
3477.519722521802
 30
0.0
 11
3811.999472128381
 21
3477.519722521802
 31
0.0
  0
LINE
  5
BD
330
1F
100
AcDbEntity
  8
戸当り
  6
Continuous
 62
    40
370
    15
100
AcDbLine
 10
3811.999472128381
 20
3488.319722521802
 30
0.0
 11
3739.999472128378
 21
3488.319722521802
 31
0.0
  0
LINE
  5
BE
330
1F
100
AcDbEntity
  8
戸当り
  6
Continuous
 62
    40
370
    15
100
AcDbLine
 10
4531.999472128381
 20
3445.119722521802
 30
0.0
 11
4531.999472128381
 21
3488.319722521802
 31
0.0
  0
LINE
  5
BF
330
1F
100
AcDbEntity
  8
戸当り
  6
Continuous
 62
    40
370
    15
100
AcDbLine
 10
4164.79947212838
 20
3477.519722521802
 30
0.0
 11
4531.999472128381
 21
3477.519722521802
 31
0.0
  0
LINE
  5
C0
330
1F
100
AcDbEntity
  8
戸当り
  6
Continuous
 62
    40
370
    15
100
AcDbLine
 10
4531.999472128381
 20
3445.119722521802
 30
0.0
 11
4603.99947212838
 21
3445.119722521802
 31
0.0
  0
LINE
  5
C1
330
1F
100
AcDbEntity
  8
戸当り
  6
Continuous
 62
    40
370
    15
100
AcDbLine
 10
4531.999472128381
 20
3488.319722521802
 30
0.0
 11
4603.99947212838
 21
3488.319722521802
 31
0.0
  0
LINE
  5
C2
330
1F
100
AcDbEntity
  8
戸当り
  6
Continuous
 62
    92
370
    13
100
AcDbLine
 10
4355.59947212838
 20
3405.519722521802
 30
0.0
 11
4355.59947212838
 21
3549.519722521802
 31
0.0
  0
LINE
  5
C3
330
1F
100
AcDbEntity
  8
戸当り
  6
Continuous
 62
    40
370
    15
100
AcDbLine
 10
5076.799472128381
 20
3445.119722521802
 30
0.0
 11
5076.799472128381
 21
3466.719722521802
 31
0.0
  0
LINE
  5
C4
330
1F
100
AcDbEntity
  8
戸当り
  6
Continuous
 62
    40
370
    15
100
AcDbLine
 10
5515.999472128379
 20
3445.119722521802
 30
0.0
 11
5076.799472128381
 21
3445.119722521802
 31
0.0
  0
LINE
  5
C5
330
1F
100
AcDbEntity
  8
戸当り
  6
Continuous
 62
    40
370
    15
100
AcDbLine
 10
5443.99947212838
 20
3466.719722521802
 30
0.0
 11
5076.799472128381
 21
3466.719722521802
 31
0.0
  0
LINE
  5
C6
330
1F
100
AcDbEntity
  8
戸当り
  6
Continuous
 62
    40
370
    15
100
AcDbLine
 10
5443.99947212838
 20
3466.719722521802
 30
0.0
 11
5443.99947212838
 21
3488.319722521802
 31
0.0
  0
LINE
  5
C7
330
1F
100
AcDbEntity
  8
戸当り
  6
JWW_DASHED2
 62
    40
370
    15
100
AcDbLine
 10
5091.199472128382
 20
3477.519722521802
 30
0.0
 11
5443.99947212838
 21
3477.519722521802
 31
0.0
  0
LINE
  5
C8
330
1F
100
AcDbEntity
  8
戸当り
  6
Continuous
 62
    40
370
    15
100
AcDbLine
 10
5443.99947212838
 20
3488.319722521802
 30
0.0
 11
5515.999472128379
 21
3488.319722521802
 31
0.0
  0
LINE
  5
C9
330
1F
100
AcDbEntity
  8
戸当り
  6
Continuous
 62
    40
370
    15
100
AcDbLine
 10
4723.99947212838
 20
3445.119722521802
 30
0.0
 11
4723.99947212838
 21
3488.319722521802
 31
0.0
  0
LINE
  5
CA
330
1F
100
AcDbEntity
  8
戸当り
  6
Continuous
 62
    40
370
    15
100
AcDbLine
 10
5091.199472128382
 20
3477.519722521802
 30
0.0
 11
4723.99947212838
 21
3477.519722521802
 31
0.0
  0
LINE
  5
CB
330
1F
100
AcDbEntity
  8
戸当り
  6
Continuous
 62
    40
370
    15
100
AcDbLine
 10
4723.99947212838
 20
3445.119722521802
 30
0.0
 11
4651.999472128381
 21
3445.119722521802
 31
0.0
  0
LINE
  5
CC
330
1F
100
AcDbEntity
  8
戸当り
  6
Continuous
 62
    40
370
    15
100
AcDbLine
 10
4723.99947212838
 20
3488.319722521802
 30
0.0
 11
4651.999472128381
 21
3488.319722521802
 31
0.0
  0
LINE
  5
CD
330
1F
100
AcDbEntity
  8
戸当り
  6
Continuous
 62
    92
370
    13
100
AcDbLine
 10
4900.39947212838
 20
3405.519722521802
 30
0.0
 11
4900.39947212838
 21
3549.519722521802
 31
0.0
  0
LINE
  5
CE
330
1F
100
AcDbEntity
  8
0-0_補助線
  6
JWW_HOJO
 62
   120
370
     5
100
AcDbLine
 10
4171.999472128381
 20
3796.056766580298
 30
0.0
 11
4171.999472128381
 21
2981.96162459379
 31
0.0
  0
LINE
  5
CF
330
1F
100
AcDbEntity
  8
0-0_補助線
  6
JWW_HOJO
 62
   120
370
     5
100
AcDbLine
 10
5083.99947212838
 20
3796.056766580298
 30
0.0
 11
5083.99947212838
 21
2981.96162459379
 31
0.0
  0
LINE
  5
D0
330
1F
100
AcDbEntity
  8
0-0_補助線
  6
JWW_HOJO
 62
   120
370
     5
100
AcDbLine
 10
3739.999472128378
 20
3796.056766580298
 30
0.0
 11
3739.999472128378
 21
2981.96162459379
 31
0.0
  0
LINE
  5
D1
330
1F
100
AcDbEntity
  8
0-0_補助線
  6
JWW_HOJO
 62
   120
370
     5
100
AcDbLine
 10
4603.99947212838
 20
3796.056766580298
 30
0.0
 11
4603.99947212838
 21
2981.96162459379
 31
0.0
  0
LINE
  5
D2
330
1F
100
AcDbEntity
  8
0-0_補助線
  6
JWW_HOJO
 62
   120
370
     5
100
AcDbLine
 10
4651.999472128381
 20
3796.056766580298
 30
0.0
 11
4651.999472128381
 21
2981.96162459379
 31
0.0
  0
LINE
  5
D3
330
1F
100
AcDbEntity
  8
0-0_補助線
  6
JWW_HOJO
 62
   120
370
     5
100
AcDbLine
 10
5515.999472128379
 20
3796.056766580298
 30
0.0
 11
5515.999472128379
 21
2981.96162459379
 31
0.0
  0
LINE
  5
D4
330
1F
100
AcDbEntity
  8
0-A_文字
  6
Continuous
 62
    92
370
    13
100
AcDbLine
 10
3715.999472128379
 20
3796.056766580298
 30
0.0
 11
3715.999472128379
 21
2981.96162459379
 31
0.0
  0
LINE
  5
D5
330
1F
100
AcDbEntity
  8
0-A_文字
  6
Continuous
 62
    92
370
    13
100
AcDbLine
 10
4627.99947212838
 20
3796.056766580298
 30
0.0
 11
4627.99947212838
 21
2981.96162459379
 31
0.0
  0
LINE
  5
D6
330
1F
100
AcDbEntity
  8
0-A_文字
  6
Continuous
 62
    92
370
    13
100
AcDbLine
 10
5539.99947212838
 20
3796.056766580298
 30
0.0
 11
5539.99947212838
 21
2981.96162459379
 31
0.0
  0
LINE
  5
D7
330
1F
100
AcDbEntity
  8
0-A_文字
  6
Continuous
 62
    92
370
    13
100
AcDbLine
 10
5539.99947212838
 20
3796.056766580298
 30
0.0
 11
3715.999472128379
 21
3796.056766580298
 31
0.0
  0
LINE
  5
D8
330
1F
100
AcDbEntity
  8
0-A_文字
  6
Continuous
 62
    92
370
    13
100
AcDbLine
 10
3715.999472128379
 20
3652.056766580299
 30
0.0
 11
5539.99947212838
 21
3652.056766580299
 31
0.0
  0
MTEXT
  5
D9
330
1F
100
AcDbEntity
  8
0-A_文字
  6
Continuous
 62
     7
370
     9
100
AcDbMText
 10
3969.499472128381
 20
3672.633016580299
 30
0.0
 40
77.15249999999999
 41
405.0
 46
0.0
 71
     7
 72
     1
  1
{\fＭＳ ゴシック|b0|i0|c128|p49;右引き手}
 73
     1
 44
1.0
  0
MTEXT
  5
DA
330
1F
100
AcDbEntity
  8
0-A_文字
  6
Continuous
 62
     7
370
     9
100
AcDbMText
 10
4881.49947212838
 20
3672.633016580299
 30
0.0
 40
77.15249999999999
 41
405.0
 46
0.0
 71
     7
 72
     1
  1
{\fＭＳ ゴシック|b0|i0|c128|p49;左引き手}
 73
     1
 44
1.0
  0
MTEXT
  5
DB
330
1F
100
AcDbEntity
  8
0-A_文字
  6
Continuous
 62
     7
370
     9
100
AcDbMText
 10
3715.999472128379
 20
3811.776766580298
 30
0.0
 40
91.44
 41
720.0
 46
0.0
 71
     7
 72
     1
  1
{\fＭＳ ゴシック|b0|i0|c128|p49;■引き手方向}
 73
     1
 44
1.0
  0
LINE
  5
DC
330
1F
100
AcDbEntity
  8
0-4_枠
  6
Continuous
 62
    92
370
    13
100
AcDbLine
 10
1687.833466031429
 20
2296.218429053211
 30
0.0
 11
1867.834059887004
 21
2296.218429053211
 31
0.0
  0
LINE
  5
DD
330
1F
100
AcDbEntity
  8
0-4_枠
  6
Continuous
 62
    92
370
    13
100
AcDbLine
 10
1867.834059887004
 20
2296.218429053211
 30
0.0
 11
1867.834059887004
 21
2896.218429053211
 31
0.0
  0
LINE
  5
DE
330
1F
100
AcDbEntity
  8
0-4_枠
  6
Continuous
 62
    92
370
    13
100
AcDbLine
 10
1864.834059887002
 20
2893.218429053211
 30
0.0
 11
1864.834059887002
 21
2806.218429053211
 31
0.0
  0
LINE
  5
DF
330
1F
100
AcDbEntity
  8
0-4_枠
  6
Continuous
 62
    92
370
    13
100
AcDbLine
 10
1867.834059887004
 20
2806.218429053211
 30
0.0
 11
1864.834059887002
 21
2806.218429053211
 31
0.0
  0
LINE
  5
E0
330
1F
100
AcDbEntity
  8
0-4_枠
  6
Continuous
 62
    92
370
    13
100
AcDbLine
 10
1864.834059887002
 20
2296.218429053211
 30
0.0
 11
1864.834059887002
 21
2386.218429053211
 31
0.0
  0
LINE
  5
E1
330
1F
100
AcDbEntity
  8
0-4_枠
  6
Continuous
 62
    92
370
    13
100
AcDbLine
 10
1864.834059887002
 20
2386.218429053211
 30
0.0
 11
1867.834059887004
 21
2386.218429053211
 31
0.0
  0
LINE
  5
E2
330
1F
100
AcDbEntity
  8
0-4_枠
  6
Continuous
 62
    92
370
    13
100
AcDbLine
 10
1723.833466031429
 20
2422.218429053211
 30
0.0
 11
1687.833466031429
 21
2422.218429053211
 31
0.0
  0
LINE
  5
E3
330
1F
100
AcDbEntity
  8
0-4_枠
  6
Continuous
 62
    92
370
    13
100
AcDbLine
 10
1690.83303115594
 20
2296.218429053211
 30
0.0
 11
1690.83303115594
 21
2422.218429053211
 31
0.0
  0
LINE
  5
E4
330
1F
100
AcDbEntity
  8
0-4_枠
  6
Continuous
 62
    92
370
    13
100
AcDbLine
 10
1687.833466031429
 20
2296.218429053211
 30
0.0
 11
1687.833466031429
 21
2422.218429053211
 31
0.0
  0
LINE
  5
E5
330
1F
100
AcDbEntity
  8
0-4_枠
  6
Continuous
 62
    92
370
    13
100
AcDbLine
 10
1723.833466031429
 20
2422.218429053211
 30
0.0
 11
1723.833466031429
 21
2668.218429053211
 31
0.0
  0
LINE
  5
E6
330
1F
100
AcDbEntity
  8
0-4_枠
  6
Continuous
 62
    92
370
    13
100
AcDbLine
 10
1723.833466031429
 20
2668.218429053211
 30
0.0
 11
1687.833466031429
 21
2668.218429053211
 31
0.0
  0
LINE
  5
E7
330
1F
100
AcDbEntity
  8
0-0_補助線
  6
JWW_HOJO
 62
   120
370
     5
100
AcDbLine
 10
3067.834059887004
 20
3076.217884685602
 30
0.0
 11
-3083.95691108458
 21
3076.217884685602
 31
0.0
  0
LINE
  5
E8
330
1F
100
AcDbEntity
  8
仕上げ
  6
Continuous
 62
    40
370
    15
100
AcDbLine
 10
-3083.95691108458
 20
2746.218429053211
 30
0.0
 11
-1883.95691108458
 21
2746.218429053211
 31
0.0
  0
LINE
  5
E9
330
1F
100
AcDbEntity
  8
仕上げ
  6
Continuous
 62
    40
370
    15
100
AcDbLine
 10
-3083.95691108458
 20
2116.218429053211
 30
0.0
 11
-1883.95691108458
 21
2116.218429053211
 31
0.0
  0
LINE
  5
EA
330
1F
100
AcDbEntity
  8
仕上げ
  6
Continuous
 62
    40
370
    15
100
AcDbLine
 10
-3083.95691108458
 20
2041.218429053211
 30
0.0
 11
-1883.95691108458
 21
2041.218429053211
 31
0.0
  0
LINE
  5
EB
330
1F
100
AcDbEntity
  8
仕上げ
  6
Continuous
 62
    40
370
    15
100
AcDbLine
 10
-3083.95691108458
 20
2821.218429053211
 30
0.0
 11
-1883.95691108458
 21
2821.218429053211
 31
0.0
  0
LINE
  5
EC
330
1F
100
AcDbEntity
  8
仕上げ
  6
Continuous
 62
    40
370
    15
100
AcDbLine
 10
1867.833317567533
 20
2746.218429053211
 30
0.0
 11
3067.834059887004
 21
2746.218429053211
 31
0.0
  0
LINE
  5
ED
330
1F
100
AcDbEntity
  8
仕上げ
  6
Continuous
 62
    40
370
    15
100
AcDbLine
 10
1867.833317567533
 20
2821.218429053211
 30
0.0
 11
3067.834059887004
 21
2821.218429053211
 31
0.0
  0
LINE
  5
EE
330
1F
100
AcDbEntity
  8
0-B_寸法
  6
Continuous
 62
   120
370
     5
100
AcDbLine
 10
1443.986964753622
 20
2296.218429053223
 30
0.0
 11
1597.833466031429
 21
2296.218429053223
 31
0.0
  0
LWPOLYLINE
  5
EF
330
1F
100
AcDbEntity
  8
0-B_寸法
  6
Continuous
 62
     7
370
     9
100
AcDbPolyline
 90
        4
 70
     1
 43
3.0
 10
1445.486964753622
 20
2296.218429053223
 42
0.4142135623731
 10
1443.986964753622
 20
2297.718429053223
 42
0.4142135623731
 10
1442.486964753622
 20
2296.218429053223
 42
0.4142135623731
 10
1443.986964753622
 20
2294.718429053224
 42
0.4142135623731
  0
LINE
  5
F0
330
1F
100
AcDbEntity
  8
0-B_寸法
  6
Continuous
 62
   120
370
     5
100
AcDbLine
 10
1443.986964753622
 20
2896.218429053211
 30
0.0
 11
1597.833466031429
 21
2896.218429053211
 31
0.0
  0
LWPOLYLINE
  5
F1
330
1F
100
AcDbEntity
  8
0-B_寸法
  6
Continuous
 62
     7
370
     9
100
AcDbPolyline
 90
        4
 70
     1
 43
3.0
 10
1445.486964753622
 20
2896.218429053211
 42
0.4142135623731
 10
1443.986964753622
 20
2897.718429053211
 42
0.4142135623731
 10
1442.486964753622
 20
2896.218429053211
 42
0.4142135623731
 10
1443.986964753622
 20
2894.718429053211
 42
0.4142135623731
  0
LINE
  5
F2
330
1F
100
AcDbEntity
  8
0-B_寸法
  6
Continuous
 62
   120
370
     5
100
AcDbLine
 10
1443.986964753622
 20
2896.218429053211
 30
0.0
 11
1443.986964753622
 21
2296.218429053223
 31
0.0
  0
LINE
  5
F3
330
1F
100
AcDbEntity
  8
0-1_通り芯
  6
JWW_CENTER1
 62
   120
370
     5
100
AcDbLine
 10
-3083.95691108458
 20
2431.218429053211
 30
0.0
 11
3067.834059887004
 21
2431.218429053211
 31
0.0
  0
LINE
  5
F4
330
1F
100
AcDbEntity
  8
仕上げ
  6
Continuous
 62
    40
370
    15
100
AcDbLine
 10
81.93831458939741
 20
2371.218429053211
 30
0.0
 11
824.8858903104135
 21
2371.218429053211
 31
0.0
  0
LINE
  5
F5
330
1F
100
AcDbEntity
  8
仕上げ
  6
Continuous
 62
    40
370
    15
100
AcDbLine
 10
944.8858903104135
 20
2371.218429053211
 30
0.0
 11
1687.833466031429
 21
2371.218429053211
 31
0.0
  0
LINE
  5
F6
330
1F
100
AcDbEntity
  8
仕上げ
  6
Continuous
 62
    40
370
    15
100
AcDbLine
 10
81.93831458939741
 20
2296.218429053211
 30
0.0
 11
824.8858903104135
 21
2296.218429053211
 31
0.0
  0
LINE
  5
F7
330
1F
100
AcDbEntity
  8
仕上げ
  6
Continuous
 62
    40
370
    15
100
AcDbLine
 10
944.8858903104135
 20
2296.218429053211
 30
0.0
 11
1867.834059887004
 21
2296.218429053211
 31
0.0
  0
LINE
  5
F8
330
1F
100
AcDbEntity
  8
仕上げ
  6
Continuous
 62
    40
370
    15
100
AcDbLine
 10
3067.834059887004
 20
2116.218429053211
 30
0.0
 11
944.8858903104135
 21
2116.218429053211
 31
0.0
  0
LINE
  5
F9
330
1F
100
AcDbEntity
  8
仕上げ
  6
Continuous
 62
    40
370
    15
100
AcDbLine
 10
824.8858903104135
 20
2116.218429053211
 30
0.0
 11
81.93831458939741
 21
2116.218429053211
 31
0.0
  0
LINE
  5
FA
330
1F
100
AcDbEntity
  8
仕上げ
  6
Continuous
 62
    40
370
    15
100
AcDbLine
 10
3067.834059887004
 20
2041.218429053211
 30
0.0
 11
944.8858903104135
 21
2041.218429053211
 31
0.0
  0
LINE
  5
FB
330
1F
100
AcDbEntity
  8
仕上げ
  6
Continuous
 62
    40
370
    15
100
AcDbLine
 10
824.8858903104135
 20
2041.218429053211
 30
0.0
 11
81.93831458939741
 21
2041.218429053211
 31
0.0
  0
LINE
  5
FC
330
1F
100
AcDbEntity
  8
ハッチ
  6
JWW_DASHED1
 62
   120
370
     5
100
AcDbLine
 10
3031.411204450583
 20
2041.218429053215
 30
0.0
 11
3067.834059886992
 21
2077.641284489622
 31
0.0
  0
LINE
  5
FD
330
1F
100
AcDbEntity
  8
ハッチ
  6
JWW_DASHED1
 62
   120
370
     5
100
AcDbLine
 10
2988.984797579387
 20
2041.218429053218
 30
0.0
 11
3063.9847975794
 21
2116.218429053228
 31
0.0
  0
LINE
  5
FE
330
1F
100
AcDbEntity
  8
ハッチ
  6
JWW_DASHED1
 62
   120
370
     5
100
AcDbLine
 10
2946.55839070819
 20
2041.218429053221
 30
0.0
 11
3021.558390708187
 21
2116.218429053216
 31
0.0
  0
LINE
  5
FF
330
1F
100
AcDbEntity
  8
ハッチ
  6
JWW_DASHED1
 62
   120
370
     5
100
AcDbLine
 10
2904.131983836994
 20
2041.218429053225
 30
0.0
 11
2979.131983836988
 21
2116.21842905322
 31
0.0
  0
LINE
  5
100
330
1F
100
AcDbEntity
  8
ハッチ
  6
JWW_DASHED1
 62
   120
370
     5
100
AcDbLine
 10
2861.705576965797
 20
2041.218429053228
 30
0.0
 11
2936.705576965792
 21
2116.218429053223
 31
0.0
  0
LINE
  5
101
330
1F
100
AcDbEntity
  8
ハッチ
  6
JWW_DASHED1
 62
   120
370
     5
100
AcDbLine
 10
2819.279170094645
 20
2041.218429053221
 30
0.0
 11
2894.279170094641
 21
2116.218429053216
 31
0.0
  0
LINE
  5
102
330
1F
100
AcDbEntity
  8
ハッチ
  6
JWW_DASHED1
 62
   120
370
     5
100
AcDbLine
 10
2776.852763223448
 20
2041.218429053225
 30
0.0
 11
2851.852763223443
 21
2116.21842905322
 31
0.0
  0
LINE
  5
103
330
1F
100
AcDbEntity
  8
ハッチ
  6
JWW_DASHED1
 62
   120
370
     5
100
AcDbLine
 10
2734.426356352236
 20
2041.218429053213
 30
0.0
 11
2809.426356352246
 21
2116.218429053223
 31
0.0
  0
LINE
  5
104
330
1F
100
AcDbEntity
  8
ハッチ
  6
JWW_DASHED1
 62
   120
370
     5
100
AcDbLine
 10
2691.999949481041
 20
2041.218429053217
 30
0.0
 11
2766.999949481051
 21
2116.218429053228
 31
0.0
  0
LINE
  5
105
330
1F
100
AcDbEntity
  8
ハッチ
  6
JWW_DASHED1
 62
   120
370
     5
100
AcDbLine
 10
2649.573542609841
 20
2041.218429053217
 30
0.0
 11
2724.573542609836
 21
2116.218429053213
 31
0.0
  0
LINE
  5
106
330
1F
100
AcDbEntity
  8
ハッチ
  6
JWW_DASHED1
 62
   120
370
     5
100
AcDbLine
 10
2607.147135738643
 20
2041.21842905322
 30
0.0
 11
2682.147135738641
 21
2116.218429053215
 31
0.0
  0
LINE
  5
107
330
1F
100
AcDbEntity
  8
ハッチ
  6
JWW_DASHED1
 62
   120
370
     5
100
AcDbLine
 10
2564.720728867446
 20
2041.218429053223
 30
0.0
 11
2639.720728867443
 21
2116.21842905322
 31
0.0
  0
LINE
  5
108
330
1F
100
AcDbEntity
  8
ハッチ
  6
JWW_DASHED1
 62
   120
370
     5
100
AcDbLine
 10
2522.294321996297
 20
2041.21842905322
 30
0.0
 11
2597.294321996296
 21
2116.218429053215
 31
0.0
  0
LINE
  5
109
330
1F
100
AcDbEntity
  8
ハッチ
  6
JWW_DASHED1
 62
   120
370
     5
100
AcDbLine
 10
2479.867915125101
 20
2041.218429053223
 30
0.0
 11
2554.867915125097
 21
2116.218429053218
 31
0.0
  0
LINE
  5
10A
330
1F
100
AcDbEntity
  8
ハッチ
  6
JWW_DASHED1
 62
   120
370
     5
100
AcDbLine
 10
2437.441508253889
 20
2041.218429053211
 30
0.0
 11
2512.441508253901
 21
2116.218429053221
 31
0.0
  0
LINE
  5
10B
330
1F
100
AcDbEntity
  8
ハッチ
  6
JWW_DASHED1
 62
   120
370
     5
100
AcDbLine
 10
2395.015101382696
 20
2041.218429053215
 30
0.0
 11
2470.015101382704
 21
2116.218429053226
 31
0.0
  0
LINE
  5
10C
330
1F
100
AcDbEntity
  8
ハッチ
  6
JWW_DASHED1
 62
   120
370
     5
100
AcDbLine
 10
2352.588694511497
 20
2041.218429053218
 30
0.0
 11
2427.588694511509
 21
2116.218429053229
 31
0.0
  0
LINE
  5
10D
330
1F
100
AcDbEntity
  8
ハッチ
  6
JWW_DASHED1
 62
   120
370
     5
100
AcDbLine
 10
3057.588694511496
 20
2746.218429053215
 30
0.0
 11
3067.834059886995
 21
2756.463794428717
 31
0.0
  0
LINE
  5
10E
330
1F
100
AcDbEntity
  8
ハッチ
  6
JWW_DASHED1
 62
   120
370
     5
100
AcDbLine
 10
2310.162287640296
 20
2041.218429053217
 30
0.0
 11
2385.162287640291
 21
2116.218429053212
 31
0.0
  0
LINE
  5
10F
330
1F
100
AcDbEntity
  8
ハッチ
  6
JWW_DASHED1
 62
   120
370
     5
100
AcDbLine
 10
3015.162287640297
 20
2746.218429053218
 30
0.0
 11
3067.834059886985
 21
2798.890201299907
 31
0.0
  0
LINE
  5
110
330
1F
100
AcDbEntity
  8
ハッチ
  6
JWW_DASHED1
 62
   120
370
     5
100
AcDbLine
 10
2267.735880769097
 20
2041.21842905322
 30
0.0
 11
2342.735880769096
 21
2116.218429053215
 31
0.0
  0
LINE
  5
111
330
1F
100
AcDbEntity
  8
ハッチ
  6
JWW_DASHED1
 62
   120
370
     5
100
AcDbLine
 10
2972.735880769099
 20
2746.218429053222
 30
0.0
 11
3047.735880769096
 21
2821.218429053218
 31
0.0
  0
LINE
  5
112
330
1F
100
AcDbEntity
  8
ハッチ
  6
JWW_DASHED1
 62
   120
370
     5
100
AcDbLine
 10
2225.309473897901
 20
2041.218429053223
 30
0.0
 11
2300.309473897897
 21
2116.218429053218
 31
0.0
  0
LINE
  5
113
330
1F
100
AcDbEntity
  8
ハッチ
  6
JWW_DASHED1
 62
   120
370
     5
100
AcDbLine
 10
2930.309473897904
 20
2746.218429053225
 30
0.0
 11
3005.309473897899
 21
2821.218429053222
 31
0.0
  0
LINE
  5
114
330
1F
100
AcDbEntity
  8
ハッチ
  6
JWW_DASHED1
 62
   120
370
     5
100
AcDbLine
 10
2182.883067026755
 20
2041.218429053221
 30
0.0
 11
2257.88306702675
 21
2116.218429053216
 31
0.0
  0
LINE
  5
115
330
1F
100
AcDbEntity
  8
ハッチ
  6
JWW_DASHED1
 62
   120
370
     5
100
AcDbLine
 10
2887.883067026752
 20
2746.218429053218
 30
0.0
 11
2962.883067026747
 21
2821.218429053215
 31
0.0
  0
LINE
  5
116
330
1F
100
AcDbEntity
  8
ハッチ
  6
JWW_DASHED1
 62
   120
370
     5
100
AcDbLine
 10
2140.456660155559
 20
2041.218429053225
 30
0.0
 11
2215.456660155552
 21
2116.21842905322
 31
0.0
  0
LINE
  5
117
330
1F
100
AcDbEntity
  8
ハッチ
  6
JWW_DASHED1
 62
   120
370
     5
100
AcDbLine
 10
2845.456660155555
 20
2746.218429053224
 30
0.0
 11
2920.456660155552
 21
2821.218429053218
 31
0.0
  0
LINE
  5
118
330
1F
100
AcDbEntity
  8
ハッチ
  6
JWW_DASHED1
 62
   120
370
     5
100
AcDbLine
 10
2098.030253284345
 20
2041.218429053213
 30
0.0
 11
2173.030253284355
 21
2116.218429053223
 31
0.0
  0
LINE
  5
119
330
1F
100
AcDbEntity
  8
ハッチ
  6
JWW_DASHED1
 62
   120
370
     5
100
AcDbLine
 10
2803.030253284359
 20
2746.218429053226
 30
0.0
 11
2878.030253284355
 21
2821.218429053222
 31
0.0
  0
LINE
  5
11A
330
1F
100
AcDbEntity
  8
ハッチ
  6
JWW_DASHED1
 62
   120
370
     5
100
AcDbLine
 10
2055.60384641315
 20
2041.218429053217
 30
0.0
 11
2130.60384641316
 21
2116.218429053228
 31
0.0
  0
LINE
  5
11B
330
1F
100
AcDbEntity
  8
ハッチ
  6
JWW_DASHED1
 62
   120
370
     5
100
AcDbLine
 10
2760.603846413147
 20
2746.218429053215
 30
0.0
 11
2835.603846413159
 21
2821.218429053225
 31
0.0
  0
LINE
  5
11C
330
1F
100
AcDbEntity
  8
ハッチ
  6
JWW_DASHED1
 62
   120
370
     5
100
AcDbLine
 10
2013.177439541952
 20
2041.21842905322
 30
0.0
 11
2088.17743954195
 21
2116.218429053215
 31
0.0
  0
LINE
  5
11D
330
1F
100
AcDbEntity
  8
ハッチ
  6
JWW_DASHED1
 62
   120
370
     5
100
AcDbLine
 10
2718.177439541947
 20
2746.218429053215
 30
0.0
 11
2793.177439541959
 21
2821.218429053225
 31
0.0
  0
LINE
  5
11E
330
1F
100
AcDbEntity
  8
ハッチ
  6
JWW_DASHED1
 62
   120
370
     5
100
AcDbLine
 10
1970.75103267075
 20
2041.218429053215
 30
0.0
 11
2045.751032670745
 21
2116.218429053211
 31
0.0
  0
LINE
  5
11F
330
1F
100
AcDbEntity
  8
ハッチ
  6
JWW_DASHED1
 62
   120
370
     5
100
AcDbLine
 10
2675.75103267075
 20
2746.218429053217
 30
0.0
 11
2750.751032670745
 21
2821.218429053213
 31
0.0
  0
LINE
  5
120
330
1F
100
AcDbEntity
  8
ハッチ
  6
JWW_DASHED1
 62
   120
370
     5
100
AcDbLine
 10
1928.324625799552
 20
2041.218429053219
 30
0.0
 11
2003.32462579955
 21
2116.218429053215
 31
0.0
  0
LINE
  5
121
330
1F
100
AcDbEntity
  8
ハッチ
  6
JWW_DASHED1
 62
   120
370
     5
100
AcDbLine
 10
2633.324625799552
 20
2746.21842905322
 30
0.0
 11
2708.32462579955
 21
2821.218429053217
 31
0.0
  0
LINE
  5
122
330
1F
100
AcDbEntity
  8
ハッチ
  6
JWW_DASHED1
 62
   120
370
     5
100
AcDbLine
 10
1885.898218928355
 20
2041.218429053222
 30
0.0
 11
1960.898218928352
 21
2116.218429053218
 31
0.0
  0
LINE
  5
123
330
1F
100
AcDbEntity
  8
ハッチ
  6
JWW_DASHED1
 62
   120
370
     5
100
AcDbLine
 10
2590.898218928355
 20
2746.218429053224
 30
0.0
 11
2665.898218928352
 21
2821.21842905322
 31
0.0
  0
LINE
  5
124
330
1F
100
AcDbEntity
  8
ハッチ
  6
JWW_DASHED1
 62
   120
370
     5
100
AcDbLine
 10
1843.47181205721
 20
2041.218429053223
 30
0.0
 11
1918.471812057206
 21
2116.218429053218
 31
0.0
  0
LINE
  5
125
330
1F
100
AcDbEntity
  8
ハッチ
  6
JWW_DASHED1
 62
   120
370
     5
100
AcDbLine
 10
2548.47181205721
 20
2746.218429053222
 30
0.0
 11
2623.471812057205
 21
2821.218429053217
 31
0.0
  0
LINE
  5
126
330
1F
100
AcDbEntity
  8
ハッチ
  6
JWW_DASHED1
 62
   120
370
     5
100
AcDbLine
 10
1801.045405185999
 20
2041.218429053211
 30
0.0
 11
1876.04540518601
 21
2116.218429053222
 31
0.0
  0
LINE
  5
127
330
1F
100
AcDbEntity
  8
ハッチ
  6
JWW_DASHED1
 62
   120
370
     5
100
AcDbLine
 10
2506.045405186013
 20
2746.218429053226
 30
0.0
 11
2581.045405186008
 21
2821.218429053221
 31
0.0
  0
LINE
  5
128
330
1F
100
AcDbEntity
  8
ハッチ
  6
JWW_DASHED1
 62
   120
370
     5
100
AcDbLine
 10
1758.618998314805
 20
2041.218429053215
 30
0.0
 11
1833.618998314813
 21
2116.218429053225
 31
0.0
  0
LINE
  5
129
330
1F
100
AcDbEntity
  8
ハッチ
  6
JWW_DASHED1
 62
   120
370
     5
100
AcDbLine
 10
2463.618998314801
 20
2746.218429053215
 30
0.0
 11
2538.618998314813
 21
2821.218429053225
 31
0.0
  0
LINE
  5
12A
330
1F
100
AcDbEntity
  8
ハッチ
  6
JWW_DASHED1
 62
   120
370
     5
100
AcDbLine
 10
1716.192591443606
 20
2041.218429053218
 30
0.0
 11
1791.192591443618
 21
2116.21842905323
 31
0.0
  0
LINE
  5
12B
330
1F
100
AcDbEntity
  8
ハッチ
  6
JWW_DASHED1
 62
   120
370
     5
100
AcDbLine
 10
2421.192591443605
 20
2746.218429053218
 30
0.0
 11
2496.192591443618
 21
2821.218429053228
 31
0.0
  0
LINE
  5
12C
330
1F
100
AcDbEntity
  8
ハッチ
  6
JWW_DASHED1
 62
   120
370
     5
100
AcDbLine
 10
1673.766184572399
 20
2041.218429053211
 30
0.0
 11
1748.766184572396
 21
2116.218429053208
 31
0.0
  0
LINE
  5
12D
330
1F
100
AcDbEntity
  8
ハッチ
  6
JWW_DASHED1
 62
   120
370
     5
100
AcDbLine
 10
2378.7661845724
 20
2746.218429053213
 30
0.0
 11
2453.766184572411
 21
2821.218429053224
 31
0.0
  0
LINE
  5
12E
330
1F
100
AcDbEntity
  8
ハッチ
  6
JWW_DASHED1
 62
   120
370
     5
100
AcDbLine
 10
1631.339777701205
 20
2041.218429053215
 30
0.0
 11
1706.339777701199
 21
2116.218429053211
 31
0.0
  0
LINE
  5
12F
330
1F
100
AcDbEntity
  8
ハッチ
  6
JWW_DASHED1
 62
   120
370
     5
100
AcDbLine
 10
2336.339777701205
 20
2746.218429053215
 30
0.0
 11
2411.3397777012
 21
2821.218429053213
 31
0.0
  0
LINE
  5
130
330
1F
100
AcDbEntity
  8
ハッチ
  6
JWW_DASHED1
 62
   120
370
     5
100
AcDbLine
 10
1588.913370830006
 20
2041.218429053218
 30
0.0
 11
1663.913370830005
 21
2116.218429053215
 31
0.0
  0
LINE
  5
131
330
1F
100
AcDbEntity
  8
ハッチ
  6
JWW_DASHED1
 62
   120
370
     5
100
AcDbLine
 10
2293.913370830006
 20
2746.218429053218
 30
0.0
 11
2368.913370830001
 21
2821.218429053215
 31
0.0
  0
LINE
  5
132
330
1F
100
AcDbEntity
  8
ハッチ
  6
JWW_DASHED1
 62
   120
370
     5
100
AcDbLine
 10
1546.486963958864
 20
2041.218429053221
 30
0.0
 11
1621.486963958859
 21
2116.218429053216
 31
0.0
  0
LINE
  5
133
330
1F
100
AcDbEntity
  8
ハッチ
  6
JWW_DASHED1
 62
   120
370
     5
100
AcDbLine
 10
2251.486963958864
 20
2746.218429053222
 30
0.0
 11
2326.486963958859
 21
2821.218429053217
 31
0.0
  0
LINE
  5
134
330
1F
100
AcDbEntity
  8
ハッチ
  6
JWW_DASHED1
 62
   120
370
     5
100
AcDbLine
 10
1504.060557087667
 20
2041.218429053225
 30
0.0
 11
1579.060557087662
 21
2116.218429053221
 31
0.0
  0
LINE
  5
135
330
1F
100
AcDbEntity
  8
ハッチ
  6
JWW_DASHED1
 62
   120
370
     5
100
AcDbLine
 10
2209.060557087668
 20
2746.218429053225
 30
0.0
 11
2284.060557087661
 21
2821.21842905322
 31
0.0
  0
LINE
  5
136
330
1F
100
AcDbEntity
  8
ハッチ
  6
JWW_DASHED1
 62
   120
370
     5
100
AcDbLine
 10
1461.634150216454
 20
2041.218429053213
 30
0.0
 11
1536.634150216467
 21
2116.218429053225
 31
0.0
  0
LINE
  5
137
330
1F
100
AcDbEntity
  8
ハッチ
  6
JWW_DASHED1
 62
   120
370
     5
100
AcDbLine
 10
2166.634150216473
 20
2746.218429053228
 30
0.0
 11
2241.634150216464
 21
2821.218429053224
 31
0.0
  0
LINE
  5
138
330
1F
100
AcDbEntity
  8
ハッチ
  6
JWW_DASHED1
 62
   120
370
     5
100
AcDbLine
 10
1419.207743345258
 20
2041.218429053217
 30
0.0
 11
1494.207743345271
 21
2116.218429053228
 31
0.0
  0
LINE
  5
139
330
1F
100
AcDbEntity
  8
ハッチ
  6
JWW_DASHED1
 62
   120
370
     5
100
AcDbLine
 10
1674.207743345261
 20
2296.21842905322
 30
0.0
 11
1687.83346603142
 21
2309.844151739379
 31
0.0
  0
LINE
  5
13A
330
1F
100
AcDbEntity
  8
ハッチ
  6
JWW_DASHED1
 62
   120
370
     5
100
AcDbLine
 10
2124.207743345259
 20
2746.218429053217
 30
0.0
 11
2199.207743345269
 21
2821.218429053228
 31
0.0
  0
LINE
  5
13B
330
1F
100
AcDbEntity
  8
ハッチ
  6
JWW_DASHED1
 62
   120
370
     5
100
AcDbLine
 10
1376.781336474061
 20
2041.21842905322
 30
0.0
 11
1451.781336474073
 21
2116.218429053231
 31
0.0
  0
LINE
  5
13C
330
1F
100
AcDbEntity
  8
ハッチ
  6
JWW_DASHED1
 62
   120
370
     5
100
AcDbLine
 10
1631.781336474064
 20
2296.218429053223
 30
0.0
 11
1687.83346603142
 21
2352.270558610579
 31
0.0
  0
LINE
  5
13D
330
1F
100
AcDbEntity
  8
ハッチ
  6
JWW_DASHED1
 62
   120
370
     5
100
AcDbLine
 10
2081.781336474062
 20
2746.218429053221
 30
0.0
 11
2156.781336474074
 21
2821.218429053231
 31
0.0
  0
LINE
  5
13E
330
1F
100
AcDbEntity
  8
ハッチ
  6
JWW_DASHED1
 62
   120
370
     5
100
AcDbLine
 10
1334.354929602853
 20
2041.218429053211
 30
0.0
 11
1409.354929602849
 21
2116.218429053208
 31
0.0
  0
LINE
  5
13F
330
1F
100
AcDbEntity
  8
ハッチ
  6
JWW_DASHED1
 62
   120
370
     5
100
AcDbLine
 10
1589.35492960285
 20
2296.21842905321
 30
0.0
 11
1664.354929602864
 21
2371.218429053222
 31
0.0
  0
LINE
  5
140
330
1F
100
AcDbEntity
  8
ハッチ
  6
JWW_DASHED1
 62
   120
370
     5
100
AcDbLine
 10
2039.354929602854
 20
2746.218429053211
 30
0.0
 11
2114.354929602864
 21
2821.218429053224
 31
0.0
  0
LINE
  5
141
330
1F
100
AcDbEntity
  8
ハッチ
  6
JWW_DASHED1
 62
   120
370
     5
100
AcDbLine
 10
1291.928522731657
 20
2041.218429053215
 30
0.0
 11
1366.928522731651
 21
2116.21842905321
 31
0.0
  0
LINE
  5
142
330
1F
100
AcDbEntity
  8
ハッチ
  6
JWW_DASHED1
 62
   120
370
     5
100
AcDbLine
 10
1546.928522731654
 20
2296.218429053213
 30
0.0
 11
1621.928522731667
 21
2371.218429053225
 31
0.0
  0
LINE
  5
143
330
1F
100
AcDbEntity
  8
ハッチ
  6
JWW_DASHED1
 62
   120
370
     5
100
AcDbLine
 10
1996.928522731655
 20
2746.218429053215
 30
0.0
 11
2071.928522731652
 21
2821.21842905321
 31
0.0
  0
LINE
  5
144
330
1F
100
AcDbEntity
  8
ハッチ
  6
JWW_DASHED1
 62
   120
370
     5
100
AcDbLine
 10
1249.50211586046
 20
2041.218429053218
 30
0.0
 11
1324.502115860454
 21
2116.218429053213
 31
0.0
  0
LINE
  5
145
330
1F
100
AcDbEntity
  8
ハッチ
  6
JWW_DASHED1
 62
   120
370
     5
100
AcDbLine
 10
1504.502115860458
 20
2296.218429053216
 30
0.0
 11
1579.502115860469
 21
2371.218429053228
 31
0.0
  0
LINE
  5
146
330
1F
100
AcDbEntity
  8
ハッチ
  6
JWW_DASHED1
 62
   120
370
     5
100
AcDbLine
 10
1954.502115860459
 20
2746.218429053217
 30
0.0
 11
2029.502115860454
 21
2821.218429053213
 31
0.0
  0
LINE
  5
147
330
1F
100
AcDbEntity
  8
ハッチ
  6
JWW_DASHED1
 62
   120
370
     5
100
AcDbLine
 10
1207.07570898932
 20
2041.218429053223
 30
0.0
 11
1282.075708989314
 21
2116.218429053218
 31
0.0
  0
LINE
  5
148
330
1F
100
AcDbEntity
  8
ハッチ
  6
JWW_DASHED1
 62
   120
370
     5
100
AcDbLine
 10
1462.07570898932
 20
2296.218429053223
 30
0.0
 11
1537.075708989315
 21
2371.21842905322
 31
0.0
  0
LINE
  5
149
330
1F
100
AcDbEntity
  8
ハッチ
  6
JWW_DASHED1
 62
   120
370
     5
100
AcDbLine
 10
1912.075708989322
 20
2746.218429053225
 30
0.0
 11
1987.075708989315
 21
2821.21842905322
 31
0.0
  0
LINE
  5
14A
330
1F
100
AcDbEntity
  8
ハッチ
  6
JWW_DASHED1
 62
   120
370
     5
100
AcDbLine
 10
1164.649302118122
 20
2041.218429053226
 30
0.0
 11
1239.64930211812
 21
2116.218429053223
 31
0.0
  0
LINE
  5
14B
330
1F
100
AcDbEntity
  8
ハッチ
  6
JWW_DASHED1
 62
   120
370
     5
100
AcDbLine
 10
1419.649302118122
 20
2296.218429053226
 30
0.0
 11
1494.649302118119
 21
2371.218429053222
 31
0.0
  0
LINE
  5
14C
330
1F
100
AcDbEntity
  8
ハッチ
  6
JWW_DASHED1
 62
   120
370
     5
100
AcDbLine
 10
1869.649302118127
 20
2746.218429053228
 30
0.0
 11
1944.649302118119
 21
2821.218429053224
 31
0.0
  0
LINE
  5
14D
330
1F
100
AcDbEntity
  8
ハッチ
  6
JWW_DASHED1
 62
   120
370
     5
100
AcDbLine
 10
1122.222895246912
 20
2041.218429053215
 30
0.0
 11
1197.222895246922
 21
2116.218429053226
 31
0.0
  0
LINE
  5
14E
330
1F
100
AcDbEntity
  8
ハッチ
  6
JWW_DASHED1
 62
   120
370
     5
100
AcDbLine
 10
1377.222895246915
 20
2296.21842905322
 30
0.0
 11
1452.222895246912
 21
2371.218429053215
 31
0.0
  0
LINE
  5
14F
330
1F
100
AcDbEntity
  8
ハッチ
  6
JWW_DASHED1
 62
   120
370
     5
100
AcDbLine
 10
1867.834059886982
 20
2786.829593693287
 30
0.0
 11
1902.222895246922
 21
2821.218429053226
 31
0.0
  0
LINE
  5
150
330
1F
100
AcDbEntity
  8
ハッチ
  6
JWW_DASHED1
 62
   120
370
     5
100
AcDbLine
 10
1079.796488375714
 20
2041.218429053218
 30
0.0
 11
1154.796488375726
 21
2116.21842905323
 31
0.0
  0
LINE
  5
151
330
1F
100
AcDbEntity
  8
ハッチ
  6
JWW_DASHED1
 62
   120
370
     5
100
AcDbLine
 10
1334.796488375721
 20
2296.218429053223
 30
0.0
 11
1409.796488375714
 21
2371.21842905322
 31
0.0
  0
LINE
  5
152
330
1F
100
AcDbEntity
  8
ハッチ
  6
JWW_DASHED1
 62
   120
370
     5
100
AcDbLine
 10
1037.370081504503
 20
2041.218429053208
 30
0.0
 11
1112.370081504499
 21
2116.218429053203
 31
0.0
  0
LINE
  5
153
330
1F
100
AcDbEntity
  8
ハッチ
  6
JWW_DASHED1
 62
   120
370
     5
100
AcDbLine
 10
1292.370081504515
 20
2296.21842905322
 30
0.0
 11
1367.370081504513
 21
2371.218429053216
 31
0.0
  0
LINE
  5
154
330
1F
100
AcDbEntity
  8
ハッチ
  6
JWW_DASHED1
 62
   120
370
     5
100
AcDbLine
 10
994.9436746333074
 20
2041.218429053211
 30
0.0
 11
1069.943674633301
 21
2116.218429053206
 31
0.0
  0
LINE
  5
155
330
1F
100
AcDbEntity
  8
ハッチ
  6
JWW_DASHED1
 62
   120
370
     5
100
AcDbLine
 10
1249.943674633303
 20
2296.218429053208
 30
0.0
 11
1324.943674633314
 21
2371.21842905322
 31
0.0
  0
LINE
  5
156
330
1F
100
AcDbEntity
  8
ハッチ
  6
JWW_DASHED1
 62
   120
370
     5
100
AcDbLine
 10
952.51726776211
 20
2041.218429053215
 30
0.0
 11
1027.517267762106
 21
2116.21842905321
 31
0.0
  0
LINE
  5
157
330
1F
100
AcDbEntity
  8
ハッチ
  6
JWW_DASHED1
 62
   120
370
     5
100
AcDbLine
 10
1207.517267762107
 20
2296.21842905321
 30
0.0
 11
1282.517267762119
 21
2371.218429053222
 31
0.0
  0
LINE
  5
158
330
1F
100
AcDbEntity
  8
ハッチ
  6
JWW_DASHED1
 62
   120
370
     5
100
AcDbLine
 10
944.8858903104042
 20
2076.013458472653
 30
0.0
 11
985.0908608909672
 21
2116.218429053216
 31
0.0
  0
LINE
  5
159
330
1F
100
AcDbEntity
  8
ハッチ
  6
JWW_DASHED1
 62
   120
370
     5
100
AcDbLine
 10
1165.090860890969
 20
2296.218429053218
 30
0.0
 11
1240.090860890964
 21
2371.218429053215
 31
0.0
  0
LINE
  5
15A
330
1F
100
AcDbEntity
  8
ハッチ
  6
JWW_DASHED1
 62
   120
370
     5
100
AcDbLine
 10
1122.664454019773
 20
2296.218429053222
 30
0.0
 11
1197.664454019769
 21
2371.218429053216
 31
0.0
  0
LINE
  5
15B
330
1F
100
AcDbEntity
  8
ハッチ
  6
JWW_DASHED1
 62
   120
370
     5
100
AcDbLine
 10
1080.238047148576
 20
2296.218429053223
 30
0.0
 11
1155.23804714857
 21
2371.21842905322
 31
0.0
  0
LINE
  5
15C
330
1F
100
AcDbEntity
  8
ハッチ
  6
JWW_DASHED1
 62
   120
370
     5
100
AcDbLine
 10
782.8116402773662
 20
2041.218429053215
 30
0.0
 11
824.8858903104008
 21
2083.292679086251
 31
0.0
  0
LINE
  5
15D
330
1F
100
AcDbEntity
  8
ハッチ
  6
JWW_DASHED1
 62
   120
370
     5
100
AcDbLine
 10
1037.811640277376
 20
2296.218429053225
 30
0.0
 11
1112.81164027737
 21
2371.21842905322
 31
0.0
  0
LINE
  5
15E
330
1F
100
AcDbEntity
  8
ハッチ
  6
JWW_DASHED1
 62
   120
370
     5
100
AcDbLine
 10
740.3852334061687
 20
2041.218429053218
 30
0.0
 11
815.3852334061808
 21
2116.21842905323
 31
0.0
  0
LINE
  5
15F
330
1F
100
AcDbEntity
  8
ハッチ
  6
JWW_DASHED1
 62
   120
370
     5
100
AcDbLine
 10
995.3852334061808
 20
2296.21842905323
 30
0.0
 11
1070.385233406176
 21
2371.218429053223
 31
0.0
  0
LINE
  5
160
330
1F
100
AcDbEntity
  8
ハッチ
  6
JWW_DASHED1
 62
   120
370
     5
100
AcDbLine
 10
697.958826534973
 20
2041.218429053221
 30
0.0
 11
772.9588265349687
 21
2116.218429053218
 31
0.0
  0
LINE
  5
161
330
1F
100
AcDbEntity
  8
ハッチ
  6
JWW_DASHED1
 62
   120
370
     5
100
AcDbLine
 10
952.9588265349687
 20
2296.218429053218
 30
0.0
 11
1027.958826534964
 21
2371.218429053215
 31
0.0
  0
LINE
  5
162
330
1F
100
AcDbEntity
  8
ハッチ
  6
JWW_DASHED1
 62
   120
370
     5
100
AcDbLine
 10
655.5324196637619
 20
2041.218429053212
 30
0.0
 11
730.5324196637577
 21
2116.218429053208
 31
0.0
  0
LINE
  5
163
330
1F
100
AcDbEntity
  8
ハッチ
  6
JWW_DASHED1
 62
   120
370
     5
100
AcDbLine
 10
944.8858903104135
 20
2330.571899699861
 30
0.0
 11
985.5324196637687
 21
2371.218429053216
 31
0.0
  0
LINE
  5
164
330
1F
100
AcDbEntity
  8
ハッチ
  6
JWW_DASHED1
 62
   120
370
     5
100
AcDbLine
 10
613.1060127925671
 20
2041.218429053217
 30
0.0
 11
688.1060127925618
 21
2116.218429053211
 31
0.0
  0
LINE
  5
165
330
1F
100
AcDbEntity
  8
ハッチ
  6
JWW_DASHED1
 62
   120
370
     5
100
AcDbLine
 10
570.6796059214241
 20
2041.21842905322
 30
0.0
 11
645.6796059214207
 21
2116.218429053215
 31
0.0
  0
LINE
  5
166
330
1F
100
AcDbEntity
  8
ハッチ
  6
JWW_DASHED1
 62
   120
370
     5
100
AcDbLine
 10
528.2531990502284
 20
2041.218429053223
 30
0.0
 11
603.2531990502232
 21
2116.218429053219
 31
0.0
  0
LINE
  5
167
330
1F
100
AcDbEntity
  8
ハッチ
  6
JWW_DASHED1
 62
   120
370
     5
100
AcDbLine
 10
783.2531990502232
 20
2296.21842905322
 30
0.0
 11
824.8858903104067
 21
2337.851120313401
 31
0.0
  0
LINE
  5
168
330
1F
100
AcDbEntity
  8
ハッチ
  6
JWW_DASHED1
 62
   120
370
     5
100
AcDbLine
 10
485.8267921790164
 20
2041.218429053211
 30
0.0
 11
560.8267921790275
 21
2116.218429053222
 31
0.0
  0
LINE
  5
169
330
1F
100
AcDbEntity
  8
ハッチ
  6
JWW_DASHED1
 62
   120
370
     5
100
AcDbLine
 10
740.8267921790275
 20
2296.218429053222
 30
0.0
 11
815.8267921790232
 21
2371.218429053218
 31
0.0
  0
LINE
  5
16A
330
1F
100
AcDbEntity
  8
ハッチ
  6
JWW_DASHED1
 62
   120
370
     5
100
AcDbLine
 10
443.4003853078173
 20
2041.218429053213
 30
0.0
 11
518.40038530783
 21
2116.218429053225
 31
0.0
  0
LINE
  5
16B
330
1F
100
AcDbEntity
  8
ハッチ
  6
JWW_DASHED1
 62
   120
370
     5
100
AcDbLine
 10
698.40038530783
 20
2296.218429053226
 30
0.0
 11
773.4003853078275
 21
2371.218429053222
 31
0.0
  0
LINE
  5
16C
330
1F
100
AcDbEntity
  8
ハッチ
  6
JWW_DASHED1
 62
   120
370
     5
100
AcDbLine
 10
400.9739784366215
 20
2041.218429053217
 30
0.0
 11
475.9739784366172
 21
2116.218429053213
 31
0.0
  0
LINE
  5
16D
330
1F
100
AcDbEntity
  8
ハッチ
  6
JWW_DASHED1
 62
   120
370
     5
100
AcDbLine
 10
655.9739784366343
 20
2296.218429053228
 30
0.0
 11
730.97397843663
 21
2371.218429053225
 31
0.0
  0
LINE
  5
16E
330
1F
100
AcDbEntity
  8
ハッチ
  6
JWW_DASHED1
 62
   120
370
     5
100
AcDbLine
 10
358.5475715654189
 20
2041.218429053215
 30
0.0
 11
433.5475715654138
 21
2116.218429053208
 31
0.0
  0
LINE
  5
16F
330
1F
100
AcDbEntity
  8
ハッチ
  6
JWW_DASHED1
 62
   120
370
     5
100
AcDbLine
 10
613.5475715654095
 20
2296.218429053206
 30
0.0
 11
688.5475715654206
 21
2371.218429053215
 31
0.0
  0
LINE
  5
170
330
1F
100
AcDbEntity
  8
ハッチ
  6
JWW_DASHED1
 62
   120
370
     5
100
AcDbLine
 10
316.1211646942232
 20
2041.218429053218
 30
0.0
 11
391.1211646942172
 21
2116.218429053213
 31
0.0
  0
LINE
  5
171
330
1F
100
AcDbEntity
  8
ハッチ
  6
JWW_DASHED1
 62
   120
370
     5
100
AcDbLine
 10
571.1211646942138
 20
2296.218429053209
 30
0.0
 11
646.121164694224
 21
2371.21842905322
 31
0.0
  0
LINE
  5
172
330
1F
100
AcDbEntity
  8
ハッチ
  6
JWW_DASHED1
 62
   120
370
     5
100
AcDbLine
 10
273.6947578230274
 20
2041.218429053221
 30
0.0
 11
348.6947578230215
 21
2116.218429053216
 31
0.0
  0
LINE
  5
173
330
1F
100
AcDbEntity
  8
ハッチ
  6
JWW_DASHED1
 62
   120
370
     5
100
AcDbLine
 10
528.6947578230172
 20
2296.218429053213
 30
0.0
 11
603.6947578230283
 21
2371.218429053223
 31
0.0
  0
LINE
  5
174
330
1F
100
AcDbEntity
  8
ハッチ
  6
JWW_DASHED1
 62
   120
370
     5
100
AcDbLine
 10
231.2683509518777
 20
2041.218429053218
 30
0.0
 11
306.2683509518735
 21
2116.218429053215
 31
0.0
  0
LINE
  5
175
330
1F
100
AcDbEntity
  8
ハッチ
  6
JWW_DASHED1
 62
   120
370
     5
100
AcDbLine
 10
486.2683509518735
 20
2296.218429053215
 30
0.0
 11
561.2683509518708
 21
2371.21842905321
 31
0.0
  0
LINE
  5
176
330
1F
100
AcDbEntity
  8
ハッチ
  6
JWW_DASHED1
 62
   120
370
     5
100
AcDbLine
 10
188.8419440806803
 20
2041.218429053221
 30
0.0
 11
263.8419440806777
 21
2116.218429053218
 31
0.0
  0
LINE
  5
177
330
1F
100
AcDbEntity
  8
ハッチ
  6
JWW_DASHED1
 62
   120
370
     5
100
AcDbLine
 10
443.8419440806777
 20
2296.218429053216
 30
0.0
 11
518.8419440806717
 21
2371.218429053213
 31
0.0
  0
LINE
  5
178
330
1F
100
AcDbEntity
  8
ハッチ
  6
JWW_DASHED1
 62
   120
370
     5
100
AcDbLine
 10
146.4155372094683
 20
2041.218429053208
 30
0.0
 11
221.4155372094785
 21
2116.21842905322
 31
0.0
  0
LINE
  5
179
330
1F
100
AcDbEntity
  8
ハッチ
  6
JWW_DASHED1
 62
   120
370
     5
100
AcDbLine
 10
401.4155372094802
 20
2296.218429053221
 30
0.0
 11
476.415537209476
 21
2371.218429053216
 31
0.0
  0
LINE
  5
17A
330
1F
100
AcDbEntity
  8
ハッチ
  6
JWW_DASHED1
 62
   120
370
     5
100
AcDbLine
 10
103.9891303382709
 20
2041.218429053211
 30
0.0
 11
178.9891303382828
 21
2116.218429053223
 31
0.0
  0
LINE
  5
17B
330
1F
100
AcDbEntity
  8
ハッチ
  6
JWW_DASHED1
 62
   120
370
     5
100
AcDbLine
 10
358.9891303382828
 20
2296.218429053223
 30
0.0
 11
433.9891303382785
 21
2371.21842905322
 31
0.0
  0
LINE
  5
17C
330
1F
100
AcDbEntity
  8
ハッチ
  6
JWW_DASHED1
 62
   120
370
     5
100
AcDbLine
 10
81.93831458939485
 20
2061.594020175535
 30
0.0
 11
136.5627234670708
 21
2116.218429053211
 31
0.0
  0
LINE
  5
17D
330
1F
100
AcDbEntity
  8
ハッチ
  6
JWW_DASHED1
 62
   120
370
     5
100
AcDbLine
 10
316.5627234670853
 20
2296.218429053226
 30
0.0
 11
391.5627234670828
 21
2371.218429053223
 31
0.0
  0
LINE
  5
17E
330
1F
100
AcDbEntity
  8
ハッチ
  6
JWW_DASHED1
 62
   120
370
     5
100
AcDbLine
 10
81.93831458939485
 20
2104.020427046734
 30
0.0
 11
94.13631659587168
 21
2116.218429053213
 31
0.0
  0
LINE
  5
17F
330
1F
100
AcDbEntity
  8
ハッチ
  6
JWW_DASHED1
 62
   120
370
     5
100
AcDbLine
 10
274.1363165958691
 20
2296.21842905321
 30
0.0
 11
349.1363165958785
 21
2371.21842905322
 31
0.0
  0
LINE
  5
180
330
1F
100
AcDbEntity
  8
ハッチ
  6
JWW_DASHED1
 62
   120
370
     5
100
AcDbLine
 10
231.7099097246751
 20
2296.218429053215
 30
0.0
 11
306.7099097246845
 21
2371.218429053225
 31
0.0
  0
LINE
  5
181
330
1F
100
AcDbEntity
  8
ハッチ
  6
JWW_DASHED1
 62
   120
370
     5
100
AcDbLine
 10
189.2835028535228
 20
2296.218429053209
 30
0.0
 11
264.2835028535185
 21
2371.218429053204
 31
0.0
  0
LINE
  5
182
330
1F
100
AcDbEntity
  8
ハッチ
  6
JWW_DASHED1
 62
   120
370
     5
100
AcDbLine
 10
146.8570959823253
 20
2296.218429053213
 30
0.0
 11
221.8570959823228
 21
2371.218429053209
 31
0.0
  0
LINE
  5
183
330
1F
100
AcDbEntity
  8
ハッチ
  6
JWW_DASHED1
 62
   120
370
     5
100
AcDbLine
 10
104.4306891111296
 20
2296.218429053215
 30
0.0
 11
179.4306891111253
 21
2371.218429053211
 31
0.0
  0
LINE
  5
184
330
1F
100
AcDbEntity
  8
ハッチ
  6
JWW_DASHED1
 62
   120
370
     5
100
AcDbLine
 10
81.93831458939059
 20
2316.152461402676
 30
0.0
 11
137.0042822399296
 21
2371.218429053215
 31
0.0
  0
LINE
  5
185
330
1F
100
AcDbEntity
  8
ハッチ
  6
JWW_DASHED1
 62
   120
370
     5
100
AcDbLine
 10
81.93831458939059
 20
2358.578868273876
 30
0.0
 11
94.57787536873212
 21
2371.218429053218
 31
0.0
  0
LWPOLYLINE
  5
186
330
1F
100
AcDbEntity
  8
0-B_寸法
  6
Continuous
 62
     7
370
     9
100
AcDbPolyline
 90
        4
 70
     1
 43
3.0
 10
-1393.927069862399
 20
1966.218429053211
 42
0.4142135623731
 10
-1395.427069862399
 20
1967.718429053211
 42
0.4142135623731
 10
-1396.927069862399
 20
1966.218429053211
 42
0.4142135623731
 10
-1395.427069862399
 20
1964.718429053211
 42
0.4142135623731
  0
LINE
  5
187
330
1F
100
AcDbEntity
  8
0-B_寸法
  6
Continuous
 62
   120
370
     5
100
AcDbLine
 10
-1395.427069862399
 20
1966.218429053211
 30
0.0
 11
-1395.427069862395
 21
2896.21842905321
 31
0.0
  0
LINE
  5
188
330
1F
100
AcDbEntity
  8
0-B_寸法
  6
Continuous
 62
   120
370
     5
100
AcDbLine
 10
-1395.427069862399
 20
1966.218429053211
 30
0.0
 11
-1602.559208685998
 21
1966.218429053211
 31
0.0
  0
LWPOLYLINE
  5
189
330
1F
100
AcDbEntity
  8
0-B_寸法
  6
Continuous
 62
     7
370
     9
100
AcDbPolyline
 90
        4
 70
     1
 43
3.0
 10
-1393.927069862395
 20
2896.21842905321
 42
0.4142135623731
 10
-1395.427069862395
 20
2897.71842905321
 42
0.4142135623731
 10
-1396.927069862395
 20
2896.21842905321
 42
0.4142135623731
 10
-1395.427069862395
 20
2894.71842905321
 42
0.4142135623731
  0
LINE
  5
18A
330
1F
100
AcDbEntity
  8
0-B_寸法
  6
Continuous
 62
   120
370
     5
100
AcDbLine
 10
-1395.427069862395
 20
2896.21842905321
 30
0.0
 11
-1602.559208685998
 21
2896.21842905321
 31
0.0
  0
LINE
  5
18B
330
1F
100
AcDbEntity
  8
ハッチ
  6
Continuous
 62
   120
370
     5
100
AcDbLine
 10
-1730.13368519171
 20
1969.217994177722
 30
0.0
 11
-1706.956624672985
 21
1992.395370284546
 31
0.0
  0
LINE
  5
18C
330
1F
100
AcDbEntity
  8
ハッチ
  6
Continuous
 62
   120
370
     5
100
AcDbLine
 10
-1798.015199549613
 20
1969.217994177722
 30
0.0
 11
-1706.956624672985
 21
2060.277808944215
 31
0.0
  0
LINE
  5
18D
330
1F
100
AcDbEntity
  8
ハッチ
  6
Continuous
 62
   120
370
     5
100
AcDbLine
 10
-1865.897256669129
 20
1969.217994177722
 30
0.0
 11
-1706.956624672985
 21
2128.160247603884
 31
0.0
  0
LINE
  5
18E
330
1F
100
AcDbEntity
  8
ハッチ
  6
Continuous
 62
   120
370
     5
100
AcDbLine
 10
-1883.95691108458
 20
2562.100146583824
 30
0.0
 11
-1706.956624672985
 21
2739.099872390259
 31
0.0
  0
LINE
  5
18F
330
1F
100
AcDbEntity
  8
ハッチ
  6
Continuous
 62
   120
370
     5
100
AcDbLine
 10
-1883.95691108458
 20
2358.453047416967
 30
0.0
 11
-1742.957059548474
 21
2499.452520604677
 31
0.0
  0
LINE
  5
190
330
1F
100
AcDbEntity
  8
ハッチ
  6
Continuous
 62
   120
370
     5
100
AcDbLine
 10
-1883.95691108458
 20
2426.335226598483
 30
0.0
 11
-1742.957059548474
 21
2567.334063114609
 31
0.0
  0
LINE
  5
191
330
1F
100
AcDbEntity
  8
ハッチ
  6
Continuous
 62
   120
370
     5
100
AcDbLine
 10
-1883.95691108458
 20
2290.570694994418
 30
0.0
 11
-1742.957059548474
 21
2431.570370840743
 31
0.0
  0
LINE
  5
192
330
1F
100
AcDbEntity
  8
ハッチ
  6
Continuous
 62
   120
370
     5
100
AcDbLine
 10
-1883.95691108458
 20
2494.220996819305
 30
0.0
 11
-1742.957059548474
 21
2635.217772696053
 31
0.0
  0
LINE
  5
193
330
1F
100
AcDbEntity
  8
ハッチ
  6
Continuous
 62
   120
370
     5
100
AcDbLine
 10
-1880.956911084579
 20
2823.109891414695
 30
0.0
 11
-1810.848452035671
 21
2893.218268835923
 31
0.0
  0
LINE
  5
194
330
1F
100
AcDbEntity
  8
ハッチ
  6
Continuous
 62
   120
370
     5
100
AcDbLine
 10
-1883.95691108458
 20
2765.746331830135
 30
0.0
 11
-1756.484825662312
 21
2893.218268835923
 31
0.0
  0
LINE
  5
195
330
1F
100
AcDbEntity
  8
ハッチ
  6
Continuous
 62
   120
370
     5
100
AcDbLine
 10
-1880.956911084579
 20
2877.473454492171
 30
0.0
 11
-1865.212078409028
 21
2893.218268835923
 31
0.0
  0
LINE
  5
196
330
1F
100
AcDbEntity
  8
ハッチ
  6
Continuous
 62
   120
370
     5
100
AcDbLine
 10
-1880.956911084579
 20
2022.039446945992
 30
0.0
 11
-1706.956624672985
 21
2196.04210261487
 31
0.0
  0
LINE
  5
197
330
1F
100
AcDbEntity
  8
ハッチ
  6
Continuous
 62
   120
370
     5
100
AcDbLine
 10
-1883.95691108458
 20
2222.688062631992
 30
0.0
 11
-1706.956624672985
 21
2399.688834945194
 31
0.0
  0
LINE
  5
198
330
1F
100
AcDbEntity
  8
ハッチ
  6
Continuous
 62
   120
370
     5
100
AcDbLine
 10
-1883.95691108458
 20
2697.864176002463
 30
0.0
 11
-1706.956624672985
 21
2874.864256331611
 31
0.0
  0
LINE
  5
199
330
1F
100
AcDbEntity
  8
ハッチ
  6
Continuous
 62
   120
370
     5
100
AcDbLine
 10
-1883.95691108458
 20
2086.922449197684
 30
0.0
 11
-1706.956624672985
 21
2263.924541274539
 31
0.0
  0
LINE
  5
19A
330
1F
100
AcDbEntity
  8
ハッチ
  6
Continuous
 62
   120
370
     5
100
AcDbLine
 10
-1883.95691108458
 20
2154.805538548062
 30
0.0
 11
-1706.956624672985
 21
2331.806396285525
 31
0.0
  0
LINE
  5
19B
330
1F
100
AcDbEntity
  8
ハッチ
  6
Continuous
 62
   120
370
     5
100
AcDbLine
 10
-1883.95691108458
 20
2629.982302411734
 30
0.0
 11
-1706.956624672985
 21
2806.98231104993
 31
0.0
  0
LINE
  5
19C
330
1F
100
AcDbEntity
  8
0-7_金物
  6
Continuous
 62
     7
370
     9
100
AcDbLine
 10
-1721.957059601939
 20
2500.218429241197
 30
0.0
 11
-1739.957059578385
 21
2500.218428240321
 31
0.0
  0
LINE
  5
19D
330
1F
100
AcDbEntity
  8
0-7_金物
  6
Continuous
 62
     7
370
     9
100
AcDbLine
 10
-1739.957059578385
 20
2500.218428240321
 30
0.0
 11
-1739.957059548474
 21
2590.218429839768
 31
0.0
  0
LINE
  5
19E
330
1F
100
AcDbEntity
  8
0-7_金物
  6
Continuous
 62
     7
370
     9
100
AcDbLine
 10
-1721.95705888768
 20
2590.218427977564
 30
0.0
 11
-1739.957059548474
 21
2590.218429839768
 31
0.0
  0
LINE
  5
19F
330
1F
100
AcDbEntity
  8
0-7_金物
  6
Continuous
 62
     7
370
     9
100
AcDbLine
 10
-1739.957059567921
 20
2530.218429250308
 30
0.0
 11
-1769.957059261261
 21
2530.218429488736
 31
0.0
  0
LINE
  5
1A0
330
1F
100
AcDbEntity
  8
0-7_金物
  6
Continuous
 62
     7
370
     9
100
AcDbLine
 10
-1769.957059261261
 20
2530.218429488736
 30
0.0
 11
-1769.957059023177
 21
2560.218429067525
 31
0.0
  0
LINE
  5
1A1
330
1F
100
AcDbEntity
  8
0-7_金物
  6
Continuous
 62
     7
370
     9
100
AcDbLine
 10
-1739.957059558937
 20
2560.218428829781
 30
0.0
 11
-1769.957059023177
 21
2560.218429067525
 31
0.0
  0
ARC
  5
1A2
330
1F
100
AcDbEntity
  8
0-7_金物
  6
Continuous
 62
     7
370
     9
100
AcDbCircle
 10
-1904.664403335924
 20
2545.218429086708
 30
0.0
 40
188.167407989502
100
AcDbArc
 50
346.1637114550782
 51
13.83631887695318
  0
LINE
  5
1A3
330
1F
100
AcDbEntity
  8
0-6_扉
  6
JWW_DASHED1
 62
    40
370
    15
100
AcDbLine
 10
81.93831458939741
 20
2635.218899034223
 30
0.0
 11
824.8858903104135
 21
2635.218899034223
 31
0.0
  0
LINE
  5
1A4
330
1F
100
AcDbEntity
  8
0-6_扉
  6
Continuous
 62
   200
370
    20
100
AcDbLine
 10
-760.0093724795386
 20
2635.218899034223
 30
0.0
 11
81.93831458939741
 21
2635.218899034223
 31
0.0
  0
LINE
  5
1A5
330
1F
100
AcDbEntity
  8
0-6_扉
  6
Continuous
 62
   200
370
    20
100
AcDbLine
 10
81.93831458939741
 20
2635.218899034223
 30
0.0
 11
81.93831458939741
 21
2455.219047498117
 31
0.0
  0
LINE
  5
1A6
330
1F
100
AcDbEntity
  8
0-6_扉
  6
JWW_DASHED1
 62
    40
370
    15
100
AcDbLine
 10
-98.06190796857209
 20
2635.218899034223
 30
0.0
 11
-98.06190796857209
 21
2455.219047498117
 31
0.0
  0
LINE
  5
1A7
330
1F
100
AcDbEntity
  8
0-6_扉
  6
Continuous
 62
   200
370
    20
100
AcDbLine
 10
-1721.957059548474
 20
2455.218503439808
 30
0.0
 11
-1721.957059548474
 21
2635.218354666615
 31
0.0
  0
LINE
  5
1A8
330
1F
100
AcDbEntity
  8
0-6_扉
  6
JWW_DASHED1
 62
    40
370
    15
100
AcDbLine
 10
1705.833466031428
 20
2455.219047498117
 30
0.0
 11
1705.833466031428
 21
2635.218899034223
 31
0.0
  0
LINE
  5
1A9
330
1F
100
AcDbEntity
  8
0-6_扉
  6
JWW_DASHED1
 62
    40
370
    15
100
AcDbLine
 10
944.8858903104135
 20
2455.219047498117
 30
0.0
 11
1705.833466031428
 21
2455.219047498117
 31
0.0
  0
LINE
  5
1AA
330
1F
100
AcDbEntity
  8
0-6_扉
  6
Continuous
 62
   200
370
    20
100
AcDbLine
 10
-1721.957059548474
 20
2635.218899034223
 30
0.0
 11
-880.0093724795386
 21
2635.218899034223
 31
0.0
  0
LINE
  5
1AB
330
1F
100
AcDbEntity
  8
0-6_扉
  6
JWW_DASHED1
 62
    40
370
    15
100
AcDbLine
 10
824.8858903104135
 20
2455.219047498117
 30
0.0
 11
-98.06190796857209
 21
2455.219047498117
 31
0.0
  0
LINE
  5
1AC
330
1F
100
AcDbEntity
  8
0-7_金物
  6
Continuous
 62
     7
370
     9
100
AcDbLine
 10
1705.83346728702
 20
2500.218429241199
 30
0.0
 11
1723.833467263464
 21
2500.218428240321
 31
0.0
  0
LINE
  5
1AD
330
1F
100
AcDbEntity
  8
0-7_金物
  6
Continuous
 62
     7
370
     9
100
AcDbLine
 10
1723.833467263464
 20
2500.218428240321
 30
0.0
 11
1723.833467233554
 21
2590.218429839768
 31
0.0
  0
LINE
  5
1AE
330
1F
100
AcDbEntity
  8
0-7_金物
  6
Continuous
 62
     7
370
     9
100
AcDbLine
 10
1705.833466572759
 20
2590.218427977564
 30
0.0
 11
1723.833467233554
 21
2590.218429839768
 31
0.0
  0
LINE
  5
1AF
330
1F
100
AcDbEntity
  8
0-7_金物
  6
Continuous
 62
     7
370
     9
100
AcDbLine
 10
1723.833467252998
 20
2530.218429250308
 30
0.0
 11
1753.83346694634
 21
2530.218429488736
 31
0.0
  0
LINE
  5
1B0
330
1F
100
AcDbEntity
  8
0-7_金物
  6
Continuous
 62
     7
370
     9
100
AcDbLine
 10
1753.83346694634
 20
2530.218429488736
 30
0.0
 11
1753.833466708253
 21
2560.218429067525
 31
0.0
  0
LINE
  5
1B1
330
1F
100
AcDbEntity
  8
0-7_金物
  6
Continuous
 62
     7
370
     9
100
AcDbLine
 10
1723.833467244018
 20
2560.218428829781
 30
0.0
 11
1753.833466708253
 21
2560.218429067525
 31
0.0
  0
ARC
  5
1B2
330
1F
100
AcDbEntity
  8
0-7_金物
  6
Continuous
 62
     7
370
     9
100
AcDbCircle
 10
1888.540811021003
 20
2545.218429086708
 30
0.0
 40
188.167407989502
100
AcDbArc
 50
166.1636811230468
 51
193.8362885449218
  0
LINE
  5
1B3
330
1F
100
AcDbEntity
  8
0-B_寸法
  6
Continuous
 62
   120
370
     5
100
AcDbLine
 10
-341.9084093842497
 20
2635.218899034223
 30
0.0
 11
-341.9084093842497
 21
2455.219047498117
 31
0.0
  0
LWPOLYLINE
  5
1B4
330
1F
100
AcDbEntity
  8
0-B_寸法
  6
Continuous
 62
     7
370
     9
100
AcDbPolyline
 90
        4
 70
     1
 43
3.0
 10
-340.4084093842497
 20
2635.218899034223
 42
0.4142135623731
 10
-341.9084093842497
 20
2636.718899034223
 42
0.4142135623731
 10
-343.4084093842497
 20
2635.218899034223
 42
0.4142135623731
 10
-341.9084093842497
 20
2633.718899034223
 42
0.4142135623731
  0
LWPOLYLINE
  5
1B5
330
1F
100
AcDbEntity
  8
0-B_寸法
  6
Continuous
 62
     7
370
     9
100
AcDbPolyline
 90
        4
 70
     1
 43
3.0
 10
-340.4084093842497
 20
2455.219047498117
 42
0.4142135623731
 10
-341.9084093842497
 20
2456.719047498117
 42
0.4142135623731
 10
-343.4084093842497
 20
2455.219047498117
 42
0.4142135623731
 10
-341.9084093842497
 20
2453.719047498117
 42
0.4142135623731
  0
LINE
  5
1B6
330
1F
100
AcDbEntity
  8
0-B_寸法
  6
Continuous
 62
   120
370
     5
100
AcDbLine
 10
-341.9084093842497
 20
2635.218899034223
 30
0.0
 11
-191.630658183341
 21
2635.218899034223
 31
0.0
  0
MTEXT
  5
1B7
330
1F
100
AcDbEntity
  8
0-B_寸法
  6
Continuous
 62
     7
370
   211
100
AcDbMText
 10
-356.9084093842497
 20
2470.04647326617
 30
0.0
 40
97.15499999999999
 41
127.5
 46
0.0
 71
     7
 72
     1
  1
{\fＭＳ ゴシック|b0|i0|c128|p49;30}
 11
6.123031769111886E-17
 21
1.0
 31
0.0
 73
     1
 44
1.0
  0
LINE
  5
1B8
330
1F
100
AcDbEntity
  8
0-B_寸法
  6
Continuous
 62
   120
370
     5
100
AcDbLine
 10
-341.9084093842497
 20
2455.219047498117
 30
0.0
 11
-341.9084093842497
 21
2416.219047498118
 31
0.0
  0
LWPOLYLINE
  5
1B9
330
1F
100
AcDbEntity
  8
0-B_寸法
  6
Continuous
 62
     7
370
     9
100
AcDbPolyline
 90
        4
 70
     1
 43
3.0
 10
-340.4084093842497
 20
2416.219047498118
 42
0.4142135623731
 10
-341.9084093842497
 20
2417.719047498118
 42
0.4142135623731
 10
-343.4084093842497
 20
2416.219047498118
 42
0.4142135623731
 10
-341.9084093842497
 20
2414.719047498118
 42
0.4142135623731
  0
LINE
  5
1BA
330
1F
100
AcDbEntity
  8
0-B_寸法
  6
Continuous
 62
   120
370
     5
100
AcDbLine
 10
-341.9084093842497
 20
2416.219047498118
 30
0.0
 11
-341.9084093842497
 21
1966.219047498118
 31
0.0
  0
LWPOLYLINE
  5
1BB
330
1F
100
AcDbEntity
  8
0-B_寸法
  6
Continuous
 62
     7
370
     9
100
AcDbPolyline
 90
        4
 70
     1
 43
3.0
 10
-340.4084093842497
 20
1966.219047498118
 42
0.4142135623731
 10
-341.9084093842497
 20
1967.719047498118
 42
0.4142135623731
 10
-343.4084093842497
 20
1966.219047498118
 42
0.4142135623731
 10
-341.9084093842497
 20
1964.719047498118
 42
0.4142135623731
  0
LINE
  5
1BC
330
1F
100
AcDbEntity
  8
0-B_寸法
  6
Continuous
 62
   120
370
     5
100
AcDbLine
 10
-341.9084093842497
 20
1966.219047498118
 30
0.0
 11
-191.630658183341
 21
1966.219047498118
 31
0.0
  0
MTEXT
  5
1BD
330
1F
100
AcDbEntity
  8
0-B_寸法
  6
Continuous
 62
     7
370
   211
100
AcDbMText
 10
-356.9084093842497
 20
2116.046547498118
 30
0.0
 40
97.15499999999999
 41
127.5
 46
0.0
 71
     7
 72
     1
  1
{\fＭＳ ゴシック|b0|i0|c128|p49;75}
 11
6.123031769111886E-17
 21
1.0
 31
0.0
 73
     1
 44
1.0
  0
MTEXT
  5
1BE
330
1F
100
AcDbEntity
  8
0-B_寸法
  6
Continuous
 62
     7
370
   211
100
AcDbMText
 10
-206.9084093842497
 20
2327.749047498119
 30
0.0
 40
99.06
 41
195.0
 46
0.0
 71
     7
 72
     1
  1
{\fＭＳ ゴシック|b0|i0|c128|p49;6.5}
 11
6.123031769111886E-17
 21
1.0
 31
0.0
 73
     1
 44
1.0
  0
LINE
  5
1BF
330
1F
100
AcDbEntity
  8
0-2_柱
  6
Continuous
 62
    92
370
    13
100
AcDbLine
 10
1867.833317567533
 20
2296.218429053211
 30
0.0
 11
1867.833317567533
 21
2116.218429053211
 31
0.0
  0
LINE
  5
1C0
330
1F
100
AcDbEntity
  8
0-2_柱
  6
Continuous
 62
     7
370
     9
100
AcDbLine
 10
2048.295383534703
 20
2116.218429053211
 30
0.0
 11
2678.295383534703
 21
2746.218429053211
 31
0.0
  0
LINE
  5
1C1
330
1F
100
AcDbEntity
  8
0-2_柱
  6
Continuous
 62
     7
370
     9
100
AcDbLine
 10
2678.295383534703
 20
2116.218429053211
 30
0.0
 11
2048.295383534703
 21
2746.218429053211
 31
0.0
  0
LINE
  5
1C2
330
1F
100
AcDbEntity
  8
0-2_柱
  6
Continuous
 62
    92
370
    13
100
AcDbLine
 10
2048.295383534703
 20
2116.218429053211
 30
0.0
 11
2048.295383534703
 21
2746.218429053211
 31
0.0
  0
LINE
  5
1C3
330
1F
100
AcDbEntity
  8
0-2_柱
  6
Continuous
 62
    92
370
    13
100
AcDbLine
 10
1867.834059887004
 20
2746.218429053211
 30
0.0
 11
1867.834059887004
 21
2116.218429053211
 31
0.0
  0
LINE
  5
1C4
330
1F
100
AcDbEntity
  8
0-2_柱
  6
Continuous
 62
    92
370
    13
100
AcDbLine
 10
2678.295383534703
 20
2746.218429053211
 30
0.0
 11
2678.295383534703
 21
2116.218429053211
 31
0.0
  0
LINE
  5
1C5
330
1F
100
AcDbEntity
  8
0-2_柱
  6
Continuous
 62
    92
370
    13
100
AcDbLine
 10
-2063.232407296279
 20
2116.218429053211
 30
0.0
 11
-2063.232407296279
 21
2746.218429053211
 31
0.0
  0
LINE
  5
1C6
330
1F
100
AcDbEntity
  8
0-2_柱
  6
Continuous
 62
    92
370
    13
100
AcDbLine
 10
-1883.95691108458
 20
2746.218429053211
 30
0.0
 11
-1883.95691108458
 21
2116.218429053211
 31
0.0
  0
LINE
  5
1C7
330
1F
100
AcDbEntity
  8
0-2_柱
  6
Continuous
 62
     7
370
     9
100
AcDbLine
 10
-2693.232407296279
 20
2116.218429053211
 30
0.0
 11
-2063.232407296279
 21
2746.218429053211
 31
0.0
  0
LINE
  5
1C8
330
1F
100
AcDbEntity
  8
0-2_柱
  6
Continuous
 62
     7
370
     9
100
AcDbLine
 10
-2063.232407296279
 20
2116.218429053211
 30
0.0
 11
-2693.232407296279
 21
2746.218429053211
 31
0.0
  0
LINE
  5
1C9
330
1F
100
AcDbEntity
  8
0-2_柱
  6
Continuous
 62
    92
370
    13
100
AcDbLine
 10
-2693.232407296279
 20
2116.218429053211
 30
0.0
 11
-2693.232407296279
 21
2746.218429053211
 31
0.0
  0
MTEXT
  5
1CA
330
1F
100
AcDbEntity
  8
0-A_文字
  6
Continuous
 62
     7
370
     9
100
AcDbMText
 10
-3083.95691108458
 20
3061.937884685602
 30
0.0
 40
91.44
 41
600.0
 46
0.0
 71
     7
 72
     1
  1
{\fＭＳ ゴシック|b0|i0|c128|p49;■横断面図}
 73
     1
 44
1.0
  0
LINE
  5
1CB
330
1F
100
AcDbEntity
  8
0-2_柱
  6
Continuous
 62
     7
370
     9
100
AcDbLine
 10
-2063.232407296279
 20
2116.218429053211
 30
0.0
 11
-1883.95691108458
 21
2746.218429053211
 31
0.0
  0
LINE
  5
1CC
330
1F
100
AcDbEntity
  8
0-2_柱
  6
Continuous
 62
     7
370
     9
100
AcDbLine
 10
1867.834059887004
 20
2116.218429053211
 30
0.0
 11
2048.295383534703
 21
2746.218429053211
 31
0.0
  0
LINE
  5
1CD
330
1F
100
AcDbEntity
  8
ハッチ
  6
JWW_DASHED1
 62
   120
370
     5
100
AcDbLine
 10
-3062.060691460627
 20
2821.218429053215
 30
0.0
 11
-3083.956911084581
 21
2799.322209429265
 31
0.0
  0
LINE
  5
1CE
330
1F
100
AcDbEntity
  8
ハッチ
  6
JWW_DASHED1
 62
   120
370
     5
100
AcDbLine
 10
-3019.634284589431
 20
2821.218429053213
 30
0.0
 11
-3083.956911084585
 21
2756.89580255806
 31
0.0
  0
LINE
  5
1CF
330
1F
100
AcDbEntity
  8
ハッチ
  6
JWW_DASHED1
 62
   120
370
     5
100
AcDbLine
 10
-2977.207877718235
 20
2821.21842905321
 30
0.0
 11
-3052.207877718231
 21
2746.218429053213
 31
0.0
  0
LINE
  5
1D0
330
1F
100
AcDbEntity
  8
ハッチ
  6
JWW_DASHED1
 62
   120
370
     5
100
AcDbLine
 10
-2934.781470847038
 20
2821.218429053206
 30
0.0
 11
-3009.781470847035
 21
2746.21842905321
 31
0.0
  0
LINE
  5
1D1
330
1F
100
AcDbEntity
  8
ハッチ
  6
JWW_DASHED1
 62
   120
370
     5
100
AcDbLine
 10
-2892.355063975888
 20
2821.218429053211
 30
0.0
 11
-2967.355063975881
 21
2746.218429053217
 31
0.0
  0
LINE
  5
1D2
330
1F
100
AcDbEntity
  8
ハッチ
  6
JWW_DASHED1
 62
   120
370
     5
100
AcDbLine
 10
-2849.928657104691
 20
2821.218429053209
 30
0.0
 11
-2924.928657104686
 21
2746.218429053213
 31
0.0
  0
LINE
  5
1D3
330
1F
100
AcDbEntity
  8
ハッチ
  6
JWW_DASHED1
 62
   120
370
     5
100
AcDbLine
 10
-2807.502250233479
 20
2821.21842905322
 30
0.0
 11
-2882.502250233489
 21
2746.21842905321
 31
0.0
  0
LINE
  5
1D4
330
1F
100
AcDbEntity
  8
ハッチ
  6
JWW_DASHED1
 62
   120
370
     5
100
AcDbLine
 10
-2765.075843362281
 20
2821.218429053217
 30
0.0
 11
-2840.075843362293
 21
2746.218429053206
 31
0.0
  0
LINE
  5
1D5
330
1F
100
AcDbEntity
  8
ハッチ
  6
JWW_DASHED1
 62
   120
370
     5
100
AcDbLine
 10
-2722.649436491086
 20
2821.218429053213
 30
0.0
 11
-2797.649436491081
 21
2746.218429053217
 31
0.0
  0
LINE
  5
1D6
330
1F
100
AcDbEntity
  8
ハッチ
  6
JWW_DASHED1
 62
   120
370
     5
100
AcDbLine
 10
-2680.223029619886
 20
2821.218429053215
 30
0.0
 11
-2755.223029619881
 21
2746.218429053218
 31
0.0
  0
LINE
  5
1D7
330
1F
100
AcDbEntity
  8
ハッチ
  6
JWW_DASHED1
 62
   120
370
     5
100
AcDbLine
 10
-2637.796622748689
 20
2821.21842905321
 30
0.0
 11
-2712.796622748685
 21
2746.218429053215
 31
0.0
  0
LINE
  5
1D8
330
1F
100
AcDbEntity
  8
ハッチ
  6
JWW_DASHED1
 62
   120
370
     5
100
AcDbLine
 10
-2595.37021587754
 20
2821.218429053213
 30
0.0
 11
-2670.370215877536
 21
2746.218429053217
 31
0.0
  0
LINE
  5
1D9
330
1F
100
AcDbEntity
  8
ハッチ
  6
JWW_DASHED1
 62
   120
370
     5
100
AcDbLine
 10
-2552.943809006346
 20
2821.218429053209
 30
0.0
 11
-2627.94380900634
 21
2746.218429053213
 31
0.0
  0
LINE
  5
1DA
330
1F
100
AcDbEntity
  8
ハッチ
  6
JWW_DASHED1
 62
   120
370
     5
100
AcDbLine
 10
-2510.517402135134
 20
2821.218429053221
 30
0.0
 11
-2585.517402135144
 21
2746.21842905321
 31
0.0
  0
LINE
  5
1DB
330
1F
100
AcDbEntity
  8
ハッチ
  6
JWW_DASHED1
 62
   120
370
     5
100
AcDbLine
 10
-2468.090995263936
 20
2821.218429053217
 30
0.0
 11
-2543.090995263947
 21
2746.218429053206
 31
0.0
  0
LINE
  5
1DC
330
1F
100
AcDbEntity
  8
ハッチ
  6
JWW_DASHED1
 62
   120
370
     5
100
AcDbLine
 10
-2425.66458839274
 20
2821.218429053213
 30
0.0
 11
-2500.664588392749
 21
2746.218429053202
 31
0.0
  0
LINE
  5
1DD
330
1F
100
AcDbEntity
  8
ハッチ
  6
JWW_DASHED1
 62
   120
370
     5
100
AcDbLine
 10
-2383.238181521536
 20
2821.218429053218
 30
0.0
 11
-2458.23818152153
 21
2746.218429053222
 31
0.0
  0
LINE
  5
1DE
330
1F
100
AcDbEntity
  8
ハッチ
  6
JWW_DASHED1
 62
   120
370
     5
100
AcDbLine
 10
-2340.811774650339
 20
2821.218429053215
 30
0.0
 11
-2415.811774650334
 21
2746.21842905322
 31
0.0
  0
LINE
  5
1DF
330
1F
100
AcDbEntity
  8
ハッチ
  6
JWW_DASHED1
 62
   120
370
     5
100
AcDbLine
 10
-3045.811774650343
 20
2116.218429053211
 30
0.0
 11
-3083.956911084581
 21
2078.073292618972
 31
0.0
  0
LINE
  5
1E0
330
1F
100
AcDbEntity
  8
ハッチ
  6
JWW_DASHED1
 62
   120
370
     5
100
AcDbLine
 10
-2298.385367779143
 20
2821.218429053211
 30
0.0
 11
-2373.385367779136
 21
2746.218429053217
 31
0.0
  0
LINE
  5
1E1
330
1F
100
AcDbEntity
  8
ハッチ
  6
JWW_DASHED1
 62
   120
370
     5
100
AcDbLine
 10
-3003.385367779146
 20
2116.218429053208
 30
0.0
 11
-3078.38536777914
 21
2041.218429053212
 31
0.0
  0
LINE
  5
1E2
330
1F
100
AcDbEntity
  8
ハッチ
  6
JWW_DASHED1
 62
   120
370
     5
100
AcDbLine
 10
-2255.958960907999
 20
2821.21842905321
 30
0.0
 11
-2330.958960907994
 21
2746.218429053215
 31
0.0
  0
LINE
  5
1E3
330
1F
100
AcDbEntity
  8
ハッチ
  6
JWW_DASHED1
 62
   120
370
     5
100
AcDbLine
 10
-2960.958960907994
 20
2116.218429053215
 30
0.0
 11
-3035.958960907988
 21
2041.21842905322
 31
0.0
  0
LINE
  5
1E4
330
1F
100
AcDbEntity
  8
ハッチ
  6
JWW_DASHED1
 62
   120
370
     5
100
AcDbLine
 10
-2213.532554036802
 20
2821.218429053206
 30
0.0
 11
-2288.532554036799
 21
2746.21842905321
 31
0.0
  0
LINE
  5
1E5
330
1F
100
AcDbEntity
  8
ハッチ
  6
JWW_DASHED1
 62
   120
370
     5
100
AcDbLine
 10
-2918.532554036797
 20
2116.218429053211
 30
0.0
 11
-2993.53255403679
 21
2041.218429053217
 31
0.0
  0
LINE
  5
1E6
330
1F
100
AcDbEntity
  8
ハッチ
  6
JWW_DASHED1
 62
   120
370
     5
100
AcDbLine
 10
-2171.10614716559
 20
2821.218429053217
 30
0.0
 11
-2246.106147165602
 21
2746.218429053206
 31
0.0
  0
LINE
  5
1E7
330
1F
100
AcDbEntity
  8
ハッチ
  6
JWW_DASHED1
 62
   120
370
     5
100
AcDbLine
 10
-2876.106147165602
 20
2116.218429053208
 30
0.0
 11
-2951.106147165595
 21
2041.218429053212
 31
0.0
  0
LINE
  5
1E8
330
1F
100
AcDbEntity
  8
ハッチ
  6
JWW_DASHED1
 62
   120
370
     5
100
AcDbLine
 10
-2128.679740294395
 20
2821.218429053213
 30
0.0
 11
-2203.679740294404
 21
2746.218429053203
 31
0.0
  0
LINE
  5
1E9
330
1F
100
AcDbEntity
  8
ハッチ
  6
JWW_DASHED1
 62
   120
370
     5
100
AcDbLine
 10
-2833.679740294388
 20
2116.218429053219
 30
0.0
 11
-2908.6797402944
 21
2041.218429053208
 31
0.0
  0
LINE
  5
1EA
330
1F
100
AcDbEntity
  8
ハッチ
  6
JWW_DASHED1
 62
   120
370
     5
100
AcDbLine
 10
-2086.253333423198
 20
2821.21842905321
 30
0.0
 11
-2161.253333423209
 21
2746.218429053199
 31
0.0
  0
LINE
  5
1EB
330
1F
100
AcDbEntity
  8
ハッチ
  6
JWW_DASHED1
 62
   120
370
     5
100
AcDbLine
 10
-2791.253333423193
 20
2116.218429053215
 30
0.0
 11
-2866.253333423204
 21
2041.218429053204
 31
0.0
  0
LINE
  5
1EC
330
1F
100
AcDbEntity
  8
ハッチ
  6
JWW_DASHED1
 62
   120
370
     5
100
AcDbLine
 10
-2043.826926551988
 20
2821.21842905322
 30
0.0
 11
-2118.826926551985
 21
2746.218429053224
 31
0.0
  0
LINE
  5
1ED
330
1F
100
AcDbEntity
  8
ハッチ
  6
JWW_DASHED1
 62
   120
370
     5
100
AcDbLine
 10
-2748.82692655199
 20
2116.218429053216
 30
0.0
 11
-2823.826926552004
 21
2041.218429053204
 31
0.0
  0
LINE
  5
1EE
330
1F
100
AcDbEntity
  8
ハッチ
  6
JWW_DASHED1
 62
   120
370
     5
100
AcDbLine
 10
-2001.40051968079
 20
2821.218429053217
 30
0.0
 11
-2076.400519680788
 21
2746.21842905322
 31
0.0
  0
LINE
  5
1EF
330
1F
100
AcDbEntity
  8
ハッチ
  6
JWW_DASHED1
 62
   120
370
     5
100
AcDbLine
 10
-2706.400519680795
 20
2116.218429053213
 30
0.0
 11
-2781.40051968079
 21
2041.218429053217
 31
0.0
  0
LINE
  5
1F0
330
1F
100
AcDbEntity
  8
ハッチ
  6
JWW_DASHED1
 62
   120
370
     5
100
AcDbLine
 10
-1958.974112809653
 20
2821.21842905321
 30
0.0
 11
-2033.974112809648
 21
2746.218429053215
 31
0.0
  0
LINE
  5
1F1
330
1F
100
AcDbEntity
  8
ハッチ
  6
JWW_DASHED1
 62
   120
370
     5
100
AcDbLine
 10
-2663.974112809645
 20
2116.218429053215
 30
0.0
 11
-2738.974112809643
 21
2041.21842905322
 31
0.0
  0
LINE
  5
1F2
330
1F
100
AcDbEntity
  8
ハッチ
  6
JWW_DASHED1
 62
   120
370
     5
100
AcDbLine
 10
-1916.547705938457
 20
2821.218429053206
 30
0.0
 11
-1991.547705938451
 21
2746.218429053211
 31
0.0
  0
LINE
  5
1F3
330
1F
100
AcDbEntity
  8
ハッチ
  6
JWW_DASHED1
 62
   120
370
     5
100
AcDbLine
 10
-2621.547705938452
 20
2116.218429053211
 30
0.0
 11
-2696.547705938445
 21
2041.218429053217
 31
0.0
  0
LINE
  5
1F4
330
1F
100
AcDbEntity
  8
ハッチ
  6
JWW_DASHED1
 62
   120
370
     5
100
AcDbLine
 10
-1883.956911084572
 20
2811.382817035892
 30
0.0
 11
-1949.121299067255
 21
2746.218429053209
 31
0.0
  0
LINE
  5
1F5
330
1F
100
AcDbEntity
  8
ハッチ
  6
JWW_DASHED1
 62
   120
370
     5
100
AcDbLine
 10
-2579.121299067255
 20
2116.218429053208
 30
0.0
 11
-2654.121299067249
 21
2041.218429053213
 31
0.0
  0
LINE
  5
1F6
330
1F
100
AcDbEntity
  8
ハッチ
  6
JWW_DASHED1
 62
   120
370
     5
100
AcDbLine
 10
-1883.956911084575
 20
2768.956410164687
 30
0.0
 11
-1906.694892196058
 21
2746.218429053203
 31
0.0
  0
LINE
  5
1F7
330
1F
100
AcDbEntity
  8
ハッチ
  6
JWW_DASHED1
 62
   120
370
     5
100
AcDbLine
 10
-2536.694892196058
 20
2116.218429053204
 30
0.0
 11
-2611.694892196052
 21
2041.21842905321
 31
0.0
  0
LINE
  5
1F8
330
1F
100
AcDbEntity
  8
ハッチ
  6
JWW_DASHED1
 62
   120
370
     5
100
AcDbLine
 10
-2494.268485324845
 20
2116.218429053216
 30
0.0
 11
-2569.268485324856
 21
2041.218429053205
 31
0.0
  0
LINE
  5
1F9
330
1F
100
AcDbEntity
  8
ハッチ
  6
JWW_DASHED1
 62
   120
370
     5
100
AcDbLine
 10
-2451.842078453642
 20
2116.218429053221
 30
0.0
 11
-2526.842078453652
 21
2041.218429053208
 31
0.0
  0
LINE
  5
1FA
330
1F
100
AcDbEntity
  8
ハッチ
  6
JWW_DASHED1
 62
   120
370
     5
100
AcDbLine
 10
-2409.415671582445
 20
2116.218429053218
 30
0.0
 11
-2484.415671582441
 21
2041.218429053221
 31
0.0
  0
LINE
  5
1FB
330
1F
100
AcDbEntity
  8
ハッチ
  6
JWW_DASHED1
 62
   120
370
     5
100
AcDbLine
 10
-2366.989264711248
 20
2116.218429053215
 30
0.0
 11
-2441.989264711245
 21
2041.218429053218
 31
0.0
  0
LINE
  5
1FC
330
1F
100
AcDbEntity
  8
ハッチ
  6
JWW_DASHED1
 62
   120
370
     5
100
AcDbLine
 10
-2324.562857840104
 20
2116.218429053212
 30
0.0
 11
-2399.562857840099
 21
2041.218429053218
 31
0.0
  0
LINE
  5
1FD
330
1F
100
AcDbEntity
  8
ハッチ
  6
JWW_DASHED1
 62
   120
370
     5
100
AcDbLine
 10
-2282.136450968907
 20
2116.218429053209
 30
0.0
 11
-2357.136450968904
 21
2041.218429053213
 31
0.0
  0
LINE
  5
1FE
330
1F
100
AcDbEntity
  8
ハッチ
  6
JWW_DASHED1
 62
   120
370
     5
100
AcDbLine
 10
-2239.710044097713
 20
2116.218429053204
 30
0.0
 11
-2314.710044097707
 21
2041.21842905321
 31
0.0
  0
LINE
  5
1FF
330
1F
100
AcDbEntity
  8
ハッチ
  6
JWW_DASHED1
 62
   120
370
     5
100
AcDbLine
 10
-2197.283637226499
 20
2116.218429053216
 30
0.0
 11
-2272.283637226511
 21
2041.218429053206
 31
0.0
  0
LINE
  5
200
330
1F
100
AcDbEntity
  8
ハッチ
  6
JWW_DASHED1
 62
   120
370
     5
100
AcDbLine
 10
-2154.857230355304
 20
2116.218429053213
 30
0.0
 11
-2229.857230355313
 21
2041.218429053202
 31
0.0
  0
LINE
  5
201
330
1F
100
AcDbEntity
  8
ハッチ
  6
JWW_DASHED1
 62
   120
370
     5
100
AcDbLine
 10
-2112.430823484096
 20
2116.218429053221
 30
0.0
 11
-2187.430823484107
 21
2041.21842905321
 31
0.0
  0
LINE
  5
202
330
1F
100
AcDbEntity
  8
ハッチ
  6
JWW_DASHED1
 62
   120
370
     5
100
AcDbLine
 10
-2070.004416612897
 20
2116.218429053219
 30
0.0
 11
-2145.004416612894
 21
2041.218429053223
 31
0.0
  0
LINE
  5
203
330
1F
100
AcDbEntity
  8
ハッチ
  6
JWW_DASHED1
 62
   120
370
     5
100
AcDbLine
 10
-2027.578009741699
 20
2116.218429053215
 30
0.0
 11
-2102.578009741697
 21
2041.21842905322
 31
0.0
  0
LINE
  5
204
330
1F
100
AcDbEntity
  8
ハッチ
  6
JWW_DASHED1
 62
   120
370
     5
100
AcDbLine
 10
-1985.151602870562
 20
2116.21842905321
 30
0.0
 11
-2060.151602870557
 21
2041.218429053215
 31
0.0
  0
LINE
  5
205
330
1F
100
AcDbEntity
  8
ハッチ
  6
JWW_DASHED1
 62
   120
370
     5
100
AcDbLine
 10
-1942.725195999365
 20
2116.218429053205
 30
0.0
 11
-2017.725195999362
 21
2041.218429053211
 31
0.0
  0
LINE
  5
206
330
1F
100
AcDbEntity
  8
ハッチ
  6
JWW_DASHED1
 62
   120
370
     5
100
AcDbLine
 10
-1900.29878912817
 20
2116.218429053201
 30
0.0
 11
-1975.298789128165
 21
2041.218429053206
 31
0.0
  0
LINE
  5
207
330
1F
100
AcDbEntity
  8
ハッチ
  6
JWW_DASHED1
 62
   120
370
     5
100
AcDbLine
 10
-1883.956911084577
 20
2090.133900225593
 30
0.0
 11
-1932.872382256967
 21
2041.218429053203
 31
0.0
  0
LINE
  5
208
330
1F
100
AcDbEntity
  8
ハッチ
  6
JWW_DASHED1
 62
   120
370
     5
100
AcDbLine
 10
-1883.956911084568
 20
2047.707493354402
 30
0.0
 11
-1890.445975385772
 21
2041.218429053199
 31
0.0
  0
LINE
  5
209
330
1F
100
AcDbEntity
  8
0-2_柱
  6
Continuous
 62
    92
370
    13
100
AcDbLine
 10
1687.3727362393
 20
2116.218676493034
 30
0.0
 11
1687.3727362393
 21
2296.218429053211
 31
0.0
  0
LINE
  5
20A
330
1F
100
AcDbEntity
  8
0-2_柱
  6
Continuous
 62
     7
370
     9
100
AcDbLine
 10
1687.372365079556
 20
2116.218429053211
 30
0.0
 11
1867.833688727256
 21
2296.218429053211
 31
0.0
  0
LINE
  5
20B
330
1F
100
AcDbEntity
  8
0-2_柱
  6
Continuous
 62
    92
370
    13
100
AcDbLine
 10
262.3988959176313
 20
2296.218429053211
 30
0.0
 11
262.3988959176313
 21
2116.218429053211
 31
0.0
  0
LINE
  5
20C
330
1F
100
AcDbEntity
  8
0-2_柱
  6
Continuous
 62
    92
370
    13
100
AcDbLine
 10
81.93831458939741
 20
2116.218676493034
 30
0.0
 11
81.93831458939741
 21
2296.218429053211
 31
0.0
  0
LINE
  5
20D
330
1F
100
AcDbEntity
  8
0-2_柱
  6
Continuous
 62
     7
370
     9
100
AcDbLine
 10
81.93794342965276
 20
2116.218429053211
 30
0.0
 11
262.3992670773538
 21
2296.218429053211
 31
0.0
  0
LINE
  5
20E
330
1F
100
AcDbEntity
  8
ハッチ
  6
Continuous
 62
   120
370
     5
100
AcDbLine
 10
1864.83449476249
 20
2333.714563077648
 30
0.0
 11
1827.338360738058
 21
2296.218429053216
 31
0.0
  0
LINE
  5
20F
330
1F
100
AcDbEntity
  8
ハッチ
  6
Continuous
 62
   120
370
     5
100
AcDbLine
 10
1867.834059887004
 20
2404.596379196059
 30
0.0
 11
1759.456109744156
 21
2296.218429053215
 31
0.0
  0
LINE
  5
210
330
1F
100
AcDbEntity
  8
ハッチ
  6
Continuous
 62
   120
370
     5
100
AcDbLine
 10
1867.834059887004
 20
2540.36088118391
 30
0.0
 11
1690.833466031435
 21
2363.360287328342
 31
0.0
  0
LINE
  5
211
330
1F
100
AcDbEntity
  8
ハッチ
  6
Continuous
 62
   120
370
     5
100
AcDbLine
 10
1867.834059887004
 20
2472.478630190012
 30
0.0
 11
1691.573858750195
 21
2296.218429053206
 31
0.0
  0
LINE
  5
212
330
1F
100
AcDbEntity
  8
ハッチ
  6
Continuous
 62
   120
370
     5
100
AcDbLine
 10
1864.834059887007
 20
2808.88988515956
 30
0.0
 11
1723.833466031429
 21
2667.889291303984
 31
0.0
  0
LINE
  5
213
330
1F
100
AcDbEntity
  8
ハッチ
  6
Continuous
 62
   120
370
     5
100
AcDbLine
 10
1867.834059887004
 20
2608.243132177808
 30
0.0
 11
1723.833466031429
 21
2464.242538322235
 31
0.0
  0
LINE
  5
214
330
1F
100
AcDbEntity
  8
ハッチ
  6
Continuous
 62
   120
370
     5
100
AcDbLine
 10
1867.834059887004
 20
2744.007634165604
 30
0.0
 11
1723.833466031429
 21
2600.007040310032
 31
0.0
  0
LINE
  5
215
330
1F
100
AcDbEntity
  8
ハッチ
  6
Continuous
 62
   120
370
     5
100
AcDbLine
 10
1867.834059887004
 20
2676.125383171706
 30
0.0
 11
1723.833466031429
 21
2532.124789316134
 31
0.0
  0
LINE
  5
216
330
1F
100
AcDbEntity
  8
ハッチ
  6
Continuous
 62
   120
370
     5
100
AcDbLine
 10
1745.515850798957
 20
2893.218429053207
 30
0.0
 11
1690.833466031428
 21
2838.536044285677
 31
0.0
  0
LINE
  5
217
330
1F
100
AcDbEntity
  8
ハッチ
  6
Continuous
 62
   120
370
     5
100
AcDbLine
 10
1864.834059887007
 20
2876.77213615346
 30
0.0
 11
1690.833466031428
 21
2702.771542297883
 31
0.0
  0
LINE
  5
218
330
1F
100
AcDbEntity
  8
ハッチ
  6
Continuous
 62
   120
370
     5
100
AcDbLine
 10
1813.398101792845
 20
2893.218429053199
 30
0.0
 11
1690.833466031428
 21
2770.653793291781
 31
0.0
  0
LINE
  5
219
330
1F
100
AcDbEntity
  8
ハッチ
  6
Continuous
 62
   120
370
     5
100
AcDbLine
 10
78.93831458939161
 20
2039.83556611123
 30
0.0
 11
8.321177531363446
 21
1969.218429053201
 31
0.0
  0
LINE
  5
21A
330
1F
100
AcDbEntity
  8
ハッチ
  6
Continuous
 62
   120
370
     5
100
AcDbLine
 10
81.93831458939741
 20
2110.717817105135
 30
0.0
 11
-59.56107346251429
 21
1969.218429053223
 31
0.0
  0
LINE
  5
21B
330
1F
100
AcDbEntity
  8
ハッチ
  6
Continuous
 62
   120
370
     5
100
AcDbLine
 10
-34.85396098106236
 20
2401.219047498118
 30
0.0
 11
-95.0619081064417
 21
2341.011100372738
 31
0.0
  0
LINE
  5
21C
330
1F
100
AcDbEntity
  8
ハッチ
  6
Continuous
 62
   120
370
     5
100
AcDbLine
 10
81.93831458939741
 20
2178.600068099034
 30
0.0
 11
-95.0619081064417
 21
2001.599845403193
 31
0.0
  0
LINE
  5
21D
330
1F
100
AcDbEntity
  8
ハッチ
  6
Continuous
 62
   120
370
     5
100
AcDbLine
 10
78.93831458939587
 20
2379.24682108078
 30
0.0
 11
-95.0619081064417
 21
2205.246598384942
 31
0.0
  0
LINE
  5
21E
330
1F
100
AcDbEntity
  8
ハッチ
  6
Continuous
 62
   120
370
     5
100
AcDbLine
 10
81.93831458939741
 20
2314.364570086829
 30
0.0
 11
-95.0619081064417
 21
2137.364347390989
 31
0.0
  0
LINE
  5
21F
330
1F
100
AcDbEntity
  8
ハッチ
  6
Continuous
 62
   120
370
     5
100
AcDbLine
 10
81.93831458939741
 20
2246.482319092932
 30
0.0
 11
-95.0619081064417
 21
2069.482096397091
 31
0.0
  0
LINE
  5
220
330
1F
100
AcDbEntity
  8
ハッチ
  6
Continuous
 62
   120
370
     5
100
AcDbLine
 10
45.0282900128343
 20
2413.219047498118
 30
0.0
 11
-95.0619081064417
 21
2273.12884937883
 31
0.0
  0
LINE
  5
221
330
1F
100
AcDbEntity
  8
0-4_枠
  6
Continuous
 62
    92
370
    13
100
AcDbLine
 10
78.93831458939843
 20
2056.21842905321
 30
0.0
 11
81.93831458939741
 21
2056.21842905321
 31
0.0
  0
LINE
  5
222
330
1F
100
AcDbEntity
  8
0-4_枠
  6
Continuous
 62
    92
370
    13
100
AcDbLine
 10
78.93831458939843
 20
1969.218429053209
 30
0.0
 11
78.93831458939843
 21
2056.21842905321
 31
0.0
  0
LINE
  5
223
330
1F
100
AcDbEntity
  8
0-4_枠
  6
Continuous
 62
    92
370
    13
100
AcDbLine
 10
-44.06168541059969
 20
2416.219047498118
 30
0.0
 11
-98.06168541060515
 21
2416.219047498118
 31
0.0
  0
LINE
  5
224
330
1F
100
AcDbEntity
  8
0-4_枠
  6
Continuous
 62
    92
370
    13
100
AcDbLine
 10
27.93831458940303
 20
2416.219047498118
 30
0.0
 11
81.93831458939741
 21
2416.219047498118
 31
0.0
  0
LINE
  5
225
330
1F
100
AcDbEntity
  8
0-4_枠
  6
Continuous
 62
    92
370
    13
100
AcDbLine
 10
-44.06168541059969
 20
2401.219047498118
 30
0.0
 11
-44.06168541059969
 21
2416.219047498118
 31
0.0
  0
LINE
  5
226
330
1F
100
AcDbEntity
  8
0-4_枠
  6
Continuous
 62
    92
370
    13
100
AcDbLine
 10
-44.06168541059969
 20
2401.219047498118
 30
0.0
 11
27.93831458940303
 21
2401.219047498118
 31
0.0
  0
LINE
  5
227
330
1F
100
AcDbEntity
  8
0-4_枠
  6
Continuous
 62
    92
370
    13
100
AcDbLine
 10
27.93831458940303
 20
2401.219047498118
 30
0.0
 11
27.93831458940303
 21
2416.219047498118
 31
0.0
  0
LINE
  5
228
330
1F
100
AcDbEntity
  8
0-4_枠
  6
Continuous
 62
    92
370
    13
100
AcDbLine
 10
81.93831458939741
 20
1966.21842905321
 30
0.0
 11
81.93831458939741
 21
2416.219047498118
 31
0.0
  0
LINE
  5
229
330
1F
100
AcDbEntity
  8
0-4_枠
  6
Continuous
 62
    92
370
    13
100
AcDbLine
 10
-44.06168541059969
 20
2413.219047498118
 30
0.0
 11
-95.06168541060532
 21
2413.219047498118
 31
0.0
  0
LINE
  5
22A
330
1F
100
AcDbEntity
  8
0-4_枠
  6
Continuous
 62
    92
370
    13
100
AcDbLine
 10
27.93831458940303
 20
2413.219047498118
 30
0.0
 11
78.93831458939843
 21
2413.219047498118
 31
0.0
  0
LINE
  5
22B
330
1F
100
AcDbEntity
  8
0-4_枠
  6
Continuous
 62
    92
370
    13
100
AcDbLine
 10
78.93831458939843
 20
2326.219047498118
 30
0.0
 11
81.93831458939741
 21
2326.219047498118
 31
0.0
  0
LINE
  5
22C
330
1F
100
AcDbEntity
  8
0-4_枠
  6
Continuous
 62
    92
370
    13
100
AcDbLine
 10
78.93831458939843
 20
2326.219047498118
 30
0.0
 11
78.93831458939843
 21
2413.219047498118
 31
0.0
  0
LINE
  5
22D
330
1F
100
AcDbEntity
  8
0-4_枠
  6
Continuous
 62
    92
370
    13
100
AcDbLine
 10
-1883.95691108458
 20
1966.218429053213
 30
0.0
 11
-1883.95691108458
 21
2896.21842905321
 31
0.0
  0
LINE
  5
22E
330
1F
100
AcDbEntity
  8
0-4_枠
  6
Continuous
 62
    92
370
    13
100
AcDbLine
 10
-1880.95691108458
 20
1969.217994177722
 30
0.0
 11
-1880.95691108458
 21
2056.218429053213
 31
0.0
  0
LINE
  5
22F
330
1F
100
AcDbEntity
  8
0-4_枠
  6
Continuous
 62
    92
370
    13
100
AcDbLine
 10
-1880.95691108458
 20
2056.218429053213
 30
0.0
 11
-1883.95676262069
 21
2056.218429053213
 31
0.0
  0
LINE
  5
230
330
1F
100
AcDbEntity
  8
0-4_枠
  6
Continuous
 62
    92
370
    13
100
AcDbLine
 10
-1880.95691108458
 20
2806.21842905321
 30
0.0
 11
-1883.95676262069
 21
2806.21842905321
 31
0.0
  0
LINE
  5
231
330
1F
100
AcDbEntity
  8
0-4_枠
  6
Continuous
 62
    92
370
    13
100
AcDbLine
 10
-1880.95691108458
 20
2806.21842905321
 30
0.0
 11
-1880.95691108458
 21
2893.218268835923
 31
0.0
  0
LINE
  5
232
330
1F
100
AcDbEntity
  8
0-4_枠
  6
Continuous
 62
    92
370
    13
100
AcDbLine
 10
-1742.956911084584
 20
2419.218429053213
 30
0.0
 11
-1706.956476209094
 21
2419.218429053213
 31
0.0
  0
LINE
  5
233
330
1F
100
AcDbEntity
  8
0-4_枠
  6
Continuous
 62
    92
370
    13
100
AcDbLine
 10
-1742.956911084584
 20
2671.218429053213
 30
0.0
 11
-1742.956911084584
 21
2419.218429053213
 31
0.0
  0
LINE
  5
234
330
1F
100
AcDbEntity
  8
0-4_枠
  6
Continuous
 62
    92
370
    13
100
AcDbLine
 10
-1742.956911084584
 20
2671.218429053213
 30
0.0
 11
-1706.956476209094
 21
2671.218429053213
 31
0.0
  0
LINE
  5
235
330
1F
100
AcDbEntity
  8
0-4_枠
  6
Continuous
 62
    92
370
    13
100
AcDbLine
 10
-1739.956911084581
 20
2422.218429053211
 30
0.0
 11
-1703.95691108458
 21
2422.218429053211
 31
0.0
  0
LINE
  5
236
330
1F
100
AcDbEntity
  8
0-4_枠
  6
Continuous
 62
    92
370
    13
100
AcDbLine
 10
-1739.956911084581
 20
2668.218429053211
 30
0.0
 11
-1703.95691108458
 21
2668.218429053211
 31
0.0
  0
LINE
  5
237
330
1F
100
AcDbEntity
  8
0-4_枠
  6
Continuous
 62
    92
370
    13
100
AcDbLine
 10
-1739.956911084581
 20
2668.218429053211
 30
0.0
 11
-1739.956911084581
 21
2422.218429053211
 31
0.0
  0
LINE
  5
238
330
1F
100
AcDbEntity
  8
0-4_枠
  6
Continuous
 62
    92
370
    13
100
AcDbLine
 10
1687.833466031429
 20
2883.490506991854
 30
0.0
 11
1687.833466031429
 21
2668.218429053211
 31
0.0
  0
LINE
  5
239
330
1F
100
AcDbEntity
  8
0-4_枠
  6
Continuous
 62
    92
370
    13
100
AcDbLine
 10
1700.561388092787
 20
2896.218429053211
 30
0.0
 11
1867.834059887004
 21
2896.218429053211
 31
0.0
  0
LINE
  5
23A
330
1F
100
AcDbEntity
  8
0-4_枠
  6
Continuous
 62
    92
370
    13
100
AcDbLine
 10
1687.833466031429
 20
2883.490506991854
 30
0.0
 11
1700.561388092787
 21
2896.218429053211
 31
0.0
  0
LINE
  5
23B
330
1F
100
AcDbEntity
  8
0-4_枠
  6
Continuous
 62
    92
370
    13
100
AcDbLine
 10
1701.804028779906
 20
2893.218429053211
 30
0.0
 11
1864.834059887002
 21
2893.218429053211
 31
0.0
  0
LINE
  5
23C
330
1F
100
AcDbEntity
  8
0-4_枠
  6
Continuous
 62
    92
370
    13
100
AcDbLine
 10
1690.833466031428
 20
2882.247866304734
 30
0.0
 11
1701.804028779906
 21
2893.218429053211
 31
0.0
  0
LINE
  5
23D
330
1F
100
AcDbEntity
  8
0-4_枠
  6
Continuous
 62
    92
370
    13
100
AcDbLine
 10
1690.833466031428
 20
2882.247866304734
 30
0.0
 11
1690.833466031428
 21
2668.218429053211
 31
0.0
  0
LINE
  5
23E
330
1F
100
AcDbEntity
  8
0-4_枠
  6
Continuous
 62
    92
370
    13
100
AcDbLine
 10
-1716.684833145939
 20
2896.21842905321
 30
0.0
 11
-1883.95691108458
 21
2896.21842905321
 31
0.0
  0
LINE
  5
23F
330
1F
100
AcDbEntity
  8
0-4_枠
  6
Continuous
 62
    92
370
    13
100
AcDbLine
 10
-1703.95691108458
 20
2883.490506991852
 30
0.0
 11
-1703.95691108458
 21
2668.218429053211
 31
0.0
  0
LINE
  5
240
330
1F
100
AcDbEntity
  8
0-4_枠
  6
Continuous
 62
    92
370
    13
100
AcDbLine
 10
-1716.684833145939
 20
2896.21842905321
 30
0.0
 11
-1703.95691108458
 21
2883.490506991852
 31
0.0
  0
LINE
  5
241
330
1F
100
AcDbEntity
  8
0-4_枠
  6
Continuous
 62
    92
370
    13
100
AcDbLine
 10
-1716.684833145939
 20
1966.218429053213
 30
0.0
 11
-1883.95691108458
 21
1966.218429053213
 31
0.0
  0
LINE
  5
242
330
1F
100
AcDbEntity
  8
0-4_枠
  6
Continuous
 62
    92
370
    13
100
AcDbLine
 10
-1703.95691108458
 20
1978.94635111457
 30
0.0
 11
-1703.95691108458
 21
2422.218429053211
 31
0.0
  0
LINE
  5
243
330
1F
100
AcDbEntity
  8
0-4_枠
  6
Continuous
 62
    92
370
    13
100
AcDbLine
 10
-1716.684833145939
 20
1966.218429053213
 30
0.0
 11
-1703.95691108458
 21
1978.94635111457
 31
0.0
  0
LINE
  5
244
330
1F
100
AcDbEntity
  8
0-4_枠
  6
Continuous
 62
    92
370
    13
100
AcDbLine
 10
-85.33376334924839
 20
1966.21842905321
 30
0.0
 11
81.93831458939741
 21
1966.21842905321
 31
0.0
  0
LINE
  5
245
330
1F
100
AcDbEntity
  8
0-4_枠
  6
Continuous
 62
    92
370
    13
100
AcDbLine
 10
-98.06168541060515
 20
1978.946351114567
 30
0.0
 11
-98.06168541060515
 21
2416.219047498118
 31
0.0
  0
LINE
  5
246
330
1F
100
AcDbEntity
  8
0-4_枠
  6
Continuous
 62
    92
370
    13
100
AcDbLine
 10
-85.33376334924839
 20
1966.21842905321
 30
0.0
 11
-98.06168541060515
 21
1978.946351114567
 31
0.0
  0
LINE
  5
247
330
1F
100
AcDbEntity
  8
0-4_枠
  6
Continuous
 62
    92
370
    13
100
AcDbLine
 10
-84.09112266212787
 20
1969.218429053209
 30
0.0
 11
78.93831458939843
 21
1969.218429053209
 31
0.0
  0
LINE
  5
248
330
1F
100
AcDbEntity
  8
0-4_枠
  6
Continuous
 62
    92
370
    13
100
AcDbLine
 10
-84.09112266212787
 20
1969.218429053209
 30
0.0
 11
-95.06168541060532
 21
1980.188991801687
 31
0.0
  0
LINE
  5
249
330
1F
100
AcDbEntity
  8
0-4_枠
  6
Continuous
 62
    92
370
    13
100
AcDbLine
 10
-95.06168541060532
 20
1980.188991801687
 30
0.0
 11
-95.06168541060532
 21
2413.219047498118
 31
0.0
  0
LINE
  5
24A
330
1F
100
AcDbEntity
  8
0-4_枠
  6
Continuous
 62
    92
370
    13
100
AcDbLine
 10
-1717.927313615771
 20
2893.218268835923
 30
0.0
 11
-1880.95691108458
 21
2893.218268835923
 31
0.0
  0
LINE
  5
24B
330
1F
100
AcDbEntity
  8
0-4_枠
  6
Continuous
 62
    92
370
    13
100
AcDbLine
 10
-1717.927313615771
 20
2893.218268835923
 30
0.0
 11
-1706.956476209094
 21
2882.247431429249
 31
0.0
  0
LINE
  5
24C
330
1F
100
AcDbEntity
  8
0-4_枠
  6
Continuous
 62
    92
370
    13
100
AcDbLine
 10
-1706.956476209094
 20
2882.247431429249
 30
0.0
 11
-1706.956476209094
 21
2671.218429053213
 31
0.0
  0
LINE
  5
24D
330
1F
100
AcDbEntity
  8
0-4_枠
  6
Continuous
 62
    92
370
    13
100
AcDbLine
 10
-1717.927908708548
 20
1969.217994177722
 30
0.0
 11
-1880.95691108458
 21
1969.217994177722
 31
0.0
  0
LINE
  5
24E
330
1F
100
AcDbEntity
  8
0-4_枠
  6
Continuous
 62
    92
370
    13
100
AcDbLine
 10
-1717.927908708548
 20
1969.217994177722
 30
0.0
 11
-1706.956476209094
 21
1980.189426677177
 31
0.0
  0
LINE
  5
24F
330
1F
100
AcDbEntity
  8
0-4_枠
  6
Continuous
 62
    92
370
    13
100
AcDbLine
 10
-1706.956476209094
 20
1980.189426677177
 30
0.0
 11
-1706.956476209094
 21
2419.218429053213
 31
0.0
  0
LINE
  5
250
330
1F
100
AcDbEntity
  8
0-4_枠
  6
Continuous
 62
   120
370
     5
100
AcDbLine
 10
824.8858903104119
 20
2815.646853173464
 30
0.0
 11
-760.0093670199672
 21
2815.647173652956
 31
0.0
  0
LINE
  5
251
330
1F
100
AcDbEntity
  8
0-4_枠
  6
Continuous
 62
   120
370
     5
100
AcDbLine
 10
-1703.957059548474
 20
2041.218429053211
 30
0.0
 11
-880.0093724795386
 21
2041.218429053211
 31
0.0
  0
LINE
  5
252
330
1F
100
AcDbEntity
  8
0-4_枠
  6
Continuous
 62
   120
370
     5
100
AcDbLine
 10
-1703.95691108458
 20
2815.647124484504
 30
0.0
 11
-880.0093724795386
 21
2815.647124484504
 31
0.0
  0
LINE
  5
253
330
1F
100
AcDbEntity
  8
0-4_枠
  6
Continuous
 62
   120
370
     5
100
AcDbLine
 10
-760.0093724795386
 20
2041.218429053211
 30
0.0
 11
-98.06190810644239
 21
2041.218429053211
 31
0.0
  0
LINE
  5
254
330
1F
100
AcDbEntity
  8
仕上げ
  6
Continuous
 62
    40
370
    15
100
AcDbLine
 10
-3083.95691108458
 20
2905.647124484504
 30
0.0
 11
-880.0093724795386
 21
2905.647124484504
 31
0.0
  0
LINE
  5
255
330
1F
100
AcDbEntity
  8
仕上げ
  6
Continuous
 62
    40
370
    15
100
AcDbLine
 10
-760.0093724795386
 20
2905.647124484504
 30
0.0
 11
824.8858903104135
 21
2905.647124484504
 31
0.0
  0
LINE
  5
256
330
1F
100
AcDbEntity
  8
0-4_枠
  6
Continuous
 62
   120
370
     5
100
AcDbLine
 10
944.8858903104119
 20
2815.646828908428
 30
0.0
 11
1687.833466031429
 21
2815.646678678019
 31
0.0
  0
LINE
  5
257
330
1F
100
AcDbEntity
  8
仕上げ
  6
Continuous
 62
    40
370
    15
100
AcDbLine
 10
944.8858903104135
 20
2905.647124484504
 30
0.0
 11
3067.834059887004
 21
2905.647124484504
 31
0.0
  0
MTEXT
  5
258
330
1F
100
AcDbEntity
  8
0-A_文字
  6
Continuous
 62
     7
370
     9
100
AcDbMText
 10
-242.5798702895568
 20
3046.938429053211
 30
0.0
 40
91.44
 41
480.0
 46
0.0
 71
     7
 72
     1
  1
{\fＭＳ ゴシック|b0|i0|c128|p49;和室側・}
 73
     1
 44
1.0
  0
LINE
  5
259
330
1F
100
AcDbEntity
  8
0-A_文字
  6
Continuous
 62
     7
370
     9
100
AcDbLine
 10
-302.5798702895568
 20
3241.218429053211
 30
0.0
 11
-302.5798702895568
 21
3001.218429053211
 31
0.0
  0
LINE
  5
25A
330
1F
100
AcDbEntity
  8
0-A_文字
  6
Continuous
 62
     7
370
     9
100
AcDbLine
 10
297.4201297104449
 20
3241.218429053211
 30
0.0
 11
-302.5798702895568
 21
3241.218429053211
 31
0.0
  0
LINE
  5
25B
330
1F
100
AcDbEntity
  8
0-A_文字
  6
Continuous
 62
     7
370
     9
100
AcDbLine
 10
-302.5798702895568
 20
3001.218429053211
 30
0.0
 11
297.4201297104449
 21
3001.218429053211
 31
0.0
  0
LINE
  5
25C
330
1F
100
AcDbEntity
  8
0-A_文字
  6
Continuous
 62
     7
370
     9
100
AcDbLine
 10
297.4201297104449
 20
3001.218429053211
 30
0.0
 11
297.4201297104449
 21
3241.218429053211
 31
0.0
  0
MTEXT
  5
25D
330
1F
100
AcDbEntity
  8
0-A_文字
  6
Continuous
 62
     7
370
     0
100
AcDbMText
 10
3122.397421534333
 20
2950.828121049098
 30
0.0
 40
91.44
 41
240.0
 46
0.0
 71
     7
 72
     1
  1
{\fＭＳ ゴシック|b0|i0|c128|p49;畳寄}
 73
     1
 44
1.0
  0
LINE
  5
25E
330
1F
100
AcDbEntity
  8
0-A_文字
  6
Continuous
 62
     7
370
     9
100
AcDbLine
 10
3131.958054367811
 20
3025.108121049098
 30
0.0
 11
3092.397421534333
 21
3025.108121049098
 31
0.0
  0
LINE
  5
25F
330
1F
100
AcDbEntity
  8
0-A_文字
  6
Continuous
 62
     7
370
     9
100
AcDbLine
 10
3032.619283855947
 20
2882.778342825194
 30
0.0
 11
3092.397421534333
 21
3025.108121049098
 31
0.0
  0
MTEXT
  5
260
330
1F
100
AcDbEntity
  8
0-A_文字
  6
Continuous
 62
     7
370
     9
100
AcDbMText
 10
-242.5798702895568
 20
1651.939047498118
 30
0.0
 40
91.44
 41
480.0
 46
0.0
 71
     7
 72
     1
  1
{\fＭＳ ゴシック|b0|i0|c128|p49;洋室側・}
 73
     1
 44
1.0
  0
LINE
  5
261
330
1F
100
AcDbEntity
  8
0-A_文字
  6
Continuous
 62
     7
370
     9
100
AcDbLine
 10
297.4201297104449
 20
1846.219047498118
 30
0.0
 11
-302.5798702895568
 21
1846.219047498118
 31
0.0
  0
LINE
  5
262
330
1F
100
AcDbEntity
  8
0-A_文字
  6
Continuous
 62
     7
370
     9
100
AcDbLine
 10
-302.5798702895568
 20
1606.219047498118
 30
0.0
 11
297.4201297104449
 21
1606.219047498118
 31
0.0
  0
LINE
  5
263
330
1F
100
AcDbEntity
  8
0-A_文字
  6
Continuous
 62
     7
370
     9
100
AcDbLine
 10
297.4201297104449
 20
1606.219047498118
 30
0.0
 11
297.4201297104449
 21
1846.219047498118
 31
0.0
  0
LINE
  5
264
330
1F
100
AcDbEntity
  8
0-A_文字
  6
Continuous
 62
     7
370
     9
100
AcDbLine
 10
-302.5798702895568
 20
1846.219047498118
 30
0.0
 11
-302.5798702895568
 21
1606.219047498118
 31
0.0
  0
MTEXT
  5
265
330
1F
100
AcDbEntity
  8
0-B_寸法
  6
Continuous
 62
     7
370
     0
100
AcDbMText
 10
-1377.427069862396
 20
2638.938899034223
 30
0.0
 40
91.43999999999998
 41
2040.0
 46
0.0
 71
     7
 72
     1
  1
{\fＭＳ ゴシック|b0|i0|c128|p49;ＤＷ＝900（810）<713> [650]〔583〕}
 73
     1
 44
1.0
  0
MTEXT
  5
266
330
1F
100
AcDbEntity
  8
0-B_寸法
  6
Continuous
 62
     7
370
   211
100
AcDbMText
 10
-680.956911084588
 20
-867.5019760626237
 30
0.0
 40
99.06
 41
195.0
 46
0.0
 71
     7
 72
     1
  1
{\fＭＳ ゴシック|b0|i0|c128|p49;6.8}
 11
6.123031769111886E-17
 21
1.0
 31
0.0
 73
     1
 44
1.0
  0
MTEXT
  5
267
330
1F
100
AcDbEntity
  8
0-B_寸法
  6
Continuous
 62
     7
370
   211
100
AcDbMText
 10
-470.9569110845879
 20
-800.9544760626245
 30
0.0
 40
97.15499999999999
 41
127.5
 46
0.0
 71
     7
 72
     1
  1
{\fＭＳ ゴシック|b0|i0|c128|p49;14}
 11
6.123031769111886E-17
 21
1.0
 31
0.0
 73
     1
 44
1.0
  0
LINE
  5
268
330
1F
100
AcDbEntity
  8
0-0_補助線
  6
JWW_HOJO
 62
   120
370
     5
100
AcDbLine
 10
-875.956911084588
 20
-3098.031976347184
 30
0.0
 11
-875.956911084588
 21
-50.03197634718646
 31
0.0
  0
LINE
  5
269
330
1F
100
AcDbEntity
  8
0-0_補助線
  6
JWW_HOJO
 62
   120
370
     5
100
AcDbLine
 10
-665.956911084588
 20
-3098.031976347182
 30
0.0
 11
-665.956911084588
 21
-50.03197634718646
 31
0.0
  0
LINE
  5
26A
330
1F
100
AcDbEntity
  8
0-0_補助線
  6
JWW_HOJO
 62
   120
370
     5
100
AcDbLine
 10
-455.9569110845871
 20
-3098.031976615617
 30
0.0
 11
-455.9569110845871
 21
-50.03197634718646
 31
0.0
  0
LINE
  5
26B
330
1F
100
AcDbEntity
  8
0-0_補助線
  6
JWW_HOJO
 62
   120
370
     5
100
AcDbLine
 10
-245.9569110845871
 20
-3098.031976347182
 30
0.0
 11
-245.9569110845871
 21
-50.03197634718646
 31
0.0
  0
LINE
  5
26C
330
1F
100
AcDbEntity
  8
0-B_寸法
  6
Continuous
 62
   120
370
     5
100
AcDbLine
 10
-665.956911084588
 20
-621.2319760626249
 30
0.0
 11
-665.956911084588
 21
-662.0319760626237
 31
0.0
  0
LWPOLYLINE
  5
26D
330
1F
100
AcDbEntity
  8
0-B_寸法
  6
Continuous
 62
     7
370
     9
100
AcDbPolyline
 90
        4
 70
     1
 43
3.0
 10
-664.4569110845879
 20
-621.2319760626249
 42
0.4142135623731
 10
-665.956911084588
 20
-619.7319760626249
 42
0.4142135623731
 10
-667.456911084588
 20
-621.2319760626249
 42
0.4142135623731
 10
-665.956911084588
 20
-622.731976062625
 42
0.4142135623731
  0
LWPOLYLINE
  5
26E
330
1F
100
AcDbEntity
  8
0-B_寸法
  6
Continuous
 62
     7
370
     9
100
AcDbPolyline
 90
        4
 70
     1
 43
3.0
 10
-664.4569110845879
 20
-662.0319760626237
 42
0.4142135623731
 10
-665.956911084588
 20
-660.5319760626236
 42
0.4142135623731
 10
-667.456911084588
 20
-662.0319760626237
 42
0.4142135623731
 10
-665.956911084588
 20
-663.5319760626237
 42
0.4142135623731
  0
LINE
  5
26F
330
1F
100
AcDbEntity
  8
0-B_寸法
  6
Continuous
 62
   120
370
     5
100
AcDbLine
 10
-665.956911084588
 20
-621.2319760626249
 30
0.0
 11
-875.956911084588
 21
-621.2319760626249
 31
0.0
  0
LINE
  5
270
330
1F
100
AcDbEntity
  8
0-B_寸法
  6
Continuous
 62
   120
370
     5
100
AcDbLine
 10
-455.9569110845871
 20
-662.0319760626237
 30
0.0
 11
-875.956911084588
 21
-662.0319760626237
 31
0.0
  0
LINE
  5
271
330
1F
100
AcDbEntity
  8
0-B_寸法
  6
Continuous
 62
   120
370
     5
100
AcDbLine
 10
-455.9569110845871
 20
-578.0319763472085
 30
0.0
 11
-455.9569110845871
 21
-662.0319760626237
 31
0.0
  0
LWPOLYLINE
  5
272
330
1F
100
AcDbEntity
  8
0-B_寸法
  6
Continuous
 62
     7
370
     9
100
AcDbPolyline
 90
        4
 70
     1
 43
3.0
 10
-454.4569110845871
 20
-578.0319763472085
 42
0.4142135623731
 10
-455.9569110845871
 20
-576.5319763472085
 42
0.4142135623731
 10
-457.4569110845871
 20
-578.0319763472085
 42
0.4142135623731
 10
-455.9569110845871
 20
-579.5319763472085
 42
0.4142135623731
  0
LWPOLYLINE
  5
273
330
1F
100
AcDbEntity
  8
0-B_寸法
  6
Continuous
 62
     7
370
     9
100
AcDbPolyline
 90
        4
 70
     1
 43
3.0
 10
-454.4569110845871
 20
-662.0319760626237
 42
0.4142135623731
 10
-455.9569110845871
 20
-660.5319760626236
 42
0.4142135623731
 10
-457.4569110845871
 20
-662.0319760626237
 42
0.4142135623731
 10
-455.9569110845871
 20
-663.5319760626237
 42
0.4142135623731
  0
LINE
  5
274
330
1F
100
AcDbEntity
  8
0-B_寸法
  6
Continuous
 62
   120
370
     5
100
AcDbLine
 10
-245.9569110845871
 20
-578.0319763472085
 30
0.0
 11
-875.956911084588
 21
-578.0319763472085
 31
0.0
  0
LINE
  5
275
330
1F
100
AcDbEntity
  8
0-B_寸法
  6
Continuous
 62
   120
370
     5
100
AcDbLine
 10
-455.9569110845871
 20
-662.0319760626237
 30
0.0
 11
-455.9569110845871
 21
-2978.032576347204
 31
0.0
  0
LWPOLYLINE
  5
276
330
1F
100
AcDbEntity
  8
0-B_寸法
  6
Continuous
 62
     7
370
     9
100
AcDbPolyline
 90
        4
 70
     1
 43
3.0
 10
-454.4569110845871
 20
-2978.032576347204
 42
0.4142135623731
 10
-455.9569110845871
 20
-2976.532576347204
 42
0.4142135623731
 10
-457.4569110845871
 20
-2978.032576347204
 42
0.4142135623731
 10
-455.9569110845871
 20
-2979.532576347203
 42
0.4142135623731
  0
LINE
  5
277
330
1F
100
AcDbEntity
  8
0-B_寸法
  6
Continuous
 62
   120
370
     5
100
AcDbLine
 10
-455.9569110845871
 20
-2978.032576347204
 30
0.0
 11
-875.956911084588
 21
-2978.032576347204
 31
0.0
  0
LINE
  5
278
330
1F
100
AcDbEntity
  8
0-B_寸法
  6
Continuous
 62
   120
370
     5
100
AcDbLine
 10
-455.9569110845871
 20
-2978.032576347204
 30
0.0
 11
-455.9569110845871
 21
-3008.032576347204
 31
0.0
  0
LWPOLYLINE
  5
279
330
1F
100
AcDbEntity
  8
0-B_寸法
  6
Continuous
 62
     7
370
     9
100
AcDbPolyline
 90
        4
 70
     1
 43
3.0
 10
-454.4569110845871
 20
-3008.032576347204
 42
0.4142135623731
 10
-455.9569110845871
 20
-3006.532576347204
 42
0.4142135623731
 10
-457.4569110845871
 20
-3008.032576347204
 42
0.4142135623731
 10
-455.9569110845871
 20
-3009.532576347203
 42
0.4142135623731
  0
LINE
  5
27A
330
1F
100
AcDbEntity
  8
0-B_寸法
  6
Continuous
 62
   120
370
     5
100
AcDbLine
 10
-245.9569110845871
 20
-3008.032576347204
 30
0.0
 11
-875.956911084588
 21
-3008.032576347204
 31
0.0
  0
LINE
  5
27B
330
1F
100
AcDbEntity
  8
0-B_寸法
  6
Continuous
 62
   120
370
     5
100
AcDbLine
 10
-245.9569110845871
 20
-3098.031976347184
 30
0.0
 11
-245.9569110845871
 21
-578.0319763472085
 31
0.0
  0
LWPOLYLINE
  5
27C
330
1F
100
AcDbEntity
  8
0-B_寸法
  6
Continuous
 62
     7
370
     9
100
AcDbPolyline
 90
        4
 70
     1
 43
3.0
 10
-244.4569110845871
 20
-3026.031976347183
 42
0.4142135623731
 10
-245.9569110845871
 20
-3024.531976347183
 42
0.4142135623731
 10
-247.4569110845871
 20
-3026.031976347183
 42
0.4142135623731
 10
-245.9569110845871
 20
-3027.531976347183
 42
0.4142135623731
  0
LWPOLYLINE
  5
27D
330
1F
100
AcDbEntity
  8
0-B_寸法
  6
Continuous
 62
     7
370
     9
100
AcDbPolyline
 90
        4
 70
     1
 43
3.0
 10
-244.4569110845871
 20
-3008.032576347204
 42
0.4142135623731
 10
-245.9569110845871
 20
-3006.532576347204
 42
0.4142135623731
 10
-247.4569110845871
 20
-3008.032576347204
 42
0.4142135623731
 10
-245.9569110845871
 20
-3009.532576347203
 42
0.4142135623731
  0
LWPOLYLINE
  5
27E
330
1F
100
AcDbEntity
  8
0-B_寸法
  6
Continuous
 62
     7
370
     9
100
AcDbPolyline
 90
        4
 70
     1
 43
3.0
 10
-244.4569110845871
 20
-578.0319763472085
 42
0.4142135623731
 10
-245.9569110845871
 20
-576.5319763472085
 42
0.4142135623731
 10
-247.4569110845871
 20
-578.0319763472085
 42
0.4142135623731
 10
-245.9569110845871
 20
-579.5319763472085
 42
0.4142135623731
  0
LINE
  5
27F
330
1F
100
AcDbEntity
  8
0-B_寸法
  6
Continuous
 62
   120
370
     5
100
AcDbLine
 10
-245.9569110845871
 20
-398.0319763472085
 30
0.0
 11
-245.9569110845871
 21
-578.0319763472085
 31
0.0
  0
LWPOLYLINE
  5
280
330
1F
100
AcDbEntity
  8
0-B_寸法
  6
Continuous
 62
     7
370
     9
100
AcDbPolyline
 90
        4
 70
     1
 43
3.0
 10
-244.4569110845871
 20
-398.0319763472085
 42
0.4142135623731
 10
-245.9569110845871
 20
-396.5319763472085
 42
0.4142135623731
 10
-247.4569110845871
 20
-398.0319763472085
 42
0.4142135623731
 10
-245.9569110845871
 20
-399.5319763472085
 42
0.4142135623731
  0
LINE
  5
281
330
1F
100
AcDbEntity
  8
0-B_寸法
  6
Continuous
 62
   120
370
     5
100
AcDbLine
 10
-35.95691108458709
 20
-398.0319763472085
 30
0.0
 11
-875.956911084588
 21
-398.0319763472085
 31
0.0
  0
MTEXT
  5
282
330
1F
100
AcDbEntity
  8
0-B_寸法
  6
Continuous
 62
     7
370
   211
100
AcDbMText
 10
-260.9569110845871
 20
-563.2044763472068
 30
0.0
 40
97.15499999999999
 41
127.5
 46
0.0
 71
     7
 72
     1
  1
{\fＭＳ ゴシック|b0|i0|c128|p49;30}
 11
6.123031769111886E-17
 21
1.0
 31
0.0
 73
     1
 44
1.0
  0
LINE
  5
283
330
1F
100
AcDbEntity
  8
0-B_寸法
  6
Continuous
 62
   120
370
     5
100
AcDbLine
 10
-35.95691108458709
 20
-3098.031976347184
 30
0.0
 11
-875.956911084588
 21
-3098.031976347184
 31
0.0
  0
MTEXT
  5
284
330
1F
100
AcDbEntity
  8
0-B_寸法
  6
Continuous
 62
     7
370
   211
100
AcDbMText
 10
-470.9569110845879
 20
-2980.312576347204
 30
0.0
 40
91.44
 41
60.0
 46
0.0
 71
     7
 72
     1
  1
{\fＭＳ ゴシック|b0|i0|c128|p49;5}
 11
6.123031769111886E-17
 21
1.0
 31
0.0
 73
     1
 44
1.0
  0
MTEXT
  5
285
330
1F
100
AcDbEntity
  8
0-B_寸法
  6
Continuous
 62
     7
370
   211
100
AcDbMText
 10
-260.9569110845871
 20
-3010.312576347204
 30
0.0
 40
91.44
 41
60.0
 46
0.0
 71
     7
 72
     1
  1
{\fＭＳ ゴシック|b0|i0|c128|p49;3}
 11
6.123031769111886E-17
 21
1.0
 31
0.0
 73
     1
 44
1.0
  0
MTEXT
  5
286
330
1F
100
AcDbEntity
  8
0-B_寸法
  6
Continuous
 62
     7
370
   211
100
AcDbMText
 10
-470.9569110845879
 20
-2396.664476347203
 30
0.0
 40
102.235
 41
1207.5
 46
0.0
 71
     7
 72
     1
  1
{\fＭＳ ゴシック|b0|i0|c128|p49;ＤＨ＝1,983(2,183)}
 11
6.123031769111886E-17
 21
1.0
 31
0.0
 73
     1
 44
1.0
  0
MTEXT
  5
287
330
1F
100
AcDbEntity
  8
0-B_寸法
  6
Continuous
 62
     7
370
   211
100
AcDbMText
 10
-260.9569110845871
 20
-2396.664476347203
 30
0.0
 40
102.235
 41
1207.5
 46
0.0
 71
     7
 72
     1
  1
{\fＭＳ ゴシック|b0|i0|c128|p49;枠内＝2,002(2,202)}
 11
6.123031769111886E-17
 21
1.0
 31
0.0
 73
     1
 44
1.0
  0
LINE
  5
288
330
1F
100
AcDbEntity
  8
0-0_補助線
  6
JWW_HOJO
 62
   120
370
     5
100
AcDbLine
 10
-35.95691108458709
 20
-3098.031976347182
 30
0.0
 11
-35.95691108458709
 21
-50.03197634718646
 31
0.0
  0
LWPOLYLINE
  5
289
330
1F
100
AcDbEntity
  8
0-B_寸法
  6
Continuous
 62
     7
370
     9
100
AcDbPolyline
 90
        4
 70
     1
 43
3.0
 10
-34.45691108458709
 20
-398.0319763472085
 42
0.4142135623731
 10
-35.95691108458709
 20
-396.5319763472085
 42
0.4142135623731
 10
-37.45691108458709
 20
-398.0319763472085
 42
0.4142135623731
 10
-35.95691108458709
 20
-399.5319763472085
 42
0.4142135623731
  0
LWPOLYLINE
  5
28A
330
1F
100
AcDbEntity
  8
0-B_寸法
  6
Continuous
 62
     7
370
     9
100
AcDbPolyline
 90
        4
 70
     1
 43
3.0
 10
-244.4569110845871
 20
-3098.031976347184
 42
0.4142135623731
 10
-245.9569110845871
 20
-3096.531976347184
 42
0.4142135623731
 10
-247.4569110845871
 20
-3098.031976347184
 42
0.4142135623731
 10
-245.9569110845871
 20
-3099.531976347183
 42
0.4142135623731
  0
MTEXT
  5
28B
330
1F
100
AcDbEntity
  8
0-B_寸法
  6
Continuous
 62
     7
370
   211
100
AcDbMText
 10
-260.9569110845871
 20
-3248.954476347184
 30
0.0
 40
97.15499999999999
 41
127.5
 46
0.0
 71
     7
 72
     1
  1
{\fＭＳ ゴシック|b0|i0|c128|p49;12}
 11
6.123031769111886E-17
 21
1.0
 31
0.0
 73
     1
 44
1.0
  0
LINE
  5
28C
330
1F
100
AcDbEntity
  8
0-B_寸法
  6
Continuous
 62
   120
370
     5
100
AcDbLine
 10
-245.9569110845871
 20
-3026.031976347183
 30
0.0
 11
-875.956911084588
 21
-3026.031976347183
 31
0.0
  0
LWPOLYLINE
  5
28D
330
1F
100
AcDbEntity
  8
0-B_寸法
  6
Continuous
 62
     7
370
     9
100
AcDbPolyline
 90
        4
 70
     1
 43
3.0
 10
-34.45691108458709
 20
-3098.031976347184
 42
0.4142135623731
 10
-35.95691108458709
 20
-3096.531976347184
 42
0.4142135623731
 10
-37.45691108458709
 20
-3098.031976347184
 42
0.4142135623731
 10
-35.95691108458709
 20
-3099.531976347183
 42
0.4142135623731
  0
MTEXT
  5
28E
330
1F
100
AcDbEntity
  8
0-A_文字
  6
Continuous
 62
     7
370
     0
100
AcDbMText
 10
-1175.956911084585
 20
-3393.383332925247
 30
0.0
 40
78.97090909090885
 41
1139.999999999997
 46
0.0
 71
     7
 72
     1
  1
{\fＭＳ ゴシック|b0|i0|c128|p49;※(　)内寸法はハイドア}
 73
     1
 44
1.0
  0
LINE
  5
28F
330
1F
100
AcDbEntity
  8
0-0_補助線
  6
JWW_HOJO
 62
   120
370
     5
100
AcDbLine
 10
-3083.95691108458
 20
-3098.031976347184
 30
0.0
 11
-3083.95691108458
 21
-50.03197634718646
 31
0.0
  0
LINE
  5
290
330
1F
100
AcDbEntity
  8
0-1_通り芯
  6
JWW_CENTER1
 62
   120
370
     5
100
AcDbLine
 10
-3083.95691108458
 20
-3098.031976615614
 30
0.0
 11
78.04308891541751
 21
-3098.031976347184
 31
0.0
  0
LINE
  5
291
330
1F
100
AcDbEntity
  8
0-0_補助線
  6
JWW_HOJO
 62
   120
370
     5
100
AcDbLine
 10
-35.95691108458709
 20
-3098.031976347184
 30
0.0
 11
-3083.95691108458
 21
-3098.031976347184
 31
0.0
  0
LINE
  5
292
330
1F
100
AcDbEntity
  8
0-1_通り芯
  6
JWW_CENTER1
 62
   120
370
     5
100
AcDbLine
 10
-3083.95691108458
 20
-398.0319763472085
 30
0.0
 11
78.04308891541751
 21
-398.0319763472085
 31
0.0
  0
LINE
  5
293
330
1F
100
AcDbEntity
  8
0-0_補助線
  6
JWW_HOJO
 62
   120
370
     5
100
AcDbLine
 10
-3083.95691108458
 20
-50.03197634718646
 30
0.0
 11
-35.95691108458709
 21
-50.03197634718646
 31
0.0
  0
MTEXT
  5
294
330
1F
100
AcDbEntity
  8
0-A_文字
  6
Continuous
 62
     7
370
     9
100
AcDbMText
 10
-3086.126875522068
 20
96.60467924254556
 30
0.0
 40
91.43999999999994
 41
1140.0
 46
0.0
 71
     7
 72
     1
  1
{\fＭＳ ゴシック|b0|i0|c128|p49;■縦断面図[ﾚｰﾙﾀｲﾌﾟ]}
 73
     1
 44
1.0
  0
LINE
  5
295
330
1F
100
AcDbEntity
  8
0-B_寸法
  6
Continuous
 62
   120
370
     5
100
AcDbLine
 10
-35.95691108458709
 20
-3098.031976347184
 30
0.0
 11
-35.95691108458709
 21
-398.0319763472085
 31
0.0
  0
MTEXT
  5
296
330
1F
100
AcDbEntity
  8
0-B_寸法
  6
Continuous
 62
     7
370
   211
100
AcDbMText
 10
-50.95691108458709
 20
-2396.664476347203
 30
0.0
 40
102.235
 41
1207.5
 46
0.0
 71
     7
 72
     1
  1
{\fＭＳ ゴシック|b0|i0|c128|p49;枠外＝2,047(2,247)}
 11
6.123031769111886E-17
 21
1.0
 31
0.0
 73
     1
 44
1.0
  0
LWPOLYLINE
  5
297
330
1F
100
AcDbEntity
  8
0-B_寸法
  6
Continuous
 62
     7
370
     9
100
AcDbPolyline
 90
        4
 70
     1
 43
3.0
 10
-2119.456911637942
 20
-1364.032103195778
 42
0.4142135623731
 10
-2120.956911637942
 20
-1362.532103195778
 42
0.4142135623731
 10
-2122.456911637942
 20
-1364.032103195778
 42
0.4142135623731
 10
-2120.956911637942
 20
-1365.532103195778
 42
0.4142135623731
  0
LWPOLYLINE
  5
298
330
1F
100
AcDbEntity
  8
0-B_寸法
  6
Continuous
 62
     7
370
     9
100
AcDbPolyline
 90
        4
 70
     1
 43
3.0
 10
-1939.456911637942
 20
-1364.032103195778
 42
0.4142135623731
 10
-1940.956911637942
 20
-1362.532103195778
 42
0.4142135623731
 10
-1942.456911637941
 20
-1364.032103195778
 42
0.4142135623731
 10
-1940.956911637942
 20
-1365.532103195778
 42
0.4142135623731
  0
LINE
  5
299
330
1F
100
AcDbEntity
  8
0-6_扉
  6
Continuous
 62
   200
370
    20
100
AcDbLine
 10
-2120.956911637942
 20
-1844.031976347203
 30
0.0
 11
-2120.956911637942
 21
-2978.032576347204
 31
0.0
  0
MTEXT
  5
29A
330
1F
100
AcDbEntity
  8
0-B_寸法
  6
Continuous
 62
     7
370
   211
100
AcDbMText
 10
-2090.956911637941
 20
-1363.312103195778
 30
0.0
 40
91.44
 41
120.0
 46
0.0
 71
     7
 72
     1
  1
{\fＭＳ ゴシック|b0|i0|c128|p49;30}
 73
     1
 44
1.0
  0
LINE
  5
29B
330
1F
100
AcDbEntity
  8
ハッチ
  6
JWW_DASHED1
 62
   120
370
     5
100
AcDbLine
 10
-2231.956911084572
 20
-204.9312585643858
 30
0.0
 11
-2306.956911084572
 21
-129.9312585643909
 31
0.0
  0
LINE
  5
29C
330
1F
100
AcDbEntity
  8
ハッチ
  6
JWW_DASHED1
 62
   120
370
     5
100
AcDbLine
 10
-1528.886497105073
 20
-314.0319763471962
 30
0.0
 11
-1601.956911084572
 21
-240.9615623676947
 31
0.0
  0
LINE
  5
29D
330
1F
100
AcDbEntity
  8
ハッチ
  6
JWW_DASHED1
 62
   120
370
     5
100
AcDbLine
 10
-1526.956911084571
 20
-273.5351554964947
 30
0.0
 11
-1601.956911084572
 21
-198.5351554964998
 31
0.0
  0
LINE
  5
29E
330
1F
100
AcDbEntity
  8
ハッチ
  6
JWW_DASHED1
 62
   120
370
     5
100
AcDbLine
 10
-1526.956911084585
 20
-231.1087486252862
 30
0.0
 11
-1601.956911084579
 21
-156.1087486252887
 31
0.0
  0
LINE
  5
29F
330
1F
100
AcDbEntity
  8
ハッチ
  6
JWW_DASHED1
 62
   120
370
     5
100
AcDbLine
 10
-1526.956911084578
 20
-188.6823417540879
 30
0.0
 11
-1601.956911084593
 21
-113.6823417540793
 31
0.0
  0
LINE
  5
2A0
330
1F
100
AcDbEntity
  8
ハッチ
  6
JWW_DASHED1
 62
   120
370
     5
100
AcDbLine
 10
-1526.956911084578
 20
-146.2559348828862
 30
0.0
 11
-1601.956911084593
 21
-71.25593488287421
 31
0.0
  0
LINE
  5
2A1
330
1F
100
AcDbEntity
  8
ハッチ
  6
JWW_DASHED1
 62
   120
370
     5
100
AcDbLine
 10
-2231.956911084579
 20
-289.7840723067816
 30
0.0
 11
-2306.956911084572
 21
-214.784072306785
 31
0.0
  0
LINE
  5
2A2
330
1F
100
AcDbEntity
  8
ハッチ
  6
JWW_DASHED1
 62
   120
370
     5
100
AcDbLine
 10
-2231.956911084579
 20
-247.3576654355841
 30
0.0
 11
-2306.956911084572
 21
-172.3576654355867
 31
0.0
  0
LINE
  5
2A3
330
1F
100
AcDbEntity
  8
ハッチ
  6
JWW_DASHED1
 62
   120
370
     5
100
AcDbLine
 10
-2231.956911084579
 20
-162.5048516931773
 30
0.0
 11
-2306.956911084592
 21
-87.50485169316704
 31
0.0
  0
LINE
  5
2A4
330
1F
100
AcDbEntity
  8
ハッチ
  6
JWW_DASHED1
 62
   120
370
     5
100
AcDbLine
 10
-1526.788371207049
 20
-358.5565091164199
 30
0.0
 11
-1601.956911084579
 21
-283.387969238893
 31
0.0
  0
LINE
  5
2A5
330
1F
100
AcDbEntity
  8
ハッチ
  6
Continuous
 62
   120
370
     5
100
AcDbLine
 10
-2330.744776725899
 20
-575.0319763472146
 30
0.0
 11
-2354.956750867307
 21
-550.8200022058082
 31
0.0
  0
LINE
  5
2A6
330
1F
100
AcDbEntity
  8
ハッチ
  6
Continuous
 62
   120
370
     5
100
AcDbLine
 10
-2271.347807106205
 20
-575.0319763472095
 30
0.0
 11
-2354.956750867307
 21
-491.4230325861064
 31
0.0
  0
LINE
  5
2A7
330
1F
100
AcDbEntity
  8
ハッチ
  6
Continuous
 62
   120
370
     5
100
AcDbLine
 10
-2211.95083748655
 20
-575.0319763472163
 30
0.0
 11
-2354.956750867321
 21
-432.0260629664472
 31
0.0
  0
LINE
  5
2A8
330
1F
100
AcDbEntity
  8
0-4_枠
  6
Continuous
 62
    92
370
    13
100
AcDbLine
 10
-2354.9567508673
 20
-575.0319763472095
 30
0.0
 11
-2117.356911084588
 21
-575.0319763472095
 31
0.0
  0
LINE
  5
2A9
330
1F
100
AcDbEntity
  8
0-4_枠
  6
Continuous
 62
    92
370
    13
100
AcDbLine
 10
-2357.956911084587
 20
-578.0319763472085
 30
0.0
 11
-2117.356911084588
 21
-578.0319763472085
 31
0.0
  0
LINE
  5
2AA
330
1F
100
AcDbEntity
  8
0-4_枠
  6
Continuous
 62
    92
370
    13
100
AcDbLine
 10
-1944.556911084588
 20
-578.0319763472085
 30
0.0
 11
-1944.556911084588
 21
-482.0319763472096
 31
0.0
  0
LINE
  5
2AB
330
1F
100
AcDbEntity
  8
0-4_枠
  6
Continuous
 62
    92
370
    13
100
AcDbLine
 10
-2117.356911084588
 20
-482.0319763472096
 30
0.0
 11
-1944.556911084588
 21
-482.0319763472096
 31
0.0
  0
LINE
  5
2AC
330
1F
100
AcDbEntity
  8
0-4_枠
  6
Continuous
 62
    92
370
    13
100
AcDbLine
 10
-2117.356911084588
 20
-578.0319763472085
 30
0.0
 11
-2117.356911084588
 21
-482.0319763472096
 31
0.0
  0
LINE
  5
2AD
330
1F
100
AcDbEntity
  8
ハッチ
  6
Continuous
 62
   120
370
     5
100
AcDbLine
 10
-1914.965989388208
 20
-575.0319763472095
 30
0.0
 11
-1944.556911084588
 21
-545.4410546508313
 31
0.0
  0
LINE
  5
2AE
330
1F
100
AcDbEntity
  8
ハッチ
  6
JWW_DASHED1
 62
   120
370
     5
100
AcDbLine
 10
-1526.956911084592
 20
-103.8295280116725
 30
0.0
 11
-1580.754462749079
 21
-50.03197634718646
 31
0.0
  0
LINE
  5
2AF
330
1F
100
AcDbEntity
  8
ハッチ
  6
JWW_DASHED1
 62
   120
370
     5
100
AcDbLine
 10
-1526.956911084592
 20
-61.40312114047589
 30
0.0
 11
-1538.328055877879
 21
-50.03197634718646
 31
0.0
  0
LINE
  5
2B0
330
1F
100
AcDbEntity
  8
ハッチ
  6
JWW_DASHED1
 62
   120
370
     5
100
AcDbLine
 10
-2231.956911084586
 20
-120.0784448219773
 30
0.0
 11
-2302.003379559376
 21
-50.03197634718646
 31
0.0
  0
LINE
  5
2B1
330
1F
100
AcDbEntity
  8
ハッチ
  6
JWW_DASHED1
 62
   120
370
     5
100
AcDbLine
 10
-2231.9569110846
 20
-77.6520379507636
 30
0.0
 11
-2259.57697268817
 21
-50.03197634718646
 31
0.0
  0
LINE
  5
2B2
330
1F
100
AcDbEntity
  8
0-B_寸法
  6
Continuous
 62
   120
370
     5
100
AcDbLine
 10
-2357.956911084587
 20
-1113.856972688305
 30
0.0
 11
-2357.956911084587
 21
-990.5075394138228
 31
0.0
  0
LWPOLYLINE
  5
2B3
330
1F
100
AcDbEntity
  8
0-B_寸法
  6
Continuous
 62
     7
370
     9
100
AcDbPolyline
 90
        4
 70
     1
 43
3.0
 10
-2356.456911084587
 20
-1113.856972688305
 42
0.4142135623731
 10
-2357.956911084587
 20
-1112.356972688305
 42
0.4142135623731
 10
-2359.456911084587
 20
-1113.856972688305
 42
0.4142135623731
 10
-2357.956911084587
 20
-1115.356972688305
 42
0.4142135623731
  0
LINE
  5
2B4
330
1F
100
AcDbEntity
  8
0-B_寸法
  6
Continuous
 62
   120
370
     5
100
AcDbLine
 10
-1475.956911084588
 20
-1113.856972688305
 30
0.0
 11
-1475.956911084588
 21
-969.5075394138282
 31
0.0
  0
LWPOLYLINE
  5
2B5
330
1F
100
AcDbEntity
  8
0-B_寸法
  6
Continuous
 62
     7
370
     9
100
AcDbPolyline
 90
        4
 70
     1
 43
3.0
 10
-1474.456911084588
 20
-1113.856972688305
 42
0.4142135623731
 10
-1475.956911084588
 20
-1112.356972688305
 42
0.4142135623731
 10
-1477.456911084588
 20
-1113.856972688305
 42
0.4142135623731
 10
-1475.956911084588
 20
-1115.356972688305
 42
0.4142135623731
  0
LINE
  5
2B6
330
1F
100
AcDbEntity
  8
0-B_寸法
  6
Continuous
 62
   120
370
     5
100
AcDbLine
 10
-1475.956911084588
 20
-1113.856972688305
 30
0.0
 11
-2357.956911084587
 21
-1113.856972688305
 31
0.0
  0
LINE
  5
2B7
330
1F
100
AcDbEntity
  8
0-6_扉
  6
Continuous
 62
   200
370
    20
100
AcDbLine
 10
-2120.956911637942
 20
-662.0319760626237
 30
0.0
 11
-1940.956911637942
 21
-662.0319760626237
 31
0.0
  0
LINE
  5
2B8
330
1F
100
AcDbEntity
  8
0-4_枠
  6
Continuous
 62
    92
370
    13
100
AcDbLine
 10
-1565.956911084588
 20
-398.0319763472085
 30
0.0
 11
-1565.956911084588
 21
-401.0319763472083
 31
0.0
  0
LINE
  5
2B9
330
1F
100
AcDbEntity
  8
0-4_枠
  6
Continuous
 62
    92
370
    13
100
AcDbLine
 10
-2267.956911084587
 20
-401.0319763472083
 30
0.0
 11
-2267.956911084587
 21
-398.0319763472085
 31
0.0
  0
LINE
  5
2BA
330
1F
100
AcDbEntity
  8
0-4_枠
  6
Continuous
 62
    92
370
    13
100
AcDbLine
 10
-2357.956911084587
 20
-578.0319763472085
 30
0.0
 11
-2357.956911084587
 21
-398.0319763472085
 31
0.0
  0
LINE
  5
2BB
330
1F
100
AcDbEntity
  8
0-4_枠
  6
Continuous
 62
    92
370
    13
100
AcDbLine
 10
-2354.9567508673
 20
-575.0319763472095
 30
0.0
 11
-2354.9567508673
 21
-401.0319763472083
 31
0.0
  0
LINE
  5
2BC
330
1F
100
AcDbEntity
  8
0-4_枠
  6
Continuous
 62
    92
370
    13
100
AcDbLine
 10
-2267.956911084587
 20
-401.0319763472083
 30
0.0
 11
-2354.9567508673
 21
-401.0319763472083
 31
0.0
  0
LINE
  5
2BD
330
1F
100
AcDbEntity
  8
0-4_枠
  6
Continuous
 62
   120
370
     5
100
AcDbLine
 10
-2381.956911084585
 20
-398.0319763472085
 30
0.0
 11
-2357.956911084587
 21
-398.0319763472085
 31
0.0
  0
LINE
  5
2BE
330
1F
100
AcDbEntity
  8
0-4_枠
  6
Continuous
 62
    92
370
    13
100
AcDbLine
 10
-1475.956911084588
 20
-578.0319763472085
 30
0.0
 11
-1475.956911084588
 21
-398.0319763472085
 31
0.0
  0
LINE
  5
2BF
330
1F
100
AcDbEntity
  8
0-4_枠
  6
Continuous
 62
    92
370
    13
100
AcDbLine
 10
-1478.956476209098
 20
-575.0319763472095
 30
0.0
 11
-1478.956476209098
 21
-401.0319763472083
 31
0.0
  0
LINE
  5
2C0
330
1F
100
AcDbEntity
  8
0-4_枠
  6
Continuous
 62
    92
370
    13
100
AcDbLine
 10
-1565.956911084588
 20
-401.0319763472083
 30
0.0
 11
-1478.956476209098
 21
-401.0319763472083
 31
0.0
  0
LINE
  5
2C1
330
1F
100
AcDbEntity
  8
0-4_枠
  6
Continuous
 62
    92
370
    13
100
AcDbLine
 10
-2357.956911084587
 20
-398.0319763472085
 30
0.0
 11
-1475.956911084588
 21
-398.0319763472085
 31
0.0
  0
LINE
  5
2C2
330
1F
100
AcDbEntity
  8
0-4_枠
  6
Continuous
 62
   120
370
     5
100
AcDbLine
 10
-1451.956911084585
 20
-398.0319763472085
 30
0.0
 11
-1475.956911084588
 21
-398.0319763472085
 31
0.0
  0
LINE
  5
2C3
330
1F
100
AcDbEntity
  8
ハッチ
  6
Continuous
 62
   120
370
     5
100
AcDbLine
 10
-1478.956476209098
 20
-417.0717933296311
 30
0.0
 11
-1494.996293191523
 21
-401.0319763472083
 31
0.0
  0
LINE
  5
2C4
330
1F
100
AcDbEntity
  8
ハッチ
  6
Continuous
 62
   120
370
     5
100
AcDbLine
 10
-1478.956476209105
 20
-476.4687629492715
 30
0.0
 11
-1554.39326281117
 21
-401.0319763472083
 31
0.0
  0
LINE
  5
2C5
330
1F
100
AcDbEntity
  8
ハッチ
  6
Continuous
 62
   120
370
     5
100
AcDbLine
 10
-1478.956476209091
 20
-535.8657325689912
 30
0.0
 11
-1616.790232430869
 21
-398.0319763472085
 31
0.0
  0
LINE
  5
2C6
330
1F
100
AcDbEntity
  8
ハッチ
  6
Continuous
 62
   120
370
     5
100
AcDbLine
 10
-2117.356911084588
 20
-491.4349938901825
 30
0.0
 11
-2210.75992862756
 21
-398.0319763472085
 31
0.0
  0
LINE
  5
2C7
330
1F
100
AcDbEntity
  8
ハッチ
  6
Continuous
 62
   120
370
     5
100
AcDbLine
 10
-1558.584171670164
 20
-575.0319763472095
 30
0.0
 11
-1735.584171670167
 21
-398.0319763472085
 31
0.0
  0
LINE
  5
2C8
330
1F
100
AcDbEntity
  8
ハッチ
  6
Continuous
 62
   120
370
     5
100
AcDbLine
 10
-1499.187202050502
 20
-575.0319763472205
 30
0.0
 11
-1676.187202050516
 21
-398.0319763472085
 31
0.0
  0
LINE
  5
2C9
330
1F
100
AcDbEntity
  8
ハッチ
  6
Continuous
 62
   120
370
     5
100
AcDbLine
 10
-2067.362959007856
 20
-482.0319763472096
 30
0.0
 11
-2151.362959007858
 21
-398.0319763472085
 31
0.0
  0
LINE
  5
2CA
330
1F
100
AcDbEntity
  8
ハッチ
  6
Continuous
 62
   120
370
     5
100
AcDbLine
 10
-1948.569019768507
 20
-482.0319763472096
 30
0.0
 11
-2032.569019768513
 21
-398.0319763472085
 31
0.0
  0
LINE
  5
2CB
330
1F
100
AcDbEntity
  8
ハッチ
  6
Continuous
 62
   120
370
     5
100
AcDbLine
 10
-2007.965989388209
 20
-482.0319763472096
 30
0.0
 11
-2091.965989388214
 21
-398.0319763472085
 31
0.0
  0
LINE
  5
2CC
330
1F
100
AcDbEntity
  8
ハッチ
  6
Continuous
 62
   120
370
     5
100
AcDbLine
 10
-2117.356911084588
 20
-550.8319635098297
 30
0.0
 11
-2267.956911084587
 21
-400.2319635098277
 31
0.0
  0
LINE
  5
2CD
330
1F
100
AcDbEntity
  8
ハッチ
  6
Continuous
 62
   120
370
     5
100
AcDbLine
 10
-2326.553867866915
 20
-401.0319763472083
 30
0.0
 11
-2152.553867866917
 21
-575.0319763472069
 31
0.0
  0
LINE
  5
2CE
330
1F
100
AcDbEntity
  8
仕上げ
  6
Continuous
 62
    40
370
    15
100
AcDbLine
 10
-1526.956911084585
 20
-398.0319763472085
 30
0.0
 11
-1526.956911084585
 21
-50.03197634718646
 31
0.0
  0
LINE
  5
2CF
330
1F
100
AcDbEntity
  8
仕上げ
  6
Continuous
 62
    40
370
    15
100
AcDbLine
 10
-2306.956911084585
 20
-398.0319763472085
 30
0.0
 11
-2306.956911084585
 21
-50.03197634718646
 31
0.0
  0
LINE
  5
2D0
330
1F
100
AcDbEntity
  8
仕上げ
  6
Continuous
 62
    40
370
    15
100
AcDbLine
 10
-1601.956911084586
 20
-398.0319763472085
 30
0.0
 11
-1601.956911084586
 21
-50.03197634718646
 31
0.0
  0
LINE
  5
2D1
330
1F
100
AcDbEntity
  8
仕上げ
  6
Continuous
 62
    40
370
    15
100
AcDbLine
 10
-2231.956911084586
 20
-398.0319763472085
 30
0.0
 11
-2231.956911084586
 21
-50.03197634718646
 31
0.0
  0
LINE
  5
2D2
330
1F
100
AcDbEntity
  8
ハッチ
  6
JWW_DASHED1
 62
   120
370
     5
100
AcDbLine
 10
-1529.739310847467
 20
-398.0319763472085
 30
0.0
 11
-1601.956911084579
 21
-325.8143761101041
 31
0.0
  0
LINE
  5
2D3
330
1F
100
AcDbEntity
  8
ハッチ
  6
JWW_DASHED1
 62
   120
370
     5
100
AcDbLine
 10
-2231.956911084586
 20
-332.2104791779176
 30
0.0
 11
-2306.956911084579
 21
-257.2104791779236
 31
0.0
  0
LINE
  5
2D4
330
1F
100
AcDbEntity
  8
ハッチ
  6
JWW_DASHED1
 62
   120
370
     5
100
AcDbLine
 10
-2231.956911084586
 20
-374.6368860491245
 30
0.0
 11
-2306.956911084585
 21
-299.6368860491202
 31
0.0
  0
LINE
  5
2D5
330
1F
100
AcDbEntity
  8
ハッチ
  6
JWW_DASHED1
 62
   120
370
     5
100
AcDbLine
 10
-2250.988227657698
 20
-398.0319763472085
 30
0.0
 11
-2306.956911084572
 21
-342.0632929203322
 31
0.0
  0
LINE
  5
2D6
330
1F
100
AcDbEntity
  8
ハッチ
  6
JWW_DASHED1
 62
   120
370
     5
100
AcDbLine
 10
-2293.414634528911
 20
-398.0319763472085
 30
0.0
 11
-2306.956911084572
 21
-384.4896997915475
 31
0.0
  0
LINE
  5
2D7
330
1F
100
AcDbEntity
  8
ハッチ
  6
JWW_DASHED1
 62
   120
370
     5
100
AcDbLine
 10
-1572.165717718682
 20
-398.0319763472085
 30
0.0
 11
-1601.956911084579
 21
-368.2407829813161
 31
0.0
  0
LINE
  5
2D8
330
1F
100
AcDbEntity
  8
0-4_枠
  6
Continuous
 62
   120
370
     5
100
AcDbLine
 10
-1451.956911084585
 20
-1844.031976347203
 30
0.0
 11
-1451.956911084585
 21
-3026.032182609267
 31
0.0
  0
LINE
  5
2D9
330
1F
100
AcDbEntity
  8
0-4_枠
  6
Continuous
 62
   120
370
     5
100
AcDbLine
 10
-2381.956911084585
 20
-3026.032182609267
 30
0.0
 11
-2381.956911084585
 21
-1844.031976347203
 31
0.0
  0
LINE
  5
2DA
330
1F
100
AcDbEntity
  8
0-4_枠
  6
Continuous
 62
   120
370
     5
100
AcDbLine
 10
-1451.956911084585
 20
-398.0319763472085
 30
0.0
 11
-1451.956911084585
 21
-1724.031976347203
 31
0.0
  0
LINE
  5
2DB
330
1F
100
AcDbEntity
  8
0-4_枠
  6
Continuous
 62
   120
370
     5
100
AcDbLine
 10
-2381.956911084585
 20
-1724.031976347203
 30
0.0
 11
-2381.956911084585
 21
-398.0319763472085
 31
0.0
  0
LINE
  5
2DC
330
1F
100
AcDbEntity
  8
0-4_枠
  6
Continuous
 62
    92
370
    13
100
AcDbLine
 10
-1944.556911084588
 20
-575.0319763472095
 30
0.0
 11
-1478.956476209098
 21
-575.0319763472095
 31
0.0
  0
LINE
  5
2DD
330
1F
100
AcDbEntity
  8
0-4_枠
  6
Continuous
 62
    92
370
    13
100
AcDbLine
 10
-1944.556911084588
 20
-578.0319763472085
 30
0.0
 11
-1475.956911084588
 21
-578.0319763472085
 31
0.0
  0
LINE
  5
2DE
330
1F
100
AcDbEntity
  8
ハッチ
  6
Continuous
 62
   120
370
     5
100
AcDbLine
 10
-1854.378110909508
 20
-398.0319763471999
 30
0.0
 11
-1677.37811090951
 21
-575.0319763472137
 31
0.0
  0
LINE
  5
2DF
330
1F
100
AcDbEntity
  8
ハッチ
  6
Continuous
 62
   120
370
     5
100
AcDbLine
 10
-1617.981141289853
 20
-575.0319763472248
 30
0.0
 11
-1794.981141289869
 21
-398.0319763472085
 31
0.0
  0
LINE
  5
2E0
330
1F
100
AcDbEntity
  8
ハッチ
  6
Continuous
 62
   120
370
     5
100
AcDbLine
 10
-1736.775080529225
 20
-575.0319763472095
 30
0.0
 11
-1913.775080529215
 21
-398.0319763472085
 31
0.0
  0
LINE
  5
2E1
330
1F
100
AcDbEntity
  8
ハッチ
  6
Continuous
 62
   120
370
     5
100
AcDbLine
 10
-1855.569019768499
 20
-575.0319763472095
 30
0.0
 11
-1944.556911084588
 21
-486.0440850311312
 31
0.0
  0
LINE
  5
2E2
330
1F
100
AcDbEntity
  8
ハッチ
  6
Continuous
 62
   120
370
     5
100
AcDbLine
 10
-1796.172050148857
 20
-575.0319763472095
 30
0.0
 11
-1973.172050148862
 21
-398.0319763472085
 31
0.0
  0
LINE
  5
2E3
330
1F
100
AcDbEntity
  8
0-B_寸法
  6
Continuous
 62
   120
370
     5
100
AcDbLine
 10
-1940.956911637942
 20
-1364.032103195778
 30
0.0
 11
-2120.956911637942
 21
-1364.032103195778
 31
0.0
  0
LINE
  5
2E4
330
1F
100
AcDbEntity
  8
0-6_扉
  6
Continuous
 62
   200
370
    20
100
AcDbLine
 10
-2120.956911637942
 20
-662.0319760626237
 30
0.0
 11
-2120.956911637942
 21
-1724.031976347203
 31
0.0
  0
LINE
  5
2E5
330
1F
100
AcDbEntity
  8
0-2_柱
  6
Continuous
 62
    92
370
    13
100
AcDbLine
 10
-1601.956911084586
 20
-398.0319763472085
 30
0.0
 11
-2231.956911084586
 21
-398.0319763472085
 31
0.0
  0
LINE
  5
2E6
330
1F
100
AcDbEntity
  8
0-2_柱
  6
Continuous
 62
     7
370
     9
100
AcDbLine
 10
-1601.956911084586
 20
-398.0319763472085
 30
0.0
 11
-2231.956911084586
 21
-236.0319763472083
 31
0.0
  0
LINE
  5
2E7
330
1F
100
AcDbEntity
  8
0-2_柱
  6
Continuous
 62
    92
370
    13
100
AcDbLine
 10
-1601.956911084586
 20
-236.0319763472083
 30
0.0
 11
-2231.956911084586
 21
-236.0319763472083
 31
0.0
  0
LINE
  5
2E8
330
1F
100
AcDbEntity
  8
0-7_金物
  6
Continuous
 62
     7
370
     9
100
AcDbLine
 10
-2078.356911637939
 20
-872.6319760626232
 30
0.0
 11
-2078.356911637939
 21
-802.4319760626238
 31
0.0
  0
ARC
  5
2E9
330
1F
100
AcDbEntity
  8
0-7_金物
  6
Continuous
 62
     7
370
     9
100
AcDbCircle
 10
-2030.956911637937
 20
-872.6319760626232
 30
0.0
 40
47.40000000000003
100
AcDbArc
 50
180.0
 51
0.0
  0
LINE
  5
2EA
330
1F
100
AcDbEntity
  8
0-7_金物
  6
Continuous
 62
     7
370
     9
100
AcDbLine
 10
-1983.556911637939
 20
-802.4319760626238
 30
0.0
 11
-1983.556911637939
 21
-872.6319760626232
 31
0.0
  0
ARC
  5
2EB
330
1F
100
AcDbEntity
  8
0-7_金物
  6
Continuous
 62
     7
370
     9
100
AcDbCircle
 10
-2030.956911637937
 20
-872.6319760626232
 30
0.0
 40
41.40000000000003
100
AcDbArc
 50
180.0
 51
0.0
  0
LINE
  5
2EC
330
1F
100
AcDbEntity
  8
0-7_金物
  6
Continuous
 62
     7
370
     9
100
AcDbLine
 10
-1989.556911637937
 20
-872.6319760626232
 30
0.0
 11
-1989.556911637937
 21
-802.4319760626238
 31
0.0
  0
LINE
  5
2ED
330
1F
100
AcDbEntity
  8
0-7_金物
  6
Continuous
 62
     7
370
     9
100
AcDbLine
 10
-2078.356911637939
 20
-802.4319760626238
 30
0.0
 11
-2072.35691163794
 21
-802.4319760626238
 31
0.0
  0
LINE
  5
2EE
330
1F
100
AcDbEntity
  8
0-7_金物
  6
Continuous
 62
     7
370
     9
100
AcDbLine
 10
-2072.35691163794
 20
-802.4319760626238
 30
0.0
 11
-2072.35691163794
 21
-872.6319760626232
 31
0.0
  0
LINE
  5
2EF
330
1F
100
AcDbEntity
  8
0-7_金物
  6
Continuous
 62
     7
370
     9
100
AcDbLine
 10
-1989.556911637937
 20
-802.4319760626238
 30
0.0
 11
-1983.556911637939
 21
-802.4319760626238
 31
0.0
  0
LINE
  5
2F0
330
1F
100
AcDbEntity
  8
0-7_金物
  6
Continuous
 62
     7
370
     9
100
AcDbLine
 10
-2005.756911637939
 20
-802.4319760626238
 30
0.0
 11
-2005.756911637939
 21
-808.431976062621
 31
0.0
  0
LINE
  5
2F1
330
1F
100
AcDbEntity
  8
0-7_金物
  6
Continuous
 62
     7
370
     9
100
AcDbLine
 10
-1994.356911637939
 20
-808.431976062621
 30
0.0
 11
-2005.756911637939
 21
-808.431976062621
 31
0.0
  0
LINE
  5
2F2
330
1F
100
AcDbEntity
  8
0-7_金物
  6
Continuous
 62
     7
370
     9
100
AcDbLine
 10
-1994.356911637939
 20
-808.431976062621
 30
0.0
 11
-1994.356911637939
 21
-836.6319760626218
 31
0.0
  0
LINE
  5
2F3
330
1F
100
AcDbEntity
  8
0-7_金物
  6
Continuous
 62
     7
370
     9
100
AcDbLine
 10
-2005.756911637939
 20
-836.6319760626218
 30
0.0
 11
-1994.356911637939
 21
-836.6319760626218
 31
0.0
  0
LINE
  5
2F4
330
1F
100
AcDbEntity
  8
0-7_金物
  6
Continuous
 62
     7
370
     9
100
AcDbLine
 10
-2005.756911637939
 20
-836.6319760626218
 30
0.0
 11
-2005.756911637939
 21
-848.0319760626232
 31
0.0
  0
LINE
  5
2F5
330
1F
100
AcDbEntity
  8
0-7_金物
  6
Continuous
 62
     7
370
     9
100
AcDbLine
 10
-2056.156911637938
 20
-848.0319760626232
 30
0.0
 11
-2056.156911637938
 21
-836.6319760626218
 31
0.0
  0
LINE
  5
2F6
330
1F
100
AcDbEntity
  8
0-7_金物
  6
Continuous
 62
     7
370
     9
100
AcDbLine
 10
-2067.556911637938
 20
-836.6319760626218
 30
0.0
 11
-2056.156911637938
 21
-836.6319760626218
 31
0.0
  0
LINE
  5
2F7
330
1F
100
AcDbEntity
  8
0-7_金物
  6
Continuous
 62
     7
370
     9
100
AcDbLine
 10
-2067.556911637938
 20
-836.6319760626218
 30
0.0
 11
-2067.556911637938
 21
-808.431976062621
 31
0.0
  0
LINE
  5
2F8
330
1F
100
AcDbEntity
  8
0-7_金物
  6
Continuous
 62
     7
370
     9
100
AcDbLine
 10
-2056.156911637938
 20
-808.431976062621
 30
0.0
 11
-2067.556911637938
 21
-808.431976062621
 31
0.0
  0
LINE
  5
2F9
330
1F
100
AcDbEntity
  8
0-7_金物
  6
Continuous
 62
     7
370
     9
100
AcDbLine
 10
-2056.156911637938
 20
-808.431976062621
 30
0.0
 11
-2056.156911637938
 21
-802.4319760626238
 31
0.0
  0
LINE
  5
2FA
330
1F
100
AcDbEntity
  8
0-7_金物
  6
Continuous
 62
     7
370
     9
100
AcDbLine
 10
-2072.35691163794
 20
-802.4319760626238
 30
0.0
 11
-2056.156911637938
 21
-802.4319760626238
 31
0.0
  0
LINE
  5
2FB
330
1F
100
AcDbEntity
  8
0-7_金物
  6
Continuous
 62
     7
370
     9
100
AcDbLine
 10
-2005.756911637939
 20
-802.4319760626238
 30
0.0
 11
-1989.556911637937
 21
-802.4319760626238
 31
0.0
  0
LINE
  5
2FC
330
1F
100
AcDbEntity
  8
0-7_金物
  6
Continuous
 62
     7
370
     9
100
AcDbLine
 10
-2067.556911637938
 20
-814.4319760626223
 30
0.0
 11
-2056.156911637938
 21
-814.4319760626223
 31
0.0
  0
LINE
  5
2FD
330
1F
100
AcDbEntity
  8
0-7_金物
  6
Continuous
 62
     7
370
     9
100
AcDbLine
 10
-2056.156911637938
 20
-814.4319760626223
 30
0.0
 11
-2056.156911637938
 21
-808.431976062621
 31
0.0
  0
LINE
  5
2FE
330
1F
100
AcDbEntity
  8
0-7_金物
  6
Continuous
 62
     7
370
     9
100
AcDbLine
 10
-2005.756911637939
 20
-814.4319760626223
 30
0.0
 11
-1994.356911637939
 21
-814.4319760626223
 31
0.0
  0
LINE
  5
2FF
330
1F
100
AcDbEntity
  8
0-7_金物
  6
Continuous
 62
     7
370
     9
100
AcDbLine
 10
-2005.756911637939
 20
-808.431976062621
 30
0.0
 11
-2005.756911637939
 21
-814.4319760626223
 31
0.0
  0
LINE
  5
300
330
1F
100
AcDbEntity
  8
0-7_金物
  6
Continuous
 62
     7
370
     9
100
AcDbLine
 10
-2056.156911637938
 20
-830.6319760626212
 30
0.0
 11
-2067.556911637938
 21
-830.6319760626212
 31
0.0
  0
LINE
  5
301
330
1F
100
AcDbEntity
  8
0-7_金物
  6
Continuous
 62
     7
370
     9
100
AcDbLine
 10
-2056.156911637938
 20
-836.6319760626218
 30
0.0
 11
-2056.156911637938
 21
-830.6319760626212
 31
0.0
  0
LINE
  5
302
330
1F
100
AcDbEntity
  8
0-7_金物
  6
Continuous
 62
     7
370
     9
100
AcDbLine
 10
-1994.356911637939
 20
-830.6319760626212
 30
0.0
 11
-2005.756911637939
 21
-830.6319760626212
 31
0.0
  0
LINE
  5
303
330
1F
100
AcDbEntity
  8
0-7_金物
  6
Continuous
 62
     7
370
     9
100
AcDbLine
 10
-2005.756911637939
 20
-830.6319760626212
 30
0.0
 11
-2005.756911637939
 21
-836.6319760626218
 31
0.0
  0
LINE
  5
304
330
1F
100
AcDbEntity
  8
0-7_金物
  6
Continuous
 62
     7
370
     9
100
AcDbLine
 10
-2060.356911637938
 20
-801.8319760626227
 30
0.0
 11
-2060.356911637938
 21
-802.4319760626238
 31
0.0
  0
LINE
  5
305
330
1F
100
AcDbEntity
  8
0-7_金物
  6
Continuous
 62
     7
370
     9
100
AcDbLine
 10
-2078.356911637939
 20
-801.8319760626227
 30
0.0
 11
-2078.356911637939
 21
-802.4319760626238
 31
0.0
  0
LINE
  5
306
330
1F
100
AcDbEntity
  8
0-7_金物
  6
Continuous
 62
     7
370
     9
100
AcDbLine
 10
-2001.556911637939
 20
-802.4319760626238
 30
0.0
 11
-2001.556911637939
 21
-801.8319760626227
 31
0.0
  0
LINE
  5
307
330
1F
100
AcDbEntity
  8
0-7_金物
  6
Continuous
 62
     7
370
     9
100
AcDbLine
 10
-1983.556911637939
 20
-801.8319760626227
 30
0.0
 11
-1983.556911637939
 21
-802.4319760626238
 31
0.0
  0
ARC
  5
308
330
1F
100
AcDbEntity
  8
0-7_金物
  6
Continuous
 62
     7
370
     9
100
AcDbCircle
 10
-2021.956911637939
 20
-713.0319760626232
 30
0.0
 40
6.0
100
AcDbArc
 50
180.0
 51
270.0
  0
LINE
  5
309
330
1F
100
AcDbEntity
  8
0-7_金物
  6
Continuous
 62
     7
370
     9
100
AcDbLine
 10
-2015.956911637937
 20
-725.0319760626218
 30
0.0
 11
-2021.956911637939
 21
-725.0319760626218
 31
0.0
  0
ARC
  5
30A
330
1F
100
AcDbEntity
  8
0-7_金物
  6
Continuous
 62
     7
370
     9
100
AcDbCircle
 10
-2021.956911637939
 20
-731.0319760626223
 30
0.0
 40
6.0
100
AcDbArc
 50
90.0
 51
180.0
  0
LINE
  5
30B
330
1F
100
AcDbEntity
  8
0-7_金物
  6
Continuous
 62
     7
370
     9
100
AcDbLine
 10
-2027.956911637939
 20
-731.0319760626223
 30
0.0
 11
-2027.956911637939
 21
-737.0319760626237
 31
0.0
  0
ARC
  5
30C
330
1F
100
AcDbEntity
  8
0-7_金物
  6
Continuous
 62
     7
370
     9
100
AcDbCircle
 10
-2045.956911637937
 20
-722.0319760626237
 30
0.0
 40
3.0
100
AcDbArc
 50
90.0
 51
180.0
  0
LINE
  5
30D
330
1F
100
AcDbEntity
  8
0-7_金物
  6
Continuous
 62
     7
370
     9
100
AcDbLine
 10
-2033.956911637938
 20
-713.0319760626232
 30
0.0
 11
-2033.956911637938
 21
-707.0319760626237
 31
0.0
  0
ARC
  5
30E
330
1F
100
AcDbEntity
  8
0-7_金物
  6
Continuous
 62
     7
370
     9
100
AcDbCircle
 10
-2030.956911637937
 20
-707.0319760626237
 30
0.0
 40
3.0
100
AcDbArc
 50
90.0
 51
180.0
  0
ARC
  5
30F
330
1F
100
AcDbEntity
  8
0-7_金物
  6
Continuous
 62
     7
370
     9
100
AcDbCircle
 10
-2039.956911637938
 20
-731.0319760626223
 30
0.0
 40
6.0
100
AcDbArc
 50
0.0
 51
90.0
  0
LINE
  5
310
330
1F
100
AcDbEntity
  8
0-7_金物
  6
Continuous
 62
     7
370
     9
100
AcDbLine
 10
-2039.956911637938
 20
-725.0319760626218
 30
0.0
 11
-2045.956911637937
 21
-725.0319760626218
 31
0.0
  0
LINE
  5
311
330
1F
100
AcDbEntity
  8
0-7_金物
  6
Continuous
 62
     7
370
     9
100
AcDbLine
 10
-2045.956911637937
 20
-719.031976062623
 30
0.0
 11
-2039.956911637938
 21
-719.031976062623
 31
0.0
  0
ARC
  5
312
330
1F
100
AcDbEntity
  8
0-7_金物
  6
Continuous
 62
     7
370
     9
100
AcDbCircle
 10
-2039.956911637938
 20
-713.0319760626232
 30
0.0
 40
6.0
100
AcDbArc
 50
270.0
 51
0.0
  0
ARC
  5
313
330
1F
100
AcDbEntity
  8
0-7_金物
  6
Continuous
 62
     7
370
     9
100
AcDbCircle
 10
-2030.956911637937
 20
-707.0319760626237
 30
0.0
 40
3.0
100
AcDbArc
 50
0.0
 51
90.0
  0
ARC
  5
314
330
1F
100
AcDbEntity
  8
0-7_金物
  6
Continuous
 62
     7
370
     9
100
AcDbCircle
 10
-2015.956911637937
 20
-722.0319760626237
 30
0.0
 40
3.0
100
AcDbArc
 50
270.0
 51
0.0
  0
LINE
  5
315
330
1F
100
AcDbEntity
  8
0-7_金物
  6
Continuous
 62
     7
370
     9
100
AcDbLine
 10
-2027.956911637939
 20
-707.0319760626237
 30
0.0
 11
-2027.956911637939
 21
-713.0319760626232
 31
0.0
  0
ARC
  5
316
330
1F
100
AcDbEntity
  8
0-7_金物
  6
Continuous
 62
     7
370
     9
100
AcDbCircle
 10
-2045.956911637937
 20
-722.0319760626237
 30
0.0
 40
3.0
100
AcDbArc
 50
180.0
 51
270.0
  0
ARC
  5
317
330
1F
100
AcDbEntity
  8
0-7_金物
  6
Continuous
 62
     7
370
     9
100
AcDbCircle
 10
-2030.956911637937
 20
-737.0319760626237
 30
0.0
 40
3.0
100
AcDbArc
 50
270.0
 51
0.0
  0
LINE
  5
318
330
1F
100
AcDbEntity
  8
0-7_金物
  6
Continuous
 62
     7
370
     9
100
AcDbLine
 10
-2033.956911637938
 20
-737.0319760626237
 30
0.0
 11
-2033.956911637938
 21
-731.0319760626223
 31
0.0
  0
LINE
  5
319
330
1F
100
AcDbEntity
  8
0-7_金物
  6
Continuous
 62
     7
370
     9
100
AcDbLine
 10
-2021.956911637939
 20
-719.031976062623
 30
0.0
 11
-2015.956911637937
 21
-719.031976062623
 31
0.0
  0
ARC
  5
31A
330
1F
100
AcDbEntity
  8
0-7_金物
  6
Continuous
 62
     7
370
     9
100
AcDbCircle
 10
-2015.956911637937
 20
-722.0319760626237
 30
0.0
 40
3.0
100
AcDbArc
 50
0.0
 51
90.0
  0
ARC
  5
31B
330
1F
100
AcDbEntity
  8
0-7_金物
  6
Continuous
 62
     7
370
     9
100
AcDbCircle
 10
-2030.956911637937
 20
-737.0319760626237
 30
0.0
 40
3.0
100
AcDbArc
 50
180.0
 51
270.0
  0
LINE
  5
31C
330
1F
100
AcDbEntity
  8
0-7_金物
  6
Continuous
 62
     7
370
     9
100
AcDbLine
 10
-2066.356911637939
 20
-848.0319760626232
 30
0.0
 11
-2066.356911637939
 21
-866.0319760626223
 31
0.0
  0
LINE
  5
31D
330
1F
100
AcDbEntity
  8
0-7_金物
  6
Continuous
 62
     7
370
     9
100
AcDbLine
 10
-2060.356911637938
 20
-866.0319760626223
 30
0.0
 11
-2060.356911637938
 21
-848.0319760626232
 31
0.0
  0
LINE
  5
31E
330
1F
100
AcDbEntity
  8
0-7_金物
  6
Continuous
 62
     7
370
     9
100
AcDbLine
 10
-2066.356911637939
 20
-866.0319760626223
 30
0.0
 11
-2060.356911637938
 21
-866.0319760626223
 31
0.0
  0
LINE
  5
31F
330
1F
100
AcDbEntity
  8
0-7_金物
  6
Continuous
 62
     7
370
     9
100
AcDbLine
 10
-2060.356911637938
 20
-848.0319760626232
 30
0.0
 11
-2066.356911637939
 21
-848.0319760626232
 31
0.0
  0
LINE
  5
320
330
1F
100
AcDbEntity
  8
0-7_金物
  6
Continuous
 62
     7
370
     9
100
AcDbLine
 10
-2001.556911637939
 20
-848.0319760626232
 30
0.0
 11
-2001.556911637939
 21
-866.0319760626223
 31
0.0
  0
LINE
  5
321
330
1F
100
AcDbEntity
  8
0-7_金物
  6
Continuous
 62
     7
370
     9
100
AcDbLine
 10
-2060.356911637938
 20
-866.0319760626223
 30
0.0
 11
-2001.556911637939
 21
-866.0319760626223
 31
0.0
  0
LINE
  5
322
330
1F
100
AcDbEntity
  8
0-7_金物
  6
Continuous
 62
     7
370
     9
100
AcDbLine
 10
-2001.556911637939
 20
-848.0319760626232
 30
0.0
 11
-2060.356911637938
 21
-848.0319760626232
 31
0.0
  0
LINE
  5
323
330
1F
100
AcDbEntity
  8
0-7_金物
  6
Continuous
 62
     7
370
     9
100
AcDbLine
 10
-1983.556911637939
 20
-662.0319760626237
 30
0.0
 11
-1983.556911637939
 21
-801.8319760626227
 31
0.0
  0
LINE
  5
324
330
1F
100
AcDbEntity
  8
0-7_金物
  6
Continuous
 62
     7
370
     9
100
AcDbLine
 10
-2078.356911637939
 20
-662.0319760626237
 30
0.0
 11
-2078.356911637939
 21
-801.8319760626227
 31
0.0
  0
CIRCLE
  5
325
330
1F
100
AcDbEntity
  8
0-7_金物
  6
Continuous
 62
     7
370
     9
100
AcDbCircle
 10
-2030.956911637937
 20
-722.0319760626237
 30
0.0
 40
21.00000000000001
  0
LINE
  5
326
330
1F
100
AcDbEntity
  8
0-7_金物
  6
Continuous
 62
     7
370
     9
100
AcDbLine
 10
-2078.356911637939
 20
-801.8319760626227
 30
0.0
 11
-1983.556911637939
 21
-801.8319760626227
 31
0.0
  0
LINE
  5
327
330
1F
100
AcDbEntity
  8
0-7_金物
  6
Continuous
 62
     7
370
     9
100
AcDbLine
 10
-1995.556911637939
 20
-866.0319760626223
 30
0.0
 11
-1995.556911637939
 21
-848.0319760626232
 31
0.0
  0
LINE
  5
328
330
1F
100
AcDbEntity
  8
0-7_金物
  6
Continuous
 62
     7
370
     9
100
AcDbLine
 10
-2001.556911637939
 20
-866.0319760626223
 30
0.0
 11
-1995.556911637939
 21
-866.0319760626223
 31
0.0
  0
LINE
  5
329
330
1F
100
AcDbEntity
  8
0-7_金物
  6
Continuous
 62
     7
370
     9
100
AcDbLine
 10
-1995.556911637939
 20
-848.0319760626232
 30
0.0
 11
-2001.556911637939
 21
-848.0319760626232
 31
0.0
  0
LINE
  5
32A
330
1F
100
AcDbEntity
  8
0-7_金物
  6
Continuous
 62
     7
370
     9
100
AcDbLine
 10
-2066.356911637939
 20
-830.0319760626218
 30
0.0
 11
-1995.556911637939
 21
-830.0319760626218
 31
0.0
  0
LINE
  5
32B
330
1F
100
AcDbEntity
  8
0-7_金物
  6
Continuous
 62
     7
370
     9
100
AcDbLine
 10
-1995.556911637939
 20
-830.0319760626218
 30
0.0
 11
-1995.556911637939
 21
-818.0319760626232
 31
0.0
  0
LINE
  5
32C
330
1F
100
AcDbEntity
  8
0-7_金物
  6
Continuous
 62
     7
370
     9
100
AcDbLine
 10
-1995.556911637939
 20
-818.0319760626232
 30
0.0
 11
-2066.356911637939
 21
-818.0319760626232
 31
0.0
  0
LINE
  5
32D
330
1F
100
AcDbEntity
  8
0-7_金物
  6
Continuous
 62
     7
370
     9
100
AcDbLine
 10
-2066.356911637939
 20
-818.0319760626232
 30
0.0
 11
-2066.356911637939
 21
-830.0319760626218
 31
0.0
  0
LINE
  5
32E
330
1F
100
AcDbEntity
  8
0-7_金物
  6
Continuous
 62
     7
370
     9
100
AcDbLine
 10
-2006.956911637939
 20
-815.0319760626218
 30
0.0
 11
-1995.556911637939
 21
-815.0319760626218
 31
0.0
  0
LINE
  5
32F
330
1F
100
AcDbEntity
  8
0-7_金物
  6
Continuous
 62
     7
370
     9
100
AcDbLine
 10
-2006.956911637939
 20
-815.0319760626218
 30
0.0
 11
-2006.956911637939
 21
-801.8319760626227
 31
0.0
  0
LINE
  5
330
330
1F
100
AcDbEntity
  8
0-7_金物
  6
Continuous
 62
     7
370
     9
100
AcDbLine
 10
-2066.356911637939
 20
-815.0319760626218
 30
0.0
 11
-2054.956911637938
 21
-815.0319760626218
 31
0.0
  0
LINE
  5
331
330
1F
100
AcDbEntity
  8
0-7_金物
  6
Continuous
 62
     7
370
     9
100
AcDbLine
 10
-2054.956911637938
 20
-801.8319760626227
 30
0.0
 11
-2054.956911637938
 21
-815.0319760626218
 31
0.0
  0
LINE
  5
332
330
1F
100
AcDbEntity
  8
0-7_金物
  6
Continuous
 62
     7
370
     9
100
AcDbLine
 10
-2066.356911637939
 20
-818.0319760626232
 30
0.0
 11
-2066.356911637939
 21
-815.0319760626218
 31
0.0
  0
LINE
  5
333
330
1F
100
AcDbEntity
  8
0-7_金物
  6
Continuous
 62
     7
370
     9
100
AcDbLine
 10
-1995.556911637939
 20
-815.0319760626218
 30
0.0
 11
-1995.556911637939
 21
-818.0319760626232
 31
0.0
  0
LINE
  5
334
330
1F
100
AcDbEntity
  8
0-7_金物
  6
Continuous
 62
     7
370
     9
100
AcDbLine
 10
-2021.956911637939
 20
-830.0319760626218
 30
0.0
 11
-2021.956911637939
 21
-848.0319760626232
 31
0.0
  0
LINE
  5
335
330
1F
100
AcDbEntity
  8
0-7_金物
  6
Continuous
 62
     7
370
     9
100
AcDbLine
 10
-2039.956911637938
 20
-830.0319760626218
 30
0.0
 11
-2039.956911637938
 21
-848.0319760626232
 31
0.0
  0
LINE
  5
336
330
1F
100
AcDbEntity
  8
0-7_金物
  6
Continuous
 62
     7
370
     9
100
AcDbLine
 10
-2006.956911637939
 20
-842.0319760626237
 30
0.0
 11
-2021.956911637939
 21
-842.0319760626237
 31
0.0
  0
LINE
  5
337
330
1F
100
AcDbEntity
  8
0-7_金物
  6
Continuous
 62
     7
370
     9
100
AcDbLine
 10
-2006.956911637939
 20
-848.0319760626232
 30
0.0
 11
-2006.956911637939
 21
-842.0319760626237
 31
0.0
  0
LINE
  5
338
330
1F
100
AcDbEntity
  8
0-7_金物
  6
Continuous
 62
     7
370
     9
100
AcDbLine
 10
-2039.956911637938
 20
-842.0319760626237
 30
0.0
 11
-2054.956911637938
 21
-842.0319760626237
 31
0.0
  0
LINE
  5
339
330
1F
100
AcDbEntity
  8
0-7_金物
  6
Continuous
 62
     7
370
     9
100
AcDbLine
 10
-2054.956911637938
 20
-842.0319760626237
 30
0.0
 11
-2054.956911637938
 21
-848.0319760626232
 31
0.0
  0
LINE
  5
33A
330
1F
100
AcDbEntity
  8
0-7_金物
  6
Continuous
 62
     7
370
     9
100
AcDbLine
 10
-2054.956911637938
 20
-830.0319760626218
 30
0.0
 11
-2054.956911637938
 21
-842.0319760626237
 31
0.0
  0
LINE
  5
33B
330
1F
100
AcDbEntity
  8
0-7_金物
  6
Continuous
 62
     7
370
     9
100
AcDbLine
 10
-2006.956911637939
 20
-842.0319760626237
 30
0.0
 11
-2006.956911637939
 21
-830.0319760626218
 31
0.0
  0
LINE
  5
33C
330
1F
100
AcDbEntity
  8
0-7_金物
  6
Continuous
 62
     7
370
     9
100
AcDbLine
 10
-1999.456911637945
 20
-564.231976062624
 30
0.0
 11
-1999.456911637945
 21
-633.8319760626221
 31
0.0
  0
LINE
  5
33D
330
1F
100
AcDbEntity
  8
0-7_金物
  6
Continuous
 62
     7
370
     9
100
AcDbLine
 10
-1999.456911637945
 20
-546.2319760626233
 30
0.0
 11
-1999.456911637945
 21
-564.231976062624
 31
0.0
  0
LINE
  5
33E
330
1F
100
AcDbEntity
  8
0-7_金物
  6
Continuous
 62
     7
370
     9
100
AcDbLine
 10
-2062.456911637943
 20
-564.231976062624
 30
0.0
 11
-2062.456911637943
 21
-546.2319760626233
 31
0.0
  0
LINE
  5
33F
330
1F
100
AcDbEntity
  8
0-7_金物
  6
Continuous
 62
     7
370
     9
100
AcDbLine
 10
-1999.456911637945
 20
-633.8319760626221
 30
0.0
 11
-1999.456911637945
 21
-660.2319760626235
 31
0.0
  0
LINE
  5
340
330
1F
100
AcDbEntity
  8
0-7_金物
  6
Continuous
 62
     7
370
     9
100
AcDbLine
 10
-2062.456911637943
 20
-660.2319760626235
 30
0.0
 11
-2062.456911637943
 21
-633.8319760626221
 31
0.0
  0
LINE
  5
341
330
1F
100
AcDbEntity
  8
0-7_金物
  6
Continuous
 62
     7
370
     9
100
AcDbLine
 10
-2054.956911637943
 20
-660.2319760626235
 30
0.0
 11
-2006.956911637945
 21
-660.2319760626235
 31
0.0
  0
LINE
  5
342
330
1F
100
AcDbEntity
  8
0-7_金物
  6
Continuous
 62
     7
370
     9
100
AcDbLine
 10
-2006.956911637945
 20
-660.2319760626235
 30
0.0
 11
-2006.956911637945
 21
-662.0319760626237
 31
0.0
  0
LINE
  5
343
330
1F
100
AcDbEntity
  8
0-7_金物
  6
Continuous
 62
     7
370
     9
100
AcDbLine
 10
-2054.956911637943
 20
-662.0319760626237
 30
0.0
 11
-2054.956911637943
 21
-660.2319760626235
 31
0.0
  0
LINE
  5
344
330
1F
100
AcDbEntity
  8
0-7_金物
  6
Continuous
 62
     7
370
     9
100
AcDbLine
 10
-1979.956911637944
 20
-522.231976062622
 30
0.0
 11
-1979.956911637944
 21
-546.2319760626233
 31
0.0
  0
LINE
  5
345
330
1F
100
AcDbEntity
  8
0-7_金物
  6
Continuous
 62
     7
370
     9
100
AcDbLine
 10
-2003.956911637945
 20
-522.231976062622
 30
0.0
 11
-1979.956911637944
 21
-522.231976062622
 31
0.0
  0
LINE
  5
346
330
1F
100
AcDbEntity
  8
0-7_金物
  6
Continuous
 62
     7
370
     9
100
AcDbLine
 10
-2003.956911637945
 20
-534.231976062624
 30
0.0
 11
-2003.956911637945
 21
-522.231976062622
 31
0.0
  0
LINE
  5
347
330
1F
100
AcDbEntity
  8
0-7_金物
  6
Continuous
 62
     7
370
     9
100
AcDbLine
 10
-2057.956911637943
 20
-534.231976062624
 30
0.0
 11
-2003.956911637945
 21
-534.231976062624
 31
0.0
  0
LINE
  5
348
330
1F
100
AcDbEntity
  8
0-7_金物
  6
Continuous
 62
     7
370
     9
100
AcDbLine
 10
-2057.956911637943
 20
-522.231976062622
 30
0.0
 11
-2057.956911637943
 21
-534.231976062624
 31
0.0
  0
LINE
  5
349
330
1F
100
AcDbEntity
  8
0-7_金物
  6
Continuous
 62
     7
370
     9
100
AcDbLine
 10
-2081.956911637945
 20
-546.2319760626233
 30
0.0
 11
-2081.956911637945
 21
-522.231976062622
 31
0.0
  0
LINE
  5
34A
330
1F
100
AcDbEntity
  8
0-7_金物
  6
Continuous
 62
     7
370
     9
100
AcDbLine
 10
-2030.956911637944
 20
-546.2319760626233
 30
0.0
 11
-2081.956911637945
 21
-546.2319760626233
 31
0.0
  0
LINE
  5
34B
330
1F
100
AcDbEntity
  8
0-7_金物
  6
Continuous
 62
     7
370
     9
100
AcDbLine
 10
-1979.956911637944
 20
-546.2319760626233
 30
0.0
 11
-2030.956911637944
 21
-546.2319760626233
 31
0.0
  0
LINE
  5
34C
330
1F
100
AcDbEntity
  8
0-7_金物
  6
Continuous
 62
     7
370
     9
100
AcDbLine
 10
-2081.956911637945
 20
-522.231976062622
 30
0.0
 11
-2057.956911637943
 21
-522.231976062622
 31
0.0
  0
LINE
  5
34D
330
1F
100
AcDbEntity
  8
0-7_金物
  6
Continuous
 62
     7
370
     9
100
AcDbLine
 10
-2062.456911637943
 20
-633.8319760626221
 30
0.0
 11
-2030.956911637944
 21
-633.8319760626221
 31
0.0
  0
LINE
  5
34E
330
1F
100
AcDbEntity
  8
0-7_金物
  6
Continuous
 62
     7
370
     9
100
AcDbLine
 10
-2030.956911637944
 20
-564.231976062624
 30
0.0
 11
-2062.456911637943
 21
-564.231976062624
 31
0.0
  0
LINE
  5
34F
330
1F
100
AcDbEntity
  8
0-7_金物
  6
Continuous
 62
     7
370
     9
100
AcDbLine
 10
-2030.956911637944
 20
-633.8319760626221
 30
0.0
 11
-1999.456911637945
 21
-633.8319760626221
 31
0.0
  0
LINE
  5
350
330
1F
100
AcDbEntity
  8
0-7_金物
  6
Continuous
 62
     7
370
     9
100
AcDbLine
 10
-1999.456911637945
 20
-564.231976062624
 30
0.0
 11
-2030.956911637944
 21
-564.231976062624
 31
0.0
  0
LINE
  5
351
330
1F
100
AcDbEntity
  8
0-7_金物
  6
Continuous
 62
     7
370
     9
100
AcDbLine
 10
-2062.456911637943
 20
-633.8319760626221
 30
0.0
 11
-2062.456911637943
 21
-564.231976062624
 31
0.0
  0
LINE
  5
352
330
1F
100
AcDbEntity
  8
0-7_金物
  6
Continuous
 62
     7
370
     9
100
AcDbLine
 10
-2054.956911637943
 20
-660.2319760626235
 30
0.0
 11
-2062.456911637943
 21
-660.2319760626235
 31
0.0
  0
LINE
  5
353
330
1F
100
AcDbEntity
  8
0-7_金物
  6
Continuous
 62
     7
370
     9
100
AcDbLine
 10
-1999.456911637945
 20
-660.2319760626235
 30
0.0
 11
-2006.956911637945
 21
-660.2319760626235
 31
0.0
  0
LINE
  5
354
330
1F
100
AcDbEntity
  8
0-7_金物
  6
Continuous
 62
     7
370
     9
100
AcDbLine
 10
-1997.056686055813
 20
-482.0319760626245
 30
0.0
 11
-2064.857137220074
 21
-482.0319760626236
 31
0.0
  0
LINE
  5
355
330
1F
100
AcDbEntity
  8
0-7_金物
  6
Continuous
 62
     7
370
     9
100
AcDbLine
 10
-2111.957450639493
 20
-482.0319760626245
 30
0.0
 11
-2110.756911637943
 21
-482.0319760626236
 31
0.0
  0
LINE
  5
356
330
1F
100
AcDbEntity
  8
0-7_金物
  6
Continuous
 62
     7
370
     9
100
AcDbLine
 10
-1949.956911637944
 20
-482.0319760626236
 30
0.0
 11
-1951.156911637944
 21
-482.0319760626236
 31
0.0
  0
LINE
  5
357
330
1F
100
AcDbEntity
  8
0-7_金物
  6
Continuous
 62
     7
370
     9
100
AcDbLine
 10
-2078.356911637944
 20
-662.0319760626237
 30
0.0
 11
-1983.556911637943
 21
-662.0319760626237
 31
0.0
  0
LINE
  5
358
330
1F
100
AcDbEntity
  8
0-7_金物
  6
Continuous
 62
     7
370
     9
100
AcDbLine
 10
-1913.356352673375
 20
-690.2326627905231
 30
0.0
 11
-1913.356352673375
 21
-582.2326627905225
 31
0.0
  0
ARC
  5
359
330
1F
100
AcDbEntity
  8
0-7_金物
  6
Continuous
 62
     7
370
     9
100
AcDbCircle
 10
-1916.356352673374
 20
-690.2326627905231
 30
0.0
 40
2.999999999999915
100
AcDbArc
 50
180.0
 51
0.0
  0
LINE
  5
35A
330
1F
100
AcDbEntity
  8
0-7_金物
  6
Continuous
 62
     7
370
     9
100
AcDbLine
 10
-2107.757422691266
 20
-599.7706119886627
 30
0.0
 11
-2107.757422691266
 21
-515.0321956558452
 31
0.0
  0
ARC
  5
35B
330
1F
100
AcDbEntity
  8
0-7_金物
  6
Continuous
 62
     7
370
     9
100
AcDbCircle
 10
-2082.557255001895
 20
-584.032654805317
 30
0.0
 40
30.00019963020328
100
AcDbArc
 50
213.9231120032596
 51
301.890791801846
  0
ARC
  5
35C
330
1F
100
AcDbEntity
  8
0-7_金物
  6
Continuous
 62
     7
370
     9
100
AcDbCircle
 10
-2065.75714320898
 20
-611.0328344724987
 30
0.0
 40
1.800011977811773
100
AcDbArc
 50
0.0000000000000064
 51
121.8907918018636
  0
ARC
  5
35D
330
1F
100
AcDbEntity
  8
0-7_金物
  6
Continuous
 62
     7
370
     9
100
AcDbCircle
 10
-2105.95741071345
 20
-599.7706119886627
 30
0.0
 40
1.800011977815348
100
AcDbArc
 50
180.0
 51
213.923112003242
  0
LINE
  5
35E
330
1F
100
AcDbEntity
  8
0-7_金物
  6
Continuous
 62
     7
370
     9
100
AcDbLine
 10
-2058.857097294032
 20
-501.2321038259532
 30
0.0
 11
-2058.857097294032
 21
-492.8320479294945
 31
0.0
  0
LINE
  5
35F
330
1F
100
AcDbEntity
  8
0-7_金物
  6
Continuous
 62
     7
370
     9
100
AcDbLine
 10
-2067.857157183093
 20
-491.0320359516828
 30
0.0
 11
-2067.857157183093
 21
-485.0319960256439
 31
0.0
  0
LINE
  5
360
330
1F
100
AcDbEntity
  8
0-7_金物
  6
Continuous
 62
     7
370
     9
100
AcDbLine
 10
-2104.757402728244
 20
-494.0320559147048
 30
0.0
 11
-2070.857177146116
 21
-494.0320559147048
 31
0.0
  0
LINE
  5
361
330
1F
100
AcDbEntity
  8
0-7_金物
  6
Continuous
 62
     7
370
     9
100
AcDbLine
 10
-2095.757342839184
 20
-503.0321158037665
 30
0.0
 11
-2060.657109271844
 21
-503.0321158037665
 31
0.0
  0
LINE
  5
362
330
1F
100
AcDbEntity
  8
0-7_金物
  6
Continuous
 62
     7
370
     9
100
AcDbLine
 10
-2107.757422691266
 20
-491.0320359516828
 30
0.0
 11
-2107.757422691266
 21
-485.0319960256439
 31
0.0
  0
ARC
  5
363
330
1F
100
AcDbEntity
  8
0-7_金物
  6
Continuous
 62
     7
370
     9
100
AcDbCircle
 10
-2064.857137220074
 20
-485.0319960256431
 30
0.0
 40
3.000019963019752
100
AcDbArc
 50
89.99999999999837
 51
180.0
  0
ARC
  5
364
330
1F
100
AcDbEntity
  8
0-7_金物
  6
Continuous
 62
     7
370
     9
100
AcDbCircle
 10
-2070.857177146114
 20
-491.0320359516828
 30
0.0
 40
3.000019963020116
100
AcDbArc
 50
269.9999999999951
 51
0.0000000000000127
  0
ARC
  5
365
330
1F
100
AcDbEntity
  8
0-7_金物
  6
Continuous
 62
     7
370
     9
100
AcDbCircle
 10
-2104.757402728244
 20
-491.0320359516828
 30
0.0
 40
3.000019963020043
100
AcDbArc
 50
180.0
 51
270.0000000000049
  0
ARC
  5
366
330
1F
100
AcDbEntity
  8
0-7_金物
  6
Continuous
 62
     7
370
     9
100
AcDbCircle
 10
-2110.757442654285
 20
-485.0319960256431
 30
0.0
 40
3.000019963019753
100
AcDbArc
 50
0.0000000000000127
 51
90.00000000000979
  0
ARC
  5
367
330
1F
100
AcDbEntity
  8
0-7_金物
  6
Continuous
 62
     7
370
     9
100
AcDbCircle
 10
-2111.957450639493
 20
-485.0319960256439
 30
0.0
 40
3.000019963020626
100
AcDbArc
 50
90.00000000000654
 51
180.0
  0
ARC
  5
368
330
1F
100
AcDbEntity
  8
0-7_金物
  6
Continuous
 62
     7
370
     9
100
AcDbCircle
 10
-2095.757342839184
 20
-515.0321956558478
 30
0.0
 40
12.00007985208206
100
AcDbArc
 50
90.00000000000159
 51
180.0
  0
ARC
  5
369
330
1F
100
AcDbEntity
  8
0-7_金物
  6
Continuous
 62
     7
370
     9
100
AcDbCircle
 10
-2060.657109271844
 20
-501.2321038259532
 30
0.0
 40
1.800011977812318
100
AcDbArc
 50
270.0000000000032
 51
359.9999999999999
  0
LINE
  5
36A
330
1F
100
AcDbEntity
  8
0-7_金物
  6
Continuous
 62
     7
370
     9
100
AcDbLine
 10
-1954.156400584623
 20
-599.7706119886627
 30
0.0
 11
-1954.156400584623
 21
-515.0321956558452
 31
0.0
  0
ARC
  5
36B
330
1F
100
AcDbEntity
  8
0-7_金物
  6
Continuous
 62
     7
370
     9
100
AcDbCircle
 10
-1955.956412562427
 20
-599.7706119886635
 30
0.0
 40
1.80001197780369
100
AcDbArc
 50
326.0768879966443
 51
0.0000000000000318
  0
LINE
  5
36C
330
1F
100
AcDbEntity
  8
0-7_金物
  6
Continuous
 62
     7
370
     9
100
AcDbLine
 10
-1966.156480436704
 20
-503.0321158037665
 30
0.0
 11
-2001.256714004042
 21
-503.0321158037665
 31
0.0
  0
LINE
  5
36D
330
1F
100
AcDbEntity
  8
0-7_金物
  6
Continuous
 62
     7
370
     9
100
AcDbLine
 10
-1957.156420547643
 20
-494.0320559147048
 30
0.0
 11
-1991.056646129772
 21
-494.0320559147048
 31
0.0
  0
ARC
  5
36E
330
1F
100
AcDbEntity
  8
0-7_金物
  6
Continuous
 62
     7
370
     9
100
AcDbCircle
 10
-1966.156480436704
 20
-515.0321956558452
 30
0.0
 40
12.00007985208111
100
AcDbArc
 50
0.0000000000000127
 51
90.00000000000001
  0
ARC
  5
36F
330
1F
100
AcDbEntity
  8
0-7_金物
  6
Continuous
 62
     7
370
     9
100
AcDbCircle
 10
-1949.956372636395
 20
-485.0319960256439
 30
0.0
 40
3.000019963020699
100
AcDbArc
 50
0.0000000000000127
 51
89.99999999999187
  0
LINE
  5
370
330
1F
100
AcDbEntity
  8
0-7_金物
  6
Continuous
 62
     7
370
     9
100
AcDbLine
 10
-1954.156400584623
 20
-491.0320359516828
 30
0.0
 11
-1954.156400584623
 21
-485.0319960256439
 31
0.0
  0
ARC
  5
371
330
1F
100
AcDbEntity
  8
0-7_金物
  6
Continuous
 62
     7
370
     9
100
AcDbCircle
 10
-1951.156380621602
 20
-485.0319960256439
 30
0.0
 40
3.000019963020699
100
AcDbArc
 50
90.00000000000654
 51
180.0
  0
ARC
  5
372
330
1F
100
AcDbEntity
  8
0-7_金物
  6
Continuous
 62
     7
370
     9
100
AcDbCircle
 10
-1957.156420547643
 20
-491.0320359516828
 30
0.0
 40
3.000019963020043
100
AcDbArc
 50
269.9999999999951
 51
0.0000000000000127
  0
LINE
  5
373
330
1F
100
AcDbEntity
  8
0-7_金物
  6
Continuous
 62
     7
370
     9
100
AcDbLine
 10
-2004.856737959667
 20
-491.0320359516828
 30
0.0
 11
-2029.156899660132
 21
-491.0320359516828
 31
0.0
  0
LINE
  5
374
330
1F
100
AcDbEntity
  8
0-7_金物
  6
Continuous
 62
     7
370
     9
100
AcDbLine
 10
-2003.056725981853
 20
-501.2321038259532
 30
0.0
 11
-2003.056725981853
 21
-492.8320479294945
 31
0.0
  0
ARC
  5
375
330
1F
100
AcDbEntity
  8
0-7_金物
  6
Continuous
 62
     7
370
     9
100
AcDbCircle
 10
-2001.256714004042
 20
-501.2321038259557
 30
0.0
 40
1.800011977811371
100
AcDbArc
 50
180.0
 51
270.0000000000098
  0
ARC
  5
376
330
1F
100
AcDbEntity
  8
0-7_金物
  6
Continuous
 62
     7
370
     9
100
AcDbCircle
 10
-1997.056686055813
 20
-485.0319960256431
 30
0.0
 40
3.000019963019753
100
AcDbArc
 50
0.0000000000000127
 51
90.00000000000162
  0
LINE
  5
377
330
1F
100
AcDbEntity
  8
0-7_金物
  6
Continuous
 62
     7
370
     9
100
AcDbLine
 10
-1994.056666092794
 20
-491.0320359516828
 30
0.0
 11
-1994.056666092794
 21
-485.0319960256439
 31
0.0
  0
ARC
  5
378
330
1F
100
AcDbEntity
  8
0-7_金物
  6
Continuous
 62
     7
370
     9
100
AcDbCircle
 10
-1991.056646129773
 20
-491.0320359516828
 30
0.0
 40
3.000019963020116
100
AcDbArc
 50
180.0
 51
270.0000000000033
  0
LINE
  5
379
330
1F
100
AcDbEntity
  8
0-7_金物
  6
Continuous
 62
     7
370
     9
100
AcDbLine
 10
-2032.756923615756
 20
-491.0320359516828
 30
0.0
 11
-2057.057085316221
 21
-491.0320359516828
 31
0.0
  0
ARC
  5
37A
330
1F
100
AcDbEntity
  8
0-7_金物
  6
Continuous
 62
     7
370
     9
100
AcDbCircle
 10
-2057.057085316221
 20
-492.8320479294945
 30
0.0
 40
1.800011977812318
100
AcDbArc
 50
90.00000000000325
 51
180.0
  0
ARC
  5
37B
330
1F
100
AcDbEntity
  8
0-7_金物
  6
Continuous
 62
     7
370
     9
100
AcDbCircle
 10
-2004.856737959667
 20
-492.8320479294945
 30
0.0
 40
1.800011977812317
100
AcDbArc
 50
0.0000000000000127
 51
89.99999999999675
  0
LINE
  5
37C
330
1F
100
AcDbEntity
  8
0-7_金物
  6
Continuous
 62
     7
370
     9
100
AcDbLine
 10
-2063.957131231185
 20
-614.5326557331496
 30
0.0
 11
-2063.957131231168
 21
-611.0328344724987
 31
0.0
  0
ARC
  5
37D
330
1F
100
AcDbEntity
  8
0-7_金物
  6
Continuous
 62
     7
370
     9
100
AcDbCircle
 10
-2069.957131231186
 20
-614.5326557331189
 30
0.0
 40
6.000000000000762
100
AcDbArc
 50
292.4464399032286
 51
0.0
  0
ARC
  5
37E
330
1F
100
AcDbEntity
  8
0-7_金物
  6
Continuous
 62
     7
370
     9
100
AcDbCircle
 10
-2082.557255001893
 20
-584.032654805317
 30
0.0
 40
39.00019963020362
100
AcDbArc
 50
220.9258727638374
 51
292.4464399032235
  0
ARC
  5
37F
330
1F
100
AcDbEntity
  8
0-7_金物
  6
Continuous
 62
     7
370
     9
100
AcDbCircle
 10
-1979.356568273993
 20
-584.032654805317
 30
0.0
 40
30.00019963020324
100
AcDbArc
 50
238.1092081981539
 51
326.0768879967404
  0
ARC
  5
380
330
1F
100
AcDbEntity
  8
0-7_金物
  6
Continuous
 62
     7
370
     9
100
AcDbCircle
 10
-1996.156680066908
 20
-611.0328344724987
 30
0.0
 40
1.800011977811815
100
AcDbArc
 50
58.10920819813862
 51
180.0
  0
LINE
  5
381
330
1F
100
AcDbEntity
  8
0-7_金物
  6
Continuous
 62
     7
370
     9
100
AcDbLine
 10
-1997.956692044703
 20
-614.5326557331496
 30
0.0
 11
-1997.95669204472
 21
-611.0328344724987
 31
0.0
  0
ARC
  5
382
330
1F
100
AcDbEntity
  8
0-7_金物
  6
Continuous
 62
     7
370
     9
100
AcDbCircle
 10
-1991.956692044702
 20
-614.5326557331189
 30
0.0
 40
6.000000000000811
100
AcDbArc
 50
180.0
 51
247.5535600967714
  0
ARC
  5
383
330
1F
100
AcDbEntity
  8
0-7_金物
  6
Continuous
 62
     7
370
     9
100
AcDbCircle
 10
-1979.356568273994
 20
-584.032654805317
 30
0.0
 40
39.00019963020364
100
AcDbArc
 50
247.5535600967767
 51
319.0741272361627
  0
ARC
  5
384
330
1F
100
AcDbEntity
  8
0-7_金物
  6
Continuous
 62
     7
370
     9
100
AcDbCircle
 10
-2126.357470602513
 20
-588.8326627905233
 30
0.0
 40
3.59999999999971
100
AcDbArc
 50
0.0000000000000064
 51
180.0
  0
ARC
  5
385
330
1F
100
AcDbEntity
  8
0-7_金物
  6
Continuous
 62
     7
370
     9
100
AcDbCircle
 10
-2102.957464655659
 20
-601.7200013036834
 30
0.0
 40
11.99999999999909
100
AcDbArc
 50
211.739273711589
 51
220.9258727638443
  0
ARC
  5
386
330
1F
100
AcDbEntity
  8
0-7_金物
  6
Continuous
 62
     7
370
     9
100
AcDbCircle
 10
-2122.757470602515
 20
-590.0326627905222
 30
0.0
 40
1.200000000000017
100
AcDbArc
 50
269.9999999999739
 51
89.99999999997551
  0
ARC
  5
387
330
1F
100
AcDbEntity
  8
0-7_金物
  6
Continuous
 62
     7
370
     9
100
AcDbCircle
 10
-1935.556352673374
 20
-588.8326627905233
 30
0.0
 40
3.59999999999971
100
AcDbArc
 50
0.0000000000000064
 51
180.0
  0
ARC
  5
388
330
1F
100
AcDbEntity
  8
0-7_金物
  6
Continuous
 62
     7
370
     9
100
AcDbCircle
 10
-1939.156352673373
 20
-590.0326627905222
 30
0.0
 40
1.200000000000017
100
AcDbArc
 50
90.00000000002441
 51
270.0000000000277
  0
ARC
  5
389
330
1F
100
AcDbEntity
  8
0-7_金物
  6
Continuous
 62
     7
370
     9
100
AcDbCircle
 10
-1958.956358620229
 20
-601.7200013036834
 30
0.0
 40
11.99999999999904
100
AcDbArc
 50
319.0741272361557
 51
328.2607262884101
  0
LINE
  5
38A
330
1F
100
AcDbEntity
  8
0-7_金物
  6
Continuous
 62
     7
370
     9
100
AcDbLine
 10
-2129.957470602513
 20
-605.0327029191274
 30
0.0
 11
-2129.957470602513
 21
-588.8326627905233
 31
0.0
  0
LINE
  5
38B
330
1F
100
AcDbEntity
  8
0-7_金物
  6
Continuous
 62
     7
370
     9
100
AcDbLine
 10
-2126.957460823498
 20
-608.032702919111
 30
0.0
 11
-2113.162873320883
 21
-608.0326579532837
 31
0.0
  0
ARC
  5
38C
330
1F
100
AcDbEntity
  8
0-7_金物
  6
Continuous
 62
     7
370
     9
100
AcDbCircle
 10
-2126.957470602512
 20
-605.0327029191274
 30
0.0
 40
3.000000000000129
100
AcDbArc
 50
180.0
 51
270.0001867654294
  0
LINE
  5
38D
330
1F
100
AcDbEntity
  8
0-7_金物
  6
Continuous
 62
     7
370
     9
100
AcDbLine
 10
-1931.956352673373
 20
-606.2327029191084
 30
0.0
 11
-1931.956352673373
 21
-588.8326627905233
 31
0.0
  0
LINE
  5
38E
330
1F
100
AcDbEntity
  8
0-7_金物
  6
Continuous
 62
     7
370
     9
100
AcDbLine
 10
-1934.95636245239
 20
-608.032702919111
 30
0.0
 11
-1948.750949955005
 21
-608.0326579532837
 31
0.0
  0
ARC
  5
38F
330
1F
100
AcDbEntity
  8
0-7_金物
  6
Continuous
 62
     7
370
     9
100
AcDbCircle
 10
-1934.956352673374
 20
-605.0327029191274
 30
0.0
 40
3.000000000000171
100
AcDbArc
 50
269.9998132345673
 51
0.0
  0
LINE
  5
390
330
1F
100
AcDbEntity
  8
0-7_金物
  6
Continuous
 62
     7
370
     9
100
AcDbLine
 10
-2122.757470602513
 20
-597.8326627905227
 30
0.0
 11
-2122.757470602513
 21
-591.2326627905219
 31
0.0
  0
ARC
  5
391
330
1F
100
AcDbEntity
  8
0-7_金物
  6
Continuous
 62
     7
370
     9
100
AcDbCircle
 10
-2119.757470602514
 20
-597.8326627905227
 30
0.0
 40
2.999999999999745
100
AcDbArc
 50
180.0
 51
270.0000000000049
  0
LINE
  5
392
330
1F
100
AcDbEntity
  8
0-7_金物
  6
Continuous
 62
     7
370
     9
100
AcDbLine
 10
-2114.957470602513
 20
-597.8326627905227
 30
0.0
 11
-2114.957470602513
 21
-485.0319960256439
 31
0.0
  0
LINE
  5
393
330
1F
100
AcDbEntity
  8
0-7_金物
  6
Continuous
 62
     7
370
     9
100
AcDbLine
 10
-2117.957470602513
 20
-600.8326627905242
 30
0.0
 11
-2119.757470602514
 21
-600.8326627905242
 31
0.0
  0
ARC
  5
394
330
1F
100
AcDbEntity
  8
0-7_金物
  6
Continuous
 62
     7
370
     9
100
AcDbCircle
 10
-2117.957470602513
 20
-597.8326627905227
 30
0.0
 40
3.000000000000129
100
AcDbArc
 50
270.0000000000065
 51
0.0
  0
LINE
  5
395
330
1F
100
AcDbEntity
  8
0-7_金物
  6
Continuous
 62
     7
370
     9
100
AcDbLine
 10
-1946.956352673373
 20
-597.8326627905227
 30
0.0
 11
-1946.956352673373
 21
-485.0319960256439
 31
0.0
  0
ARC
  5
396
330
1F
100
AcDbEntity
  8
0-7_金物
  6
Continuous
 62
     7
370
     9
100
AcDbCircle
 10
-1943.956352673374
 20
-597.8326627905227
 30
0.0
 40
3.0
100
AcDbArc
 50
180.0
 51
269.9999999999985
  0
LINE
  5
397
330
1F
100
AcDbEntity
  8
0-7_金物
  6
Continuous
 62
     7
370
     9
100
AcDbLine
 10
-1943.956352673374
 20
-600.8326627905242
 30
0.0
 11
-1942.156352673374
 21
-600.8326627905242
 31
0.0
  0
LINE
  5
398
330
1F
100
AcDbEntity
  8
0-7_金物
  6
Continuous
 62
     7
370
     9
100
AcDbLine
 10
-1939.156352673375
 20
-597.8326627905227
 30
0.0
 11
-1939.156352673375
 21
-591.2326627905219
 31
0.0
  0
ARC
  5
399
330
1F
100
AcDbEntity
  8
0-7_金物
  6
Continuous
 62
     7
370
     9
100
AcDbCircle
 10
-1942.156352673374
 20
-597.8326627905227
 30
0.0
 40
3.0
100
AcDbArc
 50
270.0
 51
0.0
  0
ARC
  5
39A
330
1F
100
AcDbEntity
  8
0-7_金物
  6
Continuous
 62
     7
370
     9
100
AcDbCircle
 10
-1943.956352673374
 20
-597.2326627905225
 30
0.0
 40
3.000000000000171
100
AcDbArc
 50
180.0
 51
0.0
  0
ARC
  5
39B
330
1F
100
AcDbEntity
  8
0-7_金物
  6
Continuous
 62
     7
370
     9
100
AcDbCircle
 10
-1940.956352673375
 20
-596.0326627905235
 30
0.0
 40
1.200000000000017
100
AcDbArc
 50
270.0
 51
89.99999999999677
  0
ARC
  5
39C
330
1F
100
AcDbEntity
  8
0-7_金物
  6
Continuous
 62
     7
370
     9
100
AcDbCircle
 10
-1943.956352673374
 20
-582.2326627905225
 30
0.0
 40
3.0
100
AcDbArc
 50
90.0
 51
180.0
  0
LINE
  5
39D
330
1F
100
AcDbEntity
  8
0-7_金物
  6
Continuous
 62
     7
370
     9
100
AcDbLine
 10
-1940.956352673374
 20
-588.2326627905238
 30
0.0
 11
-1940.956352673374
 21
-594.8326627905246
 31
0.0
  0
ARC
  5
39E
330
1F
100
AcDbEntity
  8
0-7_金物
  6
Continuous
 62
     7
370
     9
100
AcDbCircle
 10
-1937.956352673374
 20
-588.2326627905238
 30
0.0
 40
3.0
100
AcDbArc
 50
90.0
 51
180.0
  0
LINE
  5
39F
330
1F
100
AcDbEntity
  8
0-7_金物
  6
Continuous
 62
     7
370
     9
100
AcDbLine
 10
-1922.356352673374
 20
-585.2326627905231
 30
0.0
 11
-1937.956352673374
 21
-585.2326627905231
 31
0.0
  0
ARC
  5
3A0
330
1F
100
AcDbEntity
  8
0-7_金物
  6
Continuous
 62
     7
370
     9
100
AcDbCircle
 10
-1922.356352673374
 20
-588.2326627905238
 30
0.0
 40
3.000000000000171
100
AcDbArc
 50
0.0000000000000127
 51
90.00000000000001
  0
LINE
  5
3A1
330
1F
100
AcDbEntity
  8
0-7_金物
  6
Continuous
 62
     7
370
     9
100
AcDbLine
 10
-1916.356352673374
 20
-579.2326627905234
 30
0.0
 11
-1943.956352673374
 21
-579.2326627905234
 31
0.0
  0
ARC
  5
3A2
330
1F
100
AcDbEntity
  8
0-7_金物
  6
Continuous
 62
     7
370
     9
100
AcDbCircle
 10
-1916.356352673374
 20
-582.2326627905225
 30
0.0
 40
3.0
100
AcDbArc
 50
0.0000000000000127
 51
90.00000000000001
  0
ARC
  5
3A3
330
1F
100
AcDbEntity
  8
0-7_金物
  6
Continuous
 62
     7
370
     9
100
AcDbCircle
 10
-1928.956352673374
 20
-602.0327029191114
 30
0.0
 40
2.999999999999829
100
AcDbArc
 50
0.0000000000000064
 51
180.0
  0
ARC
  5
3A4
330
1F
100
AcDbEntity
  8
0-7_金物
  6
Continuous
 62
     7
370
     9
100
AcDbCircle
 10
-1930.156352673374
 20
-606.2327029191084
 30
0.0
 40
1.800000000000153
100
AcDbArc
 50
180.0
 51
270.0000000000033
  0
LINE
  5
3A5
330
1F
100
AcDbEntity
  8
0-7_金物
  6
Continuous
 62
     7
370
     9
100
AcDbLine
 10
-1919.356352673374
 20
-600.2327029191097
 30
0.0
 11
-1919.356352673374
 21
-588.2326627905238
 31
0.0
  0
LINE
  5
3A6
330
1F
100
AcDbEntity
  8
0-7_金物
  6
Continuous
 62
     7
370
     9
100
AcDbLine
 10
-1921.156352673375
 20
-602.0327029191114
 30
0.0
 11
-1925.956352673375
 21
-602.0327029191114
 31
0.0
  0
ARC
  5
3A7
330
1F
100
AcDbEntity
  8
0-7_金物
  6
Continuous
 62
     7
370
     9
100
AcDbCircle
 10
-1921.156352673375
 20
-600.2327029191097
 30
0.0
 40
1.800000000000069
100
AcDbArc
 50
270.0000000000081
 51
0.0000000000000127
  0
LINE
  5
3A8
330
1F
100
AcDbEntity
  8
0-7_金物
  6
Continuous
 62
     7
370
     9
100
AcDbLine
 10
-1921.156352673375
 20
-608.0327029191094
 30
0.0
 11
-1930.156352673374
 21
-608.0327029191094
 31
0.0
  0
LINE
  5
3A9
330
1F
100
AcDbEntity
  8
0-7_金物
  6
Continuous
 62
     7
370
     9
100
AcDbLine
 10
-1919.356352673374
 20
-690.2326627905231
 30
0.0
 11
-1919.356352673374
 21
-609.8327029191094
 31
0.0
  0
ARC
  5
3AA
330
1F
100
AcDbEntity
  8
0-7_金物
  6
Continuous
 62
     7
370
     9
100
AcDbCircle
 10
-1921.156352673375
 20
-609.8327029191094
 30
0.0
 40
1.799999999999898
100
AcDbArc
 50
0.0000000000000127
 51
90.00000000000001
  0
LINE
  5
3AB
330
1F
100
AcDbEntity
  8
0-7_金物
  6
Continuous
 62
     7
370
     9
100
AcDbLine
 10
-2032.756923615758
 20
-491.0320359516828
 30
0.0
 11
-2030.956911637944
 21
-489.2320239738712
 31
0.0
  0
LINE
  5
3AC
330
1F
100
AcDbEntity
  8
0-7_金物
  6
Continuous
 62
     7
370
     9
100
AcDbLine
 10
-2030.956911637945
 20
-489.2320239738712
 30
0.0
 11
-2029.156899660132
 21
-491.0320359516828
 31
0.0
  0
LINE
  5
3AD
330
1F
100
AcDbEntity
  8
0-6_扉
  6
Continuous
 62
   200
370
    20
100
AcDbLine
 10
-1940.956911637942
 20
-1844.031976347203
 30
0.0
 11
-1940.956911637942
 21
-2978.032576347204
 31
0.0
  0
LINE
  5
3AE
330
1F
100
AcDbEntity
  8
0-0_補助線
  6
JWW_HOJO
 62
   120
370
     5
100
AcDbLine
 10
-1325.956911084585
 20
-1724.031976347204
 30
0.0
 11
-2507.956911084585
 21
-1724.031976347204
 31
0.0
  0
LINE
  5
3AF
330
1F
100
AcDbEntity
  8
0-0_補助線
  6
JWW_HOJO
 62
   120
370
     5
100
AcDbLine
 10
-1325.956911084585
 20
-1844.031976347204
 30
0.0
 11
-2507.956911084585
 21
-1844.031976347204
 31
0.0
  0
MTEXT
  5
3B0
330
1F
100
AcDbEntity
  8
0-A_文字
  6
Continuous
 62
     7
370
     9
100
AcDbMText
 10
-1265.956911084592
 20
-1858.311976347203
 30
0.0
 40
91.4400000000026
 41
480.0000000000136
 46
0.0
 71
     7
 72
     1
  1
{\fＭＳ ゴシック|b0|i0|c128|p49;洋室側・}
 73
     1
 44
1.0
  0
LINE
  5
3B1
330
1F
100
AcDbEntity
  8
0-A_文字
  6
Continuous
 62
     7
370
     9
100
AcDbLine
 10
-725.9569110845854
 20
-1664.031976347203
 30
0.0
 11
-725.9569110845854
 21
-1904.031976347204
 31
0.0
  0
LINE
  5
3B2
330
1F
100
AcDbEntity
  8
0-A_文字
  6
Continuous
 62
     7
370
     9
100
AcDbLine
 10
-1325.956911084585
 20
-1904.031976347204
 30
0.0
 11
-1325.956911084585
 21
-1664.031976347203
 31
0.0
  0
LINE
  5
3B3
330
1F
100
AcDbEntity
  8
0-A_文字
  6
Continuous
 62
     7
370
     9
100
AcDbLine
 10
-725.9569110845854
 20
-1904.031976347204
 30
0.0
 11
-1325.956911084585
 21
-1904.031976347204
 31
0.0
  0
LINE
  5
3B4
330
1F
100
AcDbEntity
  8
0-A_文字
  6
Continuous
 62
     7
370
     9
100
AcDbLine
 10
-1325.956911084585
 20
-1664.031976347203
 30
0.0
 11
-725.9569110845854
 21
-1664.031976347203
 31
0.0
  0
MTEXT
  5
3B5
330
1F
100
AcDbEntity
  8
0-A_文字
  6
Continuous
 62
     7
370
     9
100
AcDbMText
 10
-3047.956911084585
 20
-1858.311976347204
 30
0.0
 40
91.44
 41
480.0
 46
0.0
 71
     7
 72
     1
  1
{\fＭＳ ゴシック|b0|i0|c128|p49;和室側・}
 73
     1
 44
1.0
  0
LINE
  5
3B6
330
1F
100
AcDbEntity
  8
0-A_文字
  6
Continuous
 62
     7
370
     9
100
AcDbLine
 10
-2507.956911084585
 20
-1664.031976347203
 30
0.0
 11
-2507.956911084585
 21
-1904.031976347204
 31
0.0
  0
LINE
  5
3B7
330
1F
100
AcDbEntity
  8
0-A_文字
  6
Continuous
 62
     7
370
     9
100
AcDbLine
 10
-3107.956911084585
 20
-1904.031976347204
 30
0.0
 11
-3107.956911084585
 21
-1664.031976347203
 31
0.0
  0
LINE
  5
3B8
330
1F
100
AcDbEntity
  8
0-A_文字
  6
Continuous
 62
     7
370
     9
100
AcDbLine
 10
-2507.956911084585
 20
-1904.031976347204
 30
0.0
 11
-3107.956911084585
 21
-1904.031976347204
 31
0.0
  0
LINE
  5
3B9
330
1F
100
AcDbEntity
  8
0-A_文字
  6
Continuous
 62
     7
370
     9
100
AcDbLine
 10
-3107.956911084585
 20
-1664.031976347203
 30
0.0
 11
-2507.956911084585
 21
-1664.031976347203
 31
0.0
  0
LINE
  5
3BA
330
1F
100
AcDbEntity
  8
0-7_金物
  6
Continuous
 62
     7
370
     9
100
AcDbLine
 10
-2003.956911637946
 20
-3008.032576347204
 30
0.0
 11
-2007.214311637941
 21
-3008.032576347204
 31
0.0
  0
LINE
  5
3BB
330
1F
100
AcDbEntity
  8
0-7_金物
  6
Continuous
 62
     7
370
     9
100
AcDbLine
 10
-2003.956911637946
 20
-3014.032576347204
 30
0.0
 11
-2003.956911637946
 21
-3008.032576347204
 31
0.0
  0
LINE
  5
3BC
330
1F
100
AcDbEntity
  8
0-7_金物
  6
Continuous
 62
     7
370
     9
100
AcDbLine
 10
-2040.556911637943
 20
-3033.231976347202
 30
0.0
 11
-2040.556911637943
 21
-3018.232576347203
 31
0.0
  0
LINE
  5
3BD
330
1F
100
AcDbEntity
  8
0-7_金物
  6
Continuous
 62
     7
370
     9
100
AcDbLine
 10
-2021.356911637944
 20
-3033.231976347202
 30
0.0
 11
-2021.356911637944
 21
-3018.232576347203
 31
0.0
  0
LINE
  5
3BE
330
1F
100
AcDbEntity
  8
0-7_金物
  6
Continuous
 62
     7
370
     9
100
AcDbLine
 10
-2044.756911637943
 20
-3044.031976347203
 30
0.0
 11
-2017.156911637941
 21
-3044.031976347203
 31
0.0
  0
LINE
  5
3BF
330
1F
100
AcDbEntity
  8
0-7_金物
  6
Continuous
 62
     7
370
     9
100
AcDbLine
 10
-2030.956911637942
 20
-3036.831976347205
 30
0.0
 11
-2032.75691163794
 21
-3035.031976347203
 31
0.0
  0
LINE
  5
3C0
330
1F
100
AcDbEntity
  8
0-7_金物
  6
Continuous
 62
     7
370
     9
100
AcDbLine
 10
-2008.156911637942
 20
-3044.031976347203
 30
0.0
 11
-2005.241511637942
 21
-3036.674176347202
 31
0.0
  0
LINE
  5
3C1
330
1F
100
AcDbEntity
  8
0-7_金物
  6
Continuous
 62
     7
370
     9
100
AcDbLine
 10
-2014.756911637943
 20
-3044.031976347203
 30
0.0
 11
-2008.156911637942
 21
-3044.031976347203
 31
0.0
  0
LINE
  5
3C2
330
1F
100
AcDbEntity
  8
0-7_金物
  6
Continuous
 62
     7
370
     9
100
AcDbLine
 10
-2015.956911637942
 20
-3042.831976347204
 30
0.0
 11
-2017.156911637941
 21
-3044.031976347203
 31
0.0
  0
LINE
  5
3C3
330
1F
100
AcDbEntity
  8
0-7_金物
  6
Continuous
 62
     7
370
     9
100
AcDbLine
 10
-2014.756911637943
 20
-3044.031976347203
 30
0.0
 11
-2015.956911637942
 21
-3042.831976347204
 31
0.0
  0
LINE
  5
3C4
330
1F
100
AcDbEntity
  8
0-7_金物
  6
Continuous
 62
     7
370
     9
100
AcDbLine
 10
-2009.956911637944
 20
-3035.031976347203
 30
0.0
 11
-2009.956911637944
 21
-3027.448576347203
 31
0.0
  0
LINE
  5
3C5
330
1F
100
AcDbEntity
  8
0-7_金物
  6
Continuous
 62
     7
370
     9
100
AcDbLine
 10
-2009.956911637944
 20
-3035.031976347203
 30
0.0
 11
-2006.356911637944
 21
-3035.031976347203
 31
0.0
  0
LINE
  5
3C6
330
1F
100
AcDbEntity
  8
0-7_金物
  6
Continuous
 62
     7
370
     9
100
AcDbLine
 10
-2023.156911637942
 20
-3035.031976347203
 30
0.0
 11
-2029.156911637943
 21
-3035.031976347203
 31
0.0
  0
LINE
  5
3C7
330
1F
100
AcDbEntity
  8
0-7_金物
  6
Continuous
 62
     7
370
     9
100
AcDbLine
 10
-2029.156911637943
 20
-3035.031976347203
 30
0.0
 11
-2030.956911637942
 21
-3036.831976347205
 31
0.0
  0
LINE
  5
3C8
330
1F
100
AcDbEntity
  8
0-7_金物
  6
Continuous
 62
     7
370
     9
100
AcDbLine
 10
-2053.756911637941
 20
-3044.031976347203
 30
0.0
 11
-2056.672311637941
 21
-3036.674176347202
 31
0.0
  0
LINE
  5
3C9
330
1F
100
AcDbEntity
  8
0-7_金物
  6
Continuous
 62
     7
370
     9
100
AcDbLine
 10
-2045.956911637942
 20
-3042.831976347204
 30
0.0
 11
-2044.756911637943
 21
-3044.031976347203
 31
0.0
  0
LINE
  5
3CA
330
1F
100
AcDbEntity
  8
0-7_金物
  6
Continuous
 62
     7
370
     9
100
AcDbLine
 10
-2047.156911637941
 20
-3044.031976347203
 30
0.0
 11
-2053.756911637941
 21
-3044.031976347203
 31
0.0
  0
LINE
  5
3CB
330
1F
100
AcDbEntity
  8
0-7_金物
  6
Continuous
 62
     7
370
     9
100
AcDbLine
 10
-2047.156911637941
 20
-3044.031976347203
 30
0.0
 11
-2045.956911637942
 21
-3042.831976347204
 31
0.0
  0
LINE
  5
3CC
330
1F
100
AcDbEntity
  8
0-7_金物
  6
Continuous
 62
     7
370
     9
100
AcDbLine
 10
-2032.75691163794
 20
-3035.031976347203
 30
0.0
 11
-2038.756911637941
 21
-3035.031976347203
 31
0.0
  0
LINE
  5
3CD
330
1F
100
AcDbEntity
  8
0-7_金物
  6
Continuous
 62
     7
370
     9
100
AcDbLine
 10
-2051.956911637943
 20
-3035.031976347203
 30
0.0
 11
-2051.956911637943
 21
-3027.448576347203
 31
0.0
  0
LINE
  5
3CE
330
1F
100
AcDbEntity
  8
0-7_金物
  6
Continuous
 62
     7
370
     9
100
AcDbLine
 10
-2051.956911637943
 20
-3035.031976347203
 30
0.0
 11
-2055.556911637943
 21
-3035.031976347203
 31
0.0
  0
LINE
  5
3CF
330
1F
100
AcDbEntity
  8
0-7_金物
  6
Continuous
 62
     7
370
     9
100
AcDbLine
 10
-2016.929511637942
 20
-3016.505176347204
 30
0.0
 11
-2009.335911637946
 21
-3008.910976347202
 31
0.0
  0
LINE
  5
3D0
330
1F
100
AcDbEntity
  8
0-7_金物
  6
Continuous
 62
     7
370
     9
100
AcDbLine
 10
-2018.202711637943
 20
-3017.032576347202
 30
0.0
 11
-2020.156911637945
 21
-3017.032576347202
 31
0.0
  0
LINE
  5
3D1
330
1F
100
AcDbEntity
  8
0-7_金物
  6
Continuous
 62
     7
370
     9
100
AcDbLine
 10
-2044.983711637943
 20
-3016.505176347204
 30
0.0
 11
-2052.577911637944
 21
-3008.910976347202
 31
0.0
  0
LINE
  5
3D2
330
1F
100
AcDbEntity
  8
0-7_金物
  6
Continuous
 62
     7
370
     9
100
AcDbLine
 10
-2043.711111637943
 20
-3017.032576347202
 30
0.0
 11
-2041.756911637945
 21
-3017.032576347202
 31
0.0
  0
LINE
  5
3D3
330
1F
100
AcDbEntity
  8
0-7_金物
  6
Continuous
 62
     7
370
     9
100
AcDbLine
 10
-2057.956911637944
 20
-3014.032576347204
 30
0.0
 11
-2057.956911637944
 21
-3008.032576347204
 31
0.0
  0
LINE
  5
3D4
330
1F
100
AcDbEntity
  8
0-7_金物
  6
Continuous
 62
     7
370
     9
100
AcDbLine
 10
-2057.956911637944
 20
-3008.032576347204
 30
0.0
 11
-2054.699511637942
 21
-3008.032576347204
 31
0.0
  0
ARC
  5
3D5
330
1F
100
AcDbEntity
  8
0-7_金物
  6
Continuous
 62
     7
370
     9
100
AcDbCircle
 10
-1991.956911637943
 20
-3027.448576347203
 30
0.0
 40
18.00000000000051
100
AcDbArc
 50
131.81
 51
180.0
  0
ARC
  5
3D6
330
1F
100
AcDbEntity
  8
0-7_金物
  6
Continuous
 62
     7
370
     9
100
AcDbCircle
 10
-2069.956311637942
 20
-3027.448576347203
 30
0.0
 40
18.00000000000051
100
AcDbArc
 50
0.0
 51
48.18999999999998
  0
ARC
  5
3D7
330
1F
100
AcDbEntity
  8
0-7_金物
  6
Continuous
 62
     7
370
     9
100
AcDbCircle
 10
-2006.356911637944
 20
-3036.231976347204
 30
0.0
 40
1.200000000000034
100
AcDbArc
 50
338.384
 51
89.99999999999997
  0
ARC
  5
3D8
330
1F
100
AcDbEntity
  8
0-7_金物
  6
Continuous
 62
     7
370
     9
100
AcDbCircle
 10
-2023.156911637942
 20
-3033.231976347202
 30
0.0
 40
1.800000000000052
100
AcDbArc
 50
269.9999999999999
 51
359.9999999999999
  0
ARC
  5
3D9
330
1F
100
AcDbEntity
  8
0-7_金物
  6
Continuous
 62
     7
370
     9
100
AcDbCircle
 10
-2038.756911637941
 20
-3033.231976347202
 30
0.0
 40
1.800000000000052
100
AcDbArc
 50
179.9999999999999
 51
269.9999999999999
  0
ARC
  5
3DA
330
1F
100
AcDbEntity
  8
0-7_金物
  6
Continuous
 62
     7
370
     9
100
AcDbCircle
 10
-2055.556911637943
 20
-3036.231976347204
 30
0.0
 40
1.200000000000034
100
AcDbArc
 50
89.99999999999987
 51
201.6159999999999
  0
ARC
  5
3DB
330
1F
100
AcDbEntity
  8
0-7_金物
  6
Continuous
 62
     7
370
     9
100
AcDbCircle
 10
-2018.202711637943
 20
-3015.232576347204
 30
0.0
 40
1.800000000000052
100
AcDbArc
 50
270.0
 51
315.0
  0
ARC
  5
3DC
330
1F
100
AcDbEntity
  8
0-7_金物
  6
Continuous
 62
     7
370
     9
100
AcDbCircle
 10
-2007.214311637941
 20
-3011.032576347202
 30
0.0
 40
3.000000000000086
100
AcDbArc
 50
89.99999999999996
 51
135.0
  0
ARC
  5
3DD
330
1F
100
AcDbEntity
  8
0-7_金物
  6
Continuous
 62
     7
370
     9
100
AcDbCircle
 10
-2020.156911637945
 20
-3018.232576347203
 30
0.0
 40
1.200000000000034
100
AcDbArc
 50
89.99999999999997
 51
180.0
  0
ARC
  5
3DE
330
1F
100
AcDbEntity
  8
0-7_金物
  6
Continuous
 62
     7
370
     9
100
AcDbCircle
 10
-2041.756911637945
 20
-3018.232576347203
 30
0.0
 40
1.200000000000034
100
AcDbArc
 50
359.9999999999999
 51
89.99999999999997
  0
ARC
  5
3DF
330
1F
100
AcDbEntity
  8
0-7_金物
  6
Continuous
 62
     7
370
     9
100
AcDbCircle
 10
-2043.711111637943
 20
-3015.232576347204
 30
0.0
 40
1.800000000000052
100
AcDbArc
 50
224.9999999999999
 51
269.9999999999999
  0
ARC
  5
3E0
330
1F
100
AcDbEntity
  8
0-7_金物
  6
Continuous
 62
     7
370
     9
100
AcDbCircle
 10
-2054.699511637942
 20
-3011.032576347202
 30
0.0
 40
3.000000000000086
100
AcDbArc
 50
44.99999999999995
 51
89.99999999999996
  0
LINE
  5
3E1
330
1F
100
AcDbEntity
  8
0-7_金物
  6
Continuous
 62
     7
370
     9
100
AcDbLine
 10
-1982.956911637944
 20
-2978.032576347204
 30
0.0
 11
-1982.956911637944
 21
-2738.032576347204
 31
0.0
  0
LINE
  5
3E2
330
1F
100
AcDbEntity
  8
0-7_金物
  6
Continuous
 62
     7
370
     9
100
AcDbLine
 10
-2078.956911637946
 20
-2978.032576347204
 30
0.0
 11
-1982.956911637944
 21
-2978.032576347204
 31
0.0
  0
LINE
  5
3E3
330
1F
100
AcDbEntity
  8
0-7_金物
  6
Continuous
 62
     7
370
     9
100
AcDbLine
 10
-2078.956911637946
 20
-2738.032576347204
 30
0.0
 11
-2078.956911637946
 21
-2978.032576347204
 31
0.0
  0
ARC
  5
3E4
330
1F
100
AcDbEntity
  8
0-7_金物
  6
Continuous
 62
     7
370
     9
100
AcDbCircle
 10
-2030.956911637942
 20
-2738.032576347204
 30
0.0
 40
47.99999999999999
100
AcDbArc
 50
0.0000000000000064
 51
180.0
  0
ARC
  5
3E5
330
1F
100
AcDbEntity
  8
0-7_金物
  6
Continuous
 62
     7
370
     9
100
AcDbCircle
 10
-2030.956911637942
 20
-2732.032576347204
 30
0.0
 40
24.9
100
AcDbArc
 50
91.36450306982846
 51
208.6354969301637
  0
ARC
  5
3E6
330
1F
100
AcDbEntity
  8
0-7_金物
  6
Continuous
 62
     7
370
     9
100
AcDbCircle
 10
-2030.956911637942
 20
-2732.032576347204
 30
0.0
 40
24.9
100
AcDbArc
 50
211.3645030698352
 51
328.6354969301648
  0
ARC
  5
3E7
330
1F
100
AcDbEntity
  8
0-7_金物
  6
Continuous
 62
     7
370
     9
100
AcDbCircle
 10
-2030.956911637942
 20
-2732.032576347204
 30
0.0
 40
24.9
100
AcDbArc
 50
331.3645030698363
 51
88.63549693017154
  0
CIRCLE
  5
3E8
330
1F
100
AcDbEntity
  8
0-7_金物
  6
Continuous
 62
     7
370
     9
100
AcDbCircle
 10
-2030.956911637942
 20
-2906.032576347204
 30
0.0
 40
21.00000000000001
  0
LINE
  5
3E9
330
1F
100
AcDbEntity
  8
0-7_金物
  6
Continuous
 62
     7
370
     9
100
AcDbLine
 10
-2031.549850859331
 20
-2707.139637125814
 30
0.0
 11
-2030.956911637942
 21
-2707.732576347203
 31
0.0
  0
LINE
  5
3EA
330
1F
100
AcDbEntity
  8
0-7_金物
  6
Continuous
 62
     7
370
     9
100
AcDbLine
 10
-2030.363972416552
 20
-2707.139637125814
 30
0.0
 11
-2030.956911637942
 21
-2707.732576347203
 31
0.0
  0
LINE
  5
3EB
330
1F
100
AcDbEntity
  8
0-7_金物
  6
Continuous
 62
     7
370
     9
100
AcDbLine
 10
-2052.218359767831
 20
-2744.992546386523
 30
0.0
 11
-2052.001328949906
 21
-2744.182576347202
 31
0.0
  0
LINE
  5
3EC
330
1F
100
AcDbEntity
  8
0-7_金物
  6
Continuous
 62
     7
370
     9
100
AcDbLine
 10
-2052.811298989221
 20
-2743.965545529275
 30
0.0
 11
-2052.001328949906
 21
-2744.182576347202
 31
0.0
  0
LINE
  5
3ED
330
1F
100
AcDbEntity
  8
0-7_金物
  6
Continuous
 62
     7
370
     9
100
AcDbLine
 10
-2009.102524286662
 20
-2743.965545529275
 30
0.0
 11
-2009.912494325984
 21
-2744.182576347202
 31
0.0
  0
LINE
  5
3EE
330
1F
100
AcDbEntity
  8
0-7_金物
  6
Continuous
 62
     7
370
     9
100
AcDbLine
 10
-2009.695463508052
 20
-2744.992546386524
 30
0.0
 11
-2009.912494325984
 21
-2744.182576347202
 31
0.0
  0
CIRCLE
  5
3EF
330
1F
100
AcDbEntity
  8
0-7_金物
  6
Continuous
 62
     7
370
     9
100
AcDbCircle
 10
-2030.956911637942
 20
-2804.032576347204
 30
0.0
 40
32.09999999999997
  0
LINE
  5
3F0
330
1F
100
AcDbEntity
  8
0-7_金物
  6
Continuous
 62
     7
370
     9
100
AcDbLine
 10
-2033.956911637946
 20
-2891.632576347204
 30
0.0
 11
-2033.956911637946
 21
-2895.232576347204
 31
0.0
  0
LINE
  5
3F1
330
1F
100
AcDbEntity
  8
0-7_金物
  6
Continuous
 62
     7
370
     9
100
AcDbLine
 10
-2033.956911637935
 20
-2920.432576347205
 30
0.0
 11
-2027.956911637951
 21
-2920.432576347205
 31
0.0
  0
LINE
  5
3F2
330
1F
100
AcDbEntity
  8
0-7_金物
  6
Continuous
 62
     7
370
     9
100
AcDbLine
 10
-2041.756911637945
 20
-2903.032576347204
 30
0.0
 11
-2045.356911637942
 21
-2903.032576347204
 31
0.0
  0
ARC
  5
3F3
330
1F
100
AcDbEntity
  8
0-7_金物
  6
Continuous
 62
     7
370
     9
100
AcDbCircle
 10
-2041.756911637945
 20
-2895.232576347204
 30
0.0
 40
7.800000000000001
100
AcDbArc
 50
270.0
 51
0.0
  0
LINE
  5
3F4
330
1F
100
AcDbEntity
  8
0-7_金物
  6
Continuous
 62
     7
370
     9
100
AcDbLine
 10
-2027.956911637944
 20
-2891.632576347204
 30
0.0
 11
-2033.956911637946
 21
-2891.632576347204
 31
0.0
  0
LINE
  5
3F5
330
1F
100
AcDbEntity
  8
0-7_金物
  6
Continuous
 62
     7
370
     9
100
AcDbLine
 10
-2045.356911637942
 20
-2903.032576347204
 30
0.0
 11
-2045.356911637942
 21
-2909.032576347218
 31
0.0
  0
LINE
  5
3F6
330
1F
100
AcDbEntity
  8
0-7_金物
  6
Continuous
 62
     7
370
     9
100
AcDbLine
 10
-2045.356911637935
 20
-2909.032576347218
 30
0.0
 11
-2041.756911637939
 21
-2909.032576347218
 31
0.0
  0
LINE
  5
3F7
330
1F
100
AcDbEntity
  8
0-7_金物
  6
Continuous
 62
     7
370
     9
100
AcDbLine
 10
-2033.956911637935
 20
-2916.832576347218
 30
0.0
 11
-2033.956911637935
 21
-2920.432576347215
 31
0.0
  0
ARC
  5
3F8
330
1F
100
AcDbEntity
  8
0-7_金物
  6
Continuous
 62
     7
370
     9
100
AcDbCircle
 10
-2041.756911637932
 20
-2916.832576347218
 30
0.0
 40
7.800000000000001
100
AcDbArc
 50
0.0000000000065265
 51
90.00000000000651
  0
LINE
  5
3F9
330
1F
100
AcDbEntity
  8
0-7_金物
  6
Continuous
 62
     7
370
     9
100
AcDbLine
 10
-2027.956911637944
 20
-2891.632576347204
 30
0.0
 11
-2027.956911637944
 21
-2895.232576347204
 31
0.0
  0
LINE
  5
3FA
330
1F
100
AcDbEntity
  8
0-7_金物
  6
Continuous
 62
     7
370
     9
100
AcDbLine
 10
-2020.156911637945
 20
-2903.032576347204
 30
0.0
 11
-2016.556911637941
 21
-2903.032576347204
 31
0.0
  0
ARC
  5
3FB
330
1F
100
AcDbEntity
  8
0-7_金物
  6
Continuous
 62
     7
370
     9
100
AcDbCircle
 10
-2020.156911637945
 20
-2895.232576347204
 30
0.0
 40
7.800000000000001
100
AcDbArc
 50
180.0
 51
270.0
  0
LINE
  5
3FC
330
1F
100
AcDbEntity
  8
0-7_金物
  6
Continuous
 62
     7
370
     9
100
AcDbLine
 10
-2016.556911637941
 20
-2903.032576347204
 30
0.0
 11
-2016.556911637941
 21
-2909.032576347218
 31
0.0
  0
LINE
  5
3FD
330
1F
100
AcDbEntity
  8
0-7_金物
  6
Continuous
 62
     7
370
     9
100
AcDbLine
 10
-2027.956911637951
 20
-2916.832576347218
 30
0.0
 11
-2027.956911637951
 21
-2920.432576347215
 31
0.0
  0
LINE
  5
3FE
330
1F
100
AcDbEntity
  8
0-7_金物
  6
Continuous
 62
     7
370
     9
100
AcDbLine
 10
-2016.556911637948
 20
-2909.032576347218
 30
0.0
 11
-2020.156911637951
 21
-2909.032576347218
 31
0.0
  0
ARC
  5
3FF
330
1F
100
AcDbEntity
  8
0-7_金物
  6
Continuous
 62
     7
370
     9
100
AcDbCircle
 10
-2020.156911637951
 20
-2916.832576347218
 30
0.0
 40
7.800000000000001
100
AcDbArc
 50
89.99999999999352
 51
179.9999999999935
  0
LINE
  5
400
330
1F
100
AcDbEntity
  8
0-7_金物
  6
Continuous
 62
     7
370
     9
100
AcDbLine
 10
-2009.956911637944
 20
-3004.559652599545
 30
0.0
 11
-2009.956911637944
 21
-2978.032576347204
 31
0.0
  0
LINE
  5
401
330
1F
100
AcDbEntity
  8
0-7_金物
  6
Continuous
 62
     7
370
     9
100
AcDbLine
 10
-2039.956911637944
 20
-2978.032576347204
 30
0.0
 11
-2039.956911637944
 21
-3023.759652599547
 31
0.0
  0
LINE
  5
402
330
1F
100
AcDbEntity
  8
0-7_金物
  6
Continuous
 62
     7
370
     9
100
AcDbLine
 10
-2021.956911637943
 20
-2978.032576347204
 30
0.0
 11
-2021.956911637943
 21
-3023.759652599547
 31
0.0
  0
LINE
  5
403
330
1F
100
AcDbEntity
  8
0-7_金物
  6
Continuous
 62
     7
370
     9
100
AcDbLine
 10
-2051.956911637943
 20
-3004.559652599545
 30
0.0
 11
-2051.956911637943
 21
-2978.032576347204
 31
0.0
  0
ARC
  5
404
330
1F
100
AcDbEntity
  8
0-7_金物
  6
Continuous
 62
     7
370
     9
100
AcDbCircle
 10
-2020.756911637944
 20
-3017.704992599547
 30
0.0
 40
1.2
100
AcDbArc
 50
95.21590900000078
 51
180.0
  0
ARC
  5
405
330
1F
100
AcDbEntity
  8
0-7_金物
  6
Continuous
 62
     7
370
     9
100
AcDbCircle
 10
-2023.756911637941
 20
-3023.759652599547
 30
0.0
 40
1.8
100
AcDbArc
 50
270.0
 51
0.0
  0
ARC
  5
406
330
1F
100
AcDbEntity
  8
0-7_金物
  6
Continuous
 62
     7
370
     9
100
AcDbCircle
 10
-2041.156911637946
 20
-3017.704992599547
 30
0.0
 40
1.2
100
AcDbArc
 50
0.0000000000000127
 51
84.7840909999992
  0
ARC
  5
407
330
1F
100
AcDbEntity
  8
0-7_金物
  6
Continuous
 62
     7
370
     9
100
AcDbCircle
 10
-2038.156911637942
 20
-3023.759652599547
 30
0.0
 40
1.8
100
AcDbArc
 50
180.0
 51
270.0
  0
ARC
  5
408
330
1F
100
AcDbEntity
  8
0-7_金物
  6
Continuous
 62
     7
370
     9
100
AcDbCircle
 10
-2021.956911637943
 20
-3004.559652599545
 30
0.0
 40
12.0
100
AcDbArc
 50
275.2159090000008
 51
0.0000000000000254
  0
ARC
  5
409
330
1F
100
AcDbEntity
  8
0-7_金物
  6
Continuous
 62
     7
370
     9
100
AcDbCircle
 10
-2039.956911637944
 20
-3004.559652599545
 30
0.0
 40
12.0
100
AcDbArc
 50
180.0
 51
264.7840909999994
  0
LINE
  5
40A
330
1F
100
AcDbEntity
  8
0-7_金物
  6
Continuous
 62
     7
370
     9
100
AcDbLine
 10
-2038.156911637942
 20
-3025.559652599546
 30
0.0
 11
-2023.756911637941
 21
-3025.559652599546
 31
0.0
  0
ARC
  5
40B
330
1F
100
AcDbEntity
  8
0-7_金物
  6
Continuous
 62
     7
370
     9
100
AcDbCircle
 10
-2044.156911637943
 20
-2817.232576347206
 30
0.0
 40
10.2
100
AcDbArc
 50
0.0000000000000127
 51
90.00000000000001
  0
ARC
  5
40C
330
1F
100
AcDbEntity
  8
0-7_金物
  6
Continuous
 62
     7
370
     9
100
AcDbCircle
 10
-2017.75691163794
 20
-2817.232576347206
 30
0.0
 40
10.2
100
AcDbArc
 50
90.0
 51
180.0
  0
ARC
  5
40D
330
1F
100
AcDbEntity
  8
0-7_金物
  6
Continuous
 62
     7
370
     9
100
AcDbCircle
 10
-2044.156911637943
 20
-2790.832576347203
 30
0.0
 40
10.2
100
AcDbArc
 50
270.0
 51
0.0
  0
LINE
  5
40E
330
1F
100
AcDbEntity
  8
0-7_金物
  6
Continuous
 62
     7
370
     9
100
AcDbLine
 10
-2049.856911637945
 20
-2801.032576347204
 30
0.0
 11
-2044.156911637943
 21
-2801.032576347204
 31
0.0
  0
LINE
  5
40F
330
1F
100
AcDbEntity
  8
0-7_金物
  6
Continuous
 62
     7
370
     9
100
AcDbLine
 10
-2049.856911637945
 20
-2807.032576347204
 30
0.0
 11
-2049.856911637945
 21
-2801.032576347204
 31
0.0
  0
LINE
  5
410
330
1F
100
AcDbEntity
  8
0-7_金物
  6
Continuous
 62
     7
370
     9
100
AcDbLine
 10
-2044.156911637943
 20
-2807.032576347204
 30
0.0
 11
-2049.856911637945
 21
-2807.032576347204
 31
0.0
  0
LINE
  5
411
330
1F
100
AcDbEntity
  8
0-7_金物
  6
Continuous
 62
     7
370
     9
100
AcDbLine
 10
-2033.956911637946
 20
-2790.832576347203
 30
0.0
 11
-2033.956911637946
 21
-2785.132576347206
 31
0.0
  0
LINE
  5
412
330
1F
100
AcDbEntity
  8
0-7_金物
  6
Continuous
 62
     7
370
     9
100
AcDbLine
 10
-2027.956911637944
 20
-2785.132576347206
 30
0.0
 11
-2027.956911637944
 21
-2790.832576347203
 31
0.0
  0
LINE
  5
413
330
1F
100
AcDbEntity
  8
0-7_金物
  6
Continuous
 62
     7
370
     9
100
AcDbLine
 10
-2033.956911637946
 20
-2785.132576347206
 30
0.0
 11
-2027.956911637944
 21
-2785.132576347206
 31
0.0
  0
LINE
  5
414
330
1F
100
AcDbEntity
  8
0-7_金物
  6
Continuous
 62
     7
370
     9
100
AcDbLine
 10
-2012.056911637945
 20
-2807.032576347204
 30
0.0
 11
-2017.75691163794
 21
-2807.032576347204
 31
0.0
  0
LINE
  5
415
330
1F
100
AcDbEntity
  8
0-7_金物
  6
Continuous
 62
     7
370
     9
100
AcDbLine
 10
-2017.75691163794
 20
-2801.032576347204
 30
0.0
 11
-2012.056911637945
 21
-2801.032576347204
 31
0.0
  0
ARC
  5
416
330
1F
100
AcDbEntity
  8
0-7_金物
  6
Continuous
 62
     7
370
     9
100
AcDbCircle
 10
-2017.75691163794
 20
-2790.832576347203
 30
0.0
 40
10.2
100
AcDbArc
 50
180.0
 51
270.0
  0
LINE
  5
417
330
1F
100
AcDbEntity
  8
0-7_金物
  6
Continuous
 62
     7
370
     9
100
AcDbLine
 10
-2012.056911637945
 20
-2801.032576347204
 30
0.0
 11
-2012.056911637945
 21
-2807.032576347204
 31
0.0
  0
LINE
  5
418
330
1F
100
AcDbEntity
  8
0-7_金物
  6
Continuous
 62
     7
370
     9
100
AcDbLine
 10
-2033.956911637946
 20
-2822.932576347205
 30
0.0
 11
-2033.956911637946
 21
-2817.232576347206
 31
0.0
  0
LINE
  5
419
330
1F
100
AcDbEntity
  8
0-7_金物
  6
Continuous
 62
     7
370
     9
100
AcDbLine
 10
-2027.956911637944
 20
-2817.232576347206
 30
0.0
 11
-2027.956911637944
 21
-2822.932576347205
 31
0.0
  0
LINE
  5
41A
330
1F
100
AcDbEntity
  8
0-7_金物
  6
Continuous
 62
     7
370
     9
100
AcDbLine
 10
-2027.956911637944
 20
-2822.932576347205
 30
0.0
 11
-2033.956911637946
 21
-2822.932576347205
 31
0.0
  0
LINE
  5
41B
330
1F
100
AcDbEntity
  8
0-7_金物
  6
Continuous
 62
     7
370
     9
100
AcDbLine
 10
-1991.356911637944
 20
-2985.232576347204
 30
0.0
 11
-2010.151382649025
 21
-2985.232576347204
 31
0.0
  0
LINE
  5
41C
330
1F
100
AcDbEntity
  8
0-7_金物
  6
Continuous
 62
     7
370
     9
100
AcDbLine
 10
-2051.762440626859
 20
-2985.232576347204
 30
0.0
 11
-2070.556911637943
 21
-2985.232576347204
 31
0.0
  0
LINE
  5
41D
330
1F
100
AcDbEntity
  8
0-7_金物
  6
Continuous
 62
     7
370
     9
100
AcDbLine
 10
-1991.356911637944
 20
-2978.032576347204
 30
0.0
 11
-1991.356911637944
 21
-2985.232576347204
 31
0.0
  0
LINE
  5
41E
330
1F
100
AcDbEntity
  8
0-7_金物
  6
Continuous
 62
     7
370
     9
100
AcDbLine
 10
-2070.556911637943
 20
-2978.032576347204
 30
0.0
 11
-2070.556911637943
 21
-2985.232576347204
 31
0.0
  0
LINE
  5
41F
330
1F
100
AcDbEntity
  8
0-6_扉
  6
Continuous
 62
   200
370
    20
100
AcDbLine
 10
-1940.956911637942
 20
-2978.032576347204
 30
0.0
 11
-2120.956911637942
 21
-2978.032576347204
 31
0.0
  0
LINE
  5
420
330
1F
100
AcDbEntity
  8
0-4_枠
  6
Continuous
 62
    92
370
    13
100
AcDbLine
 10
-2306.956911084582
 20
-3012.27461703432
 30
0.0
 11
-2306.956911084582
 21
-3098.032279615634
 31
0.0
  0
LINE
  5
421
330
1F
100
AcDbEntity
  8
0-4_枠
  6
Continuous
 62
    92
370
    13
100
AcDbLine
 10
-2303.956911084585
 20
-3098.032485609288
 30
0.0
 11
-2303.956911084585
 21
-3011.031690244907
 31
0.0
  0
LINE
  5
422
330
1F
100
AcDbEntity
  8
0-4_枠
  6
Continuous
 62
    92
370
    13
100
AcDbLine
 10
-2302.714270397463
 20
-3008.031976347203
 30
0.0
 11
-2306.956911084582
 21
-3012.27461703432
 31
0.0
  0
LINE
  5
423
330
1F
100
AcDbEntity
  8
0-4_枠
  6
Continuous
 62
    92
370
    13
100
AcDbLine
 10
-1526.956911084582
 20
-3098.032279615634
 30
0.0
 11
-2306.956911084582
 21
-3098.032279615634
 31
0.0
  0
LINE
  5
424
330
1F
100
AcDbEntity
  8
0-4_枠
  6
Continuous
 62
    92
370
    13
100
AcDbLine
 10
-1526.956911084582
 20
-3012.27461703432
 30
0.0
 11
-1531.1995517717
 21
-3008.031976347203
 31
0.0
  0
LINE
  5
425
330
1F
100
AcDbEntity
  8
0-4_枠
  6
Continuous
 62
    92
370
    13
100
AcDbLine
 10
-1529.956911084582
 20
-3098.032485609288
 30
0.0
 11
-1529.956911084582
 21
-3011.031690244907
 31
0.0
  0
LINE
  5
426
330
1F
100
AcDbEntity
  8
0-4_枠
  6
Continuous
 62
    92
370
    13
100
AcDbLine
 10
-1526.956911084582
 20
-3012.27461703432
 30
0.0
 11
-1526.956911084582
 21
-3098.032279615634
 31
0.0
  0
LINE
  5
427
330
1F
100
AcDbEntity
  8
ハッチ
  6
Continuous
 62
   120
370
     5
100
AcDbLine
 10
-2027.123903476024
 20
-3098.032279615638
 30
0.0
 11
-2114.124492846761
 21
-3011.031690244907
 31
0.0
  0
LINE
  5
428
330
1F
100
AcDbEntity
  8
ハッチ
  6
Continuous
 62
   120
370
     5
100
AcDbLine
 10
-1984.697496604831
 20
-3098.032279615635
 30
0.0
 11
-2038.697799873256
 21
-3044.031976347211
 31
0.0
  0
LINE
  5
429
330
1F
100
AcDbEntity
  8
ハッチ
  6
Continuous
 62
   120
370
     5
100
AcDbLine
 10
-1899.84468286249
 20
-3098.032279615632
 30
0.0
 11
-1986.845272233213
 21
-3011.031690244907
 31
0.0
  0
LINE
  5
42A
330
1F
100
AcDbEntity
  8
ハッチ
  6
Continuous
 62
   120
370
     5
100
AcDbLine
 10
-1857.418275991276
 20
-3098.032279615646
 30
0.0
 11
-1944.418865362009
 21
-3011.031690244911
 31
0.0
  0
LINE
  5
42B
330
1F
100
AcDbEntity
  8
ハッチ
  6
Continuous
 62
   120
370
     5
100
AcDbLine
 10
-1814.991869120078
 20
-3098.032279615642
 30
0.0
 11
-1901.99245849081
 21
-3011.031690244911
 31
0.0
  0
LINE
  5
42C
330
1F
100
AcDbEntity
  8
ハッチ
  6
Continuous
 62
   120
370
     5
100
AcDbLine
 10
-1645.286241635292
 20
-3098.032279615634
 30
0.0
 11
-1732.28683100602
 21
-3011.0316902449
 31
0.0
  0
LINE
  5
42D
330
1F
100
AcDbEntity
  8
ハッチ
  6
Continuous
 62
   120
370
     5
100
AcDbLine
 10
-1602.859834764106
 20
-3098.032279615634
 30
0.0
 11
-1689.860424134831
 21
-3011.0316902449
 31
0.0
  0
LINE
  5
42E
330
1F
100
AcDbEntity
  8
ハッチ
  6
Continuous
 62
   120
370
     5
100
AcDbLine
 10
-1560.433427892916
 20
-3098.032279615634
 30
0.0
 11
-1647.43401726364
 21
-3011.0316902449
 31
0.0
  0
LINE
  5
42F
330
1F
100
AcDbEntity
  8
ハッチ
  6
Continuous
 62
   120
370
     5
100
AcDbLine
 10
-2069.550310347224
 20
-3098.032279615646
 30
0.0
 11
-2156.550899717958
 21
-3011.031690244907
 31
0.0
  0
LINE
  5
430
330
1F
100
AcDbEntity
  8
ハッチ
  6
Continuous
 62
   120
370
     5
100
AcDbLine
 10
-2111.976717218421
 20
-3098.032279615646
 30
0.0
 11
-2198.977306589155
 21
-3011.031690244907
 31
0.0
  0
LINE
  5
431
330
1F
100
AcDbEntity
  8
ハッチ
  6
Continuous
 62
   120
370
     5
100
AcDbLine
 10
-2154.403124089617
 20
-3098.032279615646
 30
0.0
 11
-2241.403713460351
 21
-3011.031690244907
 31
0.0
  0
LINE
  5
432
330
1F
100
AcDbEntity
  8
ハッチ
  6
Continuous
 62
   120
370
     5
100
AcDbLine
 10
-2196.829530960814
 20
-3098.032279615646
 30
0.0
 11
-2283.83012033155
 21
-3011.031690244907
 31
0.0
  0
LINE
  5
433
330
1F
100
AcDbEntity
  8
ハッチ
  6
Continuous
 62
   120
370
     5
100
AcDbLine
 10
-2281.68234470321
 20
-3098.032279615646
 30
0.0
 11
-2303.956911084585
 21
-3075.757713234271
 31
0.0
  0
LINE
  5
434
330
1F
100
AcDbEntity
  8
ハッチ
  6
Continuous
 62
   120
370
     5
100
AcDbLine
 10
-2239.255937832013
 20
-3098.032279615646
 30
0.0
 11
-2303.956911084585
 21
-3033.331306363071
 31
0.0
  0
LINE
  5
435
330
1F
100
AcDbEntity
  8
ハッチ
  6
Continuous
 62
   120
370
     5
100
AcDbLine
 10
-1529.956911084582
 20
-3043.655982681583
 30
0.0
 11
-1562.58120352126
 21
-3011.0316902449
 31
0.0
  0
LINE
  5
436
330
1F
100
AcDbEntity
  8
ハッチ
  6
Continuous
 62
   120
370
     5
100
AcDbLine
 10
-1529.956911084582
 20
-3086.082389552775
 30
0.0
 11
-1605.007610392451
 21
-3011.0316902449
 31
0.0
  0
LINE
  5
437
330
1F
100
AcDbEntity
  8
ハッチ
  6
Continuous
 62
   120
370
     5
100
AcDbLine
 10
-1687.712648506483
 20
-3098.032279615634
 30
0.0
 11
-1774.713237877213
 21
-3011.031690244907
 31
0.0
  0
LINE
  5
438
330
1F
100
AcDbEntity
  8
ハッチ
  6
Continuous
 62
   120
370
     5
100
AcDbLine
 10
-1772.565462248878
 20
-3098.032279615641
 30
0.0
 11
-1859.566051619618
 21
-3011.031690244911
 31
0.0
  0
LINE
  5
439
330
1F
100
AcDbEntity
  8
ハッチ
  6
Continuous
 62
   120
370
     5
100
AcDbLine
 10
-1730.139055377685
 20
-3098.032279615638
 30
0.0
 11
-1817.139644748411
 21
-3011.031690244907
 31
0.0
  0
LINE
  5
43A
330
1F
100
AcDbEntity
  8
仕上げ
  6
Continuous
 62
    40
370
    15
100
AcDbLine
 10
-1526.956911084585
 20
-3098.031976615614
 30
0.0
 11
-1526.956911084585
 21
-3026.032182609267
 31
0.0
  0
MTEXT
  5
43B
330
1F
100
AcDbEntity
  8
0-A_文字
  6
Continuous
 62
     7
370
     0
100
AcDbMText
 10
-2691.4743047571
 20
-2986.422587619747
 30
0.0
 40
91.44
 41
240.0
 46
0.0
 71
     7
 72
     1
  1
{\fＭＳ ゴシック|b0|i0|c128|p49;畳寄}
 73
     1
 44
1.0
  0
LINE
  5
43C
330
1F
100
AcDbEntity
  8
0-A_文字
  6
Continuous
 62
     7
370
     9
100
AcDbLine
 10
-2461.034937590578
 20
-2912.142587619747
 30
0.0
 11
-2421.4743047571
 21
-2912.142587619747
 31
0.0
  0
LINE
  5
43D
330
1F
100
AcDbEntity
  8
0-A_文字
  6
Continuous
 62
     7
370
     9
100
AcDbLine
 10
-2361.696167078711
 20
-3054.472365843651
 30
0.0
 11
-2421.4743047571
 21
-2912.142587619747
 31
0.0
  0
LINE
  5
43E
330
1F
100
AcDbEntity
  8
仕上げ
  6
Continuous
 62
    40
370
    15
100
AcDbLine
 10
-2396.956911084589
 20
-3098.032279615634
 30
0.0
 11
-2396.956911084592
 21
-3026.032182609267
 31
0.0
  0
LINE
  5
43F
330
1F
100
AcDbEntity
  8
仕上げ
  6
Continuous
 62
    40
370
    15
100
AcDbLine
 10
-2306.956911084589
 20
-3098.032279615634
 30
0.0
 11
-2306.956911084589
 21
-3026.032182609267
 31
0.0
  0
LINE
  5
440
330
1F
100
AcDbEntity
  8
仕上げ
  6
Continuous
 62
    40
370
    15
100
AcDbLine
 10
-2306.956911084589
 20
-3026.032279615632
 30
0.0
 11
-2396.956911084589
 21
-3026.032279615632
 31
0.0
  0
LINE
  5
441
330
1F
100
AcDbEntity
  8
仕上げ
  6
Continuous
 62
    40
370
    15
100
AcDbLine
 10
-2396.956911084589
 20
-3098.032279615634
 30
0.0
 11
-2306.956911084589
 21
-3098.032279615634
 31
0.0
  0
LINE
  5
442
330
1F
100
AcDbEntity
  8
ハッチ
  6
Continuous
 62
   120
370
     5
100
AcDbLine
 10
-2325.662234885347
 20
-3098.032279615642
 30
0.0
 11
-2306.956911084585
 21
-3079.32695581488
 31
0.0
  0
LINE
  5
443
330
1F
100
AcDbEntity
  8
ハッチ
  6
Continuous
 62
   120
370
     5
100
AcDbLine
 10
-2385.059204504981
 20
-3098.032279615628
 30
0.0
 11
-2313.059204504988
 21
-3026.032279615636
 31
0.0
  0
LINE
  5
444
330
1F
100
AcDbEntity
  8
ハッチ
  6
Continuous
 62
   120
370
     5
100
AcDbLine
 10
-2396.956911084585
 20
-3050.533016575531
 30
0.0
 11
-2372.45617412468
 21
-3026.032279615625
 31
0.0
  0
LINE
  5
445
330
1F
100
AcDbEntity
  8
0-4_枠
  6
Continuous
 62
    92
370
    13
100
AcDbLine
 10
-1531.1995517717
 20
-3008.031976347203
 30
0.0
 11
-2004.556911084588
 21
-3008.031976347203
 31
0.0
  0
LINE
  5
446
330
1F
100
AcDbEntity
  8
0-4_枠
  6
Continuous
 62
    92
370
    13
100
AcDbLine
 10
-1529.956911084582
 20
-3011.031690244907
 30
0.0
 11
-2004.556911084588
 21
-3011.031690244907
 31
0.0
  0
LINE
  5
447
330
1F
100
AcDbEntity
  8
0-4_枠
  6
Continuous
 62
    92
370
    13
100
AcDbLine
 10
-2004.556911084588
 20
-3044.031976347203
 30
0.0
 11
-2004.556911084588
 21
-3008.031976347203
 31
0.0
  0
LINE
  5
448
330
1F
100
AcDbEntity
  8
0-4_枠
  6
Continuous
 62
    92
370
    13
100
AcDbLine
 10
-2303.956911084585
 20
-3011.031690244907
 30
0.0
 11
-2057.356911084589
 21
-3011.031690244907
 31
0.0
  0
LINE
  5
449
330
1F
100
AcDbEntity
  8
0-4_枠
  6
Continuous
 62
    92
370
    13
100
AcDbLine
 10
-2302.714270397463
 20
-3008.031976347203
 30
0.0
 11
-2057.356911084589
 21
-3008.031976347203
 31
0.0
  0
LINE
  5
44A
330
1F
100
AcDbEntity
  8
0-4_枠
  6
Continuous
 62
    92
370
    13
100
AcDbLine
 10
-2004.556911084588
 20
-3044.031976347203
 30
0.0
 11
-2057.356911084589
 21
-3044.031976347203
 31
0.0
  0
LINE
  5
44B
330
1F
100
AcDbEntity
  8
0-4_枠
  6
Continuous
 62
    92
370
    13
100
AcDbLine
 10
-2057.356911084589
 20
-3044.031976347203
 30
0.0
 11
-2057.356911084589
 21
-3008.031976347203
 31
0.0
  0
LINE
  5
44C
330
1F
100
AcDbEntity
  8
ハッチ
  6
Continuous
 62
   120
370
     5
100
AcDbLine
 10
-2057.356911084589
 20
-3025.372865135879
 30
0.0
 11
-2071.698085975558
 21
-3011.031690244908
 31
0.0
  0
LINE
  5
44D
330
1F
100
AcDbEntity
  8
ハッチ
  6
Continuous
 62
   120
370
     5
100
AcDbLine
 10
-1942.271089733634
 20
-3098.032279615632
 30
0.0
 11
-2004.556911084588
 21
-3035.746458264678
 31
0.0
  0
LINE
  5
44E
330
1F
100
AcDbEntity
  8
0-B_寸法
  6
Continuous
 62
   120
370
     5
100
AcDbLine
 10
-1526.956911084585
 20
-3338.031976347184
 30
0.0
 11
-2306.956911084585
 21
-3338.031976347184
 31
0.0
  0
LWPOLYLINE
  5
44F
330
1F
100
AcDbEntity
  8
0-B_寸法
  6
Continuous
 62
     7
370
     9
100
AcDbPolyline
 90
        4
 70
     1
 43
3.0
 10
-1525.456911084585
 20
-3338.031976347184
 42
0.4142135623731
 10
-1526.956911084585
 20
-3336.531976347185
 42
0.4142135623731
 10
-1528.456911084585
 20
-3338.031976347184
 42
0.4142135623731
 10
-1526.956911084585
 20
-3339.531976347184
 42
0.4142135623731
  0
LWPOLYLINE
  5
450
330
1F
100
AcDbEntity
  8
0-B_寸法
  6
Continuous
 62
     7
370
     9
100
AcDbPolyline
 90
        4
 70
     1
 43
3.0
 10
-2305.456911084585
 20
-3338.031976347184
 42
0.4142135623731
 10
-2306.956911084585
 20
-3336.531976347185
 42
0.4142135623731
 10
-2308.456911084585
 20
-3338.031976347184
 42
0.4142135623731
 10
-2306.956911084585
 20
-3339.531976347184
 42
0.4142135623731
  0
LINE
  5
451
330
1F
100
AcDbEntity
  8
0-B_寸法
  6
Continuous
 62
   120
370
     5
100
AcDbLine
 10
-1526.956911084585
 20
-3338.031976347184
 30
0.0
 11
-1526.956911084585
 21
-3158.031976347184
 31
0.0
  0
LINE
  5
452
330
1F
100
AcDbEntity
  8
0-B_寸法
  6
Continuous
 62
   120
370
     5
100
AcDbLine
 10
-2306.956911084585
 20
-3338.031976347184
 30
0.0
 11
-2306.956911084585
 21
-3158.031976347184
 31
0.0
  0
MTEXT
  5
453
330
1F
100
AcDbEntity
  8
0-B_寸法
  6
Continuous
 62
     7
370
   211
100
AcDbMText
 10
-2014.456911084585
 20
-3333.501976347184
 30
0.0
 40
99.06
 41
195.0
 46
0.0
 71
     7
 72
     1
  1
{\fＭＳ ゴシック|b0|i0|c128|p49;130}
 73
     1
 44
1.0
  0
LINE
  5
454
330
1F
100
AcDbEntity
  8
仕上げ
  6
Continuous
 62
     7
370
     9
100
AcDbLine
 10
-1526.956911084585
 20
-3089.032182609267
 30
0.0
 11
-875.956911084588
 21
-3089.032182609267
 31
0.0
  0
LINE
  5
455
330
1F
100
AcDbEntity
  8
仕上げ
  6
Continuous
 62
     7
370
     9
100
AcDbLine
 10
-1526.956911084585
 20
-3035.032182609269
 30
0.0
 11
-875.956911084588
 21
-3035.032182609269
 31
0.0
  0
LINE
  5
456
330
1F
100
AcDbEntity
  8
仕上げ
  6
Continuous
 62
     7
370
     9
100
AcDbLine
 10
-1526.956911084585
 20
-3044.032182609267
 30
0.0
 11
-875.956911084588
 21
-3044.032182609267
 31
0.0
  0
LINE
  5
457
330
1F
100
AcDbEntity
  8
仕上げ
  6
Continuous
 62
     7
370
     9
100
AcDbLine
 10
-1526.956911084585
 20
-3053.032182609266
 30
0.0
 11
-875.956911084588
 21
-3053.032182609266
 31
0.0
  0
LINE
  5
458
330
1F
100
AcDbEntity
  8
仕上げ
  6
Continuous
 62
     7
370
     9
100
AcDbLine
 10
-1526.956911084585
 20
-3062.032182609267
 30
0.0
 11
-875.956911084588
 21
-3062.032182609267
 31
0.0
  0
LINE
  5
459
330
1F
100
AcDbEntity
  8
仕上げ
  6
Continuous
 62
     7
370
     9
100
AcDbLine
 10
-1526.956911084585
 20
-3071.032182609267
 30
0.0
 11
-875.956911084588
 21
-3071.032182609267
 31
0.0
  0
LINE
  5
45A
330
1F
100
AcDbEntity
  8
仕上げ
  6
Continuous
 62
     7
370
     9
100
AcDbLine
 10
-1526.956911084585
 20
-3080.032182609269
 30
0.0
 11
-875.956911084588
 21
-3080.032182609269
 31
0.0
  0
LINE
  5
45B
330
1F
100
AcDbEntity
  8
仕上げ
  6
Continuous
 62
    40
370
    15
100
AcDbLine
 10
-1526.956911084585
 20
-3026.032182609267
 30
0.0
 11
-875.956911084588
 21
-3026.032182609267
 31
0.0
  0
LINE
  5
45C
330
1F
100
AcDbEntity
  8
仕上げ
  6
Continuous
 62
    40
370
    15
100
AcDbLine
 10
-1526.956911084585
 20
-3098.032182609268
 30
0.0
 11
-875.956911084588
 21
-3098.032182609268
 31
0.0
  0
LINE
  5
45D
330
1F
100
AcDbEntity
  8
0-A_文字
  6
Continuous
 62
     7
370
     9
100
AcDbLine
 10
-909.3440150850031
 20
-2973.150478414596
 30
0.0
 11
-939.3440150850031
 21
-3025.112002641663
 31
0.0
  0
LINE
  5
45E
330
1F
100
AcDbEntity
  8
0-A_文字
  6
Continuous
 62
     7
370
     9
100
AcDbLine
 10
-909.3440150850031
 20
-2973.150478414596
 30
0.0
 11
-969.3440150850023
 21
-2973.150478414596
 31
0.0
  0
LINE
  5
45F
330
1F
100
AcDbEntity
  8
0-A_文字
  6
Continuous
 62
     7
370
     9
100
AcDbLine
 10
-969.3440150850023
 20
-2973.150478414596
 30
0.0
 11
-939.3440150850049
 21
-3025.112002641663
 31
0.0
  0
LINE
  5
460
330
1F
100
AcDbEntity
  8
0-A_文字
  6
Continuous
 62
    92
370
    13
100
AcDbLine
 10
509.9185840832874
 20
-2297.18619098721
 30
0.0
 11
2909.918584083288
 21
-2297.18619098721
 31
0.0
  0
LINE
  5
461
330
1F
100
AcDbEntity
  8
0-A_文字
  6
Continuous
 62
    92
370
    13
100
AcDbLine
 10
2909.918584083288
 20
-398.0319763472085
 30
0.0
 11
2909.918584083288
 21
-3266.032182340861
 31
0.0
  0
LINE
  5
462
330
1F
100
AcDbEntity
  8
0-A_文字
  6
Continuous
 62
    92
370
    13
100
AcDbLine
 10
2909.918584083288
 20
-3266.032182340861
 30
0.0
 11
509.9185840832874
 21
-3266.032182340861
 31
0.0
  0
MTEXT
  5
463
330
1F
100
AcDbEntity
  8
0-A_文字
  6
Continuous
 62
     7
370
     0
100
AcDbMText
 10
1199.918584083287
 20
-2281.409862107002
 30
0.0
 40
91.4399999999999
 41
1079.999999999999
 46
0.0
 71
     7
 72
     1
  1
{\fＭＳ ゴシック|b0|i0|c128|p49;敷居詳細図 (S=1/2)}
 73
     1
 44
1.0
  0
LINE
  5
464
330
1F
100
AcDbEntity
  8
0-A_文字
  6
Continuous
 62
    92
370
    13
100
AcDbLine
 10
509.9185840832874
 20
-3266.032182340861
 30
0.0
 11
509.9185840832874
 21
-398.0319763472085
 31
0.0
  0
LWPOLYLINE
  5
465
330
1F
100
AcDbEntity
  8
1-B_寸法
  6
Continuous
 62
     7
370
     9
100
AcDbPolyline
 90
        4
 70
     1
 43
3.0
 10
820.0541114488581
 20
-2674.751659013046
 42
0.4142135623731
 10
818.5541114488581
 20
-2673.251659013046
 42
0.4142135623731
 10
817.0541114488581
 20
-2674.751659013046
 42
0.4142135623731
 10
818.5541114488581
 20
-2676.251659013046
 42
0.4142135623731
  0
LINE
  5
466
330
1F
100
AcDbEntity
  8
1-B_寸法
  6
Continuous
 62
   120
370
     5
100
AcDbLine
 10
818.5541114488581
 20
-2509.751659013046
 30
0.0
 11
818.5541114488581
 21
-2779.751659013046
 31
0.0
  0
LINE
  5
467
330
1F
100
AcDbEntity
  8
1-B_寸法
  6
Continuous
 62
   120
370
     5
100
AcDbLine
 10
2768.554111448858
 20
-2509.751659013046
 30
0.0
 11
2768.554111448858
 21
-2779.751659013046
 31
0.0
  0
LWPOLYLINE
  5
468
330
1F
100
AcDbEntity
  8
1-B_寸法
  6
Continuous
 62
     7
370
     9
100
AcDbPolyline
 90
        4
 70
     1
 43
3.0
 10
820.0541114488581
 20
-2509.751659013046
 42
0.4142135623731
 10
818.5541114488581
 20
-2508.251659013046
 42
0.4142135623731
 10
817.0541114488581
 20
-2509.751659013046
 42
0.4142135623731
 10
818.5541114488581
 20
-2511.251659013046
 42
0.4142135623731
  0
LWPOLYLINE
  5
469
330
1F
100
AcDbEntity
  8
1-B_寸法
  6
Continuous
 62
     7
370
     9
100
AcDbPolyline
 90
        4
 70
     1
 43
3.0
 10
2770.054111448858
 20
-2509.751659013046
 42
0.4142135623731
 10
2768.554111448858
 20
-2508.251659013046
 42
0.4142135623731
 10
2767.054111448858
 20
-2509.751659013046
 42
0.4142135623731
 10
2768.554111448858
 20
-2511.251659013046
 42
0.4142135623731
  0
LINE
  5
46A
330
1F
100
AcDbEntity
  8
1-B_寸法
  6
Continuous
 62
   120
370
     5
100
AcDbLine
 10
2768.554111448858
 20
-2509.751659013046
 30
0.0
 11
818.5541114488581
 21
-2509.751659013046
 31
0.0
  0
LINE
  5
46B
330
1F
100
AcDbEntity
  8
1-4_枠
  6
Continuous
 62
    92
370
    13
100
AcDbLine
 10
818.5541114488581
 20
-2835.358775043901
 30
0.0
 11
818.5541114488581
 21
-3049.752931497183
 31
0.0
  0
LINE
  5
46C
330
1F
100
AcDbEntity
  8
1-4_枠
  6
Continuous
 62
    92
370
    13
100
AcDbLine
 10
826.0541114488581
 20
-3049.753446481322
 30
0.0
 11
826.0541114488581
 21
-2832.251458070364
 31
0.0
  0
LINE
  5
46D
330
1F
100
AcDbEntity
  8
1-4_枠
  6
Continuous
 62
    92
370
    13
100
AcDbLine
 10
829.1607131666547
 20
-2824.752173326105
 30
0.0
 11
818.5541114488581
 21
-2835.358775043901
 31
0.0
  0
LINE
  5
46E
330
1F
100
AcDbEntity
  8
1-4_枠
  6
Continuous
 62
    92
370
    13
100
AcDbLine
 10
2768.554111448858
 20
-3049.752931497183
 30
0.0
 11
818.5541114488581
 21
-3049.752931497183
 31
0.0
  0
LINE
  5
46F
330
1F
100
AcDbEntity
  8
1-4_枠
  6
Continuous
 62
    92
370
    13
100
AcDbLine
 10
2768.554111448858
 20
-2835.358775043901
 30
0.0
 11
2757.947509731061
 21
-2824.752173326105
 31
0.0
  0
LINE
  5
470
330
1F
100
AcDbEntity
  8
1-4_枠
  6
Continuous
 62
    92
370
    13
100
AcDbLine
 10
2761.054111448856
 20
-3049.753446481322
 30
0.0
 11
2761.054111448856
 21
-2832.251458070364
 31
0.0
  0
LINE
  5
471
330
1F
100
AcDbEntity
  8
1-4_枠
  6
Continuous
 62
    92
370
    13
100
AcDbLine
 10
2768.554111448858
 20
-2835.358775043901
 30
0.0
 11
2768.554111448858
 21
-3049.752931497183
 31
0.0
  0
LINE
  5
472
330
1F
100
AcDbEntity
  8
1-B_寸法
  6
Continuous
 62
   120
370
     5
100
AcDbLine
 10
818.5541114488581
 20
-2674.751659013046
 30
0.0
 11
1508.554111448844
 21
-2674.751659013046
 31
0.0
  0
LINE
  5
473
330
1F
100
AcDbEntity
  8
1-4_枠
  6
Continuous
 62
    92
370
    13
100
AcDbLine
 10
1574.554111448846
 20
-2914.752173326108
 30
0.0
 11
1442.554111448843
 21
-2914.752173326108
 31
0.0
  0
LINE
  5
474
330
1F
100
AcDbEntity
  8
1-4_枠
  6
Continuous
 62
    92
370
    13
100
AcDbLine
 10
826.0541114488581
 20
-2832.251458070364
 30
0.0
 11
1442.554111448843
 21
-2832.251458070364
 31
0.0
  0
LINE
  5
475
330
1F
100
AcDbEntity
  8
1-4_枠
  6
Continuous
 62
    92
370
    13
100
AcDbLine
 10
829.1607131666547
 20
-2824.752173326105
 30
0.0
 11
1442.554111448843
 21
-2824.752173326105
 31
0.0
  0
LINE
  5
476
330
1F
100
AcDbEntity
  8
1-4_枠
  6
Continuous
 62
    92
370
    13
100
AcDbLine
 10
1442.554111448843
 20
-2914.752173326108
 30
0.0
 11
1442.554111448843
 21
-2824.752173326105
 31
0.0
  0
LINE
  5
477
330
1F
100
AcDbEntity
  8
1-4_枠
  6
Continuous
 62
    92
370
    13
100
AcDbLine
 10
1574.554111448846
 20
-2914.752173326108
 30
0.0
 11
1574.554111448846
 21
-2824.752173326105
 31
0.0
  0
LINE
  5
478
330
1F
100
AcDbEntity
  8
1-0_補助線
  6
JWW_HOJO
 62
   120
370
     5
100
AcDbLine
 10
1508.554111448844
 20
-2779.751659013046
 30
0.0
 11
1508.554111448844
 21
-3094.752932168258
 31
0.0
  0
MTEXT
  5
479
330
1F
100
AcDbEntity
  8
1-B_寸法
  6
Continuous
 62
     7
370
   211
100
AcDbMText
 10
1696.054111448858
 20
-2505.221659013046
 30
0.0
 40
99.06
 41
195.0
 46
0.0
 71
     7
 72
     1
  1
{\fＭＳ ゴシック|b0|i0|c128|p49;130}
 73
     1
 44
1.0
  0
MTEXT
  5
47A
330
1F
100
AcDbEntity
  8
1-B_寸法
  6
Continuous
 62
     7
370
   211
100
AcDbMText
 10
1107.304111448858
 20
-2671.174159013046
 30
0.0
 40
97.15499999999999
 41
127.5
 46
0.0
 71
     7
 72
     1
  1
{\fＭＳ ゴシック|b0|i0|c128|p49;46}
 73
     1
 44
1.0
  0
LINE
  5
47B
330
1F
100
AcDbEntity
  8
1-B_寸法
  6
Continuous
 62
   120
370
     5
100
AcDbLine
 10
2768.554111448858
 20
-2674.751659013046
 30
0.0
 11
1508.554111448844
 21
-2674.751659013046
 31
0.0
  0
LWPOLYLINE
  5
47C
330
1F
100
AcDbEntity
  8
1-B_寸法
  6
Continuous
 62
     7
370
     9
100
AcDbPolyline
 90
        4
 70
     1
 43
3.0
 10
2770.054111448858
 20
-2674.751659013046
 42
0.4142135623731
 10
2768.554111448858
 20
-2673.251659013046
 42
0.4142135623731
 10
2767.054111448858
 20
-2674.751659013046
 42
0.4142135623731
 10
2768.554111448858
 20
-2676.251659013046
 42
0.4142135623731
  0
LWPOLYLINE
  5
47D
330
1F
100
AcDbEntity
  8
1-B_寸法
  6
Continuous
 62
     7
370
     9
100
AcDbPolyline
 90
        4
 70
     1
 43
3.0
 10
1510.054111448844
 20
-2674.751659013046
 42
0.4142135623731
 10
1508.554111448844
 20
-2673.251659013046
 42
0.4142135623731
 10
1507.054111448844
 20
-2674.751659013046
 42
0.4142135623731
 10
1508.554111448844
 20
-2676.251659013046
 42
0.4142135623731
  0
LINE
  5
47E
330
1F
100
AcDbEntity
  8
1-B_寸法
  6
Continuous
 62
   120
370
     5
100
AcDbLine
 10
1508.554111448844
 20
-2674.751659013046
 30
0.0
 11
1508.554111448844
 21
-2779.751659013046
 31
0.0
  0
MTEXT
  5
47F
330
1F
100
AcDbEntity
  8
1-B_寸法
  6
Continuous
 62
     7
370
   211
100
AcDbMText
 10
2074.804111448851
 20
-2671.174159013046
 30
0.0
 40
97.15499999999999
 41
127.5
 46
0.0
 71
     7
 72
     1
  1
{\fＭＳ ゴシック|b0|i0|c128|p49;84}
 73
     1
 44
1.0
  0
LINE
  5
480
330
1F
100
AcDbEntity
  8
1-4_枠
  6
Continuous
 62
    92
370
    13
100
AcDbLine
 10
2757.947509731061
 20
-2824.752173326105
 30
0.0
 11
1574.554111448846
 21
-2824.752173326105
 31
0.0
  0
LINE
  5
481
330
1F
100
AcDbEntity
  8
1-4_枠
  6
Continuous
 62
    92
370
    13
100
AcDbLine
 10
2761.054111448856
 20
-2832.251458070364
 30
0.0
 11
1574.554111448846
 21
-2832.251458070364
 31
0.0
  0
LINE
  5
482
330
1F
100
AcDbEntity
  8
1-B_寸法
  6
Continuous
 62
   120
370
     5
100
AcDbLine
 10
670.913827336085
 20
-3049.752931497183
 30
0.0
 11
670.913827336085
 21
-2824.752173326105
 31
0.0
  0
LWPOLYLINE
  5
483
330
1F
100
AcDbEntity
  8
1-B_寸法
  6
Continuous
 62
     7
370
     9
100
AcDbPolyline
 90
        4
 70
     1
 43
3.0
 10
672.413827336085
 20
-3049.752931497183
 42
0.4142135623731
 10
670.913827336085
 20
-3048.252931497183
 42
0.4142135623731
 10
669.413827336085
 20
-3049.752931497183
 42
0.4142135623731
 10
670.913827336085
 20
-3051.252931497183
 42
0.4142135623731
  0
LWPOLYLINE
  5
484
330
1F
100
AcDbEntity
  8
1-B_寸法
  6
Continuous
 62
     7
370
     9
100
AcDbPolyline
 90
        4
 70
     1
 43
3.0
 10
672.413827336085
 20
-2824.752173326105
 42
0.4142135623731
 10
670.913827336085
 20
-2823.252173326105
 42
0.4142135623731
 10
669.413827336085
 20
-2824.752173326105
 42
0.4142135623731
 10
670.913827336085
 20
-2826.252173326104
 42
0.4142135623731
  0
LINE
  5
485
330
1F
100
AcDbEntity
  8
1-B_寸法
  6
Continuous
 62
   120
370
     5
100
AcDbLine
 10
670.913827336085
 20
-3049.752931497183
 30
0.0
 11
773.5541114488581
 21
-3049.752931497183
 31
0.0
  0
LINE
  5
486
330
1F
100
AcDbEntity
  8
1-B_寸法
  6
Continuous
 62
   120
370
     5
100
AcDbLine
 10
670.913827336085
 20
-2824.752173326105
 30
0.0
 11
773.5541114488581
 21
-2824.752173326105
 31
0.0
  0
MTEXT
  5
487
330
1F
100
AcDbEntity
  8
1-B_寸法
  6
Continuous
 62
     7
370
   211
100
AcDbMText
 10
655.913827336085
 20
-3012.425052411644
 30
0.0
 40
97.15499999999999
 41
127.5
 46
0.0
 71
     7
 72
     1
  1
{\fＭＳ ゴシック|b0|i0|c128|p49;15}
 11
6.123031769111886E-17
 21
1.0
 31
0.0
 73
     1
 44
1.0
  0
LINE
  5
488
330
1F
100
AcDbEntity
  8
1-7_金物
  6
Continuous
 62
     7
370
     9
100
AcDbLine
 10
1576.054110065452
 20
-2824.754431497187
 30
0.0
 11
1567.910610065456
 21
-2824.754431497187
 31
0.0
  0
LINE
  5
489
330
1F
100
AcDbEntity
  8
1-7_金物
  6
Continuous
 62
     7
370
     9
100
AcDbLine
 10
1576.054110065452
 20
-2839.754431497187
 30
0.0
 11
1576.054110065452
 21
-2824.754431497187
 31
0.0
  0
LINE
  5
48A
330
1F
100
AcDbEntity
  8
1-7_金物
  6
Continuous
 62
     7
370
     9
100
AcDbLine
 10
1484.554110065453
 20
-2887.752931497185
 30
0.0
 11
1484.554110065453
 21
-2850.254431497186
 31
0.0
  0
LINE
  5
48B
330
1F
100
AcDbEntity
  8
1-7_金物
  6
Continuous
 62
     7
370
     9
100
AcDbLine
 10
1532.554110065454
 20
-2887.752931497185
 30
0.0
 11
1532.554110065454
 21
-2850.254431497186
 31
0.0
  0
LINE
  5
48C
330
1F
100
AcDbEntity
  8
1-7_金物
  6
Continuous
 62
     7
370
     9
100
AcDbLine
 10
1474.054110065453
 20
-2914.752931497186
 30
0.0
 11
1543.054110065458
 21
-2914.752931497186
 31
0.0
  0
LINE
  5
48D
330
1F
100
AcDbEntity
  8
1-7_金物
  6
Continuous
 62
     7
370
     9
100
AcDbLine
 10
1508.554110065455
 20
-2896.75293149719
 30
0.0
 11
1504.054110065453
 21
-2892.252931497186
 31
0.0
  0
LINE
  5
48E
330
1F
100
AcDbEntity
  8
1-7_金物
  6
Continuous
 62
     7
370
     9
100
AcDbLine
 10
1565.554110065451
 20
-2914.752931497186
 30
0.0
 11
1572.842610065453
 21
-2896.358431497184
 31
0.0
  0
LINE
  5
48F
330
1F
100
AcDbEntity
  8
1-7_金物
  6
Continuous
 62
     7
370
     9
100
AcDbLine
 10
1549.054110065453
 20
-2914.752931497186
 30
0.0
 11
1565.554110065451
 21
-2914.752931497186
 31
0.0
  0
LINE
  5
490
330
1F
100
AcDbEntity
  8
1-7_金物
  6
Continuous
 62
     7
370
     9
100
AcDbLine
 10
1546.054110065455
 20
-2911.752931497189
 30
0.0
 11
1543.054110065458
 21
-2914.752931497186
 31
0.0
  0
LINE
  5
491
330
1F
100
AcDbEntity
  8
1-7_金物
  6
Continuous
 62
     7
370
     9
100
AcDbLine
 10
1549.054110065453
 20
-2914.752931497186
 30
0.0
 11
1546.054110065455
 21
-2911.752931497189
 31
0.0
  0
LINE
  5
492
330
1F
100
AcDbEntity
  8
1-7_金物
  6
Continuous
 62
     7
370
     9
100
AcDbLine
 10
1561.054110065452
 20
-2892.252931497186
 30
0.0
 11
1561.054110065452
 21
-2873.294431497187
 31
0.0
  0
LINE
  5
493
330
1F
100
AcDbEntity
  8
1-7_金物
  6
Continuous
 62
     7
370
     9
100
AcDbLine
 10
1561.054110065452
 20
-2892.252931497186
 30
0.0
 11
1570.054110065454
 21
-2892.252931497186
 31
0.0
  0
LINE
  5
494
330
1F
100
AcDbEntity
  8
1-7_金物
  6
Continuous
 62
     7
370
     9
100
AcDbLine
 10
1528.054110065451
 20
-2892.252931497186
 30
0.0
 11
1513.054110065455
 21
-2892.252931497186
 31
0.0
  0
LINE
  5
495
330
1F
100
AcDbEntity
  8
1-7_金物
  6
Continuous
 62
     7
370
     9
100
AcDbLine
 10
1513.054110065455
 20
-2892.252931497186
 30
0.0
 11
1508.554110065455
 21
-2896.75293149719
 31
0.0
  0
LINE
  5
496
330
1F
100
AcDbEntity
  8
1-7_金物
  6
Continuous
 62
     7
370
     9
100
AcDbLine
 10
1451.554110065453
 20
-2914.752931497186
 30
0.0
 11
1444.265610065457
 21
-2896.358431497184
 31
0.0
  0
LINE
  5
497
330
1F
100
AcDbEntity
  8
1-7_金物
  6
Continuous
 62
     7
370
     9
100
AcDbLine
 10
1471.054110065455
 20
-2911.752931497189
 30
0.0
 11
1474.054110065453
 21
-2914.752931497186
 31
0.0
  0
LINE
  5
498
330
1F
100
AcDbEntity
  8
1-7_金物
  6
Continuous
 62
     7
370
     9
100
AcDbLine
 10
1468.054110065458
 20
-2914.752931497186
 30
0.0
 11
1451.554110065453
 21
-2914.752931497186
 31
0.0
  0
LINE
  5
499
330
1F
100
AcDbEntity
  8
1-7_金物
  6
Continuous
 62
     7
370
     9
100
AcDbLine
 10
1468.054110065458
 20
-2914.752931497186
 30
0.0
 11
1471.054110065455
 21
-2911.752931497189
 31
0.0
  0
LINE
  5
49A
330
1F
100
AcDbEntity
  8
1-7_金物
  6
Continuous
 62
     7
370
     9
100
AcDbLine
 10
1504.054110065453
 20
-2892.252931497186
 30
0.0
 11
1489.054110065453
 21
-2892.252931497186
 31
0.0
  0
LINE
  5
49B
330
1F
100
AcDbEntity
  8
1-7_金物
  6
Continuous
 62
     7
370
     9
100
AcDbLine
 10
1456.054110065448
 20
-2892.252931497186
 30
0.0
 11
1456.054110065448
 21
-2873.294431497187
 31
0.0
  0
LINE
  5
49C
330
1F
100
AcDbEntity
  8
1-7_金物
  6
Continuous
 62
     7
370
     9
100
AcDbLine
 10
1456.054110065448
 20
-2892.252931497186
 30
0.0
 11
1447.054110065453
 21
-2892.252931497186
 31
0.0
  0
LINE
  5
49D
330
1F
100
AcDbEntity
  8
1-7_金物
  6
Continuous
 62
     7
370
     9
100
AcDbLine
 10
1543.622610065455
 20
-2845.935931497188
 30
0.0
 11
1562.606610065451
 21
-2826.950431497185
 31
0.0
  0
LINE
  5
49E
330
1F
100
AcDbEntity
  8
1-7_金物
  6
Continuous
 62
     7
370
     9
100
AcDbLine
 10
1540.439610065453
 20
-2847.254431497184
 30
0.0
 11
1535.554110065455
 21
-2847.254431497184
 31
0.0
  0
LINE
  5
49F
330
1F
100
AcDbEntity
  8
1-7_金物
  6
Continuous
 62
     7
370
     9
100
AcDbLine
 10
1473.487110065452
 20
-2845.935931497188
 30
0.0
 11
1454.501610065456
 21
-2826.950431497185
 31
0.0
  0
LINE
  5
4A0
330
1F
100
AcDbEntity
  8
1-7_金物
  6
Continuous
 62
     7
370
     9
100
AcDbLine
 10
1476.668610065454
 20
-2847.254431497184
 30
0.0
 11
1481.554110065453
 21
-2847.254431497184
 31
0.0
  0
LINE
  5
4A1
330
1F
100
AcDbEntity
  8
1-7_金物
  6
Continuous
 62
     7
370
     9
100
AcDbLine
 10
1441.054110065455
 20
-2839.754431497187
 30
0.0
 11
1441.054110065455
 21
-2824.754431497187
 31
0.0
  0
LINE
  5
4A2
330
1F
100
AcDbEntity
  8
1-7_金物
  6
Continuous
 62
     7
370
     9
100
AcDbLine
 10
1441.054110065455
 20
-2824.754431497187
 30
0.0
 11
1449.197610065454
 21
-2824.754431497187
 31
0.0
  0
ARC
  5
4A3
330
1F
100
AcDbEntity
  8
1-7_金物
  6
Continuous
 62
     7
370
     9
100
AcDbCircle
 10
1606.054110065448
 20
-2873.294431497187
 30
0.0
 40
45.00000000000128
100
AcDbArc
 50
131.81
 51
180.0
  0
ARC
  5
4A4
330
1F
100
AcDbEntity
  8
1-7_金物
  6
Continuous
 62
     7
370
     9
100
AcDbCircle
 10
1411.055610065451
 20
-2873.294431497187
 30
0.0
 40
45.00000000000128
100
AcDbArc
 50
359.9999999999999
 51
48.18999999999996
  0
ARC
  5
4A5
330
1F
100
AcDbEntity
  8
1-7_金物
  6
Continuous
 62
     7
370
     9
100
AcDbCircle
 10
1570.054110065454
 20
-2895.252931497187
 30
0.0
 40
3.000000000000086
100
AcDbArc
 50
338.384
 51
89.99999999999997
  0
ARC
  5
4A6
330
1F
100
AcDbEntity
  8
1-7_金物
  6
Continuous
 62
     7
370
     9
100
AcDbCircle
 10
1528.054110065451
 20
-2887.752931497185
 30
0.0
 40
4.500000000000129
100
AcDbArc
 50
269.9999999999999
 51
359.9999999999999
  0
ARC
  5
4A7
330
1F
100
AcDbEntity
  8
1-7_金物
  6
Continuous
 62
     7
370
     9
100
AcDbCircle
 10
1489.054110065453
 20
-2887.752931497185
 30
0.0
 40
4.500000000000129
100
AcDbArc
 50
179.9999999999999
 51
270.0
  0
ARC
  5
4A8
330
1F
100
AcDbEntity
  8
1-7_金物
  6
Continuous
 62
     7
370
     9
100
AcDbCircle
 10
1447.054110065453
 20
-2895.252931497187
 30
0.0
 40
3.000000000000086
100
AcDbArc
 50
89.99999999999989
 51
201.6159999999999
  0
ARC
  5
4A9
330
1F
100
AcDbEntity
  8
1-7_金物
  6
Continuous
 62
     7
370
     9
100
AcDbCircle
 10
1540.439610065453
 20
-2842.754431497188
 30
0.0
 40
4.500000000000129
100
AcDbArc
 50
269.9999999999999
 51
315.0
  0
ARC
  5
4AA
330
1F
100
AcDbEntity
  8
1-7_金物
  6
Continuous
 62
     7
370
     9
100
AcDbCircle
 10
1567.910610065456
 20
-2832.254431497186
 30
0.0
 40
7.500000000000215
100
AcDbArc
 50
89.99999999999997
 51
135.0
  0
ARC
  5
4AB
330
1F
100
AcDbEntity
  8
1-7_金物
  6
Continuous
 62
     7
370
     9
100
AcDbCircle
 10
1535.554110065455
 20
-2850.254431497186
 30
0.0
 40
3.000000000000086
100
AcDbArc
 50
89.99999999999999
 51
180.0
  0
ARC
  5
4AC
330
1F
100
AcDbEntity
  8
1-7_金物
  6
Continuous
 62
     7
370
     9
100
AcDbCircle
 10
1481.554110065453
 20
-2850.254431497186
 30
0.0
 40
3.000000000000086
100
AcDbArc
 50
359.9999999999999
 51
89.99999999999997
  0
ARC
  5
4AD
330
1F
100
AcDbEntity
  8
1-7_金物
  6
Continuous
 62
     7
370
     9
100
AcDbCircle
 10
1476.668610065454
 20
-2842.754431497188
 30
0.0
 40
4.500000000000129
100
AcDbArc
 50
224.9999999999999
 51
269.9999999999999
  0
ARC
  5
4AE
330
1F
100
AcDbEntity
  8
1-7_金物
  6
Continuous
 62
     7
370
     9
100
AcDbCircle
 10
1449.197610065454
 20
-2832.254431497186
 30
0.0
 40
7.500000000000215
100
AcDbArc
 50
44.99999999999995
 51
89.99999999999996
  0
LINE
  5
4AF
330
1F
100
AcDbEntity
  8
0-A_文字
  6
Continuous
 62
    92
370
    13
100
AcDbLine
 10
-5659.999495325863
 20
4000.00018145587
 30
0.0
 11
-5659.999495325863
 21
3730.00018145587
 31
0.0
  0
MTEXT
  5
4B0
330
1F
100
AcDbEntity
  8
0-A_文字
  6
Continuous
 62
     7
370
     0
100
AcDbMText
 10
1109.918584083288
 20
-562.3119763472084
 30
0.0
 40
91.43999999999998
 41
1200.0
 46
0.0
 71
     7
 72
     1
  1
{\fＭＳ ゴシック|b0|i0|c128|p49;フロアー貼り込み位置}
 73
     1
 44
1.0
  0
LINE
  5
4B1
330
1F
100
AcDbEntity
  8
0-A_文字
  6
Continuous
 62
    92
370
    13
100
AcDbLine
 10
2909.918584083288
 20
-398.0319763472085
 30
0.0
 11
509.9185840832874
 21
-398.0319763472085
 31
0.0
  0
LINE
  5
4B2
330
1F
100
AcDbEntity
  8
0-A_文字
  6
Continuous
 62
    92
370
    13
100
AcDbLine
 10
2711.91993512291
 20
-2117.186190987211
 30
0.0
 11
509.9185840832874
 21
-2117.186190987211
 31
0.0
  0
LINE
  5
4B3
330
1F
100
AcDbEntity
  8
0-A_文字
  6
Continuous
 62
    92
370
    13
100
AcDbLine
 10
2909.918584083288
 20
-2117.073533226795
 30
0.0
 11
509.9185840832874
 21
-2117.073533226795
 31
0.0
  0
LINE
  5
4B4
330
1F
100
AcDbEntity
  8
0-A_文字
  6
Continuous
 62
    92
370
    13
100
AcDbLine
 10
2909.918584083288
 20
-578.0319763472085
 30
0.0
 11
509.9185840832874
 21
-578.0319763472085
 31
0.0
  0
LINE
  5
4B5
330
1F
100
AcDbEntity
  8
0-1_通り芯
  6
JWW_CENTER1
 62
   120
370
     5
100
AcDbLine
 10
1709.918584083288
 20
-818.0319763472085
 30
0.0
 11
1709.918584083288
 21
-1997.073533226797
 31
0.0
  0
LINE
  5
4B6
330
1F
100
AcDbEntity
  8
0-B_寸法
  6
Continuous
 62
   120
370
     5
100
AcDbLine
 10
2174.918584083288
 20
-908.6409353019098
 30
0.0
 11
1244.918584083289
 21
-908.6409353019098
 31
0.0
  0
LWPOLYLINE
  5
4B7
330
1F
100
AcDbEntity
  8
0-B_寸法
  6
Continuous
 62
     7
370
     9
100
AcDbPolyline
 90
        4
 70
     1
 43
3.0
 10
2176.418584083288
 20
-908.6409353019098
 42
0.4142135623731
 10
2174.918584083288
 20
-907.1409353019098
 42
0.4142135623731
 10
2173.418584083288
 20
-908.6409353019098
 42
0.4142135623731
 10
2174.918584083288
 20
-910.1409353019098
 42
0.4142135623731
  0
LWPOLYLINE
  5
4B8
330
1F
100
AcDbEntity
  8
0-B_寸法
  6
Continuous
 62
     7
370
     9
100
AcDbPolyline
 90
        4
 70
     1
 43
3.0
 10
1246.418584083289
 20
-908.6409353019098
 42
0.4142135623731
 10
1244.918584083289
 20
-907.1409353019098
 42
0.4142135623731
 10
1243.418584083289
 20
-908.6409353019098
 42
0.4142135623731
 10
1244.918584083289
 20
-910.1409353019098
 42
0.4142135623731
  0
MTEXT
  5
4B9
330
1F
100
AcDbEntity
  8
0-B_寸法
  6
Continuous
 62
     7
370
   211
100
AcDbMText
 10
1612.41858408329
 20
-904.1109353019099
 30
0.0
 40
99.06
 41
195.0
 46
0.0
 71
     7
 72
     1
  1
{\fＭＳ ゴシック|b0|i0|c128|p49;155}
 73
     1
 44
1.0
  0
MTEXT
  5
4BA
330
1F
100
AcDbEntity
  8
0-A_文字
  6
Continuous
 62
     7
370
     0
100
AcDbMText
 10
1289.918584083287
 20
-770.5399829209576
 30
0.0
 40
91.44000000000075
 41
840.0000000000068
 46
0.0
 71
     7
 72
     1
  1
{\fＭＳ ゴシック|b0|i0|c128|p49;壁(枠)センター}
 73
     1
 44
1.0
  0
MTEXT
  5
4BB
330
1F
100
AcDbEntity
  8
0-B_寸法
  6
Continuous
 62
     7
370
   211
100
AcDbMText
 10
2190.795020864897
 20
-1292.533376526697
 30
0.0
 40
100.0125
 41
262.5
 46
0.0
 71
     7
 72
     1
  1
{\fＭＳ ゴシック|b0|i0|c128|p49;12.5}
 73
     1
 44
1.0
  0
LINE
  5
4BC
330
1F
100
AcDbEntity
  8
仕上げ
  6
Continuous
 62
   120
370
     5
100
AcDbLine
 10
2099.918584083288
 20
-1338.476818824188
 30
0.0
 11
2669.918584083288
 21
-1338.476818824188
 31
0.0
  0
LINE
  5
4BD
330
1F
100
AcDbEntity
  8
仕上げ
  6
Continuous
 62
   120
370
     5
100
AcDbLine
 10
2174.918584083288
 20
-1138.668507448269
 30
0.0
 11
2669.918584083288
 21
-1138.668507448269
 31
0.0
  0
LINE
  5
4BE
330
1F
100
AcDbEntity
  8
仕上げ
  6
Continuous
 62
   120
370
     5
100
AcDbLine
 10
2099.918584083288
 20
-1538.285130200106
 30
0.0
 11
2669.918584083288
 21
-1538.285130200106
 31
0.0
  0
LINE
  5
4BF
330
1F
100
AcDbEntity
  8
仕上げ
  6
Continuous
 62
   120
370
     5
100
AcDbLine
 10
2099.918584083288
 20
-1937.90175295194
 30
0.0
 11
2669.918584083288
 21
-1937.90175295194
 31
0.0
  0
LINE
  5
4C0
330
1F
100
AcDbEntity
  8
仕上げ
  6
Continuous
 62
   120
370
     5
100
AcDbLine
 10
2099.918584083288
 20
-1738.093441576023
 30
0.0
 11
2669.918584083288
 21
-1738.093441576023
 31
0.0
  0
LINE
  5
4C1
330
1F
100
AcDbEntity
  8
0-A_文字
  6
Continuous
 62
     7
370
     9
100
AcDbLine
 10
1280.91858408329
 20
-1780.981113569401
 30
0.0
 11
1154.441305857524
 21
-1875.839072238723
 31
0.0
  0
LINE
  5
4C2
330
1F
100
AcDbEntity
  8
0-A_文字
  6
Continuous
 62
     7
370
     9
100
AcDbLine
 10
1095.372772298686
 20
-1875.839072238723
 30
0.0
 11
1154.441305857524
 21
-1875.839072238723
 31
0.0
  0
MTEXT
  5
4C3
330
1F
100
AcDbEntity
  8
0-A_文字
  6
Continuous
 62
     7
370
     0
100
AcDbMText
 10
834.8087422916586
 20
-1952.766485995484
 30
0.0
 40
91.44
 41
240.0
 46
0.0
 71
     7
 72
     1
  1
{\fＭＳ ゴシック|b0|i0|c128|p49;畳寄}
 73
     1
 44
1.0
  0
LINE
  5
4C4
330
1F
100
AcDbEntity
  8
仕上げ
  6
Continuous
 62
    40
370
    15
100
AcDbLine
 10
1229.918584083289
 20
-878.0319763472085
 30
0.0
 11
1229.918584083289
 21
-1996.929662395812
 31
0.0
  0
MTEXT
  5
4C5
330
1F
100
AcDbEntity
  8
0-A_文字
  6
Continuous
 62
     7
370
     0
100
AcDbMText
 10
2319.310386067558
 20
-1711.497195331934
 30
0.0
 40
91.44
 41
120.0
 46
0.0
 71
     7
 72
     1
  1
{\fＭＳ ゴシック|b0|i0|c128|p49;床}
 73
     1
 44
1.0
  0
LWPOLYLINE
  5
4C6
330
1F
100
AcDbEntity
  8
0-B_寸法
  6
Continuous
 62
     7
370
     9
100
AcDbPolyline
 90
        4
 70
     1
 43
3.0
 10
1246.418584083289
 20
-1297.539626526697
 42
0.4142135623731
 10
1244.918584083289
 20
-1296.039626526697
 42
0.4142135623731
 10
1243.418584083289
 20
-1297.539626526697
 42
0.4142135623731
 10
1244.918584083289
 20
-1299.039626526697
 42
0.4142135623731
  0
LWPOLYLINE
  5
4C7
330
1F
100
AcDbEntity
  8
0-B_寸法
  6
Continuous
 62
     7
370
     9
100
AcDbPolyline
 90
        4
 70
     1
 43
3.0
 10
1321.418584083287
 20
-1297.539626526697
 42
0.4142135623731
 10
1319.918584083287
 20
-1296.039626526697
 42
0.4142135623731
 10
1318.418584083287
 20
-1297.539626526697
 42
0.4142135623731
 10
1319.918584083287
 20
-1299.039626526697
 42
0.4142135623731
  0
LINE
  5
4C8
330
1F
100
AcDbEntity
  8
0-B_寸法
  6
Continuous
 62
   120
370
     5
100
AcDbLine
 10
951.9540229885049
 20
-1297.539626526697
 30
0.0
 11
1319.918584083287
 21
-1297.539626526697
 31
0.0
  0
LWPOLYLINE
  5
4C9
330
1F
100
AcDbEntity
  8
0-B_寸法
  6
Continuous
 62
     7
370
     9
100
AcDbPolyline
 90
        4
 70
     1
 43
3.0
 10
2176.418584083288
 20
-1297.539626526697
 42
0.4142135623731
 10
2174.918584083288
 20
-1296.039626526697
 42
0.4142135623731
 10
2173.418584083288
 20
-1297.539626526697
 42
0.4142135623731
 10
2174.918584083288
 20
-1299.039626526697
 42
0.4142135623731
  0
LWPOLYLINE
  5
4CA
330
1F
100
AcDbEntity
  8
0-B_寸法
  6
Continuous
 62
     7
370
     9
100
AcDbPolyline
 90
        4
 70
     1
 43
3.0
 10
2101.418584083288
 20
-1297.539626526697
 42
0.4142135623731
 10
2099.918584083288
 20
-1296.039626526697
 42
0.4142135623731
 10
2098.418584083288
 20
-1297.539626526697
 42
0.4142135623731
 10
2099.918584083288
 20
-1299.039626526697
 42
0.4142135623731
  0
LINE
  5
4CB
330
1F
100
AcDbEntity
  8
0-B_寸法
  6
Continuous
 62
   120
370
     5
100
AcDbLine
 10
2467.883145178071
 20
-1297.539626526697
 30
0.0
 11
2099.918584083288
 21
-1297.539626526697
 31
0.0
  0
MTEXT
  5
4CC
330
1F
100
AcDbEntity
  8
0-B_寸法
  6
Continuous
 62
     7
370
   211
100
AcDbMText
 10
931.0488505747119
 20
-1292.533376526697
 30
0.0
 40
100.0125
 41
262.5
 46
0.0
 71
     7
 72
     1
  1
{\fＭＳ ゴシック|b0|i0|c128|p49;12.5}
 73
     1
 44
1.0
  0
LINE
  5
4CD
330
1F
100
AcDbEntity
  8
0-B_寸法
  6
Continuous
 62
   120
370
     5
100
AcDbLine
 10
1319.918584083287
 20
-1607.064056369812
 30
0.0
 11
1709.918584083288
 21
-1607.064056369812
 31
0.0
  0
LWPOLYLINE
  5
4CE
330
1F
100
AcDbEntity
  8
0-B_寸法
  6
Continuous
 62
     7
370
     9
100
AcDbPolyline
 90
        4
 70
     1
 43
3.0
 10
1321.418584083287
 20
-1607.064056369812
 42
0.4142135623731
 10
1319.918584083287
 20
-1605.564056369812
 42
0.4142135623731
 10
1318.418584083287
 20
-1607.064056369812
 42
0.4142135623731
 10
1319.918584083287
 20
-1608.564056369812
 42
0.4142135623731
  0
LWPOLYLINE
  5
4CF
330
1F
100
AcDbEntity
  8
0-B_寸法
  6
Continuous
 62
     7
370
     9
100
AcDbPolyline
 90
        4
 70
     1
 43
3.0
 10
1711.418584083288
 20
-1607.064056369812
 42
0.4142135623731
 10
1709.918584083288
 20
-1605.564056369812
 42
0.4142135623731
 10
1708.418584083288
 20
-1607.064056369812
 42
0.4142135623731
 10
1709.918584083288
 20
-1608.564056369812
 42
0.4142135623731
  0
LINE
  5
4D0
330
1F
100
AcDbEntity
  8
0-B_寸法
  6
Continuous
 62
   120
370
     5
100
AcDbLine
 10
1709.918584083288
 20
-1607.064056369812
 30
0.0
 11
2099.918584083288
 21
-1607.064056369812
 31
0.0
  0
LWPOLYLINE
  5
4D1
330
1F
100
AcDbEntity
  8
0-B_寸法
  6
Continuous
 62
     7
370
     9
100
AcDbPolyline
 90
        4
 70
     1
 43
3.0
 10
2101.418584083288
 20
-1607.064056369812
 42
0.4142135623731
 10
2099.918584083288
 20
-1605.564056369812
 42
0.4142135623731
 10
2098.418584083288
 20
-1607.064056369812
 42
0.4142135623731
 10
2099.918584083288
 20
-1608.564056369812
 42
0.4142135623731
  0
LINE
  5
4D2
330
1F
100
AcDbEntity
  8
0-B_寸法
  6
Continuous
 62
   120
370
     5
100
AcDbLine
 10
1319.918584083287
 20
-1795.371909781598
 30
0.0
 11
2099.918584083288
 21
-1795.371909781598
 31
0.0
  0
LWPOLYLINE
  5
4D3
330
1F
100
AcDbEntity
  8
0-B_寸法
  6
Continuous
 62
     7
370
     9
100
AcDbPolyline
 90
        4
 70
     1
 43
3.0
 10
1321.418584083287
 20
-1795.371909781598
 42
0.4142135623731
 10
1319.918584083287
 20
-1793.871909781598
 42
0.4142135623731
 10
1318.418584083287
 20
-1795.371909781598
 42
0.4142135623731
 10
1319.918584083287
 20
-1796.871909781598
 42
0.4142135623731
  0
LWPOLYLINE
  5
4D4
330
1F
100
AcDbEntity
  8
0-B_寸法
  6
Continuous
 62
     7
370
     9
100
AcDbPolyline
 90
        4
 70
     1
 43
3.0
 10
2101.418584083288
 20
-1795.371909781598
 42
0.4142135623731
 10
2099.918584083288
 20
-1793.871909781598
 42
0.4142135623731
 10
2098.418584083288
 20
-1795.371909781598
 42
0.4142135623731
 10
2099.918584083288
 20
-1796.871909781598
 42
0.4142135623731
  0
MTEXT
  5
4D5
330
1F
100
AcDbEntity
  8
0-B_寸法
  6
Continuous
 62
     7
370
   211
100
AcDbMText
 10
1451.168584083288
 20
-1603.486556369812
 30
0.0
 40
97.15499999999999
 41
127.5
 46
0.0
 71
     7
 72
     1
  1
{\fＭＳ ゴシック|b0|i0|c128|p49;65}
 73
     1
 44
1.0
  0
MTEXT
  5
4D6
330
1F
100
AcDbEntity
  8
0-B_寸法
  6
Continuous
 62
     7
370
   211
100
AcDbMText
 10
1841.16858408329
 20
-1603.486556369812
 30
0.0
 40
97.15499999999999
 41
127.5
 46
0.0
 71
     7
 72
     1
  1
{\fＭＳ ゴシック|b0|i0|c128|p49;65}
 73
     1
 44
1.0
  0
MTEXT
  5
4D7
330
1F
100
AcDbEntity
  8
0-B_寸法
  6
Continuous
 62
     7
370
   211
100
AcDbMText
 10
1612.41858408329
 20
-1790.841909781598
 30
0.0
 40
99.06
 41
195.0
 46
0.0
 71
     7
 72
     1
  1
{\fＭＳ ゴシック|b0|i0|c128|p49;130}
 73
     1
 44
1.0
  0
LINE
  5
4D8
330
1F
100
AcDbEntity
  8
0-4_枠
  6
Continuous
 62
    92
370
    13
100
AcDbLine
 10
2174.918584083288
 20
-1184.932310254922
 30
0.0
 11
1244.918584083289
 21
-1184.932310254922
 31
0.0
  0
LINE
  5
4D9
330
1F
100
AcDbEntity
  8
0-B_寸法
  6
Continuous
 62
   120
370
     5
100
AcDbLine
 10
1244.918584083289
 20
-1297.539626526697
 30
0.0
 11
1244.918584083289
 21
-1213.151148326104
 31
0.0
  0
LINE
  5
4DA
330
1F
100
AcDbEntity
  8
0-B_寸法
  6
Continuous
 62
   120
370
     5
100
AcDbLine
 10
1319.918584083287
 20
-1297.539626526697
 30
0.0
 11
1319.918584083287
 21
-1213.151148326104
 31
0.0
  0
LINE
  5
4DB
330
1F
100
AcDbEntity
  8
0-B_寸法
  6
Continuous
 62
   120
370
     5
100
AcDbLine
 10
2099.918584083288
 20
-1297.539626526697
 30
0.0
 11
2099.918584083288
 21
-1213.151148326104
 31
0.0
  0
LINE
  5
4DC
330
1F
100
AcDbEntity
  8
0-B_寸法
  6
Continuous
 62
   120
370
     5
100
AcDbLine
 10
2174.918584083288
 20
-1297.539626526697
 30
0.0
 11
2174.918584083288
 21
-1213.151148326104
 31
0.0
  0
LINE
  5
4DD
330
1F
100
AcDbEntity
  8
0-4_枠
  6
Continuous
 62
    92
370
    13
100
AcDbLine
 10
1319.918584083287
 20
-1184.932310254922
 30
0.0
 11
1319.918584083287
 21
-1996.929662395812
 31
0.0
  0
LINE
  5
4DE
330
1F
100
AcDbEntity
  8
0-4_枠
  6
Continuous
 62
    92
370
    13
100
AcDbLine
 10
2099.918584083288
 20
-1184.932310254922
 30
0.0
 11
2099.918584083288
 21
-1996.929662395812
 31
0.0
  0
LINE
  5
4DF
330
1F
100
AcDbEntity
  8
0-4_枠
  6
Continuous
 62
    92
370
    13
100
AcDbLine
 10
1244.918584083289
 20
-1184.932310254922
 30
0.0
 11
1244.918584083289
 21
-1087.644728515188
 31
0.0
  0
LINE
  5
4E0
330
1F
100
AcDbEntity
  8
0-4_枠
  6
Continuous
 62
    92
370
    13
100
AcDbLine
 10
2174.918584083288
 20
-1087.644728515188
 30
0.0
 11
2174.918584083288
 21
-1184.932310254922
 31
0.0
  0
LINE
  5
4E1
330
1F
100
AcDbEntity
  8
0-B_寸法
  6
Continuous
 62
   120
370
     5
100
AcDbLine
 10
2174.918584083288
 20
-908.6409353019098
 30
0.0
 11
2174.918584083288
 21
-1055.421122942833
 31
0.0
  0
LINE
  5
4E2
330
1F
100
AcDbEntity
  8
0-B_寸法
  6
Continuous
 62
   120
370
     5
100
AcDbLine
 10
1244.918584083289
 20
-908.6409353019098
 30
0.0
 11
1244.918584083289
 21
-1055.421122942833
 31
0.0
  0
MTEXT
  5
4E3
330
1F
100
AcDbEntity
  8
0-A_文字
  6
Continuous
 62
     7
370
     9
100
AcDbMText
 10
622.4794987358018
 20
-1001.494416218204
 30
0.0
 40
91.44
 41
600.0
 46
0.0
 71
     7
 72
     1
  1
{\fＭＳ ゴシック|b0|i0|c128|p49;（和室側）}
 73
     1
 44
1.0
  0
MTEXT
  5
4E4
330
1F
100
AcDbEntity
  8
0-A_文字
  6
Continuous
 62
     7
370
     9
100
AcDbMText
 10
2240.410052910051
 20
-984.6805835938699
 30
0.0
 40
91.44
 41
600.0
 46
0.0
 71
     7
 72
     1
  1
{\fＭＳ ゴシック|b0|i0|c128|p49;（洋室側）}
 73
     1
 44
1.0
  0
MTEXT
  5
4E5
330
1F
100
AcDbEntity
  8
F-A_文字
  6
Continuous
 62
     7
370
     0
100
AcDbMText
 10
4439.917891251784
 20
-3887.143854850754
 30
0.0
 40
45.72
 41
240.0
 46
0.0
 71
     7
 72
     1
  1
{\fＭＳ ゴシック|b0|i0|c128|p49;ＤＡＴＥ}
 73
     1
 44
1.0
  0
MTEXT
  5
4E6
330
1F
100
AcDbEntity
  8
F-A_文字
  6
Continuous
 62
     7
370
     0
100
AcDbMText
 10
4439.917891251784
 20
-4087.143857410839
 30
0.0
 40
45.72
 41
180.0
 46
0.0
 71
     7
 72
     1
  1
{\fＭＳ ゴシック|b0|i0|c128|p49;ＮＯ．}
 73
     1
 44
1.0
  0
MTEXT
  5
4E7
330
1F
100
AcDbEntity
  8
F-A_文字
  6
Continuous
 62
     7
370
     0
100
AcDbMText
 10
2939.917396372138
 20
-3887.142460617774
 30
0.0
 40
45.72
 41
300.0
 46
0.0
 71
     7
 72
     1
  1
{\fＭＳ ゴシック|b0|i0|c128|p49;ＳＣＡＬＥ}
 73
     1
 44
1.0
  0
MTEXT
  5
4E8
330
1F
100
AcDbEntity
  8
F-A_文字
  6
Continuous
 62
     7
370
     0
100
AcDbMText
 10
2939.917396372138
 20
-4087.14246317786
 30
0.0
 40
45.72
 41
240.0
 46
0.0
 71
     7
 72
     1
  1
{\fＭＳ ゴシック|b0|i0|c128|p49;ＦＩＬＥ}
 73
     1
 44
1.0
  0
MTEXT
  5
4E9
330
1F
100
AcDbEntity
  8
F-A_文字
  6
Continuous
 62
     7
370
     0
100
AcDbMText
 10
99.91854284331623
 20
-3887.139820871936
 30
0.0
 40
45.72
 41
180.0
 46
0.0
 71
     7
 72
     1
  1
{\fＭＳ ゴシック|b0|i0|c128|p49;図面名}
 73
     1
 44
1.0
  0
MTEXT
  5
4EA
330
1F
100
AcDbEntity
  8
F-A_文字
  6
Continuous
 62
     7
370
     0
100
AcDbMText
 10
1604.917396372138
 20
-4164.281754523929
 30
0.0
 40
101.44125
 41
1065.0
 46
0.0
 71
     7
 72
     1
  1
{\fＭＳ ゴシック|b0|i0|c128|p49;ウッドワン・・・}
 73
     1
 44
1.0
  0
MTEXT
  5
4EB
330
1F
100
AcDbEntity
  8
F-A_文字
  6
Continuous
 62
     7
370
     0
100
AcDbMText
 10
1394.917396372138
 20
-4096.140669266149
 30
0.0
 40
45.72
 41
120.0
 46
0.0
 71
     7
 72
     1
  1
{\fＭＳ ゴシック|b0|i0|c128|p49;株式}
 73
     1
 44
1.0
  0
MTEXT
  5
4EC
330
1F
100
AcDbEntity
  8
F-A_文字
  6
Continuous
 62
     7
370
     0
100
AcDbMText
 10
1394.917396372138
 20
-4168.140669266187
 30
0.0
 40
45.72
 41
120.0
 46
0.0
 71
     7
 72
     1
  1
{\fＭＳ ゴシック|b0|i0|c128|p49;会社}
 73
     1
 44
1.0
  0
MTEXT
  5
4ED
330
1F
100
AcDbEntity
  8
F-A_文字
  6
Continuous
 62
     7
370
     9
100
AcDbMText
 10
5096.167700144057
 20
-4147.857012699985
 30
0.0
 40
74.295
 41
97.5
 46
0.0
 71
     7
 72
     1
  1
{\fＭＳ ゴシック|b0|i0|c128|p49;01}
 73
     1
 44
1.0
  0
MTEXT
  5
4EE
330
1F
100
AcDbEntity
  8
F-A_文字
  6
Continuous
 62
     7
370
     0
100
AcDbMText
 10
3569.917643811962
 20
-3946.903115907308
 30
0.0
 40
76.19999999999999
 41
150.0
 46
0.0
 71
     7
 72
     1
  1
{\fＭＳ ゴシック|b0|i0|c128|p49;1/5}
 73
     1
 44
1.0
  0
MTEXT
  5
4EF
330
1F
100
AcDbEntity
  8
0-A_文字
  6
Continuous
 62
    92
370
    13
100
AcDbMText
 10
-5547.678066754434
 20
3758.968610027299
 30
0.0
 40
147.9368571428572
 41
3397.5
 46
0.0
 71
     7
 72
     1
  1
{\fＭＳ ゴシック|b0|i0|c128|p49;片引き戸　レールタイプ　固定枠155巾}
 73
     1
 44
1.0
  0
LINE
  5
4F0
330
1F
100
AcDbEntity
  8
0-A_文字
  6
Continuous
 62
    92
370
    13
100
AcDbLine
 10
-5659.999495325863
 20
4000.00018145587
 30
0.0
 11
-2057.142857142857
 21
4000.00018145587
 31
0.0
  0
LINE
  5
4F1
330
1F
100
AcDbEntity
  8
0-A_文字
  6
Continuous
 62
    92
370
    13
100
AcDbLine
 10
-5659.999495325863
 20
3730.00018145587
 30
0.0
 11
-2057.142857142857
 21
3730.00018145587
 31
0.0
  0
LINE
  5
4F2
330
1F
100
AcDbEntity
  8
0-A_文字
  6
Continuous
 62
    92
370
    13
100
AcDbLine
 10
-2057.142857142857
 20
4000.00018145587
 30
0.0
 11
-2057.142857142857
 21
3730.00018145587
 31
0.0
  0
MTEXT
  5
4F3
330
1F
100
AcDbEntity
  8
F-A_文字
  6
Continuous
 62
     7
370
     0
100
AcDbMText
 10
-5080.081323642279
 20
-4045.202754260209
 30
0.0
 40
79.59436363636364
 41
2872.5
 46
0.0
 71
     7
 72
     1
  1
{\fＭＳ ゴシック|b0|i0|c128|p49;ドレタス　片引き戸　レールタイプ　固定枠155巾　幅広敷居}
 73
     1
 44
1.0
  0
LINE
  5
4F4
330
1F
100
AcDbEntity
  8
F-0_補助線
  6
JWW_HOJO
 62
     7
370
     9
100
AcDbLine
 10
1109.918584083287
 20
-3795.000003092998
 30
0.0
 11
1109.918584083287
 21
-4195.000008247994
 31
0.0
  0
LINE
  5
4F5
330
1F
100
AcDbEntity
  8
F-0_補助線
  6
JWW_HOJO
 62
     7
370
     9
100
AcDbLine
 10
4889.917891251784
 20
-3795.000003092998
 30
0.0
 11
4889.917891251784
 21
-4195.000008247994
 31
0.0
  0
MTEXT
  5
4F6
330
1F
100
AcDbEntity
  8
F-A_文字
  6
Continuous
 62
     7
370
     0
100
AcDbMText
 10
1109.918584083287
 20
-3945.948259655243
 30
0.0
 40
78.105
 41
615.0
 46
0.0
 71
     7
 72
     1
  1
{\fＭＳ ゴシック|b0|i0|c128|p49;建具納まり図}
 73
     1
 44
1.0
  0
MTEXT
  5
4F7
330
1F
100
AcDbEntity
  8
F-A_文字
  6
Continuous
 62
     7
370
     0
100
AcDbMText
 10
509.9185840832865
 20
-3945.709576962234
 30
0.0
 40
78.58125
 41
412.5
 46
0.0
 71
     7
 72
     1
  1
{\fＭＳ ゴシック|b0|i0|c128|p49;DOORETUS}
 73
     1
 44
1.0
  0
LINE
  5
4F8
330
1F
100
AcDbEntity
  8
0-1_通り芯
  6
JWW_CENTER1
 62
   120
370
     5
100
AcDbLine
 10
-2030.956911084588
 20
-3098.031976347184
 30
0.0
 11
-2030.956911084588
 21
-482.031976062624
 31
0.0
  0
LINE
  5
4F9
330
1F
100
AcDbEntity
  8
0-1_通り芯
  6
JWW_CENTER1
 62
   120
370
     5
100
AcDbLine
 10
-1916.956911084586
 20
-3158.031976347184
 30
0.0
 11
-1916.956911084586
 21
-50.03197634718646
 31
0.0
  0
LINE
  5
4FA
330
1F
100
AcDbEntity
  8
0-1_通り芯
  6
JWW_CENTER1
 62
   120
370
     5
100
AcDbLine
 10
1753.83346694634
 20
2545.218429053211
 30
0.0
 11
-1769.957059261261
 21
2545.218429053211
 31
0.0
  0
LWPOLYLINE
  5
4FB
330
1F
100
AcDbEntity
  8
0-B_寸法
  6
Continuous
 62
     7
370
     9
100
AcDbPolyline
 90
        4
 70
     1
 43
3.0
 10
-1093.927069862397
 20
2545.218429053211
 42
0.4142135623731
 10
-1095.427069862397
 20
2546.718429053211
 42
0.4142135623731
 10
-1096.927069862396
 20
2545.218429053211
 42
0.4142135623731
 10
-1095.427069862397
 20
2543.718429053211
 42
0.4142135623731
  0
LWPOLYLINE
  5
4FC
330
1F
100
AcDbEntity
  8
0-B_寸法
  6
Continuous
 62
     7
370
     9
100
AcDbPolyline
 90
        4
 70
     1
 43
3.0
 10
-1093.927069862397
 20
2431.218429053211
 42
0.4142135623731
 10
-1095.427069862397
 20
2432.718429053211
 42
0.4142135623731
 10
-1096.927069862396
 20
2431.218429053211
 42
0.4142135623731
 10
-1095.427069862397
 20
2429.718429053211
 42
0.4142135623731
  0
LWPOLYLINE
  5
4FD
330
1F
100
AcDbEntity
  8
0-B_寸法
  6
Continuous
 62
     7
370
     9
100
AcDbPolyline
 90
        4
 70
     1
 43
3.0
 10
-2029.456911084588
 20
-1604.032103195778
 42
0.4142135623731
 10
-2030.956911084588
 20
-1602.532103195778
 42
0.4142135623731
 10
-2032.456911084588
 20
-1604.032103195778
 42
0.4142135623731
 10
-2030.956911084588
 20
-1605.532103195778
 42
0.4142135623731
  0
LWPOLYLINE
  5
4FE
330
1F
100
AcDbEntity
  8
0-B_寸法
  6
Continuous
 62
     7
370
     9
100
AcDbPolyline
 90
        4
 70
     1
 43
3.0
 10
-1915.456911084586
 20
-1604.032103195778
 42
0.4142135623731
 10
-1916.956911084586
 20
-1602.532103195778
 42
0.4142135623731
 10
-1918.456911084586
 20
-1604.032103195778
 42
0.4142135623731
 10
-1916.956911084586
 20
-1605.532103195778
 42
0.4142135623731
  0
MTEXT
  5
4FF
330
1F
100
AcDbEntity
  8
F-A_文字
  6
Continuous
 62
     7
370
     0
100
AcDbMText
 10
4889.917891251784
 20
-3945.570773120549
 30
0.0
 40
78.86699999999999
 41
517.5
 46
0.0
 71
     7
 72
     1
  1
{\fＭＳ ゴシック|b0|i0|c128|p49;2022.04.01}
 73
     1
 44
1.0
  0
LINE
  5
500
330
1F
100
AcDbEntity
  8
0-6_扉
  6
Continuous
 62
   200
370
    20
100
AcDbLine
 10
-1721.957059548474
 20
2455.219047498117
 30
0.0
 11
-880.0093724795386
 21
2455.219047498117
 31
0.0
  0
MTEXT
  5
501
330
1F
100
AcDbEntity
  8
0-B_寸法
  6
Continuous
 62
     7
370
     0
100
AcDbMText
 10
-1410.427069862399
 20
2222.752890826233
 30
0.0
 40
91.44
 41
180.0
 46
0.0
 71
     7
 72
     1
  1
{\fＭＳ ゴシック|b0|i0|c128|p49;155}
 11
6.123031769111886E-17
 21
1.0
 31
0.0
 73
     1
 44
1.0
  0
MTEXT
  5
502
330
1F
100
AcDbEntity
  8
0-B_寸法
  6
Continuous
 62
     7
370
   211
100
AcDbMText
 10
-1110.427069862397
 20
2281.045929053211
 30
0.0
 40
97.15499999999999
 41
127.5
 46
0.0
 71
     7
 72
     1
  1
{\fＭＳ ゴシック|b0|i0|c128|p49;19}
 11
6.123031769111886E-17
 21
1.0
 31
0.0
 73
     1
 44
1.0
  0
LINE
  5
503
330
1F
100
AcDbEntity
  8
0-B_寸法
  6
Continuous
 62
   120
370
     5
100
AcDbLine
 10
-1095.427069862397
 20
2545.218429053211
 30
0.0
 11
-1095.427069862397
 21
2299.218429053211
 31
0.0
  0
LINE
  5
504
330
1F
100
AcDbEntity
  8
0-6_扉
  6
Continuous
 62
   200
370
    20
100
AcDbLine
 10
-760.0093724795386
 20
2455.219047498117
 30
0.0
 11
81.93831458939741
 21
2455.219047498117
 31
0.0
  0
LINE
  5
505
330
1F
100
AcDbEntity
  8
0-B_寸法
  6
Continuous
 62
   120
370
     5
100
AcDbLine
 10
-341.9084093842497
 20
2455.219047498117
 30
0.0
 11
-191.630658183341
 21
2455.219047498117
 31
0.0
  0
LINE
  5
506
330
1F
100
AcDbEntity
  8
0-B_寸法
  6
Continuous
 62
   120
370
     5
100
AcDbLine
 10
-341.9084093842497
 20
2416.219047498118
 30
0.0
 11
-191.630658183341
 21
2416.219047498118
 31
0.0
  0
LINE
  5
507
330
1F
100
AcDbEntity
  8
0-6_扉
  6
JWW_DASHED1
 62
    40
370
    15
100
AcDbLine
 10
944.8858903104135
 20
2635.218899034223
 30
0.0
 11
1705.833466031428
 21
2635.218899034223
 31
0.0
  0
MTEXT
  5
508
330
1F
100
AcDbEntity
  8
0-B_寸法
  6
Continuous
 62
     7
370
     0
100
AcDbMText
 10
-1891.194831087775
 20
-1113.136972688305
 30
0.0
 40
91.44
 41
180.0
 46
0.0
 71
     7
 72
     1
  1
{\fＭＳ ゴシック|b0|i0|c128|p49;147}
 73
     1
 44
1.0
  0
LINE
  5
509
330
1F
100
AcDbEntity
  8
0-6_扉
  6
Continuous
 62
   200
370
    20
100
AcDbLine
 10
-1940.956911637942
 20
-662.0319760626237
 30
0.0
 11
-1940.956911637942
 21
-1724.031976347203
 31
0.0
  0
MTEXT
  5
50A
330
1F
100
AcDbEntity
  8
0-B_寸法
  6
Continuous
 62
     7
370
   211
100
AcDbMText
 10
-1905.706911084587
 20
-1600.454603195778
 30
0.0
 40
97.15499999999999
 41
127.5
 46
0.0
 71
     7
 72
     1
  1
{\fＭＳ ゴシック|b0|i0|c128|p49;19}
 73
     1
 44
1.0
  0
LINE
  5
50B
330
1F
100
AcDbEntity
  8
0-B_寸法
  6
Continuous
 62
   120
370
     5
100
AcDbLine
 10
-2030.956911084588
 20
-1604.032103195778
 30
0.0
 11
-1784.956911084586
 21
-1604.032103195778
 31
0.0
  0
MTEXT
  5
50C
330
1F
100
AcDbEntity
  8
0-B_寸法
  6
Continuous
 62
     7
370
     0
100
AcDbMText
 10
1436.486964753622
 20
2440.938429053211
 30
0.0
 40
91.44
 41
180.0
 46
0.0
 71
     7
 72
     1
  1
{\fＭＳ ゴシック|b0|i0|c128|p49;100}
 11
6.123031769111886E-17
 21
1.0
 31
0.0
 73
     1
 44
1.0
  0
ENDSEC
  0
SECTION
  2
OBJECTS
  0
DICTIONARY
  5
C
330
0
100
AcDbDictionary
281
     1
  3
ACAD_GROUP
350
D
  3
ACAD_LAYOUT
350
1A
  3
ACAD_MATERIAL
350
3B
  3
ACAD_MLEADERSTYLE
350
50E
  3
ACAD_MLINESTYLE
350
17
  3
ACAD_PLOTSETTINGS
350
19
  3
ACAD_PLOTSTYLENAME
350
E
  3
ACAD_TABLESTYLE
350
50D
  3
ACAD_VISUALSTYLE
350
2A
  0
DICTIONARY
  5
D
102
{ACAD_REACTORS
330
C
102
}
330
C
100
AcDbDictionary
281
     1
  0
DICTIONARY
  5
1A
102
{ACAD_REACTORS
330
C
102
}
330
C
100
AcDbDictionary
281
     1
  3
Layout1
350
1E
  3
Layout2
350
26
  3
Model
350
22
  0
DICTIONARY
  5
3B
102
{ACAD_REACTORS
330
C
102
}
330
C
100
AcDbDictionary
281
     1
  3
ByBlock
350
3D
  3
ByLayer
350
3C
  3
Global
350
3E
  0
DICTIONARY
  5
50E
102
{ACAD_REACTORS
330
C
102
}
330
C
100
AcDbDictionary
281
     1
  0
DICTIONARY
  5
17
102
{ACAD_REACTORS
330
C
102
}
330
C
100
AcDbDictionary
281
     1
  3
Standard
350
18
  0
DICTIONARY
  5
19
102
{ACAD_REACTORS
330
C
102
}
330
C
100
AcDbDictionary
281
     1
  0
ACDBDICTIONARYWDFLT
  5
E
102
{ACAD_REACTORS
330
C
102
}
330
C
100
AcDbDictionary
281
     1
  3
Normal
350
F
100
AcDbDictionaryWithDefault
340
F
  0
DICTIONARY
  5
50D
102
{ACAD_REACTORS
330
C
102
}
330
C
100
AcDbDictionary
281
     1
  0
DICTIONARY
  5
2A
102
{ACAD_REACTORS
330
C
102
}
330
C
100
AcDbDictionary
281
     1
  3
2dWireframe
350
2F
  3
3D Hidden
350
31
  3
3dWireframe
350
30
  3
Basic
350
32
  3
Brighten
350
36
  3
ColorChange
350
3A
  3
Conceptual
350
34
  3
Dim
350
35
  3
Facepattern
350
39
  3
Flat
350
2B
  3
FlatWithEdges
350
2C
  3
Gouraud
350
2D
  3
GouraudWithEdges
350
2E
  3
Linepattern
350
38
  3
Realistic
350
33
  3
Thicken
350
37
  0
LAYOUT
  5
1E
102
{ACAD_REACTORS
330
1A
102
}
330
1A
100
AcDbPlotSettings
  1

  2
none_device
  4

  6

 40
0.0
 41
0.0
 42
0.0
 43
0.0
 44
0.0
 45
0.0
 46
0.0
 47
0.0
 48
0.0
 49
0.0
140
0.0
141
0.0
142
1.0
143
1.0
 70
   688
 72
     0
 73
     0
 74
     5
  7

 75
    16
 76
     0
 77
     5
 78
   300
147
1.0
148
0.0
149
0.0
100
AcDbLayout
  1
Layout1
 70
     1
 71
     1
 10
0.0
 20
0.0
 11
420.0
 21
297.0
 12
0.0
 22
0.0
 32
0.0
 14
1.000000000000000E+20
 24
1.000000000000000E+20
 34
1.000000000000000E+20
 15
-1.000000000000000E+20
 25
-1.000000000000000E+20
 35
-1.000000000000000E+20
146
0.0
 13
0.0
 23
0.0
 33
0.0
 16
1.0
 26
0.0
 36
0.0
 17
0.0
 27
1.0
 37
0.0
 76
     0
330
1B
  0
LAYOUT
  5
26
102
{ACAD_REACTORS
330
1A
102
}
330
1A
100
AcDbPlotSettings
  1

  2
none_device
  4

  6

 40
0.0
 41
0.0
 42
0.0
 43
0.0
 44
0.0
 45
0.0
 46
0.0
 47
0.0
 48
0.0
 49
0.0
140
0.0
141
0.0
142
1.0
143
1.0
 70
   688
 72
     0
 73
     0
 74
     5
  7

 75
    16
 76
     0
 77
     5
 78
   300
147
1.0
148
0.0
149
0.0
100
AcDbLayout
  1
Layout2
 70
     1
 71
     2
 10
0.0
 20
0.0
 11
0.0
 21
0.0
 12
0.0
 22
0.0
 32
0.0
 14
0.0
 24
0.0
 34
0.0
 15
0.0
 25
0.0
 35
0.0
146
0.0
 13
0.0
 23
0.0
 33
0.0
 16
1.0
 26
0.0
 36
0.0
 17
0.0
 27
1.0
 37
0.0
 76
     0
330
23
  0
LAYOUT
  5
22
102
{ACAD_REACTORS
330
1A
102
}
330
1A
100
AcDbPlotSettings
  1

  2
none_device
  4

  6

 40
0.0
 41
0.0
 42
0.0
 43
0.0
 44
0.0
 45
0.0
 46
0.0
 47
0.0
 48
0.0
 49
0.0
140
0.0
141
0.0
142
1.0
143
1.0
 70
  1712
 72
     0
 73
     0
 74
     0
  7

 75
     0
 76
     0
 77
     5
 78
   300
147
1.0
148
0.0
149
0.0
100
AcDbLayout
  1
Model
 70
     1
 71
     0
 10
-8910.0
 20
-6300.0
 11
8910.0
 21
6300.0
 12
0.0
 22
0.0
 32
0.0
 14
-8910.0
 24
-6300.0
 34
0.0
 15
8910.0
 25
6300.0
 35
0.0
146
0.0
 13
0.0
 23
0.0
 33
0.0
 16
1.0
 26
0.0
 36
0.0
 17
0.0
 27
1.0
 37
0.0
 76
     0
330
1F
331
29
  0
MATERIAL
  5
3D
102
{ACAD_REACTORS
330
3B
102
}
330
3B
100
AcDbMaterial
  1
ByBlock
 72
     1
 94
      127
  0
MATERIAL
  5
3C
102
{ACAD_REACTORS
330
3B
102
}
330
3B
100
AcDbMaterial
  1
ByLayer
 72
     1
 94
      127
  0
MATERIAL
  5
3E
102
{ACAD_REACTORS
330
3B
102
}
330
3B
100
AcDbMaterial
  1
Global
 72
     1
 94
      127
  0
MLINESTYLE
  5
18
102
{ACAD_REACTORS
330
17
102
}
330
17
100
AcDbMlineStyle
  2
Standard
 70
     0
  3

 62
   256
 51
90.0
 52
90.0
 71
     2
 49
0.5
 62
   256
  6
BYLAYER
 49
-0.5
 62
   256
  6
BYLAYER
  0
ACDBPLACEHOLDER
  5
F
102
{ACAD_REACTORS
330
E
102
}
330
E
  0
VISUALSTYLE
  5
2F
102
{ACAD_REACTORS
330
2A
102
}
330
2A
100
AcDbVisualStyle
  2
2dWireframe
 70
     4
177
     2
291
     0
 71
     0
176
     1
 72
     2
176
     1
 73
     0
176
     1
 90
        0
176
     1
 40
-0.6
176
     1
 41
-30.0
176
     1
 62
     5
 63
     7
421
 16777215
176
     1
 74
     1
176
     1
 91
        4
176
     1
 64
     7
176
     1
 65
   257
176
     1
 75
     1
176
     1
175
     1
176
     1
 42
1.0
176
     1
 92
        0
176
     1
 66
   257
176
     1
 43
1.0
176
     1
 76
     1
176
     1
 77
     6
176
     1
 78
     2
176
     1
 67
     7
176
     1
 79
     5
176
     1
170
     0
176
     1
171
     0
176
     1
290
     0
176
     1
 93
        1
176
     1
 44
0.0
176
     1
173
     0
176
     1
  0
VISUALSTYLE
  5
31
102
{ACAD_REACTORS
330
2A
102
}
330
2A
100
AcDbVisualStyle
  2
3D Hidden
 70
     6
177
     2
291
     0
 71
     1
176
     1
 72
     2
176
     1
 73
     2
176
     1
 90
        0
176
     1
 40
-0.6
176
     1
 41
-30.0
176
     1
 62
     5
 63
     7
421
 16777215
176
     1
 74
     2
176
     1
 91
        2
176
     1
 64
     7
176
     1
 65
   257
176
     1
 75
     2
176
     1
175
     1
176
     1
 42
40.0
176
     1
 92
        0
176
     1
 66
   257
176
     1
 43
1.0
176
     1
 76
     1
176
     1
 77
     6
176
     1
 78
     2
176
     1
 67
     7
176
     1
 79
     3
176
     1
170
     0
176
     1
171
     0
176
     1
290
     0
176
     1
 93
        1
176
     1
 44
0.0
176
     1
173
     0
176
     1
  0
VISUALSTYLE
  5
30
102
{ACAD_REACTORS
330
2A
102
}
330
2A
100
AcDbVisualStyle
  2
3dWireframe
 70
     5
177
     2
291
     0
 71
     0
176
     1
 72
     2
176
     1
 73
     0
176
     1
 90
        0
176
     1
 40
-0.6
176
     1
 41
-30.0
176
     1
 62
     5
 63
     7
421
 16777215
176
     1
 74
     1
176
     1
 91
        4
176
     1
 64
     7
176
     1
 65
   257
176
     1
 75
     1
176
     1
175
     1
176
     1
 42
1.0
176
     1
 92
        0
176
     1
 66
   257
176
     1
 43
1.0
176
     1
 76
     1
176
     1
 77
     6
176
     1
 78
     2
176
     1
 67
     7
176
     1
 79
     5
176
     1
170
     0
176
     1
171
     0
176
     1
290
     0
176
     1
 93
        1
176
     1
 44
0.0
176
     1
173
     0
176
     1
  0
VISUALSTYLE
  5
32
102
{ACAD_REACTORS
330
2A
102
}
330
2A
100
AcDbVisualStyle
  2
Basic
 70
     7
177
     2
291
     1
 71
     1
176
     1
 72
     0
176
     1
 73
     1
176
     1
 90
        0
176
     1
 40
-0.6
176
     1
 41
-30.0
176
     1
 62
     5
 63
     7
421
 16777215
176
     1
 74
     0
176
     1
 91
        4
176
     1
 64
     7
176
     1
 65
   257
176
     1
 75
     1
176
     1
175
     1
176
     1
 42
1.0
176
     1
 92
        8
176
     1
 66
     7
176
     1
 43
1.0
176
     1
 76
     1
176
     1
 77
     6
176
     1
 78
     2
176
     1
 67
     7
176
     1
 79
     5
176
     1
170
     0
176
     1
171
     0
176
     1
290
     0
176
     1
 93
        1
176
     1
 44
0.0
176
     1
173
     0
176
     1
  0
VISUALSTYLE
  5
36
102
{ACAD_REACTORS
330
2A
102
}
330
2A
100
AcDbVisualStyle
  2
Brighten
 70
    12
177
     2
291
     1
 71
     2
176
     1
 72
     2
176
     1
 73
     0
176
     1
 90
        0
176
     1
 40
-0.6
176
     1
 41
-30.0
176
     1
 62
     5
 63
     7
421
 16777215
176
     1
 74
     1
176
     1
 91
        4
176
     1
 64
     7
176
     1
 65
   257
176
     1
 75
     1
176
     1
175
     1
176
     1
 42
1.0
176
     1
 92
        8
176
     1
 66
     7
176
     1
 43
1.0
176
     1
 76
     1
176
     1
 77
     6
176
     1
 78
     2
176
     1
 67
     7
176
     1
 79
     5
176
     1
170
     0
176
     1
171
     0
176
     1
290
     0
176
     1
 93
        1
176
     1
 44
50.0
176
     1
173
     0
176
     1
  0
VISUALSTYLE
  5
3A
102
{ACAD_REACTORS
330
2A
102
}
330
2A
100
AcDbVisualStyle
  2
ColorChange
 70
    16
177
     2
291
     1
 71
     2
176
     1
 72
     2
176
     1
 73
     3
176
     1
 90
        0
176
     1
 40
-0.6
176
     1
 41
-30.0
176
     1
 62
     5
 63
     8
421
  8421504
176
     1
 74
     1
176
     1
 91
        4
176
     1
 64
     7
176
     1
 65
   257
176
     1
 75
     1
176
     1
175
     1
176
     1
 42
1.0
176
     1
 92
        8
176
     1
 66
     8
424
  8421504
176
     1
 43
1.0
176
     1
 76
     1
176
     1
 77
     6
176
     1
 78
     2
176
     1
 67
     7
176
     1
 79
     5
176
     1
170
     0
176
     1
171
     0
176
     1
290
     0
176
     1
 93
        1
176
     1
 44
0.0
176
     1
173
     0
176
     1
  0
VISUALSTYLE
  5
34
102
{ACAD_REACTORS
330
2A
102
}
330
2A
100
AcDbVisualStyle
  2
Conceptual
 70
     9
177
     2
291
     0
 71
     3
176
     1
 72
     2
176
     1
 73
     0
176
     1
 90
        0
176
     1
 40
-0.6
176
     1
 41
-30.0
176
     1
 62
     5
 63
     7
421
 16777215
176
     1
 74
     2
176
     1
 91
        2
176
     1
 64
     7
176
     1
 65
   257
176
     1
 75
     1
176
     1
175
     1
176
     1
 42
40.0
176
     1
 92
        8
176
     1
 66
     7
176
     1
 43
1.0
176
     1
 76
     1
176
     1
 77
     6
176
     1
 78
     2
176
     1
 67
     7
176
     1
 79
     3
176
     1
170
     0
176
     1
171
     0
176
     1
290
     0
176
     1
 93
        1
176
     1
 44
0.0
176
     1
173
     0
176
     1
  0
VISUALSTYLE
  5
35
102
{ACAD_REACTORS
330
2A
102
}
330
2A
100
AcDbVisualStyle
  2
Dim
 70
    11
177
     2
291
     1
 71
     2
176
     1
 72
     2
176
     1
 73
     0
176
     1
 90
        0
176
     1
 40
-0.6
176
     1
 41
-30.0
176
     1
 62
     5
 63
     7
421
 16777215
176
     1
 74
     1
176
     1
 91
        4
176
     1
 64
     7
176
     1
 65
   257
176
     1
 75
     1
176
     1
175
     1
176
     1
 42
1.0
176
     1
 92
        8
176
     1
 66
     7
176
     1
 43
1.0
176
     1
 76
     1
176
     1
 77
     6
176
     1
 78
     2
176
     1
 67
     7
176
     1
 79
     5
176
     1
170
     0
176
     1
171
     0
176
     1
290
     0
176
     1
 93
        1
176
     1
 44
-50.0
176
     1
173
     0
176
     1
  0
VISUALSTYLE
  5
39
102
{ACAD_REACTORS
330
2A
102
}
330
2A
100
AcDbVisualStyle
  2
Facepattern
 70
    15
177
     2
291
     1
 71
     2
176
     1
 72
     2
176
     1
 73
     0
176
     1
 90
        0
176
     1
 40
-0.6
176
     1
 41
-30.0
176
     1
 62
     5
 63
     7
421
 16777215
176
     1
 74
     1
176
     1
 91
        4
176
     1
 64
     7
176
     1
 65
   257
176
     1
 75
     1
176
     1
175
     1
176
     1
 42
1.0
176
     1
 92
        8
176
     1
 66
     7
176
     1
 43
1.0
176
     1
 76
     1
176
     1
 77
     6
176
     1
 78
     2
176
     1
 67
     7
176
     1
 79
     5
176
     1
170
     0
176
     1
171
     0
176
     1
290
     0
176
     1
 93
        1
176
     1
 44
0.0
176
     1
173
     0
176
     1
  0
VISUALSTYLE
  5
2B
102
{ACAD_REACTORS
330
2A
102
}
330
2A
100
AcDbVisualStyle
  2
Flat
 70
     0
177
     2
291
     1
 71
     2
176
     1
 72
     1
176
     1
 73
     1
176
     1
 90
        2
176
     1
 40
-0.6
176
     1
 41
30.0
176
     1
 62
     5
 63
     7
421
 16777215
176
     1
 74
     0
176
     1
 91
        4
176
     1
 64
     7
176
     1
 65
   257
176
     1
 75
     1
176
     1
175
     1
176
     1
 42
1.0
176
     1
 92
        8
176
     1
 66
     7
176
     1
 43
1.0
176
     1
 76
     1
176
     1
 77
     6
176
     1
 78
     2
176
     1
 67
     7
176
     1
 79
     5
176
     1
170
     0
176
     1
171
     0
176
     1
290
     0
176
     1
 93
       13
176
     1
 44
0.0
176
     1
173
     0
176
     1
  0
VISUALSTYLE
  5
2C
102
{ACAD_REACTORS
330
2A
102
}
330
2A
100
AcDbVisualStyle
  2
FlatWithEdges
 70
     1
177
     2
291
     1
 71
     2
176
     1
 72
     1
176
     1
 73
     1
176
     1
 90
        2
176
     1
 40
-0.6
176
     1
 41
30.0
176
     1
 62
     5
 63
     7
421
 16777215
176
     1
 74
     1
176
     1
 91
        4
176
     1
 64
     7
176
     1
 65
   257
176
     1
 75
     1
176
     1
175
     1
176
     1
 42
1.0
176
     1
 92
        0
176
     1
 66
   257
176
     1
 43
1.0
176
     1
 76
     1
176
     1
 77
     6
176
     1
 78
     2
176
     1
 67
     7
176
     1
 79
     5
176
     1
170
     0
176
     1
171
     0
176
     1
290
     0
176
     1
 93
       13
176
     1
 44
0.0
176
     1
173
     0
176
     1
  0
VISUALSTYLE
  5
2D
102
{ACAD_REACTORS
330
2A
102
}
330
2A
100
AcDbVisualStyle
  2
Gouraud
 70
     2
177
     2
291
     1
 71
     2
176
     1
 72
     2
176
     1
 73
     1
176
     1
 90
        2
176
     1
 40
-0.6
176
     1
 41
30.0
176
     1
 62
     5
 63
     7
421
 16777215
176
     1
 74
     0
176
     1
 91
        4
176
     1
 64
     7
176
     1
 65
   257
176
     1
 75
     1
176
     1
175
     1
176
     1
 42
1.0
176
     1
 92
        0
176
     1
 66
     7
176
     1
 43
1.0
176
     1
 76
     1
176
     1
 77
     6
176
     1
 78
     2
176
     1
 67
     7
176
     1
 79
     5
176
     1
170
     0
176
     1
171
     0
176
     1
290
     0
176
     1
 93
       13
176
     1
 44
0.0
176
     1
173
     0
176
     1
  0
VISUALSTYLE
  5
2E
102
{ACAD_REACTORS
330
2A
102
}
330
2A
100
AcDbVisualStyle
  2
GouraudWithEdges
 70
     3
177
     2
291
     1
 71
     2
176
     1
 72
     2
176
     1
 73
     1
176
     1
 90
        2
176
     1
 40
-0.6
176
     1
 41
30.0
176
     1
 62
     5
 63
     7
421
 16777215
176
     1
 74
     1
176
     1
 91
        4
176
     1
 64
     7
176
     1
 65
   257
176
     1
 75
     1
176
     1
175
     1
176
     1
 42
1.0
176
     1
 92
        0
176
     1
 66
   257
176
     1
 43
1.0
176
     1
 76
     1
176
     1
 77
     6
176
     1
 78
     2
176
     1
 67
     7
176
     1
 79
     5
176
     1
170
     0
176
     1
171
     0
176
     1
290
     0
176
     1
 93
       13
176
     1
 44
0.0
176
     1
173
     0
176
     1
  0
VISUALSTYLE
  5
38
102
{ACAD_REACTORS
330
2A
102
}
330
2A
100
AcDbVisualStyle
  2
Linepattern
 70
    14
177
     2
291
     1
 71
     2
176
     1
 72
     2
176
     1
 73
     0
176
     1
 90
        0
176
     1
 40
-0.6
176
     1
 41
-30.0
176
     1
 62
     5
 63
     7
421
 16777215
176
     1
 74
     1
176
     1
 91
        4
176
     1
 64
     7
176
     1
 65
   257
176
     1
 75
     7
176
     1
175
     7
176
     1
 42
1.0
176
     1
 92
        8
176
     1
 66
     7
176
     1
 43
1.0
176
     1
 76
     1
176
     1
 77
     6
176
     1
 78
     2
176
     1
 67
     7
176
     1
 79
     5
176
     1
170
     0
176
     1
171
     0
176
     1
290
     0
176
     1
 93
        1
176
     1
 44
0.0
176
     1
173
     0
176
     1
  0
VISUALSTYLE
  5
33
102
{ACAD_REACTORS
330
2A
102
}
330
2A
100
AcDbVisualStyle
  2
Realistic
 70
     8
177
     2
291
     0
 71
     2
176
     1
 72
     2
176
     1
 73
     0
176
     1
 90
        0
176
     1
 40
-0.6
176
     1
 41
-30.0
176
     1
 62
     5
 63
     7
421
 16777215
176
     1
 74
     1
176
     1
 91
        0
176
     1
 64
     7
176
     1
 65
   257
176
     1
 75
     1
176
     1
175
     1
176
     1
 42
1.0
176
     1
 92
        8
176
     1
 66
     8
424
  7895160
176
     1
 43
1.0
176
     1
 76
     1
176
     1
 77
     6
176
     1
 78
     2
176
     1
 67
     7
176
     1
 79
     5
176
     1
170
     0
176
     1
171
     0
176
     1
290
     0
176
     1
 93
       13
176
     1
 44
0.0
176
     1
173
     0
176
     1
  0
VISUALSTYLE
  5
37
102
{ACAD_REACTORS
330
2A
102
}
330
2A
100
AcDbVisualStyle
  2
Thicken
 70
    13
177
     2
291
     1
 71
     2
176
     1
 72
     2
176
     1
 73
     0
176
     1
 90
        0
176
     1
 40
-0.6
176
     1
 41
-30.0
176
     1
 62
     5
 63
     7
421
 16777215
176
     1
 74
     1
176
     1
 91
        4
176
     1
 64
     7
176
     1
 65
   257
176
     1
 75
     1
176
     1
175
     1
176
     1
 42
1.0
176
     1
 92
       12
176
     1
 66
     7
176
     1
 43
1.0
176
     1
 76
     1
176
     1
 77
     6
176
     1
 78
     2
176
     1
 67
     7
176
     1
 79
     5
176
     1
170
     0
176
     1
171
     0
176
     1
290
     0
176
     1
 93
        1
176
     1
 44
0.0
176
     1
173
     0
176
     1
  0
ENDSEC
  0
EOF
