  0
SECTION
  2
HEADER
  9
$ACADVER
  1
AC1024
  9
$ACADMAINTVER
 70
     6
  9
$DWGCODEPAGE
  3
ANSI_932
  9
$INSBASE
 10
0.0
 20
0.0
 30
0.0
  9
$EXTMIN
 10
-8910.0
 20
-6300.0
 30
0.0
  9
$EXTMAX
 10
8910.0
 20
6300.0
 30
0.0
  9
$LIMMIN
 10
-8910.0
 20
-6300.0
  9
$LIMMAX
 10
8910.0
 20
6300.0
  9
$ORTHOMODE
 70
     0
  9
$REGENMODE
 70
     1
  9
$FILLMODE
 70
     1
  9
$QTEXTMODE
 70
     0
  9
$MIRRTEXT
 70
     1
  9
$LTSCALE
 40
30.0
  9
$ATTMODE
 70
     1
  9
$TEXTSIZE
 40
2.5
  9
$TRACEWID
 40
1.0
  9
$TEXTSTYLE
  7
Standard
  9
$CLAYER
  8
0
  9
$CELTYPE
  6
ByLayer
  9
$CECOLOR
 62
   256
  9
$CELTSCALE
 40
1.0
  9
$DISPSILH
 70
     0
  9
$DIMSCALE
 40
1.0
  9
$DIMASZ
 40
2.5
  9
$DIMEXO
 40
0.625
  9
$DIMDLI
 40
3.75
  9
$DIMRND
 40
0.0
  9
$DIMDLE
 40
0.0
  9
$DIMEXE
 40
1.25
  9
$DIMTP
 40
0.0
  9
$DIMTM
 40
0.0
  9
$DIMTXT
 40
2.5
  9
$DIMCEN
 40
2.5
  9
$DIMTSZ
 40
0.0
  9
$DIMTOL
 70
     0
  9
$DIMLIM
 70
     0
  9
$DIMTIH
 70
     0
  9
$DIMTOH
 70
     0
  9
$DIMSE1
 70
     0
  9
$DIMSE2
 70
     0
  9
$DIMTAD
 70
     1
  9
$DIMZIN
 70
     8
  9
$DIMBLK
  1

  9
$DIMASO
 70
     1
  9
$DIMSHO
 70
     1
  9
$DIMPOST
  1

  9
$DIMAPOST
  1

  9
$DIMALT
 70
     0
  9
$DIMALTD
 70
     3
  9
$DIMALTF
 40
0.03937007874016
  9
$DIMLFAC
 40
1.0
  9
$DIMTOFL
 70
     1
  9
$DIMTVP
 40
0.0
  9
$DIMTIX
 70
     0
  9
$DIMSOXD
 70
     0
  9
$DIMSAH
 70
     0
  9
$DIMBLK1
  1

  9
$DIMBLK2
  1

  9
$DIMSTYLE
  2
ISO-25
  9
$DIMCLRD
 70
     0
  9
$DIMCLRE
 70
     0
  9
$DIMCLRT
 70
     0
  9
$DIMTFAC
 40
1.0
  9
$DIMGAP
 40
0.625
  9
$DIMJUST
 70
     0
  9
$DIMSD1
 70
     0
  9
$DIMSD2
 70
     0
  9
$DIMTOLJ
 70
     0
  9
$DIMTZIN
 70
     8
  9
$DIMALTZ
 70
     0
  9
$DIMALTTZ
 70
     0
  9
$DIMUPT
 70
     0
  9
$DIMDEC
 70
     2
  9
$DIMTDEC
 70
     2
  9
$DIMALTU
 70
     2
  9
$DIMALTTD
 70
     3
  9
$DIMTXSTY
  7
Standard
  9
$DIMAUNIT
 70
     0
  9
$DIMADEC
 70
     0
  9
$DIMALTRND
 40
0.0
  9
$DIMAZIN
 70
     0
  9
$DIMDSEP
 70
    44
  9
$DIMATFIT
 70
     3
  9
$DIMFRAC
 70
     0
  9
$DIMLDRBLK
  1

  9
$DIMLUNIT
 70
     2
  9
$DIMLWD
 70
    -2
  9
$DIMLWE
 70
    -2
  9
$DIMTMOVE
 70
     0
  9
$DIMFXL
 40
1.0
  9
$DIMFXLON
 70
     0
  9
$DIMJOGANG
 40
0.7853981633974483
  9
$DIMTFILL
 70
     0
  9
$DIMTFILLCLR
 70
     0
  9
$DIMARCSYM
 70
     0
  9
$DIMLTYPE
  6

  9
$DIMLTEX1
  6

  9
$DIMLTEX2
  6

  9
$DIMTXTDIRECTION
 70
     0
  9
$LUNITS
 70
     2
  9
$LUPREC
 70
     4
  9
$SKETCHINC
 40
1.0
  9
$FILLETRAD
 40
10.0
  9
$AUNITS
 70
     0
  9
$AUPREC
 70
     0
  9
$MENU
  1
.
  9
$ELEVATION
 40
0.0
  9
$PELEVATION
 40
0.0
  9
$THICKNESS
 40
0.0
  9
$LIMCHECK
 70
     0
  9
$CHAMFERA
 40
10.0
  9
$CHAMFERB
 40
10.0
  9
$CHAMFERC
 40
20.0
  9
$CHAMFERD
 40
0.0
  9
$SKPOLY
 70
     0
  9
$TDCREATE
 40
2459720.719099086
  9
$TDUCREATE
 40
2459720.344099086
  9
$TDUPDATE
 40
2459720.719099097
  9
$TDUUPDATE
 40
2459720.344099097
  9
$TDINDWG
 40
0.0000000116
  9
$TDUSRTIMER
 40
0.0000000116
  9
$USRTIMER
 70
     1
  9
$ANGBASE
 50
0.0
  9
$ANGDIR
 70
     0
  9
$PDMODE
 70
     0
  9
$PDSIZE
 40
0.0
  9
$PLINEWID
 40
0.0
  9
$SPLFRAME
 70
     0
  9
$SPLINETYPE
 70
     6
  9
$SPLINESEGS
 70
     8
  9
$HANDSEED
  5
596
  9
$SURFTAB1
 70
     6
  9
$SURFTAB2
 70
     6
  9
$SURFTYPE
 70
     6
  9
$SURFU
 70
     6
  9
$SURFV
 70
     6
  9
$UCSBASE
  2

  9
$UCSNAME
  2

  9
$UCSORG
 10
0.0
 20
0.0
 30
0.0
  9
$UCSXDIR
 10
1.0
 20
0.0
 30
0.0
  9
$UCSYDIR
 10
0.0
 20
1.0
 30
0.0
  9
$UCSORTHOREF
  2

  9
$UCSORTHOVIEW
 70
     0
  9
$UCSORGTOP
 10
0.0
 20
0.0
 30
0.0
  9
$UCSORGBOTTOM
 10
0.0
 20
0.0
 30
0.0
  9
$UCSORGLEFT
 10
0.0
 20
0.0
 30
0.0
  9
$UCSORGRIGHT
 10
0.0
 20
0.0
 30
0.0
  9
$UCSORGFRONT
 10
0.0
 20
0.0
 30
0.0
  9
$UCSORGBACK
 10
0.0
 20
0.0
 30
0.0
  9
$PUCSBASE
  2

  9
$PUCSNAME
  2

  9
$PUCSORG
 10
0.0
 20
0.0
 30
0.0
  9
$PUCSXDIR
 10
1.0
 20
0.0
 30
0.0
  9
$PUCSYDIR
 10
0.0
 20
1.0
 30
0.0
  9
$PUCSORTHOREF
  2

  9
$PUCSORTHOVIEW
 70
     0
  9
$PUCSORGTOP
 10
0.0
 20
0.0
 30
0.0
  9
$PUCSORGBOTTOM
 10
0.0
 20
0.0
 30
0.0
  9
$PUCSORGLEFT
 10
0.0
 20
0.0
 30
0.0
  9
$PUCSORGRIGHT
 10
0.0
 20
0.0
 30
0.0
  9
$PUCSORGFRONT
 10
0.0
 20
0.0
 30
0.0
  9
$PUCSORGBACK
 10
0.0
 20
0.0
 30
0.0
  9
$USERI1
 70
     0
  9
$USERI2
 70
     0
  9
$USERI3
 70
     0
  9
$USERI4
 70
     0
  9
$USERI5
 70
     0
  9
$USERR1
 40
0.0
  9
$USERR2
 40
0.0
  9
$USERR3
 40
0.0
  9
$USERR4
 40
0.0
  9
$USERR5
 40
0.0
  9
$WORLDVIEW
 70
     1
  9
$SHADEDGE
 70
     3
  9
$SHADEDIF
 70
    70
  9
$TILEMODE
 70
     1
  9
$MAXACTVP
 70
    64
  9
$PINSBASE
 10
0.0
 20
0.0
 30
0.0
  9
$PLIMCHECK
 70
     0
  9
$PEXTMIN
 10
1.000000000000000E+20
 20
1.000000000000000E+20
 30
1.000000000000000E+20
  9
$PEXTMAX
 10
-1.000000000000000E+20
 20
-1.000000000000000E+20
 30
-1.000000000000000E+20
  9
$PLIMMIN
 10
0.0
 20
0.0
  9
$PLIMMAX
 10
420.0
 20
297.0
  9
$UNITMODE
 70
     0
  9
$VISRETAIN
 70
     1
  9
$PLINEGEN
 70
     0
  9
$PSLTSCALE
 70
     1
  9
$TREEDEPTH
 70
  3020
  9
$CMLSTYLE
  2
Standard
  9
$CMLJUST
 70
     0
  9
$CMLSCALE
 40
20.0
  9
$PROXYGRAPHICS
 70
     1
  9
$MEASUREMENT
 70
     1
  9
$CELWEIGHT
370
    -1
  9
$ENDCAPS
280
     0
  9
$JOINSTYLE
280
     0
  9
$LWDISPLAY
290
     0
  9
$INSUNITS
 70
     4
  9
$HYPERLINKBASE
  1

  9
$STYLESHEET
  1

  9
$XEDIT
290
     1
  9
$CEPSNTYPE
380
     0
  9
$PSTYLEMODE
290
     1
  9
$FINGERPRINTGUID
  2
{3A1CD93C-85C2-4175-9CA6-FD15690E2186}
  9
$VERSIONGUID
  2
{FAEB1C32-E019-11D5-929B-00C0DF256EC4}
  9
$EXTNAMES
290
     1
  9
$PSVPSCALE
 40
0.0
  9
$OLESTARTUP
290
     0
  9
$SORTENTS
280
   127
  9
$INDEXCTL
280
     0
  9
$HIDETEXT
280
     1
  9
$XCLIPFRAME
280
     2
  9
$HALOGAP
280
     0
  9
$OBSCOLOR
 70
   257
  9
$OBSLTYPE
280
     0
  9
$INTERSECTIONDISPLAY
280
     0
  9
$INTERSECTIONCOLOR
 70
   257
  9
$DIMASSOC
280
     2
  9
$PROJECTNAME
  1

  9
$CAMERADISPLAY
290
     0
  9
$LENSLENGTH
 40
50.0
  9
$CAMERAHEIGHT
 40
0.0
  9
$STEPSPERSEC
 40
2.0
  9
$STEPSIZE
 40
6.0
  9
$3DDWFPREC
 40
2.0
  9
$PSOLWIDTH
 40
5.0
  9
$PSOLHEIGHT
 40
80.0
  9
$LOFTANG1
 40
1.570796326794897
  9
$LOFTANG2
 40
1.570796326794897
  9
$LOFTMAG1
 40
0.0
  9
$LOFTMAG2
 40
0.0
  9
$LOFTPARAM
 70
     7
  9
$LOFTNORMALS
280
     1
  9
$LATITUDE
 40
37.795
  9
$LONGITUDE
 40
-122.394
  9
$NORTHDIRECTION
 40
0.0
  9
$TIMEZONE
 70
 -8000
  9
$LIGHTGLYPHDISPLAY
280
     1
  9
$TILEMODELIGHTSYNCH
280
     1
  9
$SOLIDHIST
280
     1
  9
$SHOWHIST
280
     1
  9
$DWFFRAME
280
     2
  9
$DGNFRAME
280
     2
  9
$REALWORLDSCALE
290
     1
  9
$INTERFERECOLOR
 62
   256
  9
$CSHADOW
280
     0
  9
$SHADOWPLANELOCATION
 40
0.0
  0
ENDSEC
  0
SECTION
  2
CLASSES
  0
CLASS
  1
ACDBDICTIONARYWDFLT
  2
AcDbDictionaryWithDefault
  3
ObjectDBX Classes
 90
        0
 91
        4
280
     0
281
     0
  0
CLASS
  1
VISUALSTYLE
  2
AcDbVisualStyle
  3
ObjectDBX Classes
 90
     4095
 91
        4
280
     0
281
     0
  0
CLASS
  1
MATERIAL
  2
AcDbMaterial
  3
ObjectDBX Classes
 90
     1153
 91
        4
280
     0
281
     0
  0
ENDSEC
  0
SECTION
  2
TABLES
  0
TABLE
  2
VPORT
  5
8
330
0
100
AcDbSymbolTable
 70
     1
  0
VPORT
  5
29
330
8
100
AcDbSymbolTableRecord
100
AcDbViewportTableRecord
  2
*Active
 70
     0
 10
0.0
 20
0.0
 11
1.0
 21
1.0
 12
0.0
 22
0.0
 13
0.0
 23
0.0
 14
10.0
 24
10.0
 15
10.0
 25
10.0
 16
0.0
 26
0.0
 36
1.0
 17
0.0
 27
0.0
 37
0.0
 40
13860.0
 41
1.414285714285714
 42
50.0
 43
0.0
 44
0.0
 50
0.0
 51
0.0
 71
     0
 72
 10000
 73
     1
 74
     3
 75
     0
 76
     0
 77
     0
 78
     0
281
     0
 65
     1
110
0.0
120
0.0
130
0.0
111
1.0
121
0.0
131
0.0
112
0.0
122
1.0
132
0.0
 79
     0
146
0.0
 60
     3
 61
     5
292
     1
282
     1
141
0.0
142
0.0
 63
   250
  0
ENDTAB
  0
TABLE
  2
LTYPE
  5
5
330
0
100
AcDbSymbolTable
 70
     5
  0
LTYPE
  5
14
330
5
100
AcDbSymbolTableRecord
100
AcDbLinetypeTableRecord
  2
ByBlock
 70
     0
  3

 72
    65
 73
     0
 40
0.0
  0
LTYPE
  5
15
330
5
100
AcDbSymbolTableRecord
100
AcDbLinetypeTableRecord
  2
ByLayer
 70
     0
  3

 72
    65
 73
     0
 40
0.0
  0
LTYPE
  5
16
330
5
100
AcDbSymbolTableRecord
100
AcDbLinetypeTableRecord
  2
Continuous
 70
     0
  3
Solid line
 72
    65
 73
     0
 40
0.0
  0
LTYPE
  5
3F
330
5
100
AcDbSymbolTableRecord
100
AcDbLinetypeTableRecord
  2
JWW_HOJO
 70
     0
  3
  -   -   -   -   -   -   -   - 
 72
    65
 73
     2
 40
1.693333333333333
 49
-1.27
 74
     0
 49
0.4233333333333333
 74
     0
  0
LTYPE
  5
40
330
5
100
AcDbSymbolTableRecord
100
AcDbLinetypeTableRecord
  2
JWW_DASHED1
 70
     0
  3
-  --  --  --  --  --  --  --  -
 72
    65
 73
     2
 40
1.693333333333333
 49
0.8466666666666667
 74
     0
 49
-0.8466666666666667
 74
     0
  0
LTYPE
  5
41
330
5
100
AcDbSymbolTableRecord
100
AcDbLinetypeTableRecord
  2
JWW_CENTER1
 70
     0
  3
-----  --  ----------  --  -----
 72
    65
 73
     4
 40
6.773333333333333
 49
4.233333333333333
 74
     0
 49
-0.8466666666666667
 74
     0
 49
0.8466666666666667
 74
     0
 49
-0.8466666666666667
 74
     0
  0
LTYPE
  5
42
330
5
100
AcDbSymbolTableRecord
100
AcDbLinetypeTableRecord
  2
JWW_DASHED2
 70
     0
  3
--    ----    ----    ----    --
 72
    65
 73
     2
 40
3.386666666666667
 49
1.693333333333333
 74
     0
 49
-1.693333333333333
 74
     0
  0
ENDTAB
  0
TABLE
  2
LAYER
  5
2
330
0
100
AcDbSymbolTable
 70
    23
  0
LAYER
  5
10
330
2
100
AcDbSymbolTableRecord
100
AcDbLayerTableRecord
  2
0
 70
     0
 62
     7
  6
Continuous
370
    -3
390
F
347
3E
  0
LAYER
  5
43
330
2
100
AcDbSymbolTableRecord
100
AcDbLayerTableRecord
  2
0-B_寸法
 70
     0
 62
     7
  6
Continuous
370
    -3
390
F
347
3E
  0
LAYER
  5
44
330
2
100
AcDbSymbolTableRecord
100
AcDbLayerTableRecord
  2
F-0_補助線
 70
     0
 62
     7
  6
Continuous
370
    -3
390
F
347
3E
  0
LAYER
  5
45
330
2
100
AcDbSymbolTableRecord
100
AcDbLayerTableRecord
  2
F-1_枠
 70
     0
 62
     7
  6
Continuous
370
    -3
390
F
347
3E
  0
LAYER
  5
46
330
2
100
AcDbSymbolTableRecord
100
AcDbLayerTableRecord
  2
F-A_文字
 70
     0
 62
     7
  6
Continuous
370
    -3
390
F
347
3E
  0
LAYER
  5
47
330
2
100
AcDbSymbolTableRecord
100
AcDbLayerTableRecord
  2
0-A_文字
 70
     0
 62
     7
  6
Continuous
370
    -3
390
F
347
3E
  0
LAYER
  5
48
330
2
100
AcDbSymbolTableRecord
100
AcDbLayerTableRecord
  2
0-3_仕上げ
 70
     0
 62
     7
  6
Continuous
370
    -3
390
F
347
3E
  0
LAYER
  5
49
330
2
100
AcDbSymbolTableRecord
100
AcDbLayerTableRecord
  2
0-6_扉
 70
     0
 62
     7
  6
Continuous
370
    -3
390
F
347
3E
  0
LAYER
  5
4A
330
2
100
AcDbSymbolTableRecord
100
AcDbLayerTableRecord
  2
0-7_金物
 70
     0
 62
     7
  6
Continuous
370
    -3
390
F
347
3E
  0
LAYER
  5
4B
330
2
100
AcDbSymbolTableRecord
100
AcDbLayerTableRecord
  2
0-2_柱
 70
     0
 62
     7
  6
Continuous
370
    -3
390
F
347
3E
  0
LAYER
  5
4C
330
2
100
AcDbSymbolTableRecord
100
AcDbLayerTableRecord
  2
0-C_ハッチ
 70
     0
 62
     7
  6
Continuous
370
    -3
390
F
347
3E
  0
LAYER
  5
4D
330
2
100
AcDbSymbolTableRecord
100
AcDbLayerTableRecord
  2
0-4_枠
 70
     0
 62
     7
  6
Continuous
370
    -3
390
F
347
3E
  0
LAYER
  5
4E
330
2
100
AcDbSymbolTableRecord
100
AcDbLayerTableRecord
  2
0-1_通り芯
 70
     0
 62
     7
  6
Continuous
370
    -3
390
F
347
3E
  0
LAYER
  5
4F
330
2
100
AcDbSymbolTableRecord
100
AcDbLayerTableRecord
  2
0-0_補助線
 70
     0
 62
     7
  6
Continuous
370
    -3
390
F
347
3E
  0
LAYER
  5
50
330
2
100
AcDbSymbolTableRecord
100
AcDbLayerTableRecord
  2
戸当り
 70
     0
 62
     7
  6
Continuous
370
    -3
390
F
347
3E
  0
LAYER
  5
51
330
2
100
AcDbSymbolTableRecord
100
AcDbLayerTableRecord
  2
1-1_通り芯
 70
     0
 62
     7
  6
Continuous
370
    -3
390
F
347
3E
  0
LAYER
  5
52
330
2
100
AcDbSymbolTableRecord
100
AcDbLayerTableRecord
  2
1-3_仕上げ
 70
     0
 62
     7
  6
Continuous
370
    -3
390
F
347
3E
  0
LAYER
  5
53
330
2
100
AcDbSymbolTableRecord
100
AcDbLayerTableRecord
  2
1-0_補助線
 70
     0
 62
     7
  6
Continuous
370
    -3
390
F
347
3E
  0
LAYER
  5
54
330
2
100
AcDbSymbolTableRecord
100
AcDbLayerTableRecord
  2
1-6_扉
 70
     0
 62
     7
  6
Continuous
370
    -3
390
F
347
3E
  0
LAYER
  5
55
330
2
100
AcDbSymbolTableRecord
100
AcDbLayerTableRecord
  2
1-B_寸法
 70
     0
 62
     7
  6
Continuous
370
    -3
390
F
347
3E
  0
LAYER
  5
56
330
2
100
AcDbSymbolTableRecord
100
AcDbLayerTableRecord
  2
1-A_文字
 70
     0
 62
     7
  6
Continuous
370
    -3
390
F
347
3E
  0
LAYER
  5
57
330
2
100
AcDbSymbolTableRecord
100
AcDbLayerTableRecord
  2
1-7_金物
 70
     0
 62
     7
  6
Continuous
370
    -3
390
F
347
3E
  0
LAYER
  5
58
330
2
100
AcDbSymbolTableRecord
100
AcDbLayerTableRecord
  2
1-4_枠
 70
     0
 62
     7
  6
Continuous
370
    -3
390
F
347
3E
  0
ENDTAB
  0
TABLE
  2
STYLE
  5
3
330
0
100
AcDbSymbolTable
 70
     1
  0
STYLE
  5
11
330
3
100
AcDbSymbolTableRecord
100
AcDbTextStyleTableRecord
  2
Standard
 70
     0
 40
0.0
 41
1.0
 50
0.0
 71
     0
 42
2.5
  3
txt
  4

  0
ENDTAB
  0
TABLE
  2
VIEW
  5
6
330
0
100
AcDbSymbolTable
 70
     0
  0
ENDTAB
  0
TABLE
  2
UCS
  5
7
330
0
100
AcDbSymbolTable
 70
     0
  0
ENDTAB
  0
TABLE
  2
APPID
  5
9
330
0
100
AcDbSymbolTable
 70
     1
  0
APPID
  5
12
330
9
100
AcDbSymbolTableRecord
100
AcDbRegAppTableRecord
  2
ACAD
 70
     0
  0
ENDTAB
  0
TABLE
  2
DIMSTYLE
  5
A
330
0
100
AcDbSymbolTable
 70
     1
100
AcDbDimStyleTable
  0
DIMSTYLE
105
27
330
A
100
AcDbSymbolTableRecord
100
AcDbDimStyleTableRecord
  2
ISO-25
 70
     0
 41
2.5
 42
0.625
 43
3.75
 44
1.25
 73
     0
 74
     0
 77
     1
 78
     8
140
2.5
141
2.5
143
0.03937007874016
147
0.625
171
     3
172
     1
178
     0
271
     2
272
     2
274
     3
278
    44
283
     0
284
     8
340
11
  0
ENDTAB
  0
TABLE
  2
BLOCK_RECORD
  5
1
330
0
100
AcDbSymbolTable
 70
     1
  0
BLOCK_RECORD
  5
1F
330
1
100
AcDbSymbolTableRecord
100
AcDbBlockTableRecord
  2
*Model_Space
340
22
 70
     0
280
     1
281
     0
  0
BLOCK_RECORD
  5
1B
330
1
100
AcDbSymbolTableRecord
100
AcDbBlockTableRecord
  2
*Paper_Space
340
1E
 70
     0
280
     1
281
     0
  0
BLOCK_RECORD
  5
23
330
1
100
AcDbSymbolTableRecord
100
AcDbBlockTableRecord
  2
*Paper_Space0
340
26
 70
     0
280
     1
281
     0
  0
ENDTAB
  0
ENDSEC
  0
SECTION
  2
BLOCKS
  0
BLOCK
  5
20
330
1F
100
AcDbEntity
  8
0
100
AcDbBlockBegin
  2
*Model_Space
 70
     0
 10
0.0
 20
0.0
 30
0.0
  3
*Model_Space
  1

  0
ENDBLK
  5
21
330
1F
100
AcDbEntity
  8
0
100
AcDbBlockEnd
  0
BLOCK
  5
1C
330
1B
100
AcDbEntity
 67
     1
  8
0
100
AcDbBlockBegin
  2
*Paper_Space
 70
     0
 10
0.0
 20
0.0
 30
0.0
  3
*Paper_Space
  1

  0
ENDBLK
  5
1D
330
1B
100
AcDbEntity
 67
     1
  8
0
100
AcDbBlockEnd
  0
BLOCK
  5
24
330
23
100
AcDbEntity
  8
0
100
AcDbBlockBegin
  2
*Paper_Space0
 70
     0
 10
0.0
 20
0.0
 30
0.0
  3
*Paper_Space0
  1

  0
ENDBLK
  5
25
330
23
100
AcDbEntity
  8
0
100
AcDbBlockEnd
  0
ENDSEC
  0
SECTION
  2
ENTITIES
  0
MTEXT
  5
59
330
1F
100
AcDbEntity
  8
0-B_寸法
  6
Continuous
 62
     7
370
     0
100
AcDbMText
 10
-4032.448779048271
 20
-868.1051942929796
 30
0.0
 40
91.44
 41
120.0
 46
0.0
 71
     7
 72
     1
  1
{\fＭＳ ゴシック|b0|i0|c128|p49;82}
 73
     1
 44
1.0
  0
MTEXT
  5
5A
330
1F
100
AcDbEntity
  8
0-B_寸法
  6
Continuous
 62
     7
370
   211
100
AcDbMText
 10
2013.458458574403
 20
2428.616816620649
 30
0.0
 40
100.0125
 41
262.5
 46
0.0
 71
     7
 72
     1
  1
{\fＭＳ ゴシック|b0|i0|c128|p49;67.5}
 11
6.123031769111886E-17
 21
1.0
 31
0.0
 73
     1
 44
1.0
  0
LINE
  5
5B
330
1F
100
AcDbEntity
  8
F-0_補助線
  6
JWW_HOJO
 62
   120
370
     5
100
AcDbLine
 10
-6140.081333436773
 20
-4455.0
 30
0.0
 11
-6140.081333436773
 21
4424.999604096284
 31
0.0
  0
LINE
  5
5C
330
1F
100
AcDbEntity
  8
F-0_補助線
  6
JWW_HOJO
 62
   120
370
     5
100
AcDbLine
 10
-6140.081333436773
 20
4424.999604096284
 30
0.0
 11
6159.917676803936
 21
4424.999604096284
 31
0.0
  0
LINE
  5
5D
330
1F
100
AcDbEntity
  8
F-0_補助線
  6
JWW_HOJO
 62
   120
370
     5
100
AcDbLine
 10
6159.917676803936
 20
4424.999604096284
 30
0.0
 11
6159.917676803936
 21
-4455.0
 31
0.0
  0
LINE
  5
5E
330
1F
100
AcDbEntity
  8
F-0_補助線
  6
JWW_HOJO
 62
   120
370
     5
100
AcDbLine
 10
6159.917676803936
 20
-4455.0
 30
0.0
 11
-6140.081333436773
 21
-4455.0
 31
0.0
  0
LINE
  5
5F
330
1F
100
AcDbEntity
  8
F-0_補助線
  6
JWW_HOJO
 62
     7
370
     9
100
AcDbLine
 10
509.9185840832865
 20
-3795.000003092998
 30
0.0
 11
509.9185840832865
 21
-4195.000008247994
 31
0.0
  0
LINE
  5
60
330
1F
100
AcDbEntity
  8
F-1_枠
  6
Continuous
 62
   200
370
    20
100
AcDbLine
 10
5859.917429364114
 20
4174.999769056166
 30
0.0
 11
5859.917429364114
 21
-4205.000164959882
 31
0.0
  0
LINE
  5
61
330
1F
100
AcDbEntity
  8
F-1_枠
  6
Continuous
 62
   200
370
    20
100
AcDbLine
 10
-5840.081317971782
 20
4174.999769056166
 30
0.0
 11
-5840.081317971782
 21
-4205.000164959882
 31
0.0
  0
LINE
  5
62
330
1F
100
AcDbEntity
  8
F-1_枠
  6
Continuous
 62
   200
370
    20
100
AcDbLine
 10
5859.917429364114
 20
-4205.000002577498
 30
0.0
 11
-5840.081085996952
 21
-4205.000002577498
 31
0.0
  0
LINE
  5
63
330
1F
100
AcDbEntity
  8
F-1_枠
  6
Continuous
 62
   200
370
    20
100
AcDbLine
 10
-5830.081323642279
 20
4174.999769056166
 30
0.0
 11
-5830.081323642279
 21
-4205.000164959882
 31
0.0
  0
LINE
  5
64
330
1F
100
AcDbEntity
  8
F-1_枠
  6
Continuous
 62
   200
370
    20
100
AcDbLine
 10
-5835.081309208291
 20
4174.999769056166
 30
0.0
 11
-5835.081309208291
 21
-4205.000164959882
 31
0.0
  0
LINE
  5
65
330
1F
100
AcDbEntity
  8
F-1_枠
  6
Continuous
 62
   200
370
    20
100
AcDbLine
 10
5854.917165428304
 20
4174.999769056166
 30
0.0
 11
5854.917165428304
 21
-4205.000164959882
 31
0.0
  0
LINE
  5
66
330
1F
100
AcDbEntity
  8
F-1_枠
  6
Continuous
 62
   200
370
    20
100
AcDbLine
 10
5849.917643811961
 20
4174.999769056166
 30
0.0
 11
5849.917643811961
 21
-4205.000164959882
 31
0.0
  0
LINE
  5
67
330
1F
100
AcDbEntity
  8
F-1_枠
  6
Continuous
 62
   200
370
    20
100
AcDbLine
 10
5859.917429364114
 20
-4199.999993814004
 30
0.0
 11
-5840.081085996952
 21
-4199.999993814004
 31
0.0
  0
LINE
  5
68
330
1F
100
AcDbEntity
  8
F-1_枠
  6
Continuous
 62
   200
370
    20
100
AcDbLine
 10
5859.917429364114
 20
-4195.000008247994
 30
0.0
 11
-5840.081085996952
 21
-4195.000008247994
 31
0.0
  0
LINE
  5
69
330
1F
100
AcDbEntity
  8
F-1_枠
  6
Continuous
 62
   200
370
    20
100
AcDbLine
 10
4349.917891251784
 20
-3795.000003092998
 30
0.0
 11
4349.917891251784
 21
-4195.000008247994
 31
0.0
  0
LINE
  5
6A
330
1F
100
AcDbEntity
  8
F-1_枠
  6
Continuous
 62
   200
370
    20
100
AcDbLine
 10
2849.917396372139
 20
-3795.000003092998
 30
0.0
 11
2849.917396372139
 21
-4195.000008247994
 31
0.0
  0
LINE
  5
6B
330
1F
100
AcDbEntity
  8
F-1_枠
  6
Continuous
 62
   200
370
    20
100
AcDbLine
 10
9.918542843316231
 20
-3795.000003092998
 30
0.0
 11
9.918542843316231
 21
-4195.000008247994
 31
0.0
  0
LINE
  5
6C
330
1F
100
AcDbEntity
  8
F-1_枠
  6
Continuous
 62
   200
370
    20
100
AcDbLine
 10
9.918542843316231
 20
-3994.999936078046
 30
0.0
 11
5849.917643811961
 21
-3995.005364289155
 31
0.0
  0
LINE
  5
6D
330
1F
100
AcDbEntity
  8
F-1_枠
  6
Continuous
 62
   200
370
    20
100
AcDbLine
 10
-5840.081085996952
 20
4174.999769056166
 30
0.0
 11
5859.917429364114
 21
4174.999769056166
 31
0.0
  0
LINE
  5
6E
330
1F
100
AcDbEntity
  8
F-1_枠
  6
Continuous
 62
   200
370
    20
100
AcDbLine
 10
-5840.081085996952
 20
4164.999983504013
 30
0.0
 11
5859.917429364114
 21
4164.999983504013
 31
0.0
  0
LINE
  5
6F
330
1F
100
AcDbEntity
  8
F-1_枠
  6
Continuous
 62
   200
370
    20
100
AcDbLine
 10
-5840.081085996952
 20
4169.999505120355
 30
0.0
 11
5859.917429364114
 21
4169.999505120355
 31
0.0
  0
LINE
  5
70
330
1F
100
AcDbEntity
  8
F-0_補助線
  6
JWW_HOJO
 62
     7
370
     9
100
AcDbLine
 10
-5830.081323642279
 20
-3994.99993607839
 30
0.0
 11
9.918542843316231
 21
-3994.99993607839
 31
0.0
  0
LINE
  5
71
330
1F
100
AcDbEntity
  8
F-0_補助線
  6
JWW_HOJO
 62
     7
370
     9
100
AcDbLine
 10
-5830.081323642279
 20
-3904.99993607839
 30
0.0
 11
9.918542843316231
 21
-3904.99993607839
 31
0.0
  0
LINE
  5
72
330
1F
100
AcDbEntity
  8
F-0_補助線
  6
JWW_HOJO
 62
     7
370
     9
100
AcDbLine
 10
-5830.081323642279
 20
-4084.99993607839
 30
0.0
 11
9.918542843316231
 21
-4084.99993607839
 31
0.0
  0
LINE
  5
73
330
1F
100
AcDbEntity
  8
F-0_補助線
  6
JWW_HOJO
 62
     7
370
     9
100
AcDbLine
 10
9.918408067688347
 20
-4139.999739777983
 30
0.0
 11
5849.917509036332
 21
-4140.005167989091
 31
0.0
  0
LINE
  5
74
330
1F
100
AcDbEntity
  8
F-0_補助線
  6
JWW_HOJO
 62
     7
370
     9
100
AcDbLine
 10
9.918491721639953
 20
-4049.999739778022
 30
0.0
 11
5849.917592690284
 21
-4050.005167989131
 31
0.0
  0
LINE
  5
75
330
1F
100
AcDbEntity
  8
F-0_補助線
  6
JWW_HOJO
 62
     7
370
     9
100
AcDbLine
 10
9.918593965360003
 20
-3939.99973721807
 30
0.0
 11
5849.917694934004
 21
-3940.005165429179
 31
0.0
  0
LINE
  5
76
330
1F
100
AcDbEntity
  8
F-0_補助線
  6
JWW_HOJO
 62
     7
370
     9
100
AcDbLine
 10
9.918677619311609
 20
-3849.999737218109
 30
0.0
 11
5849.917778587956
 21
-3850.005165429218
 31
0.0
  0
LINE
  5
77
330
1F
100
AcDbEntity
  8
F-0_補助線
  6
JWW_HOJO
 62
     7
370
     9
100
AcDbLine
 10
2939.917396372139
 20
-3795.000003092998
 30
0.0
 11
2939.917396372139
 21
-4195.000008247994
 31
0.0
  0
LINE
  5
78
330
1F
100
AcDbEntity
  8
F-0_補助線
  6
JWW_HOJO
 62
     7
370
     9
100
AcDbLine
 10
99.91854284331623
 20
-3795.000003092998
 30
0.0
 11
99.91854284331623
 21
-4195.000008247994
 31
0.0
  0
LINE
  5
79
330
1F
100
AcDbEntity
  8
F-0_補助線
  6
JWW_HOJO
 62
     7
370
     9
100
AcDbLine
 10
4439.917891251784
 20
-3795.000003092998
 30
0.0
 11
4439.917891251784
 21
-4195.000008247994
 31
0.0
  0
LINE
  5
7A
330
1F
100
AcDbEntity
  8
F-1_枠
  6
Continuous
 62
   200
370
    20
100
AcDbLine
 10
5859.917429364114
 20
-3795.000003092998
 30
0.0
 11
-5840.081085996952
 21
-3795.000003092998
 31
0.0
  0
LINE
  5
7B
330
1F
100
AcDbEntity
  8
F-1_枠
  6
Continuous
 62
   200
370
    20
100
AcDbLine
 10
5859.917429364114
 20
-3790.000017526987
 30
0.0
 11
-5840.081085996952
 21
-3790.000017526987
 31
0.0
  0
LINE
  5
7C
330
1F
100
AcDbEntity
  8
F-0_補助線
  6
JWW_HOJO
 62
     7
370
     9
100
AcDbLine
 10
-5087.628710189611
 20
-3795.000003092999
 30
0.0
 11
-5087.628710189611
 21
-4205.000164959882
 31
0.0
  0
LINE
  5
7D
330
1F
100
AcDbEntity
  8
F-0_補助線
  6
JWW_HOJO
 62
     7
370
     9
100
AcDbLine
 10
-50.08145715668377
 20
-3795.000003092998
 30
0.0
 11
-50.08145715668377
 21
-4195.000008247994
 31
0.0
  0
MTEXT
  5
7E
330
1F
100
AcDbEntity
  8
F-A_文字
  6
Continuous
 62
     7
370
     0
100
AcDbMText
 10
99.91854284331623
 20
-3887.139820871936
 30
0.0
 40
45.72
 41
180.0
 46
0.0
 71
     7
 72
     1
  1
{\fＭＳ ゴシック|b0|i0|c128|p49;図面名}
 73
     1
 44
1.0
  0
MTEXT
  5
7F
330
1F
100
AcDbEntity
  8
F-A_文字
  6
Continuous
 62
     7
370
     0
100
AcDbMText
 10
2939.917396372139
 20
-3887.142460617774
 30
0.0
 40
45.72
 41
300.0
 46
0.0
 71
     7
 72
     1
  1
{\fＭＳ ゴシック|b0|i0|c128|p49;ＳＣＡＬＥ}
 73
     1
 44
1.0
  0
MTEXT
  5
80
330
1F
100
AcDbEntity
  8
F-A_文字
  6
Continuous
 62
     7
370
     0
100
AcDbMText
 10
4439.917891251784
 20
-3887.143854850754
 30
0.0
 40
45.72
 41
240.0
 46
0.0
 71
     7
 72
     1
  1
{\fＭＳ ゴシック|b0|i0|c128|p49;ＤＡＴＥ}
 73
     1
 44
1.0
  0
MTEXT
  5
81
330
1F
100
AcDbEntity
  8
F-A_文字
  6
Continuous
 62
     7
370
     0
100
AcDbMText
 10
3569.917643811961
 20
-3946.903115907308
 30
0.0
 40
76.19999999999999
 41
150.0
 46
0.0
 71
     7
 72
     1
  1
{\fＭＳ ゴシック|b0|i0|c128|p49;1/5}
 73
     1
 44
1.0
  0
MTEXT
  5
82
330
1F
100
AcDbEntity
  8
F-A_文字
  6
Continuous
 62
     7
370
     0
100
AcDbMText
 10
2939.917396372139
 20
-4087.14246317786
 30
0.0
 40
45.72
 41
240.0
 46
0.0
 71
     7
 72
     1
  1
{\fＭＳ ゴシック|b0|i0|c128|p49;ＦＩＬＥ}
 73
     1
 44
1.0
  0
MTEXT
  5
83
330
1F
100
AcDbEntity
  8
F-A_文字
  6
Continuous
 62
     7
370
     0
100
AcDbMText
 10
4439.917891251784
 20
-4087.143857410839
 30
0.0
 40
45.72
 41
180.0
 46
0.0
 71
     7
 72
     1
  1
{\fＭＳ ゴシック|b0|i0|c128|p49;ＮＯ．}
 73
     1
 44
1.0
  0
MTEXT
  5
84
330
1F
100
AcDbEntity
  8
F-A_文字
  6
Continuous
 62
     7
370
     0
100
AcDbMText
 10
1394.917396372138
 20
-4096.140669266149
 30
0.0
 40
45.72
 41
120.0
 46
0.0
 71
     7
 72
     1
  1
{\fＭＳ ゴシック|b0|i0|c128|p49;株式}
 73
     1
 44
1.0
  0
MTEXT
  5
85
330
1F
100
AcDbEntity
  8
F-A_文字
  6
Continuous
 62
     7
370
     0
100
AcDbMText
 10
1604.917396372138
 20
-4164.281754523929
 30
0.0
 40
101.44125
 41
1065.0
 46
0.0
 71
     7
 72
     1
  1
{\fＭＳ ゴシック|b0|i0|c128|p49;ウッドワン・・・}
 73
     1
 44
1.0
  0
MTEXT
  5
86
330
1F
100
AcDbEntity
  8
F-A_文字
  6
Continuous
 62
     7
370
     0
100
AcDbMText
 10
1394.917396372138
 20
-4168.140669266187
 30
0.0
 40
45.72
 41
120.0
 46
0.0
 71
     7
 72
     1
  1
{\fＭＳ ゴシック|b0|i0|c128|p49;会社}
 73
     1
 44
1.0
  0
MTEXT
  5
87
330
1F
100
AcDbEntity
  8
F-A_文字
  6
Continuous
 62
     7
370
     0
100
AcDbMText
 10
5768.321977672939
 20
-4314.841419020919
 30
0.0
 40
68.58
 41
90.0
 46
0.0
 71
     7
 72
     1
  1
{\fＭＳ ゴシック|b0|i0|c128|p49;）}
 73
     1
 44
1.0
  0
MTEXT
  5
88
330
1F
100
AcDbEntity
  8
F-A_文字
  6
Continuous
 62
     7
370
     0
100
AcDbMText
 10
5350.114617405298
 20
-4316.235443869856
 30
0.0
 40
68.58
 41
45.0
 46
0.0
 71
     7
 72
     1
  1
{\fＭＳ ゴシック|b0|i0|c128|p49;,}
 73
     1
 44
1.0
  0
MTEXT
  5
89
330
1F
100
AcDbEntity
  8
F-A_文字
  6
Continuous
 62
     7
370
     0
100
AcDbMText
 10
5083.855928478601
 20
-4314.771967288282
 30
0.0
 40
74.295
 41
97.5
 46
0.0
 71
     7
 72
     1
  1
{\fＭＳ ゴシック|b0|i0|c128|p49;$y}
 73
     1
 44
1.0
  0
MTEXT
  5
8A
330
1F
100
AcDbEntity
  8
F-A_文字
  6
Continuous
 62
     7
370
     0
100
AcDbMText
 10
5238.592649517422
 20
-4314.771967288282
 30
0.0
 40
74.295
 41
97.5
 46
0.0
 71
     7
 72
     1
  1
{\fＭＳ ゴシック|b0|i0|c128|p49;$m}
 73
     1
 44
1.0
  0
MTEXT
  5
8B
330
1F
100
AcDbEntity
  8
F-A_文字
  6
Continuous
 62
     7
370
     0
100
AcDbMText
 10
5393.32938200033
 20
-4314.771967288282
 30
0.0
 40
74.295
 41
97.5
 46
0.0
 71
     7
 72
     1
  1
{\fＭＳ ゴシック|b0|i0|c128|p49;$d}
 73
     1
 44
1.0
  0
MTEXT
  5
8C
330
1F
100
AcDbEntity
  8
F-A_文字
  6
Continuous
 62
     7
370
     0
100
AcDbMText
 10
5548.066114483239
 20
-4314.771967288282
 30
0.0
 40
74.295
 41
195.0
 46
0.0
 71
     7
 72
     1
  1
{\fＭＳ ゴシック|b0|i0|c128|p49;印刷}
 73
     1
 44
1.0
  0
MTEXT
  5
8D
330
1F
100
AcDbEntity
  8
F-A_文字
  6
Continuous
 62
     7
370
     0
100
AcDbMText
 10
4943.952040816226
 20
-4319.023493567732
 30
0.0
 40
68.58
 41
90.0
 46
0.0
 71
     7
 72
     1
  1
{\fＭＳ ゴシック|b0|i0|c128|p49;（}
 73
     1
 44
1.0
  0
MTEXT
  5
8E
330
1F
100
AcDbEntity
  8
F-A_文字
  6
Continuous
 62
     7
370
     0
100
AcDbMText
 10
5191.195810375571
 20
-4319.023493567732
 30
0.0
 40
68.58
 41
45.0
 46
0.0
 71
     7
 72
     1
  1
{\fＭＳ ゴシック|b0|i0|c128|p49;,}
 73
     1
 44
1.0
  0
MTEXT
  5
8F
330
1F
100
AcDbEntity
  8
0-A_文字
  6
Continuous
 62
     7
370
     9
100
AcDbMText
 10
1860.48356927678
 20
977.8696972528886
 30
0.0
 40
78.58125
 41
825.0
 46
0.0
 71
     7
 72
     1
  1
{\fＭＳ ゴシック|b0|i0|c128|p49;※図示：左引き手}
 73
     1
 44
1.0
  0
MTEXT
  5
90
330
1F
100
AcDbEntity
  8
0-A_文字
  6
Continuous
 62
     7
370
     9
100
AcDbMText
 10
1860.48356927678
 20
873.3799651100315
 30
0.0
 40
79.60178571428573
 41
2925.0
 46
0.0
 71
     7
 72
     1
  1
{\fＭＳ ゴシック|b0|i0|c128|p49;※大型サムターン表示錠使用時は、引戸引き残しストッパーを}
 73
     1
 44
1.0
  0
MTEXT
  5
91
330
1F
100
AcDbEntity
  8
0-A_文字
  6
Continuous
 62
     7
370
     9
100
AcDbMText
 10
1860.48356927678
 20
768.3835459370991
 30
0.0
 40
79.60894736842104
 41
2977.5
 46
0.0
 71
     7
 72
     1
  1
{\fＭＳ ゴシック|b0|i0|c128|p49;　ご使用ください。ただし、有効開口は102ミリ狭くなります。}
 73
     1
 44
1.0
  0
LINE
  5
92
330
1F
100
AcDbEntity
  8
0-A_文字
  6
Continuous
 62
    92
370
    13
100
AcDbLine
 10
-5659.999495325861
 20
3730.00018145587
 30
0.0
 11
-5659.999495325861
 21
4000.00018145587
 31
0.0
  0
LINE
  5
93
330
1F
100
AcDbEntity
  8
0-A_文字
  6
JWW_HOJO
 62
   120
370
     5
100
AcDbLine
 10
-6140.081333436773
 20
2438.999683277028
 30
0.0
 11
6159.917676803938
 21
2438.999683277028
 31
0.0
  0
LINE
  5
94
330
1F
100
AcDbEntity
  8
0-A_文字
  6
JWW_HOJO
 62
   120
370
     5
100
AcDbLine
 10
-6140.081333436773
 20
194.9998020481414
 30
0.0
 11
6159.917676803938
 21
194.9998020481414
 31
0.0
  0
LINE
  5
95
330
1F
100
AcDbEntity
  8
0-A_文字
  6
JWW_HOJO
 62
   120
370
     5
100
AcDbLine
 10
-5659.999495325861
 20
4424.999604096284
 30
0.0
 11
-5659.999495325861
 21
-4455.000000000002
 31
0.0
  0
LINE
  5
96
330
1F
100
AcDbEntity
  8
0-A_文字
  6
JWW_HOJO
 62
   120
370
     5
100
AcDbLine
 10
-6140.081333436773
 20
-3159.000197951857
 30
0.0
 11
6159.917676803938
 21
-3159.000197951857
 31
0.0
  0
LINE
  5
97
330
1F
100
AcDbEntity
  8
0-A_文字
  6
JWW_HOJO
 62
   120
370
     5
100
AcDbLine
 10
-6140.081333436773
 20
3730.000181455871
 30
0.0
 11
6159.917676803938
 21
3730.000181455871
 31
0.0
  0
LINE
  5
98
330
1F
100
AcDbEntity
  8
0-A_文字
  6
JWW_HOJO
 62
   120
370
     5
100
AcDbLine
 10
-6140.081333436773
 20
4000.000181455871
 30
0.0
 11
6159.917676803938
 21
4000.000181455871
 31
0.0
  0
LINE
  5
99
330
1F
100
AcDbEntity
  8
0-A_文字
  6
JWW_HOJO
 62
   120
370
     5
100
AcDbLine
 10
9.91817168358267
 20
-4455.000000000002
 30
0.0
 11
9.91817168358267
 21
4424.999604096284
 31
0.0
  0
LINE
  5
9A
330
1F
100
AcDbEntity
  8
0-A_文字
  6
JWW_HOJO
 62
   120
370
     5
100
AcDbLine
 10
5679.835838693025
 20
4424.999604096284
 30
0.0
 11
5679.835838693025
 21
-4455.000000000002
 31
0.0
  0
LINE
  5
9B
330
1F
100
AcDbEntity
  8
0-A_文字
  6
JWW_HOJO
 62
   120
370
     5
100
AcDbLine
 10
-200.0818283164173
 20
-4455.000000000002
 30
0.0
 11
-200.0818283164173
 21
194.9998020481414
 31
0.0
  0
LINE
  5
9C
330
1F
100
AcDbEntity
  8
0-A_文字
  6
JWW_HOJO
 62
   120
370
     5
100
AcDbLine
 10
219.9181716835827
 20
-4455.000000000002
 30
0.0
 11
219.9181716835827
 21
194.9998020481414
 31
0.0
  0
LINE
  5
9D
330
1F
100
AcDbEntity
  8
0-3_仕上げ
  6
Continuous
 62
    40
370
    15
100
AcDbLine
 10
3046.034307564338
 20
2303.999683277028
 30
0.0
 11
1161.976499435778
 21
2303.999683277028
 31
0.0
  0
LWPOLYLINE
  5
9E
330
1F
100
AcDbEntity
  8
0-B_寸法
  6
Continuous
 62
     7
370
     9
100
AcDbPolyline
 90
        4
 70
     1
 43
3.0
 10
-2244.698112661065
 20
1509.999683277027
 42
0.4142135623731
 10
-2246.198112661064
 20
1511.499683277027
 42
0.4142135623731
 10
-2247.698112661064
 20
1509.999683277027
 42
0.4142135623731
 10
-2246.198112661064
 20
1508.499683277027
 42
0.4142135623731
  0
LINE
  5
9F
330
1F
100
AcDbEntity
  8
0-B_寸法
  6
Continuous
 62
   120
370
     5
100
AcDbLine
 10
-2246.198112661064
 20
1509.999683277027
 30
0.0
 11
-2246.198112661064
 21
1899.999683277026
 31
0.0
  0
LWPOLYLINE
  5
A0
330
1F
100
AcDbEntity
  8
0-B_寸法
  6
Continuous
 62
     7
370
     9
100
AcDbPolyline
 90
        4
 70
     1
 43
3.0
 10
-2424.698112661065
 20
1299.999683277027
 42
0.4142135623731
 10
-2426.198112661064
 20
1301.499683277027
 42
0.4142135623731
 10
-2427.698112661064
 20
1299.999683277027
 42
0.4142135623731
 10
-2426.198112661064
 20
1298.499683277027
 42
0.4142135623731
  0
LWPOLYLINE
  5
A1
330
1F
100
AcDbEntity
  8
0-B_寸法
  6
Continuous
 62
     7
370
     9
100
AcDbPolyline
 90
        4
 70
     1
 43
3.0
 10
-2244.698261124959
 20
1299.999683277027
 42
0.4142135623731
 10
-2246.198261124959
 20
1301.499683277027
 42
0.4142135623731
 10
-2247.698261124958
 20
1299.999683277027
 42
0.4142135623731
 10
-2246.198261124959
 20
1298.499683277027
 42
0.4142135623731
  0
LWPOLYLINE
  5
A2
330
1F
100
AcDbEntity
  8
0-B_寸法
  6
Continuous
 62
     7
370
     9
100
AcDbPolyline
 90
        4
 70
     1
 43
3.0
 10
-2424.698112661065
 20
1089.999683277027
 42
0.4142135623731
 10
-2426.198112661064
 20
1091.499683277027
 42
0.4142135623731
 10
-2427.698112661064
 20
1089.999683277027
 42
0.4142135623731
 10
-2426.198112661064
 20
1088.499683277027
 42
0.4142135623731
  0
LINE
  5
A3
330
1F
100
AcDbEntity
  8
0-B_寸法
  6
Continuous
 62
   120
370
     5
100
AcDbLine
 10
-2426.198112661064
 20
1089.999683277027
 30
0.0
 11
-2426.198112661064
 21
1899.999683277026
 31
0.0
  0
LINE
  5
A4
330
1F
100
AcDbEntity
  8
0-B_寸法
  6
Continuous
 62
   120
370
     5
100
AcDbLine
 10
-2246.198261124959
 20
1299.999683277027
 30
0.0
 11
-2246.198261124959
 21
1899.999683277026
 31
0.0
  0
LWPOLYLINE
  5
A5
330
1F
100
AcDbEntity
  8
0-6_扉
  6
Continuous
 62
     7
370
     9
100
AcDbPolyline
 90
        4
 70
     1
 43
3.0
 10
-2424.698112661065
 20
1089.999683277027
 42
0.4142135623731
 10
-2426.198112661064
 20
1091.499683277027
 42
0.4142135623731
 10
-2427.698112661064
 20
1089.999683277027
 42
0.4142135623731
 10
-2426.198112661064
 20
1088.499683277027
 42
0.4142135623731
  0
LINE
  5
A6
330
1F
100
AcDbEntity
  8
0-6_扉
  6
Continuous
 62
   120
370
     5
100
AcDbLine
 10
-2426.198112661064
 20
1089.999683277027
 30
0.0
 11
-2426.198112661064
 21
1899.999683277026
 31
0.0
  0
ARC
  5
A7
330
1F
100
AcDbEntity
  8
0-7_金物
  6
Continuous
 62
     7
370
     9
100
AcDbCircle
 10
-2446.905456418604
 20
2552.999683310523
 30
0.0
 40
188.167407989502
100
AcDbArc
 50
346.1637114550782
 51
13.83631887695315
  0
LINE
  5
A8
330
1F
100
AcDbEntity
  8
0-7_金物
  6
Continuous
 62
     7
370
     9
100
AcDbLine
 10
-2282.198112641619
 20
2567.999683053597
 30
0.0
 11
-2312.198112105857
 21
2567.99968329134
 31
0.0
  0
LINE
  5
A9
330
1F
100
AcDbEntity
  8
0-7_金物
  6
Continuous
 62
     7
370
     9
100
AcDbLine
 10
-2312.198112343941
 20
2537.999683712552
 30
0.0
 11
-2312.198112105857
 21
2567.99968329134
 31
0.0
  0
LINE
  5
AA
330
1F
100
AcDbEntity
  8
0-7_金物
  6
Continuous
 62
     7
370
     9
100
AcDbLine
 10
-2282.198112650599
 20
2537.999683474123
 30
0.0
 11
-2312.198112343941
 21
2537.999683712552
 31
0.0
  0
LINE
  5
AB
330
1F
100
AcDbEntity
  8
0-7_金物
  6
Continuous
 62
     7
370
     9
100
AcDbLine
 10
-2264.198111970363
 20
2597.999682201379
 30
0.0
 11
-2282.198112631155
 21
2597.999684063583
 31
0.0
  0
LINE
  5
AC
330
1F
100
AcDbEntity
  8
0-7_金物
  6
Continuous
 62
     7
370
     9
100
AcDbLine
 10
-2282.198112661063
 20
2507.999682464137
 30
0.0
 11
-2282.198112631155
 21
2597.999684063583
 31
0.0
  0
LINE
  5
AD
330
1F
100
AcDbEntity
  8
0-7_金物
  6
Continuous
 62
     7
370
     9
100
AcDbLine
 10
-2264.198112684619
 20
2507.999683465015
 30
0.0
 11
-2282.198112661063
 21
2507.999682464137
 31
0.0
  0
LINE
  5
AE
330
1F
100
AcDbEntity
  8
0-6_扉
  6
Continuous
 62
   200
370
    20
100
AcDbLine
 10
-2264.198112661065
 20
2462.999683277028
 30
0.0
 11
-2264.198112661065
 21
2642.999683277028
 31
0.0
  0
LINE
  5
AF
330
1F
100
AcDbEntity
  8
0-2_柱
  6
Continuous
 62
    92
370
    13
100
AcDbLine
 10
-2426.198112661044
 20
2303.999683277024
 30
0.0
 11
-2426.198112661044
 21
2573.999683277033
 31
0.0
  0
LINE
  5
B0
330
1F
100
AcDbEntity
  8
0-C_ハッチ
  6
JWW_DASHED1
 62
   120
370
     5
100
AcDbLine
 10
-2434.158002484789
 20
2228.999683277039
 30
0.0
 11
-2426.198112661061
 21
2236.959573100764
 31
0.0
  0
LINE
  5
B1
330
1F
100
AcDbEntity
  8
0-C_ハッチ
  6
JWW_DASHED1
 62
   120
370
     5
100
AcDbLine
 10
-2450.406919295084
 20
2573.999683277033
 30
0.0
 11
-2426.198112661061
 21
2598.208489911057
 31
0.0
  0
LINE
  5
B2
330
1F
100
AcDbEntity
  8
0-C_ハッチ
  6
JWW_DASHED1
 62
   120
370
     5
100
AcDbLine
 10
-2519.010816227186
 20
2228.999683277039
 30
0.0
 11
-2444.010816227186
 21
2303.999683277039
 31
0.0
  0
LINE
  5
B3
330
1F
100
AcDbEntity
  8
0-C_ハッチ
  6
JWW_DASHED1
 62
   120
370
     5
100
AcDbLine
 10
-2535.259733037487
 20
2573.999683277024
 30
0.0
 11
-2460.259733037477
 21
2648.999683277033
 31
0.0
  0
LINE
  5
B4
330
1F
100
AcDbEntity
  8
0-3_仕上げ
  6
Continuous
 62
    40
370
    15
100
AcDbLine
 10
-2426.198112661061
 20
2228.999683277039
 30
0.0
 11
-3026.198112661063
 21
2228.999683277039
 31
0.0
  0
LINE
  5
B5
330
1F
100
AcDbEntity
  8
0-C_ハッチ
  6
JWW_DASHED1
 62
   120
370
     5
100
AcDbLine
 10
-2492.833326166277
 20
2573.999683277036
 30
0.0
 11
-2426.198112661061
 21
2640.63489678225
 31
0.0
  0
LINE
  5
B6
330
1F
100
AcDbEntity
  8
0-3_仕上げ
  6
Continuous
 62
    40
370
    15
100
AcDbLine
 10
-2426.198112661061
 20
2303.999683277039
 30
0.0
 11
-3026.198112661063
 21
2303.999683277039
 31
0.0
  0
LINE
  5
B7
330
1F
100
AcDbEntity
  8
0-3_仕上げ
  6
Continuous
 62
    40
370
    15
100
AcDbLine
 10
-2426.198112661061
 20
2573.999683277033
 30
0.0
 11
-3026.198112661063
 21
2573.999683277033
 31
0.0
  0
LINE
  5
B8
330
1F
100
AcDbEntity
  8
0-C_ハッチ
  6
JWW_DASHED1
 62
   120
370
     5
100
AcDbLine
 10
-2476.584409355976
 20
2228.999683277053
 30
0.0
 11
-2426.198112661061
 21
2279.385979971947
 31
0.0
  0
LINE
  5
B9
330
1F
100
AcDbEntity
  8
0-3_仕上げ
  6
Continuous
 62
    40
370
    15
100
AcDbLine
 10
-2426.198112661061
 20
2648.999683277033
 30
0.0
 11
-3026.198112661063
 21
2648.999683277033
 31
0.0
  0
LINE
  5
BA
330
1F
100
AcDbEntity
  8
0-C_ハッチ
  6
JWW_DASHED1
 62
   120
370
     5
100
AcDbLine
 10
-2561.437223098386
 20
2228.999683277043
 30
0.0
 11
-2486.437223098373
 21
2303.999683277053
 31
0.0
  0
LINE
  5
BB
330
1F
100
AcDbEntity
  8
0-C_ハッチ
  6
JWW_DASHED1
 62
   120
370
     5
100
AcDbLine
 10
-2603.863629969596
 20
2228.999683277033
 30
0.0
 11
-2528.8636299696
 21
2303.999683277026
 31
0.0
  0
LINE
  5
BC
330
1F
100
AcDbEntity
  8
0-C_ハッチ
  6
JWW_DASHED1
 62
   120
370
     5
100
AcDbLine
 10
-2646.290036840796
 20
2228.999683277029
 30
0.0
 11
-2571.2900368408
 21
2303.999683277029
 31
0.0
  0
LINE
  5
BD
330
1F
100
AcDbEntity
  8
0-C_ハッチ
  6
JWW_DASHED1
 62
   120
370
     5
100
AcDbLine
 10
-2688.71644371199
 20
2228.999683277033
 30
0.0
 11
-2613.716443711996
 21
2303.999683277033
 31
0.0
  0
LINE
  5
BE
330
1F
100
AcDbEntity
  8
0-C_ハッチ
  6
JWW_DASHED1
 62
   120
370
     5
100
AcDbLine
 10
-2731.14285058319
 20
2228.999683277036
 30
0.0
 11
-2656.14285058319
 21
2303.999683277033
 31
0.0
  0
LINE
  5
BF
330
1F
100
AcDbEntity
  8
0-C_ハッチ
  6
JWW_DASHED1
 62
   120
370
     5
100
AcDbLine
 10
-2773.569257454328
 20
2228.999683277043
 30
0.0
 11
-2698.569257454332
 21
2303.999683277039
 31
0.0
  0
LINE
  5
C0
330
1F
100
AcDbEntity
  8
0-C_ハッチ
  6
JWW_DASHED1
 62
   120
370
     5
100
AcDbLine
 10
-2815.995664325521
 20
2228.999683277046
 30
0.0
 11
-2740.995664325528
 21
2303.999683277043
 31
0.0
  0
LINE
  5
C1
330
1F
100
AcDbEntity
  8
0-C_ハッチ
  6
JWW_DASHED1
 62
   120
370
     5
100
AcDbLine
 10
-2858.422071196737
 20
2228.999683277033
 30
0.0
 11
-2783.422071196725
 21
2303.999683277046
 31
0.0
  0
LINE
  5
C2
330
1F
100
AcDbEntity
  8
0-C_ハッチ
  6
JWW_DASHED1
 62
   120
370
     5
100
AcDbLine
 10
-2900.84847806794
 20
2228.999683277033
 30
0.0
 11
-2825.848478067928
 21
2303.999683277043
 31
0.0
  0
LINE
  5
C3
330
1F
100
AcDbEntity
  8
0-C_ハッチ
  6
JWW_DASHED1
 62
   120
370
     5
100
AcDbLine
 10
-2943.274884939137
 20
2228.999683277036
 30
0.0
 11
-2868.274884939144
 21
2303.999683277031
 31
0.0
  0
LINE
  5
C4
330
1F
100
AcDbEntity
  8
0-C_ハッチ
  6
JWW_DASHED1
 62
   120
370
     5
100
AcDbLine
 10
-2985.701291810347
 20
2228.999683277026
 30
0.0
 11
-2910.701291810351
 21
2303.999683277022
 31
0.0
  0
LINE
  5
C5
330
1F
100
AcDbEntity
  8
0-C_ハッチ
  6
JWW_DASHED1
 62
   120
370
     5
100
AcDbLine
 10
-3026.198112661049
 20
2230.929269297523
 30
0.0
 11
-2953.127698681547
 21
2303.999683277026
 31
0.0
  0
LINE
  5
C6
330
1F
100
AcDbEntity
  8
0-C_ハッチ
  6
JWW_DASHED1
 62
   120
370
     5
100
AcDbLine
 10
-3026.198112661049
 20
2273.355676168723
 30
0.0
 11
-2995.554105552747
 21
2303.999683277029
 31
0.0
  0
LINE
  5
C7
330
1F
100
AcDbEntity
  8
0-C_ハッチ
  6
JWW_DASHED1
 62
   120
370
     5
100
AcDbLine
 10
-2577.686139908681
 20
2573.999683277026
 30
0.0
 11
-2502.686139908674
 21
2648.999683277038
 31
0.0
  0
LINE
  5
C8
330
1F
100
AcDbEntity
  8
0-C_ハッチ
  6
JWW_DASHED1
 62
   120
370
     5
100
AcDbLine
 10
-2620.112546779884
 20
2573.999683277026
 30
0.0
 11
-2545.112546779887
 21
2648.999683277024
 31
0.0
  0
LINE
  5
C9
330
1F
100
AcDbEntity
  8
0-C_ハッチ
  6
JWW_DASHED1
 62
   120
370
     5
100
AcDbLine
 10
-2662.538953651081
 20
2573.999683277031
 30
0.0
 11
-2587.538953651084
 21
2648.999683277026
 31
0.0
  0
LINE
  5
CA
330
1F
100
AcDbEntity
  8
0-C_ハッチ
  6
JWW_DASHED1
 62
   120
370
     5
100
AcDbLine
 10
-2704.965360522223
 20
2573.999683277038
 30
0.0
 11
-2629.965360522223
 21
2648.999683277033
 31
0.0
  0
LINE
  5
CB
330
1F
100
AcDbEntity
  8
0-C_ハッチ
  6
JWW_DASHED1
 62
   120
370
     5
100
AcDbLine
 10
-2747.391767393416
 20
2573.999683277039
 30
0.0
 11
-2672.391767393419
 21
2648.999683277038
 31
0.0
  0
LINE
  5
CC
330
1F
100
AcDbEntity
  8
0-C_ハッチ
  6
JWW_DASHED1
 62
   120
370
     5
100
AcDbLine
 10
-2789.818174264612
 20
2573.999683277043
 30
0.0
 11
-2714.818174264619
 21
2648.999683277039
 31
0.0
  0
LINE
  5
CD
330
1F
100
AcDbEntity
  8
0-C_ハッチ
  6
JWW_DASHED1
 62
   120
370
     5
100
AcDbLine
 10
-2832.244581135826
 20
2573.999683277029
 30
0.0
 11
-2757.244581135812
 21
2648.999683277043
 31
0.0
  0
LINE
  5
CE
330
1F
100
AcDbEntity
  8
0-C_ハッチ
  6
JWW_DASHED1
 62
   120
370
     5
100
AcDbLine
 10
-2874.670988007028
 20
2573.999683277026
 30
0.0
 11
-2799.670988007019
 21
2648.999683277038
 31
0.0
  0
LINE
  5
CF
330
1F
100
AcDbEntity
  8
0-C_ハッチ
  6
JWW_DASHED1
 62
   120
370
     5
100
AcDbLine
 10
-2917.097394878242
 20
2573.999683277019
 30
0.0
 11
-2842.097394878242
 21
2648.999683277017
 31
0.0
  0
LINE
  5
D0
330
1F
100
AcDbEntity
  8
0-C_ハッチ
  6
JWW_DASHED1
 62
   120
370
     5
100
AcDbLine
 10
-2959.523801749438
 20
2573.999683277022
 30
0.0
 11
-2884.523801749442
 21
2648.999683277019
 31
0.0
  0
LINE
  5
D1
330
1F
100
AcDbEntity
  8
0-C_ハッチ
  6
JWW_DASHED1
 62
   120
370
     5
100
AcDbLine
 10
-3001.950208620635
 20
2573.999683277024
 30
0.0
 11
-2926.950208620638
 21
2648.999683277019
 31
0.0
  0
LINE
  5
D2
330
1F
100
AcDbEntity
  8
0-C_ハッチ
  6
JWW_DASHED1
 62
   120
370
     5
100
AcDbLine
 10
-3026.198112661056
 20
2592.178186107748
 30
0.0
 11
-2969.376615491773
 21
2648.999683277026
 31
0.0
  0
LINE
  5
D3
330
1F
100
AcDbEntity
  8
0-C_ハッチ
  6
JWW_DASHED1
 62
   120
370
     5
100
AcDbLine
 10
-3026.198112661059
 20
2634.604592978946
 30
0.0
 11
-3011.803022362973
 21
2648.999683277031
 31
0.0
  0
LINE
  5
D4
330
1F
100
AcDbEntity
  8
0-2_柱
  6
Continuous
 62
     7
370
     9
100
AcDbLine
 10
-2696.198112661051
 20
2303.999683277039
 30
0.0
 11
-2426.198112661044
 21
2573.999683277033
 31
0.0
  0
LINE
  5
D5
330
1F
100
AcDbEntity
  8
0-2_柱
  6
Continuous
 62
    92
370
    13
100
AcDbLine
 10
-2696.198112661051
 20
2303.999683277039
 30
0.0
 11
-2696.198112661051
 21
2573.999683277033
 31
0.0
  0
LINE
  5
D6
330
1F
100
AcDbEntity
  8
0-C_ハッチ
  6
Continuous
 62
   120
370
     5
100
AcDbLine
 10
-2423.198112661047
 20
2205.727328455028
 30
0.0
 11
-2249.197677785559
 21
2379.727763330521
 31
0.0
  0
LINE
  5
D7
330
1F
100
AcDbEntity
  8
0-C_ハッチ
  6
Continuous
 62
   120
370
     5
100
AcDbLine
 10
-2338.132253475242
 20
2171.99924840154
 30
0.0
 11
-2249.197677785559
 21
2260.933824091223
 31
0.0
  0
LINE
  5
D8
330
1F
100
AcDbEntity
  8
0-C_ハッチ
  6
Continuous
 62
   120
370
     5
100
AcDbLine
 10
-2278.73528385554
 20
2171.99924840154
 30
0.0
 11
-2249.197677785559
 21
2201.536854471521
 31
0.0
  0
LINE
  5
D9
330
1F
100
AcDbEntity
  8
0-C_ハッチ
  6
Continuous
 62
   120
370
     5
100
AcDbLine
 10
-2397.529223094889
 20
2171.99924840154
 30
0.0
 11
-2249.197677785559
 21
2320.33079371087
 31
0.0
  0
LINE
  5
DA
330
1F
100
AcDbEntity
  8
0-C_ハッチ
  6
Continuous
 62
   120
370
     5
100
AcDbLine
 10
-2426.198112661048
 20
2262.124298074731
 30
0.0
 11
-2261.322727458752
 21
2426.999683277026
 31
0.0
  0
LINE
  5
DB
330
1F
100
AcDbEntity
  8
0-C_ハッチ
  6
Continuous
 62
   120
370
     5
100
AcDbLine
 10
-2426.198112661058
 20
2499.712176553418
 30
0.0
 11
-2285.198112661043
 21
2640.71217655343
 31
0.0
  0
LINE
  5
DC
330
1F
100
AcDbEntity
  8
0-4_枠
  6
Continuous
 62
    92
370
    13
100
AcDbLine
 10
-2249.197677785559
 20
2180.484529775777
 30
0.0
 11
-2249.197677785559
 21
2426.999683277026
 31
0.0
  0
LINE
  5
DD
330
1F
100
AcDbEntity
  8
0-4_枠
  6
Continuous
 62
    92
370
    13
100
AcDbLine
 10
-2246.198112661044
 20
2177.484964651265
 30
0.0
 11
-2246.198112661044
 21
2429.999683277027
 31
0.0
  0
LINE
  5
DE
330
1F
100
AcDbEntity
  8
0-4_枠
  6
Continuous
 62
    92
370
    13
100
AcDbLine
 10
-2426.198112661044
 20
2168.999683277028
 30
0.0
 11
-2426.198112661044
 21
2708.999683277028
 31
0.0
  0
LINE
  5
DF
330
1F
100
AcDbEntity
  8
0-4_枠
  6
Continuous
 62
    92
370
    13
100
AcDbLine
 10
-2423.198112661047
 20
2258.999683277026
 30
0.0
 11
-2423.198112661047
 21
2171.99924840154
 31
0.0
  0
LINE
  5
E0
330
1F
100
AcDbEntity
  8
0-4_枠
  6
Continuous
 62
    92
370
    13
100
AcDbLine
 10
-2257.682959159796
 20
2171.99924840154
 30
0.0
 11
-2423.198112661047
 21
2171.99924840154
 31
0.0
  0
LINE
  5
E1
330
1F
100
AcDbEntity
  8
0-4_枠
  6
Continuous
 62
    92
370
    13
100
AcDbLine
 10
-2254.683394035288
 20
2168.999683277028
 30
0.0
 11
-2426.198112661044
 21
2168.999683277028
 31
0.0
  0
LINE
  5
E2
330
1F
100
AcDbEntity
  8
0-4_枠
  6
Continuous
 62
    92
370
    13
100
AcDbLine
 10
-2423.198112661047
 20
2258.999683277026
 30
0.0
 11
-2426.198112661044
 21
2258.999683277026
 31
0.0
  0
LINE
  5
E3
330
1F
100
AcDbEntity
  8
0-4_枠
  6
Continuous
 62
    92
370
    13
100
AcDbLine
 10
-2249.197677785559
 20
2180.484529775777
 30
0.0
 11
-2257.682959159796
 21
2171.99924840154
 31
0.0
  0
LINE
  5
E4
330
1F
100
AcDbEntity
  8
0-4_枠
  6
Continuous
 62
    92
370
    13
100
AcDbLine
 10
-2254.683394035288
 20
2168.999683277028
 30
0.0
 11
-2246.198112661044
 21
2177.484964651265
 31
0.0
  0
LINE
  5
E5
330
1F
100
AcDbEntity
  8
0-4_枠
  6
Continuous
 62
    92
370
    13
100
AcDbLine
 10
-2285.198112661043
 20
2426.999683277026
 30
0.0
 11
-2285.198112661043
 21
2678.999683277028
 31
0.0
  0
LINE
  5
E6
330
1F
100
AcDbEntity
  8
0-4_枠
  6
Continuous
 62
    92
370
    13
100
AcDbLine
 10
-2282.198112661045
 20
2429.999683277027
 30
0.0
 11
-2282.198112661045
 21
2675.999683277028
 31
0.0
  0
LINE
  5
E7
330
1F
100
AcDbEntity
  8
0-4_枠
  6
Continuous
 62
    92
370
    13
100
AcDbLine
 10
-2285.198112661043
 20
2426.999683277026
 30
0.0
 11
-2249.197677785559
 21
2426.999683277026
 31
0.0
  0
LINE
  5
E8
330
1F
100
AcDbEntity
  8
0-4_枠
  6
Continuous
 62
    92
370
    13
100
AcDbLine
 10
-2282.198112661045
 20
2429.999683277027
 30
0.0
 11
-2246.198112661044
 21
2429.999683277027
 31
0.0
  0
LINE
  5
E9
330
1F
100
AcDbEntity
  8
0-4_枠
  6
Continuous
 62
    92
370
    13
100
AcDbLine
 10
-2285.198112661043
 20
2678.999683277028
 30
0.0
 11
-2249.197677785559
 21
2678.999683277028
 31
0.0
  0
LINE
  5
EA
330
1F
100
AcDbEntity
  8
0-4_枠
  6
Continuous
 62
    92
370
    13
100
AcDbLine
 10
-2282.198112661045
 20
2675.999683277028
 30
0.0
 11
-2246.198112661044
 21
2675.999683277028
 31
0.0
  0
LINE
  5
EB
330
1F
100
AcDbEntity
  8
0-4_枠
  6
Continuous
 62
    92
370
    13
100
AcDbLine
 10
-2249.197677785559
 20
2699.271326340181
 30
0.0
 11
-2249.197677785559
 21
2678.999683277028
 31
0.0
  0
LINE
  5
EC
330
1F
100
AcDbEntity
  8
0-4_枠
  6
Continuous
 62
    92
370
    13
100
AcDbLine
 10
-2246.198112661044
 20
2700.514401902788
 30
0.0
 11
-2246.198112661044
 21
2675.999683277028
 31
0.0
  0
LINE
  5
ED
330
1F
100
AcDbEntity
  8
0-C_ハッチ
  6
Continuous
 62
   120
370
     5
100
AcDbLine
 10
-2423.198112661047
 20
2680.903085412426
 30
0.0
 11
-2398.101675013734
 21
2705.999523059739
 31
0.0
  0
LINE
  5
EE
330
1F
100
AcDbEntity
  8
0-C_ハッチ
  6
Continuous
 62
   120
370
     5
100
AcDbLine
 10
-2423.198112661057
 20
2621.506115792714
 30
0.0
 11
-2338.704705394021
 21
2705.999523059749
 31
0.0
  0
LINE
  5
EF
330
1F
100
AcDbEntity
  8
0-C_ハッチ
  6
Continuous
 62
   120
370
     5
100
AcDbLine
 10
-2426.198112661048
 20
2559.109146173076
 30
0.0
 11
-2279.307735774395
 21
2705.999523059727
 31
0.0
  0
LINE
  5
F0
330
1F
100
AcDbEntity
  8
0-C_ハッチ
  6
Continuous
 62
   120
370
     5
100
AcDbLine
 10
-2426.198112661041
 20
2440.315206933734
 30
0.0
 11
-2285.198112661064
 21
2581.315206933711
 31
0.0
  0
LINE
  5
F1
330
1F
100
AcDbEntity
  8
0-C_ハッチ
  6
Continuous
 62
   120
370
     5
100
AcDbLine
 10
-2426.198112661054
 20
2380.918237314075
 30
0.0
 11
-2285.198112661043
 21
2521.918237314084
 31
0.0
  0
LINE
  5
F2
330
1F
100
AcDbEntity
  8
0-C_ハッチ
  6
Continuous
 62
   120
370
     5
100
AcDbLine
 10
-2426.198112661037
 20
2321.521267694388
 30
0.0
 11
-2285.198112661056
 21
2462.521267694369
 31
0.0
  0
LINE
  5
F3
330
1F
100
AcDbEntity
  8
0-4_枠
  6
Continuous
 62
    92
370
    13
100
AcDbLine
 10
-2423.198112661047
 20
2618.999683277028
 30
0.0
 11
-2423.198112661047
 21
2705.999523059741
 31
0.0
  0
LINE
  5
F4
330
1F
100
AcDbEntity
  8
0-4_枠
  6
Continuous
 62
    92
370
    13
100
AcDbLine
 10
-2423.198112661047
 20
2618.999683277028
 30
0.0
 11
-2426.198112661044
 21
2618.999683277028
 31
0.0
  0
LINE
  5
F5
330
1F
100
AcDbEntity
  8
0-4_枠
  6
Continuous
 62
    92
370
    13
100
AcDbLine
 10
-2255.92587450512
 20
2705.999523059741
 30
0.0
 11
-2423.198112661047
 21
2705.999523059741
 31
0.0
  0
LINE
  5
F6
330
1F
100
AcDbEntity
  8
0-4_枠
  6
Continuous
 62
    92
370
    13
100
AcDbLine
 10
-2254.683394035288
 20
2708.999683277028
 30
0.0
 11
-2426.198112661044
 21
2708.999683277028
 31
0.0
  0
LINE
  5
F7
330
1F
100
AcDbEntity
  8
0-4_枠
  6
Continuous
 62
    92
370
    13
100
AcDbLine
 10
-2255.92587450512
 20
2705.999523059741
 30
0.0
 11
-2249.197677785559
 21
2699.271326340181
 31
0.0
  0
LINE
  5
F8
330
1F
100
AcDbEntity
  8
0-4_枠
  6
Continuous
 62
    92
370
    13
100
AcDbLine
 10
-2246.198112661044
 20
2700.514401902788
 30
0.0
 11
-2254.683394035288
 21
2708.999683277028
 31
0.0
  0
LINE
  5
F9
330
1F
100
AcDbEntity
  8
0-B_寸法
  6
Continuous
 62
   120
370
     5
100
AcDbLine
 10
-1937.668122974968
 20
2708.999683277028
 30
0.0
 11
-2144.800261798572
 21
2708.999683277028
 31
0.0
  0
LWPOLYLINE
  5
FA
330
1F
100
AcDbEntity
  8
0-B_寸法
  6
Continuous
 62
     7
370
     9
100
AcDbPolyline
 90
        4
 70
     1
 43
3.0
 10
-1936.168122974968
 20
2708.999683277028
 42
0.4142135623731
 10
-1937.668122974968
 20
2710.499683277027
 42
0.4142135623731
 10
-1939.168122974968
 20
2708.999683277028
 42
0.4142135623731
 10
-1937.668122974968
 20
2707.499683277028
 42
0.4142135623731
  0
LINE
  5
FB
330
1F
100
AcDbEntity
  8
0-B_寸法
  6
Continuous
 62
   120
370
     5
100
AcDbLine
 10
-1937.668122974972
 20
2168.999683277028
 30
0.0
 11
-2144.800261798572
 21
2168.999683277028
 31
0.0
  0
LWPOLYLINE
  5
FC
330
1F
100
AcDbEntity
  8
0-B_寸法
  6
Continuous
 62
     7
370
     9
100
AcDbPolyline
 90
        4
 70
     1
 43
3.0
 10
-1936.168122974972
 20
2168.999683277028
 42
0.4142135623731
 10
-1937.668122974972
 20
2170.499683277027
 42
0.4142135623731
 10
-1939.168122974972
 20
2168.999683277028
 42
0.4142135623731
 10
-1937.668122974972
 20
2167.499683277028
 42
0.4142135623731
  0
LINE
  5
FD
330
1F
100
AcDbEntity
  8
0-B_寸法
  6
Continuous
 62
   120
370
     5
100
AcDbLine
 10
-1937.668122974972
 20
2168.999683277028
 30
0.0
 11
-1937.668122974968
 21
2708.999683277028
 31
0.0
  0
MTEXT
  5
FE
330
1F
100
AcDbEntity
  8
0-B_寸法
  6
Continuous
 62
     7
370
     0
100
AcDbMText
 10
-2396.198186893012
 20
1300.719732764992
 30
0.0
 40
91.44
 41
120.0
 46
0.0
 71
     7
 72
     1
  1
{\fＭＳ ゴシック|b0|i0|c128|p49;30}
 73
     1
 44
1.0
  0
LINE
  5
FF
330
1F
100
AcDbEntity
  8
0-1_通り芯
  6
JWW_CENTER1
 62
   120
370
     5
100
AcDbLine
 10
-3026.198112661064
 20
2438.999683277028
 30
0.0
 11
3046.034307564338
 21
2438.999683277028
 31
0.0
  0
LWPOLYLINE
  5
100
330
1F
100
AcDbEntity
  8
0-B_寸法
  6
Continuous
 62
     7
370
     9
100
AcDbPolyline
 90
        4
 70
     1
 43
3.0
 10
2267.534456028233
 20
1509.999683277027
 42
0.4142135623731
 10
2266.034456028233
 20
1511.499683277027
 42
0.4142135623731
 10
2264.534456028233
 20
1509.999683277027
 42
0.4142135623731
 10
2266.034456028233
 20
1508.499683277027
 42
0.4142135623731
  0
LINE
  5
101
330
1F
100
AcDbEntity
  8
0-B_寸法
  6
Continuous
 62
   120
370
     5
100
AcDbLine
 10
2266.034456028233
 20
1299.999683277027
 30
0.0
 11
2266.034456028233
 21
1899.999683277026
 31
0.0
  0
LINE
  5
102
330
1F
100
AcDbEntity
  8
0-B_寸法
  6
Continuous
 62
   120
370
     5
100
AcDbLine
 10
2446.034456028233
 20
1089.999683277027
 30
0.0
 11
2446.034456028233
 21
1899.999683277026
 31
0.0
  0
LINE
  5
103
330
1F
100
AcDbEntity
  8
0-6_扉
  6
Continuous
 62
   120
370
     5
100
AcDbLine
 10
2446.034456028233
 20
1089.999683277027
 30
0.0
 11
2446.034456028233
 21
1899.999683277026
 31
0.0
  0
LWPOLYLINE
  5
104
330
1F
100
AcDbEntity
  8
0-B_寸法
  6
Continuous
 62
     7
370
     9
100
AcDbPolyline
 90
        4
 70
     1
 43
3.0
 10
2267.534456028233
 20
1299.999683277027
 42
0.4142135623731
 10
2266.034456028233
 20
1301.499683277027
 42
0.4142135623731
 10
2264.534456028233
 20
1299.999683277027
 42
0.4142135623731
 10
2266.034456028233
 20
1298.499683277027
 42
0.4142135623731
  0
LINE
  5
105
330
1F
100
AcDbEntity
  8
0-B_寸法
  6
Continuous
 62
   120
370
     5
100
AcDbLine
 10
-2426.198112661064
 20
1299.999683277027
 30
0.0
 11
2446.034456028233
 21
1299.999683277027
 31
0.0
  0
LWPOLYLINE
  5
106
330
1F
100
AcDbEntity
  8
0-B_寸法
  6
Continuous
 62
     7
370
     9
100
AcDbPolyline
 90
        4
 70
     1
 43
3.0
 10
2447.534456028233
 20
1299.999683277027
 42
0.4142135623731
 10
2446.034456028233
 20
1301.499683277027
 42
0.4142135623731
 10
2444.534456028233
 20
1299.999683277027
 42
0.4142135623731
 10
2446.034456028233
 20
1298.499683277027
 42
0.4142135623731
  0
LINE
  5
107
330
1F
100
AcDbEntity
  8
0-B_寸法
  6
Continuous
 62
   120
370
     5
100
AcDbLine
 10
-2426.198112661064
 20
1089.999683277027
 30
0.0
 11
2446.034456028233
 21
1089.999683277027
 31
0.0
  0
LWPOLYLINE
  5
108
330
1F
100
AcDbEntity
  8
0-B_寸法
  6
Continuous
 62
     7
370
     9
100
AcDbPolyline
 90
        4
 70
     1
 43
3.0
 10
2447.534456028233
 20
1089.999683277027
 42
0.4142135623731
 10
2446.034456028233
 20
1091.499683277027
 42
0.4142135623731
 10
2444.534456028233
 20
1089.999683277027
 42
0.4142135623731
 10
2446.034456028233
 20
1088.499683277027
 42
0.4142135623731
  0
LWPOLYLINE
  5
109
330
1F
100
AcDbEntity
  8
0-6_扉
  6
Continuous
 62
     7
370
     9
100
AcDbPolyline
 90
        4
 70
     1
 43
3.0
 10
2447.534456028233
 20
1089.999683277027
 42
0.4142135623731
 10
2446.034456028233
 20
1091.499683277027
 42
0.4142135623731
 10
2444.534456028233
 20
1089.999683277027
 42
0.4142135623731
 10
2446.034456028233
 20
1088.499683277027
 42
0.4142135623731
  0
LINE
  5
10A
330
1F
100
AcDbEntity
  8
0-7_金物
  6
Continuous
 62
     7
370
     9
100
AcDbLine
 10
2284.034456081697
 20
2507.999683240096
 30
0.0
 11
2302.034456058144
 21
2507.999682239218
 31
0.0
  0
LINE
  5
10B
330
1F
100
AcDbEntity
  8
0-7_金物
  6
Continuous
 62
     7
370
     9
100
AcDbLine
 10
2302.034456058144
 20
2507.999682239218
 30
0.0
 11
2302.034456028233
 21
2597.999683838666
 31
0.0
  0
LINE
  5
10C
330
1F
100
AcDbEntity
  8
0-7_金物
  6
Continuous
 62
     7
370
     9
100
AcDbLine
 10
2284.034455367439
 20
2597.999681976461
 30
0.0
 11
2302.034456028233
 21
2597.999683838666
 31
0.0
  0
LINE
  5
10D
330
1F
100
AcDbEntity
  8
0-7_金物
  6
Continuous
 62
     7
370
     9
100
AcDbLine
 10
2302.034456047681
 20
2537.999683249206
 30
0.0
 11
2332.034455741021
 21
2537.999683487634
 31
0.0
  0
LINE
  5
10E
330
1F
100
AcDbEntity
  8
0-7_金物
  6
Continuous
 62
     7
370
     9
100
AcDbLine
 10
2332.034455741021
 20
2537.999683487634
 30
0.0
 11
2332.034455502933
 21
2567.999683066423
 31
0.0
  0
LINE
  5
10F
330
1F
100
AcDbEntity
  8
0-7_金物
  6
Continuous
 62
     7
370
     9
100
AcDbLine
 10
2302.034456038697
 20
2567.999682828678
 30
0.0
 11
2332.034455502933
 21
2567.999683066423
 31
0.0
  0
ARC
  5
110
330
1F
100
AcDbEntity
  8
0-7_金物
  6
Continuous
 62
     7
370
     9
100
AcDbCircle
 10
2466.741799815684
 20
2552.999683085606
 30
0.0
 40
188.167407989502
100
AcDbArc
 50
166.1636811230468
 51
193.8362885449218
  0
LINE
  5
111
330
1F
100
AcDbEntity
  8
0-0_補助線
  6
JWW_HOJO
 62
   120
370
     5
100
AcDbLine
 10
3046.034307564338
 20
2957.999138909418
 30
0.0
 11
3046.034307564338
 21
1089.999683277027
 31
0.0
  0
LINE
  5
112
330
1F
100
AcDbEntity
  8
0-B_寸法
  6
Continuous
 62
   120
370
     5
100
AcDbLine
 10
2028.458458574403
 20
2303.999683277028
 30
0.0
 11
2176.034456028233
 21
2303.999683277028
 31
0.0
  0
LWPOLYLINE
  5
113
330
1F
100
AcDbEntity
  8
0-B_寸法
  6
Continuous
 62
     7
370
     9
100
AcDbPolyline
 90
        4
 70
     1
 43
3.0
 10
2029.958458574403
 20
2303.999683277034
 42
0.4142135623731
 10
2028.458458574403
 20
2305.499683277034
 42
0.4142135623731
 10
2026.958458574403
 20
2303.999683277034
 42
0.4142135623731
 10
2028.458458574403
 20
2302.499683277034
 42
0.4142135623731
  0
LINE
  5
114
330
1F
100
AcDbEntity
  8
0-6_扉
  6
JWW_DASHED2
 62
    40
370
    15
100
AcDbLine
 10
2284.034456028235
 20
2462.999683277028
 30
0.0
 11
2284.034456028235
 21
2642.999683277028
 31
0.0
  0
LINE
  5
115
330
1F
100
AcDbEntity
  8
0-4_枠
  6
Continuous
 62
    92
370
    13
100
AcDbLine
 10
2274.519737402471
 20
2708.999683277028
 30
0.0
 11
2266.034456028233
 21
2700.514401902788
 31
0.0
  0
LINE
  5
116
330
1F
100
AcDbEntity
  8
0-4_枠
  6
Continuous
 62
    92
370
    13
100
AcDbLine
 10
2269.034021152746
 20
2699.271326340181
 30
0.0
 11
2275.762217872305
 21
2705.999523059741
 31
0.0
  0
LINE
  5
117
330
1F
100
AcDbEntity
  8
0-4_枠
  6
Continuous
 62
    92
370
    13
100
AcDbLine
 10
2443.034456028235
 20
2618.999683277028
 30
0.0
 11
2443.034456028235
 21
2705.999523059741
 31
0.0
  0
LINE
  5
118
330
1F
100
AcDbEntity
  8
0-4_枠
  6
Continuous
 62
    92
370
    13
100
AcDbLine
 10
2275.762217872305
 20
2705.999523059741
 30
0.0
 11
2443.034456028235
 21
2705.999523059741
 31
0.0
  0
LINE
  5
119
330
1F
100
AcDbEntity
  8
0-4_枠
  6
Continuous
 62
    92
370
    13
100
AcDbLine
 10
2274.519737402471
 20
2708.999683277028
 30
0.0
 11
2446.034456028233
 21
2708.999683277028
 31
0.0
  0
LINE
  5
11A
330
1F
100
AcDbEntity
  8
0-4_枠
  6
Continuous
 62
    92
370
    13
100
AcDbLine
 10
2443.034456028235
 20
2618.999683277028
 30
0.0
 11
2446.034456028233
 21
2618.999683277028
 31
0.0
  0
LINE
  5
11B
330
1F
100
AcDbEntity
  8
0-C_ハッチ
  6
Continuous
 62
   120
370
     5
100
AcDbLine
 10
2276.400297711732
 20
2705.999523059737
 30
0.0
 11
2269.034456028237
 21
2698.633681376243
 31
0.0
  0
LINE
  5
11C
330
1F
100
AcDbEntity
  8
0-4_枠
  6
Continuous
 62
    92
370
    13
100
AcDbLine
 10
2269.034021152746
 20
2699.271326340181
 30
0.0
 11
2269.034021152746
 21
2678.999683277029
 31
0.0
  0
LINE
  5
11D
330
1F
100
AcDbEntity
  8
0-4_枠
  6
Continuous
 62
    92
370
    13
100
AcDbLine
 10
2266.034456028233
 20
2700.514401902788
 30
0.0
 11
2266.034456028233
 21
2675.999683277027
 31
0.0
  0
LINE
  5
11E
330
1F
100
AcDbEntity
  8
0-4_枠
  6
Continuous
 62
    92
370
    13
100
AcDbLine
 10
2266.034456028233
 20
2675.999683277027
 30
0.0
 11
2302.034456028233
 21
2675.999683277027
 31
0.0
  0
LINE
  5
11F
330
1F
100
AcDbEntity
  8
0-4_枠
  6
Continuous
 62
    92
370
    13
100
AcDbLine
 10
2269.034021152746
 20
2678.999683277029
 30
0.0
 11
2305.034456028232
 21
2678.999683277029
 31
0.0
  0
LINE
  5
120
330
1F
100
AcDbEntity
  8
0-4_枠
  6
Continuous
 62
    92
370
    13
100
AcDbLine
 10
2302.034456028233
 20
2429.999683277027
 30
0.0
 11
2266.034456028233
 21
2429.999683277027
 31
0.0
  0
LINE
  5
121
330
1F
100
AcDbEntity
  8
0-4_枠
  6
Continuous
 62
    92
370
    13
100
AcDbLine
 10
2305.034456028232
 20
2426.999683277026
 30
0.0
 11
2269.034021152746
 21
2426.999683277026
 31
0.0
  0
LINE
  5
122
330
1F
100
AcDbEntity
  8
0-4_枠
  6
Continuous
 62
    92
370
    13
100
AcDbLine
 10
2302.034456028233
 20
2675.999683277027
 30
0.0
 11
2302.034456028233
 21
2429.999683277027
 31
0.0
  0
LINE
  5
123
330
1F
100
AcDbEntity
  8
0-4_枠
  6
Continuous
 62
    92
370
    13
100
AcDbLine
 10
2305.034456028232
 20
2678.999683277029
 30
0.0
 11
2305.034456028232
 21
2426.999683277026
 31
0.0
  0
LINE
  5
124
330
1F
100
AcDbEntity
  8
0-4_枠
  6
Continuous
 62
    92
370
    13
100
AcDbLine
 10
2446.034456028233
 20
2303.999683277028
 30
0.0
 11
2446.034456028233
 21
2708.999683277028
 31
0.0
  0
LINE
  5
125
330
1F
100
AcDbEntity
  8
0-4_枠
  6
Continuous
 62
    92
370
    13
100
AcDbLine
 10
2446.034456028233
 20
2303.999683277028
 30
0.0
 11
2266.034456028233
 21
2303.999683277028
 31
0.0
  0
LINE
  5
126
330
1F
100
AcDbEntity
  8
0-4_枠
  6
Continuous
 62
    92
370
    13
100
AcDbLine
 10
2269.034021152746
 20
2303.999683277028
 30
0.0
 11
2269.034021152746
 21
2426.999683277026
 31
0.0
  0
LINE
  5
127
330
1F
100
AcDbEntity
  8
0-4_枠
  6
Continuous
 62
    92
370
    13
100
AcDbLine
 10
2266.034456028233
 20
2303.999683277028
 30
0.0
 11
2266.034456028233
 21
2429.999683277027
 31
0.0
  0
LINE
  5
128
330
1F
100
AcDbEntity
  8
0-C_ハッチ
  6
Continuous
 62
   120
370
     5
100
AcDbLine
 10
2446.034456028233
 20
2341.060954799249
 30
0.0
 11
2408.973184506011
 21
2303.999683277028
 31
0.0
  0
LINE
  5
129
330
1F
100
AcDbEntity
  8
0-C_ハッチ
  6
Continuous
 62
   120
370
     5
100
AcDbLine
 10
2446.034456028233
 20
2400.457924418895
 30
0.0
 11
2349.576214886366
 21
2303.999683277028
 31
0.0
  0
LINE
  5
12A
330
1F
100
AcDbEntity
  8
0-C_ハッチ
  6
Continuous
 62
   120
370
     5
100
AcDbLine
 10
2446.034456028233
 20
2519.251863658244
 30
0.0
 11
2269.034021152746
 21
2342.251428782759
 31
0.0
  0
LINE
  5
12B
330
1F
100
AcDbEntity
  8
0-C_ハッチ
  6
Continuous
 62
   120
370
     5
100
AcDbLine
 10
2446.034456028233
 20
2459.854894038599
 30
0.0
 11
2290.179245266662
 21
2303.999683277028
 31
0.0
  0
LINE
  5
12C
330
1F
100
AcDbEntity
  8
0-C_ハッチ
  6
Continuous
 62
   120
370
     5
100
AcDbLine
 10
2294.385306027366
 20
2426.999683277026
 30
0.0
 11
2269.034021152746
 21
2401.648398402404
 31
0.0
  0
LINE
  5
12D
330
1F
100
AcDbEntity
  8
0-C_ハッチ
  6
Continuous
 62
   120
370
     5
100
AcDbLine
 10
2446.034456028233
 20
2578.648833277893
 30
0.0
 11
2305.034456028232
 21
2437.648833277892
 31
0.0
  0
LINE
  5
12E
330
1F
100
AcDbEntity
  8
0-C_ハッチ
  6
Continuous
 62
   120
370
     5
100
AcDbLine
 10
2335.797267331379
 20
2705.999523059736
 30
0.0
 11
2305.034456028232
 21
2675.236711756589
 31
0.0
  0
LINE
  5
12F
330
1F
100
AcDbEntity
  8
0-C_ハッチ
  6
Continuous
 62
   120
370
     5
100
AcDbLine
 10
2395.194236951025
 20
2705.999523059736
 30
0.0
 11
2305.034456028232
 21
2615.839742136943
 31
0.0
  0
LINE
  5
130
330
1F
100
AcDbEntity
  8
0-C_ハッチ
  6
Continuous
 62
   120
370
     5
100
AcDbLine
 10
2443.034890903724
 20
2694.443207392733
 30
0.0
 11
2305.034456028232
 21
2556.442772517241
 31
0.0
  0
LINE
  5
131
330
1F
100
AcDbEntity
  8
0-C_ハッチ
  6
Continuous
 62
   120
370
     5
100
AcDbLine
 10
2443.034890903717
 20
2635.046237773077
 30
0.0
 11
2305.034456028232
 21
2497.045802897594
 31
0.0
  0
LINE
  5
132
330
1F
100
AcDbEntity
  8
0-B_寸法
  6
Continuous
 62
   120
370
     5
100
AcDbLine
 10
2028.458458574403
 20
2303.999683277034
 30
0.0
 11
2028.458458574403
 21
2708.999683277028
 31
0.0
  0
LWPOLYLINE
  5
133
330
1F
100
AcDbEntity
  8
0-B_寸法
  6
Continuous
 62
     7
370
     9
100
AcDbPolyline
 90
        4
 70
     1
 43
3.0
 10
2029.958458574403
 20
2708.999683277028
 42
0.4142135623731
 10
2028.458458574403
 20
2710.499683277027
 42
0.4142135623731
 10
2026.958458574403
 20
2708.999683277028
 42
0.4142135623731
 10
2028.458458574403
 20
2707.499683277028
 42
0.4142135623731
  0
LINE
  5
134
330
1F
100
AcDbEntity
  8
0-B_寸法
  6
Continuous
 62
   120
370
     5
100
AcDbLine
 10
2028.458458574403
 20
2708.999683277028
 30
0.0
 11
2176.034456028233
 21
2708.999683277028
 31
0.0
  0
LINE
  5
135
330
1F
100
AcDbEntity
  8
0-3_仕上げ
  6
Continuous
 62
    40
370
    15
100
AcDbLine
 10
3046.034307564338
 20
2648.999683277033
 30
0.0
 11
2446.0351983477
 21
2648.999683277033
 31
0.0
  0
LINE
  5
136
330
1F
100
AcDbEntity
  8
0-3_仕上げ
  6
Continuous
 62
    40
370
    15
100
AcDbLine
 10
3046.034307564338
 20
2573.999683277033
 30
0.0
 11
2446.0351983477
 21
2573.999683277033
 31
0.0
  0
LINE
  5
137
330
1F
100
AcDbEntity
  8
0-C_ハッチ
  6
JWW_DASHED1
 62
   120
370
     5
100
AcDbLine
 10
2459.553878072323
 20
2648.999683277033
 30
0.0
 11
2446.0351983477
 21
2635.481003552411
 31
0.0
  0
LINE
  5
138
330
1F
100
AcDbEntity
  8
0-C_ハッチ
  6
JWW_DASHED1
 62
   120
370
     5
100
AcDbLine
 10
2501.980284943518
 20
2648.999683277029
 30
0.0
 11
2446.0351983477
 21
2593.054596681213
 31
0.0
  0
LINE
  5
139
330
1F
100
AcDbEntity
  8
0-C_ハッチ
  6
JWW_DASHED1
 62
   120
370
     5
100
AcDbLine
 10
2544.406691814716
 20
2648.999683277028
 30
0.0
 11
2469.40669181472
 21
2573.999683277033
 31
0.0
  0
LINE
  5
13A
330
1F
100
AcDbEntity
  8
0-C_ハッチ
  6
JWW_DASHED1
 62
   120
370
     5
100
AcDbLine
 10
2586.83309868593
 20
2648.999683277039
 30
0.0
 11
2511.833098685916
 21
2573.999683277028
 31
0.0
  0
LINE
  5
13B
330
1F
100
AcDbEntity
  8
0-C_ハッチ
  6
JWW_DASHED1
 62
   120
370
     5
100
AcDbLine
 10
2629.259505557077
 20
2648.999683277043
 30
0.0
 11
2554.259505557083
 21
2573.999683277048
 31
0.0
  0
LINE
  5
13C
330
1F
100
AcDbEntity
  8
0-C_ハッチ
  6
JWW_DASHED1
 62
   120
370
     5
100
AcDbLine
 10
2671.685912428272
 20
2648.999683277039
 30
0.0
 11
2596.685912428279
 21
2573.999683277046
 31
0.0
  0
LINE
  5
13D
330
1F
100
AcDbEntity
  8
0-C_ハッチ
  6
JWW_DASHED1
 62
   120
370
     5
100
AcDbLine
 10
2714.112319299469
 20
2648.999683277034
 30
0.0
 11
2639.112319299475
 21
2573.999683277039
 31
0.0
  0
LINE
  5
13E
330
1F
100
AcDbEntity
  8
0-C_ハッチ
  6
JWW_DASHED1
 62
   120
370
     5
100
AcDbLine
 10
2756.538726170664
 20
2648.999683277029
 30
0.0
 11
2681.538726170669
 21
2573.999683277038
 31
0.0
  0
LINE
  5
13F
330
1F
100
AcDbEntity
  8
0-C_ハッチ
  6
JWW_DASHED1
 62
   120
370
     5
100
AcDbLine
 10
2798.965133041869
 20
2648.999683277036
 30
0.0
 11
2723.965133041872
 21
2573.999683277039
 31
0.0
  0
LINE
  5
140
330
1F
100
AcDbEntity
  8
0-C_ハッチ
  6
JWW_DASHED1
 62
   120
370
     5
100
AcDbLine
 10
2841.391539913066
 20
2648.999683277033
 30
0.0
 11
2766.391539913069
 21
2573.999683277038
 31
0.0
  0
LINE
  5
141
330
1F
100
AcDbEntity
  8
0-C_ハッチ
  6
JWW_DASHED1
 62
   120
370
     5
100
AcDbLine
 10
2883.817946784262
 20
2648.999683277029
 30
0.0
 11
2808.817946784266
 21
2573.999683277033
 31
0.0
  0
LINE
  5
142
330
1F
100
AcDbEntity
  8
0-C_ハッチ
  6
JWW_DASHED1
 62
   120
370
     5
100
AcDbLine
 10
2926.244353655476
 20
2648.999683277041
 30
0.0
 11
2851.244353655464
 21
2573.999683277029
 31
0.0
  0
LINE
  5
143
330
1F
100
AcDbEntity
  8
0-C_ハッチ
  6
JWW_DASHED1
 62
   120
370
     5
100
AcDbLine
 10
2968.670760526616
 20
2648.999683277038
 30
0.0
 11
2893.670760526621
 21
2573.999683277041
 31
0.0
  0
LINE
  5
144
330
1F
100
AcDbEntity
  8
0-C_ハッチ
  6
JWW_DASHED1
 62
   120
370
     5
100
AcDbLine
 10
3011.097167397811
 20
2648.999683277033
 30
0.0
 11
2936.097167397816
 21
2573.999683277039
 31
0.0
  0
LINE
  5
145
330
1F
100
AcDbEntity
  8
0-C_ハッチ
  6
JWW_DASHED1
 62
   120
370
     5
100
AcDbLine
 10
3046.035049883813
 20
2641.511158891832
 30
0.0
 11
2978.523574269015
 21
2573.999683277033
 31
0.0
  0
LINE
  5
146
330
1F
100
AcDbEntity
  8
0-C_ハッチ
  6
JWW_DASHED1
 62
   120
370
     5
100
AcDbLine
 10
3046.035049883813
 20
2599.084752020633
 30
0.0
 11
3020.949981140207
 21
2573.999683277029
 31
0.0
  0
LINE
  5
147
330
1F
100
AcDbEntity
  8
0-C_ハッチ
  6
JWW_DASHED1
 62
   120
370
     5
100
AcDbLine
 10
1629.59635084641
 20
2303.999683277031
 30
0.0
 11
1554.596350846414
 21
2228.999683277036
 31
0.0
  0
LINE
  5
148
330
1F
100
AcDbEntity
  8
0-C_ハッチ
  6
JWW_DASHED1
 62
   120
370
     5
100
AcDbLine
 10
1672.022757717607
 20
2303.999683277028
 30
0.0
 11
1597.02275771761
 21
2228.999683277034
 31
0.0
  0
LINE
  5
149
330
1F
100
AcDbEntity
  8
0-C_ハッチ
  6
JWW_DASHED1
 62
   120
370
     5
100
AcDbLine
 10
1714.449164588804
 20
2303.999683277026
 30
0.0
 11
1639.449164588807
 21
2228.999683277029
 31
0.0
  0
LINE
  5
14A
330
1F
100
AcDbEntity
  8
0-C_ハッチ
  6
JWW_DASHED1
 62
   120
370
     5
100
AcDbLine
 10
1756.87557146
 20
2303.999683277021
 30
0.0
 11
1681.875571460004
 21
2228.999683277028
 31
0.0
  0
LINE
  5
14B
330
1F
100
AcDbEntity
  8
0-C_ハッチ
  6
JWW_DASHED1
 62
   120
370
     5
100
AcDbLine
 10
1799.301978331196
 20
2303.999683277017
 30
0.0
 11
1724.3019783312
 21
2228.999683277021
 31
0.0
  0
LINE
  5
14C
330
1F
100
AcDbEntity
  8
0-C_ハッチ
  6
JWW_DASHED1
 62
   120
370
     5
100
AcDbLine
 10
1841.728385202407
 20
2303.999683277029
 30
0.0
 11
1766.728385202397
 21
2228.999683277017
 31
0.0
  0
LINE
  5
14D
330
1F
100
AcDbEntity
  8
0-C_ハッチ
  6
JWW_DASHED1
 62
   120
370
     5
100
AcDbLine
 10
1884.154792073562
 20
2303.999683277039
 30
0.0
 11
1809.154792073566
 21
2228.999683277041
 31
0.0
  0
LINE
  5
14E
330
1F
100
AcDbEntity
  8
0-C_ハッチ
  6
JWW_DASHED1
 62
   120
370
     5
100
AcDbLine
 10
1926.581198944756
 20
2303.999683277034
 30
0.0
 11
1851.581198944763
 21
2228.999683277039
 31
0.0
  0
LINE
  5
14F
330
1F
100
AcDbEntity
  8
0-C_ハッチ
  6
JWW_DASHED1
 62
   120
370
     5
100
AcDbLine
 10
1969.007605815953
 20
2303.999683277031
 30
0.0
 11
1894.007605815959
 21
2228.999683277034
 31
0.0
  0
LINE
  5
150
330
1F
100
AcDbEntity
  8
0-C_ハッチ
  6
JWW_DASHED1
 62
   120
370
     5
100
AcDbLine
 10
2011.434012687149
 20
2303.999683277028
 30
0.0
 11
1936.434012687156
 21
2228.999683277031
 31
0.0
  0
LINE
  5
151
330
1F
100
AcDbEntity
  8
0-C_ハッチ
  6
JWW_DASHED1
 62
   120
370
     5
100
AcDbLine
 10
2053.860419558346
 20
2303.999683277026
 30
0.0
 11
1978.860419558353
 21
2228.999683277028
 31
0.0
  0
LINE
  5
152
330
1F
100
AcDbEntity
  8
0-C_ハッチ
  6
JWW_DASHED1
 62
   120
370
     5
100
AcDbLine
 10
2096.286826429542
 20
2303.999683277021
 30
0.0
 11
2021.286826429549
 21
2228.999683277026
 31
0.0
  0
LINE
  5
153
330
1F
100
AcDbEntity
  8
0-C_ハッチ
  6
JWW_DASHED1
 62
   120
370
     5
100
AcDbLine
 10
2138.713233300739
 20
2303.999683277017
 30
0.0
 11
2063.713233300746
 21
2228.999683277021
 31
0.0
  0
LINE
  5
154
330
1F
100
AcDbEntity
  8
0-C_ハッチ
  6
JWW_DASHED1
 62
   120
370
     5
100
AcDbLine
 10
2181.139640171953
 20
2303.999683277029
 30
0.0
 11
2106.139640171942
 21
2228.999683277017
 31
0.0
  0
LINE
  5
155
330
1F
100
AcDbEntity
  8
0-C_ハッチ
  6
JWW_DASHED1
 62
   120
370
     5
100
AcDbLine
 10
2223.566047043105
 20
2303.999683277038
 30
0.0
 11
2148.56604704311
 21
2228.999683277041
 31
0.0
  0
LINE
  5
156
330
1F
100
AcDbEntity
  8
0-C_ハッチ
  6
JWW_DASHED1
 62
   120
370
     5
100
AcDbLine
 10
2265.992453914301
 20
2303.999683277034
 30
0.0
 11
2190.992453914308
 21
2228.999683277039
 31
0.0
  0
LINE
  5
157
330
1F
100
AcDbEntity
  8
0-C_ハッチ
  6
JWW_DASHED1
 62
   120
370
     5
100
AcDbLine
 10
2308.418860785498
 20
2303.999683277031
 30
0.0
 11
2233.418860785503
 21
2228.999683277034
 31
0.0
  0
LINE
  5
158
330
1F
100
AcDbEntity
  8
0-C_ハッチ
  6
JWW_DASHED1
 62
   120
370
     5
100
AcDbLine
 10
2350.845267656695
 20
2303.999683277028
 30
0.0
 11
2275.845267656701
 21
2228.999683277031
 31
0.0
  0
LINE
  5
159
330
1F
100
AcDbEntity
  8
0-C_ハッチ
  6
JWW_DASHED1
 62
   120
370
     5
100
AcDbLine
 10
2393.271674527891
 20
2303.999683277022
 30
0.0
 11
2318.271674527895
 21
2228.999683277028
 31
0.0
  0
LINE
  5
15A
330
1F
100
AcDbEntity
  8
0-C_ハッチ
  6
JWW_DASHED1
 62
   120
370
     5
100
AcDbLine
 10
2435.698081399088
 20
2303.999683277021
 30
0.0
 11
2360.698081399091
 21
2228.999683277026
 31
0.0
  0
LINE
  5
15B
330
1F
100
AcDbEntity
  8
0-C_ハッチ
  6
JWW_DASHED1
 62
   120
370
     5
100
AcDbLine
 10
2478.124488270301
 20
2303.999683277031
 30
0.0
 11
2403.124488270288
 21
2228.999683277021
 31
0.0
  0
LINE
  5
15C
330
1F
100
AcDbEntity
  8
0-C_ハッチ
  6
JWW_DASHED1
 62
   120
370
     5
100
AcDbLine
 10
2520.550895141454
 20
2303.999683277041
 30
0.0
 11
2445.550895141444
 21
2228.999683277028
 31
0.0
  0
LINE
  5
15D
330
1F
100
AcDbEntity
  8
0-C_ハッチ
  6
JWW_DASHED1
 62
   120
370
     5
100
AcDbLine
 10
2562.97730201265
 20
2303.999683277036
 30
0.0
 11
2487.977302012654
 21
2228.999683277041
 31
0.0
  0
LINE
  5
15E
330
1F
100
AcDbEntity
  8
0-C_ハッチ
  6
JWW_DASHED1
 62
   120
370
     5
100
AcDbLine
 10
2605.403708883847
 20
2303.999683277034
 30
0.0
 11
2530.40370888385
 21
2228.999683277039
 31
0.0
  0
LINE
  5
15F
330
1F
100
AcDbEntity
  8
0-C_ハッチ
  6
JWW_DASHED1
 62
   120
370
     5
100
AcDbLine
 10
2647.830115755044
 20
2303.999683277029
 30
0.0
 11
2572.830115755047
 21
2228.999683277034
 31
0.0
  0
LINE
  5
160
330
1F
100
AcDbEntity
  8
0-C_ハッチ
  6
JWW_DASHED1
 62
   120
370
     5
100
AcDbLine
 10
2690.25652262624
 20
2303.999683277028
 30
0.0
 11
2615.256522626244
 21
2228.999683277031
 31
0.0
  0
LINE
  5
161
330
1F
100
AcDbEntity
  8
0-C_ハッチ
  6
JWW_DASHED1
 62
   120
370
     5
100
AcDbLine
 10
2732.682929497437
 20
2303.999683277022
 30
0.0
 11
2657.68292949744
 21
2228.999683277028
 31
0.0
  0
LINE
  5
162
330
1F
100
AcDbEntity
  8
0-C_ハッチ
  6
JWW_DASHED1
 62
   120
370
     5
100
AcDbLine
 10
2775.109336368633
 20
2303.999683277021
 30
0.0
 11
2700.109336368637
 21
2228.999683277024
 31
0.0
  0
LINE
  5
163
330
1F
100
AcDbEntity
  8
0-C_ハッチ
  6
JWW_DASHED1
 62
   120
370
     5
100
AcDbLine
 10
2817.535743239846
 20
2303.999683277031
 30
0.0
 11
2742.535743239833
 21
2228.999683277021
 31
0.0
  0
LINE
  5
164
330
1F
100
AcDbEntity
  8
0-C_ハッチ
  6
JWW_DASHED1
 62
   120
370
     5
100
AcDbLine
 10
2859.962150111
 20
2303.999683277041
 30
0.0
 11
2784.962150111003
 21
2228.999683277044
 31
0.0
  0
LINE
  5
165
330
1F
100
AcDbEntity
  8
0-C_ハッチ
  6
JWW_DASHED1
 62
   120
370
     5
100
AcDbLine
 10
2902.388556982196
 20
2303.999683277036
 30
0.0
 11
2827.3885569822
 21
2228.999683277041
 31
0.0
  0
LINE
  5
166
330
1F
100
AcDbEntity
  8
0-C_ハッチ
  6
JWW_DASHED1
 62
   120
370
     5
100
AcDbLine
 10
2944.814963853392
 20
2303.999683277034
 30
0.0
 11
2869.814963853396
 21
2228.999683277036
 31
0.0
  0
LINE
  5
167
330
1F
100
AcDbEntity
  8
0-C_ハッチ
  6
JWW_DASHED1
 62
   120
370
     5
100
AcDbLine
 10
2987.241370724589
 20
2303.999683277029
 30
0.0
 11
2912.241370724592
 21
2228.999683277034
 31
0.0
  0
LINE
  5
168
330
1F
100
AcDbEntity
  8
0-C_ハッチ
  6
JWW_DASHED1
 62
   120
370
     5
100
AcDbLine
 10
3029.667777595786
 20
2303.999683277026
 30
0.0
 11
2954.667777595789
 21
2228.999683277029
 31
0.0
  0
LINE
  5
169
330
1F
100
AcDbEntity
  8
0-C_ハッチ
  6
JWW_DASHED1
 62
   120
370
     5
100
AcDbLine
 10
3046.034307564341
 20
2277.939806374383
 30
0.0
 11
2997.094184466986
 21
2228.999683277028
 31
0.0
  0
LINE
  5
16A
330
1F
100
AcDbEntity
  8
0-C_ハッチ
  6
JWW_DASHED1
 62
   120
370
     5
100
AcDbLine
 10
3046.034307564345
 20
2235.513399503185
 30
0.0
 11
3039.520591338182
 21
2228.999683277022
 31
0.0
  0
LINE
  5
16B
330
1F
100
AcDbEntity
  8
0-2_柱
  6
Continuous
 62
    92
370
    13
100
AcDbLine
 10
2446.034456028233
 20
2303.999683277014
 30
0.0
 11
2446.034456028233
 21
2573.999683277033
 31
0.0
  0
LINE
  5
16C
330
1F
100
AcDbEntity
  8
0-2_柱
  6
Continuous
 62
    92
370
    13
100
AcDbLine
 10
2716.034456028233
 20
2303.999683277014
 30
0.0
 11
2716.034456028233
 21
2573.999683277033
 31
0.0
  0
LINE
  5
16D
330
1F
100
AcDbEntity
  8
0-2_柱
  6
Continuous
 62
     7
370
     9
100
AcDbLine
 10
2446.034456028233
 20
2303.999683277014
 30
0.0
 11
2716.034456028233
 21
2573.999683277033
 31
0.0
  0
LINE
  5
16E
330
1F
100
AcDbEntity
  8
0-C_ハッチ
  6
JWW_DASHED1
 62
   120
370
     5
100
AcDbLine
 10
2263.814765901504
 20
2411.999683277026
 30
0.0
 11
2230.814765901519
 21
2378.999683277039
 31
0.0
  0
LINE
  5
16F
330
1F
100
AcDbEntity
  8
0-C_ハッチ
  6
JWW_DASHED1
 62
   120
370
     5
100
AcDbLine
 10
2221.388359030304
 20
2411.999683277026
 30
0.0
 11
2188.388359030305
 21
2378.999683277028
 31
0.0
  0
LINE
  5
170
330
1F
100
AcDbEntity
  8
0-C_ハッチ
  6
JWW_DASHED1
 62
   120
370
     5
100
AcDbLine
 10
2178.961952159104
 20
2411.999683277026
 30
0.0
 11
2145.961952159107
 21
2378.999683277029
 31
0.0
  0
LINE
  5
171
330
1F
100
AcDbEntity
  8
0-C_ハッチ
  6
JWW_DASHED1
 62
   120
370
     5
100
AcDbLine
 10
2136.535545287959
 20
2411.999683277026
 30
0.0
 11
2103.535545287958
 21
2378.999683277024
 31
0.0
  0
LINE
  5
172
330
1F
100
AcDbEntity
  8
0-C_ハッチ
  6
JWW_DASHED1
 62
   120
370
     5
100
AcDbLine
 10
2094.109138416759
 20
2411.999683277026
 30
0.0
 11
2061.109138416762
 21
2378.999683277028
 31
0.0
  0
LINE
  5
173
330
1F
100
AcDbEntity
  8
0-C_ハッチ
  6
JWW_DASHED1
 62
   120
370
     5
100
AcDbLine
 10
2051.682731545559
 20
2411.999683277026
 30
0.0
 11
2018.68273154556
 21
2378.999683277028
 31
0.0
  0
LINE
  5
174
330
1F
100
AcDbEntity
  8
0-C_ハッチ
  6
JWW_DASHED1
 62
   120
370
     5
100
AcDbLine
 10
2009.256324674359
 20
2411.999683277026
 30
0.0
 11
1976.256324674362
 21
2378.999683277029
 31
0.0
  0
LINE
  5
175
330
1F
100
AcDbEntity
  8
0-C_ハッチ
  6
JWW_DASHED1
 62
   120
370
     5
100
AcDbLine
 10
1966.829917803162
 20
2411.999683277026
 30
0.0
 11
1933.829917803167
 21
2378.999683277033
 31
0.0
  0
LINE
  5
176
330
1F
100
AcDbEntity
  8
0-C_ハッチ
  6
JWW_DASHED1
 62
   120
370
     5
100
AcDbLine
 10
1924.403510931961
 20
2411.999683277026
 30
0.0
 11
1891.403510931968
 21
2378.999683277034
 31
0.0
  0
LINE
  5
177
330
1F
100
AcDbEntity
  8
0-C_ハッチ
  6
JWW_DASHED1
 62
   120
370
     5
100
AcDbLine
 10
1881.977104060759
 20
2411.999683277026
 30
0.0
 11
1848.977104060755
 21
2378.999683277022
 31
0.0
  0
LINE
  5
178
330
1F
100
AcDbEntity
  8
0-C_ハッチ
  6
JWW_DASHED1
 62
   120
370
     5
100
AcDbLine
 10
1839.550697189562
 20
2411.999683277026
 30
0.0
 11
1806.55069718956
 21
2378.999683277026
 31
0.0
  0
LINE
  5
179
330
1F
100
AcDbEntity
  8
0-C_ハッチ
  6
JWW_DASHED1
 62
   120
370
     5
100
AcDbLine
 10
1797.124290318413
 20
2411.999683277026
 30
0.0
 11
1764.124290318416
 21
2378.999683277028
 31
0.0
  0
LINE
  5
17A
330
1F
100
AcDbEntity
  8
0-C_ハッチ
  6
JWW_DASHED1
 62
   120
370
     5
100
AcDbLine
 10
1754.697883447213
 20
2411.999683277026
 30
0.0
 11
1721.69788344722
 21
2378.999683277031
 31
0.0
  0
LINE
  5
17B
330
1F
100
AcDbEntity
  8
0-C_ハッチ
  6
JWW_DASHED1
 62
   120
370
     5
100
AcDbLine
 10
1712.271476576013
 20
2411.999683277026
 30
0.0
 11
1679.271476576009
 21
2378.999683277022
 31
0.0
  0
LINE
  5
17C
330
1F
100
AcDbEntity
  8
0-C_ハッチ
  6
JWW_DASHED1
 62
   120
370
     5
100
AcDbLine
 10
1669.845069704816
 20
2411.999683277026
 30
0.0
 11
1636.845069704814
 21
2378.999683277026
 31
0.0
  0
LINE
  5
17D
330
1F
100
AcDbEntity
  8
0-C_ハッチ
  6
JWW_DASHED1
 62
   120
370
     5
100
AcDbLine
 10
1627.418662833616
 20
2411.999683277026
 30
0.0
 11
1594.418662833616
 21
2378.999683277028
 31
0.0
  0
LINE
  5
17E
330
1F
100
AcDbEntity
  8
0-C_ハッチ
  6
JWW_DASHED1
 62
   120
370
     5
100
AcDbLine
 10
1584.992255962413
 20
2411.999683277026
 30
0.0
 11
1551.992255962402
 21
2378.999683277015
 31
0.0
  0
LINE
  5
17F
330
1F
100
AcDbEntity
  8
0-2_柱
  6
Continuous
 62
    92
370
    13
100
AcDbLine
 10
2086.034456028233
 20
2303.999683277028
 30
0.0
 11
2086.034456028233
 21
2378.999683277028
 31
0.0
  0
LINE
  5
180
330
1F
100
AcDbEntity
  8
0-2_柱
  6
Continuous
 62
     7
370
     9
100
AcDbLine
 10
2266.034456028233
 20
2378.999683277028
 30
0.0
 11
2086.034456028233
 21
2303.999683277028
 31
0.0
  0
MTEXT
  5
181
330
1F
100
AcDbEntity
  8
0-B_寸法
  6
Continuous
 62
     7
370
     0
100
AcDbMText
 10
2296.035124115754
 20
1300.719732764992
 30
0.0
 40
91.44
 41
120.0
 46
0.0
 71
     7
 72
     1
  1
{\fＭＳ ゴシック|b0|i0|c128|p49;30}
 73
     1
 44
1.0
  0
LINE
  5
182
330
1F
100
AcDbEntity
  8
0-B_寸法
  6
Continuous
 62
   120
370
     5
100
AcDbLine
 10
-264.3091892222463
 20
2423.999683277028
 30
0.0
 11
-110.4626879444373
 21
2423.999683277028
 31
0.0
  0
LWPOLYLINE
  5
183
330
1F
100
AcDbEntity
  8
0-B_寸法
  6
Continuous
 62
     7
370
     9
100
AcDbPolyline
 90
        4
 70
     1
 43
3.0
 10
-262.8091892222463
 20
2423.999683277028
 42
0.4142135623731
 10
-264.3091892222463
 20
2425.499683277027
 42
0.4142135623731
 10
-265.8091892222463
 20
2423.999683277028
 42
0.4142135623731
 10
-264.3091892222463
 20
2422.499683277028
 42
0.4142135623731
  0
LINE
  5
184
330
1F
100
AcDbEntity
  8
0-4_枠
  6
Continuous
 62
    92
370
    13
100
AcDbLine
 10
96.91854284331725
 20
2333.999683277028
 30
0.0
 11
99.91854284331623
 21
2333.999683277028
 31
0.0
  0
LINE
  5
185
330
1F
100
AcDbEntity
  8
0-4_枠
  6
Continuous
 62
    92
370
    13
100
AcDbLine
 10
96.91854284331725
 20
2333.999683277028
 30
0.0
 11
96.91854284331725
 21
2420.999683277027
 31
0.0
  0
LINE
  5
186
330
1F
100
AcDbEntity
  8
0-4_枠
  6
Continuous
 62
    92
370
    13
100
AcDbLine
 10
99.91854284331623
 20
2423.999683277028
 30
0.0
 11
-80.08145715668377
 21
2423.999683277028
 31
0.0
  0
LINE
  5
187
330
1F
100
AcDbEntity
  8
0-4_枠
  6
Continuous
 62
    92
370
    13
100
AcDbLine
 10
96.91854284331725
 20
2420.999683277027
 30
0.0
 11
-77.08145715668138
 21
2420.999683277027
 31
0.0
  0
LINE
  5
188
330
1F
100
AcDbEntity
  8
0-B_寸法
  6
Continuous
 62
   120
370
     5
100
AcDbLine
 10
-114.0314380213385
 20
2462.999683277028
 30
0.0
 11
-264.3091892222463
 21
2462.999683277028
 31
0.0
  0
LWPOLYLINE
  5
189
330
1F
100
AcDbEntity
  8
0-B_寸法
  6
Continuous
 62
     7
370
     9
100
AcDbPolyline
 90
        4
 70
     1
 43
3.0
 10
-262.8091892222463
 20
2462.999683277028
 42
0.4142135623731
 10
-264.3091892222463
 20
2464.499683277028
 42
0.4142135623731
 10
-265.8091892222463
 20
2462.999683277028
 42
0.4142135623731
 10
-264.3091892222463
 20
2461.499683277028
 42
0.4142135623731
  0
LINE
  5
18A
330
1F
100
AcDbEntity
  8
0-B_寸法
  6
Continuous
 62
   120
370
     5
100
AcDbLine
 10
-114.0314380213385
 20
2642.999683277028
 30
0.0
 11
-264.3091892222463
 21
2642.999683277028
 31
0.0
  0
LWPOLYLINE
  5
18B
330
1F
100
AcDbEntity
  8
0-B_寸法
  6
Continuous
 62
     7
370
     9
100
AcDbPolyline
 90
        4
 70
     1
 43
3.0
 10
-262.8091892222463
 20
2642.999683277028
 42
0.4142135623731
 10
-264.3091892222463
 20
2644.499683277028
 42
0.4142135623731
 10
-265.8091892222463
 20
2642.999683277028
 42
0.4142135623731
 10
-264.3091892222463
 20
2641.499683277028
 42
0.4142135623731
  0
LINE
  5
18C
330
1F
100
AcDbEntity
  8
0-B_寸法
  6
Continuous
 62
   120
370
     5
100
AcDbLine
 10
-264.3091892222463
 20
2642.999683277028
 30
0.0
 11
-264.3091892222463
 21
2462.999683277028
 31
0.0
  0
LINE
  5
18D
330
1F
100
AcDbEntity
  8
0-B_寸法
  6
Continuous
 62
   120
370
     5
100
AcDbLine
 10
-2246.198112661064
 20
1509.999683277027
 30
0.0
 11
-80.08145715668377
 21
1509.999683277027
 31
0.0
  0
LWPOLYLINE
  5
18E
330
1F
100
AcDbEntity
  8
0-B_寸法
  6
Continuous
 62
     7
370
     9
100
AcDbPolyline
 90
        4
 70
     1
 43
3.0
 10
-78.58145715668377
 20
1509.999683277027
 42
0.4142135623731
 10
-80.08145715668377
 20
1511.499683277027
 42
0.4142135623731
 10
-81.58145715668377
 20
1509.999683277027
 42
0.4142135623731
 10
-80.08145715668377
 20
1508.499683277027
 42
0.4142135623731
  0
LINE
  5
18F
330
1F
100
AcDbEntity
  8
0-B_寸法
  6
Continuous
 62
   120
370
     5
100
AcDbLine
 10
-80.08145715668377
 20
1509.999683277027
 30
0.0
 11
-80.08145715668377
 21
1899.999683277026
 31
0.0
  0
LINE
  5
190
330
1F
100
AcDbEntity
  8
0-B_寸法
  6
Continuous
 62
   120
370
     5
100
AcDbLine
 10
-80.08145715668377
 20
1509.999683277027
 30
0.0
 11
99.91854284331623
 21
1509.999683277027
 31
0.0
  0
LWPOLYLINE
  5
191
330
1F
100
AcDbEntity
  8
0-B_寸法
  6
Continuous
 62
     7
370
     9
100
AcDbPolyline
 90
        4
 70
     1
 43
3.0
 10
101.4185428433162
 20
1509.999683277027
 42
0.4142135623731
 10
99.91854284331623
 20
1511.499683277027
 42
0.4142135623731
 10
98.41854284331623
 20
1509.999683277027
 42
0.4142135623731
 10
99.91854284331623
 20
1508.499683277027
 42
0.4142135623731
  0
LINE
  5
192
330
1F
100
AcDbEntity
  8
0-B_寸法
  6
Continuous
 62
   120
370
     5
100
AcDbLine
 10
99.91854284331623
 20
1509.999683277027
 30
0.0
 11
99.91854284331623
 21
1899.999683277026
 31
0.0
  0
LINE
  5
193
330
1F
100
AcDbEntity
  8
0-C_ハッチ
  6
Continuous
 62
   120
370
     5
100
AcDbLine
 10
-50.04273132562048
 20
2420.999683277025
 30
0.0
 11
-77.08145715668138
 21
2393.960957445966
 31
0.0
  0
LINE
  5
194
330
1F
100
AcDbEntity
  8
0-C_ハッチ
  6
Continuous
 62
   120
370
     5
100
AcDbLine
 10
96.91854284332408
 20
2389.770048586973
 30
0.0
 11
-77.08145715668138
 21
2215.77004858697
 31
0.0
  0
LINE
  5
195
330
1F
100
AcDbEntity
  8
0-C_ハッチ
  6
Continuous
 62
   120
370
     5
100
AcDbLine
 10
9.35423829402339
 20
2420.999683277023
 30
0.0
 11
-77.08145715668138
 21
2334.563987826319
 31
0.0
  0
LINE
  5
196
330
1F
100
AcDbEntity
  8
0-C_ハッチ
  6
Continuous
 62
   120
370
     5
100
AcDbLine
 10
68.75120791372694
 20
2420.999683277027
 30
0.0
 11
-77.08145715668138
 21
2275.167018206617
 31
0.0
  0
LINE
  5
197
330
1F
100
AcDbEntity
  8
0-6_扉
  6
Continuous
 62
   120
370
     5
100
AcDbLine
 10
-264.3091892222463
 20
2462.999731672593
 30
0.0
 11
-264.3091892222463
 21
2423.999731672593
 31
0.0
  0
LWPOLYLINE
  5
198
330
1F
100
AcDbEntity
  8
0-6_扉
  6
Continuous
 62
     7
370
     9
100
AcDbPolyline
 90
        4
 70
     1
 43
3.0
 10
-262.8091892222463
 20
2423.999731672593
 42
0.4142135623731
 10
-264.3091892222463
 20
2425.499731672593
 42
0.4142135623731
 10
-265.8091892222463
 20
2423.999731672593
 42
0.4142135623731
 10
-264.3091892222463
 20
2422.499731672593
 42
0.4142135623731
  0
LINE
  5
199
330
1F
100
AcDbEntity
  8
0-6_扉
  6
Continuous
 62
   200
370
    20
100
AcDbLine
 10
99.91854284331623
 20
2462.999683277028
 30
0.0
 11
99.91854284331623
 21
2642.999683277028
 31
0.0
  0
LINE
  5
19A
330
1F
100
AcDbEntity
  8
0-6_扉
  6
JWW_DASHED2
 62
    40
370
    15
100
AcDbLine
 10
-80.08145715668377
 20
2462.999683277028
 30
0.0
 11
-80.08145715668377
 21
2642.999683277028
 31
0.0
  0
LWPOLYLINE
  5
19B
330
1F
100
AcDbEntity
  8
0-6_扉
  6
Continuous
 62
     7
370
     9
100
AcDbPolyline
 90
        4
 70
     1
 43
3.0
 10
-262.8091892222463
 20
2462.999683277028
 42
0.4142135623731
 10
-264.3091892222463
 20
2464.499683277028
 42
0.4142135623731
 10
-265.8091892222463
 20
2462.999683277028
 42
0.4142135623731
 10
-264.3091892222463
 20
2461.499683277028
 42
0.4142135623731
  0
LINE
  5
19C
330
1F
100
AcDbEntity
  8
0-B_寸法
  6
Continuous
 62
   120
370
     5
100
AcDbLine
 10
-264.3091892222463
 20
2168.999683277028
 30
0.0
 11
-110.4626879444373
 21
2168.999683277028
 31
0.0
  0
LWPOLYLINE
  5
19D
330
1F
100
AcDbEntity
  8
0-B_寸法
  6
Continuous
 62
     7
370
     9
100
AcDbPolyline
 90
        4
 70
     1
 43
3.0
 10
-262.8091892222463
 20
2168.999683277028
 42
0.4142135623731
 10
-264.3091892222463
 20
2170.499683277027
 42
0.4142135623731
 10
-265.8091892222463
 20
2168.999683277028
 42
0.4142135623731
 10
-264.3091892222463
 20
2167.499683277028
 42
0.4142135623731
  0
LINE
  5
19E
330
1F
100
AcDbEntity
  8
0-B_寸法
  6
Continuous
 62
   120
370
     5
100
AcDbLine
 10
-264.3091892222463
 20
2423.999683277028
 30
0.0
 11
-264.3091892222463
 21
2168.999683277028
 31
0.0
  0
LINE
  5
19F
330
1F
100
AcDbEntity
  8
0-4_枠
  6
Continuous
 62
    92
370
    13
100
AcDbLine
 10
96.91854284331725
 20
2258.999683277028
 30
0.0
 11
99.91854284331623
 21
2258.999683277028
 31
0.0
  0
LINE
  5
1A0
330
1F
100
AcDbEntity
  8
0-4_枠
  6
Continuous
 62
    92
370
    13
100
AcDbLine
 10
99.91854284331623
 20
2423.999683277028
 30
0.0
 11
99.91854284331623
 21
2168.999683277028
 31
0.0
  0
LINE
  5
1A1
330
1F
100
AcDbEntity
  8
0-4_枠
  6
Continuous
 62
    92
370
    13
100
AcDbLine
 10
96.91854284331725
 20
2258.999683277028
 30
0.0
 11
96.91854284331725
 21
2171.999683277026
 31
0.0
  0
LINE
  5
1A2
330
1F
100
AcDbEntity
  8
0-4_枠
  6
Continuous
 62
    92
370
    13
100
AcDbLine
 10
-71.59617578244479
 20
2168.999683277028
 30
0.0
 11
99.91854284331623
 21
2168.999683277028
 31
0.0
  0
LINE
  5
1A3
330
1F
100
AcDbEntity
  8
0-4_枠
  6
Continuous
 62
    92
370
    13
100
AcDbLine
 10
-80.08145715668377
 20
2177.484964651265
 30
0.0
 11
-80.08145715668377
 21
2423.999683277028
 31
0.0
  0
LINE
  5
1A4
330
1F
100
AcDbEntity
  8
0-4_枠
  6
Continuous
 62
    92
370
    13
100
AcDbLine
 10
-71.59617578244479
 20
2168.999683277028
 30
0.0
 11
-80.08145715668377
 21
2177.484964651265
 31
0.0
  0
LINE
  5
1A5
330
1F
100
AcDbEntity
  8
0-4_枠
  6
Continuous
 62
    92
370
    13
100
AcDbLine
 10
-77.08145715668138
 20
2420.999683277027
 30
0.0
 11
-77.08145715668138
 21
2178.727605338383
 31
0.0
  0
LINE
  5
1A6
330
1F
100
AcDbEntity
  8
0-4_枠
  6
Continuous
 62
    92
370
    13
100
AcDbLine
 10
-70.35353509532513
 20
2171.999683277026
 30
0.0
 11
-77.08145715668138
 21
2178.727605338383
 31
0.0
  0
LINE
  5
1A7
330
1F
100
AcDbEntity
  8
0-4_枠
  6
Continuous
 62
    92
370
    13
100
AcDbLine
 10
96.91854284331725
 20
2171.999683277026
 30
0.0
 11
-70.35353509532513
 21
2171.999683277026
 31
0.0
  0
LINE
  5
1A8
330
1F
100
AcDbEntity
  8
0-C_ハッチ
  6
Continuous
 62
   120
370
     5
100
AcDbLine
 10
99.91854284331623
 20
2333.373078967267
 30
0.0
 11
-61.45485284692256
 21
2171.999683277026
 31
0.0
  0
LINE
  5
1A9
330
1F
100
AcDbEntity
  8
0-C_ハッチ
  6
Continuous
 62
   120
370
     5
100
AcDbLine
 10
99.91854284331623
 20
2273.97610934762
 30
0.0
 11
-2.057883227275283
 21
2171.999683277026
 31
0.0
  0
LINE
  5
1AA
330
1F
100
AcDbEntity
  8
0-C_ハッチ
  6
Continuous
 62
   120
370
     5
100
AcDbLine
 10
96.91854284331725
 20
2211.579139727915
 30
0.0
 11
57.33908639242827
 21
2171.999683277026
 31
0.0
  0
LINE
  5
1AB
330
1F
100
AcDbEntity
  8
0-C_ハッチ
  6
JWW_DASHED1
 62
   120
370
     5
100
AcDbLine
 10
133.2576403595215
 20
2303.999683277039
 30
0.0
 11
99.91854284330259
 21
2270.660585760821
 31
0.0
  0
LINE
  5
1AC
330
1F
100
AcDbEntity
  8
0-C_ハッチ
  6
JWW_DASHED1
 62
   120
370
     5
100
AcDbLine
 10
175.6840472307202
 20
2303.999683277036
 30
0.0
 11
100.6840472307232
 21
2228.999683277041
 31
0.0
  0
LINE
  5
1AD
330
1F
100
AcDbEntity
  8
0-C_ハッチ
  6
JWW_DASHED1
 62
   120
370
     5
100
AcDbLine
 10
218.1104541019147
 20
2303.999683277033
 30
0.0
 11
143.1104541019202
 21
2228.999683277036
 31
0.0
  0
LINE
  5
1AE
330
1F
100
AcDbEntity
  8
0-C_ハッチ
  6
JWW_DASHED1
 62
   120
370
     5
100
AcDbLine
 10
260.5368609731134
 20
2303.999683277029
 30
0.0
 11
185.5368609731164
 21
2228.999683277034
 31
0.0
  0
LINE
  5
1AF
330
1F
100
AcDbEntity
  8
0-C_ハッチ
  6
JWW_DASHED1
 62
   120
370
     5
100
AcDbLine
 10
302.9632678443079
 20
2303.999683277028
 30
0.0
 11
227.9632678443134
 21
2228.999683277029
 31
0.0
  0
LINE
  5
1B0
330
1F
100
AcDbEntity
  8
0-C_ハッチ
  6
JWW_DASHED1
 62
   120
370
     5
100
AcDbLine
 10
345.3896747155067
 20
2303.999683277022
 30
0.0
 11
270.3896747155096
 21
2228.999683277028
 31
0.0
  0
LINE
  5
1B1
330
1F
100
AcDbEntity
  8
0-C_ハッチ
  6
JWW_DASHED1
 62
   120
370
     5
100
AcDbLine
 10
387.8160815867182
 20
2303.999683277034
 30
0.0
 11
312.8160815867067
 21
2228.999683277024
 31
0.0
  0
LINE
  5
1B2
330
1F
100
AcDbEntity
  8
0-C_ハッチ
  6
JWW_DASHED1
 62
   120
370
     5
100
AcDbLine
 10
430.242488457867
 20
2303.999683277036
 30
0.0
 11
355.2424884578551
 21
2228.999683277028
 31
0.0
  0
LINE
  5
1B3
330
1F
100
AcDbEntity
  8
0-C_ハッチ
  6
JWW_DASHED1
 62
   120
370
     5
100
AcDbLine
 10
472.6688953290602
 20
2303.999683277033
 30
0.0
 11
397.668895329067
 21
2228.999683277038
 31
0.0
  0
LINE
  5
1B4
330
1F
100
AcDbEntity
  8
0-C_ハッチ
  6
JWW_DASHED1
 62
   120
370
     5
100
AcDbLine
 10
515.0953022002658
 20
2303.999683277036
 30
0.0
 11
440.0953022002705
 21
2228.999683277041
 31
0.0
  0
LINE
  5
1B5
330
1F
100
AcDbEntity
  8
0-C_ハッチ
  6
JWW_DASHED1
 62
   120
370
     5
100
AcDbLine
 10
557.5217090714619
 20
2303.999683277034
 30
0.0
 11
482.5217090714658
 21
2228.999683277038
 31
0.0
  0
LINE
  5
1B6
330
1F
100
AcDbEntity
  8
0-C_ハッチ
  6
JWW_DASHED1
 62
   120
370
     5
100
AcDbLine
 10
599.948115942659
 20
2303.999683277029
 30
0.0
 11
524.948115942662
 21
2228.999683277034
 31
0.0
  0
LINE
  5
1B7
330
1F
100
AcDbEntity
  8
0-C_ハッチ
  6
JWW_DASHED1
 62
   120
370
     5
100
AcDbLine
 10
642.3745228138552
 20
2303.999683277028
 30
0.0
 11
567.374522813859
 21
2228.999683277031
 31
0.0
  0
LINE
  5
1B8
330
1F
100
AcDbEntity
  8
0-C_ハッチ
  6
JWW_DASHED1
 62
   120
370
     5
100
AcDbLine
 10
684.8009296850522
 20
2303.999683277022
 30
0.0
 11
609.8009296850552
 21
2228.999683277028
 31
0.0
  0
LINE
  5
1B9
330
1F
100
AcDbEntity
  8
0-C_ハッチ
  6
JWW_DASHED1
 62
   120
370
     5
100
AcDbLine
 10
727.2273365562659
 20
2303.999683277036
 30
0.0
 11
652.2273365562522
 21
2228.999683277024
 31
0.0
  0
LINE
  5
1BA
330
1F
100
AcDbEntity
  8
0-C_ハッチ
  6
JWW_DASHED1
 62
   120
370
     5
100
AcDbLine
 10
769.6537434274045
 20
2303.999683277029
 30
0.0
 11
694.6537434274113
 21
2228.999683277034
 31
0.0
  0
LINE
  5
1BB
330
1F
100
AcDbEntity
  8
0-C_ハッチ
  6
JWW_DASHED1
 62
   120
370
     5
100
AcDbLine
 10
812.0801502985989
 20
2303.999683277026
 30
0.0
 11
737.0801502986045
 21
2228.999683277031
 31
0.0
  0
LINE
  5
1BC
330
1F
100
AcDbEntity
  8
0-C_ハッチ
  6
JWW_DASHED1
 62
   120
370
     5
100
AcDbLine
 10
854.4186170752539
 20
2303.911743182481
 30
0.0
 11
779.506557169816
 21
2228.999683277041
 31
0.0
  0
LINE
  5
1BD
330
1F
100
AcDbEntity
  8
0-C_ハッチ
  6
JWW_DASHED1
 62
   120
370
     5
100
AcDbLine
 10
104.9780733301992
 20
2411.999683277026
 30
0.0
 11
99.91854284332007
 21
2406.940152790149
 31
0.0
  0
LINE
  5
1BE
330
1F
100
AcDbEntity
  8
0-C_ハッチ
  6
JWW_DASHED1
 62
   120
370
     5
100
AcDbLine
 10
147.4044802013975
 20
2411.999683277026
 30
0.0
 11
114.404480201399
 21
2378.999683277028
 31
0.0
  0
LINE
  5
1BF
330
1F
100
AcDbEntity
  8
0-C_ハッチ
  6
JWW_DASHED1
 62
   120
370
     5
100
AcDbLine
 10
189.8308870725992
 20
2411.999683277026
 30
0.0
 11
156.8308870725951
 21
2378.999683277022
 31
0.0
  0
LINE
  5
1C0
330
1F
100
AcDbEntity
  8
0-C_ハッチ
  6
JWW_DASHED1
 62
   120
370
     5
100
AcDbLine
 10
232.2572939437447
 20
2411.999683277026
 30
0.0
 11
199.2572939437457
 21
2378.999683277028
 31
0.0
  0
LINE
  5
1C1
330
1F
100
AcDbEntity
  8
0-C_ハッチ
  6
JWW_DASHED1
 62
   120
370
     5
100
AcDbLine
 10
274.6837008149447
 20
2411.999683277026
 30
0.0
 11
241.6837008149611
 21
2378.999683277043
 31
0.0
  0
LINE
  5
1C2
330
1F
100
AcDbEntity
  8
0-C_ハッチ
  6
JWW_DASHED1
 62
   120
370
     5
100
AcDbLine
 10
317.1101076861447
 20
2411.999683277026
 30
0.0
 11
284.1101076861581
 21
2378.999683277041
 31
0.0
  0
LINE
  5
1C3
330
1F
100
AcDbEntity
  8
0-C_ハッチ
  6
JWW_DASHED1
 62
   120
370
     5
100
AcDbLine
 10
359.5365145573447
 20
2411.999683277026
 30
0.0
 11
326.5365145573543
 21
2378.999683277036
 31
0.0
  0
LINE
  5
1C4
330
1F
100
AcDbEntity
  8
0-C_ハッチ
  6
JWW_DASHED1
 62
   120
370
     5
100
AcDbLine
 10
401.9629214285447
 20
2411.999683277026
 30
0.0
 11
368.9629214285526
 21
2378.999683277034
 31
0.0
  0
LINE
  5
1C5
330
1F
100
AcDbEntity
  8
0-C_ハッチ
  6
JWW_DASHED1
 62
   120
370
     5
100
AcDbLine
 10
444.3893282997448
 20
2411.999683277026
 30
0.0
 11
411.3893282997492
 21
2378.999683277029
 31
0.0
  0
LINE
  5
1C6
330
1F
100
AcDbEntity
  8
0-C_ハッチ
  6
JWW_DASHED1
 62
   120
370
     5
100
AcDbLine
 10
486.8157351709448
 20
2411.999683277026
 30
0.0
 11
453.8157351709458
 21
2378.999683277028
 31
0.0
  0
LINE
  5
1C7
330
1F
100
AcDbEntity
  8
0-C_ハッチ
  6
JWW_DASHED1
 62
   120
370
     5
100
AcDbLine
 10
529.2421420420902
 20
2411.999683277026
 30
0.0
 11
496.24214204209
 21
2378.999683277028
 31
0.0
  0
LINE
  5
1C8
330
1F
100
AcDbEntity
  8
0-C_ハッチ
  6
JWW_DASHED1
 62
   120
370
     5
100
AcDbLine
 10
571.6685489132902
 20
2411.999683277026
 30
0.0
 11
538.6685489132844
 21
2378.999683277021
 31
0.0
  0
LINE
  5
1C9
330
1F
100
AcDbEntity
  8
0-C_ハッチ
  6
JWW_DASHED1
 62
   120
370
     5
100
AcDbLine
 10
614.0949557844903
 20
2411.999683277026
 30
0.0
 11
581.0949557845066
 21
2378.999683277043
 31
0.0
  0
LINE
  5
1CA
330
1F
100
AcDbEntity
  8
0-C_ハッチ
  6
JWW_DASHED1
 62
   120
370
     5
100
AcDbLine
 10
656.5213626556903
 20
2411.999683277026
 30
0.0
 11
623.5213626557037
 21
2378.999683277041
 31
0.0
  0
LINE
  5
1CB
330
1F
100
AcDbEntity
  8
0-C_ハッチ
  6
JWW_DASHED1
 62
   120
370
     5
100
AcDbLine
 10
698.9477695268903
 20
2411.999683277026
 30
0.0
 11
665.9477695268998
 21
2378.999683277036
 31
0.0
  0
LINE
  5
1CC
330
1F
100
AcDbEntity
  8
0-C_ハッチ
  6
JWW_DASHED1
 62
   120
370
     5
100
AcDbLine
 10
741.3741763980903
 20
2411.999683277026
 30
0.0
 11
708.3741763980969
 21
2378.999683277034
 31
0.0
  0
LINE
  5
1CD
330
1F
100
AcDbEntity
  8
0-C_ハッチ
  6
JWW_DASHED1
 62
   120
370
     5
100
AcDbLine
 10
783.8005832692903
 20
2411.999683277026
 30
0.0
 11
750.800583269293
 21
2378.999683277029
 31
0.0
  0
LINE
  5
1CE
330
1F
100
AcDbEntity
  8
0-C_ハッチ
  6
JWW_DASHED1
 62
   120
370
     5
100
AcDbLine
 10
826.2269901404903
 20
2411.999683277026
 30
0.0
 11
793.2269901404901
 21
2378.999683277028
 31
0.0
  0
LINE
  5
1CF
330
1F
100
AcDbEntity
  8
0-2_柱
  6
Continuous
 62
    92
370
    13
100
AcDbLine
 10
279.9185428433162
 20
2378.999683277028
 30
0.0
 11
279.9185428433162
 21
2303.999683277028
 31
0.0
  0
LINE
  5
1D0
330
1F
100
AcDbEntity
  8
0-2_柱
  6
Continuous
 62
     7
370
     9
100
AcDbLine
 10
99.91854284331623
 20
2303.999683277028
 30
0.0
 11
279.9185428433162
 21
2378.999683277028
 31
0.0
  0
MTEXT
  5
1D1
330
1F
100
AcDbEntity
  8
0-6_扉
  6
Continuous
 62
     7
370
   211
100
AcDbMText
 10
-119.0211199143431
 20
2339.219731672592
 30
0.0
 40
91.44
 41
180.0
 46
0.0
 71
     7
 72
     1
  1
{\fＭＳ ゴシック|b0|i0|c128|p49;6.5}
 11
6.123031769111886E-17
 21
1.0
 31
0.0
 73
     1
 44
1.0
  0
MTEXT
  5
1D2
330
1F
100
AcDbEntity
  8
0-B_寸法
  6
Continuous
 62
     7
370
     0
100
AcDbMText
 10
-279.3092387102087
 20
2478.719683277027
 30
0.0
 40
91.44
 41
120.0
 46
0.0
 71
     7
 72
     1
  1
{\fＭＳ ゴシック|b0|i0|c128|p49;30}
 11
6.123031769111886E-17
 21
1.0
 31
0.0
 73
     1
 44
1.0
  0
MTEXT
  5
1D3
330
1F
100
AcDbEntity
  8
0-B_寸法
  6
Continuous
 62
     7
370
     0
100
AcDbMText
 10
-270.9319587462636
 20
2162.219683277027
 30
0.0
 40
91.44
 41
240.0
 46
0.0
 71
     7
 72
     1
  1
{\fＭＳ ゴシック|b0|i0|c128|p49;42.5}
 11
6.123031769111886E-17
 21
1.0
 31
0.0
 73
     1
 44
1.0
  0
MTEXT
  5
1D4
330
1F
100
AcDbEntity
  8
0-B_寸法
  6
Continuous
 62
     7
370
   211
100
AcDbMText
 10
-53.83145715668377
 20
1513.577183277027
 30
0.0
 40
97.15499999999999
 41
127.5
 46
0.0
 71
     7
 72
     1
  1
{\fＭＳ ゴシック|b0|i0|c128|p49;30}
 73
     1
 44
1.0
  0
LINE
  5
1D5
330
1F
100
AcDbEntity
  8
0-B_寸法
  6
Continuous
 62
   120
370
     5
100
AcDbLine
 10
99.91854284331623
 20
1509.999683277027
 30
0.0
 11
2266.034456028233
 21
1509.999683277027
 31
0.0
  0
LINE
  5
1D6
330
1F
100
AcDbEntity
  8
0-0_補助線
  6
JWW_HOJO
 62
   120
370
     5
100
AcDbLine
 10
-1192.848406992072
 20
2957.999138909418
 30
0.0
 11
-1192.848406992072
 21
1899.999683277026
 31
0.0
  0
LINE
  5
1D7
330
1F
100
AcDbEntity
  8
0-6_扉
  6
Continuous
 62
   200
370
    20
100
AcDbLine
 10
-2264.198112661065
 20
2462.999683277028
 30
0.0
 11
-1192.848406992072
 21
2462.999683277028
 31
0.0
  0
LINE
  5
1D8
330
1F
100
AcDbEntity
  8
0-6_扉
  6
Continuous
 62
   200
370
    20
100
AcDbLine
 10
-2264.198112661065
 20
2642.999683277028
 30
0.0
 11
-1192.848406992072
 21
2642.999683277028
 31
0.0
  0
LINE
  5
1D9
330
1F
100
AcDbEntity
  8
0-0_補助線
  6
JWW_HOJO
 62
   120
370
     5
100
AcDbLine
 10
-1072.848406992072
 20
2957.999138909418
 30
0.0
 11
-1072.848406992072
 21
1899.999683277026
 31
0.0
  0
LINE
  5
1DA
330
1F
100
AcDbEntity
  8
0-6_扉
  6
Continuous
 62
   200
370
    20
100
AcDbLine
 10
-1072.848406992072
 20
2462.999683277028
 30
0.0
 11
99.91854284331623
 21
2462.999683277028
 31
0.0
  0
LINE
  5
1DB
330
1F
100
AcDbEntity
  8
0-6_扉
  6
Continuous
 62
   200
370
    20
100
AcDbLine
 10
-1072.848406992072
 20
2642.999683277028
 30
0.0
 11
99.91854284331623
 21
2642.999683277028
 31
0.0
  0
LINE
  5
1DC
330
1F
100
AcDbEntity
  8
0-0_補助線
  6
JWW_HOJO
 62
   120
370
     5
100
AcDbLine
 10
1041.976499435778
 20
2957.999138909418
 30
0.0
 11
1041.976499435778
 21
1899.999683277026
 31
0.0
  0
LINE
  5
1DD
330
1F
100
AcDbEntity
  8
0-3_仕上げ
  6
Continuous
 62
    40
370
    15
100
AcDbLine
 10
1041.976499435778
 20
2303.999683277028
 30
0.0
 11
99.91854284331623
 21
2303.999683277028
 31
0.0
  0
LINE
  5
1DE
330
1F
100
AcDbEntity
  8
0-6_扉
  6
JWW_DASHED2
 62
    40
370
    15
100
AcDbLine
 10
99.91854284331623
 20
2462.999683277028
 30
0.0
 11
1041.976499435778
 21
2462.999683277028
 31
0.0
  0
LINE
  5
1DF
330
1F
100
AcDbEntity
  8
0-6_扉
  6
JWW_DASHED2
 62
    40
370
    15
100
AcDbLine
 10
99.91854284331623
 20
2642.999683277028
 30
0.0
 11
1041.976499435778
 21
2642.999683277028
 31
0.0
  0
LINE
  5
1E0
330
1F
100
AcDbEntity
  8
0-3_仕上げ
  6
Continuous
 62
    40
370
    15
100
AcDbLine
 10
1041.976499435778
 20
2228.999683277028
 30
0.0
 11
99.91854284331623
 21
2228.999683277028
 31
0.0
  0
LINE
  5
1E1
330
1F
100
AcDbEntity
  8
0-3_仕上げ
  6
Continuous
 62
    40
370
    15
100
AcDbLine
 10
1041.976499435778
 20
2378.999683277028
 30
0.0
 11
99.91854284331623
 21
2378.999683277028
 31
0.0
  0
LINE
  5
1E2
330
1F
100
AcDbEntity
  8
0-3_仕上げ
  6
Continuous
 62
    40
370
    15
100
AcDbLine
 10
1041.976499435778
 20
2411.999683277026
 30
0.0
 11
99.91854284331623
 21
2411.999683277026
 31
0.0
  0
LINE
  5
1E3
330
1F
100
AcDbEntity
  8
0-0_補助線
  6
JWW_HOJO
 62
   120
370
     5
100
AcDbLine
 10
1161.976499435778
 20
2957.999138909418
 30
0.0
 11
1161.976499435778
 21
1899.999683277026
 31
0.0
  0
LINE
  5
1E4
330
1F
100
AcDbEntity
  8
0-6_扉
  6
JWW_DASHED2
 62
    40
370
    15
100
AcDbLine
 10
1161.976499435778
 20
2462.999683277028
 30
0.0
 11
2284.034456028235
 21
2462.999683277028
 31
0.0
  0
LINE
  5
1E5
330
1F
100
AcDbEntity
  8
0-6_扉
  6
JWW_DASHED2
 62
    40
370
    15
100
AcDbLine
 10
1161.976499435778
 20
2642.999683277028
 30
0.0
 11
2284.034456028235
 21
2642.999683277028
 31
0.0
  0
LINE
  5
1E6
330
1F
100
AcDbEntity
  8
0-3_仕上げ
  6
Continuous
 62
    40
370
    15
100
AcDbLine
 10
3046.034307564338
 20
2228.999683277028
 30
0.0
 11
1161.976499435778
 21
2228.999683277028
 31
0.0
  0
LINE
  5
1E7
330
1F
100
AcDbEntity
  8
0-3_仕上げ
  6
Continuous
 62
    40
370
    15
100
AcDbLine
 10
2266.034456028233
 20
2378.999683277028
 30
0.0
 11
1161.976499435778
 21
2378.999683277028
 31
0.0
  0
LINE
  5
1E8
330
1F
100
AcDbEntity
  8
0-3_仕上げ
  6
Continuous
 62
    40
370
    15
100
AcDbLine
 10
2266.034456028233
 20
2411.999683277026
 30
0.0
 11
1161.976499435778
 21
2411.999683277026
 31
0.0
  0
LINE
  5
1E9
330
1F
100
AcDbEntity
  8
0-C_ハッチ
  6
JWW_DASHED1
 62
   120
370
     5
100
AcDbLine
 10
1502.317130232821
 20
2303.999683277031
 30
0.0
 11
1427.317130232824
 21
2228.999683277036
 31
0.0
  0
LINE
  5
1EA
330
1F
100
AcDbEntity
  8
0-C_ハッチ
  6
JWW_DASHED1
 62
   120
370
     5
100
AcDbLine
 10
1544.743537104017
 20
2303.999683277028
 30
0.0
 11
1469.743537104021
 21
2228.999683277034
 31
0.0
  0
LINE
  5
1EB
330
1F
100
AcDbEntity
  8
0-C_ハッチ
  6
JWW_DASHED1
 62
   120
370
     5
100
AcDbLine
 10
1587.169943975214
 20
2303.999683277026
 30
0.0
 11
1512.169943975217
 21
2228.999683277029
 31
0.0
  0
LINE
  5
1EC
330
1F
100
AcDbEntity
  8
0-C_ハッチ
  6
JWW_DASHED1
 62
   120
370
     5
100
AcDbLine
 10
1584.992255962425
 20
2411.999683277026
 30
0.0
 11
1551.992255962421
 21
2378.999683277022
 31
0.0
  0
LINE
  5
1ED
330
1F
100
AcDbEntity
  8
0-C_ハッチ
  6
JWW_DASHED1
 62
   120
370
     5
100
AcDbLine
 10
1542.565849091225
 20
2411.999683277026
 30
0.0
 11
1509.565849091225
 21
2378.999683277026
 31
0.0
  0
LINE
  5
1EE
330
1F
100
AcDbEntity
  8
0-C_ハッチ
  6
JWW_DASHED1
 62
   120
370
     5
100
AcDbLine
 10
1500.139442220025
 20
2411.999683277026
 30
0.0
 11
1467.139442220026
 21
2378.999683277028
 31
0.0
  0
LINE
  5
1EF
330
1F
100
AcDbEntity
  8
0-C_ハッチ
  6
JWW_DASHED1
 62
   120
370
     5
100
AcDbLine
 10
1457.713035348825
 20
2411.999683277026
 30
0.0
 11
1424.713035348813
 21
2378.999683277015
 31
0.0
  0
LINE
  5
1F0
330
1F
100
AcDbEntity
  8
0-C_ハッチ
  6
JWW_DASHED1
 62
   120
370
     5
100
AcDbLine
 10
1375.037909619231
 20
2303.999683277031
 30
0.0
 11
1300.037909619237
 21
2228.999683277036
 31
0.0
  0
LINE
  5
1F1
330
1F
100
AcDbEntity
  8
0-C_ハッチ
  6
JWW_DASHED1
 62
   120
370
     5
100
AcDbLine
 10
1417.464316490427
 20
2303.999683277028
 30
0.0
 11
1342.464316490431
 21
2228.999683277034
 31
0.0
  0
LINE
  5
1F2
330
1F
100
AcDbEntity
  8
0-C_ハッチ
  6
JWW_DASHED1
 62
   120
370
     5
100
AcDbLine
 10
1459.890723361624
 20
2303.999683277026
 30
0.0
 11
1384.890723361627
 21
2228.999683277029
 31
0.0
  0
LINE
  5
1F3
330
1F
100
AcDbEntity
  8
0-C_ハッチ
  6
JWW_DASHED1
 62
   120
370
     5
100
AcDbLine
 10
1457.713035348836
 20
2411.999683277026
 30
0.0
 11
1424.713035348832
 21
2378.999683277022
 31
0.0
  0
LINE
  5
1F4
330
1F
100
AcDbEntity
  8
0-C_ハッチ
  6
JWW_DASHED1
 62
   120
370
     5
100
AcDbLine
 10
1415.286628477637
 20
2411.999683277026
 30
0.0
 11
1382.286628477635
 21
2378.999683277026
 31
0.0
  0
LINE
  5
1F5
330
1F
100
AcDbEntity
  8
0-C_ハッチ
  6
JWW_DASHED1
 62
   120
370
     5
100
AcDbLine
 10
1372.860221606437
 20
2411.999683277026
 30
0.0
 11
1339.860221606439
 21
2378.999683277028
 31
0.0
  0
LINE
  5
1F6
330
1F
100
AcDbEntity
  8
0-C_ハッチ
  6
JWW_DASHED1
 62
   120
370
     5
100
AcDbLine
 10
1330.433814735236
 20
2411.999683277026
 30
0.0
 11
1297.433814735225
 21
2378.999683277015
 31
0.0
  0
LINE
  5
1F7
330
1F
100
AcDbEntity
  8
0-C_ハッチ
  6
JWW_DASHED1
 62
   120
370
     5
100
AcDbLine
 10
1247.758689005641
 20
2303.999683277031
 30
0.0
 11
1172.758689005646
 21
2228.999683277036
 31
0.0
  0
LINE
  5
1F8
330
1F
100
AcDbEntity
  8
0-C_ハッチ
  6
JWW_DASHED1
 62
   120
370
     5
100
AcDbLine
 10
1290.185095876838
 20
2303.999683277028
 30
0.0
 11
1215.185095876841
 21
2228.999683277034
 31
0.0
  0
LINE
  5
1F9
330
1F
100
AcDbEntity
  8
0-C_ハッチ
  6
JWW_DASHED1
 62
   120
370
     5
100
AcDbLine
 10
1332.611502748034
 20
2303.999683277026
 30
0.0
 11
1257.611502748038
 21
2228.999683277029
 31
0.0
  0
LINE
  5
1FA
330
1F
100
AcDbEntity
  8
0-C_ハッチ
  6
JWW_DASHED1
 62
   120
370
     5
100
AcDbLine
 10
1330.433814735246
 20
2411.999683277026
 30
0.0
 11
1297.433814735241
 21
2378.999683277022
 31
0.0
  0
LINE
  5
1FB
330
1F
100
AcDbEntity
  8
0-C_ハッチ
  6
JWW_DASHED1
 62
   120
370
     5
100
AcDbLine
 10
1288.007407864047
 20
2411.999683277026
 30
0.0
 11
1255.007407864047
 21
2378.999683277026
 31
0.0
  0
LINE
  5
1FC
330
1F
100
AcDbEntity
  8
0-C_ハッチ
  6
JWW_DASHED1
 62
   120
370
     5
100
AcDbLine
 10
1245.581000992847
 20
2411.999683277026
 30
0.0
 11
1212.581000992848
 21
2378.999683277028
 31
0.0
  0
LINE
  5
1FD
330
1F
100
AcDbEntity
  8
0-C_ハッチ
  6
JWW_DASHED1
 62
   120
370
     5
100
AcDbLine
 10
1203.154594121645
 20
2411.999683277026
 30
0.0
 11
1170.154594121635
 21
2378.999683277015
 31
0.0
  0
LINE
  5
1FE
330
1F
100
AcDbEntity
  8
0-C_ハッチ
  6
JWW_DASHED1
 62
   120
370
     5
100
AcDbLine
 10
1203.154594121657
 20
2411.999683277026
 30
0.0
 11
1170.154594121653
 21
2378.999683277022
 31
0.0
  0
LINE
  5
1FF
330
1F
100
AcDbEntity
  8
0-C_ハッチ
  6
JWW_DASHED1
 62
   120
370
     5
100
AcDbLine
 10
1205.332282134444
 20
2303.999683277026
 30
0.0
 11
1161.976499435778
 21
2260.643900578357
 31
0.0
  0
LINE
  5
200
330
1F
100
AcDbEntity
  8
0-C_ハッチ
  6
JWW_DASHED1
 62
   120
370
     5
100
AcDbLine
 10
1162.905875263248
 20
2303.999683277028
 30
0.0
 11
1161.976499435778
 21
2303.070307449556
 31
0.0
  0
LINE
  5
201
330
1F
100
AcDbEntity
  8
0-C_ハッチ
  6
JWW_DASHED1
 62
   120
370
     5
100
AcDbLine
 10
896.9329640410049
 20
2303.999683277026
 30
0.0
 11
821.9329640410092
 21
2228.999683277031
 31
0.0
  0
LINE
  5
202
330
1F
100
AcDbEntity
  8
0-C_ハッチ
  6
JWW_DASHED1
 62
   120
370
     5
100
AcDbLine
 10
939.2714308176598
 20
2303.911743182481
 30
0.0
 11
864.3593709122212
 21
2228.999683277041
 31
0.0
  0
LINE
  5
203
330
1F
100
AcDbEntity
  8
0-C_ハッチ
  6
JWW_DASHED1
 62
   120
370
     5
100
AcDbLine
 10
868.6533970116955
 20
2411.999683277026
 30
0.0
 11
835.6533970116982
 21
2378.999683277029
 31
0.0
  0
LINE
  5
204
330
1F
100
AcDbEntity
  8
0-C_ハッチ
  6
JWW_DASHED1
 62
   120
370
     5
100
AcDbLine
 10
911.0798038828955
 20
2411.999683277026
 30
0.0
 11
878.0798038828948
 21
2378.999683277028
 31
0.0
  0
LINE
  5
205
330
1F
100
AcDbEntity
  8
0-C_ハッチ
  6
JWW_DASHED1
 62
   120
370
     5
100
AcDbLine
 10
981.7857777834092
 20
2303.999683277026
 30
0.0
 11
906.7857777834143
 21
2228.999683277031
 31
0.0
  0
LINE
  5
206
330
1F
100
AcDbEntity
  8
0-C_ハッチ
  6
JWW_DASHED1
 62
   120
370
     5
100
AcDbLine
 10
1024.124244560064
 20
2303.911743182481
 30
0.0
 11
949.2121846546263
 21
2228.999683277041
 31
0.0
  0
LINE
  5
207
330
1F
100
AcDbEntity
  8
0-C_ハッチ
  6
JWW_DASHED1
 62
   120
370
     5
100
AcDbLine
 10
953.5062107541014
 20
2411.999683277026
 30
0.0
 11
920.5062107541041
 21
2378.999683277029
 31
0.0
  0
LINE
  5
208
330
1F
100
AcDbEntity
  8
0-C_ハッチ
  6
JWW_DASHED1
 62
   120
370
     5
100
AcDbLine
 10
995.9326176253014
 20
2411.999683277026
 30
0.0
 11
962.9326176252999
 21
2378.999683277028
 31
0.0
  0
LINE
  5
209
330
1F
100
AcDbEntity
  8
0-C_ハッチ
  6
JWW_DASHED1
 62
   120
370
     5
100
AcDbLine
 10
1038.359024496506
 20
2411.999683277026
 30
0.0
 11
1005.359024496508
 21
2378.999683277029
 31
0.0
  0
LINE
  5
20A
330
1F
100
AcDbEntity
  8
0-C_ハッチ
  6
JWW_DASHED1
 62
   120
370
     5
100
AcDbLine
 10
1041.976499435778
 20
2236.911184315787
 30
0.0
 11
1034.064998397032
 21
2228.999683277041
 31
0.0
  0
LINE
  5
20B
330
1F
100
AcDbEntity
  8
0-C_ハッチ
  6
JWW_DASHED1
 62
   120
370
     5
100
AcDbLine
 10
1041.976499435778
 20
2279.337591186988
 30
0.0
 11
991.6385915258195
 21
2228.999683277031
 31
0.0
  0
MTEXT
  5
20C
330
1F
100
AcDbEntity
  8
0-B_寸法
  6
Continuous
 62
     7
370
     0
100
AcDbMText
 10
-1340.081457156684
 20
1303.18337432266
 30
0.0
 40
91.44000000000001
 41
2700.0
 46
0.0
 71
     7
 72
     1
  1
{\fＭＳ ゴシック|b0|i0|c128|p49;枠内＝1,764（1,584）<1,390>［1,264］〔1,130〕}
 73
     1
 44
1.0
  0
MTEXT
  5
20D
330
1F
100
AcDbEntity
  8
0-B_寸法
  6
Continuous
 62
     7
370
     0
100
AcDbMText
 10
-1340.081457156684
 20
1084.466280697265
 30
0.0
 40
91.44000000000001
 41
2700.0
 46
0.0
 71
     7
 72
     1
  1
{\fＭＳ ゴシック|b0|i0|c128|p49;枠外＝1,824（1,644）<1,450>［1,324］〔1,190〕}
 73
     1
 44
1.0
  0
MTEXT
  5
20E
330
1F
100
AcDbEntity
  8
0-B_寸法
  6
Continuous
 62
     7
370
   211
100
AcDbMText
 10
211.7264994357748
 20
1516.040545345992
 30
0.0
 40
102.081724137931
 41
1942.5
 46
0.0
 71
     7
 72
     1
  1
{\fＭＳ ゴシック|b0|i0|c128|p49;867（777）<680>［617］〔550〕}
 73
     1
 44
1.0
  0
MTEXT
  5
20F
330
1F
100
AcDbEntity
  8
0-B_寸法
  6
Continuous
 62
     7
370
   211
100
AcDbMText
 10
-2134.389784908873
 20
1516.040545345992
 30
0.0
 40
102.081724137931
 41
1942.5
 46
0.0
 71
     7
 72
     1
  1
{\fＭＳ ゴシック|b0|i0|c128|p49;867（777）<680>［617］〔550〕}
 73
     1
 44
1.0
  0
MTEXT
  5
210
330
1F
100
AcDbEntity
  8
0-B_寸法
  6
Continuous
 62
     7
370
   211
100
AcDbMText
 10
-1560.639784908873
 20
1650.482183277027
 30
0.0
 40
100.965
 41
795.0
 46
0.0
 71
     7
 72
     1
  1
{\fＭＳ ゴシック|b0|i0|c128|p49;有効開口寸法}
 73
     1
 44
1.0
  0
MTEXT
  5
211
330
1F
100
AcDbEntity
  8
0-B_寸法
  6
Continuous
 62
     7
370
   211
100
AcDbMText
 10
-1919.668271438882
 20
2763.108111848457
 30
0.0
 40
102.2168571428572
 41
2347.5
 46
0.0
 71
     7
 72
     1
  1
{\fＭＳ ゴシック|b0|i0|c128|p49;ＤＷ＝900（810）<713>［650］〔583〕}
 73
     1
 44
1.0
  0
MTEXT
  5
212
330
1F
100
AcDbEntity
  8
0-A_文字
  6
Continuous
 62
     7
370
     9
100
AcDbMText
 10
-3026.198112661064
 20
3063.719138909418
 30
0.0
 40
91.44
 41
600.0
 46
0.0
 71
     7
 72
     1
  1
{\fＭＳ ゴシック|b0|i0|c128|p49;■横断面図}
 73
     1
 44
1.0
  0
LINE
  5
213
330
1F
100
AcDbEntity
  8
0-0_補助線
  6
JWW_HOJO
 62
   120
370
     5
100
AcDbLine
 10
-3026.198112661064
 20
2957.999138909418
 30
0.0
 11
3046.034307564338
 21
2957.999138909418
 31
0.0
  0
LINE
  5
214
330
1F
100
AcDbEntity
  8
0-0_補助線
  6
JWW_HOJO
 62
   120
370
     5
100
AcDbLine
 10
-3026.198112661064
 20
1899.999683277026
 30
0.0
 11
3046.034307564338
 21
1899.999683277026
 31
0.0
  0
LINE
  5
215
330
1F
100
AcDbEntity
  8
0-0_補助線
  6
JWW_HOJO
 62
   120
370
     5
100
AcDbLine
 10
-3026.198112661064
 20
1509.999683277027
 30
0.0
 11
3046.034307564338
 21
1509.999683277027
 31
0.0
  0
LINE
  5
216
330
1F
100
AcDbEntity
  8
0-0_補助線
  6
JWW_HOJO
 62
   120
370
     5
100
AcDbLine
 10
-3026.198112661064
 20
1299.999683277027
 30
0.0
 11
3046.034307564338
 21
1299.999683277027
 31
0.0
  0
LINE
  5
217
330
1F
100
AcDbEntity
  8
0-0_補助線
  6
JWW_HOJO
 62
   120
370
     5
100
AcDbLine
 10
-3026.198112661064
 20
2957.999138909418
 30
0.0
 11
-3026.198112661064
 21
1089.999683277027
 31
0.0
  0
LINE
  5
218
330
1F
100
AcDbEntity
  8
0-0_補助線
  6
JWW_HOJO
 62
   120
370
     5
100
AcDbLine
 10
-3026.198112661064
 20
1089.999683277027
 30
0.0
 11
3046.034307564338
 21
1089.999683277027
 31
0.0
  0
LINE
  5
219
330
1F
100
AcDbEntity
  8
0-A_文字
  6
Continuous
 62
    92
370
    13
100
AcDbLine
 10
5679.835838693025
 20
3730.000181455871
 30
0.0
 11
3855.835838693024
 21
3730.000181455871
 31
0.0
  0
LINE
  5
21A
330
1F
100
AcDbEntity
  8
0-A_文字
  6
Continuous
 62
    92
370
    13
100
AcDbLine
 10
3855.835838693024
 20
3586.000181455871
 30
0.0
 11
5679.835838693025
 21
3586.000181455871
 31
0.0
  0
LINE
  5
21B
330
1F
100
AcDbEntity
  8
0-A_文字
  6
Continuous
 62
    92
370
    13
100
AcDbLine
 10
5679.835838693025
 20
2764.000181455871
 30
0.0
 11
3855.835838693024
 21
2764.000181455871
 31
0.0
  0
LINE
  5
21C
330
1F
100
AcDbEntity
  8
0-0_補助線
  6
JWW_HOJO
 62
   120
370
     5
100
AcDbLine
 10
4311.835838693025
 20
3730.000181455871
 30
0.0
 11
4311.835838693025
 21
2764.000181455871
 31
0.0
  0
LINE
  5
21D
330
1F
100
AcDbEntity
  8
0-0_補助線
  6
JWW_HOJO
 62
   120
370
     5
100
AcDbLine
 10
5223.835838693025
 20
3730.000181455871
 30
0.0
 11
5223.835838693025
 21
2764.000181455871
 31
0.0
  0
LINE
  5
21E
330
1F
100
AcDbEntity
  8
0-0_補助線
  6
JWW_HOJO
 62
   120
370
     5
100
AcDbLine
 10
3879.835838693023
 20
3730.000181455871
 30
0.0
 11
3879.835838693023
 21
2764.000181455871
 31
0.0
  0
LINE
  5
21F
330
1F
100
AcDbEntity
  8
0-0_補助線
  6
JWW_HOJO
 62
   120
370
     5
100
AcDbLine
 10
4743.835838693023
 20
3730.000181455871
 30
0.0
 11
4743.835838693023
 21
2764.000181455871
 31
0.0
  0
LINE
  5
220
330
1F
100
AcDbEntity
  8
0-0_補助線
  6
JWW_HOJO
 62
   120
370
     5
100
AcDbLine
 10
4791.835838693025
 20
3730.000181455871
 30
0.0
 11
4791.835838693025
 21
2764.000181455871
 31
0.0
  0
LINE
  5
221
330
1F
100
AcDbEntity
  8
0-0_補助線
  6
JWW_HOJO
 62
   120
370
     5
100
AcDbLine
 10
5655.835838693025
 20
3730.000181455871
 30
0.0
 11
5655.835838693025
 21
2764.000181455871
 31
0.0
  0
LINE
  5
222
330
1F
100
AcDbEntity
  8
0-A_文字
  6
Continuous
 62
    92
370
    13
100
AcDbLine
 10
3855.835838693024
 20
3730.000181455871
 30
0.0
 11
3855.835838693024
 21
2764.000181455871
 31
0.0
  0
LINE
  5
223
330
1F
100
AcDbEntity
  8
0-A_文字
  6
Continuous
 62
    92
370
    13
100
AcDbLine
 10
4767.835838693024
 20
3730.000181455871
 30
0.0
 11
4767.835838693024
 21
2764.000181455871
 31
0.0
  0
LINE
  5
224
330
1F
100
AcDbEntity
  8
0-A_文字
  6
Continuous
 62
    92
370
    13
100
AcDbLine
 10
5679.835838693025
 20
3730.000181455871
 30
0.0
 11
5679.835838693025
 21
2764.000181455871
 31
0.0
  0
LINE
  5
225
330
1F
100
AcDbEntity
  8
戸当り
  6
Continuous
 62
    40
370
    15
100
AcDbLine
 10
4319.035838693026
 20
3344.723723027997
 30
0.0
 11
4319.035838693026
 21
3366.323723027998
 31
0.0
  0
LINE
  5
226
330
1F
100
AcDbEntity
  8
戸当り
  6
Continuous
 62
    40
370
    15
100
AcDbLine
 10
3879.835838693023
 20
3344.723723027997
 30
0.0
 11
4319.035838693026
 21
3344.723723027997
 31
0.0
  0
LINE
  5
227
330
1F
100
AcDbEntity
  8
戸当り
  6
Continuous
 62
    40
370
    15
100
AcDbLine
 10
3951.835838693024
 20
3366.323723027998
 30
0.0
 11
4319.035838693026
 21
3366.323723027998
 31
0.0
  0
LINE
  5
228
330
1F
100
AcDbEntity
  8
戸当り
  6
Continuous
 62
    40
370
    15
100
AcDbLine
 10
3951.835838693024
 20
3366.323723027998
 30
0.0
 11
3951.835838693024
 21
3387.923723027997
 31
0.0
  0
LINE
  5
229
330
1F
100
AcDbEntity
  8
戸当り
  6
JWW_DASHED2
 62
    40
370
    15
100
AcDbLine
 10
4304.635838693025
 20
3377.123723027998
 30
0.0
 11
3951.835838693024
 21
3377.123723027998
 31
0.0
  0
LINE
  5
22A
330
1F
100
AcDbEntity
  8
戸当り
  6
Continuous
 62
    40
370
    15
100
AcDbLine
 10
3951.835838693024
 20
3387.923723027997
 30
0.0
 11
3879.835838693023
 21
3387.923723027997
 31
0.0
  0
LINE
  5
22B
330
1F
100
AcDbEntity
  8
戸当り
  6
Continuous
 62
    40
370
    15
100
AcDbLine
 10
4671.835838693025
 20
3344.723723027997
 30
0.0
 11
4671.835838693025
 21
3387.923723027997
 31
0.0
  0
LINE
  5
22C
330
1F
100
AcDbEntity
  8
戸当り
  6
Continuous
 62
    40
370
    15
100
AcDbLine
 10
4304.635838693025
 20
3377.123723027998
 30
0.0
 11
4671.835838693025
 21
3377.123723027998
 31
0.0
  0
LINE
  5
22D
330
1F
100
AcDbEntity
  8
戸当り
  6
Continuous
 62
    40
370
    15
100
AcDbLine
 10
4671.835838693025
 20
3344.723723027997
 30
0.0
 11
4743.835838693023
 21
3344.723723027997
 31
0.0
  0
LINE
  5
22E
330
1F
100
AcDbEntity
  8
戸当り
  6
Continuous
 62
    40
370
    15
100
AcDbLine
 10
4671.835838693025
 20
3387.923723027997
 30
0.0
 11
4743.835838693023
 21
3387.923723027997
 31
0.0
  0
LINE
  5
22F
330
1F
100
AcDbEntity
  8
戸当り
  6
Continuous
 62
    92
370
    13
100
AcDbLine
 10
4495.435838693024
 20
3305.123723027998
 30
0.0
 11
4495.435838693024
 21
3449.123723027998
 31
0.0
  0
LINE
  5
230
330
1F
100
AcDbEntity
  8
戸当り
  6
Continuous
 62
    40
370
    15
100
AcDbLine
 10
5216.635838693025
 20
3344.723723027997
 30
0.0
 11
5216.635838693025
 21
3366.323723027998
 31
0.0
  0
LINE
  5
231
330
1F
100
AcDbEntity
  8
戸当り
  6
Continuous
 62
    40
370
    15
100
AcDbLine
 10
5655.835838693025
 20
3344.723723027997
 30
0.0
 11
5216.635838693025
 21
3344.723723027997
 31
0.0
  0
LINE
  5
232
330
1F
100
AcDbEntity
  8
戸当り
  6
Continuous
 62
    40
370
    15
100
AcDbLine
 10
5583.835838693025
 20
3366.323723027998
 30
0.0
 11
5216.635838693025
 21
3366.323723027998
 31
0.0
  0
LINE
  5
233
330
1F
100
AcDbEntity
  8
戸当り
  6
Continuous
 62
    40
370
    15
100
AcDbLine
 10
5583.835838693025
 20
3366.323723027998
 30
0.0
 11
5583.835838693025
 21
3387.923723027997
 31
0.0
  0
LINE
  5
234
330
1F
100
AcDbEntity
  8
戸当り
  6
JWW_DASHED2
 62
    40
370
    15
100
AcDbLine
 10
5231.035838693026
 20
3377.123723027998
 30
0.0
 11
5583.835838693025
 21
3377.123723027998
 31
0.0
  0
LINE
  5
235
330
1F
100
AcDbEntity
  8
戸当り
  6
Continuous
 62
    40
370
    15
100
AcDbLine
 10
5583.835838693025
 20
3387.923723027997
 30
0.0
 11
5655.835838693025
 21
3387.923723027997
 31
0.0
  0
LINE
  5
236
330
1F
100
AcDbEntity
  8
戸当り
  6
Continuous
 62
    40
370
    15
100
AcDbLine
 10
4863.835838693023
 20
3344.723723027997
 30
0.0
 11
4863.835838693023
 21
3387.923723027997
 31
0.0
  0
LINE
  5
237
330
1F
100
AcDbEntity
  8
戸当り
  6
Continuous
 62
    40
370
    15
100
AcDbLine
 10
5231.035838693026
 20
3377.123723027998
 30
0.0
 11
4863.835838693023
 21
3377.123723027998
 31
0.0
  0
LINE
  5
238
330
1F
100
AcDbEntity
  8
戸当り
  6
Continuous
 62
    40
370
    15
100
AcDbLine
 10
4863.835838693023
 20
3344.723723027997
 30
0.0
 11
4791.835838693025
 21
3344.723723027997
 31
0.0
  0
LINE
  5
239
330
1F
100
AcDbEntity
  8
戸当り
  6
Continuous
 62
    40
370
    15
100
AcDbLine
 10
4863.835838693023
 20
3387.923723027997
 30
0.0
 11
4791.835838693025
 21
3387.923723027997
 31
0.0
  0
LINE
  5
23A
330
1F
100
AcDbEntity
  8
戸当り
  6
Continuous
 62
    92
370
    13
100
AcDbLine
 10
5040.235838693025
 20
3305.123723027998
 30
0.0
 11
5040.235838693025
 21
3449.123723027998
 31
0.0
  0
ELLIPSE
  5
23B
330
1F
100
AcDbEntity
  8
戸当り
  6
Continuous
 62
    92
370
    13
100
AcDbEllipse
 10
4420.036113825839
 20
2972.884428393055
 30
0.0
 11
-17.7763823922528
 21
100.8148742797557
 31
0.0
210
0.0
220
0.0
230
1.0
 40
0.4000000000000001
 41
1.850633272656679
 42
2.442876790075129
  0
ELLIPSE
  5
23C
330
1F
100
AcDbEntity
  8
戸当り
  6
Continuous
 62
    92
370
    13
100
AcDbEllipse
 10
4420.036113825839
 20
2972.884428393055
 30
0.0
 11
-17.7763823922528
 21
100.8148742797557
 31
0.0
210
0.0
220
0.0
230
1.0
 40
0.4000000000000001
 41
3.840308517104466
 42
4.432552034522944
  0
ELLIPSE
  5
23D
330
1F
100
AcDbEntity
  8
戸当り
  6
Continuous
 62
    92
370
    13
100
AcDbEllipse
 10
4419.616367775939
 20
2975.264926534711
 30
0.0
 11
-14.67024424252691
 21
83.19908946199426
 31
0.0
210
0.0
220
0.0
230
1.0
 40
0.5
 41
4.340591432030095
 42
8.225779182329084
  0
LINE
  5
23E
330
1F
100
AcDbEntity
  8
戸当り
  6
Continuous
 62
    92
370
    13
100
AcDbLine
 10
4459.585997598602
 20
2900.267379069786
 30
0.0
 11
4407.707873509066
 21
2891.119866084258
 31
0.0
  0
LINE
  5
23F
330
1F
100
AcDbEntity
  8
戸当り
  6
Continuous
 62
    92
370
    13
100
AcDbLine
 10
4461.773964637206
 20
2887.858801381832
 30
0.0
 11
4409.89584054767
 21
2878.711288396305
 31
0.0
  0
ELLIPSE
  5
240
330
1F
100
AcDbEntity
  8
戸当り
  6
Continuous
 62
    92
370
    13
100
AcDbEllipse
 10
4435.834902592437
 20
2883.285044889068
 30
0.0
 11
-7.622927487939132
 21
43.23177007461331
 31
0.0
210
0.0
220
0.0
230
1.0
 40
0.6000000000000001
 41
1.570796326794897
 42
4.71238898038469
  0
ELLIPSE
  5
241
330
1F
100
AcDbEntity
  8
戸当り
  6
Continuous
 62
    92
370
    13
100
AcDbEllipse
 10
4574.496882763717
 20
3008.935263882862
 30
0.0
 11
26.49533313827761
 21
98.88192943551533
 31
0.0
210
0.0
220
0.0
230
0.9999999999999999
 40
0.4
 41
1.850633272656679
 42
2.442876790075129
  0
ELLIPSE
  5
242
330
1F
100
AcDbEntity
  8
戸当り
  6
Continuous
 62
    92
370
    13
100
AcDbEllipse
 10
4574.496882763717
 20
3008.935263882862
 30
0.0
 11
26.49533313827761
 21
98.88192943551533
 31
0.0
210
0.0
220
0.0
230
0.9999999999999999
 40
0.4
 41
3.840308517104466
 42
4.432552034522944
  0
ELLIPSE
  5
243
330
1F
100
AcDbEntity
  8
戸当り
  6
Continuous
 62
    92
370
    13
100
AcDbEllipse
 10
4575.122505636819
 20
3011.270120231654
 30
0.0
 11
21.86569797210526
 21
81.6038957748525
 31
0.0
210
0.0
220
0.0
230
1.0
 40
0.5
 41
4.340591432030095
 42
8.225779182329084
  0
LINE
  5
244
330
1F
100
AcDbEntity
  8
戸当り
  6
Continuous
 62
    92
370
    13
100
AcDbLine
 10
4579.651959245627
 20
2926.407363477468
 30
0.0
 11
4528.768505369233
 21
2940.041543851754
 31
0.0
  0
LINE
  5
245
330
1F
100
AcDbEntity
  8
戸当り
  6
Continuous
 62
    92
370
    13
100
AcDbLine
 10
4576.390839277336
 20
2914.236698066226
 30
0.0
 11
4525.507385400942
 21
2927.870878440512
 31
0.0
  0
ELLIPSE
  5
246
330
1F
100
AcDbEntity
  8
戸当り
  6
Continuous
 62
    92
370
    13
100
AcDbEllipse
 10
4550.949112339139
 20
2921.053788253369
 30
0.0
 11
11.36181697857171
 21
42.40287823032828
 31
0.0
210
0.0
220
0.0
230
0.9999999999999999
 40
0.6
 41
1.570796326794897
 42
4.71238898038469
  0
ELLIPSE
  5
247
330
1F
100
AcDbEntity
  8
戸当り
  6
Continuous
 62
    92
370
    13
100
AcDbEllipse
 10
4964.836113825841
 20
2972.884428393055
 30
0.0
 11
-17.7763823922528
 21
100.8148742797557
 31
0.0
210
0.0
220
0.0
230
1.0
 40
0.4000000000000001
 41
1.850633272656679
 42
2.442876790075129
  0
ELLIPSE
  5
248
330
1F
100
AcDbEntity
  8
戸当り
  6
Continuous
 62
    92
370
    13
100
AcDbEllipse
 10
4964.836113825841
 20
2972.884428393055
 30
0.0
 11
-17.7763823922528
 21
100.8148742797557
 31
0.0
210
0.0
220
0.0
230
1.0
 40
0.4000000000000001
 41
3.840308517104466
 42
4.432552034522944
  0
ELLIPSE
  5
249
330
1F
100
AcDbEntity
  8
戸当り
  6
Continuous
 62
    92
370
    13
100
AcDbEllipse
 10
4964.41636777594
 20
2975.264926534711
 30
0.0
 11
-14.67024424252691
 21
83.19908946199426
 31
0.0
210
0.0
220
0.0
230
1.0
 40
0.5
 41
4.340591432030095
 42
8.225779182329084
  0
LINE
  5
24A
330
1F
100
AcDbEntity
  8
戸当り
  6
Continuous
 62
    92
370
    13
100
AcDbLine
 10
5004.385997598603
 20
2900.267379069786
 30
0.0
 11
4952.507873509066
 21
2891.119866084258
 31
0.0
  0
LINE
  5
24B
330
1F
100
AcDbEntity
  8
戸当り
  6
Continuous
 62
    92
370
    13
100
AcDbLine
 10
5006.573964637207
 20
2887.858801381832
 30
0.0
 11
4954.69584054767
 21
2878.711288396305
 31
0.0
  0
ELLIPSE
  5
24C
330
1F
100
AcDbEntity
  8
戸当り
  6
Continuous
 62
    92
370
    13
100
AcDbEllipse
 10
4980.634902592437
 20
2883.285044889068
 30
0.0
 11
-7.622927487939132
 21
43.23177007461331
 31
0.0
210
0.0
220
0.0
230
1.0
 40
0.6000000000000001
 41
1.570796326794897
 42
4.71238898038469
  0
ELLIPSE
  5
24D
330
1F
100
AcDbEntity
  8
戸当り
  6
Continuous
 62
    92
370
    13
100
AcDbEllipse
 10
5119.296882763718
 20
3008.935263882862
 30
0.0
 11
26.49533313827761
 21
98.88192943551533
 31
0.0
210
0.0
220
0.0
230
0.9999999999999999
 40
0.4
 41
1.850633272656679
 42
2.442876790075129
  0
ELLIPSE
  5
24E
330
1F
100
AcDbEntity
  8
戸当り
  6
Continuous
 62
    92
370
    13
100
AcDbEllipse
 10
5119.296882763718
 20
3008.935263882862
 30
0.0
 11
26.49533313827761
 21
98.88192943551533
 31
0.0
210
0.0
220
0.0
230
0.9999999999999999
 40
0.4
 41
3.840308517104466
 42
4.432552034522944
  0
ELLIPSE
  5
24F
330
1F
100
AcDbEntity
  8
戸当り
  6
Continuous
 62
    92
370
    13
100
AcDbEllipse
 10
5119.92250563682
 20
3011.270120231654
 30
0.0
 11
21.86569797210526
 21
81.6038957748525
 31
0.0
210
0.0
220
0.0
230
1.0
 40
0.5
 41
4.340591432030095
 42
8.225779182329084
  0
LINE
  5
250
330
1F
100
AcDbEntity
  8
戸当り
  6
Continuous
 62
    92
370
    13
100
AcDbLine
 10
5124.451959245628
 20
2926.407363477468
 30
0.0
 11
5073.568505369234
 21
2940.041543851754
 31
0.0
  0
LINE
  5
251
330
1F
100
AcDbEntity
  8
戸当り
  6
Continuous
 62
    92
370
    13
100
AcDbLine
 10
5121.190839277337
 20
2914.236698066226
 30
0.0
 11
5070.307385400943
 21
2927.870878440512
 31
0.0
  0
ELLIPSE
  5
252
330
1F
100
AcDbEntity
  8
戸当り
  6
Continuous
 62
    92
370
    13
100
AcDbEllipse
 10
5095.749112339141
 20
2921.053788253369
 30
0.0
 11
11.36181697857171
 21
42.40287823032828
 31
0.0
210
0.0
220
0.0
230
0.9999999999999999
 40
0.6
 41
1.570796326794897
 42
4.71238898038469
  0
MTEXT
  5
253
330
1F
100
AcDbEntity
  8
0-A_文字
  6
Continuous
 62
     7
370
     9
100
AcDbMText
 10
3855.835838693023
 20
3745.720181455871
 30
0.0
 40
91.44
 41
720.0
 46
0.0
 71
     7
 72
     1
  1
{\fＭＳ ゴシック|b0|i0|c128|p49;■引き手方向}
 73
     1
 44
1.0
  0
MTEXT
  5
254
330
1F
100
AcDbEntity
  8
0-A_文字
  6
Continuous
 62
     7
370
     9
100
AcDbMText
 10
4109.335838693022
 20
3606.576431455872
 30
0.0
 40
77.15249999999999
 41
405.0
 46
0.0
 71
     7
 72
     1
  1
{\fＭＳ ゴシック|b0|i0|c128|p49;右引き手}
 73
     1
 44
1.0
  0
MTEXT
  5
255
330
1F
100
AcDbEntity
  8
0-A_文字
  6
Continuous
 62
     7
370
     9
100
AcDbMText
 10
5021.335838693025
 20
3606.576431455872
 30
0.0
 40
77.15249999999999
 41
405.0
 46
0.0
 71
     7
 72
     1
  1
{\fＭＳ ゴシック|b0|i0|c128|p49;左引き手}
 73
     1
 44
1.0
  0
MTEXT
  5
256
330
1F
100
AcDbEntity
  8
F-A_文字
  6
Continuous
 62
     7
370
     9
100
AcDbMText
 10
5096.167700144058
 20
-4147.857012699985
 30
0.0
 40
74.295
 41
97.5
 46
0.0
 71
     7
 72
     1
  1
{\fＭＳ ゴシック|b0|i0|c128|p49;01}
 73
     1
 44
1.0
  0
MTEXT
  5
257
330
1F
100
AcDbEntity
  8
0-A_文字
  6
Continuous
 62
    92
370
    13
100
AcDbMText
 10
-5509.999495325862
 20
3758.959004985282
 30
0.0
 40
147.9176470588235
 41
3300.0
 46
0.0
 71
     7
 72
     1
  1
{\fＭＳ ゴシック|b0|i0|c128|p49;片引き戸　上吊りタイプ　固定枠90巾}
 73
     1
 44
1.0
  0
LINE
  5
258
330
1F
100
AcDbEntity
  8
0-A_文字
  6
Continuous
 62
    92
370
    13
100
AcDbLine
 10
-5659.999495325861
 20
3730.00018145587
 30
0.0
 11
-2100.0
 21
3730.00018145587
 31
0.0
  0
LINE
  5
259
330
1F
100
AcDbEntity
  8
0-A_文字
  6
Continuous
 62
    92
370
    13
100
AcDbLine
 10
-5659.999495325861
 20
4000.00018145587
 30
0.0
 11
-2100.0
 21
4000.00018145587
 31
0.0
  0
LINE
  5
25A
330
1F
100
AcDbEntity
  8
0-A_文字
  6
Continuous
 62
    92
370
    13
100
AcDbLine
 10
-2100.0
 20
3730.00018145587
 30
0.0
 11
-2100.0
 21
4000.00018145587
 31
0.0
  0
LINE
  5
25B
330
1F
100
AcDbEntity
  8
0-4_枠
  6
Continuous
 62
   120
370
     5
100
AcDbLine
 10
-4166.802359540608
 20
-1599.000197951876
 30
0.0
 11
-4166.802359540608
 21
-2781.000404213941
 31
0.0
  0
LINE
  5
25C
330
1F
100
AcDbEntity
  8
0-4_枠
  6
Continuous
 62
   120
370
     5
100
AcDbLine
 10
-3626.802359540604
 20
-1599.000197951876
 30
0.0
 11
-3626.802359540604
 21
-2781.000404213941
 31
0.0
  0
LINE
  5
25D
330
1F
100
AcDbEntity
  8
0-4_枠
  6
Continuous
 62
   120
370
     5
100
AcDbLine
 10
-3626.802359540604
 20
-1479.000197951876
 30
0.0
 11
-3626.802359540604
 21
-153.0001979518815
 31
0.0
  0
LINE
  5
25E
330
1F
100
AcDbEntity
  8
0-4_枠
  6
Continuous
 62
   120
370
     5
100
AcDbLine
 10
-3626.802359540604
 20
-153.0001979518815
 30
0.0
 11
-3650.802359540603
 21
-153.0001979518815
 31
0.0
  0
LINE
  5
25F
330
1F
100
AcDbEntity
  8
0-4_枠
  6
Continuous
 62
   120
370
     5
100
AcDbLine
 10
-4166.802359540608
 20
-153.0001979518815
 30
0.0
 11
-4166.802359540608
 21
-1479.000197951876
 31
0.0
  0
LINE
  5
260
330
1F
100
AcDbEntity
  8
0-4_枠
  6
Continuous
 62
   120
370
     5
100
AcDbLine
 10
-4166.802359540608
 20
-153.0001979518815
 30
0.0
 11
-4142.802359540605
 21
-153.0001979518815
 31
0.0
  0
LINE
  5
261
330
1F
100
AcDbEntity
  8
0-B_寸法
  6
Continuous
 62
   120
370
     5
100
AcDbLine
 10
-4142.802359540605
 20
-868.8251942929796
 30
0.0
 11
-3650.802359540603
 21
-868.8251942929796
 31
0.0
  0
LWPOLYLINE
  5
262
330
1F
100
AcDbEntity
  8
0-B_寸法
  6
Continuous
 62
     7
370
     9
100
AcDbPolyline
 90
        4
 70
     1
 43
3.0
 10
-3649.302359540603
 20
-868.8251942929796
 42
0.4142135623731
 10
-3650.802359540603
 20
-867.3251942929795
 42
0.4142135623731
 10
-3652.302359540603
 20
-868.8251942929796
 42
0.4142135623731
 10
-3650.802359540603
 20
-870.3251942929796
 42
0.4142135623731
  0
LINE
  5
263
330
1F
100
AcDbEntity
  8
0-B_寸法
  6
Continuous
 62
   120
370
     5
100
AcDbLine
 10
-3650.802359540603
 20
-868.8251942929796
 30
0.0
 11
-3650.802359540603
 21
-745.4757610184968
 31
0.0
  0
LWPOLYLINE
  5
264
330
1F
100
AcDbEntity
  8
0-B_寸法
  6
Continuous
 62
     7
370
     9
100
AcDbPolyline
 90
        4
 70
     1
 43
3.0
 10
-4141.302359540605
 20
-868.8251942929796
 42
0.4142135623731
 10
-4142.802359540605
 20
-867.3251942929795
 42
0.4142135623731
 10
-4144.302359540606
 20
-868.8251942929796
 42
0.4142135623731
 10
-4142.802359540605
 20
-870.3251942929796
 42
0.4142135623731
  0
LINE
  5
265
330
1F
100
AcDbEntity
  8
0-B_寸法
  6
Continuous
 62
   120
370
     5
100
AcDbLine
 10
-4142.802359540605
 20
-868.8251942929796
 30
0.0
 11
-4142.802359540605
 21
-724.4757610185022
 31
0.0
  0
LINE
  5
266
330
1F
100
AcDbEntity
  8
0-3_仕上げ
  6
Continuous
 62
    40
370
    15
100
AcDbLine
 10
-3761.802359540616
 20
-153.0001979518627
 30
0.0
 11
-3761.802359540616
 21
194.9998020481414
 31
0.0
  0
LINE
  5
267
330
1F
100
AcDbEntity
  8
0-3_仕上げ
  6
Continuous
 62
    40
370
    15
100
AcDbLine
 10
-4031.802359540611
 20
-153.0001979518627
 30
0.0
 11
-4031.802359540611
 21
194.9998020481414
 31
0.0
  0
LINE
  5
268
330
1F
100
AcDbEntity
  8
0-C_ハッチ
  6
JWW_DASHED1
 62
   120
370
     5
100
AcDbLine
 10
-3686.17350433388
 20
194.9998020481414
 30
0.0
 11
-3761.802359540616
 21
119.3709468414059
 31
0.0
  0
LINE
  5
269
330
1F
100
AcDbEntity
  8
0-C_ハッチ
  6
JWW_DASHED1
 62
   120
370
     5
100
AcDbLine
 10
-3728.599911205079
 20
194.9998020481414
 30
0.0
 11
-3761.802359540619
 21
161.7973537126008
 31
0.0
  0
LINE
  5
26A
330
1F
100
AcDbEntity
  8
0-C_ハッチ
  6
JWW_DASHED1
 62
   120
370
     5
100
AcDbLine
 10
-4047.422421144166
 20
194.9998020481414
 30
0.0
 11
-4106.802359540616
 21
135.6198636516919
 31
0.0
  0
LINE
  5
26B
330
1F
100
AcDbEntity
  8
0-C_ハッチ
  6
JWW_DASHED1
 62
   120
370
     5
100
AcDbLine
 10
-4089.848828015366
 20
194.9998020481414
 30
0.0
 11
-4106.802359540619
 21
178.0462705228885
 31
0.0
  0
LINE
  5
26C
330
1F
100
AcDbEntity
  8
0-3_仕上げ
  6
Continuous
 62
    40
370
    15
100
AcDbLine
 10
-3686.802359540616
 20
-153.0001979518627
 30
0.0
 11
-3686.802359540616
 21
194.9998020481414
 31
0.0
  0
LINE
  5
26D
330
1F
100
AcDbEntity
  8
0-3_仕上げ
  6
Continuous
 62
    40
370
    15
100
AcDbLine
 10
-4106.80235954061
 20
-153.0001979518627
 30
0.0
 11
-4106.80235954061
 21
194.9998020481414
 31
0.0
  0
LINE
  5
26E
330
1F
100
AcDbEntity
  8
0-2_柱
  6
Continuous
 62
    92
370
    13
100
AcDbLine
 10
-3761.8023595406
 20
-153.0001979518815
 30
0.0
 11
-4031.802359540611
 21
-153.0001979518815
 31
0.0
  0
LINE
  5
26F
330
1F
100
AcDbEntity
  8
0-C_ハッチ
  6
JWW_DASHED1
 62
   120
370
     5
100
AcDbLine
 10
-3686.802359540616
 20
-145.0403081281345
 30
0.0
 11
-3694.76224936434
 21
-153.0001979518627
 31
0.0
  0
LINE
  5
270
330
1F
100
AcDbEntity
  8
0-C_ハッチ
  6
JWW_DASHED1
 62
   120
370
     5
100
AcDbLine
 10
-4031.802359540611
 20
-128.7913913178417
 30
0.0
 11
-4056.011166174635
 21
-153.0001979518627
 31
0.0
  0
LINE
  5
271
330
1F
100
AcDbEntity
  8
0-C_ハッチ
  6
JWW_DASHED1
 62
   120
370
     5
100
AcDbLine
 10
-3686.802359540616
 20
-60.18749438573963
 30
0.0
 11
-3761.802359540616
 21
-135.1874943857396
 31
0.0
  0
LINE
  5
272
330
1F
100
AcDbEntity
  8
0-C_ハッチ
  6
JWW_DASHED1
 62
   120
370
     5
100
AcDbLine
 10
-4031.8023595406
 20
-43.93857757543998
 30
0.0
 11
-4106.80235954061
 21
-118.9385775754485
 31
0.0
  0
LINE
  5
273
330
1F
100
AcDbEntity
  8
0-C_ハッチ
  6
JWW_DASHED1
 62
   120
370
     5
100
AcDbLine
 10
-4031.802359540612
 20
-86.36498444664852
 30
0.0
 11
-4098.437573045829
 21
-153.0001979518627
 31
0.0
  0
LINE
  5
274
330
1F
100
AcDbEntity
  8
0-C_ハッチ
  6
JWW_DASHED1
 62
   120
370
     5
100
AcDbLine
 10
-3686.802359540629
 20
-102.6139012569482
 30
0.0
 11
-3737.188656235525
 21
-153.0001979518627
 31
0.0
  0
LINE
  5
275
330
1F
100
AcDbEntity
  8
0-C_ハッチ
  6
JWW_DASHED1
 62
   120
370
     5
100
AcDbLine
 10
-3686.802359540619
 20
-17.76108751453961
 30
0.0
 11
-3761.802359540631
 21
-92.76108751455325
 31
0.0
  0
LINE
  5
276
330
1F
100
AcDbEntity
  8
0-C_ハッチ
  6
JWW_DASHED1
 62
   120
370
     5
100
AcDbLine
 10
-3686.802359540609
 20
24.66531935666893
 30
0.0
 11
-3761.802359540604
 21
-50.33468064332595
 31
0.0
  0
LINE
  5
277
330
1F
100
AcDbEntity
  8
0-C_ハッチ
  6
JWW_DASHED1
 62
   120
370
     5
100
AcDbLine
 10
-3686.802359540609
 20
67.09172622786895
 30
0.0
 11
-3761.802359540606
 21
-7.908273772125938
 31
0.0
  0
LINE
  5
278
330
1F
100
AcDbEntity
  8
0-C_ハッチ
  6
JWW_DASHED1
 62
   120
370
     5
100
AcDbLine
 10
-3686.802359540611
 20
109.5181330990656
 30
0.0
 11
-3761.802359540609
 21
34.51813309906896
 31
0.0
  0
LINE
  5
279
330
1F
100
AcDbEntity
  8
0-C_ハッチ
  6
JWW_DASHED1
 62
   120
370
     5
100
AcDbLine
 10
-3686.802359540612
 20
151.9445399702656
 30
0.0
 11
-3761.802359540609
 21
76.94453997026557
 31
0.0
  0
LINE
  5
27A
330
1F
100
AcDbEntity
  8
0-C_ハッチ
  6
JWW_DASHED1
 62
   120
370
     5
100
AcDbLine
 10
-4031.802359540604
 20
-1.512170704243374
 30
0.0
 11
-4106.802359540614
 21
-76.5121707042536
 31
0.0
  0
LINE
  5
27B
330
1F
100
AcDbEntity
  8
0-C_ハッチ
  6
JWW_DASHED1
 62
   120
370
     5
100
AcDbLine
 10
-4031.802359540604
 20
40.91423616695835
 30
0.0
 11
-4106.8023595406
 21
-34.08576383303995
 31
0.0
  0
LINE
  5
27C
330
1F
100
AcDbEntity
  8
0-C_ハッチ
  6
JWW_DASHED1
 62
   120
370
     5
100
AcDbLine
 10
-4031.802359540609
 20
83.34064303815666
 30
0.0
 11
-4106.802359540604
 21
8.340643038158362
 31
0.0
  0
LINE
  5
27D
330
1F
100
AcDbEntity
  8
0-C_ハッチ
  6
JWW_DASHED1
 62
   120
370
     5
100
AcDbLine
 10
-4031.802359540614
 20
125.767049909297
 30
0.0
 11
-4106.80235954061
 21
50.76704990929699
 31
0.0
  0
LINE
  5
27E
330
1F
100
AcDbEntity
  8
0-C_ハッチ
  6
JWW_DASHED1
 62
   120
370
     5
100
AcDbLine
 10
-4031.802359540618
 20
168.1934567804902
 30
0.0
 11
-4106.802359540614
 21
93.19345678049189
 31
0.0
  0
LINE
  5
27F
330
1F
100
AcDbEntity
  8
0-2_柱
  6
Continuous
 62
     7
370
     9
100
AcDbLine
 10
-3761.802359540616
 20
116.9998020481236
 30
0.0
 11
-4031.802359540611
 21
-153.0001979518815
 31
0.0
  0
LINE
  5
280
330
1F
100
AcDbEntity
  8
0-2_柱
  6
Continuous
 62
    92
370
    13
100
AcDbLine
 10
-3761.802359540616
 20
116.9998020481236
 30
0.0
 11
-4031.802359540611
 21
116.9998020481236
 31
0.0
  0
LINE
  5
281
330
1F
100
AcDbEntity
  8
0-C_ハッチ
  6
Continuous
 62
   120
370
     5
100
AcDbLine
 10
-3746.396311617335
 20
-237.0001979518818
 30
0.0
 11
-3665.396311617332
 21
-156.0001979518805
 31
0.0
  0
LINE
  5
282
330
1F
100
AcDbEntity
  8
0-C_ハッチ
  6
Continuous
 62
   120
370
     5
100
AcDbLine
 10
-3696.402359540603
 20
-305.8001851145045
 30
0.0
 11
-3653.802519757889
 21
-263.2003453317898
 31
0.0
  0
LINE
  5
283
330
1F
100
AcDbEntity
  8
0-C_ハッチ
  6
Continuous
 62
   120
370
     5
100
AcDbLine
 10
-3653.802519757889
 20
-322.5973149514951
 30
0.0
 11
-3661.205402758274
 21
-330.0001979518791
 31
0.0
  0
LINE
  5
284
330
1F
100
AcDbEntity
  8
0-C_ハッチ
  6
Continuous
 62
   120
370
     5
100
AcDbLine
 10
-3696.402359540603
 20
-246.4032154948572
 30
0.0
 11
-3653.802519757889
 21
-203.8033757121391
 31
0.0
  0
LINE
  5
285
330
1F
100
AcDbEntity
  8
0-C_ハッチ
  6
Continuous
 62
   120
370
     5
100
AcDbLine
 10
-4139.802794416094
 20
-214.6278934129512
 30
0.0
 11
-4078.175098955025
 21
-153.0001979518815
 31
0.0
  0
LINE
  5
286
330
1F
100
AcDbEntity
  8
0-4_枠
  6
Continuous
 62
    92
370
    13
100
AcDbLine
 10
-3650.802359540603
 20
-153.0001979518815
 30
0.0
 11
-4142.802359540605
 21
-153.0001979518815
 31
0.0
  0
LINE
  5
287
330
1F
100
AcDbEntity
  8
0-4_枠
  6
Continuous
 62
    92
370
    13
100
AcDbLine
 10
-4082.802359540605
 20
-156.0001979518805
 30
0.0
 11
-4082.802359540605
 21
-153.0001979518815
 31
0.0
  0
LINE
  5
288
330
1F
100
AcDbEntity
  8
0-4_枠
  6
Continuous
 62
    92
370
    13
100
AcDbLine
 10
-4082.802359540605
 20
-156.0001979518805
 30
0.0
 11
-4139.802794416094
 21
-156.0001979518805
 31
0.0
  0
LINE
  5
289
330
1F
100
AcDbEntity
  8
0-4_枠
  6
Continuous
 62
    92
370
    13
100
AcDbLine
 10
-4139.802794416094
 20
-330.0001979518842
 30
0.0
 11
-4139.802794416094
 21
-156.0001979518805
 31
0.0
  0
LINE
  5
28A
330
1F
100
AcDbEntity
  8
0-4_枠
  6
Continuous
 62
    92
370
    13
100
AcDbLine
 10
-4142.802359540605
 20
-333.0001979518815
 30
0.0
 11
-4142.802359540605
 21
-153.0001979518815
 31
0.0
  0
LINE
  5
28B
330
1F
100
AcDbEntity
  8
0-4_枠
  6
Continuous
 62
    92
370
    13
100
AcDbLine
 10
-3710.802359540603
 20
-156.0001979518805
 30
0.0
 11
-3653.802519757889
 21
-156.0001979518805
 31
0.0
  0
LINE
  5
28C
330
1F
100
AcDbEntity
  8
0-4_枠
  6
Continuous
 62
    92
370
    13
100
AcDbLine
 10
-3710.802359540603
 20
-156.0001979518805
 30
0.0
 11
-3710.802359540603
 21
-153.0001979518815
 31
0.0
  0
LINE
  5
28D
330
1F
100
AcDbEntity
  8
0-4_枠
  6
Continuous
 62
    92
370
    13
100
AcDbLine
 10
-3653.802519757889
 20
-330.0001979518842
 30
0.0
 11
-3653.802519757889
 21
-156.0001979518805
 31
0.0
  0
LINE
  5
28E
330
1F
100
AcDbEntity
  8
0-4_枠
  6
Continuous
 62
    92
370
    13
100
AcDbLine
 10
-3650.802359540603
 20
-333.0001979518815
 30
0.0
 11
-3650.802359540603
 21
-153.0001979518815
 31
0.0
  0
LINE
  5
28F
330
1F
100
AcDbEntity
  8
0-4_枠
  6
Continuous
 62
    92
370
    13
100
AcDbLine
 10
-3650.802359540603
 20
-333.0001979518815
 30
0.0
 11
-3696.402359540603
 21
-333.0001979518815
 31
0.0
  0
LINE
  5
290
330
1F
100
AcDbEntity
  8
0-4_枠
  6
Continuous
 62
    92
370
    13
100
AcDbLine
 10
-3653.802519757889
 20
-330.0001979518842
 30
0.0
 11
-3696.402359540603
 21
-330.0001979518842
 31
0.0
  0
LINE
  5
291
330
1F
100
AcDbEntity
  8
0-C_ハッチ
  6
Continuous
 62
   120
370
     5
100
AcDbLine
 10
-3805.793281236983
 20
-237.0001979518818
 30
0.0
 11
-3721.793281236977
 21
-153.0001979518815
 31
0.0
  0
LINE
  5
292
330
1F
100
AcDbEntity
  8
0-C_ハッチ
  6
Continuous
 62
   120
370
     5
100
AcDbLine
 10
-3865.190250856685
 20
-237.0001979518818
 30
0.0
 11
-3781.190250856679
 21
-153.0001979518815
 31
0.0
  0
LINE
  5
293
330
1F
100
AcDbEntity
  8
0-C_ハッチ
  6
Continuous
 62
   120
370
     5
100
AcDbLine
 10
-3898.793281236983
 20
-330.0001979518842
 30
0.0
 11
-3869.202359540604
 21
-300.4092762555027
 31
0.0
  0
LINE
  5
294
330
1F
100
AcDbEntity
  8
0-4_枠
  6
Continuous
 62
    92
370
    13
100
AcDbLine
 10
-3696.402359540603
 20
-333.0001979518815
 30
0.0
 11
-3696.402359540603
 21
-237.0001979518818
 31
0.0
  0
LINE
  5
295
330
1F
100
AcDbEntity
  8
0-4_枠
  6
Continuous
 62
    92
370
    13
100
AcDbLine
 10
-3696.402359540603
 20
-237.0001979518818
 30
0.0
 11
-3869.202359540604
 21
-237.0001979518818
 31
0.0
  0
LINE
  5
296
330
1F
100
AcDbEntity
  8
0-4_枠
  6
Continuous
 62
    92
370
    13
100
AcDbLine
 10
-3869.202359540604
 20
-333.0001979518815
 30
0.0
 11
-3869.202359540604
 21
-237.0001979518818
 31
0.0
  0
LINE
  5
297
330
1F
100
AcDbEntity
  8
0-0_補助線
  6
JWW_HOJO
 62
   120
370
     5
100
AcDbLine
 10
-4586.802359540608
 20
194.9998020481414
 30
0.0
 11
-2426.802359540604
 21
194.9998020481414
 31
0.0
  0
LINE
  5
298
330
1F
100
AcDbEntity
  8
0-0_補助線
  6
JWW_HOJO
 62
   120
370
     5
100
AcDbLine
 10
-4586.802359540608
 20
-2853.000197951857
 30
0.0
 11
-4586.802359540608
 21
194.9998020481414
 31
0.0
  0
LINE
  5
299
330
1F
100
AcDbEntity
  8
0-0_補助線
  6
JWW_HOJO
 62
   120
370
     5
100
AcDbLine
 10
-4361.802359540608
 20
-1599.000197951876
 30
0.0
 11
-3431.802359540606
 21
-1599.000197951876
 31
0.0
  0
LINE
  5
29A
330
1F
100
AcDbEntity
  8
0-0_補助線
  6
JWW_HOJO
 62
   120
370
     5
100
AcDbLine
 10
-4361.802359540608
 20
-1479.000197951876
 30
0.0
 11
-3431.802359540606
 21
-1479.000197951876
 31
0.0
  0
LINE
  5
29B
330
1F
100
AcDbEntity
  8
0-0_補助線
  6
JWW_HOJO
 62
   120
370
     5
100
AcDbLine
 10
-2426.802359540604
 20
-2853.000197951856
 30
0.0
 11
-2426.802359540604
 21
194.9998020481414
 31
0.0
  0
LINE
  5
29C
330
1F
100
AcDbEntity
  8
0-0_補助線
  6
JWW_HOJO
 62
   120
370
     5
100
AcDbLine
 10
-2636.802359540604
 20
-2853.000197951856
 30
0.0
 11
-2636.802359540604
 21
194.9998020481414
 31
0.0
  0
LINE
  5
29D
330
1F
100
AcDbEntity
  8
0-0_補助線
  6
JWW_HOJO
 62
   120
370
     5
100
AcDbLine
 10
-2846.802359540604
 20
-2853.00019822029
 30
0.0
 11
-2846.802359540604
 21
194.9998020481414
 31
0.0
  0
LINE
  5
29E
330
1F
100
AcDbEntity
  8
0-0_補助線
  6
JWW_HOJO
 62
   120
370
     5
100
AcDbLine
 10
-3056.802359540604
 20
-2853.000197951856
 30
0.0
 11
-3056.802359540604
 21
194.9998020481414
 31
0.0
  0
LINE
  5
29F
330
1F
100
AcDbEntity
  8
0-0_補助線
  6
JWW_HOJO
 62
   120
370
     5
100
AcDbLine
 10
-3266.802359540604
 20
-2853.000197951857
 30
0.0
 11
-3266.802359540604
 21
194.9998020481414
 31
0.0
  0
LINE
  5
2A0
330
1F
100
AcDbEntity
  8
0-4_枠
  6
Continuous
 62
    92
370
    13
100
AcDbLine
 10
-4139.802794416094
 20
-330.0001979518842
 30
0.0
 11
-3869.202359540604
 21
-330.0001979518842
 31
0.0
  0
LINE
  5
2A1
330
1F
100
AcDbEntity
  8
0-4_枠
  6
Continuous
 62
    92
370
    13
100
AcDbLine
 10
-3869.202359540604
 20
-333.0001979518815
 30
0.0
 11
-4142.802359540605
 21
-333.0001979518815
 31
0.0
  0
LINE
  5
2A2
330
1F
100
AcDbEntity
  8
0-C_ハッチ
  6
Continuous
 62
   120
370
     5
100
AcDbLine
 10
-4136.38115971568
 20
-330.0001979518876
 30
0.0
 11
-3959.381159715675
 21
-153.0001979518815
 31
0.0
  0
LINE
  5
2A3
330
1F
100
AcDbEntity
  8
0-C_ハッチ
  6
Continuous
 62
   120
370
     5
100
AcDbLine
 10
-4139.802794416094
 20
-274.0248630326531
 30
0.0
 11
-4018.778129335323
 21
-153.0001979518815
 31
0.0
  0
LINE
  5
2A4
330
1F
100
AcDbEntity
  8
0-C_ハッチ
  6
Continuous
 62
   120
370
     5
100
AcDbLine
 10
-4076.984190095969
 20
-330.0001979518842
 30
0.0
 11
-3899.984190095977
 21
-153.0001979518815
 31
0.0
  0
LINE
  5
2A5
330
1F
100
AcDbEntity
  8
0-C_ハッチ
  6
Continuous
 62
   120
370
     5
100
AcDbLine
 10
-3958.190250856694
 20
-330.0001979518842
 30
0.0
 11
-3869.202359540604
 21
-241.0123066358059
 31
0.0
  0
LINE
  5
2A6
330
1F
100
AcDbEntity
  8
0-C_ハッチ
  6
Continuous
 62
   120
370
     5
100
AcDbLine
 10
-4017.587220476335
 20
-330.0001979518842
 30
0.0
 11
-3840.58722047633
 21
-153.0001979518815
 31
0.0
  0
LWPOLYLINE
  5
2A7
330
1F
100
AcDbEntity
  8
0-B_寸法
  6
Continuous
 62
     7
370
     9
100
AcDbPolyline
 90
        4
 70
     1
 43
3.0
 10
-3691.302359540608
 20
-1119.000324800451
 42
0.4142135623731
 10
-3692.802359540608
 20
-1117.500324800451
 42
0.4142135623731
 10
-3694.302359540608
 20
-1119.000324800451
 42
0.4142135623731
 10
-3692.802359540608
 20
-1120.500324800451
 42
0.4142135623731
  0
LWPOLYLINE
  5
2A8
330
1F
100
AcDbEntity
  8
0-B_寸法
  6
Continuous
 62
     7
370
     9
100
AcDbPolyline
 90
        4
 70
     1
 43
3.0
 10
-3871.302359540608
 20
-1119.000324800451
 42
0.4142135623731
 10
-3872.802359540608
 20
-1117.500324800451
 42
0.4142135623731
 10
-3874.302359540609
 20
-1119.000324800451
 42
0.4142135623731
 10
-3872.802359540608
 20
-1120.500324800451
 42
0.4142135623731
  0
CIRCLE
  5
2A9
330
1F
100
AcDbEntity
  8
0-7_金物
  6
Continuous
 62
     7
370
     9
100
AcDbCircle
 10
-3782.797484056578
 20
-474.0001969242198
 30
0.0
 40
29.99999980237253
  0
ARC
  5
2AA
330
1F
100
AcDbEntity
  8
0-7_金物
  6
Continuous
 62
     7
370
     9
100
AcDbCircle
 10
-3782.797484056578
 20
-623.400195940037
 30
0.0
 40
41.39999972727429
100
AcDbArc
 50
180.0
 51
0.0
  0
LINE
  5
2AB
330
1F
100
AcDbEntity
  8
0-7_金物
  6
Continuous
 62
     7
370
     9
100
AcDbLine
 10
-3785.915824941067
 20
-554.8818554863726
 30
0.0
 11
-3797.497483959739
 21
-555.0840140965215
 31
0.0
  0
LINE
  5
2AC
330
1F
100
AcDbEntity
  8
0-7_金物
  6
Continuous
 62
     7
370
     9
100
AcDbLine
 10
-3785.915824941067
 20
-561.118537255354
 30
0.0
 11
-3797.497483959739
 21
-560.9163786452076
 31
0.0
  0
LINE
  5
2AD
330
1F
100
AcDbEntity
  8
0-7_金物
  6
Continuous
 62
     7
370
     9
100
AcDbLine
 10
-3797.497483959739
 20
-555.0840140965215
 30
0.0
 11
-3797.497483959739
 21
-560.9163786452076
 31
0.0
  0
LINE
  5
2AE
330
1F
100
AcDbEntity
  8
0-7_金物
  6
Continuous
 62
     7
370
     9
100
AcDbLine
 10
-3785.915824941067
 20
-561.118537255354
 30
0.0
 11
-3785.71366633092
 21
-572.7001962740264
 31
0.0
  0
LINE
  5
2AF
330
1F
100
AcDbEntity
  8
0-7_金物
  6
Continuous
 62
     7
370
     9
100
AcDbLine
 10
-3779.679143172086
 20
-561.118537255354
 30
0.0
 11
-3779.881301782234
 21
-572.7001962740264
 31
0.0
  0
LINE
  5
2B0
330
1F
100
AcDbEntity
  8
0-7_金物
  6
Continuous
 62
     7
370
     9
100
AcDbLine
 10
-3785.71366633092
 20
-572.7001962740264
 30
0.0
 11
-3779.881301782234
 21
-572.7001962740264
 31
0.0
  0
LINE
  5
2B1
330
1F
100
AcDbEntity
  8
0-7_金物
  6
Continuous
 62
     7
370
     9
100
AcDbLine
 10
-3779.679143172086
 20
-561.118537255354
 30
0.0
 11
-3768.097484153414
 21
-560.9163786452076
 31
0.0
  0
LINE
  5
2B2
330
1F
100
AcDbEntity
  8
0-7_金物
  6
Continuous
 62
     7
370
     9
100
AcDbLine
 10
-3779.679143172086
 20
-554.8818554863726
 30
0.0
 11
-3768.097484153414
 21
-555.0840140965215
 31
0.0
  0
LINE
  5
2B3
330
1F
100
AcDbEntity
  8
0-7_金物
  6
Continuous
 62
     7
370
     9
100
AcDbLine
 10
-3768.097484153414
 20
-560.9163786452076
 30
0.0
 11
-3768.097484153414
 21
-555.0840140965215
 31
0.0
  0
LINE
  5
2B4
330
1F
100
AcDbEntity
  8
0-7_金物
  6
Continuous
 62
     7
370
     9
100
AcDbLine
 10
-3779.679143172086
 20
-554.8818554863726
 30
0.0
 11
-3779.881301782234
 21
-543.300196467701
 31
0.0
  0
LINE
  5
2B5
330
1F
100
AcDbEntity
  8
0-7_金物
  6
Continuous
 62
     7
370
     9
100
AcDbLine
 10
-3785.915824941067
 20
-554.8818554863726
 30
0.0
 11
-3785.71366633092
 21
-543.300196467701
 31
0.0
  0
LINE
  5
2B6
330
1F
100
AcDbEntity
  8
0-7_金物
  6
Continuous
 62
     7
370
     9
100
AcDbLine
 10
-3779.881301782234
 20
-543.300196467701
 30
0.0
 11
-3785.71366633092
 21
-543.300196467701
 31
0.0
  0
LINE
  5
2B7
330
1F
100
AcDbEntity
  8
0-7_金物
  6
Continuous
 62
     7
370
     9
100
AcDbLine
 10
-3785.915824941067
 20
-470.8818560397285
 30
0.0
 11
-3797.497483959739
 21
-471.0840146498774
 31
0.0
  0
LINE
  5
2B8
330
1F
100
AcDbEntity
  8
0-7_金物
  6
Continuous
 62
     7
370
     9
100
AcDbLine
 10
-3785.915824941067
 20
-477.1185378087111
 30
0.0
 11
-3797.497483959739
 21
-476.9163791985622
 31
0.0
  0
LINE
  5
2B9
330
1F
100
AcDbEntity
  8
0-7_金物
  6
Continuous
 62
     7
370
     9
100
AcDbLine
 10
-3797.497483959739
 20
-471.0840146498774
 30
0.0
 11
-3797.497483959739
 21
-476.9163791985622
 31
0.0
  0
LINE
  5
2BA
330
1F
100
AcDbEntity
  8
0-7_金物
  6
Continuous
 62
     7
370
     9
100
AcDbLine
 10
-3785.915824941067
 20
-477.1185378087111
 30
0.0
 11
-3785.71366633092
 21
-488.7001968273827
 31
0.0
  0
LINE
  5
2BB
330
1F
100
AcDbEntity
  8
0-7_金物
  6
Continuous
 62
     7
370
     9
100
AcDbLine
 10
-3779.679143172086
 20
-477.1185378087111
 30
0.0
 11
-3779.881301782234
 21
-488.7001968273827
 31
0.0
  0
LINE
  5
2BC
330
1F
100
AcDbEntity
  8
0-7_金物
  6
Continuous
 62
     7
370
     9
100
AcDbLine
 10
-3785.71366633092
 20
-488.7001968273827
 30
0.0
 11
-3779.881301782234
 21
-488.7001968273827
 31
0.0
  0
LINE
  5
2BD
330
1F
100
AcDbEntity
  8
0-7_金物
  6
Continuous
 62
     7
370
     9
100
AcDbLine
 10
-3779.679143172086
 20
-477.1185378087111
 30
0.0
 11
-3768.097484153414
 21
-476.9163791985622
 31
0.0
  0
LINE
  5
2BE
330
1F
100
AcDbEntity
  8
0-7_金物
  6
Continuous
 62
     7
370
     9
100
AcDbLine
 10
-3779.679143172086
 20
-470.8818560397285
 30
0.0
 11
-3768.097484153414
 21
-471.0840146498774
 31
0.0
  0
LINE
  5
2BF
330
1F
100
AcDbEntity
  8
0-7_金物
  6
Continuous
 62
     7
370
     9
100
AcDbLine
 10
-3768.097484153414
 20
-476.9163791985622
 30
0.0
 11
-3768.097484153414
 21
-471.0840146498774
 31
0.0
  0
LINE
  5
2C0
330
1F
100
AcDbEntity
  8
0-7_金物
  6
Continuous
 62
     7
370
     9
100
AcDbLine
 10
-3779.679143172086
 20
-470.8818560397285
 30
0.0
 11
-3779.881301782234
 21
-459.3001970210594
 31
0.0
  0
LINE
  5
2C1
330
1F
100
AcDbEntity
  8
0-7_金物
  6
Continuous
 62
     7
370
     9
100
AcDbLine
 10
-3785.915824941067
 20
-470.8818560397285
 30
0.0
 11
-3785.71366633092
 21
-459.3001970210594
 31
0.0
  0
LINE
  5
2C2
330
1F
100
AcDbEntity
  8
0-7_金物
  6
Continuous
 62
     7
370
     9
100
AcDbLine
 10
-3779.881301782234
 20
-459.3001970210594
 30
0.0
 11
-3785.71366633092
 21
-459.3001970210594
 31
0.0
  0
LINE
  5
2C3
330
1F
100
AcDbEntity
  8
0-7_金物
  6
Continuous
 62
     7
370
     9
100
AcDbLine
 10
-3748.856358783212
 20
-546.0001964499156
 30
0.0
 11
-3737.797484353019
 21
-558.0001963708639
 31
0.0
  0
LINE
  5
2C4
330
1F
100
AcDbEntity
  8
0-7_金物
  6
Continuous
 62
     7
370
     9
100
AcDbLine
 10
-3744.397484309541
 20
-558.0001963708639
 30
0.0
 11
-3737.797484353019
 21
-558.0001963708639
 31
0.0
  0
LINE
  5
2C5
330
1F
100
AcDbEntity
  8
0-7_金物
  6
Continuous
 62
     7
370
     9
100
AcDbLine
 10
-3821.197483803614
 20
-558.0001963708639
 30
0.0
 11
-3827.797483760136
 21
-558.0001963708639
 31
0.0
  0
LINE
  5
2C6
330
1F
100
AcDbEntity
  8
0-7_金物
  6
Continuous
 62
     7
370
     9
100
AcDbLine
 10
-3816.738609329939
 20
-546.0001964499156
 30
0.0
 11
-3827.797483760136
 21
-558.0001963708639
 31
0.0
  0
LINE
  5
2C7
330
1F
100
AcDbEntity
  8
0-7_金物
  6
Continuous
 62
     7
370
     9
100
AcDbLine
 10
-3821.197483803614
 20
-474.0001969242198
 30
0.0
 11
-3827.797483760136
 21
-474.0001969242198
 31
0.0
  0
LINE
  5
2C8
330
1F
100
AcDbEntity
  8
0-7_金物
  6
Continuous
 62
     7
370
     9
100
AcDbLine
 10
-3816.738609329939
 20
-462.0001970032715
 30
0.0
 11
-3827.797483760136
 21
-474.0001969242198
 31
0.0
  0
LINE
  5
2C9
330
1F
100
AcDbEntity
  8
0-7_金物
  6
Continuous
 62
     7
370
     9
100
AcDbLine
 10
-3748.856358783212
 20
-462.0001970032715
 30
0.0
 11
-3737.797484353019
 21
-474.0001969242198
 31
0.0
  0
LINE
  5
2CA
330
1F
100
AcDbEntity
  8
0-7_金物
  6
Continuous
 62
     7
370
     9
100
AcDbLine
 10
-3806.197483902428
 20
-507.0001967068285
 30
0.0
 11
-3806.197483902428
 21
-510.0001966870681
 31
0.0
  0
LINE
  5
2CB
330
1F
100
AcDbEntity
  8
0-7_金物
  6
Continuous
 62
     7
370
     9
100
AcDbLine
 10
-3824.19748378385
 20
-501.0001967463552
 30
0.0
 11
-3824.19748378385
 21
-516.0001966475406
 31
0.0
  0
ARC
  5
2CC
330
1F
100
AcDbEntity
  8
0-7_金物
  6
Continuous
 62
     7
370
     9
100
AcDbCircle
 10
-3812.197483862902
 20
-510.0001966870681
 30
0.0
 40
5.999999960474506
100
AcDbArc
 50
270.0
 51
0.0
  0
ARC
  5
2CD
330
1F
100
AcDbEntity
  8
0-7_金物
  6
Continuous
 62
     7
370
     9
100
AcDbCircle
 10
-3812.197483862902
 20
-507.0001967068285
 30
0.0
 40
5.999999960474506
100
AcDbArc
 50
0.0
 51
90.0
  0
LINE
  5
2CE
330
1F
100
AcDbEntity
  8
0-7_金物
  6
Continuous
 62
     7
370
     9
100
AcDbLine
 10
-3812.197483862902
 20
-516.0001966475406
 30
0.0
 11
-3824.19748378385
 21
-516.0001966475406
 31
0.0
  0
LINE
  5
2CF
330
1F
100
AcDbEntity
  8
0-7_金物
  6
Continuous
 62
     7
370
     9
100
AcDbLine
 10
-3812.197483862902
 20
-501.0001967463552
 30
0.0
 11
-3824.19748378385
 21
-501.0001967463552
 31
0.0
  0
ARC
  5
2D0
330
1F
100
AcDbEntity
  8
0-7_金物
  6
Continuous
 62
     7
370
     9
100
AcDbCircle
 10
-3753.397484250252
 20
-510.0001966870681
 30
0.0
 40
5.999999960474506
100
AcDbArc
 50
180.0
 51
270.0
  0
ARC
  5
2D1
330
1F
100
AcDbEntity
  8
0-7_金物
  6
Continuous
 62
     7
370
     9
100
AcDbCircle
 10
-3753.397484250252
 20
-507.0001967068285
 30
0.0
 40
5.999999960474506
100
AcDbArc
 50
90.0
 51
180.0
  0
LINE
  5
2D2
330
1F
100
AcDbEntity
  8
0-7_金物
  6
Continuous
 62
     7
370
     9
100
AcDbLine
 10
-3759.397484210726
 20
-507.0001967068285
 30
0.0
 11
-3759.397484210726
 21
-510.0001966870681
 31
0.0
  0
LINE
  5
2D3
330
1F
100
AcDbEntity
  8
0-7_金物
  6
Continuous
 62
     7
370
     9
100
AcDbLine
 10
-3741.397484329304
 20
-501.0001967463552
 30
0.0
 11
-3741.397484329304
 21
-516.0001966475406
 31
0.0
  0
LINE
  5
2D4
330
1F
100
AcDbEntity
  8
0-7_金物
  6
Continuous
 62
     7
370
     9
100
AcDbLine
 10
-3753.397484250252
 20
-516.0001966475406
 30
0.0
 11
-3741.397484329304
 21
-516.0001966475406
 31
0.0
  0
LINE
  5
2D5
330
1F
100
AcDbEntity
  8
0-7_金物
  6
Continuous
 62
     7
370
     9
100
AcDbLine
 10
-3753.397484250252
 20
-501.0001967463552
 30
0.0
 11
-3741.397484329304
 21
-501.0001967463552
 31
0.0
  0
LINE
  5
2D6
330
1F
100
AcDbEntity
  8
0-7_金物
  6
Continuous
 62
     7
370
     9
100
AcDbLine
 10
-3800.966688652557
 20
-660.6001956949784
 30
0.0
 11
-3764.628279460595
 21
-660.6001956949784
 31
0.0
  0
LINE
  5
2D7
330
1F
100
AcDbEntity
  8
0-7_金物
  6
Continuous
 62
     7
370
     9
100
AcDbLine
 10
-3821.197483803614
 20
-606.0001960546601
 30
0.0
 11
-3744.397484309541
 21
-606.0001960546601
 31
0.0
  0
LINE
  5
2D8
330
1F
100
AcDbEntity
  8
0-7_金物
  6
Continuous
 62
     7
370
     9
100
AcDbLine
 10
-3803.797483918238
 20
-636.0001958570331
 30
0.0
 11
-3761.797484194915
 21
-636.0001958570331
 31
0.0
  0
LINE
  5
2D9
330
1F
100
AcDbEntity
  8
0-7_金物
  6
Continuous
 62
     7
370
     9
100
AcDbLine
 10
-3803.797483918238
 20
-615.0001959953714
 30
0.0
 11
-3761.797484194915
 21
-615.0001959953714
 31
0.0
  0
ARC
  5
2DA
330
1F
100
AcDbEntity
  8
0-7_金物
  6
Continuous
 62
     7
370
     9
100
AcDbCircle
 10
-3821.197483803614
 20
-600.0001960941847
 30
0.0
 40
5.999999960474506
100
AcDbArc
 50
270.0
 51
0.0
  0
ARC
  5
2DB
330
1F
100
AcDbEntity
  8
0-7_金物
  6
Continuous
 62
     7
370
     9
100
AcDbCircle
 10
-3821.197483803614
 20
-609.0001960348964
 30
0.0
 40
2.999999980237253
100
AcDbArc
 50
90.0
 51
180.0
  0
ARC
  5
2DC
330
1F
100
AcDbEntity
  8
0-7_金物
  6
Continuous
 62
     7
370
     9
100
AcDbCircle
 10
-3809.197483882665
 20
-600.0001960941847
 30
0.0
 40
5.999999960474506
100
AcDbArc
 50
90.0
 51
180.0
  0
ARC
  5
2DD
330
1F
100
AcDbEntity
  8
0-7_金物
  6
Continuous
 62
     7
370
     9
100
AcDbCircle
 10
-3744.397484309541
 20
-609.0001960348964
 30
0.0
 40
2.999999980237253
100
AcDbArc
 50
0.0
 51
90.0
  0
ARC
  5
2DE
330
1F
100
AcDbEntity
  8
0-7_金物
  6
Continuous
 62
     7
370
     9
100
AcDbCircle
 10
-3744.397484309541
 20
-600.0001960941847
 30
0.0
 40
5.999999960474506
100
AcDbArc
 50
180.0
 51
270.0
  0
ARC
  5
2DF
330
1F
100
AcDbEntity
  8
0-7_金物
  6
Continuous
 62
     7
370
     9
100
AcDbCircle
 10
-3756.39748423049
 20
-600.0001960941847
 30
0.0
 40
5.999999960474506
100
AcDbArc
 50
0.0
 51
90.0
  0
LINE
  5
2E0
330
1F
100
AcDbEntity
  8
0-7_金物
  6
Continuous
 62
     7
370
     9
100
AcDbLine
 10
-3761.797484194915
 20
-659.0787606985647
 30
0.0
 11
-3761.797484194915
 21
-615.0001959953714
 31
0.0
  0
LINE
  5
2E1
330
1F
100
AcDbEntity
  8
0-7_金物
  6
Continuous
 62
     7
370
     9
100
AcDbLine
 10
-3803.797483918238
 20
-659.0787606985647
 30
0.0
 11
-3803.797483918238
 21
-615.0001959953714
 31
0.0
  0
LINE
  5
2E2
330
1F
100
AcDbEntity
  8
0-7_金物
  6
Continuous
 62
     7
370
     9
100
AcDbLine
 10
-3741.397484329304
 20
-623.400195940037
 30
0.0
 11
-3741.397484329304
 21
-609.0001960348964
 31
0.0
  0
LINE
  5
2E3
330
1F
100
AcDbEntity
  8
0-7_金物
  6
Continuous
 62
     7
370
     9
100
AcDbLine
 10
-3824.19748378385
 20
-623.400195940037
 30
0.0
 11
-3824.19748378385
 21
-609.0001960348964
 31
0.0
  0
LINE
  5
2E4
330
1F
100
AcDbEntity
  8
0-7_金物
  6
Continuous
 62
     7
370
     9
100
AcDbLine
 10
-3809.197483882665
 20
-594.000196133711
 30
0.0
 11
-3756.39748423049
 21
-594.000196133711
 31
0.0
  0
ARC
  5
2E5
330
1F
100
AcDbEntity
  8
0-7_金物
  6
Continuous
 62
     7
370
     9
100
AcDbCircle
 10
-3747.397484289777
 20
-423.0001972601869
 30
0.0
 40
5.999999960474506
100
AcDbArc
 50
270.0
 51
0.0
  0
ARC
  5
2E6
330
1F
100
AcDbEntity
  8
0-7_金物
  6
Continuous
 62
     7
370
     9
100
AcDbCircle
 10
-3818.197483823376
 20
-423.0001972601869
 30
0.0
 40
5.999999960474506
100
AcDbArc
 50
180.0
 51
270.0
  0
LINE
  5
2E7
330
1F
100
AcDbEntity
  8
0-7_金物
  6
Continuous
 62
     7
370
     9
100
AcDbLine
 10
-3741.397484329304
 20
-414.0001973194748
 30
0.0
 11
-3741.397484329304
 21
-423.0001972601869
 31
0.0
  0
LINE
  5
2E8
330
1F
100
AcDbEntity
  8
0-7_金物
  6
Continuous
 62
     7
370
     9
100
AcDbLine
 10
-3824.19748378385
 20
-414.0001973194748
 30
0.0
 11
-3824.19748378385
 21
-423.0001972601869
 31
0.0
  0
CIRCLE
  5
2E9
330
1F
100
AcDbEntity
  8
0-7_金物
  6
Continuous
 62
     7
370
     9
100
AcDbCircle
 10
-3782.797484056578
 20
-558.0001963708639
 30
0.0
 40
29.99999980237253
  0
LINE
  5
2EA
330
1F
100
AcDbEntity
  8
0-7_金物
  6
Continuous
 62
     7
370
     9
100
AcDbLine
 10
-3818.197483823376
 20
-429.0001972206619
 30
0.0
 11
-3747.397484289777
 21
-429.0001972206619
 31
0.0
  0
LINE
  5
2EB
330
1F
100
AcDbEntity
  8
0-7_金物
  6
Continuous
 62
     7
370
     9
100
AcDbLine
 10
-3744.397484309541
 20
-474.0001969242198
 30
0.0
 11
-3737.797484353019
 21
-474.0001969242198
 31
0.0
  0
LINE
  5
2EC
330
1F
100
AcDbEntity
  8
0-7_金物
  6
Continuous
 62
     7
370
     9
100
AcDbLine
 10
-3830.197483744326
 20
-414.0001973194748
 30
0.0
 11
-3830.197483744326
 21
-623.400195940037
 31
0.0
  0
LINE
  5
2ED
330
1F
100
AcDbEntity
  8
0-7_金物
  6
Continuous
 62
     7
370
     9
100
AcDbLine
 10
-3735.397484368827
 20
-414.0001973194748
 30
0.0
 11
-3735.397484368827
 21
-623.400195940037
 31
0.0
  0
ARC
  5
2EE
330
1F
100
AcDbEntity
  8
0-7_金物
  6
Continuous
 62
     7
370
     9
100
AcDbCircle
 10
-3782.797484056578
 20
-624.6001959321313
 30
0.0
 40
47.3999996877486
100
AcDbArc
 50
180.0
 51
0.0
  0
ARC
  5
2EF
330
1F
100
AcDbEntity
  8
0-7_金物
  6
Continuous
 62
     7
370
     9
100
AcDbCircle
 10
-3782.797484056578
 20
-558.0001963708639
 30
0.0
 40
38.39999974703684
100
AcDbArc
 50
341.7900431357177
 51
12.17573410274985
  0
ARC
  5
2F0
330
1F
100
AcDbEntity
  8
0-7_金物
  6
Continuous
 62
     7
370
     9
100
AcDbCircle
 10
-3782.797484056578
 20
-558.0001963708639
 30
0.0
 40
38.39999974703684
100
AcDbArc
 50
167.8242658972536
 51
198.2099568642824
  0
ARC
  5
2F1
330
1F
100
AcDbEntity
  8
0-7_金物
  6
Continuous
 62
     7
370
     9
100
AcDbCircle
 10
-3782.797484056578
 20
-474.0001969242198
 30
0.0
 40
38.39999974703684
100
AcDbArc
 50
167.8242658972536
 51
198.2099568642824
  0
ARC
  5
2F2
330
1F
100
AcDbEntity
  8
0-7_金物
  6
Continuous
 62
     7
370
     9
100
AcDbCircle
 10
-3782.797484056578
 20
-474.0001969242198
 30
0.0
 40
38.39999974703684
100
AcDbArc
 50
341.7900431357177
 51
12.17573410274985
  0
LINE
  5
2F3
330
1F
100
AcDbEntity
  8
0-7_金物
  6
Continuous
 62
     7
370
     9
100
AcDbLine
 10
-3829.941685452965
 20
-414.0001973194748
 30
0.0
 11
-3735.141686077467
 21
-414.0001973194748
 31
0.0
  0
LINE
  5
2F4
330
1F
100
AcDbEntity
  8
0-7_金物
  6
Continuous
 62
     7
370
     9
100
AcDbLine
 10
-3806.802359382504
 20
-376.8001970309373
 30
0.0
 11
-3806.802359382504
 21
-382.8001969914123
 31
0.0
  0
LINE
  5
2F5
330
1F
100
AcDbEntity
  8
0-7_金物
  6
Continuous
 62
     7
370
     9
100
AcDbLine
 10
-3758.802359698709
 20
-376.8001970309373
 30
0.0
 11
-3806.802359382504
 21
-376.8001970309373
 31
0.0
  0
LINE
  5
2F6
330
1F
100
AcDbEntity
  8
0-7_金物
  6
Continuous
 62
     7
370
     9
100
AcDbLine
 10
-3758.802359698709
 20
-376.8001970309373
 30
0.0
 11
-3758.802359698709
 21
-382.8001969914123
 31
0.0
  0
LINE
  5
2F7
330
1F
100
AcDbEntity
  8
0-7_金物
  6
Continuous
 62
     7
370
     9
100
AcDbLine
 10
-3806.802359382504
 20
-382.8001969914123
 30
0.0
 11
-3758.802359698709
 21
-382.8001969914123
 31
0.0
  0
LINE
  5
2F8
330
1F
100
AcDbEntity
  8
0-7_金物
  6
Continuous
 62
     7
370
     9
100
AcDbLine
 10
-3752.202359742186
 20
-339.0001972799493
 30
0.0
 11
-3752.202359742186
 21
-315.0001974380493
 31
0.0
  0
LINE
  5
2F9
330
1F
100
AcDbEntity
  8
0-7_金物
  6
Continuous
 62
     7
370
     9
100
AcDbLine
 10
-3752.202359742186
 20
-291.0001975961526
 30
0.0
 11
-3752.202359742186
 21
-315.0001974380518
 31
0.0
  0
ARC
  5
2FA
330
1F
100
AcDbEntity
  8
0-7_金物
  6
Continuous
 62
     7
370
     9
100
AcDbCircle
 10
-3761.802359678945
 20
-288.0001976159164
 30
0.0
 40
5.999999960474506
100
AcDbArc
 50
0.0
 51
90.0
  0
ARC
  5
2FB
330
1F
100
AcDbEntity
  8
0-7_金物
  6
Continuous
 62
     7
370
     9
100
AcDbCircle
 10
-3761.802359678945
 20
-351.0001972008976
 30
0.0
 40
5.999999960474506
100
AcDbArc
 50
270.0
 51
0.0
  0
LINE
  5
2FC
330
1F
100
AcDbEntity
  8
0-7_金物
  6
Continuous
 62
     7
370
     9
100
AcDbLine
 10
-3761.802359678945
 20
-357.0001971613701
 30
0.0
 11
-3782.802359540607
 21
-357.0001971613701
 31
0.0
  0
LINE
  5
2FD
330
1F
100
AcDbEntity
  8
0-7_金物
  6
Continuous
 62
     7
370
     9
100
AcDbLine
 10
-3755.802359718471
 20
-351.0001972008976
 30
0.0
 11
-3755.802359718471
 21
-342.0001972601855
 31
0.0
  0
LINE
  5
2FE
330
1F
100
AcDbEntity
  8
0-7_金物
  6
Continuous
 62
     7
370
     9
100
AcDbLine
 10
-3752.802359738233
 20
-339.0001972799493
 30
0.0
 11
-3752.202359742186
 21
-339.0001972799493
 31
0.0
  0
LINE
  5
2FF
330
1F
100
AcDbEntity
  8
0-7_金物
  6
Continuous
 62
     7
370
     9
100
AcDbLine
 10
-3752.802359738233
 20
-291.0001975961526
 30
0.0
 11
-3752.202359742186
 21
-291.0001975961526
 31
0.0
  0
LINE
  5
300
330
1F
100
AcDbEntity
  8
0-7_金物
  6
Continuous
 62
     7
370
     9
100
AcDbLine
 10
-3713.2023599991
 20
-363.0001971218459
 30
0.0
 11
-3713.2023599991
 21
-267.0001977542526
 31
0.0
  0
ARC
  5
301
330
1F
100
AcDbEntity
  8
0-7_金物
  6
Continuous
 62
     7
370
     9
100
AcDbCircle
 10
-3752.802359738233
 20
-288.0001976159164
 30
0.0
 40
2.999999980237253
100
AcDbArc
 50
180.0
 51
270.0
  0
ARC
  5
302
330
1F
100
AcDbEntity
  8
0-7_金物
  6
Continuous
 62
     7
370
     9
100
AcDbCircle
 10
-3752.802359738233
 20
-342.0001972601855
 30
0.0
 40
2.999999980237253
100
AcDbArc
 50
90.0
 51
180.0
  0
LINE
  5
303
330
1F
100
AcDbEntity
  8
0-7_金物
  6
Continuous
 62
     7
370
     9
100
AcDbLine
 10
-3761.802359678945
 20
-282.0001976554406
 30
0.0
 11
-3782.802359540607
 21
-282.0001976554406
 31
0.0
  0
LINE
  5
304
330
1F
100
AcDbEntity
  8
0-7_金物
  6
Continuous
 62
     7
370
     9
100
AcDbLine
 10
-3764.802359659183
 20
-375.0001970427942
 30
0.0
 11
-3764.802359659183
 21
-376.8001970309373
 31
0.0
  0
LINE
  5
305
330
1F
100
AcDbEntity
  8
0-7_金物
  6
Continuous
 62
     7
370
     9
100
AcDbLine
 10
-3749.202359761948
 20
-315.0001974380493
 30
0.0
 11
-3749.202359761948
 21
-363.0001971218459
 31
0.0
  0
LINE
  5
306
330
1F
100
AcDbEntity
  8
0-7_金物
  6
Continuous
 62
     7
370
     9
100
AcDbLine
 10
-3749.202359761948
 20
-339.0001972799493
 30
0.0
 11
-3751.002359750091
 21
-339.0001972799493
 31
0.0
  0
LINE
  5
307
330
1F
100
AcDbEntity
  8
0-7_金物
  6
Continuous
 62
     7
370
     9
100
AcDbLine
 10
-3749.202359761948
 20
-291.0001975961526
 30
0.0
 11
-3751.002359750091
 21
-291.0001975961526
 31
0.0
  0
LINE
  5
308
330
1F
100
AcDbEntity
  8
0-7_金物
  6
Continuous
 62
     7
370
     9
100
AcDbLine
 10
-3752.202359742184
 20
-331.2001973313303
 30
0.0
 11
-3751.002359750091
 21
-330.0001973392372
 31
0.0
  0
LINE
  5
309
330
1F
100
AcDbEntity
  8
0-7_金物
  6
Continuous
 62
     7
370
     9
100
AcDbLine
 10
-3751.002359750091
 20
-300.0001975368639
 30
0.0
 11
-3752.202359742184
 21
-298.8001975447682
 31
0.0
  0
LINE
  5
30A
330
1F
100
AcDbEntity
  8
0-7_金物
  6
Continuous
 62
     7
370
     9
100
AcDbLine
 10
-3749.202359761948
 20
-330.0001973392372
 30
0.0
 11
-3752.202359742186
 21
-330.0001973392372
 31
0.0
  0
LINE
  5
30B
330
1F
100
AcDbEntity
  8
0-7_金物
  6
Continuous
 62
     7
370
     9
100
AcDbLine
 10
-3749.202359761948
 20
-300.0001975368639
 30
0.0
 11
-3752.202359742184
 21
-300.0001975368639
 31
0.0
  0
LINE
  5
30C
330
1F
100
AcDbEntity
  8
0-7_金物
  6
Continuous
 62
     7
370
     9
100
AcDbLine
 10
-3752.202359742184
 20
-337.8001972878528
 30
0.0
 11
-3751.002359750091
 21
-339.0001972799493
 31
0.0
  0
LINE
  5
30D
330
1F
100
AcDbEntity
  8
0-7_金物
  6
Continuous
 62
     7
370
     9
100
AcDbLine
 10
-3752.202359742184
 20
-292.2001975882458
 30
0.0
 11
-3751.002359750091
 21
-291.0001975961526
 31
0.0
  0
ARC
  5
30E
330
1F
100
AcDbEntity
  8
0-7_金物
  6
Continuous
 62
     7
370
     9
100
AcDbCircle
 10
-3731.202359880524
 20
-339.0001972799493
 30
0.0
 40
29.99999980237253
100
AcDbArc
 50
233.1301023541541
 51
306.8698976458458
  0
ARC
  5
30F
330
1F
100
AcDbEntity
  8
0-7_金物
  6
Continuous
 62
     7
370
     9
100
AcDbCircle
 10
-3731.202359880524
 20
-291.0001975961526
 30
0.0
 40
29.99999980237253
100
AcDbArc
 50
53.13010235415425
 51
126.8698976458457
  0
LINE
  5
310
330
1F
100
AcDbEntity
  8
0-7_金物
  6
Continuous
 62
     7
370
     9
100
AcDbLine
 10
-3749.202359761948
 20
-267.0001977542526
 30
0.0
 11
-3749.202359761948
 21
-315.0001974380518
 31
0.0
  0
ARC
  5
311
330
1F
100
AcDbEntity
  8
0-7_金物
  6
Continuous
 62
     7
370
     9
100
AcDbCircle
 10
-3743.802359797523
 20
-369.0001970823218
 30
0.0
 40
11.99999992094901
100
AcDbArc
 50
116.743683950387
 51
180.0
  0
ARC
  5
312
330
1F
100
AcDbEntity
  8
0-7_金物
  6
Continuous
 62
     7
370
     9
100
AcDbCircle
 10
-3761.802359678946
 20
-369.0001970823218
 30
0.0
 40
5.999999960474506
100
AcDbArc
 50
270.0
 51
0.0
  0
LINE
  5
313
330
1F
100
AcDbEntity
  8
0-7_金物
  6
Continuous
 62
     7
370
     9
100
AcDbLine
 10
-3782.802359540607
 20
-375.0001970427942
 30
0.0
 11
-3761.802359678946
 21
-375.0001970427942
 31
0.0
  0
LINE
  5
314
330
1F
100
AcDbEntity
  8
0-7_金物
  6
Continuous
 62
     7
370
     9
100
AcDbLine
 10
-3813.402359339026
 20
-339.0001972799493
 30
0.0
 11
-3813.402359339026
 21
-315.0001974380493
 31
0.0
  0
LINE
  5
315
330
1F
100
AcDbEntity
  8
0-7_金物
  6
Continuous
 62
     7
370
     9
100
AcDbLine
 10
-3813.402359339026
 20
-291.0001975961526
 30
0.0
 11
-3813.402359339026
 21
-315.0001974380518
 31
0.0
  0
ARC
  5
316
330
1F
100
AcDbEntity
  8
0-7_金物
  6
Continuous
 62
     7
370
     9
100
AcDbCircle
 10
-3803.802359402267
 20
-288.0001976159164
 30
0.0
 40
5.999999960474506
100
AcDbArc
 50
90.0
 51
180.0
  0
ARC
  5
317
330
1F
100
AcDbEntity
  8
0-7_金物
  6
Continuous
 62
     7
370
     9
100
AcDbCircle
 10
-3803.802359402267
 20
-351.0001972008976
 30
0.0
 40
5.999999960474506
100
AcDbArc
 50
180.0
 51
270.0
  0
LINE
  5
318
330
1F
100
AcDbEntity
  8
0-7_金物
  6
Continuous
 62
     7
370
     9
100
AcDbLine
 10
-3803.802359402267
 20
-357.0001971613701
 30
0.0
 11
-3782.802359540607
 21
-357.0001971613701
 31
0.0
  0
LINE
  5
319
330
1F
100
AcDbEntity
  8
0-7_金物
  6
Continuous
 62
     7
370
     9
100
AcDbLine
 10
-3809.802359362741
 20
-351.0001972008976
 30
0.0
 11
-3809.802359362741
 21
-342.0001972601855
 31
0.0
  0
LINE
  5
31A
330
1F
100
AcDbEntity
  8
0-7_金物
  6
Continuous
 62
     7
370
     9
100
AcDbLine
 10
-3812.802359342979
 20
-339.0001972799493
 30
0.0
 11
-3813.402359339026
 21
-339.0001972799493
 31
0.0
  0
LINE
  5
31B
330
1F
100
AcDbEntity
  8
0-7_金物
  6
Continuous
 62
     7
370
     9
100
AcDbLine
 10
-3812.802359342979
 20
-291.0001975961526
 30
0.0
 11
-3813.402359339026
 21
-291.0001975961526
 31
0.0
  0
LINE
  5
31C
330
1F
100
AcDbEntity
  8
0-7_金物
  6
Continuous
 62
     7
370
     9
100
AcDbLine
 10
-3852.402359082111
 20
-363.0001971218459
 30
0.0
 11
-3852.402359082111
 21
-267.0001977542526
 31
0.0
  0
ARC
  5
31D
330
1F
100
AcDbEntity
  8
0-7_金物
  6
Continuous
 62
     7
370
     9
100
AcDbCircle
 10
-3812.802359342979
 20
-288.0001976159164
 30
0.0
 40
2.999999980237253
100
AcDbArc
 50
270.0
 51
0.0
  0
ARC
  5
31E
330
1F
100
AcDbEntity
  8
0-7_金物
  6
Continuous
 62
     7
370
     9
100
AcDbCircle
 10
-3812.802359342979
 20
-342.0001972601855
 30
0.0
 40
2.999999980237253
100
AcDbArc
 50
0.0
 51
90.0
  0
LINE
  5
31F
330
1F
100
AcDbEntity
  8
0-7_金物
  6
Continuous
 62
     7
370
     9
100
AcDbLine
 10
-3803.802359402267
 20
-282.0001976554406
 30
0.0
 11
-3782.802359540607
 21
-282.0001976554406
 31
0.0
  0
LINE
  5
320
330
1F
100
AcDbEntity
  8
0-7_金物
  6
Continuous
 62
     7
370
     9
100
AcDbLine
 10
-3800.802359422031
 20
-375.0001970427942
 30
0.0
 11
-3800.802359422031
 21
-376.8001970309373
 31
0.0
  0
LINE
  5
321
330
1F
100
AcDbEntity
  8
0-7_金物
  6
Continuous
 62
     7
370
     9
100
AcDbLine
 10
-3816.402359319264
 20
-315.0001974380493
 30
0.0
 11
-3816.402359319264
 21
-363.0001971218459
 31
0.0
  0
LINE
  5
322
330
1F
100
AcDbEntity
  8
0-7_金物
  6
Continuous
 62
     7
370
     9
100
AcDbLine
 10
-3816.402359319264
 20
-339.0001972799493
 30
0.0
 11
-3814.602359331121
 21
-339.0001972799493
 31
0.0
  0
LINE
  5
323
330
1F
100
AcDbEntity
  8
0-7_金物
  6
Continuous
 62
     7
370
     9
100
AcDbLine
 10
-3816.402359319266
 20
-291.0001975961526
 30
0.0
 11
-3814.602359331121
 21
-291.0001975961526
 31
0.0
  0
LINE
  5
324
330
1F
100
AcDbEntity
  8
0-7_金物
  6
Continuous
 62
     7
370
     9
100
AcDbLine
 10
-3813.402359339026
 20
-331.2001973313303
 30
0.0
 11
-3814.602359331121
 21
-330.0001973392372
 31
0.0
  0
LINE
  5
325
330
1F
100
AcDbEntity
  8
0-7_金物
  6
Continuous
 62
     7
370
     9
100
AcDbLine
 10
-3814.602359331122
 20
-300.0001975368639
 30
0.0
 11
-3813.402359339026
 21
-298.8001975447682
 31
0.0
  0
LINE
  5
326
330
1F
100
AcDbEntity
  8
0-7_金物
  6
Continuous
 62
     7
370
     9
100
AcDbLine
 10
-3816.402359319264
 20
-330.0001973392372
 30
0.0
 11
-3813.402359339026
 21
-330.0001973392372
 31
0.0
  0
LINE
  5
327
330
1F
100
AcDbEntity
  8
0-7_金物
  6
Continuous
 62
     7
370
     9
100
AcDbLine
 10
-3816.402359319264
 20
-300.0001975368639
 30
0.0
 11
-3813.402359339026
 21
-300.0001975368639
 31
0.0
  0
LINE
  5
328
330
1F
100
AcDbEntity
  8
0-7_金物
  6
Continuous
 62
     7
370
     9
100
AcDbLine
 10
-3813.402359339026
 20
-337.8001972878528
 30
0.0
 11
-3814.602359331121
 21
-339.0001972799493
 31
0.0
  0
LINE
  5
329
330
1F
100
AcDbEntity
  8
0-7_金物
  6
Continuous
 62
     7
370
     9
100
AcDbLine
 10
-3813.402359339026
 20
-292.2001975882458
 30
0.0
 11
-3814.602359331121
 21
-291.0001975961526
 31
0.0
  0
ARC
  5
32A
330
1F
100
AcDbEntity
  8
0-7_金物
  6
Continuous
 62
     7
370
     9
100
AcDbCircle
 10
-3834.402359200686
 20
-339.0001972799493
 30
0.0
 40
29.99999980237253
100
AcDbArc
 50
233.1301023541541
 51
306.8698976458458
  0
ARC
  5
32B
330
1F
100
AcDbEntity
  8
0-7_金物
  6
Continuous
 62
     7
370
     9
100
AcDbCircle
 10
-3834.402359200686
 20
-291.0001975961526
 30
0.0
 40
29.99999980237253
100
AcDbArc
 50
53.13010235415425
 51
126.8698976458457
  0
LINE
  5
32C
330
1F
100
AcDbEntity
  8
0-7_金物
  6
Continuous
 62
     7
370
     9
100
AcDbLine
 10
-3816.402359319264
 20
-267.0001977542526
 30
0.0
 11
-3816.402359319264
 21
-315.0001974380518
 31
0.0
  0
ARC
  5
32D
330
1F
100
AcDbEntity
  8
0-7_金物
  6
Continuous
 62
     7
370
     9
100
AcDbCircle
 10
-3821.802359283688
 20
-369.0001970823218
 30
0.0
 40
11.99999992094901
100
AcDbArc
 50
0.0
 51
63.25631604961301
  0
ARC
  5
32E
330
1F
100
AcDbEntity
  8
0-7_金物
  6
Continuous
 62
     7
370
     9
100
AcDbCircle
 10
-3803.802359402266
 20
-369.0001970823218
 30
0.0
 40
5.999999960474506
100
AcDbArc
 50
180.0
 51
270.0
  0
LINE
  5
32F
330
1F
100
AcDbEntity
  8
0-7_金物
  6
Continuous
 62
     7
370
     9
100
AcDbLine
 10
-3782.802359540607
 20
-375.0001970427942
 30
0.0
 11
-3803.802359402266
 21
-375.0001970427942
 31
0.0
  0
LINE
  5
330
330
1F
100
AcDbEntity
  8
0-7_金物
  6
Continuous
 62
     7
370
     9
100
AcDbLine
 10
-3866.802358987252
 20
-333.0001973194734
 30
0.0
 11
-3866.802358987252
 21
-240.0001979321198
 31
0.0
  0
ARC
  5
331
330
1F
100
AcDbEntity
  8
0-7_金物
  6
Continuous
 62
     7
370
     9
100
AcDbCircle
 10
-3863.802359007014
 20
-240.0001979321198
 30
0.0
 40
2.999999980237589
100
AcDbArc
 50
89.99999999999997
 51
180.0
  0
LINE
  5
332
330
1F
100
AcDbEntity
  8
0-7_金物
  6
Continuous
 62
     7
370
     9
100
AcDbLine
 10
-3863.802359007014
 20
-237.0001979518827
 30
0.0
 11
-3862.602359014919
 21
-237.0001979518827
 31
0.0
  0
ARC
  5
333
330
1F
100
AcDbEntity
  8
0-7_金物
  6
Continuous
 62
     7
370
     9
100
AcDbCircle
 10
-3862.602359014919
 20
-240.0001979321189
 30
0.0
 40
2.999999980236907
100
AcDbArc
 50
359.999999999987
 51
89.99999999998697
  0
LINE
  5
334
330
1F
100
AcDbEntity
  8
0-7_金物
  6
Continuous
 62
     7
370
     9
100
AcDbLine
 10
-3859.602359034683
 20
-240.0001979321198
 30
0.0
 11
-3859.602359034683
 21
-246.0001978925922
 31
0.0
  0
ARC
  5
335
330
1F
100
AcDbEntity
  8
0-7_金物
  6
Continuous
 62
     7
370
     9
100
AcDbCircle
 10
-3856.602359054445
 20
-246.0001978925922
 30
0.0
 40
2.999999980237248
100
AcDbArc
 50
180.0000000000066
 51
270.0000000000065
  0
LINE
  5
336
330
1F
100
AcDbEntity
  8
0-7_金物
  6
Continuous
 62
     7
370
     9
100
AcDbLine
 10
-3856.602359054445
 20
-249.0001978728284
 30
0.0
 11
-3822.702359277763
 21
-249.0001978728284
 31
0.0
  0
ARC
  5
337
330
1F
100
AcDbEntity
  8
0-7_金物
  6
Continuous
 62
     7
370
     9
100
AcDbCircle
 10
-3822.702359277763
 20
-246.0001978925922
 30
0.0
 40
2.999999980236565
100
AcDbArc
 50
270.0000000000065
 51
0.0000000000065138
  0
LINE
  5
338
330
1F
100
AcDbEntity
  8
0-7_金物
  6
Continuous
 62
     7
370
     9
100
AcDbLine
 10
-3819.702359297527
 20
-246.0001978925922
 30
0.0
 11
-3819.702359297527
 21
-240.0001979321198
 31
0.0
  0
ARC
  5
339
330
1F
100
AcDbEntity
  8
0-7_金物
  6
Continuous
 62
     7
370
     9
100
AcDbCircle
 10
-3816.702359317291
 20
-240.0001979321198
 30
0.0
 40
2.999999980237589
100
AcDbArc
 50
89.99999999999997
 51
180.0
  0
LINE
  5
33A
330
1F
100
AcDbEntity
  8
0-7_金物
  6
Continuous
 62
     7
370
     9
100
AcDbLine
 10
-3816.702359317291
 20
-237.0001979518827
 30
0.0
 11
-3748.902359763927
 21
-237.0001979518827
 31
0.0
  0
ARC
  5
33B
330
1F
100
AcDbEntity
  8
0-7_金物
  6
Continuous
 62
     7
370
     9
100
AcDbCircle
 10
-3748.902359763927
 20
-240.0001979321198
 30
0.0
 40
2.999999980237589
100
AcDbArc
 50
0.0
 51
90.0
  0
LINE
  5
33C
330
1F
100
AcDbEntity
  8
0-7_金物
  6
Continuous
 62
     7
370
     9
100
AcDbLine
 10
-3745.902359783689
 20
-240.0001979321198
 30
0.0
 11
-3745.902359783689
 21
-246.0001978925922
 31
0.0
  0
ARC
  5
33D
330
1F
100
AcDbEntity
  8
0-7_金物
  6
Continuous
 62
     7
370
     9
100
AcDbCircle
 10
-3742.902359803452
 20
-246.0001978925922
 30
0.0
 40
2.999999980236565
100
AcDbArc
 50
179.9999999999935
 51
269.9999999999935
  0
LINE
  5
33E
330
1F
100
AcDbEntity
  8
0-7_金物
  6
Continuous
 62
     7
370
     9
100
AcDbLine
 10
-3742.902359803452
 20
-249.0001978728284
 30
0.0
 11
-3709.00236002677
 21
-249.0001978728284
 31
0.0
  0
ARC
  5
33F
330
1F
100
AcDbEntity
  8
0-7_金物
  6
Continuous
 62
     7
370
     9
100
AcDbCircle
 10
-3709.00236002677
 20
-246.0001978925922
 30
0.0
 40
2.999999980237248
100
AcDbArc
 50
269.9999999999935
 51
359.9999999999935
  0
LINE
  5
340
330
1F
100
AcDbEntity
  8
0-7_金物
  6
Continuous
 62
     7
370
     9
100
AcDbLine
 10
-3706.002360046532
 20
-246.0001978925922
 30
0.0
 11
-3706.002360046532
 21
-240.0001979321198
 31
0.0
  0
ARC
  5
341
330
1F
100
AcDbEntity
  8
0-7_金物
  6
Continuous
 62
     7
370
     9
100
AcDbCircle
 10
-3703.002360066294
 20
-240.0001979321189
 30
0.0
 40
2.999999980236907
100
AcDbArc
 50
90.00000000001303
 51
180.000000000013
  0
LINE
  5
342
330
1F
100
AcDbEntity
  8
0-7_金物
  6
Continuous
 62
     7
370
     9
100
AcDbLine
 10
-3703.002360066296
 20
-237.0001979518827
 30
0.0
 11
-3701.802360074202
 21
-237.0001979518827
 31
0.0
  0
ARC
  5
343
330
1F
100
AcDbEntity
  8
0-7_金物
  6
Continuous
 62
     7
370
     9
100
AcDbCircle
 10
-3701.802360074202
 20
-240.0001979321198
 30
0.0
 40
2.999999980237589
100
AcDbArc
 50
0.0
 51
90.0
  0
LINE
  5
344
330
1F
100
AcDbEntity
  8
0-7_金物
  6
Continuous
 62
     7
370
     9
100
AcDbLine
 10
-3698.802360093965
 20
-240.0001979321198
 30
0.0
 11
-3698.802360093965
 21
-333.0001973194734
 31
0.0
  0
LINE
  5
345
330
1F
100
AcDbEntity
  8
0-7_金物
  6
Continuous
 62
     7
370
     9
100
AcDbLine
 10
-3698.802360093965
 20
-333.0001973194734
 30
0.0
 11
-3690.4023601493
 21
-333.0001973194734
 31
0.0
  0
ARC
  5
346
330
1F
100
AcDbEntity
  8
0-7_金物
  6
Continuous
 62
     7
370
     9
100
AcDbCircle
 10
-3690.4023601493
 20
-336.6001972957596
 30
0.0
 40
3.599999976284494
100
AcDbArc
 50
270.0
 51
90.0
  0
LINE
  5
347
330
1F
100
AcDbEntity
  8
0-7_金物
  6
Continuous
 62
     7
370
     9
100
AcDbLine
 10
-3690.4023601493
 20
-340.2001972720424
 30
0.0
 11
-3698.802360093965
 21
-340.2001972720424
 31
0.0
  0
LINE
  5
348
330
1F
100
AcDbEntity
  8
0-7_金物
  6
Continuous
 62
     7
370
     9
100
AcDbLine
 10
-3698.802360093965
 20
-340.2001972720424
 30
0.0
 11
-3698.802360093965
 21
-353.7947907896123
 31
0.0
  0
ARC
  5
349
330
1F
100
AcDbEntity
  8
0-7_金物
  6
Continuous
 62
     7
370
     9
100
AcDbCircle
 10
-3710.80236001491
 20
-353.7947907896123
 30
0.0
 40
11.99999992094679
100
AcDbArc
 50
324.0494323803814
 51
359.9999999999989
  0
ARC
  5
34A
330
1F
100
AcDbEntity
  8
0-7_金物
  6
Continuous
 62
     7
370
     9
100
AcDbCircle
 10
-3731.202359880527
 20
-339.0001972799493
 30
0.0
 40
37.19999975494105
100
AcDbArc
 50
246.1811586065432
 51
324.0494323803861
  0
ARC
  5
34B
330
1F
100
AcDbEntity
  8
0-7_金物
  6
Continuous
 62
     7
370
     9
100
AcDbCircle
 10
-3743.802359797523
 20
-367.5427968333608
 30
0.0
 40
5.999999960474696
100
AcDbArc
 50
179.9999999999991
 51
246.1811586065413
  0
LINE
  5
34C
330
1F
100
AcDbEntity
  8
0-7_金物
  6
Continuous
 62
     7
370
     9
100
AcDbLine
 10
-3749.802359757998
 20
-367.5427968333608
 30
0.0
 11
-3749.802359757998
 21
-366.0001971020822
 31
0.0
  0
ARC
  5
34D
330
1F
100
AcDbEntity
  8
0-7_金物
  6
Continuous
 62
     7
370
     9
100
AcDbCircle
 10
-3748.002359769855
 20
-366.0001971020856
 30
0.0
 40
1.799999988143101
100
AcDbArc
 50
58.10920819813321
 51
179.9999999999765
  0
ARC
  5
34E
330
1F
100
AcDbEntity
  8
0-7_金物
  6
Continuous
 62
     7
370
     9
100
AcDbCircle
 10
-3731.202359880527
 20
-339.0001972799493
 30
0.0
 40
29.99999980237201
100
AcDbArc
 50
238.1092081981562
 51
326.07688799674
  0
ARC
  5
34F
330
1F
100
AcDbEntity
  8
0-7_金物
  6
Continuous
 62
     7
370
     9
100
AcDbCircle
 10
-3707.802360034677
 20
-354.7380496345963
 30
0.0
 40
1.799999988144312
100
AcDbArc
 50
326.0768879966748
 51
359.9999999999343
  0
LINE
  5
350
330
1F
100
AcDbEntity
  8
0-7_金物
  6
Continuous
 62
     7
370
     9
100
AcDbLine
 10
-3706.002360046532
 20
-354.7380496345988
 30
0.0
 11
-3706.002360046532
 21
-270.0001977344888
 31
0.0
  0
ARC
  5
351
330
1F
100
AcDbEntity
  8
0-7_金物
  6
Continuous
 62
     7
370
     9
100
AcDbCircle
 10
-3718.002359967482
 20
-270.0001977344888
 30
0.0
 40
11.99999992094899
100
AcDbArc
 50
0.0
 51
90.00000000000001
  0
LINE
  5
352
330
1F
100
AcDbEntity
  8
0-7_金物
  6
Continuous
 62
     7
370
     9
100
AcDbLine
 10
-3718.002359967482
 20
-258.0001978135431
 30
0.0
 11
-3753.102359736259
 21
-258.0001978135431
 31
0.0
  0
ARC
  5
353
330
1F
100
AcDbEntity
  8
0-7_金物
  6
Continuous
 62
     7
370
     9
100
AcDbCircle
 10
-3753.102359736259
 20
-256.2001978254
 30
0.0
 40
1.799999988142076
100
AcDbArc
 50
180.0000000000326
 51
270.0000000000326
  0
LINE
  5
354
330
1F
100
AcDbEntity
  8
0-7_金物
  6
Continuous
 62
     7
370
     9
100
AcDbLine
 10
-3754.902359724402
 20
-256.2001978254008
 30
0.0
 11
-3754.902359724402
 21
-247.8001978807353
 31
0.0
  0
ARC
  5
355
330
1F
100
AcDbEntity
  8
0-7_金物
  6
Continuous
 62
     7
370
     9
100
AcDbCircle
 10
-3756.702359712544
 20
-247.8001978807353
 30
0.0
 40
1.799999988142416
100
AcDbArc
 50
0.0000000000217168
 51
90.00000000002173
  0
LINE
  5
356
330
1F
100
AcDbEntity
  8
0-7_金物
  6
Continuous
 62
     7
370
     9
100
AcDbLine
 10
-3756.702359712545
 20
-246.0001978925922
 30
0.0
 11
-3781.002359552464
 21
-246.0001978925922
 31
0.0
  0
LINE
  5
357
330
1F
100
AcDbEntity
  8
0-7_金物
  6
Continuous
 62
     7
370
     9
100
AcDbLine
 10
-3781.002359552464
 20
-246.0001978925922
 30
0.0
 11
-3782.802359540607
 21
-244.2001979044491
 31
0.0
  0
LINE
  5
358
330
1F
100
AcDbEntity
  8
0-7_金物
  6
Continuous
 62
     7
370
     9
100
AcDbLine
 10
-3782.802359540607
 20
-244.2001979044491
 30
0.0
 11
-3784.60235952875
 21
-246.0001978925922
 31
0.0
  0
LINE
  5
359
330
1F
100
AcDbEntity
  8
0-7_金物
  6
Continuous
 62
     7
370
     9
100
AcDbLine
 10
-3784.60235952875
 20
-246.0001978925922
 30
0.0
 11
-3808.902359368672
 21
-246.0001978925922
 31
0.0
  0
ARC
  5
35A
330
1F
100
AcDbEntity
  8
0-7_金物
  6
Continuous
 62
     7
370
     9
100
AcDbCircle
 10
-3808.902359368672
 20
-247.8001978807353
 30
0.0
 40
1.799999988142416
100
AcDbArc
 50
89.99999999997829
 51
179.9999999999783
  0
LINE
  5
35B
330
1F
100
AcDbEntity
  8
0-7_金物
  6
Continuous
 62
     7
370
     9
100
AcDbLine
 10
-3810.702359356815
 20
-247.8001978807353
 30
0.0
 11
-3810.702359356815
 21
-256.2001978254008
 31
0.0
  0
ARC
  5
35C
330
1F
100
AcDbEntity
  8
0-7_金物
  6
Continuous
 62
     7
370
     9
100
AcDbCircle
 10
-3812.502359344956
 20
-256.2001978254008
 30
0.0
 40
1.799999988141394
100
AcDbArc
 50
269.9999999999891
 51
359.9999999999891
  0
LINE
  5
35D
330
1F
100
AcDbEntity
  8
0-7_金物
  6
Continuous
 62
     7
370
     9
100
AcDbLine
 10
-3812.502359344956
 20
-258.0001978135431
 30
0.0
 11
-3847.602359113733
 21
-258.0001978135431
 31
0.0
  0
ARC
  5
35E
330
1F
100
AcDbEntity
  8
0-7_金物
  6
Continuous
 62
     7
370
     9
100
AcDbCircle
 10
-3847.602359113733
 20
-270.0001977344888
 30
0.0
 40
11.99999992094899
100
AcDbArc
 50
90.0
 51
180.0
  0
LINE
  5
35F
330
1F
100
AcDbEntity
  8
0-7_金物
  6
Continuous
 62
     7
370
     9
100
AcDbLine
 10
-3859.602359034683
 20
-270.0001977344888
 30
0.0
 11
-3859.602359034683
 21
-354.7380496345988
 31
0.0
  0
ARC
  5
360
330
1F
100
AcDbEntity
  8
0-7_金物
  6
Continuous
 62
     7
370
     9
100
AcDbCircle
 10
-3857.802359046538
 20
-354.7380496345997
 30
0.0
 40
1.799999988143631
100
AcDbArc
 50
179.9999999999944
 51
213.923112003254
  0
ARC
  5
361
330
1F
100
AcDbEntity
  8
0-7_金物
  6
Continuous
 62
     7
370
     9
100
AcDbCircle
 10
-3834.402359200688
 20
-339.0001972799485
 30
0.0
 40
29.99999980237392
100
AcDbArc
 50
213.9231120032609
 51
301.8907918018446
  0
ARC
  5
362
330
1F
100
AcDbEntity
  8
0-7_金物
  6
Continuous
 62
     7
370
     9
100
AcDbCircle
 10
-3817.60235931136
 20
-366.0001971020822
 30
0.0
 40
1.799999988141737
100
AcDbArc
 50
359.9999999999994
 51
121.8907918018427
  0
LINE
  5
363
330
1F
100
AcDbEntity
  8
0-7_金物
  6
Continuous
 62
     7
370
     9
100
AcDbLine
 10
-3815.802359323219
 20
-366.0001971020822
 30
0.0
 11
-3815.802359323219
 21
-367.5427968333608
 31
0.0
  0
ARC
  5
364
330
1F
100
AcDbEntity
  8
0-7_金物
  6
Continuous
 62
     7
370
     9
100
AcDbCircle
 10
-3821.802359283693
 20
-367.5427968333608
 30
0.0
 40
5.999999960474696
100
AcDbArc
 50
293.8188413934587
 51
0.0000000000009542
  0
ARC
  5
365
330
1F
100
AcDbEntity
  8
0-7_金物
  6
Continuous
 62
     7
370
     9
100
AcDbCircle
 10
-3834.40235920069
 20
-339.0001972799485
 30
0.0
 40
37.19999975494188
100
AcDbArc
 50
215.9505676196163
 51
293.8188413934565
  0
ARC
  5
366
330
1F
100
AcDbEntity
  8
0-7_金物
  6
Continuous
 62
     7
370
     9
100
AcDbCircle
 10
-3854.802359066303
 20
-353.7947907896123
 30
0.0
 40
11.99999992094837
100
AcDbArc
 50
179.9999999999987
 51
215.9505676196161
  0
LINE
  5
367
330
1F
100
AcDbEntity
  8
0-7_金物
  6
Continuous
 62
     7
370
     9
100
AcDbLine
 10
-3866.802358987252
 20
-353.7947907896123
 30
0.0
 11
-3866.802358987252
 21
-340.2001972720424
 31
0.0
  0
LINE
  5
368
330
1F
100
AcDbEntity
  8
0-7_金物
  6
Continuous
 62
     7
370
     9
100
AcDbLine
 10
-3899.202358773814
 20
-333.0001973194734
 30
0.0
 11
-3866.802358987252
 21
-333.0001973194734
 31
0.0
  0
LINE
  5
369
330
1F
100
AcDbEntity
  8
0-7_金物
  6
Continuous
 62
     7
370
     9
100
AcDbLine
 10
-3866.802358987252
 20
-340.2001972720424
 30
0.0
 11
-3892.002358821243
 21
-340.2001972720424
 31
0.0
  0
ARC
  5
36A
330
1F
100
AcDbEntity
  8
0-7_金物
  6
Continuous
 62
     7
370
     9
100
AcDbCircle
 10
-3899.202358773814
 20
-334.2001973115691
 30
0.0
 40
1.199999992094489
100
AcDbArc
 50
89.99999999999997
 51
180.0
  0
ARC
  5
36B
330
1F
100
AcDbEntity
  8
0-7_金物
  6
Continuous
 62
     7
370
     9
100
AcDbCircle
 10
-3892.002358821245
 20
-341.400197264139
 30
0.0
 40
1.199999992095854
100
AcDbArc
 50
89.99999999993486
 51
179.9999999999349
  0
LINE
  5
36C
330
1F
100
AcDbEntity
  8
0-7_金物
  6
Continuous
 62
     7
370
     9
100
AcDbLine
 10
-3900.402358765909
 20
-443.4001965922047
 30
0.0
 11
-3900.402358765909
 21
-334.2001973115691
 31
0.0
  0
LINE
  5
36D
330
1F
100
AcDbEntity
  8
0-7_金物
  6
Continuous
 62
     7
370
     9
100
AcDbLine
 10
-3893.20235881334
 20
-341.400197264139
 30
0.0
 11
-3893.202358813338
 21
-443.4001965922047
 31
0.0
  0
ARC
  5
36E
330
1F
100
AcDbEntity
  8
0-7_金物
  6
Continuous
 62
     7
370
     9
100
AcDbCircle
 10
-3896.802358789624
 20
-443.4001965922047
 30
0.0
 40
3.599999976284835
100
AcDbArc
 50
180.0
 51
0.0
  0
LINE
  5
36F
330
1F
100
AcDbEntity
  8
0-7_金物
  6
Continuous
 62
     7
370
     9
100
AcDbLine
 10
-3764.802358987244
 20
-382.8001969914123
 30
0.0
 11
-3764.802358987244
 21
-414.0001973194748
 31
0.0
  0
LINE
  5
370
330
1F
100
AcDbEntity
  8
0-7_金物
  6
Continuous
 62
     7
370
     9
100
AcDbLine
 10
-3800.802358987244
 20
-414.0001973194748
 30
0.0
 11
-3800.802358987244
 21
-382.8001969914123
 31
0.0
  0
LINE
  5
371
330
1F
100
AcDbEntity
  8
0-6_扉
  6
Continuous
 62
   200
370
    20
100
AcDbLine
 10
-3692.802359540608
 20
-414.0001973194748
 30
0.0
 11
-3872.802359540608
 21
-414.0001973194748
 31
0.0
  0
LINE
  5
372
330
1F
100
AcDbEntity
  8
0-6_扉
  6
Continuous
 62
   200
370
    20
100
AcDbLine
 10
-3692.802359540608
 20
-414.0001973194748
 30
0.0
 11
-3692.802359540608
 21
-1479.000197951876
 31
0.0
  0
LINE
  5
373
330
1F
100
AcDbEntity
  8
0-B_寸法
  6
Continuous
 62
   120
370
     5
100
AcDbLine
 10
-3872.802359540608
 20
-1119.000324800451
 30
0.0
 11
-3692.802359540608
 21
-1119.000324800451
 31
0.0
  0
LINE
  5
374
330
1F
100
AcDbEntity
  8
0-6_扉
  6
Continuous
 62
   200
370
    20
100
AcDbLine
 10
-3872.802359540608
 20
-1599.000197951876
 30
0.0
 11
-3872.802359540608
 21
-2730.000404213942
 31
0.0
  0
LINE
  5
375
330
1F
100
AcDbEntity
  8
0-6_扉
  6
Continuous
 62
   200
370
    20
100
AcDbLine
 10
-3692.802359540608
 20
-1599.000197951876
 30
0.0
 11
-3692.802359540608
 21
-2730.000404213942
 31
0.0
  0
MTEXT
  5
376
330
1F
100
AcDbEntity
  8
0-B_寸法
  6
Continuous
 62
     7
370
   211
100
AcDbMText
 10
-3842.802359540608
 20
-1118.280324800451
 30
0.0
 40
91.44
 41
120.0
 46
0.0
 71
     7
 72
     1
  1
{\fＭＳ ゴシック|b0|i0|c128|p49;30}
 73
     1
 44
1.0
  0
LINE
  5
377
330
1F
100
AcDbEntity
  8
0-B_寸法
  6
Continuous
 62
   120
370
     5
100
AcDbLine
 10
-2636.802359540604
 20
-2763.000404213942
 30
0.0
 11
-2636.802359540604
 21
-333.000404213966
 31
0.0
  0
LWPOLYLINE
  5
378
330
1F
100
AcDbEntity
  8
0-B_寸法
  6
Continuous
 62
     7
370
     9
100
AcDbPolyline
 90
        4
 70
     1
 43
3.0
 10
-2845.302359540604
 20
-333.000404213966
 42
0.4142135623731
 10
-2846.802359540604
 20
-331.500404213966
 42
0.4142135623731
 10
-2848.302359540604
 20
-333.000404213966
 42
0.4142135623731
 10
-2846.802359540604
 20
-334.500404213966
 42
0.4142135623731
  0
LINE
  5
379
330
1F
100
AcDbEntity
  8
0-B_寸法
  6
Continuous
 62
   120
370
     5
100
AcDbLine
 10
-2636.802359540604
 20
-333.000404213966
 30
0.0
 11
-3266.802359540604
 21
-333.000404213966
 31
0.0
  0
LWPOLYLINE
  5
37A
330
1F
100
AcDbEntity
  8
0-B_寸法
  6
Continuous
 62
     7
370
     9
100
AcDbPolyline
 90
        4
 70
     1
 43
3.0
 10
-2635.302359540604
 20
-333.000404213966
 42
0.4142135623731
 10
-2636.802359540604
 20
-331.500404213966
 42
0.4142135623731
 10
-2638.302359540604
 20
-333.000404213966
 42
0.4142135623731
 10
-2636.802359540604
 20
-334.500404213966
 42
0.4142135623731
  0
LINE
  5
37B
330
1F
100
AcDbEntity
  8
0-B_寸法
  6
Continuous
 62
   120
370
     5
100
AcDbLine
 10
-2636.802359540604
 20
-153.000404213966
 30
0.0
 11
-2636.802359540604
 21
-333.000404213966
 31
0.0
  0
LWPOLYLINE
  5
37C
330
1F
100
AcDbEntity
  8
0-B_寸法
  6
Continuous
 62
     7
370
     9
100
AcDbPolyline
 90
        4
 70
     1
 43
3.0
 10
-2635.302359540604
 20
-153.000404213966
 42
0.4142135623731
 10
-2636.802359540604
 20
-151.500404213966
 42
0.4142135623731
 10
-2638.302359540604
 20
-153.000404213966
 42
0.4142135623731
 10
-2636.802359540604
 20
-154.500404213966
 42
0.4142135623731
  0
LINE
  5
37D
330
1F
100
AcDbEntity
  8
0-B_寸法
  6
Continuous
 62
   120
370
     5
100
AcDbLine
 10
-2426.802359540604
 20
-153.000404213966
 30
0.0
 11
-3266.802359540604
 21
-153.000404213966
 31
0.0
  0
LINE
  5
37E
330
1F
100
AcDbEntity
  8
0-B_寸法
  6
Continuous
 62
   120
370
     5
100
AcDbLine
 10
-2426.802359540604
 20
-2781.000404213942
 30
0.0
 11
-2426.802359540604
 21
-153.000404213966
 31
0.0
  0
LWPOLYLINE
  5
37F
330
1F
100
AcDbEntity
  8
0-B_寸法
  6
Continuous
 62
     7
370
     9
100
AcDbPolyline
 90
        4
 70
     1
 43
3.0
 10
-2425.302359540604
 20
-153.000404213966
 42
0.4142135623731
 10
-2426.802359540604
 20
-151.500404213966
 42
0.4142135623731
 10
-2428.302359540604
 20
-153.000404213966
 42
0.4142135623731
 10
-2426.802359540604
 20
-154.500404213966
 42
0.4142135623731
  0
LWPOLYLINE
  5
380
330
1F
100
AcDbEntity
  8
0-B_寸法
  6
Continuous
 62
     7
370
     9
100
AcDbPolyline
 90
        4
 70
     1
 43
3.0
 10
-3055.302359540604
 20
-376.2004039293825
 42
0.4142135623731
 10
-3056.802359540604
 20
-374.7004039293825
 42
0.4142135623731
 10
-3058.302359540604
 20
-376.2004039293825
 42
0.4142135623731
 10
-3056.802359540604
 20
-377.7004039293825
 42
0.4142135623731
  0
LINE
  5
381
330
1F
100
AcDbEntity
  8
0-B_寸法
  6
Continuous
 62
   120
370
     5
100
AcDbLine
 10
-3056.802359540604
 20
-376.2004039293825
 30
0.0
 11
-3266.802359540604
 21
-376.2004039293825
 31
0.0
  0
LINE
  5
382
330
1F
100
AcDbEntity
  8
0-B_寸法
  6
Continuous
 62
   120
370
     5
100
AcDbLine
 10
-3056.802359540604
 20
-376.2004039293825
 30
0.0
 11
-3056.802359540604
 21
-414.0004035815593
 31
0.0
  0
LWPOLYLINE
  5
383
330
1F
100
AcDbEntity
  8
0-B_寸法
  6
Continuous
 62
     7
370
     9
100
AcDbPolyline
 90
        4
 70
     1
 43
3.0
 10
-3055.302359540604
 20
-414.0004035815593
 42
0.4142135623731
 10
-3056.802359540604
 20
-412.5004035815593
 42
0.4142135623731
 10
-3058.302359540604
 20
-414.0004035815593
 42
0.4142135623731
 10
-3056.802359540604
 20
-415.5004035815593
 42
0.4142135623731
  0
LINE
  5
384
330
1F
100
AcDbEntity
  8
0-B_寸法
  6
Continuous
 62
   120
370
     5
100
AcDbLine
 10
-2846.802359540604
 20
-414.0004035815593
 30
0.0
 11
-3266.802359540604
 21
-414.0004035815593
 31
0.0
  0
LINE
  5
385
330
1F
100
AcDbEntity
  8
0-B_寸法
  6
Continuous
 62
   120
370
     5
100
AcDbLine
 10
-2846.802359540604
 20
-333.000404213966
 30
0.0
 11
-2846.802359540604
 21
-414.0004035815593
 31
0.0
  0
LWPOLYLINE
  5
386
330
1F
100
AcDbEntity
  8
0-B_寸法
  6
Continuous
 62
     7
370
     9
100
AcDbPolyline
 90
        4
 70
     1
 43
3.0
 10
-2845.302359540604
 20
-414.0004035815593
 42
0.4142135623731
 10
-2846.802359540604
 20
-412.5004035815593
 42
0.4142135623731
 10
-2848.302359540604
 20
-414.0004035815593
 42
0.4142135623731
 10
-2846.802359540604
 20
-415.5004035815593
 42
0.4142135623731
  0
LINE
  5
387
330
1F
100
AcDbEntity
  8
0-B_寸法
  6
Continuous
 62
   120
370
     5
100
AcDbLine
 10
-2846.802359540604
 20
-414.0004035815593
 30
0.0
 11
-2846.802359540604
 21
-2730.000404213942
 31
0.0
  0
MTEXT
  5
388
330
1F
100
AcDbEntity
  8
0-B_寸法
  6
Continuous
 62
     7
370
   211
100
AcDbMText
 10
-2651.802359540604
 20
-318.172904213966
 30
0.0
 40
97.15499999999999
 41
127.5
 46
0.0
 71
     7
 72
     1
  1
{\fＭＳ ゴシック|b0|i0|c128|p49;30}
 11
6.123031769111886E-17
 21
1.0
 31
0.0
 73
     1
 44
1.0
  0
MTEXT
  5
389
330
1F
100
AcDbEntity
  8
0-B_寸法
  6
Continuous
 62
     7
370
   211
100
AcDbMText
 10
-3071.802359540604
 20
-637.4704035815591
 30
0.0
 40
99.06
 41
195.0
 46
0.0
 71
     7
 72
     1
  1
{\fＭＳ ゴシック|b0|i0|c128|p49;6.3}
 11
6.123031769111886E-17
 21
1.0
 31
0.0
 73
     1
 44
1.0
  0
MTEXT
  5
38A
330
1F
100
AcDbEntity
  8
0-B_寸法
  6
Continuous
 62
     7
370
   211
100
AcDbMText
 10
-2861.802359540604
 20
-704.4941535815591
 30
0.0
 40
100.0125
 41
262.5
 46
0.0
 71
     7
 72
     1
  1
{\fＭＳ ゴシック|b0|i0|c128|p49;13.5}
 11
6.123031769111886E-17
 21
1.0
 31
0.0
 73
     1
 44
1.0
  0
MTEXT
  5
38B
330
1F
100
AcDbEntity
  8
0-A_文字
  6
Continuous
 62
     7
370
     9
100
AcDbMText
 10
-4588.972323978094
 20
341.6364576378726
 30
0.0
 40
91.44
 41
600.0
 46
0.0
 71
     7
 72
     1
  1
{\fＭＳ ゴシック|b0|i0|c128|p49;■縦断面図}
 73
     1
 44
1.0
  0
LINE
  5
38C
330
1F
100
AcDbEntity
  8
0-3_仕上げ
  6
Continuous
 62
     7
370
     9
100
AcDbLine
 10
-3266.802359540604
 20
-2844.000404213941
 30
0.0
 11
-4586.802359540608
 21
-2844.000404213941
 31
0.0
  0
LINE
  5
38D
330
1F
100
AcDbEntity
  8
0-3_仕上げ
  6
Continuous
 62
     7
370
     9
100
AcDbLine
 10
-3266.802359540604
 20
-2790.000404213942
 30
0.0
 11
-4586.802359540608
 21
-2790.000404213942
 31
0.0
  0
LINE
  5
38E
330
1F
100
AcDbEntity
  8
0-3_仕上げ
  6
Continuous
 62
     7
370
     9
100
AcDbLine
 10
-3266.802359540604
 20
-2799.000404213941
 30
0.0
 11
-4586.802359540608
 21
-2799.000404213941
 31
0.0
  0
LINE
  5
38F
330
1F
100
AcDbEntity
  8
0-3_仕上げ
  6
Continuous
 62
     7
370
     9
100
AcDbLine
 10
-3266.802359540604
 20
-2808.000404213939
 30
0.0
 11
-4586.802359540608
 21
-2808.000404213939
 31
0.0
  0
LINE
  5
390
330
1F
100
AcDbEntity
  8
0-3_仕上げ
  6
Continuous
 62
     7
370
     9
100
AcDbLine
 10
-3266.802359540604
 20
-2826.000404213941
 30
0.0
 11
-4586.802359540608
 21
-2826.000404213941
 31
0.0
  0
LINE
  5
391
330
1F
100
AcDbEntity
  8
0-3_仕上げ
  6
Continuous
 62
     7
370
     9
100
AcDbLine
 10
-3266.802359540604
 20
-2835.000404213942
 30
0.0
 11
-4586.802359540608
 21
-2835.000404213942
 31
0.0
  0
LINE
  5
392
330
1F
100
AcDbEntity
  8
0-3_仕上げ
  6
Continuous
 62
     7
370
     9
100
AcDbLine
 10
-3266.802359540604
 20
-2817.00040421394
 30
0.0
 11
-4586.802359540608
 21
-2817.00040421394
 31
0.0
  0
LINE
  5
393
330
1F
100
AcDbEntity
  8
0-3_仕上げ
  6
Continuous
 62
    40
370
    15
100
AcDbLine
 10
-3266.802359540604
 20
-2781.000404213941
 30
0.0
 11
-4586.802359540608
 21
-2781.000404213941
 31
0.0
  0
LINE
  5
394
330
1F
100
AcDbEntity
  8
0-3_仕上げ
  6
Continuous
 62
    40
370
    15
100
AcDbLine
 10
-3266.802359540604
 20
-2853.000404213942
 30
0.0
 11
-4586.802359540608
 21
-2853.000404213942
 31
0.0
  0
LINE
  5
395
330
1F
100
AcDbEntity
  8
0-0_補助線
  6
JWW_HOJO
 62
   120
370
     5
100
AcDbLine
 10
-2426.802359540604
 20
-2853.000197951857
 30
0.0
 11
-4586.802359540608
 21
-2853.000197951857
 31
0.0
  0
LINE
  5
396
330
1F
100
AcDbEntity
  8
0-A_文字
  6
Continuous
 62
     7
370
     9
100
AcDbLine
 10
-4493.415255540193
 20
-2728.118906281354
 30
0.0
 11
-4523.415255540191
 21
-2780.08043050842
 31
0.0
  0
LINE
  5
397
330
1F
100
AcDbEntity
  8
0-A_文字
  6
Continuous
 62
     7
370
     9
100
AcDbLine
 10
-4553.415255540193
 20
-2728.118906281354
 30
0.0
 11
-4493.415255540193
 21
-2728.118906281354
 31
0.0
  0
LINE
  5
398
330
1F
100
AcDbEntity
  8
0-A_文字
  6
Continuous
 62
     7
370
     9
100
AcDbLine
 10
-4553.415255540193
 20
-2728.118906281354
 30
0.0
 11
-4523.415255540193
 21
-2780.08043050842
 31
0.0
  0
LINE
  5
399
330
1F
100
AcDbEntity
  8
0-B_寸法
  6
Continuous
 62
   120
370
     5
100
AcDbLine
 10
-3512.802359540608
 20
-2622.000404213943
 30
0.0
 11
-3632.802359540608
 21
-2622.000404213943
 31
0.0
  0
LINE
  5
39A
330
1F
100
AcDbEntity
  8
0-B_寸法
  6
Continuous
 62
   120
370
     5
100
AcDbLine
 10
-3512.802359540608
 20
-2730.000404213942
 30
0.0
 11
-3632.802359540608
 21
-2730.000404213942
 31
0.0
  0
LWPOLYLINE
  5
39B
330
1F
100
AcDbEntity
  8
0-B_寸法
  6
Continuous
 62
     7
370
     9
100
AcDbPolyline
 90
        4
 70
     1
 43
3.0
 10
-3511.302359540608
 20
-2622.000404213943
 42
0.4142135623731
 10
-3512.802359540608
 20
-2620.500404213943
 42
0.4142135623731
 10
-3514.302359540608
 20
-2622.000404213943
 42
0.4142135623731
 10
-3512.802359540608
 20
-2623.500404213943
 42
0.4142135623731
  0
LWPOLYLINE
  5
39C
330
1F
100
AcDbEntity
  8
0-B_寸法
  6
Continuous
 62
     7
370
     9
100
AcDbPolyline
 90
        4
 70
     1
 43
3.0
 10
-3511.302359540608
 20
-2730.000404213942
 42
0.4142135623731
 10
-3512.802359540608
 20
-2728.500404213943
 42
0.4142135623731
 10
-3514.302359540608
 20
-2730.000404213942
 42
0.4142135623731
 10
-3512.802359540608
 20
-2731.500404213942
 42
0.4142135623731
  0
LINE
  5
39D
330
1F
100
AcDbEntity
  8
0-B_寸法
  6
Continuous
 62
   120
370
     5
100
AcDbLine
 10
-3512.802359540608
 20
-2730.000404213942
 30
0.0
 11
-3512.802359540608
 21
-2622.000404213943
 31
0.0
  0
LINE
  5
39E
330
1F
100
AcDbEntity
  8
0-0_補助線
  6
JWW_HOJO
 62
   120
370
     5
100
AcDbLine
 10
-3662.802359540608
 20
-2592.000404213942
 30
0.0
 11
-3662.802359540608
 21
-2856.000591679353
 31
0.0
  0
LINE
  5
39F
330
1F
100
AcDbEntity
  8
0-B_寸法
  6
Continuous
 62
   120
370
     5
100
AcDbLine
 10
-3796.302359540598
 20
-2532.000404213942
 30
0.0
 11
-3769.302359540598
 21
-2532.000404213942
 31
0.0
  0
LINE
  5
3A0
330
1F
100
AcDbEntity
  8
0-B_寸法
  6
Continuous
 62
   120
370
     5
100
AcDbLine
 10
-3796.302359540598
 20
-2532.000404213942
 30
0.0
 11
-3796.302359540598
 21
-2592.000404213942
 31
0.0
  0
LWPOLYLINE
  5
3A1
330
1F
100
AcDbEntity
  8
0-B_寸法
  6
Continuous
 62
     7
370
     9
100
AcDbPolyline
 90
        4
 70
     1
 43
3.0
 10
-3794.802359540598
 20
-2532.000404213942
 42
0.4142135623731
 10
-3796.302359540598
 20
-2530.500404213942
 42
0.4142135623731
 10
-3797.802359540598
 20
-2532.000404213942
 42
0.4142135623731
 10
-3796.302359540598
 20
-2533.500404213942
 42
0.4142135623731
  0
LINE
  5
3A2
330
1F
100
AcDbEntity
  8
0-B_寸法
  6
Continuous
 62
   120
370
     5
100
AcDbLine
 10
-3769.302359540598
 20
-2532.000404213942
 30
0.0
 11
-3769.302359540598
 21
-2592.000404213942
 31
0.0
  0
LWPOLYLINE
  5
3A3
330
1F
100
AcDbEntity
  8
0-B_寸法
  6
Continuous
 62
     7
370
     9
100
AcDbPolyline
 90
        4
 70
     1
 43
3.0
 10
-3767.802359540599
 20
-2532.000404213942
 42
0.4142135623731
 10
-3769.302359540598
 20
-2530.500404213942
 42
0.4142135623731
 10
-3770.802359540598
 20
-2532.000404213942
 42
0.4142135623731
 10
-3769.302359540598
 20
-2533.500404213942
 42
0.4142135623731
  0
LINE
  5
3A4
330
1F
100
AcDbEntity
  8
0-0_補助線
  6
JWW_HOJO
 62
   120
370
     5
100
AcDbLine
 10
-3733.302359540609
 20
-2592.000404213942
 30
0.0
 11
-3733.302359540609
 21
-2856.000591679353
 31
0.0
  0
LINE
  5
3A5
330
1F
100
AcDbEntity
  8
0-6_扉
  6
Continuous
 62
   200
370
    20
100
AcDbLine
 10
-3692.802359540608
 20
-2730.000404213942
 30
0.0
 11
-3763.302359540608
 21
-2730.000404213942
 31
0.0
  0
LINE
  5
3A6
330
1F
100
AcDbEntity
  8
0-6_扉
  6
Continuous
 62
   200
370
    20
100
AcDbLine
 10
-3802.302359540609
 20
-2730.000404213942
 30
0.0
 11
-3872.802359540608
 21
-2730.000404213942
 31
0.0
  0
LINE
  5
3A7
330
1F
100
AcDbEntity
  8
0-6_扉
  6
Continuous
 62
   200
370
    20
100
AcDbLine
 10
-3763.302359540608
 20
-2622.000404213943
 30
0.0
 11
-3802.302359540609
 21
-2622.000404213943
 31
0.0
  0
LINE
  5
3A8
330
1F
100
AcDbEntity
  8
0-6_扉
  6
Continuous
 62
   200
370
    20
100
AcDbLine
 10
-3802.302359540609
 20
-2622.000404213943
 30
0.0
 11
-3802.302359540609
 21
-2730.000404213942
 31
0.0
  0
LINE
  5
3A9
330
1F
100
AcDbEntity
  8
0-6_扉
  6
Continuous
 62
   200
370
    20
100
AcDbLine
 10
-3763.302359540608
 20
-2622.000404213943
 30
0.0
 11
-3763.302359540608
 21
-2730.000404213942
 31
0.0
  0
ARC
  5
3AA
330
1F
100
AcDbEntity
  8
0-7_金物
  6
Continuous
 62
    92
370
    13
100
AcDbCircle
 10
-3791.8023595406
 20
-2763.000404213941
 30
0.0
 40
18.0
100
AcDbArc
 50
270.0
 51
0.0
  0
LINE
  5
3AB
330
1F
100
AcDbEntity
  8
0-7_金物
  6
Continuous
 62
    92
370
    13
100
AcDbLine
 10
-3773.8023595406
 20
-2763.000404213941
 30
0.0
 11
-3773.8023595406
 21
-2661.000404213941
 31
0.0
  0
LINE
  5
3AC
330
1F
100
AcDbEntity
  8
0-7_金物
  6
Continuous
 62
    92
370
    13
100
AcDbLine
 10
-3791.8023595406
 20
-2781.000404213941
 30
0.0
 11
-3881.802359540609
 21
-2781.000404213941
 31
0.0
  0
LINE
  5
3AD
330
1F
100
AcDbEntity
  8
0-7_金物
  6
Continuous
 62
    92
370
    13
100
AcDbLine
 10
-3791.8023595406
 20
-2661.000404213941
 30
0.0
 11
-3791.8023595406
 21
-2763.000404213941
 31
0.0
  0
LINE
  5
3AE
330
1F
100
AcDbEntity
  8
0-7_金物
  6
Continuous
 62
    92
370
    13
100
AcDbLine
 10
-3791.8023595406
 20
-2661.000404213941
 30
0.0
 11
-3773.8023595406
 21
-2661.000404213941
 31
0.0
  0
LINE
  5
3AF
330
1F
100
AcDbEntity
  8
0-7_金物
  6
Continuous
 62
    92
370
    13
100
AcDbLine
 10
-3881.802359540609
 20
-2763.000404213941
 30
0.0
 11
-3791.8023595406
 21
-2763.000404213941
 31
0.0
  0
LINE
  5
3B0
330
1F
100
AcDbEntity
  8
0-7_金物
  6
Continuous
 62
    92
370
    13
100
AcDbLine
 10
-3881.802359540609
 20
-2763.000404213941
 30
0.0
 11
-3881.802359540609
 21
-2781.000404213941
 31
0.0
  0
LINE
  5
3B1
330
1F
100
AcDbEntity
  8
0-7_金物
  6
Continuous
 62
     7
370
     9
100
AcDbLine
 10
-3763.302359540608
 20
-2730.000404213942
 30
0.0
 11
-3745.302359540608
 21
-2730.000404213942
 31
0.0
  0
LINE
  5
3B2
330
1F
100
AcDbEntity
  8
0-7_金物
  6
Continuous
 62
     7
370
     9
100
AcDbLine
 10
-3745.302359540608
 20
-2730.000404213942
 30
0.0
 11
-3745.302359540608
 21
-2736.000404213941
 31
0.0
  0
LINE
  5
3B3
330
1F
100
AcDbEntity
  8
0-7_金物
  6
Continuous
 62
     7
370
     9
100
AcDbLine
 10
-3769.302359540609
 20
-2736.000404213941
 30
0.0
 11
-3745.302359540608
 21
-2736.000404213941
 31
0.0
  0
LINE
  5
3B4
330
1F
100
AcDbEntity
  8
0-7_金物
  6
Continuous
 62
     7
370
     9
100
AcDbLine
 10
-3769.302359540609
 20
-2628.000404213942
 30
0.0
 11
-3796.302359540607
 21
-2628.000404213942
 31
0.0
  0
LINE
  5
3B5
330
1F
100
AcDbEntity
  8
0-7_金物
  6
Continuous
 62
     7
370
     9
100
AcDbLine
 10
-3802.302359540608
 20
-2622.000404213943
 30
0.0
 11
-3763.302359540608
 21
-2622.000404213943
 31
0.0
  0
LINE
  5
3B6
330
1F
100
AcDbEntity
  8
0-7_金物
  6
Continuous
 62
     7
370
     9
100
AcDbLine
 10
-3769.302359540609
 20
-2628.000404213942
 30
0.0
 11
-3769.302359540609
 21
-2736.000404213941
 31
0.0
  0
LINE
  5
3B7
330
1F
100
AcDbEntity
  8
0-7_金物
  6
Continuous
 62
     7
370
     9
100
AcDbLine
 10
-3763.302359540608
 20
-2622.000404213943
 30
0.0
 11
-3763.302359540608
 21
-2730.000404213942
 31
0.0
  0
LINE
  5
3B8
330
1F
100
AcDbEntity
  8
0-7_金物
  6
Continuous
 62
     7
370
     9
100
AcDbLine
 10
-3796.302359540607
 20
-2736.000404213941
 30
0.0
 11
-3820.302359540608
 21
-2736.000404213941
 31
0.0
  0
LINE
  5
3B9
330
1F
100
AcDbEntity
  8
0-7_金物
  6
Continuous
 62
     7
370
     9
100
AcDbLine
 10
-3796.302359540607
 20
-2736.000404213941
 30
0.0
 11
-3796.302359540607
 21
-2628.000404213942
 31
0.0
  0
LINE
  5
3BA
330
1F
100
AcDbEntity
  8
0-7_金物
  6
Continuous
 62
     7
370
     9
100
AcDbLine
 10
-3820.302359540608
 20
-2736.000404213941
 30
0.0
 11
-3820.302359540608
 21
-2730.000404213942
 31
0.0
  0
LINE
  5
3BB
330
1F
100
AcDbEntity
  8
0-7_金物
  6
Continuous
 62
     7
370
     9
100
AcDbLine
 10
-3820.302359540608
 20
-2730.000404213942
 30
0.0
 11
-3802.302359540608
 21
-2730.000404213942
 31
0.0
  0
LINE
  5
3BC
330
1F
100
AcDbEntity
  8
0-7_金物
  6
Continuous
 62
     7
370
     9
100
AcDbLine
 10
-3802.302359540608
 20
-2730.000404213942
 30
0.0
 11
-3802.302359540608
 21
-2622.000404213943
 31
0.0
  0
LINE
  5
3BD
330
1F
100
AcDbEntity
  8
0-C_ハッチ
  6
Continuous
 62
   120
370
     5
100
AcDbLine
 10
-3881.802359540609
 20
-2771.894774300673
 30
0.0
 11
-3872.90858654115
 21
-2763.001001301214
 31
0.0
  0
LINE
  5
3BE
330
1F
100
AcDbEntity
  8
0-C_ハッチ
  6
Continuous
 62
   120
370
     5
100
AcDbLine
 10
-3791.8023595406
 20
-2681.894774300668
 30
0.0
 11
-3773.802359540593
 21
-2663.894774300659
 31
0.0
  0
LINE
  5
3BF
330
1F
100
AcDbEntity
  8
0-C_ハッチ
  6
Continuous
 62
   120
370
     5
100
AcDbLine
 10
-3791.802359540593
 20
-2707.350618423412
 30
0.0
 11
-3773.802359540589
 21
-2689.350618423407
 31
0.0
  0
LINE
  5
3C0
330
1F
100
AcDbEntity
  8
0-C_ハッチ
  6
Continuous
 62
   120
370
     5
100
AcDbLine
 10
-3865.452145331124
 20
-2781.000404213944
 30
0.0
 11
-3847.452742418414
 21
-2763.001001301232
 31
0.0
  0
LINE
  5
3C1
330
1F
100
AcDbEntity
  8
0-C_ハッチ
  6
Continuous
 62
   120
370
     5
100
AcDbLine
 10
-3791.802359540604
 20
-2732.806462546119
 30
0.0
 11
-3773.802359540596
 21
-2714.806462546113
 31
0.0
  0
LINE
  5
3C2
330
1F
100
AcDbEntity
  8
0-C_ハッチ
  6
Continuous
 62
   120
370
     5
100
AcDbLine
 10
-3839.996301208423
 20
-2781.00040421394
 30
0.0
 11
-3821.996898295709
 21
-2763.001001301222
 31
0.0
  0
LINE
  5
3C3
330
1F
100
AcDbEntity
  8
0-C_ハッチ
  6
Continuous
 62
   120
370
     5
100
AcDbLine
 10
-3791.802359540614
 20
-2758.262306668824
 30
0.0
 11
-3773.8023595406
 21
-2740.262306668815
 31
0.0
  0
LINE
  5
3C4
330
1F
100
AcDbEntity
  8
0-C_ハッチ
  6
Continuous
 62
   120
370
     5
100
AcDbLine
 10
-3814.540457085721
 20
-2781.000404213932
 30
0.0
 11
-3796.541054172997
 21
-2763.001001301212
 31
0.0
  0
LINE
  5
3C5
330
1F
100
AcDbEntity
  8
0-C_ハッチ
  6
Continuous
 62
   120
370
     5
100
AcDbLine
 10
-3788.840033549187
 20
-2780.755824800156
 30
0.0
 11
-3774.042362013992
 21
-2765.958153264958
 31
0.0
  0
LINE
  5
3C6
330
1F
100
AcDbEntity
  8
0-B_寸法
  6
Continuous
 62
   120
370
     5
100
AcDbLine
 10
-4022.802359540607
 20
-2781.000404213942
 30
0.0
 11
-4022.802359540607
 21
-2661.000404213941
 31
0.0
  0
LWPOLYLINE
  5
3C7
330
1F
100
AcDbEntity
  8
0-B_寸法
  6
Continuous
 62
     7
370
     9
100
AcDbPolyline
 90
        4
 70
     1
 43
3.0
 10
-4021.302359540607
 20
-2661.000404213941
 42
0.4142135623731
 10
-4022.802359540607
 20
-2659.500404213941
 42
0.4142135623731
 10
-4024.302359540607
 20
-2661.000404213941
 42
0.4142135623731
 10
-4022.802359540607
 20
-2662.500404213941
 42
0.4142135623731
  0
LINE
  5
3C8
330
1F
100
AcDbEntity
  8
0-B_寸法
  6
Continuous
 62
   120
370
     5
100
AcDbLine
 10
-4022.802359540607
 20
-2661.000404213941
 30
0.0
 11
-3902.802359540607
 21
-2661.000404213941
 31
0.0
  0
LINE
  5
3C9
330
1F
100
AcDbEntity
  8
0-0_補助線
  6
JWW_HOJO
 62
   120
370
     5
100
AcDbLine
 10
-3902.802359540607
 20
-2592.000404213942
 30
0.0
 11
-3902.802359540607
 21
-2856.000591679353
 31
0.0
  0
LINE
  5
3CA
330
1F
100
AcDbEntity
  8
0-0_補助線
  6
JWW_HOJO
 62
   120
370
     5
100
AcDbLine
 10
-3662.802359540608
 20
-2592.000404213942
 30
0.0
 11
-3902.802359540607
 21
-2592.000404213942
 31
0.0
  0
LWPOLYLINE
  5
3CB
330
1F
100
AcDbEntity
  8
0-B_寸法
  6
Continuous
 62
     7
370
     9
100
AcDbPolyline
 90
        4
 70
     1
 43
3.0
 10
-4021.302359540607
 20
-2781.000404213942
 42
0.4142135623731
 10
-4022.802359540607
 20
-2779.500404213942
 42
0.4142135623731
 10
-4024.302359540607
 20
-2781.000404213942
 42
0.4142135623731
 10
-4022.802359540607
 20
-2782.500404213942
 42
0.4142135623731
  0
LINE
  5
3CC
330
1F
100
AcDbEntity
  8
0-B_寸法
  6
Continuous
 62
   120
370
     5
100
AcDbLine
 10
-4022.802359540607
 20
-2781.000404213942
 30
0.0
 11
-3902.802359540607
 21
-2781.000404213942
 31
0.0
  0
LINE
  5
3CD
330
1F
100
AcDbEntity
  8
0-0_補助線
  6
JWW_HOJO
 62
   120
370
     5
100
AcDbLine
 10
-3832.302359540589
 20
-2592.000404213942
 30
0.0
 11
-3832.302359540589
 21
-2856.000591679353
 31
0.0
  0
MTEXT
  5
3CE
330
1F
100
AcDbEntity
  8
0-B_寸法
  6
Continuous
 62
     7
370
   211
100
AcDbMText
 10
-3860.802359540599
 20
-2523.900404213942
 30
0.0
 40
76.19999999999999
 41
150.0
 46
0.0
 71
     7
 72
     1
  1
{\fＭＳ ゴシック|b0|i0|c128|p49;4.5}
 73
     1
 44
1.0
  0
MTEXT
  5
3CF
330
1F
100
AcDbEntity
  8
0-B_寸法
  6
Continuous
 62
     7
370
   211
100
AcDbMText
 10
-3527.802359540608
 20
-2750.280404213943
 30
0.0
 40
91.44
 41
120.0
 46
0.0
 71
     7
 72
     1
  1
{\fＭＳ ゴシック|b0|i0|c128|p49;18}
 11
6.123031769111886E-17
 21
1.0
 31
0.0
 73
     1
 44
1.0
  0
MTEXT
  5
3D0
330
1F
100
AcDbEntity
  8
0-B_寸法
  6
Continuous
 62
     7
370
   211
100
AcDbMText
 10
-4037.802359540607
 20
-2784.520741168256
 30
0.0
 40
91.44
 41
120.0
 46
0.0
 71
     7
 72
     1
  1
{\fＭＳ ゴシック|b0|i0|c128|p49;20}
 11
6.123031769111886E-17
 21
1.0
 31
0.0
 73
     1
 44
1.0
  0
LINE
  5
3D1
330
1F
100
AcDbEntity
  8
0-B_寸法
  6
Continuous
 62
   120
370
     5
100
AcDbLine
 10
-2636.802359540604
 20
-2781.000404213942
 30
0.0
 11
-2636.802359540604
 21
-2763.000404213942
 31
0.0
  0
LWPOLYLINE
  5
3D2
330
1F
100
AcDbEntity
  8
0-B_寸法
  6
Continuous
 62
     7
370
     9
100
AcDbPolyline
 90
        4
 70
     1
 43
3.0
 10
-2635.302359540604
 20
-2781.000404213942
 42
0.4142135623731
 10
-2636.802359540604
 20
-2779.500404213942
 42
0.4142135623731
 10
-2638.302359540604
 20
-2781.000404213942
 42
0.4142135623731
 10
-2636.802359540604
 20
-2782.500404213942
 42
0.4142135623731
  0
LINE
  5
3D3
330
1F
100
AcDbEntity
  8
0-B_寸法
  6
Continuous
 62
   120
370
     5
100
AcDbLine
 10
-2426.802359540604
 20
-2781.000404213942
 30
0.0
 11
-3266.802359540604
 21
-2781.000404213942
 31
0.0
  0
LINE
  5
3D4
330
1F
100
AcDbEntity
  8
0-B_寸法
  6
Continuous
 62
   120
370
     5
100
AcDbLine
 10
-2426.802359540604
 20
-2853.000404213942
 30
0.0
 11
-2426.802359540604
 21
-2781.000404213942
 31
0.0
  0
LWPOLYLINE
  5
3D5
330
1F
100
AcDbEntity
  8
0-B_寸法
  6
Continuous
 62
     7
370
     9
100
AcDbPolyline
 90
        4
 70
     1
 43
3.0
 10
-2425.302359540604
 20
-2853.000404213942
 42
0.4142135623731
 10
-2426.802359540604
 20
-2851.500404213942
 42
0.4142135623731
 10
-2428.302359540604
 20
-2853.000404213942
 42
0.4142135623731
 10
-2426.802359540604
 20
-2854.500404213942
 42
0.4142135623731
  0
LWPOLYLINE
  5
3D6
330
1F
100
AcDbEntity
  8
0-B_寸法
  6
Continuous
 62
     7
370
     9
100
AcDbPolyline
 90
        4
 70
     1
 43
3.0
 10
-2425.302359540604
 20
-2781.000404213942
 42
0.4142135623731
 10
-2426.802359540604
 20
-2779.500404213942
 42
0.4142135623731
 10
-2428.302359540604
 20
-2781.000404213942
 42
0.4142135623731
 10
-2426.802359540604
 20
-2782.500404213942
 42
0.4142135623731
  0
LINE
  5
3D7
330
1F
100
AcDbEntity
  8
0-B_寸法
  6
Continuous
 62
   120
370
     5
100
AcDbLine
 10
-2426.802359540604
 20
-2853.000404213942
 30
0.0
 11
-3266.802359540604
 21
-2853.000404213942
 31
0.0
  0
LINE
  5
3D8
330
1F
100
AcDbEntity
  8
0-B_寸法
  6
Continuous
 62
   120
370
     5
100
AcDbLine
 10
-2846.802359540604
 20
-2730.000404213942
 30
0.0
 11
-3266.802359540604
 21
-2730.000404213942
 31
0.0
  0
LWPOLYLINE
  5
3D9
330
1F
100
AcDbEntity
  8
0-B_寸法
  6
Continuous
 62
     7
370
     9
100
AcDbPolyline
 90
        4
 70
     1
 43
3.0
 10
-2845.302359540604
 20
-2730.000404213942
 42
0.4142135623731
 10
-2846.802359540604
 20
-2728.500404213943
 42
0.4142135623731
 10
-2848.302359540604
 20
-2730.000404213942
 42
0.4142135623731
 10
-2846.802359540604
 20
-2731.500404213942
 42
0.4142135623731
  0
LWPOLYLINE
  5
3DA
330
1F
100
AcDbEntity
  8
0-B_寸法
  6
Continuous
 62
     7
370
     9
100
AcDbPolyline
 90
        4
 70
     1
 43
3.0
 10
-2845.302359540604
 20
-2781.000404213942
 42
0.4142135623731
 10
-2846.802359540604
 20
-2779.500404213942
 42
0.4142135623731
 10
-2848.302359540604
 20
-2781.000404213942
 42
0.4142135623731
 10
-2846.802359540604
 20
-2782.500404213942
 42
0.4142135623731
  0
LINE
  5
3DB
330
1F
100
AcDbEntity
  8
0-B_寸法
  6
Continuous
 62
   120
370
     5
100
AcDbLine
 10
-2846.802359540604
 20
-2730.000404213942
 30
0.0
 11
-2846.802359540604
 21
-2781.000404213942
 31
0.0
  0
MTEXT
  5
3DC
330
1F
100
AcDbEntity
  8
0-B_寸法
  6
Continuous
 62
     7
370
   211
100
AcDbMText
 10
-2861.802359540604
 20
-2728.470404213942
 30
0.0
 40
99.06
 41
195.0
 46
0.0
 71
     7
 72
     1
  1
{\fＭＳ ゴシック|b0|i0|c128|p49;8.5}
 11
6.123031769111886E-17
 21
1.0
 31
0.0
 73
     1
 44
1.0
  0
MTEXT
  5
3DD
330
1F
100
AcDbEntity
  8
0-B_寸法
  6
Continuous
 62
     7
370
   211
100
AcDbMText
 10
-2441.802359540604
 20
-3003.922904213942
 30
0.0
 40
97.15499999999999
 41
127.5
 46
0.0
 71
     7
 72
     1
  1
{\fＭＳ ゴシック|b0|i0|c128|p49;12}
 11
6.123031769111886E-17
 21
1.0
 31
0.0
 73
     1
 44
1.0
  0
LINE
  5
3DE
330
1F
100
AcDbEntity
  8
0-1_通り芯
  6
JWW_CENTER1
 62
   120
370
     5
100
AcDbLine
 10
-4586.802359540608
 20
-2853.000197951857
 30
0.0
 11
-2312.802359540602
 21
-2853.000197951857
 31
0.0
  0
LINE
  5
3DF
330
1F
100
AcDbEntity
  8
F-0_補助線
  6
JWW_HOJO
 62
     7
370
     9
100
AcDbLine
 10
1109.918584083287
 20
-3795.000003092998
 30
0.0
 11
1109.918584083287
 21
-4195.000008247994
 31
0.0
  0
LINE
  5
3E0
330
1F
100
AcDbEntity
  8
F-0_補助線
  6
JWW_HOJO
 62
     7
370
     9
100
AcDbLine
 10
4889.917891251784
 20
-3795.000003092998
 30
0.0
 11
4889.917891251784
 21
-4195.000008247994
 31
0.0
  0
MTEXT
  5
3E1
330
1F
100
AcDbEntity
  8
F-0_補助線
  6
Continuous
 62
     7
370
     0
100
AcDbMText
 10
1109.918584083287
 20
-3945.948259655243
 30
0.0
 40
78.105
 41
615.0
 46
0.0
 71
     7
 72
     1
  1
{\fＭＳ ゴシック|b0|i0|c128|p49;建具納まり図}
 73
     1
 44
1.0
  0
MTEXT
  5
3E2
330
1F
100
AcDbEntity
  8
F-0_補助線
  6
Continuous
 62
     7
370
     0
100
AcDbMText
 10
509.9185840832865
 20
-3945.709576962234
 30
0.0
 40
78.58125
 41
412.5
 46
0.0
 71
     7
 72
     1
  1
{\fＭＳ ゴシック|b0|i0|c128|p49;DOORETUS}
 73
     1
 44
1.0
  0
MTEXT
  5
3E3
330
1F
100
AcDbEntity
  8
0-0_補助線
  6
Continuous
 62
     7
370
     9
100
AcDbMText
 10
-1678.803104770343
 20
-362.2801979518695
 30
0.0
 40
91.44
 41
600.0
 46
0.0
 71
     7
 72
     1
  1
{\fＭＳ ゴシック|b0|i0|c128|p49;［戸先側］}
 73
     1
 44
1.0
  0
MTEXT
  5
3E4
330
1F
100
AcDbEntity
  8
0-0_補助線
  6
Continuous
 62
     7
370
   211
100
AcDbMText
 10
-1427.553104770343
 20
-516.1033715534356
 30
0.0
 40
74.295
 41
97.5
 46
0.0
 71
     7
 72
     1
  1
{\fＭＳ ゴシック|b0|i0|c128|p49;90}
 73
     1
 44
1.0
  0
LINE
  5
3E5
330
1F
100
AcDbEntity
  8
0-0_補助線
  6
Continuous
 62
   120
370
     5
100
AcDbLine
 10
-1108.803104770343
 20
-523.2508715534356
 30
0.0
 11
-1108.803104770343
 21
-674.8126770485808
 31
0.0
  0
LINE
  5
3E6
330
1F
100
AcDbEntity
  8
0-0_補助線
  6
Continuous
 62
   120
370
     5
100
AcDbLine
 10
-1648.803104770343
 20
-523.2508715534356
 30
0.0
 11
-1648.803104770343
 21
-674.8126770485808
 31
0.0
  0
LWPOLYLINE
  5
3E7
330
1F
100
AcDbEntity
  8
0-0_補助線
  6
Continuous
 62
     7
370
     9
100
AcDbPolyline
 90
        4
 70
     1
 43
3.0
 10
-1107.303104770344
 20
-523.2508715534356
 42
0.4142135623731
 10
-1108.803104770343
 20
-521.7508715534356
 42
0.4142135623731
 10
-1110.303104770343
 20
-523.2508715534356
 42
0.4142135623731
 10
-1108.803104770343
 20
-524.7508715534357
 42
0.4142135623731
  0
LWPOLYLINE
  5
3E8
330
1F
100
AcDbEntity
  8
0-0_補助線
  6
Continuous
 62
     7
370
     9
100
AcDbPolyline
 90
        4
 70
     1
 43
3.0
 10
-1647.303104770344
 20
-523.2508715534356
 42
0.4142135623731
 10
-1648.803104770343
 20
-521.7508715534356
 42
0.4142135623731
 10
-1650.303104770343
 20
-523.2508715534356
 42
0.4142135623731
 10
-1648.803104770343
 20
-524.7508715534357
 42
0.4142135623731
  0
LINE
  5
3E9
330
1F
100
AcDbEntity
  8
0-0_補助線
  6
Continuous
 62
   120
370
     5
100
AcDbLine
 10
-1648.803104770343
 20
-523.2508715534356
 30
0.0
 11
-1108.803104770343
 21
-523.2508715534356
 31
0.0
  0
LINE
  5
3EA
330
1F
100
AcDbEntity
  8
0-0_補助線
  6
Continuous
 62
    92
370
    13
100
AcDbLine
 10
-1946.802359540604
 20
-18.00019795186955
 30
0.0
 11
-1946.802359540604
 21
-1737.041754831456
 31
0.0
  0
MTEXT
  5
3EB
330
1F
100
AcDbEntity
  8
0-0_補助線
  6
Continuous
 62
     7
370
     9
100
AcDbMText
 10
-957.5100163971663
 20
-362.2801979518695
 30
0.0
 40
91.43999999999986
 41
599.9999999999991
 46
0.0
 71
     7
 72
     1
  1
{\fＭＳ ゴシック|b0|i0|c128|p49;［小壁側］}
 73
     1
 44
1.0
  0
MTEXT
  5
3EC
330
1F
100
AcDbEntity
  8
0-0_補助線
  6
Continuous
 62
     7
370
   211
100
AcDbMText
 10
-758.7600163971672
 20
-514.6746215534356
 30
0.0
 40
77.15249999999999
 41
202.5
 46
0.0
 71
     7
 72
     1
  1
{\fＭＳ ゴシック|b0|i0|c128|p49;67.5}
 73
     1
 44
1.0
  0
LINE
  5
3ED
330
1F
100
AcDbEntity
  8
0-0_補助線
  6
Continuous
 62
   120
370
     5
100
AcDbLine
 10
-455.0100163971672
 20
-523.2508715534356
 30
0.0
 11
-455.0100163971672
 21
-674.8126770485808
 31
0.0
  0
LINE
  5
3EE
330
1F
100
AcDbEntity
  8
0-0_補助線
  6
Continuous
 62
   120
370
     5
100
AcDbLine
 10
-860.0100163971663
 20
-523.2508715534356
 30
0.0
 11
-860.0100163971663
 21
-674.8126770485808
 31
0.0
  0
LWPOLYLINE
  5
3EF
330
1F
100
AcDbEntity
  8
0-0_補助線
  6
Continuous
 62
     7
370
     9
100
AcDbPolyline
 90
        4
 70
     1
 43
3.0
 10
-453.5100163971672
 20
-523.2508715534356
 42
0.4142135623731
 10
-455.0100163971672
 20
-521.7508715534356
 42
0.4142135623731
 10
-456.5100163971672
 20
-523.2508715534356
 42
0.4142135623731
 10
-455.0100163971672
 20
-524.7508715534357
 42
0.4142135623731
  0
LWPOLYLINE
  5
3F0
330
1F
100
AcDbEntity
  8
0-0_補助線
  6
Continuous
 62
     7
370
     9
100
AcDbPolyline
 90
        4
 70
     1
 43
3.0
 10
-858.5100163971663
 20
-523.2508715534356
 42
0.4142135623731
 10
-860.0100163971663
 20
-521.7508715534356
 42
0.4142135623731
 10
-861.5100163971664
 20
-523.2508715534356
 42
0.4142135623731
 10
-860.0100163971663
 20
-524.7508715534357
 42
0.4142135623731
  0
LINE
  5
3F1
330
1F
100
AcDbEntity
  8
0-0_補助線
  6
Continuous
 62
   120
370
     5
100
AcDbLine
 10
-860.0100163971663
 20
-523.2508715534356
 30
0.0
 11
-455.0100163971672
 21
-523.2508715534356
 31
0.0
  0
LINE
  5
3F2
330
1F
100
AcDbEntity
  8
0-0_補助線
  6
Continuous
 62
    92
370
    13
100
AcDbLine
 10
-455.0100163971672
 20
-723.059182929354
 30
0.0
 11
-455.0100163971672
 21
-1227.152606137005
 31
0.0
  0
MTEXT
  5
3F3
330
1F
100
AcDbEntity
  8
0-0_補助線
  6
Continuous
 62
     7
370
     0
100
AcDbMText
 10
-1496.802359540605
 20
-182.2801979518695
 30
0.0
 40
91.43999999999991
 41
839.9999999999991
 46
0.0
 71
     7
 72
     1
  1
{\fＭＳ ゴシック|b0|i0|c128|p49;竪枠下端形状図}
 73
     1
 44
1.0
  0
LINE
  5
3F4
330
1F
100
AcDbEntity
  8
0-0_補助線
  6
Continuous
 62
    92
370
    13
100
AcDbLine
 10
-206.8023595406055
 20
-198.0001979518694
 30
0.0
 11
-1946.802359540604
 21
-198.0001979518694
 31
0.0
  0
LINE
  5
3F5
330
1F
100
AcDbEntity
  8
0-0_補助線
  6
Continuous
 62
    92
370
    13
100
AcDbLine
 10
-206.8023595406055
 20
-18.00019795186955
 30
0.0
 11
-1946.802359540604
 21
-18.00019795186955
 31
0.0
  0
LINE
  5
3F6
330
1F
100
AcDbEntity
  8
0-0_補助線
  6
Continuous
 62
    92
370
    13
100
AcDbLine
 10
-206.8023595406055
 20
-18.00019795186955
 30
0.0
 11
-206.8023595406055
 21
-1737.041754831456
 31
0.0
  0
LINE
  5
3F7
330
1F
100
AcDbEntity
  8
0-0_補助線
  6
Continuous
 62
    92
370
    13
100
AcDbLine
 10
-206.8023595406055
 20
-1737.041754831456
 30
0.0
 11
-1946.802359540604
 21
-1737.041754831456
 31
0.0
  0
LINE
  5
3F8
330
1F
100
AcDbEntity
  8
0-0_補助線
  6
Continuous
 62
    92
370
    13
100
AcDbLine
 10
-1648.803104770343
 20
-723.059182929354
 30
0.0
 11
-1648.803104770343
 21
-1227.152606137005
 31
0.0
  0
LINE
  5
3F9
330
1F
100
AcDbEntity
  8
0-0_補助線
  6
Continuous
 62
    92
370
    13
100
AcDbLine
 10
-1648.803104770343
 20
-1227.152606137005
 30
0.0
 11
-1108.803104770343
 21
-1227.152606137005
 31
0.0
  0
LINE
  5
3FA
330
1F
100
AcDbEntity
  8
0-0_補助線
  6
Continuous
 62
    92
370
    13
100
AcDbLine
 10
-1108.803104770343
 20
-723.059182929354
 30
0.0
 11
-1108.803104770343
 21
-1227.152606137005
 31
0.0
  0
LINE
  5
3FB
330
1F
100
AcDbEntity
  8
0-0_補助線
  6
Continuous
 62
    92
370
    13
100
AcDbLine
 10
-860.0100163971663
 20
-723.059182929354
 30
0.0
 11
-860.0100163971663
 21
-1227.152606137005
 31
0.0
  0
LINE
  5
3FC
330
1F
100
AcDbEntity
  8
0-0_補助線
  6
Continuous
 62
    92
370
    13
100
AcDbLine
 10
-860.0100163971663
 20
-1227.152606137005
 30
0.0
 11
-455.0100163971672
 21
-1227.152606137005
 31
0.0
  0
LINE
  5
3FD
330
1F
100
AcDbEntity
  8
1-1_通り芯
  6
JWW_CENTER1
 62
   120
370
     5
100
AcDbLine
 10
1329.918171683584
 20
-482.1136554613614
 30
0.0
 11
1329.918171683584
 21
-2629.737142997813
 31
0.0
  0
LINE
  5
3FE
330
1F
100
AcDbEntity
  8
1-3_仕上げ
  6
Continuous
 62
    40
370
    15
100
AcDbLine
 10
288.8804660521416
 20
-2315.655803330827
 30
0.0
 11
2361.844512686856
 21
-2315.655803330827
 31
0.0
  0
LINE
  5
3FF
330
1F
100
AcDbEntity
  8
0-A_文字
  6
Continuous
 62
    92
370
    13
100
AcDbLine
 10
9.91817168358267
 20
-2838.000403945521
 30
0.0
 11
9.91817168358267
 21
-18.00019795186955
 31
0.0
  0
LINE
  5
400
330
1F
100
AcDbEntity
  8
1-3_仕上げ
  6
Continuous
 62
    40
370
    15
100
AcDbLine
 10
288.8804660521416
 20
-2495.655803330826
 30
0.0
 11
2361.844512686856
 21
-2495.655803330826
 31
0.0
  0
LINE
  5
401
330
1F
100
AcDbEntity
  8
0-A_文字
  6
Continuous
 62
    92
370
    13
100
AcDbLine
 10
9.91817168358267
 20
-198.0001979518696
 30
0.0
 11
2649.918171683582
 21
-198.0001979518696
 31
0.0
  0
LINE
  5
402
330
1F
100
AcDbEntity
  8
0-A_文字
  6
Continuous
 62
    92
370
    13
100
AcDbLine
 10
9.91817168358267
 20
-18.00019795186955
 30
0.0
 11
2649.918171683582
 21
-18.00019795186955
 31
0.0
  0
LINE
  5
403
330
1F
100
AcDbEntity
  8
0-A_文字
  6
Continuous
 62
    92
370
    13
100
AcDbLine
 10
9.91817168358267
 20
-2838.000403945521
 30
0.0
 11
2649.918171683582
 21
-2838.000403945521
 31
0.0
  0
LINE
  5
404
330
1F
100
AcDbEntity
  8
0-A_文字
  6
Continuous
 62
    92
370
    13
100
AcDbLine
 10
2649.918171683582
 20
-18.00019795186955
 30
0.0
 11
2649.918171683582
 21
-2838.000403945521
 31
0.0
  0
LINE
  5
405
330
1F
100
AcDbEntity
  8
1-0_補助線
  6
JWW_HOJO
 62
   120
370
     5
100
AcDbLine
 10
1738.668171683562
 20
-1843.155803330829
 30
0.0
 11
1738.668171683562
 21
-2495.655287649519
 31
0.0
  0
LINE
  5
406
330
1F
100
AcDbEntity
  8
1-0_補助線
  6
JWW_HOJO
 62
   120
370
     5
100
AcDbLine
 10
1914.918171683564
 20
-1843.155803330829
 30
0.0
 11
1914.918171683564
 21
-2495.655287649519
 31
0.0
  0
LINE
  5
407
330
1F
100
AcDbEntity
  8
1-6_扉
  6
JWW_DASHED2
 62
     7
370
     9
100
AcDbLine
 10
1839.918171683564
 20
-510.9103996822904
 30
0.0
 11
1839.918171683564
 21
-1982.096364289649
 31
0.0
  0
LINE
  5
408
330
1F
100
AcDbEntity
  8
1-0_補助線
  6
JWW_HOJO
 62
   120
370
     5
100
AcDbLine
 10
1614.918171683589
 20
-510.9103996822904
 30
0.0
 11
1614.918171683589
 21
-2495.655803330826
 31
0.0
  0
LWPOLYLINE
  5
409
330
1F
100
AcDbEntity
  8
1-B_寸法
  6
Continuous
 62
     7
370
     9
100
AcDbPolyline
 90
        4
 70
     1
 43
3.0
 10
1391.418171683564
 20
-903.4888920769401
 42
0.4142135623731
 10
1389.918171683564
 20
-901.9888920769401
 42
0.4142135623731
 10
1388.418171683564
 20
-903.4888920769401
 42
0.4142135623731
 10
1389.918171683564
 20
-904.9888920769401
 42
0.4142135623731
  0
LWPOLYLINE
  5
40A
330
1F
100
AcDbEntity
  8
1-B_寸法
  6
Continuous
 62
     7
370
     9
100
AcDbPolyline
 90
        4
 70
     1
 43
3.0
 10
1293.918171683579
 20
-903.4888920769401
 42
0.4142135623731
 10
1292.418171683579
 20
-901.9888920769401
 42
0.4142135623731
 10
1290.918171683579
 20
-903.4888920769401
 42
0.4142135623731
 10
1292.418171683579
 20
-904.9888920769401
 42
0.4142135623731
  0
LINE
  5
40B
330
1F
100
AcDbEntity
  8
1-B_寸法
  6
Continuous
 62
   120
370
     5
100
AcDbLine
 10
1389.918171683564
 20
-903.4888920769401
 30
0.0
 11
1389.918171683564
 21
-1053.48889207694
 31
0.0
  0
LINE
  5
40C
330
1F
100
AcDbEntity
  8
1-B_寸法
  6
Continuous
 62
   120
370
     5
100
AcDbLine
 10
1292.418171683579
 20
-903.4888920769401
 30
0.0
 11
1292.418171683579
 21
-1053.48889207694
 31
0.0
  0
LINE
  5
40D
330
1F
100
AcDbEntity
  8
1-B_寸法
  6
Continuous
 62
   120
370
     5
100
AcDbLine
 10
1629.918171683564
 20
-903.4888920769401
 30
0.0
 11
1292.418171683579
 21
-903.4888920769401
 31
0.0
  0
LINE
  5
40E
330
1F
100
AcDbEntity
  8
1-0_補助線
  6
JWW_HOJO
 62
   120
370
     5
100
AcDbLine
 10
1914.918171683564
 20
-1843.155803330829
 30
0.0
 11
1041.168171683535
 21
-1843.155803330829
 31
0.0
  0
LINE
  5
40F
330
1F
100
AcDbEntity
  8
1-0_補助線
  6
JWW_HOJO
 62
   120
370
     5
100
AcDbLine
 10
1041.168171683535
 20
-1843.155803330829
 30
0.0
 11
1041.168171683535
 21
-2495.655287649519
 31
0.0
  0
LINE
  5
410
330
1F
100
AcDbEntity
  8
1-0_補助線
  6
JWW_HOJO
 62
   120
370
     5
100
AcDbLine
 10
1217.418171683579
 20
-1843.155803330829
 30
0.0
 11
1217.418171683579
 21
-2495.655287649519
 31
0.0
  0
LWPOLYLINE
  5
411
330
1F
100
AcDbEntity
  8
1-B_寸法
  6
Continuous
 62
     7
370
     9
100
AcDbPolyline
 90
        4
 70
     1
 43
3.0
 10
1163.240135077904
 20
-2315.655803330831
 42
0.4142135623731
 10
1161.740135077904
 20
-2314.155803330831
 42
0.4142135623731
 10
1160.240135077904
 20
-2315.655803330831
 42
0.4142135623731
 10
1161.740135077904
 20
-2317.155803330831
 42
0.4142135623731
  0
LINE
  5
412
330
1F
100
AcDbEntity
  8
1-B_寸法
  6
Continuous
 62
   120
370
     5
100
AcDbLine
 10
1161.740135077904
 20
-2315.655803330831
 30
0.0
 11
1254.918171683562
 21
-2315.655803330831
 31
0.0
  0
LINE
  5
413
330
1F
100
AcDbEntity
  8
1-A_文字
  6
Continuous
 62
     7
370
     9
100
AcDbLine
 10
1205.464766145385
 20
-2631.972886088507
 30
0.0
 11
1130.464766145385
 21
-2631.972886088507
 31
0.0
  0
LINE
  5
414
330
1F
100
AcDbEntity
  8
1-A_文字
  6
Continuous
 62
     7
370
     9
100
AcDbLine
 10
1399.21578771105
 20
-2296.386272718401
 30
0.0
 11
1205.464766145385
 21
-2631.972886088507
 31
0.0
  0
LINE
  5
415
330
1F
100
AcDbEntity
  8
1-7_金物
  6
Continuous
 62
   120
370
     5
100
AcDbLine
 10
1599.826146734413
 20
-2315.044354796368
 30
0.0
 11
1636.820325572399
 21
-2278.050175958374
 31
0.0
  0
LINE
  5
416
330
1F
100
AcDbEntity
  8
1-7_金物
  6
Continuous
 62
   120
370
     5
100
AcDbLine
 10
1535.575087893077
 20
-2315.655803330807
 30
0.0
 11
1580.573595174886
 21
-2270.657296049007
 31
0.0
  0
LINE
  5
417
330
1F
100
AcDbEntity
  8
1-7_金物
  6
Continuous
 62
   120
370
     5
100
AcDbLine
 10
1592.420331755844
 20
-2258.810559468038
 30
0.0
 11
1637.42033175588
 21
-2213.810559468015
 31
0.0
  0
LINE
  5
418
330
1F
100
AcDbEntity
  8
1-7_金物
  6
Continuous
 62
   120
370
     5
100
AcDbLine
 10
1471.935477586323
 20
-2315.655803330829
 30
0.0
 11
1516.933984868107
 21
-2270.657296049032
 31
0.0
  0
LINE
  5
419
330
1F
100
AcDbEntity
  8
1-7_金物
  6
Continuous
 62
   120
370
     5
100
AcDbLine
 10
1592.42033175587
 20
-2195.170949161276
 30
0.0
 11
1637.420331755889
 21
-2150.170949161261
 31
0.0
  0
LINE
  5
41A
330
1F
100
AcDbEntity
  8
1-7_金物
  6
Continuous
 62
   120
370
     5
100
AcDbLine
 10
1408.295867279569
 20
-2315.655803330837
 30
0.0
 11
1453.294374561344
 21
-2270.657296049058
 31
0.0
  0
LINE
  5
41B
330
1F
100
AcDbEntity
  8
1-7_金物
  6
Continuous
 62
   120
370
     5
100
AcDbLine
 10
1592.420331755895
 20
-2131.531338854509
 30
0.0
 11
1637.420331755906
 21
-2086.531338854496
 31
0.0
  0
LINE
  5
41C
330
1F
100
AcDbEntity
  8
1-7_金物
  6
Continuous
 62
   120
370
     5
100
AcDbLine
 10
1592.420331755878
 20
-2067.891728547648
 30
0.0
 11
1637.420331755897
 21
-2022.891728547625
 31
0.0
  0
LINE
  5
41D
330
1F
100
AcDbEntity
  8
1-7_金物
  6
Continuous
 62
   120
370
     5
100
AcDbLine
 10
1367.420331755858
 20
-2292.891728547661
 30
0.0
 11
1389.654764254505
 21
-2270.657296049013
 31
0.0
  0
LINE
  5
41E
330
1F
100
AcDbEntity
  8
1-7_金物
  6
Continuous
 62
    92
370
    13
100
AcDbLine
 10
1367.420331755858
 20
-2270.655803330831
 30
0.0
 11
1367.420331755858
 21
-2315.655803330831
 31
0.0
  0
LINE
  5
41F
330
1F
100
AcDbEntity
  8
1-7_金物
  6
Continuous
 62
    92
370
    13
100
AcDbLine
 10
1367.420331755858
 20
-2270.655803330831
 30
0.0
 11
1592.420331755882
 21
-2270.655803330831
 31
0.0
  0
LINE
  5
420
330
1F
100
AcDbEntity
  8
1-7_金物
  6
Continuous
 62
    92
370
    13
100
AcDbLine
 10
1592.420331755882
 20
-2015.655803330831
 30
0.0
 11
1637.42033175588
 21
-2015.655803330831
 31
0.0
  0
LINE
  5
421
330
1F
100
AcDbEntity
  8
1-7_金物
  6
Continuous
 62
    92
370
    13
100
AcDbLine
 10
1592.420331755882
 20
-2015.655803330831
 30
0.0
 11
1592.420331755882
 21
-2270.655803330831
 31
0.0
  0
LINE
  5
422
330
1F
100
AcDbEntity
  8
1-7_金物
  6
Continuous
 62
    92
370
    13
100
AcDbLine
 10
1592.420331755882
 20
-2315.655803330831
 30
0.0
 11
1367.420331755858
 21
-2315.655803330831
 31
0.0
  0
LINE
  5
423
330
1F
100
AcDbEntity
  8
1-7_金物
  6
Continuous
 62
    92
370
    13
100
AcDbLine
 10
1637.42033175588
 20
-2270.655803330831
 30
0.0
 11
1637.42033175588
 21
-2015.655803330831
 31
0.0
  0
ARC
  5
424
330
1F
100
AcDbEntity
  8
1-7_金物
  6
Continuous
 62
    92
370
    13
100
AcDbCircle
 10
1592.420331755882
 20
-2270.655803330831
 30
0.0
 40
45.0
100
AcDbArc
 50
270.0
 51
0.0
  0
LINE
  5
425
330
1F
100
AcDbEntity
  8
1-B_寸法
  6
Continuous
 62
   120
370
     5
100
AcDbLine
 10
1161.740135077904
 20
-2315.655803330831
 30
0.0
 11
1161.740135077904
 21
-2015.655803330831
 31
0.0
  0
LWPOLYLINE
  5
426
330
1F
100
AcDbEntity
  8
1-B_寸法
  6
Continuous
 62
     7
370
     9
100
AcDbPolyline
 90
        4
 70
     1
 43
3.0
 10
1163.240135077904
 20
-2015.655803330831
 42
0.4142135623731
 10
1161.740135077904
 20
-2014.155803330831
 42
0.4142135623731
 10
1160.240135077904
 20
-2015.655803330831
 42
0.4142135623731
 10
1161.740135077904
 20
-2017.155803330831
 42
0.4142135623731
  0
LINE
  5
427
330
1F
100
AcDbEntity
  8
1-B_寸法
  6
Continuous
 62
   120
370
     5
100
AcDbLine
 10
1161.740135077904
 20
-2015.655803330831
 30
0.0
 11
1254.918171683562
 21
-2015.655803330831
 31
0.0
  0
LINE
  5
428
330
1F
100
AcDbEntity
  8
1-B_寸法
  6
Continuous
 62
   120
370
     5
100
AcDbLine
 10
1637.420331755882
 20
-1702.004697027072
 30
0.0
 11
1367.420331755858
 21
-1702.004697027072
 31
0.0
  0
LWPOLYLINE
  5
429
330
1F
100
AcDbEntity
  8
1-B_寸法
  6
Continuous
 62
     7
370
     9
100
AcDbPolyline
 90
        4
 70
     1
 43
3.0
 10
1638.920331755882
 20
-1702.004697027072
 42
0.4142135623731
 10
1637.420331755882
 20
-1700.504697027072
 42
0.4142135623731
 10
1635.920331755882
 20
-1702.004697027072
 42
0.4142135623731
 10
1637.420331755882
 20
-1703.504697027072
 42
0.4142135623731
  0
LWPOLYLINE
  5
42A
330
1F
100
AcDbEntity
  8
1-B_寸法
  6
Continuous
 62
     7
370
     9
100
AcDbPolyline
 90
        4
 70
     1
 43
3.0
 10
1368.920331755858
 20
-1702.004697027072
 42
0.4142135623731
 10
1367.420331755858
 20
-1700.504697027072
 42
0.4142135623731
 10
1365.920331755858
 20
-1702.004697027072
 42
0.4142135623731
 10
1367.420331755858
 20
-1703.504697027072
 42
0.4142135623731
  0
LINE
  5
42B
330
1F
100
AcDbEntity
  8
1-B_寸法
  6
Continuous
 62
   120
370
     5
100
AcDbLine
 10
1637.420331755882
 20
-1702.004697027072
 30
0.0
 11
1637.420331755882
 21
-1852.004697027072
 31
0.0
  0
LINE
  5
42C
330
1F
100
AcDbEntity
  8
1-B_寸法
  6
Continuous
 62
   120
370
     5
100
AcDbLine
 10
1367.420331755858
 20
-1702.004697027072
 30
0.0
 11
1367.420331755858
 21
-1852.004697027072
 31
0.0
  0
LINE
  5
42D
330
1F
100
AcDbEntity
  8
1-B_寸法
  6
Continuous
 62
   120
370
     5
100
AcDbLine
 10
1367.420331755858
 20
-1702.004697027072
 30
0.0
 11
1292.418171683562
 21
-1702.004697027072
 31
0.0
  0
LWPOLYLINE
  5
42E
330
1F
100
AcDbEntity
  8
1-B_寸法
  6
Continuous
 62
     7
370
     9
100
AcDbPolyline
 90
        4
 70
     1
 43
3.0
 10
1293.918171683562
 20
-1702.004697027072
 42
0.4142135623731
 10
1292.418171683562
 20
-1700.504697027072
 42
0.4142135623731
 10
1290.918171683562
 20
-1702.004697027072
 42
0.4142135623731
 10
1292.418171683562
 20
-1703.504697027072
 42
0.4142135623731
  0
LINE
  5
42F
330
1F
100
AcDbEntity
  8
1-B_寸法
  6
Continuous
 62
   120
370
     5
100
AcDbLine
 10
1292.418171683562
 20
-1702.004697027072
 30
0.0
 11
1292.418171683562
 21
-1852.004697027072
 31
0.0
  0
LINE
  5
430
330
1F
100
AcDbEntity
  8
1-6_扉
  6
JWW_DASHED2
 62
     7
370
     9
100
AcDbLine
 10
1566.166054526576
 20
-2188.155803330827
 30
0.0
 11
1566.166054526576
 21
-1918.155803330827
 31
0.0
  0
LINE
  5
431
330
1F
100
AcDbEntity
  8
1-6_扉
  6
JWW_DASHED2
 62
     7
370
     9
100
AcDbLine
 10
1663.668171683559
 20
-1918.155803330827
 30
0.0
 11
1663.668171683559
 21
-2188.155803330827
 31
0.0
  0
LINE
  5
432
330
1F
100
AcDbEntity
  8
1-6_扉
  6
JWW_DASHED2
 62
     7
370
     9
100
AcDbLine
 10
1663.668171683559
 20
-1918.155803330827
 30
0.0
 11
1566.166054526576
 21
-1918.155803330827
 31
0.0
  0
LINE
  5
433
330
1F
100
AcDbEntity
  8
1-7_金物
  6
Continuous
 62
     7
370
     9
100
AcDbLine
 10
1566.17033175586
 20
-2188.155803330831
 30
0.0
 11
1566.17033175586
 21
-1918.155803330831
 31
0.0
  0
LINE
  5
434
330
1F
100
AcDbEntity
  8
1-7_金物
  6
Continuous
 62
     7
370
     9
100
AcDbLine
 10
1521.170331755858
 20
-2188.155803330831
 30
0.0
 11
1566.17033175586
 21
-2188.155803330831
 31
0.0
  0
LINE
  5
435
330
1F
100
AcDbEntity
  8
1-7_金物
  6
Continuous
 62
     7
370
     9
100
AcDbLine
 10
1521.170331755858
 20
-2203.155803330828
 30
0.0
 11
1521.170331755858
 21
-2188.155803330831
 31
0.0
  0
LINE
  5
436
330
1F
100
AcDbEntity
  8
1-7_金物
  6
Continuous
 62
     7
370
     9
100
AcDbLine
 10
1581.170331755863
 20
-2203.155803330828
 30
0.0
 11
1581.170331755863
 21
-1933.15580333083
 31
0.0
  0
LINE
  5
437
330
1F
100
AcDbEntity
  8
1-7_金物
  6
Continuous
 62
     7
370
     9
100
AcDbLine
 10
1581.170331755863
 20
-2203.155803330828
 30
0.0
 11
1521.170331755858
 21
-2203.155803330828
 31
0.0
  0
LINE
  5
438
330
1F
100
AcDbEntity
  8
1-7_金物
  6
Continuous
 62
     7
370
     9
100
AcDbLine
 10
1663.670331755861
 20
-1918.155803330831
 30
0.0
 11
1663.670331755861
 21
-2188.155803330831
 31
0.0
  0
LINE
  5
439
330
1F
100
AcDbEntity
  8
1-7_金物
  6
Continuous
 62
     7
370
     9
100
AcDbLine
 10
1648.670331755858
 20
-1933.15580333083
 30
0.0
 11
1648.670331755858
 21
-2203.155803330828
 31
0.0
  0
LINE
  5
43A
330
1F
100
AcDbEntity
  8
1-7_金物
  6
Continuous
 62
     7
370
     9
100
AcDbLine
 10
1566.17033175586
 20
-1918.155803330831
 30
0.0
 11
1663.670331755861
 21
-1918.155803330831
 31
0.0
  0
LINE
  5
43B
330
1F
100
AcDbEntity
  8
1-7_金物
  6
Continuous
 62
     7
370
     9
100
AcDbLine
 10
1648.670331755858
 20
-1933.15580333083
 30
0.0
 11
1581.170331755863
 21
-1933.15580333083
 31
0.0
  0
LINE
  5
43C
330
1F
100
AcDbEntity
  8
1-7_金物
  6
Continuous
 62
     7
370
     9
100
AcDbLine
 10
1648.670331755858
 20
-2203.155803330828
 30
0.0
 11
1708.670331755858
 21
-2203.155803330828
 31
0.0
  0
LINE
  5
43D
330
1F
100
AcDbEntity
  8
1-7_金物
  6
Continuous
 62
     7
370
     9
100
AcDbLine
 10
1708.670331755858
 20
-2188.155803330831
 30
0.0
 11
1708.670331755858
 21
-2203.155803330828
 31
0.0
  0
LINE
  5
43E
330
1F
100
AcDbEntity
  8
1-7_金物
  6
Continuous
 62
     7
370
     9
100
AcDbLine
 10
1663.670331755861
 20
-2188.155803330831
 30
0.0
 11
1708.670331755858
 21
-2188.155803330831
 31
0.0
  0
LINE
  5
43F
330
1F
100
AcDbEntity
  8
1-6_扉
  6
JWW_DASHED2
 62
     7
370
     9
100
AcDbLine
 10
1783.670331755858
 20
-2188.155803330831
 30
0.0
 11
1663.670331755861
 21
-2188.155803330831
 31
0.0
  0
LINE
  5
440
330
1F
100
AcDbEntity
  8
1-6_扉
  6
JWW_DASHED2
 62
     7
370
     9
100
AcDbLine
 10
1566.166054526576
 20
-2188.155803330831
 30
0.0
 11
1389.918171683564
 21
-2188.155803330831
 31
0.0
  0
LINE
  5
441
330
1F
100
AcDbEntity
  8
1-B_寸法
  6
Continuous
 62
   120
370
     5
100
AcDbLine
 10
2083.670331755858
 20
-2315.655803330831
 30
0.0
 11
1783.670331755858
 21
-2315.655803330831
 31
0.0
  0
LINE
  5
442
330
1F
100
AcDbEntity
  8
1-B_寸法
  6
Continuous
 62
   120
370
     5
100
AcDbLine
 10
1783.670331755858
 20
-2270.655803330831
 30
0.0
 11
1933.670331755858
 21
-2270.655803330831
 31
0.0
  0
LINE
  5
443
330
1F
100
AcDbEntity
  8
1-B_寸法
  6
Continuous
 62
   120
370
     5
100
AcDbLine
 10
1933.670331755858
 20
-2270.655803330831
 30
0.0
 11
1933.670331755858
 21
-2315.655803330831
 31
0.0
  0
LINE
  5
444
330
1F
100
AcDbEntity
  8
1-B_寸法
  6
Continuous
 62
   120
370
     5
100
AcDbLine
 10
2083.670331755858
 20
-2315.655803330831
 30
0.0
 11
2083.670331755858
 21
-2495.65580333083
 31
0.0
  0
LINE
  5
445
330
1F
100
AcDbEntity
  8
1-B_寸法
  6
Continuous
 62
   120
370
     5
100
AcDbLine
 10
2083.670331755858
 20
-2495.65580333083
 30
0.0
 11
1783.670331755858
 21
-2495.65580333083
 31
0.0
  0
LWPOLYLINE
  5
446
330
1F
100
AcDbEntity
  8
1-B_寸法
  6
Continuous
 62
     7
370
     9
100
AcDbPolyline
 90
        4
 70
     1
 43
3.0
 10
1935.170331755858
 20
-2315.655803330831
 42
0.4142135623731
 10
1933.670331755858
 20
-2314.155803330831
 42
0.4142135623731
 10
1932.170331755858
 20
-2315.655803330831
 42
0.4142135623731
 10
1933.670331755858
 20
-2317.155803330831
 42
0.4142135623731
  0
LWPOLYLINE
  5
447
330
1F
100
AcDbEntity
  8
1-B_寸法
  6
Continuous
 62
     7
370
     9
100
AcDbPolyline
 90
        4
 70
     1
 43
3.0
 10
1935.170331755858
 20
-2270.655803330831
 42
0.4142135623731
 10
1933.670331755858
 20
-2269.155803330831
 42
0.4142135623731
 10
1932.170331755858
 20
-2270.655803330831
 42
0.4142135623731
 10
1933.670331755858
 20
-2272.155803330831
 42
0.4142135623731
  0
LWPOLYLINE
  5
448
330
1F
100
AcDbEntity
  8
1-B_寸法
  6
Continuous
 62
     7
370
     9
100
AcDbPolyline
 90
        4
 70
     1
 43
3.0
 10
2085.170331755858
 20
-2495.65580333083
 42
0.4142135623731
 10
2083.670331755858
 20
-2494.15580333083
 42
0.4142135623731
 10
2082.170331755858
 20
-2495.65580333083
 42
0.4142135623731
 10
2083.670331755858
 20
-2497.15580333083
 42
0.4142135623731
  0
LWPOLYLINE
  5
449
330
1F
100
AcDbEntity
  8
1-B_寸法
  6
Continuous
 62
     7
370
     9
100
AcDbPolyline
 90
        4
 70
     1
 43
3.0
 10
2085.170331755858
 20
-2315.655803330831
 42
0.4142135623731
 10
2083.670331755858
 20
-2314.155803330831
 42
0.4142135623731
 10
2082.170331755858
 20
-2315.655803330831
 42
0.4142135623731
 10
2083.670331755858
 20
-2317.155803330831
 42
0.4142135623731
  0
LINE
  5
44A
330
1F
100
AcDbEntity
  8
1-B_寸法
  6
Continuous
 62
   120
370
     5
100
AcDbLine
 10
1783.670331755858
 20
-2188.155803330831
 30
0.0
 11
2083.670331755858
 21
-2188.155803330831
 31
0.0
  0
LINE
  5
44B
330
1F
100
AcDbEntity
  8
1-B_寸法
  6
Continuous
 62
   120
370
     5
100
AcDbLine
 10
1933.670331755858
 20
-2270.655803330831
 30
0.0
 11
1933.670331755858
 21
-1997.096364289649
 31
0.0
  0
LINE
  5
44C
330
1F
100
AcDbEntity
  8
1-B_寸法
  6
Continuous
 62
   120
370
     5
100
AcDbLine
 10
2083.670331755858
 20
-1997.096364289649
 30
0.0
 11
2083.670331755858
 21
-2315.655803330831
 31
0.0
  0
LWPOLYLINE
  5
44D
330
1F
100
AcDbEntity
  8
1-B_寸法
  6
Continuous
 62
     7
370
     9
100
AcDbPolyline
 90
        4
 70
     1
 43
3.0
 10
1935.170331755858
 20
-2188.155803330831
 42
0.4142135623731
 10
1933.670331755858
 20
-2186.655803330831
 42
0.4142135623731
 10
1932.170331755858
 20
-2188.155803330831
 42
0.4142135623731
 10
1933.670331755858
 20
-2189.655803330831
 42
0.4142135623731
  0
LWPOLYLINE
  5
44E
330
1F
100
AcDbEntity
  8
1-B_寸法
  6
Continuous
 62
     7
370
     9
100
AcDbPolyline
 90
        4
 70
     1
 43
3.0
 10
2085.170331755858
 20
-2188.155803330831
 42
0.4142135623731
 10
2083.670331755858
 20
-2186.655803330831
 42
0.4142135623731
 10
2082.170331755858
 20
-2188.155803330831
 42
0.4142135623731
 10
2083.670331755858
 20
-2189.655803330831
 42
0.4142135623731
  0
LINE
  5
44F
330
1F
100
AcDbEntity
  8
1-B_寸法
  6
Continuous
 62
   120
370
     5
100
AcDbLine
 10
1003.243108517234
 20
-2188.155803330831
 30
0.0
 11
1145.921977069643
 21
-2188.155803330831
 31
0.0
  0
LINE
  5
450
330
1F
100
AcDbEntity
  8
1-B_寸法
  6
Continuous
 62
   120
370
     5
100
AcDbLine
 10
1003.243108517234
 20
-1918.155803330832
 30
0.0
 11
1254.918171683562
 21
-1918.155803330832
 31
0.0
  0
LWPOLYLINE
  5
451
330
1F
100
AcDbEntity
  8
1-B_寸法
  6
Continuous
 62
     7
370
     9
100
AcDbPolyline
 90
        4
 70
     1
 43
3.0
 10
1004.743108517233
 20
-1918.155803330832
 42
0.4142135623731
 10
1003.243108517234
 20
-1916.655803330832
 42
0.4142135623731
 10
1001.743108517234
 20
-1918.155803330832
 42
0.4142135623731
 10
1003.243108517234
 20
-1919.655803330832
 42
0.4142135623731
  0
LWPOLYLINE
  5
452
330
1F
100
AcDbEntity
  8
1-B_寸法
  6
Continuous
 62
     7
370
     9
100
AcDbPolyline
 90
        4
 70
     1
 43
3.0
 10
1004.743108517233
 20
-2188.155803330831
 42
0.4142135623731
 10
1003.243108517234
 20
-2186.655803330831
 42
0.4142135623731
 10
1001.743108517234
 20
-2188.155803330831
 42
0.4142135623731
 10
1003.243108517234
 20
-2189.655803330831
 42
0.4142135623731
  0
LINE
  5
453
330
1F
100
AcDbEntity
  8
1-B_寸法
  6
Continuous
 62
   120
370
     5
100
AcDbLine
 10
1003.243108517234
 20
-2188.155803330831
 30
0.0
 11
1003.243108517234
 21
-1918.155803330832
 31
0.0
  0
MTEXT
  5
454
330
1F
100
AcDbEntity
  8
0-A_文字
  6
Continuous
 62
     7
370
     9
100
AcDbMText
 10
399.9181716835827
 20
-182.2801979518696
 30
0.0
 40
91.43999999999998
 41
1860.0
 46
0.0
 71
     7
 72
     1
  1
{\fＭＳ ゴシック|b0|i0|c128|p49;振れ止め金具取り付け位置　S=1/2}
 73
     1
 44
1.0
  0
MTEXT
  5
455
330
1F
100
AcDbEntity
  8
1-A_文字
  6
Continuous
 62
     7
370
     9
100
AcDbMText
 10
1089.918171683584
 20
-496.3936554613614
 30
0.0
 40
91.44
 41
480.0
 46
0.0
 71
     7
 72
     1
  1
{\fＭＳ ゴシック|b0|i0|c128|p49;センター}
 73
     1
 44
1.0
  0
MTEXT
  5
456
330
1F
100
AcDbEntity
  8
1-A_文字
  6
Continuous
 62
     7
370
     9
100
AcDbMText
 10
1569.918171683584
 20
-1145.348831483492
 30
0.0
 40
91.44
 41
360.0
 46
0.0
 71
     7
 72
     1
  1
{\f@ＭＳ ゴシック|b0|i0|c128|p49;引き戸}
 11
-1.836909530733566E-16
 21
-1.0
 31
0.0
 73
     1
 44
1.0
  0
MTEXT
  5
457
330
1F
100
AcDbEntity
  8
1-A_文字
  6
Continuous
 62
     7
370
     9
100
AcDbMText
 10
354.9576850096602
 20
-2479.935803330827
 30
0.0
 40
91.43999999999994
 41
479.9999999999998
 46
0.0
 71
     7
 72
     1
  1
{\fＭＳ ゴシック|b0|i0|c128|p49;フロアー}
 73
     1
 44
1.0
  0
MTEXT
  5
458
330
1F
100
AcDbEntity
  8
1-A_文字
  6
Continuous
 62
     7
370
     9
100
AcDbMText
 10
410.4647661453848
 20
-2706.252886088507
 30
0.0
 40
91.43999999999997
 41
719.9999999999998
 46
0.0
 71
     7
 72
     1
  1
{\fＭＳ ゴシック|b0|i0|c128|p49;振れ止め金具}
 73
     1
 44
1.0
  0
MTEXT
  5
459
330
1F
100
AcDbEntity
  8
1-B_寸法
  6
Continuous
 62
     7
370
   211
100
AcDbMText
 10
1434.918171683564
 20
-898.9588920769402
 30
0.0
 40
99.06
 41
195.0
 46
0.0
 71
     7
 72
     1
  1
{\fＭＳ ゴシック|b0|i0|c128|p49;6.5}
 73
     1
 44
1.0
  0
MTEXT
  5
45A
330
1F
100
AcDbEntity
  8
1-B_寸法
  6
Continuous
 62
     7
370
   211
100
AcDbMText
 10
1299.91925171971
 20
-1701.284697027072
 30
0.0
 40
91.44
 41
60.0
 46
0.0
 71
     7
 72
     1
  1
{\fＭＳ ゴシック|b0|i0|c128|p49;5}
 73
     1
 44
1.0
  0
MTEXT
  5
45B
330
1F
100
AcDbEntity
  8
1-B_寸法
  6
Continuous
 62
     7
370
   211
100
AcDbMText
 10
1438.67033175587
 20
-1698.427197027072
 30
0.0
 40
97.15499999999999
 41
127.5
 46
0.0
 71
     7
 72
     1
  1
{\fＭＳ ゴシック|b0|i0|c128|p49;18}
 73
     1
 44
1.0
  0
MTEXT
  5
45C
330
1F
100
AcDbEntity
  8
1-B_寸法
  6
Continuous
 62
     7
370
   211
100
AcDbMText
 10
988.2431085172335
 20
-2127.435803330832
 30
0.0
 40
91.44
 41
120.0
 46
0.0
 71
     7
 72
     1
  1
{\fＭＳ ゴシック|b0|i0|c128|p49;18}
 11
6.123031769111886E-17
 21
1.0
 31
0.0
 73
     1
 44
1.0
  0
MTEXT
  5
45D
330
1F
100
AcDbEntity
  8
1-B_寸法
  6
Continuous
 62
     7
370
   211
100
AcDbMText
 10
1146.740135077904
 20
-2182.336866719243
 30
0.0
 40
91.44
 41
120.0
 46
0.0
 71
     7
 72
     1
  1
{\fＭＳ ゴシック|b0|i0|c128|p49;20}
 11
6.123031769111886E-17
 21
1.0
 31
0.0
 73
     1
 44
1.0
  0
MTEXT
  5
45E
330
1F
100
AcDbEntity
  8
1-B_寸法
  6
Continuous
 62
     7
370
   211
100
AcDbMText
 10
2068.670331755858
 20
-2189.224921595802
 30
0.0
 40
91.44
 41
180.0
 46
0.0
 71
     7
 72
     1
  1
{\fＭＳ ゴシック|b0|i0|c128|p49;8.5}
 11
6.123031769111886E-17
 21
1.0
 31
0.0
 73
     1
 44
1.0
  0
MTEXT
  5
45F
330
1F
100
AcDbEntity
  8
1-B_寸法
  6
Continuous
 62
     7
370
   211
100
AcDbMText
 10
1918.670331755858
 20
-2191.376364289649
 30
0.0
 40
91.44
 41
180.0
 46
0.0
 71
     7
 72
     1
  1
{\fＭＳ ゴシック|b0|i0|c128|p49;5.5}
 11
6.123031769111886E-17
 21
1.0
 31
0.0
 73
     1
 44
1.0
  0
MTEXT
  5
460
330
1F
100
AcDbEntity
  8
1-B_寸法
  6
Continuous
 62
     7
370
   211
100
AcDbMText
 10
1918.670331755858
 20
-2337.435803330831
 30
0.0
 40
91.44
 41
60.0
 46
0.0
 71
     7
 72
     1
  1
{\fＭＳ ゴシック|b0|i0|c128|p49;3}
 11
6.123031769111886E-17
 21
1.0
 31
0.0
 73
     1
 44
1.0
  0
MTEXT
  5
461
330
1F
100
AcDbEntity
  8
1-B_寸法
  6
Continuous
 62
     7
370
   211
100
AcDbMText
 10
2068.670331755858
 20
-2479.93580333083
 30
0.0
 40
91.44
 41
120.0
 46
0.0
 71
     7
 72
     1
  1
{\fＭＳ ゴシック|b0|i0|c128|p49;12}
 11
6.123031769111886E-17
 21
1.0
 31
0.0
 73
     1
 44
1.0
  0
LWPOLYLINE
  5
462
330
1F
100
AcDbEntity
  8
1-B_寸法
  6
Continuous
 62
     7
370
     9
100
AcDbPolyline
 90
        4
 70
     1
 43
3.0
 10
656.4181716835791
 20
-723.4888920769401
 42
0.4142135623731
 10
654.9181716835791
 20
-721.9888920769401
 42
0.4142135623731
 10
653.418171683579
 20
-723.4888920769401
 42
0.4142135623731
 10
654.9181716835791
 20
-724.9888920769401
 42
0.4142135623731
  0
LINE
  5
463
330
1F
100
AcDbEntity
  8
1-B_寸法
  6
Continuous
 62
   120
370
     5
100
AcDbLine
 10
1292.418171683579
 20
-903.4888920769401
 30
0.0
 11
654.9181716835791
 21
-903.4888920769401
 31
0.0
  0
LWPOLYLINE
  5
464
330
1F
100
AcDbEntity
  8
1-B_寸法
  6
Continuous
 62
     7
370
     9
100
AcDbPolyline
 90
        4
 70
     1
 43
3.0
 10
656.4181716835791
 20
-903.4888920769401
 42
0.4142135623731
 10
654.9181716835791
 20
-901.9888920769401
 42
0.4142135623731
 10
653.418171683579
 20
-903.4888920769401
 42
0.4142135623731
 10
654.9181716835791
 20
-904.9888920769401
 42
0.4142135623731
  0
LINE
  5
465
330
1F
100
AcDbEntity
  8
1-B_寸法
  6
Continuous
 62
   120
370
     5
100
AcDbLine
 10
654.9181716835791
 20
-903.4888920769401
 30
0.0
 11
654.9181716835791
 21
-1053.48889207694
 31
0.0
  0
LINE
  5
466
330
1F
100
AcDbEntity
  8
1-4_枠
  6
Continuous
 62
    92
370
    13
100
AcDbLine
 10
654.9181716835791
 20
-510.9103996822904
 30
0.0
 11
654.9181716835791
 21
-2315.655803330827
 31
0.0
  0
MTEXT
  5
467
330
1F
100
AcDbEntity
  8
1-B_寸法
  6
Continuous
 62
     7
370
   211
100
AcDbMText
 10
842.4181716835791
 20
-898.4826420769401
 30
0.0
 40
100.0125
 41
262.5
 46
0.0
 71
     7
 72
     1
  1
{\fＭＳ ゴシック|b0|i0|c128|p49;42.5}
 73
     1
 44
1.0
  0
MTEXT
  5
468
330
1F
100
AcDbEntity
  8
1-A_文字
  6
Continuous
 62
     7
370
     9
100
AcDbMText
 10
913.6681716835791
 20
-1145.348831483492
 30
0.0
 40
91.44
 41
360.0
 46
0.0
 71
     7
 72
     1
  1
{\f@ＭＳ ゴシック|b0|i0|c128|p49;中方立}
 11
-1.836909530733566E-16
 21
-1.0
 31
0.0
 73
     1
 44
1.0
  0
LWPOLYLINE
  5
469
330
1F
100
AcDbEntity
  8
1-B_寸法
  6
Continuous
 62
     7
370
     9
100
AcDbPolyline
 90
        4
 70
     1
 43
3.0
 10
2006.418171683579
 20
-723.4888920769401
 42
0.4142135623731
 10
2004.918171683579
 20
-721.9888920769401
 42
0.4142135623731
 10
2003.418171683579
 20
-723.4888920769401
 42
0.4142135623731
 10
2004.918171683579
 20
-724.9888920769401
 42
0.4142135623731
  0
LINE
  5
46A
330
1F
100
AcDbEntity
  8
1-B_寸法
  6
Continuous
 62
   120
370
     5
100
AcDbLine
 10
654.9181716835791
 20
-723.4888920769401
 30
0.0
 11
2004.918171683579
 21
-723.4888920769401
 31
0.0
  0
LINE
  5
46B
330
1F
100
AcDbEntity
  8
1-4_枠
  6
Continuous
 62
    92
370
    13
100
AcDbLine
 10
2004.918171683579
 20
-510.9103996822904
 30
0.0
 11
2004.918171683579
 21
-1982.096364289649
 31
0.0
  0
MTEXT
  5
46C
330
1F
100
AcDbEntity
  8
1-B_寸法
  6
Continuous
 62
     7
370
   211
100
AcDbMText
 10
1266.168171683579
 20
-719.9113920769402
 30
0.0
 40
97.15499999999999
 41
127.5
 46
0.0
 71
     7
 72
     1
  1
{\fＭＳ ゴシック|b0|i0|c128|p49;90}
 73
     1
 44
1.0
  0
LINE
  5
46D
330
1F
100
AcDbEntity
  8
1-4_枠
  6
Continuous
 62
    92
370
    13
100
AcDbLine
 10
1292.418171683579
 20
-709.9017091799892
 30
0.0
 11
1292.418171683579
 21
-2315.655803330827
 31
0.0
  0
LINE
  5
46E
330
1F
100
AcDbEntity
  8
1-4_枠
  6
Continuous
 62
    92
370
    13
100
AcDbLine
 10
1292.418171683579
 20
-510.9103996822904
 30
0.0
 11
1292.418171683579
 21
-586.7873942685083
 31
0.0
  0
LINE
  5
46F
330
1F
100
AcDbEntity
  8
1-6_扉
  6
JWW_DASHED2
 62
     7
370
     9
100
AcDbLine
 10
1389.918171683564
 20
-510.9103996822904
 30
0.0
 11
1389.918171683564
 21
-586.7873942685083
 31
0.0
  0
LINE
  5
470
330
1F
100
AcDbEntity
  8
1-6_扉
  6
JWW_DASHED2
 62
     7
370
     9
100
AcDbLine
 10
1389.918171683564
 20
-709.9017091799892
 30
0.0
 11
1389.918171683564
 21
-2188.155803330831
 31
0.0
  0
LINE
  5
471
330
1F
100
AcDbEntity
  8
1-4_枠
  6
JWW_CENTER1
 62
   120
370
     5
100
AcDbLine
 10
3790.301891438811
 20
-2832.675423701152
 30
0.0
 11
3790.301891438811
 21
-3282.675423701152
 31
0.0
  0
LINE
  5
472
330
1F
100
AcDbEntity
  8
1-B_寸法
  6
Continuous
 62
   120
370
     5
100
AcDbLine
 10
3563.411955753229
 20
-2637.675423701152
 30
0.0
 11
3677.801891438811
 21
-2637.675423701152
 31
0.0
  0
LINE
  5
473
330
1F
100
AcDbEntity
  8
1-B_寸法
  6
Continuous
 62
   120
370
     5
100
AcDbLine
 10
3902.801891438811
 20
-2637.675423701152
 30
0.0
 11
3902.801891438811
 21
-2757.675423701152
 31
0.0
  0
LWPOLYLINE
  5
474
330
1F
100
AcDbEntity
  8
1-B_寸法
  6
Continuous
 62
     7
370
     9
100
AcDbPolyline
 90
        4
 70
     1
 43
3.0
 10
3904.301891438811
 20
-2637.675423701152
 42
0.4142135623731
 10
3902.801891438811
 20
-2636.175423701152
 42
0.4142135623731
 10
3901.301891438811
 20
-2637.675423701152
 42
0.4142135623731
 10
3902.801891438811
 20
-2639.175423701152
 42
0.4142135623731
  0
LINE
  5
475
330
1F
100
AcDbEntity
  8
1-B_寸法
  6
Continuous
 62
   120
370
     5
100
AcDbLine
 10
3677.801891438811
 20
-2637.675423701152
 30
0.0
 11
3902.801891438811
 21
-2637.675423701152
 31
0.0
  0
LINE
  5
476
330
1F
100
AcDbEntity
  8
1-B_寸法
  6
Continuous
 62
   120
370
     5
100
AcDbLine
 10
3677.801891438811
 20
-2637.675423701152
 30
0.0
 11
3677.801891438811
 21
-2757.675423701152
 31
0.0
  0
LINE
  5
477
330
1F
100
AcDbEntity
  8
1-B_寸法
  6
Continuous
 62
   120
370
     5
100
AcDbLine
 10
3632.801891438811
 20
-2637.675423701152
 30
0.0
 11
3632.801891438811
 21
-2757.675423701152
 31
0.0
  0
LWPOLYLINE
  5
478
330
1F
100
AcDbEntity
  8
1-B_寸法
  6
Continuous
 62
     7
370
     9
100
AcDbPolyline
 90
        4
 70
     1
 43
3.0
 10
3679.301891438811
 20
-2637.675423701152
 42
0.4142135623731
 10
3677.801891438811
 20
-2636.175423701152
 42
0.4142135623731
 10
3676.301891438812
 20
-2637.675423701152
 42
0.4142135623731
 10
3677.801891438811
 20
-2639.175423701152
 42
0.4142135623731
  0
LWPOLYLINE
  5
479
330
1F
100
AcDbEntity
  8
1-B_寸法
  6
Continuous
 62
     7
370
     9
100
AcDbPolyline
 90
        4
 70
     1
 43
3.0
 10
3634.301891438811
 20
-2637.675423701152
 42
0.4142135623731
 10
3632.801891438811
 20
-2636.175423701152
 42
0.4142135623731
 10
3631.301891438812
 20
-2637.675423701152
 42
0.4142135623731
 10
3632.801891438811
 20
-2639.175423701152
 42
0.4142135623731
  0
LINE
  5
47A
330
1F
100
AcDbEntity
  8
1-B_寸法
  6
Continuous
 62
   120
370
     5
100
AcDbLine
 10
3632.801891438811
 20
-2535.028182171138
 30
0.0
 11
3632.801891438811
 21
-2637.675423701152
 31
0.0
  0
LWPOLYLINE
  5
47B
330
1F
100
AcDbEntity
  8
1-B_寸法
  6
Continuous
 62
     7
370
     9
100
AcDbPolyline
 90
        4
 70
     1
 43
3.0
 10
3634.301891438811
 20
-2535.028182171138
 42
0.4142135623731
 10
3632.801891438811
 20
-2533.528182171139
 42
0.4142135623731
 10
3631.301891438812
 20
-2535.028182171138
 42
0.4142135623731
 10
3632.801891438811
 20
-2536.528182171138
 42
0.4142135623731
  0
LINE
  5
47C
330
1F
100
AcDbEntity
  8
1-B_寸法
  6
Continuous
 62
   120
370
     5
100
AcDbLine
 10
3632.801891438811
 20
-2535.028182171138
 30
0.0
 11
3902.801891438811
 21
-2535.028182171138
 31
0.0
  0
LINE
  5
47D
330
1F
100
AcDbEntity
  8
1-B_寸法
  6
Continuous
 62
   120
370
     5
100
AcDbLine
 10
3902.801891438811
 20
-2535.028182171138
 30
0.0
 11
3902.801891438811
 21
-2637.675423701152
 31
0.0
  0
LWPOLYLINE
  5
47E
330
1F
100
AcDbEntity
  8
1-B_寸法
  6
Continuous
 62
     7
370
     9
100
AcDbPolyline
 90
        4
 70
     1
 43
3.0
 10
3904.301891438811
 20
-2535.028182171138
 42
0.4142135623731
 10
3902.801891438811
 20
-2533.528182171139
 42
0.4142135623731
 10
3901.301891438811
 20
-2535.028182171138
 42
0.4142135623731
 10
3902.801891438811
 20
-2536.528182171138
 42
0.4142135623731
  0
LINE
  5
47F
330
1F
100
AcDbEntity
  8
1-B_寸法
  6
Continuous
 62
   120
370
     5
100
AcDbLine
 10
3480.504694146146
 20
-3282.675423701152
 30
0.0
 11
3480.504694146146
 21
-2832.675423701152
 31
0.0
  0
LINE
  5
480
330
1F
100
AcDbEntity
  8
1-B_寸法
  6
Continuous
 62
   120
370
     5
100
AcDbLine
 10
3480.504694146146
 20
-2832.675423701152
 30
0.0
 11
3577.57757552229
 21
-2832.675423701152
 31
0.0
  0
LWPOLYLINE
  5
481
330
1F
100
AcDbEntity
  8
1-B_寸法
  6
Continuous
 62
     7
370
     9
100
AcDbPolyline
 90
        4
 70
     1
 43
3.0
 10
3482.004694146146
 20
-2832.675423701152
 42
0.4142135623731
 10
3480.504694146146
 20
-2831.175423701152
 42
0.4142135623731
 10
3479.004694146146
 20
-2832.675423701152
 42
0.4142135623731
 10
3480.504694146146
 20
-2834.175423701152
 42
0.4142135623731
  0
LINE
  5
482
330
1F
100
AcDbEntity
  8
1-7_金物
  6
Continuous
 62
     7
370
     9
100
AcDbLine
 10
3767.801891438811
 20
-3132.675423701152
 30
0.0
 11
3812.801891438811
 21
-3132.675423701152
 31
0.0
  0
LINE
  5
483
330
1F
100
AcDbEntity
  8
1-7_金物
  6
Continuous
 62
     7
370
     9
100
AcDbLine
 10
3812.801891438811
 20
-3162.675423701152
 30
0.0
 11
3767.801891438811
 21
-3162.675423701152
 31
0.0
  0
LINE
  5
484
330
1F
100
AcDbEntity
  8
1-7_金物
  6
Continuous
 62
     7
370
     9
100
AcDbLine
 10
3767.801891438811
 20
-3222.675423701152
 30
0.0
 11
3812.801891438811
 21
-3222.675423701152
 31
0.0
  0
LINE
  5
485
330
1F
100
AcDbEntity
  8
1-7_金物
  6
Continuous
 62
     7
370
     9
100
AcDbLine
 10
3767.801891438811
 20
-3252.675423701152
 30
0.0
 11
3812.801891438811
 21
-3252.675423701152
 31
0.0
  0
LINE
  5
486
330
1F
100
AcDbEntity
  8
1-7_金物
  6
Continuous
 62
     7
370
     9
100
AcDbLine
 10
3812.801891438811
 20
-2982.675423701152
 30
0.0
 11
3767.801891438811
 21
-2982.675423701152
 31
0.0
  0
LINE
  5
487
330
1F
100
AcDbEntity
  8
1-7_金物
  6
Continuous
 62
     7
370
     9
100
AcDbLine
 10
3812.801891438811
 20
-2862.675423701152
 30
0.0
 11
3767.801891438811
 21
-2862.675423701152
 31
0.0
  0
LINE
  5
488
330
1F
100
AcDbEntity
  8
1-7_金物
  6
Continuous
 62
     7
370
     9
100
AcDbLine
 10
3812.801891438811
 20
-2892.675423701152
 30
0.0
 11
3767.801891438811
 21
-2892.675423701152
 31
0.0
  0
LINE
  5
489
330
1F
100
AcDbEntity
  8
1-7_金物
  6
Continuous
 62
     7
370
     9
100
AcDbLine
 10
3767.801891438811
 20
-2952.675423701152
 30
0.0
 11
3812.801891438811
 21
-2952.675423701152
 31
0.0
  0
ARC
  5
48A
330
1F
100
AcDbEntity
  8
1-7_金物
  6
Continuous
 62
     7
370
     9
100
AcDbCircle
 10
3767.801891438811
 20
-3192.675423701152
 30
0.0
 40
30.0
100
AcDbArc
 50
90.0
 51
270.0
  0
ARC
  5
48B
330
1F
100
AcDbEntity
  8
1-7_金物
  6
Continuous
 62
     7
370
     9
100
AcDbCircle
 10
3767.801891438811
 20
-3192.675423701152
 30
0.0
 40
60.0
100
AcDbArc
 50
90.0
 51
270.0
  0
ARC
  5
48C
330
1F
100
AcDbEntity
  8
1-7_金物
  6
Continuous
 62
     7
370
     9
100
AcDbCircle
 10
3767.801891438811
 20
-2922.675423701152
 30
0.0
 40
30.0
100
AcDbArc
 50
90.0
 51
270.0
  0
ARC
  5
48D
330
1F
100
AcDbEntity
  8
1-7_金物
  6
Continuous
 62
     7
370
     9
100
AcDbCircle
 10
3767.801891438811
 20
-2922.675423701152
 30
0.0
 40
60.0
100
AcDbArc
 50
90.0
 51
270.0
  0
ARC
  5
48E
330
1F
100
AcDbEntity
  8
1-7_金物
  6
Continuous
 62
     7
370
     9
100
AcDbCircle
 10
3812.801891438811
 20
-3192.675423701152
 30
0.0
 40
30.0
100
AcDbArc
 50
270.0
 51
90.0
  0
ARC
  5
48F
330
1F
100
AcDbEntity
  8
1-7_金物
  6
Continuous
 62
     7
370
     9
100
AcDbCircle
 10
3812.801891438811
 20
-2922.675423701152
 30
0.0
 40
30.0
100
AcDbArc
 50
270.0
 51
90.0
  0
ARC
  5
490
330
1F
100
AcDbEntity
  8
1-7_金物
  6
Continuous
 62
     7
370
     9
100
AcDbCircle
 10
3812.801891438811
 20
-2922.675423701152
 30
0.0
 40
60.0
100
AcDbArc
 50
270.0
 51
90.0
  0
ARC
  5
491
330
1F
100
AcDbEntity
  8
1-7_金物
  6
Continuous
 62
     7
370
     9
100
AcDbCircle
 10
3812.801891438811
 20
-3192.675423701152
 30
0.0
 40
60.0
100
AcDbArc
 50
270.0
 51
90.0
  0
LINE
  5
492
330
1F
100
AcDbEntity
  8
1-7_金物
  6
Continuous
 62
     7
370
     9
100
AcDbLine
 10
3707.801891438811
 20
-2832.675423701152
 30
0.0
 11
3872.801891438811
 21
-2832.675423701152
 31
0.0
  0
LINE
  5
493
330
1F
100
AcDbEntity
  8
1-7_金物
  6
Continuous
 62
     7
370
     9
100
AcDbLine
 10
3872.801891438811
 20
-3282.675423701152
 30
0.0
 11
3707.801891438811
 21
-3282.675423701152
 31
0.0
  0
ARC
  5
494
330
1F
100
AcDbEntity
  8
1-7_金物
  6
Continuous
 62
     7
370
     9
100
AcDbCircle
 10
3872.801891438811
 20
-3252.675423701152
 30
0.0
 40
30.0
100
AcDbArc
 50
270.0
 51
0.0
  0
LINE
  5
495
330
1F
100
AcDbEntity
  8
1-7_金物
  6
Continuous
 62
     7
370
     9
100
AcDbLine
 10
3902.801891438811
 20
-3252.675423701152
 30
0.0
 11
3902.801891438811
 21
-2862.675423701152
 31
0.0
  0
ARC
  5
496
330
1F
100
AcDbEntity
  8
1-7_金物
  6
Continuous
 62
     7
370
     9
100
AcDbCircle
 10
3872.801891438811
 20
-2862.675423701152
 30
0.0
 40
30.0
100
AcDbArc
 50
0.0
 51
90.0
  0
ARC
  5
497
330
1F
100
AcDbEntity
  8
1-7_金物
  6
Continuous
 62
     7
370
     9
100
AcDbCircle
 10
3707.801891438811
 20
-3252.675423701152
 30
0.0
 40
30.0
100
AcDbArc
 50
180.0
 51
270.0
  0
LINE
  5
498
330
1F
100
AcDbEntity
  8
1-7_金物
  6
Continuous
 62
     7
370
     9
100
AcDbLine
 10
3677.801891438811
 20
-3252.675423701152
 30
0.0
 11
3677.801891438811
 21
-2862.675423701152
 31
0.0
  0
ARC
  5
499
330
1F
100
AcDbEntity
  8
1-7_金物
  6
Continuous
 62
     7
370
     9
100
AcDbCircle
 10
3707.801891438811
 20
-2862.675423701152
 30
0.0
 40
30.0
100
AcDbArc
 50
90.0
 51
180.0
  0
ARC
  5
49A
330
1F
100
AcDbEntity
  8
1-7_金物
  6
Continuous
 62
     7
370
     9
100
AcDbCircle
 10
3670.301891438811
 20
-2975.175423701152
 30
0.0
 40
7.5
100
AcDbArc
 50
0.0
 51
90.0
  0
LINE
  5
49B
330
1F
100
AcDbEntity
  8
1-7_金物
  6
Continuous
 62
     7
370
     9
100
AcDbLine
 10
3670.301891438811
 20
-2967.675423701152
 30
0.0
 11
3640.301891438811
 21
-2967.675423701152
 31
0.0
  0
ARC
  5
49C
330
1F
100
AcDbEntity
  8
1-7_金物
  6
Continuous
 62
     7
370
     9
100
AcDbCircle
 10
3670.301891438811
 20
-3140.175423701152
 30
0.0
 40
7.5
100
AcDbArc
 50
270.0
 51
0.0
  0
LINE
  5
49D
330
1F
100
AcDbEntity
  8
1-7_金物
  6
Continuous
 62
     7
370
     9
100
AcDbLine
 10
3670.301891438811
 20
-3147.675423701152
 30
0.0
 11
3640.301891438811
 21
-3147.675423701152
 31
0.0
  0
ARC
  5
49E
330
1F
100
AcDbEntity
  8
1-7_金物
  6
Continuous
 62
     7
370
     9
100
AcDbCircle
 10
3640.301891438811
 20
-3140.175423701152
 30
0.0
 40
7.5
100
AcDbArc
 50
180.0
 51
270.0
  0
LINE
  5
49F
330
1F
100
AcDbEntity
  8
1-7_金物
  6
Continuous
 62
     7
370
     9
100
AcDbLine
 10
3632.801891438811
 20
-3140.175423701152
 30
0.0
 11
3632.801891438811
 21
-2975.175423701152
 31
0.0
  0
ARC
  5
4A0
330
1F
100
AcDbEntity
  8
1-7_金物
  6
Continuous
 62
     7
370
     9
100
AcDbCircle
 10
3640.301891438811
 20
-2975.175423701152
 30
0.0
 40
7.5
100
AcDbArc
 50
90.0
 51
180.0
  0
LINE
  5
4A1
330
1F
100
AcDbEntity
  8
1-B_寸法
  6
Continuous
 62
   120
370
     5
100
AcDbLine
 10
3480.504694146146
 20
-3282.675423701152
 30
0.0
 11
3577.57757552229
 21
-3282.675423701152
 31
0.0
  0
LWPOLYLINE
  5
4A2
330
1F
100
AcDbEntity
  8
1-B_寸法
  6
Continuous
 62
     7
370
     9
100
AcDbPolyline
 90
        4
 70
     1
 43
3.0
 10
3482.004694146146
 20
-3282.675423701152
 42
0.4142135623731
 10
3480.504694146146
 20
-3281.175423701152
 42
0.4142135623731
 10
3479.004694146146
 20
-3282.675423701152
 42
0.4142135623731
 10
3480.504694146146
 20
-3284.175423701152
 42
0.4142135623731
  0
LWPOLYLINE
  5
4A3
330
1F
100
AcDbEntity
  8
1-B_寸法
  6
Continuous
 62
     7
370
     9
100
AcDbPolyline
 90
        4
 70
     1
 43
3.0
 10
3904.301891438811
 20
-3477.771559770666
 42
0.4142135623731
 10
3902.801891438811
 20
-3476.271559770666
 42
0.4142135623731
 10
3901.301891438811
 20
-3477.771559770666
 42
0.4142135623731
 10
3902.801891438811
 20
-3479.271559770666
 42
0.4142135623731
  0
LINE
  5
4A4
330
1F
100
AcDbEntity
  8
1-B_寸法
  6
Continuous
 62
   120
370
     5
100
AcDbLine
 10
3902.801891438811
 20
-3357.675423701152
 30
0.0
 11
3902.801891438811
 21
-3477.771559770666
 31
0.0
  0
LINE
  5
4A5
330
1F
100
AcDbEntity
  8
0-A_文字
  6
Continuous
 62
   120
370
     5
100
AcDbLine
 10
3830.245203155835
 20
-2936.246932575999
 30
0.0
 11
3957.588519850232
 21
-2748.043923200727
 31
0.0
  0
MTEXT
  5
4A6
330
1F
100
AcDbEntity
  8
1-A_文字
  6
Continuous
 62
     7
370
     9
100
AcDbMText
 10
3954.014451130745
 20
-2749.759439645278
 30
0.0
 40
68.58000000000014
 41
810.0000000000017
 46
0.0
 71
     7
 72
     1
  1
{\fＭＳ ゴシック|b0|i0|c128|p49;振れ止め金具(床用)}
 73
     1
 44
1.0
  0
MTEXT
  5
4A7
330
1F
100
AcDbEntity
  8
1-B_寸法
  6
Continuous
 62
     7
370
   211
100
AcDbMText
 10
3707.801891438811
 20
-2534.308182171138
 30
0.0
 40
91.44
 41
120.0
 46
0.0
 71
     7
 72
     1
  1
{\fＭＳ ゴシック|b0|i0|c128|p49;18}
 73
     1
 44
1.0
  0
MTEXT
  5
4A8
330
1F
100
AcDbEntity
  8
1-B_寸法
  6
Continuous
 62
     7
370
   211
100
AcDbMText
 10
3563.411955753229
 20
-2786.955423701152
 30
0.0
 40
91.44
 41
60.0
 46
0.0
 71
     7
 72
     1
  1
{\fＭＳ ゴシック|b0|i0|c128|p49;3}
 73
     1
 44
1.0
  0
MTEXT
  5
4A9
330
1F
100
AcDbEntity
  8
1-B_寸法
  6
Continuous
 62
     7
370
   211
100
AcDbMText
 10
3741.551891438811
 20
-2786.955423701152
 30
0.0
 40
91.43999999999967
 41
119.9999999999996
 46
0.0
 71
     7
 72
     1
  1
{\fＭＳ ゴシック|b0|i0|c128|p49;15}
 73
     1
 44
1.0
  0
MTEXT
  5
4AA
330
1F
100
AcDbEntity
  8
1-B_寸法
  6
Continuous
 62
     7
370
   211
100
AcDbMText
 10
3465.504694146146
 20
-3131.955423701152
 30
0.0
 40
91.44
 41
120.0
 46
0.0
 71
     7
 72
     1
  1
{\fＭＳ ゴシック|b0|i0|c128|p49;30}
 11
6.123031769111886E-17
 21
1.0
 31
0.0
 73
     1
 44
1.0
  0
LINE
  5
4AB
330
1F
100
AcDbEntity
  8
0-A_文字
  6
Continuous
 62
    92
370
    13
100
AcDbLine
 10
2889.918171683582
 20
-198.0001979518696
 30
0.0
 11
5126.191050219359
 21
-198.0001979518696
 31
0.0
  0
LINE
  5
4AC
330
1F
100
AcDbEntity
  8
0-A_文字
  6
Continuous
 62
    92
370
    13
100
AcDbLine
 10
2889.918171683582
 20
-18.00019795186955
 30
0.0
 11
5126.191050219359
 21
-18.00019795186955
 31
0.0
  0
LINE
  5
4AD
330
1F
100
AcDbEntity
  8
0-7_金物
  6
Continuous
 62
     7
370
     9
100
AcDbLine
 10
5012.254502865606
 20
-3550.984708650155
 30
0.0
 11
3003.103088556122
 21
-3550.984708650155
 31
0.0
  0
LINE
  5
4AE
330
1F
100
AcDbEntity
  8
0-7_金物
  6
Continuous
 62
     7
370
     9
100
AcDbLine
 10
3003.103088556122
 20
-3550.984708650155
 30
0.0
 11
3003.103088556122
 21
-2290.274608983792
 31
0.0
  0
LINE
  5
4AF
330
1F
100
AcDbEntity
  8
0-7_金物
  6
Continuous
 62
     7
370
     9
100
AcDbLine
 10
5012.254502865606
 20
-2290.274608983792
 30
0.0
 11
5012.254502865606
 21
-3550.984708650155
 31
0.0
  0
LINE
  5
4B0
330
1F
100
AcDbEntity
  8
0-7_金物
  6
Continuous
 62
     7
370
     9
100
AcDbLine
 10
3003.103088556122
 20
-2290.274608983792
 30
0.0
 11
5012.254502865606
 21
-2290.274608983792
 31
0.0
  0
LINE
  5
4B1
330
1F
100
AcDbEntity
  8
0-6_扉
  6
Continuous
 62
    40
370
    15
100
AcDbLine
 10
4221.099894200283
 20
-1613.771493284141
 30
0.0
 11
4793.856386961386
 21
-1283.090378008413
 31
0.0
  0
LINE
  5
4B2
330
1F
100
AcDbEntity
  8
0-B_寸法
  6
JWW_CENTER1
 62
   120
370
     5
100
AcDbLine
 10
4221.099894200283
 20
-1613.771493284141
 30
0.0
 11
4383.735988291856
 21
-1707.669485987859
 31
0.0
  0
LWPOLYLINE
  5
4B3
330
1F
100
AcDbEntity
  8
0-B_寸法
  6
Continuous
 62
     7
370
     9
100
AcDbPolyline
 90
        4
 70
     1
 43
3.0
 10
4450.82442683981
 20
-1745.536988639247
 42
0.4142135623731
 10
4449.32442683981
 20
-1744.036988639247
 42
0.4142135623731
 10
4447.824426839809
 20
-1745.536988639247
 42
0.4142135623731
 10
4449.32442683981
 20
-1747.036988639247
 42
0.4142135623731
  0
LINE
  5
4B4
330
1F
100
AcDbEntity
  8
0-B_寸法
  6
Continuous
 62
   120
370
     5
100
AcDbLine
 10
4449.32442683981
 20
-1745.536988639247
 30
0.0
 11
4395.498186514816
 21
-1714.460394298146
 31
0.0
  0
LWPOLYLINE
  5
4B5
330
1F
100
AcDbEntity
  8
0-B_寸法
  6
Continuous
 62
     7
370
     9
100
AcDbPolyline
 90
        4
 70
     1
 43
3.0
 10
4365.058352240288
 20
-1795.054054920265
 42
0.4142135623731
 10
4363.558352240288
 20
-1793.554054920265
 42
0.4142135623731
 10
4362.058352240287
 20
-1795.054054920265
 42
0.4142135623731
 10
4363.558352240288
 20
-1796.554054920265
 42
0.4142135623731
  0
LINE
  5
4B6
330
1F
100
AcDbEntity
  8
0-B_寸法
  6
Continuous
 62
   120
370
     5
100
AcDbLine
 10
4449.324426850047
 20
-1745.536988656981
 30
0.0
 11
4363.558352240288
 21
-1795.054054920264
 31
0.0
  0
LINE
  5
4B7
330
1F
100
AcDbEntity
  8
0-B_寸法
  6
Continuous
 62
   120
370
     5
100
AcDbLine
 10
4311.714911453388
 20
-1765.122230426232
 30
0.0
 11
4363.558352240288
 21
-1795.054054920265
 31
0.0
  0
LWPOLYLINE
  5
4B8
330
1F
100
AcDbEntity
  8
0-B_寸法
  6
Continuous
 62
     7
370
     9
100
AcDbPolyline
 90
        4
 70
     1
 43
3.0
 10
3724.986712834886
 20
-1901.068677396806
 42
0.4142135623731
 10
3723.486712834886
 20
-1899.568677396806
 42
0.4142135623731
 10
3721.986712834886
 20
-1901.068677396806
 42
0.4142135623731
 10
3723.486712834886
 20
-1902.568677396805
 42
0.4142135623731
  0
LINE
  5
4B9
330
1F
100
AcDbEntity
  8
0-B_寸法
  6
JWW_CENTER1
 62
   120
370
     5
100
AcDbLine
 10
4221.099894200283
 20
-1613.771493284141
 30
0.0
 11
3804.312023081916
 21
-1854.404082869304
 31
0.0
  0
LINE
  5
4BA
330
1F
100
AcDbEntity
  8
0-B_寸法
  6
Continuous
 62
   120
370
     5
100
AcDbLine
 10
3786.231272128324
 20
-1864.843089198554
 30
0.0
 11
3723.486712834886
 21
-1901.068677396806
 31
0.0
  0
LINE
  5
4BB
330
1F
100
AcDbEntity
  8
0-0_補助線
  6
JWW_HOJO
 62
   120
370
     5
100
AcDbLine
 10
3965.62819209551
 20
-1602.051315983757
 30
0.0
 11
3986.841395531107
 21
-1651.041110839421
 31
0.0
  0
LINE
  5
4BC
330
1F
100
AcDbEntity
  8
0-0_補助線
  6
JWW_HOJO
 62
   120
370
     5
100
AcDbLine
 10
3993.054598966703
 20
-1648.288559553336
 30
0.0
 11
3978.054598966703
 21
-1596.546213411589
 31
0.0
  0
LINE
  5
4BD
330
1F
100
AcDbEntity
  8
0-0_補助線
  6
JWW_HOJO
 62
   120
370
     5
100
AcDbLine
 10
3992.525456260551
 20
-1593.085561262076
 30
0.0
 11
4000.290027613627
 21
-1646.55823347858
 31
0.0
  0
LINE
  5
4BE
330
1F
100
AcDbEntity
  8
0-0_補助線
  6
JWW_HOJO
 62
   120
370
     5
100
AcDbLine
 10
4008.054598966703
 20
-1645.968051477648
 30
0.0
 11
4008.054598966703
 21
-1591.905197260211
 31
0.0
  0
LINE
  5
4BF
330
1F
100
AcDbEntity
  8
0-0_補助線
  6
JWW_HOJO
 62
   120
370
     5
100
AcDbLine
 10
4023.583741672855
 20
-1593.085561262076
 30
0.0
 11
4015.81917031978
 21
-1646.55823347858
 31
0.0
  0
LINE
  5
4C0
330
1F
100
AcDbEntity
  8
0-0_補助線
  6
JWW_HOJO
 62
   120
370
     5
100
AcDbLine
 10
4023.054598966703
 20
-1648.288559553336
 30
0.0
 11
4038.054598966703
 21
-1596.546213411589
 31
0.0
  0
LINE
  5
4C1
330
1F
100
AcDbEntity
  8
0-0_補助線
  6
JWW_HOJO
 62
   120
370
     5
100
AcDbLine
 10
4050.481005837897
 20
-1602.051315983757
 30
0.0
 11
4029.2678024023
 21
-1651.041110839421
 31
0.0
  0
LINE
  5
4C2
330
1F
100
AcDbEntity
  8
0-0_補助線
  6
JWW_HOJO
 62
   120
370
     5
100
AcDbLine
 10
4034.035361080236
 20
-1654.628305515492
 30
0.0
 11
4060.016123193772
 21
-1609.2257053359
 31
0.0
  0
LINE
  5
4C3
330
1F
100
AcDbEntity
  8
0-0_補助線
  6
JWW_HOJO
 62
   120
370
     5
100
AcDbLine
 10
4066.010148544049
 20
-1617.580458689908
 30
0.0
 11
4037.032373755374
 21
-1658.805682192496
 31
0.0
  0
LINE
  5
4C4
330
1F
100
AcDbEntity
  8
0-0_補助線
  6
JWW_HOJO
 62
   120
370
     5
100
AcDbLine
 10
3933.808386942115
 20
-1620.422489054631
 30
0.0
 11
3955.021590377714
 21
-1669.412283910294
 31
0.0
  0
LINE
  5
4C5
330
1F
100
AcDbEntity
  8
0-0_補助線
  6
JWW_HOJO
 62
   120
370
     5
100
AcDbLine
 10
3877.135768046336
 20
-1516.319174986346
 30
0.0
 11
3875.472077494228
 21
-1518.356771457624
 31
0.0
  0
LINE
  5
4C6
330
1F
100
AcDbEntity
  8
0-0_補助線
  6
JWW_HOJO
 62
   120
370
     5
100
AcDbLine
 10
3916.234793813309
 20
-1644.917386482462
 30
0.0
 11
3935.288851168857
 21
-1670.238193347945
 31
0.0
  0
LINE
  5
4C7
330
1F
100
AcDbEntity
  8
0-0_補助線
  6
JWW_HOJO
 62
   120
370
     5
100
AcDbLine
 10
3940.880999139807
 20
-1672.906129470694
 30
0.0
 11
3918.279244235965
 21
-1635.951631760783
 31
0.0
  0
LINE
  5
4C8
330
1F
100
AcDbEntity
  8
0-0_補助線
  6
JWW_HOJO
 62
   120
370
     5
100
AcDbLine
 10
4066.010148544049
 20
-1635.511968133269
 30
0.0
 11
4054.855586744693
 21
-1648.223140799978
 31
0.0
  0
LINE
  5
4C9
330
1F
100
AcDbEntity
  8
0-0_補助線
  6
JWW_HOJO
 62
   120
370
     5
100
AcDbLine
 10
4045.890715215615
 20
-1653.691316365853
 30
0.0
 11
4068.054598966707
 21
-1626.546213411589
 31
0.0
  0
LINE
  5
4CA
330
1F
100
AcDbEntity
  8
0-0_補助線
  6
JWW_HOJO
 62
   120
370
     5
100
AcDbLine
 10
3949.718289518814
 20
-1647.979248660942
 30
0.0
 11
4034.5711032612
 21
-1696.969043516605
 31
0.0
  0
LINE
  5
4CB
330
1F
100
AcDbEntity
  8
0-0_補助線
  6
JWW_HOJO
 62
   120
370
     5
100
AcDbLine
 10
4050.481005837897
 20
-1638.793662125504
 30
0.0
 11
3933.808386942115
 21
-1706.154630052042
 31
0.0
  0
ELLIPSE
  5
4CC
330
1F
100
AcDbEntity
  8
0-7_金物
  6
Continuous
 62
     7
370
     9
100
AcDbEllipse
 10
3992.144696390007
 20
-1292.143822278155
 30
0.0
 11
28.25850499469571
 21
0.0
 31
0.0
210
0.0
220
0.0
230
1.0
 40
0.5
 41
0.0
 42
6.283185307179586
  0
LINE
  5
4CD
330
1F
100
AcDbEntity
  8
0-7_金物
  6
Continuous
 62
     7
370
     9
100
AcDbLine
 10
3968.233653702186
 20
-1299.673847877655
 30
0.0
 11
3979.178921079828
 21
-1318.631607078155
 31
0.0
  0
LINE
  5
4CE
330
1F
100
AcDbEntity
  8
0-7_金物
  6
Continuous
 62
     7
370
     9
100
AcDbLine
 10
3992.144696390007
 20
-1514.343828828155
 30
0.0
 11
3979.178921079828
 21
-1318.631607078155
 31
0.0
  0
LINE
  5
4CF
330
1F
100
AcDbEntity
  8
0-7_金物
  6
Continuous
 62
     7
370
     9
100
AcDbLine
 10
4016.055739077824
 20
-1299.673847877655
 30
0.0
 11
4005.110471700186
 21
-1318.631607078155
 31
0.0
  0
LINE
  5
4D0
330
1F
100
AcDbEntity
  8
0-7_金物
  6
Continuous
 62
     7
370
     9
100
AcDbLine
 10
3992.144696390007
 20
-1514.343828828155
 30
0.0
 11
4005.110471700186
 21
-1318.631607078155
 31
0.0
  0
LINE
  5
4D1
330
1F
100
AcDbEntity
  8
0-7_金物
  6
Continuous
 62
     7
370
     9
100
AcDbLine
 10
4004.484611264248
 20
-1328.078673180431
 30
0.0
 11
3980.69696462341
 21
-1341.545753553816
 31
0.0
  0
LINE
  5
4D2
330
1F
100
AcDbEntity
  8
0-7_金物
  6
Continuous
 62
     7
370
     9
100
AcDbLine
 10
3993.482640255613
 20
-1494.148201474565
 30
0.0
 11
3990.903486653285
 21
-1495.608357217681
 31
0.0
  0
LINE
  5
4D3
330
1F
100
AcDbEntity
  8
0-7_金物
  6
Continuous
 62
     7
370
     9
100
AcDbLine
 10
4003.837436499035
 20
-1337.847468962438
 30
0.0
 11
3981.297348272228
 21
-1350.60825965169
 31
0.0
  0
LINE
  5
4D4
330
1F
100
AcDbEntity
  8
0-7_金物
  6
Continuous
 62
     7
370
     9
100
AcDbLine
 10
4003.190261733823
 20
-1347.616264744448
 30
0.0
 11
3981.897731921042
 21
-1359.670765749565
 31
0.0
  0
LINE
  5
4D5
330
1F
100
AcDbEntity
  8
0-7_金物
  6
Continuous
 62
     7
370
     9
100
AcDbLine
 10
4002.543086968607
 20
-1357.385060526455
 30
0.0
 11
3982.498115569859
 21
-1368.733271847439
 31
0.0
  0
LINE
  5
4D6
330
1F
100
AcDbEntity
  8
0-7_金物
  6
Continuous
 62
     7
370
     9
100
AcDbLine
 10
4001.895912203394
 20
-1367.153856308462
 30
0.0
 11
3983.098499218676
 21
-1377.795777945313
 31
0.0
  0
LINE
  5
4D7
330
1F
100
AcDbEntity
  8
0-7_金物
  6
Continuous
 62
     7
370
     9
100
AcDbLine
 10
4001.248737438178
 20
-1376.92265209047
 30
0.0
 11
3983.69888286749
 21
-1386.858284043188
 31
0.0
  0
LINE
  5
4D8
330
1F
100
AcDbEntity
  8
0-7_金物
  6
Continuous
 62
     7
370
     9
100
AcDbLine
 10
4000.601562672965
 20
-1386.691447872477
 30
0.0
 11
3984.299266516306
 21
-1395.920790141063
 31
0.0
  0
LINE
  5
4D9
330
1F
100
AcDbEntity
  8
0-7_金物
  6
Continuous
 62
     7
370
     9
100
AcDbLine
 10
3999.954387907753
 20
-1396.460243654486
 30
0.0
 11
3984.899650165125
 21
-1404.983296238938
 31
0.0
  0
LINE
  5
4DA
330
1F
100
AcDbEntity
  8
0-7_金物
  6
Continuous
 62
     7
370
     9
100
AcDbLine
 10
3999.307213142537
 20
-1406.229039436493
 30
0.0
 11
3985.500033813939
 21
-1414.045802336811
 31
0.0
  0
LINE
  5
4DB
330
1F
100
AcDbEntity
  8
0-7_金物
  6
Continuous
 62
     7
370
     9
100
AcDbLine
 10
3998.660038377324
 20
-1415.997835218501
 30
0.0
 11
3986.100417462754
 21
-1423.108308434686
 31
0.0
  0
LINE
  5
4DC
330
1F
100
AcDbEntity
  8
0-7_金物
  6
Continuous
 62
     7
370
     9
100
AcDbLine
 10
3998.01286361211
 20
-1425.76663100051
 30
0.0
 11
3986.70080111157
 21
-1432.170814532561
 31
0.0
  0
LINE
  5
4DD
330
1F
100
AcDbEntity
  8
0-7_金物
  6
Continuous
 62
     7
370
     9
100
AcDbLine
 10
3997.365688846898
 20
-1435.535426782517
 30
0.0
 11
3987.301184760388
 21
-1441.233320630435
 31
0.0
  0
LINE
  5
4DE
330
1F
100
AcDbEntity
  8
0-7_金物
  6
Continuous
 62
     7
370
     9
100
AcDbLine
 10
3996.718514081683
 20
-1445.304222564525
 30
0.0
 11
3987.901568409203
 21
-1450.29582672831
 31
0.0
  0
LINE
  5
4DF
330
1F
100
AcDbEntity
  8
0-7_金物
  6
Continuous
 62
     7
370
     9
100
AcDbLine
 10
3996.071339316469
 20
-1455.073018346532
 30
0.0
 11
3988.501952058019
 21
-1459.358332826184
 31
0.0
  0
LINE
  5
4E0
330
1F
100
AcDbEntity
  8
0-7_金物
  6
Continuous
 62
     7
370
     9
100
AcDbLine
 10
3995.424164551254
 20
-1464.84181412854
 30
0.0
 11
3989.102335706836
 21
-1468.420838924058
 31
0.0
  0
LINE
  5
4E1
330
1F
100
AcDbEntity
  8
0-7_金物
  6
Continuous
 62
     7
370
     9
100
AcDbLine
 10
3994.77698978604
 20
-1474.610609910548
 30
0.0
 11
3989.702719355651
 21
-1477.483345021933
 31
0.0
  0
LINE
  5
4E2
330
1F
100
AcDbEntity
  8
0-7_金物
  6
Continuous
 62
     7
370
     9
100
AcDbLine
 10
3994.129815020828
 20
-1484.379405692556
 30
0.0
 11
3990.303103004467
 21
-1486.545851119807
 31
0.0
  0
LINE
  5
4E3
330
1F
100
AcDbEntity
  8
0-7_金物
  6
Continuous
 62
     7
370
     9
100
AcDbLine
 10
3968.865099132881
 20
-1289.042148267155
 30
0.0
 11
3968.865099132881
 21
-1295.245496289154
 31
0.0
  0
LINE
  5
4E4
330
1F
100
AcDbEntity
  8
0-7_金物
  6
Continuous
 62
     7
370
     9
100
AcDbLine
 10
4015.424293646008
 20
-1295.245496289154
 30
0.0
 11
4015.424293646008
 21
-1289.042148267155
 31
0.0
  0
LINE
  5
4E5
330
1F
100
AcDbEntity
  8
0-7_金物
  6
Continuous
 62
     7
370
     9
100
AcDbLine
 10
3989.043022379006
 20
-1304.341751808154
 30
0.0
 11
3995.246370401006
 21
-1304.341751808154
 31
0.0
  0
LINE
  5
4E6
330
1F
100
AcDbEntity
  8
0-7_金物
  6
Continuous
 62
     7
370
     9
100
AcDbLine
 10
3989.043022379006
 20
-1279.945892748154
 30
0.0
 11
3995.246370401006
 21
-1279.945892748154
 31
0.0
  0
LINE
  5
4E7
330
1F
100
AcDbEntity
  8
0-7_金物
  6
Continuous
 62
     7
370
     9
100
AcDbLine
 10
3968.865099132881
 20
-1289.042148267155
 30
0.0
 11
3989.043022379006
 21
-1289.042148267155
 31
0.0
  0
LINE
  5
4E8
330
1F
100
AcDbEntity
  8
0-7_金物
  6
Continuous
 62
     7
370
     9
100
AcDbLine
 10
3995.246370401006
 20
-1289.042148267155
 30
0.0
 11
4015.424293646008
 21
-1289.042148267155
 31
0.0
  0
LINE
  5
4E9
330
1F
100
AcDbEntity
  8
0-7_金物
  6
Continuous
 62
     7
370
     9
100
AcDbLine
 10
3968.865099132881
 20
-1295.245496289154
 30
0.0
 11
3989.043022379006
 21
-1295.245496289154
 31
0.0
  0
LINE
  5
4EA
330
1F
100
AcDbEntity
  8
0-7_金物
  6
Continuous
 62
     7
370
     9
100
AcDbLine
 10
3995.246370401006
 20
-1295.245496289154
 30
0.0
 11
4015.424293646008
 21
-1295.245496289154
 31
0.0
  0
LINE
  5
4EB
330
1F
100
AcDbEntity
  8
0-7_金物
  6
Continuous
 62
     7
370
     9
100
AcDbLine
 10
3995.246370401006
 20
-1304.341751808154
 30
0.0
 11
3995.246370401006
 21
-1295.245496289154
 31
0.0
  0
LINE
  5
4EC
330
1F
100
AcDbEntity
  8
0-7_金物
  6
Continuous
 62
     7
370
     9
100
AcDbLine
 10
3995.246370401006
 20
-1289.042148267155
 30
0.0
 11
3995.246370401006
 21
-1279.945892748154
 31
0.0
  0
LINE
  5
4ED
330
1F
100
AcDbEntity
  8
0-7_金物
  6
Continuous
 62
     7
370
     9
100
AcDbLine
 10
3989.043022379006
 20
-1304.341751808154
 30
0.0
 11
3989.043022379006
 21
-1295.245496289154
 31
0.0
  0
LINE
  5
4EE
330
1F
100
AcDbEntity
  8
0-7_金物
  6
Continuous
 62
     7
370
     9
100
AcDbLine
 10
3989.043022379006
 20
-1289.042148267155
 30
0.0
 11
3989.043022379006
 21
-1279.945892748154
 31
0.0
  0
ELLIPSE
  5
4EF
330
1F
100
AcDbEntity
  8
0-7_金物
  6
Continuous
 62
     7
370
     9
100
AcDbEllipse
 10
3801.225865469638
 20
-1181.916783852912
 30
0.0
 11
28.25850499469571
 21
0.0
 31
0.0
210
0.0
220
0.0
230
1.0
 40
0.5
 41
0.0
 42
6.283185307179586
  0
LINE
  5
4F0
330
1F
100
AcDbEntity
  8
0-7_金物
  6
Continuous
 62
     7
370
     9
100
AcDbLine
 10
3777.314822781821
 20
-1189.446809452412
 30
0.0
 11
3788.260090159459
 21
-1208.404568652913
 31
0.0
  0
LINE
  5
4F1
330
1F
100
AcDbEntity
  8
0-7_金物
  6
Continuous
 62
     7
370
     9
100
AcDbLine
 10
3825.136908157457
 20
-1189.446809452412
 30
0.0
 11
3814.191640779817
 21
-1208.404568652913
 31
0.0
  0
LINE
  5
4F2
330
1F
100
AcDbEntity
  8
0-7_金物
  6
Continuous
 62
     7
370
     9
100
AcDbLine
 10
3813.565780343881
 20
-1217.851634755189
 30
0.0
 11
3789.778133703043
 21
-1231.318715128573
 31
0.0
  0
LINE
  5
4F3
330
1F
100
AcDbEntity
  8
0-7_金物
  6
Continuous
 62
     7
370
     9
100
AcDbLine
 10
3802.563809335247
 20
-1383.921163049322
 30
0.0
 11
3799.984655732916
 21
-1385.381318792438
 31
0.0
  0
LINE
  5
4F4
330
1F
100
AcDbEntity
  8
0-7_金物
  6
Continuous
 62
     7
370
     9
100
AcDbLine
 10
3812.918605578667
 20
-1227.620430537195
 30
0.0
 11
3790.378517351859
 21
-1240.381221226446
 31
0.0
  0
LINE
  5
4F5
330
1F
100
AcDbEntity
  8
0-7_金物
  6
Continuous
 62
     7
370
     9
100
AcDbLine
 10
3812.271430813454
 20
-1237.389226319205
 30
0.0
 11
3790.978901000676
 21
-1249.443727324322
 31
0.0
  0
LINE
  5
4F6
330
1F
100
AcDbEntity
  8
0-7_金物
  6
Continuous
 62
     7
370
     9
100
AcDbLine
 10
3811.624256048242
 20
-1247.158022101212
 30
0.0
 11
3791.579284649491
 21
-1258.506233422198
 31
0.0
  0
LINE
  5
4F7
330
1F
100
AcDbEntity
  8
0-7_金物
  6
Continuous
 62
     7
370
     9
100
AcDbLine
 10
3810.977081283027
 20
-1256.926817883219
 30
0.0
 11
3792.179668298307
 21
-1267.568739520071
 31
0.0
  0
LINE
  5
4F8
330
1F
100
AcDbEntity
  8
0-7_金物
  6
Continuous
 62
     7
370
     9
100
AcDbLine
 10
3810.329906517811
 20
-1266.695613665227
 30
0.0
 11
3792.780051947125
 21
-1276.631245617945
 31
0.0
  0
LINE
  5
4F9
330
1F
100
AcDbEntity
  8
0-7_金物
  6
Continuous
 62
     7
370
     9
100
AcDbLine
 10
3809.682731752597
 20
-1276.464409447234
 30
0.0
 11
3793.380435595939
 21
-1285.693751715819
 31
0.0
  0
LINE
  5
4FA
330
1F
100
AcDbEntity
  8
0-7_金物
  6
Continuous
 62
     7
370
     9
100
AcDbLine
 10
3809.035556987384
 20
-1286.233205229244
 30
0.0
 11
3793.980819244756
 21
-1294.756257813695
 31
0.0
  0
LINE
  5
4FB
330
1F
100
AcDbEntity
  8
0-7_金物
  6
Continuous
 62
     7
370
     9
100
AcDbLine
 10
3808.388382222172
 20
-1296.00200101125
 30
0.0
 11
3794.581202893573
 21
-1303.818763911568
 31
0.0
  0
LINE
  5
4FC
330
1F
100
AcDbEntity
  8
0-7_金物
  6
Continuous
 62
     7
370
     9
100
AcDbLine
 10
3807.741207456957
 20
-1305.770796793259
 30
0.0
 11
3795.181586542387
 21
-1312.881270009444
 31
0.0
  0
LINE
  5
4FD
330
1F
100
AcDbEntity
  8
0-7_金物
  6
Continuous
 62
     7
370
     9
100
AcDbLine
 10
3807.094032691743
 20
-1315.539592575267
 30
0.0
 11
3795.781970191203
 21
-1321.943776107318
 31
0.0
  0
LINE
  5
4FE
330
1F
100
AcDbEntity
  8
0-7_金物
  6
Continuous
 62
     7
370
     9
100
AcDbLine
 10
3806.446857926529
 20
-1325.308388357274
 30
0.0
 11
3796.382353840022
 21
-1331.006282205192
 31
0.0
  0
LINE
  5
4FF
330
1F
100
AcDbEntity
  8
0-7_金物
  6
Continuous
 62
     7
370
     9
100
AcDbLine
 10
3805.799683161317
 20
-1335.077184139282
 30
0.0
 11
3796.982737488836
 21
-1340.068788303068
 31
0.0
  0
LINE
  5
500
330
1F
100
AcDbEntity
  8
0-7_金物
  6
Continuous
 62
     7
370
     9
100
AcDbLine
 10
3805.152508396102
 20
-1344.845979921289
 30
0.0
 11
3797.583121137651
 21
-1349.131294400941
 31
0.0
  0
LINE
  5
501
330
1F
100
AcDbEntity
  8
0-7_金物
  6
Continuous
 62
     7
370
     9
100
AcDbLine
 10
3804.505333630887
 20
-1354.614775703297
 30
0.0
 11
3798.183504786467
 21
-1358.193800498815
 31
0.0
  0
LINE
  5
502
330
1F
100
AcDbEntity
  8
0-7_金物
  6
Continuous
 62
     7
370
     9
100
AcDbLine
 10
3803.858158865673
 20
-1364.383571485305
 30
0.0
 11
3798.783888435285
 21
-1367.256306596691
 31
0.0
  0
LINE
  5
503
330
1F
100
AcDbEntity
  8
0-7_金物
  6
Continuous
 62
     7
370
     9
100
AcDbLine
 10
3803.210984100459
 20
-1374.152367267314
 30
0.0
 11
3799.3842720841
 21
-1376.318812694564
 31
0.0
  0
LINE
  5
504
330
1F
100
AcDbEntity
  8
0-7_金物
  6
Continuous
 62
     7
370
     9
100
AcDbLine
 10
3777.946268212515
 20
-1178.815109841912
 30
0.0
 11
3777.946268212515
 21
-1185.018457863912
 31
0.0
  0
LINE
  5
505
330
1F
100
AcDbEntity
  8
0-7_金物
  6
Continuous
 62
     7
370
     9
100
AcDbLine
 10
3824.505462725639
 20
-1185.018457863912
 30
0.0
 11
3824.505462725639
 21
-1178.815109841912
 31
0.0
  0
LINE
  5
506
330
1F
100
AcDbEntity
  8
0-7_金物
  6
Continuous
 62
     7
370
     9
100
AcDbLine
 10
3798.124191458639
 20
-1194.114713382911
 30
0.0
 11
3804.327539480639
 21
-1194.114713382911
 31
0.0
  0
LINE
  5
507
330
1F
100
AcDbEntity
  8
0-7_金物
  6
Continuous
 62
     7
370
     9
100
AcDbLine
 10
3798.124191458639
 20
-1169.718854322912
 30
0.0
 11
3804.327539480639
 21
-1169.718854322912
 31
0.0
  0
LINE
  5
508
330
1F
100
AcDbEntity
  8
0-7_金物
  6
Continuous
 62
     7
370
     9
100
AcDbLine
 10
3777.946268212515
 20
-1178.815109841912
 30
0.0
 11
3798.124191458639
 21
-1178.815109841912
 31
0.0
  0
LINE
  5
509
330
1F
100
AcDbEntity
  8
0-7_金物
  6
Continuous
 62
     7
370
     9
100
AcDbLine
 10
3804.327539480639
 20
-1178.815109841912
 30
0.0
 11
3824.505462725639
 21
-1178.815109841912
 31
0.0
  0
LINE
  5
50A
330
1F
100
AcDbEntity
  8
0-7_金物
  6
Continuous
 62
     7
370
     9
100
AcDbLine
 10
3777.946268212515
 20
-1185.018457863912
 30
0.0
 11
3798.124191458639
 21
-1185.018457863912
 31
0.0
  0
LINE
  5
50B
330
1F
100
AcDbEntity
  8
0-7_金物
  6
Continuous
 62
     7
370
     9
100
AcDbLine
 10
3804.327539480639
 20
-1185.018457863912
 30
0.0
 11
3824.505462725639
 21
-1185.018457863912
 31
0.0
  0
LINE
  5
50C
330
1F
100
AcDbEntity
  8
0-7_金物
  6
Continuous
 62
     7
370
     9
100
AcDbLine
 10
3804.327539480639
 20
-1194.114713382911
 30
0.0
 11
3804.327539480639
 21
-1185.018457863912
 31
0.0
  0
LINE
  5
50D
330
1F
100
AcDbEntity
  8
0-7_金物
  6
Continuous
 62
     7
370
     9
100
AcDbLine
 10
3804.327539480639
 20
-1178.815109841912
 30
0.0
 11
3804.327539480639
 21
-1169.718854322912
 31
0.0
  0
LINE
  5
50E
330
1F
100
AcDbEntity
  8
0-7_金物
  6
Continuous
 62
     7
370
     9
100
AcDbLine
 10
3798.124191458639
 20
-1194.114713382911
 30
0.0
 11
3798.124191458639
 21
-1185.018457863912
 31
0.0
  0
LINE
  5
50F
330
1F
100
AcDbEntity
  8
0-7_金物
  6
Continuous
 62
     7
370
     9
100
AcDbLine
 10
3798.124191458639
 20
-1178.815109841912
 30
0.0
 11
3798.124191458639
 21
-1169.718854322912
 31
0.0
  0
LINE
  5
510
330
1F
100
AcDbEntity
  8
0-7_金物
  6
Continuous
 62
     7
370
     9
100
AcDbLine
 10
3800.702655517412
 20
-1396.219184610534
 30
0.0
 11
3788.260090159459
 21
-1208.404568652913
 31
0.0
  0
LINE
  5
511
330
1F
100
AcDbEntity
  8
0-7_金物
  6
Continuous
 62
     7
370
     9
100
AcDbLine
 10
3801.709335373037
 20
-1396.819041777802
 30
0.0
 11
3814.191640779817
 21
-1208.404568652913
 31
0.0
  0
ELLIPSE
  5
512
330
1F
100
AcDbEntity
  8
0-7_金物
  6
Continuous
 62
     7
370
     9
100
AcDbEllipse
 10
3700.463149150555
 20
-1534.690348057219
 30
0.0
 11
-30.00000000000005
 21
3.673819061467138E-15
 31
0.0
210
0.0
220
0.0
230
1.0
 40
0.5773502691896267
 41
5.497787143782136
 42
7.068583470577034
  0
LINE
  5
513
330
1F
100
AcDbEntity
  8
0-7_金物
  6
Continuous
 62
     7
370
     9
100
AcDbLine
 10
3670.463149150555
 20
-1534.690348057219
 30
0.0
 11
3670.463149150555
 21
-1571.432694198967
 31
0.0
  0
LINE
  5
514
330
1F
100
AcDbEntity
  8
0-7_金物
  6
Continuous
 62
     7
370
     9
100
AcDbLine
 10
3671.485374361884
 20
-1539.17322541806
 30
0.0
 11
3671.485374361884
 21
-1575.915571559807
 31
0.0
  0
LINE
  5
515
330
1F
100
AcDbEntity
  8
0-7_金物
  6
Continuous
 62
     7
370
     9
100
AcDbLine
 10
3674.482387037022
 20
-1543.350602095064
 30
0.0
 11
3674.482387037022
 21
-1580.092948236811
 31
0.0
  0
LINE
  5
516
330
1F
100
AcDbEntity
  8
0-7_金物
  6
Continuous
 62
     7
370
     9
100
AcDbLine
 10
3679.249945714958
 20
-1546.937796771135
 30
0.0
 11
3679.249945714958
 21
-1583.680142912884
 31
0.0
  0
ELLIPSE
  5
517
330
1F
100
AcDbEntity
  8
0-7_金物
  6
Continuous
 62
     7
370
     9
100
AcDbEllipse
 10
3976.234793813309
 20
-1693.907181338126
 30
0.0
 11
-29.99999999999994
 21
-4.364184794797269E-14
 31
0.0
210
0.0
220
0.0
230
1.0
 40
0.5773502691896277
 41
0.7853981633974482
 42
2.356194490192345
  0
ELLIPSE
  5
518
330
1F
100
AcDbEntity
  8
0-7_金物
  6
Continuous
 62
     7
370
     9
100
AcDbEllipse
 10
3976.234793813309
 20
-1730.649527479874
 30
0.0
 11
-29.99999999999994
 21
-4.364184794797269E-14
 31
0.0
210
0.0
220
0.0
230
1.0
 40
0.5773502691896277
 41
0.7853981633974488
 42
2.356194490192345
  0
LINE
  5
519
330
1F
100
AcDbEntity
  8
0-7_金物
  6
Continuous
 62
     7
370
     9
100
AcDbLine
 10
3955.021590377714
 20
-1706.154630052042
 30
0.0
 11
3955.021590377714
 21
-1742.896976193789
 31
0.0
  0
LINE
  5
51A
330
1F
100
AcDbEntity
  8
0-7_金物
  6
Continuous
 62
     7
370
     9
100
AcDbLine
 10
3961.234793813309
 20
-1708.907181338126
 30
0.0
 11
3961.234793813309
 21
-1745.649527479874
 31
0.0
  0
LINE
  5
51B
330
1F
100
AcDbEntity
  8
0-7_金物
  6
Continuous
 62
     7
370
     9
100
AcDbLine
 10
3968.470222460234
 20
-1710.637507412883
 30
0.0
 11
3968.470222460234
 21
-1747.37985355463
 31
0.0
  0
LINE
  5
51C
330
1F
100
AcDbEntity
  8
0-7_金物
  6
Continuous
 62
     7
370
     9
100
AcDbLine
 10
3976.234793813309
 20
-1711.227689413815
 30
0.0
 11
3976.234793813309
 21
-1747.970035555563
 31
0.0
  0
LINE
  5
51D
330
1F
100
AcDbEntity
  8
0-7_金物
  6
Continuous
 62
     7
370
     9
100
AcDbLine
 10
3983.999365166383
 20
-1710.637507412883
 30
0.0
 11
3983.999365166383
 21
-1747.37985355463
 31
0.0
  0
LINE
  5
51E
330
1F
100
AcDbEntity
  8
0-7_金物
  6
Continuous
 62
     7
370
     9
100
AcDbLine
 10
3991.234793813309
 20
-1708.907181338126
 30
0.0
 11
3991.234793813309
 21
-1745.649527479874
 31
0.0
  0
ELLIPSE
  5
51F
330
1F
100
AcDbEntity
  8
0-7_金物
  6
Continuous
 62
     7
370
     9
100
AcDbEllipse
 10
4092.90741270909
 20
-1626.546213411589
 30
0.0
 11
-30.00000000000001
 21
3.673819061467133E-15
 31
0.0
210
0.0
220
0.0
230
1.0
 40
0.5773502691896252
 41
2.356194490192344
 42
3.92699081698724
  0
LINE
  5
520
330
1F
100
AcDbEntity
  8
0-7_金物
  6
Continuous
 62
     7
370
     9
100
AcDbLine
 10
4118.888174822622
 20
-1635.206467449433
 30
0.0
 11
4118.888174822622
 21
-1671.948813591181
 31
0.0
  0
LINE
  5
521
330
1F
100
AcDbEntity
  8
0-7_金物
  6
Continuous
 62
     7
370
     9
100
AcDbLine
 10
4121.885187497763
 20
-1631.029090772429
 30
0.0
 11
4121.885187497763
 21
-1667.771436914177
 31
0.0
  0
LINE
  5
522
330
1F
100
AcDbEntity
  8
0-7_金物
  6
Continuous
 62
     7
370
     9
100
AcDbLine
 10
4122.90741270909
 20
-1626.546213411589
 30
0.0
 11
4122.90741270909
 21
-1663.288559553336
 31
0.0
  0
LINE
  5
523
330
1F
100
AcDbEntity
  8
0-7_金物
  6
Continuous
 62
     7
370
     9
100
AcDbLine
 10
4114.120616144686
 20
-1675.536008267252
 30
0.0
 11
3997.447997248907
 21
-1742.896976193789
 31
0.0
  0
LINE
  5
524
330
1F
100
AcDbEntity
  8
0-7_金物
  6
Continuous
 62
     7
370
     9
100
AcDbLine
 10
4114.120616144686
 20
-1638.793662125504
 30
0.0
 11
3997.447997248907
 21
-1706.154630052042
 31
0.0
  0
LINE
  5
525
330
1F
100
AcDbEntity
  8
0-7_金物
  6
Continuous
 62
     7
370
     9
100
AcDbLine
 10
4114.120616144686
 20
-1638.793662125504
 30
0.0
 11
4114.120616144686
 21
-1675.536008267252
 31
0.0
  0
LINE
  5
526
330
1F
100
AcDbEntity
  8
0-7_金物
  6
Continuous
 62
     7
370
     9
100
AcDbLine
 10
3997.447997248907
 20
-1706.154630052042
 30
0.0
 11
3997.447997248907
 21
-1742.896976193789
 31
0.0
  0
ELLIPSE
  5
527
330
1F
100
AcDbEntity
  8
0-7_金物
  6
Continuous
 62
     7
370
     9
100
AcDbEllipse
 10
4008.054598966703
 20
-1626.546213411589
 30
0.0
 11
60.00000000000004
 21
0.0
 31
0.0
210
0.0
220
0.0
230
1.0
 40
0.5773502691896252
 41
5.497787143782138
 42
8.63937979737193
  0
LINE
  5
528
330
1F
100
AcDbEntity
  8
0-7_金物
  6
Continuous
 62
     7
370
     9
100
AcDbLine
 10
3877.135768046336
 20
-1516.319174986346
 30
0.0
 11
3877.135768046336
 21
-1553.061521128093
 31
0.0
  0
ELLIPSE
  5
529
330
1F
100
AcDbEntity
  8
0-7_金物
  6
Continuous
 62
     7
370
     9
100
AcDbEllipse
 10
3976.234793813309
 20
-1644.917386482462
 30
0.0
 11
59.99999999999998
 21
0.0
 31
0.0
210
0.0
220
0.0
230
1.0
 40
0.5773502691896258
 41
2.356194490192344
 42
5.497787143782136
  0
LINE
  5
52A
330
1F
100
AcDbEntity
  8
0-7_金物
  6
Continuous
 62
     7
370
     9
100
AcDbLine
 10
3986.841395531107
 20
-1651.041110839421
 30
0.0
 11
3955.021590377714
 21
-1669.412283910294
 31
0.0
  0
ELLIPSE
  5
52B
330
1F
100
AcDbEntity
  8
0-7_金物
  6
Continuous
 62
     7
370
     9
100
AcDbEllipse
 10
3700.463149150555
 20
-1571.432694198967
 30
0.0
 11
-30.00000000000001
 21
-1.699649535696902E-14
 31
0.0
210
0.0
220
0.0
230
1.0
 40
0.5773502691896268
 41
0.0
 42
0.7853981633974476
  0
ELLIPSE
  5
52C
330
1F
100
AcDbEntity
  8
0-7_金物
  6
Continuous
 62
     7
370
     9
100
AcDbEllipse
 10
4092.90741270909
 20
-1663.288559553336
 30
0.0
 11
-30.00000000000001
 21
3.673819061467133E-15
 31
0.0
210
0.0
220
0.0
230
1.0
 40
0.5773502691896252
 41
2.356194490192344
 42
3.141592653589793
  0
LINE
  5
52D
330
1F
100
AcDbEntity
  8
0-7_金物
  6
Continuous
 62
     7
370
     9
100
AcDbLine
 10
3725.920284774943
 20
-1610.625275732337
 30
0.0
 11
3679.249945714958
 21
-1583.680142912884
 31
0.0
  0
LINE
  5
52E
330
1F
100
AcDbEntity
  8
0-7_金物
  6
Continuous
 62
     7
370
     9
100
AcDbLine
 10
3955.021590377714
 20
-1706.154630052042
 30
0.0
 11
3875.472077494228
 21
-1660.226697374858
 31
0.0
  0
LINE
  5
52F
330
1F
100
AcDbEntity
  8
0-7_金物
  6
Continuous
 62
     7
370
     9
100
AcDbLine
 10
3725.298307810294
 20
-1573.523831022619
 30
0.0
 11
3679.249945714958
 21
-1546.937796771135
 31
0.0
  0
ELLIPSE
  5
530
330
1F
100
AcDbEntity
  8
0-7_金物
  6
Continuous
 62
     7
370
     9
100
AcDbEllipse
 10
3817.135768046336
 20
-1516.319174986346
 30
0.0
 11
60.00000000000006
 21
0.0
 31
0.0
210
0.0
220
0.0
230
1.0
 40
0.5773502691896251
 41
6.047146014440955
 42
6.519224599918218
  0
ELLIPSE
  5
531
330
1F
100
AcDbEntity
  8
0-7_金物
  6
Continuous
 62
     7
370
     9
100
AcDbEllipse
 10
3817.135768046336
 20
-1553.061521128093
 30
0.0
 11
60.00000000000006
 21
0.0
 31
0.0
210
0.0
220
0.0
230
1.0
 40
0.5773502691896251
 41
6.047146014440955
 42
6.519224599918218
  0
LINE
  5
532
330
1F
100
AcDbEntity
  8
0-7_金物
  6
Continuous
 62
     7
370
     9
100
AcDbLine
 10
3679.249945714958
 20
-1522.442899343304
 30
0.0
 11
3725.298307810294
 21
-1495.85686509182
 31
0.0
  0
LINE
  5
533
330
1F
100
AcDbEntity
  8
0-7_金物
  6
Continuous
 62
     7
370
     9
100
AcDbLine
 10
4114.120616144686
 20
-1614.298764697673
 30
0.0
 11
3875.472077494228
 21
-1476.514966666119
 31
0.0
  0
LINE
  5
534
330
1F
100
AcDbEntity
  8
0-7_金物
  6
Continuous
 62
     7
370
     9
100
AcDbLine
 10
3933.808386942115
 20
-1620.422489054631
 30
0.0
 11
3965.62819209551
 21
-1602.051315983757
 31
0.0
  0
LINE
  5
535
330
1F
100
AcDbEntity
  8
0-7_金物
  6
Continuous
 62
     7
370
     9
100
AcDbLine
 10
4018.661200684502
 20
-1669.412283910294
 30
0.0
 11
4050.481005837897
 21
-1651.041110839421
 31
0.0
  0
ELLIPSE
  5
536
330
1F
100
AcDbEntity
  8
0-7_金物
  6
Continuous
 62
     7
370
     9
100
AcDbEllipse
 10
4008.054598966703
 20
-1663.288559553336
 30
0.0
 11
30.00000000000003
 21
7.993605777301137E-14
 31
0.0
210
0.0
220
0.0
230
1.0
 40
0.5773502691896266
 41
0.2617993877991396
 42
2.356194490192344
  0
ELLIPSE
  5
537
330
1F
100
AcDbEntity
  8
0-7_金物
  6
Continuous
 62
     7
370
     9
100
AcDbEllipse
 10
3976.234793813309
 20
-1681.659732624211
 30
0.0
 11
29.99999999999995
 21
6.661338147750928E-14
 31
0.0
210
0.0
220
0.0
230
1.0
 40
0.5773502691896261
 41
2.356194490192344
 42
2.780225529683081
  0
LINE
  5
538
330
1F
100
AcDbEntity
  8
0-7_金物
  6
Continuous
 62
     7
370
     9
100
AcDbLine
 10
3955.021590377714
 20
-1742.896976193789
 30
0.0
 11
3875.472077494228
 21
-1696.969043516605
 31
0.0
  0
LINE
  5
539
330
1F
100
AcDbEntity
  8
0-7_金物
  6
Continuous
 62
     7
370
     9
100
AcDbLine
 10
3842.174682468005
 20
-1682.05429035103
 30
0.0
 11
3726.472912724425
 21
-1613.110290470322
 31
0.0
  0
ELLIPSE
  5
53A
330
1F
100
AcDbEntity
  8
0-7_金物
  6
Continuous
 62
     7
370
     9
100
AcDbEllipse
 10
3875.472077494228
 20
-1657.997900346305
 30
0.0
 11
23.03500218845613
 21
38.65732368100281
 31
0.0
210
0.0
220
0.0
230
0.9999999999999998
 40
0.6634139481689386
 41
2.302614718066926
 42
3.873411044861822
  0
LINE
  5
53B
330
1F
100
AcDbEntity
  8
0-7_金物
  6
Continuous
 62
     7
370
     9
100
AcDbLine
 10
3845.618449826623
 20
-1690.008555914049
 30
0.0
 11
3729.916680083047
 21
-1621.064556033342
 31
0.0
  0
LINE
  5
53C
330
1F
100
AcDbEntity
  8
0-7_金物
  6
Continuous
 62
     7
370
     9
100
AcDbLine
 10
3851.096692575339
 20
-1695.781348200237
 30
0.0
 11
3735.394922831762
 21
-1626.837348319529
 31
0.0
  0
ELLIPSE
  5
53D
330
1F
100
AcDbEntity
  8
0-7_金物
  6
Continuous
 62
     7
370
     9
100
AcDbEllipse
 10
3869.726744170834
 20
-1446.06706644598
 30
0.0
 11
3.839167031409386
 21
6.442887280167132
 31
0.0
210
0.0
220
0.0
230
1.0
 40
0.6634139481689387
 41
5.444207371656721
 42
7.015003698451618
  0
LINE
  5
53E
330
1F
100
AcDbEntity
  8
0-7_金物
  6
Continuous
 62
     7
370
     9
100
AcDbLine
 10
3873.789308323982
 20
-1439.769825136992
 30
0.0
 11
3758.087538580404
 21
-1370.825825256285
 31
0.0
  0
LINE
  5
53F
330
1F
100
AcDbEntity
  8
0-7_金物
  6
Continuous
 62
     7
370
     9
100
AcDbLine
 10
3872.599410832529
 20
-1439.236839677819
 30
0.0
 11
3756.897641088954
 21
-1370.292839797111
 31
0.0
  0
LINE
  5
540
330
1F
100
AcDbEntity
  8
0-7_金物
  6
Continuous
 62
     7
370
     9
100
AcDbLine
 10
3871.21374585539
 20
-1439.169322885411
 30
0.0
 11
3755.511976111812
 21
-1370.225323004704
 31
0.0
  0
LINE
  5
541
330
1F
100
AcDbEntity
  8
0-7_金物
  6
Continuous
 62
     7
370
     9
100
AcDbLine
 10
3731.043641133686
 20
-1380.269690182188
 30
0.0
 11
3754.024974427256
 21
-1370.62787603689
 31
0.0
  0
LINE
  5
542
330
1F
100
AcDbEntity
  8
0-7_金物
  6
Continuous
 62
     7
370
     9
100
AcDbLine
 10
3846.745410877264
 20
-1449.213690062895
 30
0.0
 11
3869.726744170834
 21
-1439.571875917598
 31
0.0
  0
LINE
  5
543
330
1F
100
AcDbEntity
  8
0-7_金物
  6
Continuous
 62
     7
370
     9
100
AcDbLine
 10
3869.726744170834
 20
-1439.571875917598
 30
0.0
 11
3754.024974427256
 21
-1370.62787603689
 31
0.0
  0
LINE
  5
544
330
1F
100
AcDbEntity
  8
0-7_金物
  6
Continuous
 62
     7
370
     9
100
AcDbLine
 10
3725.298307810294
 20
-1389.175334246896
 30
0.0
 11
3725.298307810294
 21
-1603.516621683545
 31
0.0
  0
LINE
  5
545
330
1F
100
AcDbEntity
  8
0-7_金物
  6
Continuous
 62
     7
370
     9
100
AcDbLine
 10
3841.000077553874
 20
-1458.119334127604
 30
0.0
 11
3841.000077553874
 21
-1672.460621564253
 31
0.0
  0
LINE
  5
546
330
1F
100
AcDbEntity
  8
0-7_金物
  6
Continuous
 62
     7
370
     9
100
AcDbLine
 10
3841.000077553874
 20
-1672.460621564253
 30
0.0
 11
3725.298307810294
 21
-1603.516621683545
 31
0.0
  0
ELLIPSE
  5
547
330
1F
100
AcDbEntity
  8
0-7_金物
  6
Continuous
 62
     7
370
     9
100
AcDbEllipse
 10
3846.745410877264
 20
-1455.708880591279
 30
0.0
 11
3.839167031409386
 21
6.442887280167133
 31
0.0
210
0.0
220
0.0
230
1.0
 40
0.6634139481689393
 41
0.7318183912720424
 42
2.302614718066939
  0
ELLIPSE
  5
548
330
1F
100
AcDbEntity
  8
0-7_金物
  6
Continuous
 62
     7
370
     9
100
AcDbEllipse
 10
3731.043641133686
 20
-1386.764880710572
 30
0.0
 11
3.839167031409303
 21
6.442887280167151
 31
0.0
210
0.0
220
0.0
230
0.9999999999999999
 40
0.6634139481689377
 41
0.7318183912720223
 42
2.302614718066919
  0
LINE
  5
549
330
1F
100
AcDbEntity
  8
0-7_金物
  6
Continuous
 62
     7
370
     9
100
AcDbLine
 10
3846.745410877264
 20
-1449.213690062895
 30
0.0
 11
3731.043641133686
 21
-1380.269690182188
 31
0.0
  0
LINE
  5
54A
330
1F
100
AcDbEntity
  8
0-7_金物
  6
Continuous
 62
     7
370
     9
100
AcDbLine
 10
3845.258409192707
 20
-1450.058879595781
 30
0.0
 11
3729.556639449133
 21
-1381.114879715074
 31
0.0
  0
LINE
  5
54B
330
1F
100
AcDbEntity
  8
0-7_金物
  6
Continuous
 62
     7
370
     9
100
AcDbLine
 10
3843.872744215568
 20
-1451.289107359442
 30
0.0
 11
3728.17097447199
 21
-1382.345107478733
 31
0.0
  0
LINE
  5
54C
330
1F
100
AcDbEntity
  8
0-7_金物
  6
Continuous
 62
     7
370
     9
100
AcDbLine
 10
3842.682846724115
 20
-1452.820535364831
 30
0.0
 11
3726.981076980539
 21
-1383.876535484123
 31
0.0
  0
LINE
  5
54D
330
1F
100
AcDbEntity
  8
0-7_金物
  6
Continuous
 62
     7
370
     9
100
AcDbLine
 10
3841.769806265999
 20
-1454.548799324187
 30
0.0
 11
3726.06803652242
 21
-1385.604799443479
 31
0.0
  0
LINE
  5
54E
330
1F
100
AcDbEntity
  8
0-7_金物
  6
Continuous
 62
     7
370
     9
100
AcDbLine
 10
3841.195845039562
 20
-1456.35612090477
 30
0.0
 11
3725.494075295983
 21
-1387.412121024062
 31
0.0
  0
LINE
  5
54F
330
1F
100
AcDbEntity
  8
0-7_金物
  6
Continuous
 62
     7
370
     9
100
AcDbLine
 10
3841.000077553874
 20
-1458.119334127604
 30
0.0
 11
3725.298307810294
 21
-1389.175334246896
 31
0.0
  0
LINE
  5
550
330
1F
100
AcDbEntity
  8
0-7_金物
  6
Continuous
 62
     7
370
     9
100
AcDbLine
 10
3875.472077494228
 20
-1696.969043516605
 30
0.0
 11
3875.472077494228
 21
-1443.656612909657
 31
0.0
  0
ELLIPSE
  5
551
330
1F
100
AcDbEntity
  8
0-7_金物
  6
Continuous
 62
     7
370
     9
100
AcDbEllipse
 10
3759.770307750648
 20
-1589.053900465598
 30
0.0
 11
23.03500218845609
 21
38.65732368100281
 31
0.0
210
0.0
220
0.0
230
1.0
 40
0.6634139481689381
 41
2.302614718066926
 42
3.088012881464371
  0
ELLIPSE
  5
552
330
1F
100
AcDbEntity
  8
0-7_金物
  6
Continuous
 62
     7
370
     9
100
AcDbEllipse
 10
3754.024974427256
 20
-1377.123066565273
 30
0.0
 11
3.839167031409308
 21
6.442887280167158
 31
0.0
210
0.0
220
0.0
230
0.9999999999999998
 40
0.6634139481689362
 41
6.22960553505472
 42
7.015003698451609
  0
LINE
  5
553
330
1F
100
AcDbEntity
  8
0-B_寸法
  6
Continuous
 62
   120
370
     5
100
AcDbLine
 10
3564.387617873303
 20
-1809.21277209291
 30
0.0
 11
3723.486712834886
 21
-1901.068677396805
 31
0.0
  0
LWPOLYLINE
  5
554
330
1F
100
AcDbEntity
  8
0-B_寸法
  6
Continuous
 62
     7
370
     9
100
AcDbPolyline
 90
        4
 70
     1
 43
3.0
 10
3565.887617873303
 20
-1809.21277209291
 42
0.4142135623731
 10
3564.387617873303
 20
-1807.71277209291
 42
0.4142135623731
 10
3562.887617873303
 20
-1809.21277209291
 42
0.4142135623731
 10
3564.387617873303
 20
-1810.71277209291
 42
0.4142135623731
  0
LINE
  5
555
330
1F
100
AcDbEntity
  8
0-B_寸法
  6
Continuous
 62
   120
370
     5
100
AcDbLine
 10
3564.387617873303
 20
-1809.21277209291
 30
0.0
 11
3664.249595332086
 21
-1751.557432525273
 31
0.0
  0
LINE
  5
556
330
1F
100
AcDbEntity
  8
0-B_寸法
  6
JWW_CENTER1
 62
   120
370
     5
100
AcDbLine
 10
4088.517384712571
 20
-1506.606323956785
 30
0.0
 11
3677.091497711154
 21
-1744.143170568632
 31
0.0
  0
LINE
  5
557
330
1F
100
AcDbEntity
  8
0-B_寸法
  6
JWW_CENTER1
 62
   120
370
     5
100
AcDbLine
 10
4135.333819580283
 20
-1663.288559553336
 30
0.0
 11
4311.714911453388
 21
-1765.122230426232
 31
0.0
  0
LINE
  5
558
330
1F
100
AcDbEntity
  8
0-6_扉
  6
Continuous
 62
     7
370
     9
100
AcDbLine
 10
3809.177405569681
 20
-1284.092068233643
 30
0.0
 11
3902.901842666337
 21
-1338.203897221042
 31
0.0
  0
LINE
  5
559
330
1F
100
AcDbEntity
  8
0-6_扉
  6
Continuous
 62
    40
370
    15
100
AcDbLine
 10
3989.888080976945
 20
-1480.281290679825
 30
0.0
 11
3902.901842666337
 21
-1430.059762575403
 31
0.0
  0
LINE
  5
55A
330
1F
100
AcDbEntity
  8
0-6_扉
  6
Continuous
 62
    40
370
    15
100
AcDbLine
 10
3902.901842666337
 20
-603.6282470563186
 30
0.0
 11
3902.901842666337
 21
-1430.059762575403
 31
0.0
  0
LINE
  5
55B
330
1F
100
AcDbEntity
  8
0-6_扉
  6
Continuous
 62
    40
370
    15
100
AcDbLine
 10
4793.856386961386
 20
-603.6282470563186
 30
0.0
 11
4793.856386961386
 21
-1283.090378008413
 31
0.0
  0
LINE
  5
55C
330
1F
100
AcDbEntity
  8
0-6_扉
  6
Continuous
 62
    40
370
    15
100
AcDbLine
 10
4221.099894200283
 20
-603.6282470563186
 30
0.0
 11
4221.099894200283
 21
-1613.771493284141
 31
0.0
  0
LINE
  5
55D
330
1F
100
AcDbEntity
  8
0-6_扉
  6
Continuous
 62
     7
370
     9
100
AcDbLine
 10
3702.549433901671
 20
-1222.530380087974
 30
0.0
 11
3792.641857434336
 21
-1274.545265066502
 31
0.0
  0
LINE
  5
55E
330
1F
100
AcDbEntity
  8
0-6_扉
  6
Continuous
 62
     7
370
     9
100
AcDbLine
 10
3274.557085805857
 20
-975.4288827037543
 30
0.0
 11
3480.318000652284
 21
-1094.225002279043
 31
0.0
  0
MTEXT
  5
55F
330
1F
100
AcDbEntity
  8
0-A_文字
  6
Continuous
 62
     7
370
     9
100
AcDbMText
 10
3108.054610951472
 20
-182.2801979518695
 30
0.0
 40
91.44000000000004
 41
1800.000000000001
 46
0.0
 71
     7
 72
     1
  1
{\fＭＳ ゴシック|b0|i0|c128|p49;振れ止め金具(床付け用)取り付け}
 73
     1
 44
1.0
  0
MTEXT
  5
560
330
1F
100
AcDbEntity
  8
0-A_文字
  6
Continuous
 62
     7
370
     9
100
AcDbMText
 10
3003.371558105538
 20
-385.4650800606336
 30
0.0
 40
68.57999999999997
 41
1080.0
 46
0.0
 71
     7
 72
     1
  1
{\fＭＳ ゴシック|b0|i0|c128|p49;振れ止め金具(床付け用)を}
 73
     1
 44
1.0
  0
MTEXT
  5
561
330
1F
100
AcDbEntity
  8
0-A_文字
  6
Continuous
 62
     7
370
     9
100
AcDbMText
 10
3003.37155810554
 20
-490.6819117621861
 30
0.0
 40
68.57999999999993
 41
1259.999999999999
 46
0.0
 71
     7
 72
     1
  1
{\fＭＳ ゴシック|b0|i0|c128|p49;下記のように床へ取り付けます}
 73
     1
 44
1.0
  0
MTEXT
  5
562
330
1F
100
AcDbEntity
  8
0-A_文字
  6
Continuous
 62
     7
370
     9
100
AcDbMText
 10
3532.025267736245
 20
-882.965534909895
 30
0.0
 40
68.58
 41
180.0
 46
0.0
 71
     7
 72
     1
  1
{\fＭＳ ゴシック|b0|i0|c128|p49;小壁}
 73
     1
 44
1.0
  0
MTEXT
  5
563
330
1F
100
AcDbEntity
  8
0-A_文字
  6
Continuous
 62
     7
370
     9
100
AcDbMText
 10
4372.478140580837
 20
-1071.651059036352
 30
0.0
 40
68.57999999999998
 41
270.0
 46
0.0
 71
     7
 72
     1
  1
{\fＭＳ ゴシック|b0|i0|c128|p49;中方立}
 73
     1
 44
1.0
  0
MTEXT
  5
564
330
1F
100
AcDbEntity
  8
0-A_文字
  6
Continuous
 62
     7
370
     9
100
AcDbMText
 10
3077.753670918848
 20
-2429.844841928884
 30
0.0
 40
68.57999999999998
 41
270.0
 46
0.0
 71
     7
 72
     1
  1
{\fＭＳ ゴシック|b0|i0|c128|p49;平面図}
 73
     1
 44
1.0
  0
MTEXT
  5
565
330
1F
100
AcDbEntity
  8
0-B_寸法
  6
Continuous
 62
     7
370
     9
100
AcDbMText
 10
3271.707423259062
 20
-1219.715119461854
 30
0.0
 40
68.58
 41
450.0
 46
0.0
 71
     7
 72
     1
  1
{\fＭＳ ゴシック|b0|i0|c128|p49;ビス(同梱)}
 73
     1
 44
1.0
  0
MTEXT
  5
566
330
1F
100
AcDbEntity
  8
0-B_寸法
  6
Continuous
 62
     7
370
   211
100
AcDbMText
 10
4459.95108708668
 20
-1913.23140530423
 30
0.0
 40
91.44
 41
60.0
 46
0.0
 71
     7
 72
     1
  1
{\fＭＳ ゴシック|b0|i0|c128|p49;5}
 73
     1
 44
1.0
  0
MTEXT
  5
567
330
1F
100
AcDbEntity
  8
0-B_寸法
  6
Continuous
 62
     7
370
   211
100
AcDbMText
 10
3363.486712834886
 20
-2070.509396712646
 30
0.0
 40
91.43999999999994
 41
719.9999999999995
 46
0.0
 71
     7
 72
     1
  1
{\fＭＳ ゴシック|b0|i0|c128|p49;15(中方立芯)}
 73
     1
 44
1.0
  0
MTEXT
  5
568
330
1F
100
AcDbEntity
  8
0-B_寸法
  6
Continuous
 62
     7
370
     9
100
AcDbMText
 10
4327.890959621396
 20
-2163.815648464782
 30
0.0
 40
68.58000000000015
 41
765.0000000000017
 46
0.0
 71
     7
 72
     1
  1
{\fＭＳ ゴシック|b0|i0|c128|p49;※図は左引き(L)の}
 73
     1
 44
1.0
  0
MTEXT
  5
569
330
1F
100
AcDbEntity
  8
0-B_寸法
  6
Continuous
 62
     7
370
     9
100
AcDbMText
 10
4327.890959621396
 20
-2275.301918819989
 30
0.0
 40
68.58000000000023
 41
540.0000000000017
 46
0.0
 71
     7
 72
     1
  1
{\fＭＳ ゴシック|b0|i0|c128|p49;　場合です。}
 73
     1
 44
1.0
  0
LINE
  5
56A
330
1F
100
AcDbEntity
  8
0-6_扉
  6
Continuous
 62
    40
370
    15
100
AcDbLine
 10
4221.099894200313
 20
-1613.771493284087
 30
0.0
 11
3994.235044846524
 21
-1482.791011440085
 31
0.0
  0
LINE
  5
56B
330
1F
100
AcDbEntity
  8
1-4_枠
  6
Continuous
 62
    92
370
    13
100
AcDbLine
 10
3977.801891438811
 20
-2832.675423701152
 30
0.0
 11
3977.801891438811
 21
-3282.675423701152
 31
0.0
  0
LINE
  5
56C
330
1F
100
AcDbEntity
  8
1-4_枠
  6
Continuous
 62
    92
370
    13
100
AcDbLine
 10
3977.801891438811
 20
-2832.675423701152
 30
0.0
 11
4615.301891438811
 21
-2832.675423701152
 31
0.0
  0
LINE
  5
56D
330
1F
100
AcDbEntity
  8
1-4_枠
  6
Continuous
 62
    92
370
    13
100
AcDbLine
 10
4615.301891438811
 20
-3261.462220265556
 30
0.0
 11
4615.301891438811
 21
-2832.675423701152
 31
0.0
  0
LINE
  5
56E
330
1F
100
AcDbEntity
  8
1-4_枠
  6
Continuous
 62
    92
370
    13
100
AcDbLine
 10
4594.088688003218
 20
-3282.675423701152
 30
0.0
 11
3977.801891438811
 21
-3282.675423701152
 31
0.0
  0
LINE
  5
56F
330
1F
100
AcDbEntity
  8
1-4_枠
  6
Continuous
 62
    92
370
    13
100
AcDbLine
 10
4615.301891438811
 20
-3261.462220265556
 30
0.0
 11
4594.088688003218
 21
-3282.675423701152
 31
0.0
  0
MTEXT
  5
570
330
1F
100
AcDbEntity
  8
0-A_文字
  6
Continuous
 62
     7
370
     9
100
AcDbMText
 10
4146.551891438809
 20
-2474.434382330847
 30
0.0
 40
68.58
 41
180.0
 46
0.0
 71
     7
 72
     1
  1
{\fＭＳ ゴシック|b0|i0|c128|p49;小壁}
 73
     1
 44
1.0
  0
MTEXT
  5
571
330
1F
100
AcDbEntity
  8
0-A_文字
  6
Continuous
 62
     7
370
     9
100
AcDbMText
 10
4101.551891438809
 20
-3113.385423701151
 30
0.0
 40
68.58000000000042
 41
270.0000000000017
 46
0.0
 71
     7
 72
     1
  1
{\fＭＳ ゴシック|b0|i0|c128|p49;中方立}
 73
     1
 44
1.0
  0
LINE
  5
572
330
1F
100
AcDbEntity
  8
1-4_枠
  6
JWW_CENTER1
 62
   120
370
     5
100
AcDbLine
 10
4093.895556055317
 20
-3057.675423701152
 30
0.0
 11
3577.57757552229
 21
-3057.675423701152
 31
0.0
  0
LINE
  5
573
330
1F
100
AcDbEntity
  8
1-4_枠
  6
JWW_CENTER1
 62
   120
370
     5
100
AcDbLine
 10
4900.302510038372
 20
-3057.675423701152
 30
0.0
 11
4374.247901054128
 21
-3057.675423701152
 31
0.0
  0
LINE
  5
574
330
1F
100
AcDbEntity
  8
1-B_寸法
  6
Continuous
 62
   120
370
     5
100
AcDbLine
 10
3977.801891438811
 20
-3477.771559770666
 30
0.0
 11
3693.532465520442
 21
-3477.771559770666
 31
0.0
  0
LINE
  5
575
330
1F
100
AcDbEntity
  8
1-B_寸法
  6
Continuous
 62
   120
370
     5
100
AcDbLine
 10
3977.801891438811
 20
-3477.771559770666
 30
0.0
 11
3977.801891438811
 21
-3357.675423701152
 31
0.0
  0
LWPOLYLINE
  5
576
330
1F
100
AcDbEntity
  8
1-B_寸法
  6
Continuous
 62
     7
370
     9
100
AcDbPolyline
 90
        4
 70
     1
 43
3.0
 10
3979.301891438811
 20
-3477.771559770666
 42
0.4142135623731
 10
3977.801891438811
 20
-3476.271559770666
 42
0.4142135623731
 10
3976.301891438811
 20
-3477.771559770666
 42
0.4142135623731
 10
3977.801891438811
 20
-3479.271559770666
 42
0.4142135623731
  0
MTEXT
  5
577
330
1F
100
AcDbEntity
  8
1-B_寸法
  6
Continuous
 62
     7
370
   211
100
AcDbMText
 10
3760.301891438811
 20
-3483.720999593184
 30
0.0
 40
91.44
 41
60.0
 46
0.0
 71
     7
 72
     1
  1
{\fＭＳ ゴシック|b0|i0|c128|p49;5}
 73
     1
 44
1.0
  0
LINE
  5
578
330
1F
100
AcDbEntity
  8
1-4_枠
  6
Continuous
 62
     7
370
     9
100
AcDbLine
 10
4007.801891438813
 20
-2770.222453951809
 30
0.0
 11
4007.801891438813
 21
-2832.675423701152
 31
0.0
  0
LINE
  5
579
330
1F
100
AcDbEntity
  8
1-4_枠
  6
Continuous
 62
     7
370
     9
100
AcDbLine
 10
4465.301891438811
 20
-2770.222453951809
 30
0.0
 11
4465.301891438811
 21
-2832.675423701152
 31
0.0
  0
LINE
  5
57A
330
1F
100
AcDbEntity
  8
0-A_文字
  6
Continuous
 62
   120
370
     5
100
AcDbLine
 10
3957.588519850232
 20
-2748.043923200727
 30
0.0
 11
4725.514728446333
 21
-2748.043923200727
 31
0.0
  0
LINE
  5
57B
330
1F
100
AcDbEntity
  8
1-4_枠
  6
Continuous
 62
     7
370
     9
100
AcDbLine
 10
4007.801891438813
 20
-2328.977273196831
 30
0.0
 11
4007.801891438813
 21
-2632.414847687828
 31
0.0
  0
LINE
  5
57C
330
1F
100
AcDbEntity
  8
1-4_枠
  6
Continuous
 62
     7
370
     9
100
AcDbLine
 10
4465.301891438811
 20
-2328.977273196831
 30
0.0
 11
4465.301891438811
 21
-2632.414847687828
 31
0.0
  0
LINE
  5
57D
330
1F
100
AcDbEntity
  8
0-A_文字
  6
Continuous
 62
    92
370
    13
100
AcDbLine
 10
2889.918171683582
 20
-3642.800350305703
 30
0.0
 11
5126.191050219359
 21
-3642.800350305703
 31
0.0
  0
LINE
  5
57E
330
1F
100
AcDbEntity
  8
0-A_文字
  6
Continuous
 62
    92
370
    13
100
AcDbLine
 10
2889.918171683582
 20
-3642.800350305703
 30
0.0
 11
2889.918171683582
 21
-18.00019795186955
 31
0.0
  0
LINE
  5
57F
330
1F
100
AcDbEntity
  8
0-A_文字
  6
Continuous
 62
    92
370
    13
100
AcDbLine
 10
5126.191050219359
 20
-3642.800350305703
 30
0.0
 11
5126.191050219359
 21
-18.00019795186955
 31
0.0
  0
MTEXT
  5
580
330
1F
100
AcDbEntity
  8
0-A_文字
  6
Continuous
 62
     7
370
     0
100
AcDbMText
 10
-3255.714285714286
 20
-3271.335857692797
 30
0.0
 40
78.97090909090919
 41
1140.000000000001
 46
0.0
 71
     7
 72
     1
  1
{\fＭＳ ゴシック|b0|i0|c128|p49;※(　)内寸法はハイドア}
 73
     1
 44
1.0
  0
MTEXT
  5
581
330
1F
100
AcDbEntity
  8
0-B_寸法
  6
Continuous
 62
     7
370
   211
100
AcDbMText
 10
-2861.802359540603
 20
-2161.721975261134
 30
0.0
 40
102.2684210526317
 41
1275.000000000001
 46
0.0
 71
     7
 72
     1
  1
{\fＭＳ ゴシック|b0|i0|c128|p49;ＤＨ＝1,983 (2,183)}
 11
6.123031769111886E-17
 21
1.0
 31
0.0
 73
     1
 44
1.0
  0
MTEXT
  5
582
330
1F
100
AcDbEntity
  8
0-B_寸法
  6
Continuous
 62
     7
370
   211
100
AcDbMText
 10
-2651.802359540604
 20
-2161.721975261134
 30
0.0
 40
102.2684210526317
 41
1275.000000000001
 46
0.0
 71
     7
 72
     1
  1
{\fＭＳ ゴシック|b0|i0|c128|p49;枠内＝2,005 (2,205)}
 11
6.123031769111886E-17
 21
1.0
 31
0.0
 73
     1
 44
1.0
  0
MTEXT
  5
583
330
1F
100
AcDbEntity
  8
0-B_寸法
  6
Continuous
 62
     7
370
   211
100
AcDbMText
 10
-2441.802359540604
 20
-2161.721975261134
 30
0.0
 40
102.2684210526317
 41
1275.000000000001
 46
0.0
 71
     7
 72
     1
  1
{\fＭＳ ゴシック|b0|i0|c128|p49;枠外＝2,035 (2,235)}
 11
6.123031769111886E-17
 21
1.0
 31
0.0
 73
     1
 44
1.0
  0
MTEXT
  5
584
330
1F
100
AcDbEntity
  8
F-A_文字
  6
Continuous
 62
     7
370
     0
100
AcDbMText
 10
-5087.628710189611
 20
-4045.254708805664
 30
0.0
 40
79.49045454545454
 41
2295.0
 46
0.0
 71
     7
 72
     1
  1
{\fＭＳ ゴシック|b0|i0|c128|p49;ドレタス　片引き戸　上吊りタイプ　固定枠90巾}
 73
     1
 44
1.0
  0
LWPOLYLINE
  5
585
330
1F
100
AcDbEntity
  8
0-B_寸法
  6
Continuous
 62
     7
370
     9
100
AcDbPolyline
 90
        4
 70
     1
 43
3.0
 10
-1636.16812297497
 20
2438.999683277028
 42
0.4142135623731
 10
-1637.66812297497
 20
2440.499683277027
 42
0.4142135623731
 10
-1639.16812297497
 20
2438.999683277028
 42
0.4142135623731
 10
-1637.66812297497
 20
2437.499683277028
 42
0.4142135623731
  0
LWPOLYLINE
  5
586
330
1F
100
AcDbEntity
  8
0-B_寸法
  6
Continuous
 62
     7
370
     9
100
AcDbPolyline
 90
        4
 70
     1
 43
3.0
 10
-1636.16812297497
 20
2552.999683277028
 42
0.4142135623731
 10
-1637.66812297497
 20
2554.499683277028
 42
0.4142135623731
 10
-1639.16812297497
 20
2552.999683277028
 42
0.4142135623731
 10
-1637.66812297497
 20
2551.499683277028
 42
0.4142135623731
  0
LWPOLYLINE
  5
587
330
1F
100
AcDbEntity
  8
0-B_寸法
  6
Continuous
 62
     7
370
     9
100
AcDbPolyline
 90
        4
 70
     1
 43
3.0
 10
-3781.302359540603
 20
-1419.000324800451
 42
0.4142135623731
 10
-3782.802359540603
 20
-1417.500324800451
 42
0.4142135623731
 10
-3784.302359540603
 20
-1419.000324800451
 42
0.4142135623731
 10
-3782.802359540603
 20
-1420.500324800451
 42
0.4142135623731
  0
LWPOLYLINE
  5
588
330
1F
100
AcDbEntity
  8
0-B_寸法
  6
Continuous
 62
     7
370
     9
100
AcDbPolyline
 90
        4
 70
     1
 43
3.0
 10
-3895.302359540603
 20
-1419.000324800451
 42
0.4142135623731
 10
-3896.802359540604
 20
-1417.500324800451
 42
0.4142135623731
 10
-3898.302359540604
 20
-1419.000324800451
 42
0.4142135623731
 10
-3896.802359540604
 20
-1420.500324800451
 42
0.4142135623731
  0
MTEXT
  5
589
330
1F
100
AcDbEntity
  8
F-A_文字
  6
Continuous
 62
     7
370
     0
100
AcDbMText
 10
4889.917891251784
 20
-3945.570773120549
 30
0.0
 40
78.86699999999999
 41
517.5
 46
0.0
 71
     7
 72
     1
  1
{\fＭＳ ゴシック|b0|i0|c128|p49;2022.04.01}
 73
     1
 44
1.0
  0
LINE
  5
58A
330
1F
100
AcDbEntity
  8
0-1_通り芯
  6
JWW_CENTER1
 62
   120
370
     5
100
AcDbLine
 10
-4586.802359540608
 20
-153.000404213966
 30
0.0
 11
-2312.802359540602
 21
-153.000404213966
 31
0.0
  0
LINE
  5
58B
330
1F
100
AcDbEntity
  8
0-1_通り芯
  6
JWW_CENTER1
 62
   120
370
     5
100
AcDbLine
 10
-3896.802359540604
 20
-2965.624739691795
 30
0.0
 11
-3896.802359540604
 21
194.9998020481414
 31
0.0
  0
LINE
  5
58C
330
1F
100
AcDbEntity
  8
0-1_通り芯
  6
JWW_CENTER1
 62
   120
370
     5
100
AcDbLine
 10
-3782.802359540603
 20
-2781.000404213941
 30
0.0
 11
-3782.802359540603
 21
-237.0001979518818
 31
0.0
  0
LINE
  5
58D
330
1F
100
AcDbEntity
  8
0-1_通り芯
  6
JWW_CENTER1
 62
   120
370
     5
100
AcDbLine
 10
-2312.198112224899
 20
2552.999683277028
 30
0.0
 11
2332.034455741021
 21
2552.999683277028
 31
0.0
  0
MTEXT
  5
58E
330
1F
100
AcDbEntity
  8
0-B_寸法
  6
Continuous
 62
     7
370
     0
100
AcDbMText
 10
-1952.668122974972
 20
2287.948238234069
 30
0.0
 40
91.44
 41
120.0
 46
0.0
 71
     7
 72
     1
  1
{\fＭＳ ゴシック|b0|i0|c128|p49;90}
 11
6.123031769111886E-17
 21
1.0
 31
0.0
 73
     1
 44
1.0
  0
MTEXT
  5
58F
330
1F
100
AcDbEntity
  8
0-B_寸法
  6
Continuous
 62
     7
370
   211
100
AcDbMText
 10
-1652.66812297497
 20
2288.827183277027
 30
0.0
 40
97.15499999999999
 41
127.5
 46
0.0
 71
     7
 72
     1
  1
{\fＭＳ ゴシック|b0|i0|c128|p49;19}
 11
6.123031769111886E-17
 21
1.0
 31
0.0
 73
     1
 44
1.0
  0
LINE
  5
590
330
1F
100
AcDbEntity
  8
0-B_寸法
  6
Continuous
 62
   120
370
     5
100
AcDbLine
 10
-1637.66812297497
 20
2306.999683277027
 30
0.0
 11
-1637.66812297497
 21
2552.999683277028
 31
0.0
  0
LINE
  5
591
330
1F
100
AcDbEntity
  8
0-6_扉
  6
Continuous
 62
   200
370
    20
100
AcDbLine
 10
-3872.802359540608
 20
-414.0001973194748
 30
0.0
 11
-3872.802359540608
 21
-1479.000197951876
 31
0.0
  0
MTEXT
  5
592
330
1F
100
AcDbEntity
  8
0-B_寸法
  6
Continuous
 62
     7
370
   211
100
AcDbMText
 10
-4035.552359540604
 20
-1415.422824800451
 30
0.0
 40
97.15499999999999
 41
127.5
 46
0.0
 71
     7
 72
     1
  1
{\fＭＳ ゴシック|b0|i0|c128|p49;19}
 73
     1
 44
1.0
  0
LINE
  5
593
330
1F
100
AcDbEntity
  8
0-B_寸法
  6
Continuous
 62
   120
370
     5
100
AcDbLine
 10
-3782.802359540603
 20
-1419.000324800451
 30
0.0
 11
-4028.802359540604
 21
-1419.000324800451
 31
0.0
  0
ENDSEC
  0
SECTION
  2
OBJECTS
  0
DICTIONARY
  5
C
330
0
100
AcDbDictionary
281
     1
  3
ACAD_GROUP
350
D
  3
ACAD_LAYOUT
350
1A
  3
ACAD_MATERIAL
350
3B
  3
ACAD_MLEADERSTYLE
350
595
  3
ACAD_MLINESTYLE
350
17
  3
ACAD_PLOTSETTINGS
350
19
  3
ACAD_PLOTSTYLENAME
350
E
  3
ACAD_TABLESTYLE
350
594
  3
ACAD_VISUALSTYLE
350
2A
  0
DICTIONARY
  5
D
102
{ACAD_REACTORS
330
C
102
}
330
C
100
AcDbDictionary
281
     1
  0
DICTIONARY
  5
1A
102
{ACAD_REACTORS
330
C
102
}
330
C
100
AcDbDictionary
281
     1
  3
Layout1
350
1E
  3
Layout2
350
26
  3
Model
350
22
  0
DICTIONARY
  5
3B
102
{ACAD_REACTORS
330
C
102
}
330
C
100
AcDbDictionary
281
     1
  3
ByBlock
350
3D
  3
ByLayer
350
3C
  3
Global
350
3E
  0
DICTIONARY
  5
595
102
{ACAD_REACTORS
330
C
102
}
330
C
100
AcDbDictionary
281
     1
  0
DICTIONARY
  5
17
102
{ACAD_REACTORS
330
C
102
}
330
C
100
AcDbDictionary
281
     1
  3
Standard
350
18
  0
DICTIONARY
  5
19
102
{ACAD_REACTORS
330
C
102
}
330
C
100
AcDbDictionary
281
     1
  0
ACDBDICTIONARYWDFLT
  5
E
102
{ACAD_REACTORS
330
C
102
}
330
C
100
AcDbDictionary
281
     1
  3
Normal
350
F
100
AcDbDictionaryWithDefault
340
F
  0
DICTIONARY
  5
594
102
{ACAD_REACTORS
330
C
102
}
330
C
100
AcDbDictionary
281
     1
  0
DICTIONARY
  5
2A
102
{ACAD_REACTORS
330
C
102
}
330
C
100
AcDbDictionary
281
     1
  3
2dWireframe
350
2F
  3
3D Hidden
350
31
  3
3dWireframe
350
30
  3
Basic
350
32
  3
Brighten
350
36
  3
ColorChange
350
3A
  3
Conceptual
350
34
  3
Dim
350
35
  3
Facepattern
350
39
  3
Flat
350
2B
  3
FlatWithEdges
350
2C
  3
Gouraud
350
2D
  3
GouraudWithEdges
350
2E
  3
Linepattern
350
38
  3
Realistic
350
33
  3
Thicken
350
37
  0
LAYOUT
  5
1E
102
{ACAD_REACTORS
330
1A
102
}
330
1A
100
AcDbPlotSettings
  1

  2
none_device
  4

  6

 40
0.0
 41
0.0
 42
0.0
 43
0.0
 44
0.0
 45
0.0
 46
0.0
 47
0.0
 48
0.0
 49
0.0
140
0.0
141
0.0
142
1.0
143
1.0
 70
   688
 72
     0
 73
     0
 74
     5
  7

 75
    16
 76
     0
 77
     5
 78
   300
147
1.0
148
0.0
149
0.0
100
AcDbLayout
  1
Layout1
 70
     1
 71
     1
 10
0.0
 20
0.0
 11
420.0
 21
297.0
 12
0.0
 22
0.0
 32
0.0
 14
1.000000000000000E+20
 24
1.000000000000000E+20
 34
1.000000000000000E+20
 15
-1.000000000000000E+20
 25
-1.000000000000000E+20
 35
-1.000000000000000E+20
146
0.0
 13
0.0
 23
0.0
 33
0.0
 16
1.0
 26
0.0
 36
0.0
 17
0.0
 27
1.0
 37
0.0
 76
     0
330
1B
  0
LAYOUT
  5
26
102
{ACAD_REACTORS
330
1A
102
}
330
1A
100
AcDbPlotSettings
  1

  2
none_device
  4

  6

 40
0.0
 41
0.0
 42
0.0
 43
0.0
 44
0.0
 45
0.0
 46
0.0
 47
0.0
 48
0.0
 49
0.0
140
0.0
141
0.0
142
1.0
143
1.0
 70
   688
 72
     0
 73
     0
 74
     5
  7

 75
    16
 76
     0
 77
     5
 78
   300
147
1.0
148
0.0
149
0.0
100
AcDbLayout
  1
Layout2
 70
     1
 71
     2
 10
0.0
 20
0.0
 11
0.0
 21
0.0
 12
0.0
 22
0.0
 32
0.0
 14
0.0
 24
0.0
 34
0.0
 15
0.0
 25
0.0
 35
0.0
146
0.0
 13
0.0
 23
0.0
 33
0.0
 16
1.0
 26
0.0
 36
0.0
 17
0.0
 27
1.0
 37
0.0
 76
     0
330
23
  0
LAYOUT
  5
22
102
{ACAD_REACTORS
330
1A
102
}
330
1A
100
AcDbPlotSettings
  1

  2
none_device
  4

  6

 40
0.0
 41
0.0
 42
0.0
 43
0.0
 44
0.0
 45
0.0
 46
0.0
 47
0.0
 48
0.0
 49
0.0
140
0.0
141
0.0
142
1.0
143
1.0
 70
  1712
 72
     0
 73
     0
 74
     0
  7

 75
     0
 76
     0
 77
     5
 78
   300
147
1.0
148
0.0
149
0.0
100
AcDbLayout
  1
Model
 70
     1
 71
     0
 10
-8910.0
 20
-6300.0
 11
8910.0
 21
6300.0
 12
0.0
 22
0.0
 32
0.0
 14
-8910.0
 24
-6300.0
 34
0.0
 15
8910.0
 25
6300.0
 35
0.0
146
0.0
 13
0.0
 23
0.0
 33
0.0
 16
1.0
 26
0.0
 36
0.0
 17
0.0
 27
1.0
 37
0.0
 76
     0
330
1F
331
29
  0
MATERIAL
  5
3D
102
{ACAD_REACTORS
330
3B
102
}
330
3B
100
AcDbMaterial
  1
ByBlock
 72
     1
 94
      127
  0
MATERIAL
  5
3C
102
{ACAD_REACTORS
330
3B
102
}
330
3B
100
AcDbMaterial
  1
ByLayer
 72
     1
 94
      127
  0
MATERIAL
  5
3E
102
{ACAD_REACTORS
330
3B
102
}
330
3B
100
AcDbMaterial
  1
Global
 72
     1
 94
      127
  0
MLINESTYLE
  5
18
102
{ACAD_REACTORS
330
17
102
}
330
17
100
AcDbMlineStyle
  2
Standard
 70
     0
  3

 62
   256
 51
90.0
 52
90.0
 71
     2
 49
0.5
 62
   256
  6
BYLAYER
 49
-0.5
 62
   256
  6
BYLAYER
  0
ACDBPLACEHOLDER
  5
F
102
{ACAD_REACTORS
330
E
102
}
330
E
  0
VISUALSTYLE
  5
2F
102
{ACAD_REACTORS
330
2A
102
}
330
2A
100
AcDbVisualStyle
  2
2dWireframe
 70
     4
177
     2
291
     0
 71
     0
176
     1
 72
     2
176
     1
 73
     0
176
     1
 90
        0
176
     1
 40
-0.6
176
     1
 41
-30.0
176
     1
 62
     5
 63
     7
421
 16777215
176
     1
 74
     1
176
     1
 91
        4
176
     1
 64
     7
176
     1
 65
   257
176
     1
 75
     1
176
     1
175
     1
176
     1
 42
1.0
176
     1
 92
        0
176
     1
 66
   257
176
     1
 43
1.0
176
     1
 76
     1
176
     1
 77
     6
176
     1
 78
     2
176
     1
 67
     7
176
     1
 79
     5
176
     1
170
     0
176
     1
171
     0
176
     1
290
     0
176
     1
 93
        1
176
     1
 44
0.0
176
     1
173
     0
176
     1
  0
VISUALSTYLE
  5
31
102
{ACAD_REACTORS
330
2A
102
}
330
2A
100
AcDbVisualStyle
  2
3D Hidden
 70
     6
177
     2
291
     0
 71
     1
176
     1
 72
     2
176
     1
 73
     2
176
     1
 90
        0
176
     1
 40
-0.6
176
     1
 41
-30.0
176
     1
 62
     5
 63
     7
421
 16777215
176
     1
 74
     2
176
     1
 91
        2
176
     1
 64
     7
176
     1
 65
   257
176
     1
 75
     2
176
     1
175
     1
176
     1
 42
40.0
176
     1
 92
        0
176
     1
 66
   257
176
     1
 43
1.0
176
     1
 76
     1
176
     1
 77
     6
176
     1
 78
     2
176
     1
 67
     7
176
     1
 79
     3
176
     1
170
     0
176
     1
171
     0
176
     1
290
     0
176
     1
 93
        1
176
     1
 44
0.0
176
     1
173
     0
176
     1
  0
VISUALSTYLE
  5
30
102
{ACAD_REACTORS
330
2A
102
}
330
2A
100
AcDbVisualStyle
  2
3dWireframe
 70
     5
177
     2
291
     0
 71
     0
176
     1
 72
     2
176
     1
 73
     0
176
     1
 90
        0
176
     1
 40
-0.6
176
     1
 41
-30.0
176
     1
 62
     5
 63
     7
421
 16777215
176
     1
 74
     1
176
     1
 91
        4
176
     1
 64
     7
176
     1
 65
   257
176
     1
 75
     1
176
     1
175
     1
176
     1
 42
1.0
176
     1
 92
        0
176
     1
 66
   257
176
     1
 43
1.0
176
     1
 76
     1
176
     1
 77
     6
176
     1
 78
     2
176
     1
 67
     7
176
     1
 79
     5
176
     1
170
     0
176
     1
171
     0
176
     1
290
     0
176
     1
 93
        1
176
     1
 44
0.0
176
     1
173
     0
176
     1
  0
VISUALSTYLE
  5
32
102
{ACAD_REACTORS
330
2A
102
}
330
2A
100
AcDbVisualStyle
  2
Basic
 70
     7
177
     2
291
     1
 71
     1
176
     1
 72
     0
176
     1
 73
     1
176
     1
 90
        0
176
     1
 40
-0.6
176
     1
 41
-30.0
176
     1
 62
     5
 63
     7
421
 16777215
176
     1
 74
     0
176
     1
 91
        4
176
     1
 64
     7
176
     1
 65
   257
176
     1
 75
     1
176
     1
175
     1
176
     1
 42
1.0
176
     1
 92
        8
176
     1
 66
     7
176
     1
 43
1.0
176
     1
 76
     1
176
     1
 77
     6
176
     1
 78
     2
176
     1
 67
     7
176
     1
 79
     5
176
     1
170
     0
176
     1
171
     0
176
     1
290
     0
176
     1
 93
        1
176
     1
 44
0.0
176
     1
173
     0
176
     1
  0
VISUALSTYLE
  5
36
102
{ACAD_REACTORS
330
2A
102
}
330
2A
100
AcDbVisualStyle
  2
Brighten
 70
    12
177
     2
291
     1
 71
     2
176
     1
 72
     2
176
     1
 73
     0
176
     1
 90
        0
176
     1
 40
-0.6
176
     1
 41
-30.0
176
     1
 62
     5
 63
     7
421
 16777215
176
     1
 74
     1
176
     1
 91
        4
176
     1
 64
     7
176
     1
 65
   257
176
     1
 75
     1
176
     1
175
     1
176
     1
 42
1.0
176
     1
 92
        8
176
     1
 66
     7
176
     1
 43
1.0
176
     1
 76
     1
176
     1
 77
     6
176
     1
 78
     2
176
     1
 67
     7
176
     1
 79
     5
176
     1
170
     0
176
     1
171
     0
176
     1
290
     0
176
     1
 93
        1
176
     1
 44
50.0
176
     1
173
     0
176
     1
  0
VISUALSTYLE
  5
3A
102
{ACAD_REACTORS
330
2A
102
}
330
2A
100
AcDbVisualStyle
  2
ColorChange
 70
    16
177
     2
291
     1
 71
     2
176
     1
 72
     2
176
     1
 73
     3
176
     1
 90
        0
176
     1
 40
-0.6
176
     1
 41
-30.0
176
     1
 62
     5
 63
     8
421
  8421504
176
     1
 74
     1
176
     1
 91
        4
176
     1
 64
     7
176
     1
 65
   257
176
     1
 75
     1
176
     1
175
     1
176
     1
 42
1.0
176
     1
 92
        8
176
     1
 66
     8
424
  8421504
176
     1
 43
1.0
176
     1
 76
     1
176
     1
 77
     6
176
     1
 78
     2
176
     1
 67
     7
176
     1
 79
     5
176
     1
170
     0
176
     1
171
     0
176
     1
290
     0
176
     1
 93
        1
176
     1
 44
0.0
176
     1
173
     0
176
     1
  0
VISUALSTYLE
  5
34
102
{ACAD_REACTORS
330
2A
102
}
330
2A
100
AcDbVisualStyle
  2
Conceptual
 70
     9
177
     2
291
     0
 71
     3
176
     1
 72
     2
176
     1
 73
     0
176
     1
 90
        0
176
     1
 40
-0.6
176
     1
 41
-30.0
176
     1
 62
     5
 63
     7
421
 16777215
176
     1
 74
     2
176
     1
 91
        2
176
     1
 64
     7
176
     1
 65
   257
176
     1
 75
     1
176
     1
175
     1
176
     1
 42
40.0
176
     1
 92
        8
176
     1
 66
     7
176
     1
 43
1.0
176
     1
 76
     1
176
     1
 77
     6
176
     1
 78
     2
176
     1
 67
     7
176
     1
 79
     3
176
     1
170
     0
176
     1
171
     0
176
     1
290
     0
176
     1
 93
        1
176
     1
 44
0.0
176
     1
173
     0
176
     1
  0
VISUALSTYLE
  5
35
102
{ACAD_REACTORS
330
2A
102
}
330
2A
100
AcDbVisualStyle
  2
Dim
 70
    11
177
     2
291
     1
 71
     2
176
     1
 72
     2
176
     1
 73
     0
176
     1
 90
        0
176
     1
 40
-0.6
176
     1
 41
-30.0
176
     1
 62
     5
 63
     7
421
 16777215
176
     1
 74
     1
176
     1
 91
        4
176
     1
 64
     7
176
     1
 65
   257
176
     1
 75
     1
176
     1
175
     1
176
     1
 42
1.0
176
     1
 92
        8
176
     1
 66
     7
176
     1
 43
1.0
176
     1
 76
     1
176
     1
 77
     6
176
     1
 78
     2
176
     1
 67
     7
176
     1
 79
     5
176
     1
170
     0
176
     1
171
     0
176
     1
290
     0
176
     1
 93
        1
176
     1
 44
-50.0
176
     1
173
     0
176
     1
  0
VISUALSTYLE
  5
39
102
{ACAD_REACTORS
330
2A
102
}
330
2A
100
AcDbVisualStyle
  2
Facepattern
 70
    15
177
     2
291
     1
 71
     2
176
     1
 72
     2
176
     1
 73
     0
176
     1
 90
        0
176
     1
 40
-0.6
176
     1
 41
-30.0
176
     1
 62
     5
 63
     7
421
 16777215
176
     1
 74
     1
176
     1
 91
        4
176
     1
 64
     7
176
     1
 65
   257
176
     1
 75
     1
176
     1
175
     1
176
     1
 42
1.0
176
     1
 92
        8
176
     1
 66
     7
176
     1
 43
1.0
176
     1
 76
     1
176
     1
 77
     6
176
     1
 78
     2
176
     1
 67
     7
176
     1
 79
     5
176
     1
170
     0
176
     1
171
     0
176
     1
290
     0
176
     1
 93
        1
176
     1
 44
0.0
176
     1
173
     0
176
     1
  0
VISUALSTYLE
  5
2B
102
{ACAD_REACTORS
330
2A
102
}
330
2A
100
AcDbVisualStyle
  2
Flat
 70
     0
177
     2
291
     1
 71
     2
176
     1
 72
     1
176
     1
 73
     1
176
     1
 90
        2
176
     1
 40
-0.6
176
     1
 41
30.0
176
     1
 62
     5
 63
     7
421
 16777215
176
     1
 74
     0
176
     1
 91
        4
176
     1
 64
     7
176
     1
 65
   257
176
     1
 75
     1
176
     1
175
     1
176
     1
 42
1.0
176
     1
 92
        8
176
     1
 66
     7
176
     1
 43
1.0
176
     1
 76
     1
176
     1
 77
     6
176
     1
 78
     2
176
     1
 67
     7
176
     1
 79
     5
176
     1
170
     0
176
     1
171
     0
176
     1
290
     0
176
     1
 93
       13
176
     1
 44
0.0
176
     1
173
     0
176
     1
  0
VISUALSTYLE
  5
2C
102
{ACAD_REACTORS
330
2A
102
}
330
2A
100
AcDbVisualStyle
  2
FlatWithEdges
 70
     1
177
     2
291
     1
 71
     2
176
     1
 72
     1
176
     1
 73
     1
176
     1
 90
        2
176
     1
 40
-0.6
176
     1
 41
30.0
176
     1
 62
     5
 63
     7
421
 16777215
176
     1
 74
     1
176
     1
 91
        4
176
     1
 64
     7
176
     1
 65
   257
176
     1
 75
     1
176
     1
175
     1
176
     1
 42
1.0
176
     1
 92
        0
176
     1
 66
   257
176
     1
 43
1.0
176
     1
 76
     1
176
     1
 77
     6
176
     1
 78
     2
176
     1
 67
     7
176
     1
 79
     5
176
     1
170
     0
176
     1
171
     0
176
     1
290
     0
176
     1
 93
       13
176
     1
 44
0.0
176
     1
173
     0
176
     1
  0
VISUALSTYLE
  5
2D
102
{ACAD_REACTORS
330
2A
102
}
330
2A
100
AcDbVisualStyle
  2
Gouraud
 70
     2
177
     2
291
     1
 71
     2
176
     1
 72
     2
176
     1
 73
     1
176
     1
 90
        2
176
     1
 40
-0.6
176
     1
 41
30.0
176
     1
 62
     5
 63
     7
421
 16777215
176
     1
 74
     0
176
     1
 91
        4
176
     1
 64
     7
176
     1
 65
   257
176
     1
 75
     1
176
     1
175
     1
176
     1
 42
1.0
176
     1
 92
        0
176
     1
 66
     7
176
     1
 43
1.0
176
     1
 76
     1
176
     1
 77
     6
176
     1
 78
     2
176
     1
 67
     7
176
     1
 79
     5
176
     1
170
     0
176
     1
171
     0
176
     1
290
     0
176
     1
 93
       13
176
     1
 44
0.0
176
     1
173
     0
176
     1
  0
VISUALSTYLE
  5
2E
102
{ACAD_REACTORS
330
2A
102
}
330
2A
100
AcDbVisualStyle
  2
GouraudWithEdges
 70
     3
177
     2
291
     1
 71
     2
176
     1
 72
     2
176
     1
 73
     1
176
     1
 90
        2
176
     1
 40
-0.6
176
     1
 41
30.0
176
     1
 62
     5
 63
     7
421
 16777215
176
     1
 74
     1
176
     1
 91
        4
176
     1
 64
     7
176
     1
 65
   257
176
     1
 75
     1
176
     1
175
     1
176
     1
 42
1.0
176
     1
 92
        0
176
     1
 66
   257
176
     1
 43
1.0
176
     1
 76
     1
176
     1
 77
     6
176
     1
 78
     2
176
     1
 67
     7
176
     1
 79
     5
176
     1
170
     0
176
     1
171
     0
176
     1
290
     0
176
     1
 93
       13
176
     1
 44
0.0
176
     1
173
     0
176
     1
  0
VISUALSTYLE
  5
38
102
{ACAD_REACTORS
330
2A
102
}
330
2A
100
AcDbVisualStyle
  2
Linepattern
 70
    14
177
     2
291
     1
 71
     2
176
     1
 72
     2
176
     1
 73
     0
176
     1
 90
        0
176
     1
 40
-0.6
176
     1
 41
-30.0
176
     1
 62
     5
 63
     7
421
 16777215
176
     1
 74
     1
176
     1
 91
        4
176
     1
 64
     7
176
     1
 65
   257
176
     1
 75
     7
176
     1
175
     7
176
     1
 42
1.0
176
     1
 92
        8
176
     1
 66
     7
176
     1
 43
1.0
176
     1
 76
     1
176
     1
 77
     6
176
     1
 78
     2
176
     1
 67
     7
176
     1
 79
     5
176
     1
170
     0
176
     1
171
     0
176
     1
290
     0
176
     1
 93
        1
176
     1
 44
0.0
176
     1
173
     0
176
     1
  0
VISUALSTYLE
  5
33
102
{ACAD_REACTORS
330
2A
102
}
330
2A
100
AcDbVisualStyle
  2
Realistic
 70
     8
177
     2
291
     0
 71
     2
176
     1
 72
     2
176
     1
 73
     0
176
     1
 90
        0
176
     1
 40
-0.6
176
     1
 41
-30.0
176
     1
 62
     5
 63
     7
421
 16777215
176
     1
 74
     1
176
     1
 91
        0
176
     1
 64
     7
176
     1
 65
   257
176
     1
 75
     1
176
     1
175
     1
176
     1
 42
1.0
176
     1
 92
        8
176
     1
 66
     8
424
  7895160
176
     1
 43
1.0
176
     1
 76
     1
176
     1
 77
     6
176
     1
 78
     2
176
     1
 67
     7
176
     1
 79
     5
176
     1
170
     0
176
     1
171
     0
176
     1
290
     0
176
     1
 93
       13
176
     1
 44
0.0
176
     1
173
     0
176
     1
  0
VISUALSTYLE
  5
37
102
{ACAD_REACTORS
330
2A
102
}
330
2A
100
AcDbVisualStyle
  2
Thicken
 70
    13
177
     2
291
     1
 71
     2
176
     1
 72
     2
176
     1
 73
     0
176
     1
 90
        0
176
     1
 40
-0.6
176
     1
 41
-30.0
176
     1
 62
     5
 63
     7
421
 16777215
176
     1
 74
     1
176
     1
 91
        4
176
     1
 64
     7
176
     1
 65
   257
176
     1
 75
     1
176
     1
175
     1
176
     1
 42
1.0
176
     1
 92
       12
176
     1
 66
     7
176
     1
 43
1.0
176
     1
 76
     1
176
     1
 77
     6
176
     1
 78
     2
176
     1
 67
     7
176
     1
 79
     5
176
     1
170
     0
176
     1
171
     0
176
     1
290
     0
176
     1
 93
        1
176
     1
 44
0.0
176
     1
173
     0
176
     1
  0
ENDSEC
  0
EOF
