  0
SECTION
  2
HEADER
  9
$ACADVER
  1
AC1024
  9
$ACADMAINTVER
 70
     6
  9
$DWGCODEPAGE
  3
ANSI_932
  9
$INSBASE
 10
0.0
 20
0.0
 30
0.0
  9
$EXTMIN
 10
-8910.0
 20
-6300.0
 30
0.0
  9
$EXTMAX
 10
8910.0
 20
6300.0
 30
0.0
  9
$LIMMIN
 10
-8910.0
 20
-6300.0
  9
$LIMMAX
 10
8910.0
 20
6300.0
  9
$ORTHOMODE
 70
     0
  9
$REGENMODE
 70
     1
  9
$FILLMODE
 70
     1
  9
$QTEXTMODE
 70
     0
  9
$MIRRTEXT
 70
     1
  9
$LTSCALE
 40
30.0
  9
$ATTMODE
 70
     1
  9
$TEXTSIZE
 40
2.5
  9
$TRACEWID
 40
1.0
  9
$TEXTSTYLE
  7
Standard
  9
$CLAYER
  8
0
  9
$CELTYPE
  6
ByLayer
  9
$CECOLOR
 62
   256
  9
$CELTSCALE
 40
1.0
  9
$DISPSILH
 70
     0
  9
$DIMSCALE
 40
1.0
  9
$DIMASZ
 40
2.5
  9
$DIMEXO
 40
0.625
  9
$DIMDLI
 40
3.75
  9
$DIMRND
 40
0.0
  9
$DIMDLE
 40
0.0
  9
$DIMEXE
 40
1.25
  9
$DIMTP
 40
0.0
  9
$DIMTM
 40
0.0
  9
$DIMTXT
 40
2.5
  9
$DIMCEN
 40
2.5
  9
$DIMTSZ
 40
0.0
  9
$DIMTOL
 70
     0
  9
$DIMLIM
 70
     0
  9
$DIMTIH
 70
     0
  9
$DIMTOH
 70
     0
  9
$DIMSE1
 70
     0
  9
$DIMSE2
 70
     0
  9
$DIMTAD
 70
     1
  9
$DIMZIN
 70
     8
  9
$DIMBLK
  1

  9
$DIMASO
 70
     1
  9
$DIMSHO
 70
     1
  9
$DIMPOST
  1

  9
$DIMAPOST
  1

  9
$DIMALT
 70
     0
  9
$DIMALTD
 70
     3
  9
$DIMALTF
 40
0.03937007874016
  9
$DIMLFAC
 40
1.0
  9
$DIMTOFL
 70
     1
  9
$DIMTVP
 40
0.0
  9
$DIMTIX
 70
     0
  9
$DIMSOXD
 70
     0
  9
$DIMSAH
 70
     0
  9
$DIMBLK1
  1

  9
$DIMBLK2
  1

  9
$DIMSTYLE
  2
ISO-25
  9
$DIMCLRD
 70
     0
  9
$DIMCLRE
 70
     0
  9
$DIMCLRT
 70
     0
  9
$DIMTFAC
 40
1.0
  9
$DIMGAP
 40
0.625
  9
$DIMJUST
 70
     0
  9
$DIMSD1
 70
     0
  9
$DIMSD2
 70
     0
  9
$DIMTOLJ
 70
     0
  9
$DIMTZIN
 70
     8
  9
$DIMALTZ
 70
     0
  9
$DIMALTTZ
 70
     0
  9
$DIMUPT
 70
     0
  9
$DIMDEC
 70
     2
  9
$DIMTDEC
 70
     2
  9
$DIMALTU
 70
     2
  9
$DIMALTTD
 70
     3
  9
$DIMTXSTY
  7
Standard
  9
$DIMAUNIT
 70
     0
  9
$DIMADEC
 70
     0
  9
$DIMALTRND
 40
0.0
  9
$DIMAZIN
 70
     0
  9
$DIMDSEP
 70
    44
  9
$DIMATFIT
 70
     3
  9
$DIMFRAC
 70
     0
  9
$DIMLDRBLK
  1

  9
$DIMLUNIT
 70
     2
  9
$DIMLWD
 70
    -2
  9
$DIMLWE
 70
    -2
  9
$DIMTMOVE
 70
     0
  9
$DIMFXL
 40
1.0
  9
$DIMFXLON
 70
     0
  9
$DIMJOGANG
 40
0.7853981633974483
  9
$DIMTFILL
 70
     0
  9
$DIMTFILLCLR
 70
     0
  9
$DIMARCSYM
 70
     0
  9
$DIMLTYPE
  6

  9
$DIMLTEX1
  6

  9
$DIMLTEX2
  6

  9
$DIMTXTDIRECTION
 70
     0
  9
$LUNITS
 70
     2
  9
$LUPREC
 70
     4
  9
$SKETCHINC
 40
1.0
  9
$FILLETRAD
 40
10.0
  9
$AUNITS
 70
     0
  9
$AUPREC
 70
     0
  9
$MENU
  1
.
  9
$ELEVATION
 40
0.0
  9
$PELEVATION
 40
0.0
  9
$THICKNESS
 40
0.0
  9
$LIMCHECK
 70
     0
  9
$CHAMFERA
 40
10.0
  9
$CHAMFERB
 40
10.0
  9
$CHAMFERC
 40
20.0
  9
$CHAMFERD
 40
0.0
  9
$SKPOLY
 70
     0
  9
$TDCREATE
 40
2459720.720538692
  9
$TDUCREATE
 40
2459720.345538692
  9
$TDUPDATE
 40
2459720.720538704
  9
$TDUUPDATE
 40
2459720.345538704
  9
$TDINDWG
 40
0.0000000116
  9
$TDUSRTIMER
 40
0.0000000116
  9
$USRTIMER
 70
     1
  9
$ANGBASE
 50
0.0
  9
$ANGDIR
 70
     0
  9
$PDMODE
 70
     0
  9
$PDSIZE
 40
0.0
  9
$PLINEWID
 40
0.0
  9
$SPLFRAME
 70
     0
  9
$SPLINETYPE
 70
     6
  9
$SPLINESEGS
 70
     8
  9
$HANDSEED
  5
5B5
  9
$SURFTAB1
 70
     6
  9
$SURFTAB2
 70
     6
  9
$SURFTYPE
 70
     6
  9
$SURFU
 70
     6
  9
$SURFV
 70
     6
  9
$UCSBASE
  2

  9
$UCSNAME
  2

  9
$UCSORG
 10
0.0
 20
0.0
 30
0.0
  9
$UCSXDIR
 10
1.0
 20
0.0
 30
0.0
  9
$UCSYDIR
 10
0.0
 20
1.0
 30
0.0
  9
$UCSORTHOREF
  2

  9
$UCSORTHOVIEW
 70
     0
  9
$UCSORGTOP
 10
0.0
 20
0.0
 30
0.0
  9
$UCSORGBOTTOM
 10
0.0
 20
0.0
 30
0.0
  9
$UCSORGLEFT
 10
0.0
 20
0.0
 30
0.0
  9
$UCSORGRIGHT
 10
0.0
 20
0.0
 30
0.0
  9
$UCSORGFRONT
 10
0.0
 20
0.0
 30
0.0
  9
$UCSORGBACK
 10
0.0
 20
0.0
 30
0.0
  9
$PUCSBASE
  2

  9
$PUCSNAME
  2

  9
$PUCSORG
 10
0.0
 20
0.0
 30
0.0
  9
$PUCSXDIR
 10
1.0
 20
0.0
 30
0.0
  9
$PUCSYDIR
 10
0.0
 20
1.0
 30
0.0
  9
$PUCSORTHOREF
  2

  9
$PUCSORTHOVIEW
 70
     0
  9
$PUCSORGTOP
 10
0.0
 20
0.0
 30
0.0
  9
$PUCSORGBOTTOM
 10
0.0
 20
0.0
 30
0.0
  9
$PUCSORGLEFT
 10
0.0
 20
0.0
 30
0.0
  9
$PUCSORGRIGHT
 10
0.0
 20
0.0
 30
0.0
  9
$PUCSORGFRONT
 10
0.0
 20
0.0
 30
0.0
  9
$PUCSORGBACK
 10
0.0
 20
0.0
 30
0.0
  9
$USERI1
 70
     0
  9
$USERI2
 70
     0
  9
$USERI3
 70
     0
  9
$USERI4
 70
     0
  9
$USERI5
 70
     0
  9
$USERR1
 40
0.0
  9
$USERR2
 40
0.0
  9
$USERR3
 40
0.0
  9
$USERR4
 40
0.0
  9
$USERR5
 40
0.0
  9
$WORLDVIEW
 70
     1
  9
$SHADEDGE
 70
     3
  9
$SHADEDIF
 70
    70
  9
$TILEMODE
 70
     1
  9
$MAXACTVP
 70
    64
  9
$PINSBASE
 10
0.0
 20
0.0
 30
0.0
  9
$PLIMCHECK
 70
     0
  9
$PEXTMIN
 10
1.000000000000000E+20
 20
1.000000000000000E+20
 30
1.000000000000000E+20
  9
$PEXTMAX
 10
-1.000000000000000E+20
 20
-1.000000000000000E+20
 30
-1.000000000000000E+20
  9
$PLIMMIN
 10
0.0
 20
0.0
  9
$PLIMMAX
 10
420.0
 20
297.0
  9
$UNITMODE
 70
     0
  9
$VISRETAIN
 70
     1
  9
$PLINEGEN
 70
     0
  9
$PSLTSCALE
 70
     1
  9
$TREEDEPTH
 70
  3020
  9
$CMLSTYLE
  2
Standard
  9
$CMLJUST
 70
     0
  9
$CMLSCALE
 40
20.0
  9
$PROXYGRAPHICS
 70
     1
  9
$MEASUREMENT
 70
     1
  9
$CELWEIGHT
370
    -1
  9
$ENDCAPS
280
     0
  9
$JOINSTYLE
280
     0
  9
$LWDISPLAY
290
     0
  9
$INSUNITS
 70
     4
  9
$HYPERLINKBASE
  1

  9
$STYLESHEET
  1

  9
$XEDIT
290
     1
  9
$CEPSNTYPE
380
     0
  9
$PSTYLEMODE
290
     1
  9
$FINGERPRINTGUID
  2
{B93A75EE-A144-4279-BE3C-5E5503D9F4CD}
  9
$VERSIONGUID
  2
{FAEB1C32-E019-11D5-929B-00C0DF256EC4}
  9
$EXTNAMES
290
     1
  9
$PSVPSCALE
 40
0.0
  9
$OLESTARTUP
290
     0
  9
$SORTENTS
280
   127
  9
$INDEXCTL
280
     0
  9
$HIDETEXT
280
     1
  9
$XCLIPFRAME
280
     2
  9
$HALOGAP
280
     0
  9
$OBSCOLOR
 70
   257
  9
$OBSLTYPE
280
     0
  9
$INTERSECTIONDISPLAY
280
     0
  9
$INTERSECTIONCOLOR
 70
   257
  9
$DIMASSOC
280
     2
  9
$PROJECTNAME
  1

  9
$CAMERADISPLAY
290
     0
  9
$LENSLENGTH
 40
50.0
  9
$CAMERAHEIGHT
 40
0.0
  9
$STEPSPERSEC
 40
2.0
  9
$STEPSIZE
 40
6.0
  9
$3DDWFPREC
 40
2.0
  9
$PSOLWIDTH
 40
5.0
  9
$PSOLHEIGHT
 40
80.0
  9
$LOFTANG1
 40
1.570796326794897
  9
$LOFTANG2
 40
1.570796326794897
  9
$LOFTMAG1
 40
0.0
  9
$LOFTMAG2
 40
0.0
  9
$LOFTPARAM
 70
     7
  9
$LOFTNORMALS
280
     1
  9
$LATITUDE
 40
37.795
  9
$LONGITUDE
 40
-122.394
  9
$NORTHDIRECTION
 40
0.0
  9
$TIMEZONE
 70
 -8000
  9
$LIGHTGLYPHDISPLAY
280
     1
  9
$TILEMODELIGHTSYNCH
280
     1
  9
$SOLIDHIST
280
     1
  9
$SHOWHIST
280
     1
  9
$DWFFRAME
280
     2
  9
$DGNFRAME
280
     2
  9
$REALWORLDSCALE
290
     1
  9
$INTERFERECOLOR
 62
   256
  9
$CSHADOW
280
     0
  9
$SHADOWPLANELOCATION
 40
0.0
  0
ENDSEC
  0
SECTION
  2
CLASSES
  0
CLASS
  1
ACDBDICTIONARYWDFLT
  2
AcDbDictionaryWithDefault
  3
ObjectDBX Classes
 90
        0
 91
        4
280
     0
281
     0
  0
CLASS
  1
VISUALSTYLE
  2
AcDbVisualStyle
  3
ObjectDBX Classes
 90
     4095
 91
        4
280
     0
281
     0
  0
CLASS
  1
MATERIAL
  2
AcDbMaterial
  3
ObjectDBX Classes
 90
     1153
 91
        4
280
     0
281
     0
  0
ENDSEC
  0
SECTION
  2
TABLES
  0
TABLE
  2
VPORT
  5
8
330
0
100
AcDbSymbolTable
 70
     1
  0
VPORT
  5
29
330
8
100
AcDbSymbolTableRecord
100
AcDbViewportTableRecord
  2
*Active
 70
     0
 10
0.0
 20
0.0
 11
1.0
 21
1.0
 12
0.0
 22
0.0
 13
0.0
 23
0.0
 14
10.0
 24
10.0
 15
10.0
 25
10.0
 16
0.0
 26
0.0
 36
1.0
 17
0.0
 27
0.0
 37
0.0
 40
13860.0
 41
1.414285714285714
 42
50.0
 43
0.0
 44
0.0
 50
0.0
 51
0.0
 71
     0
 72
 10000
 73
     1
 74
     3
 75
     0
 76
     0
 77
     0
 78
     0
281
     0
 65
     1
110
0.0
120
0.0
130
0.0
111
1.0
121
0.0
131
0.0
112
0.0
122
1.0
132
0.0
 79
     0
146
0.0
 60
     3
 61
     5
292
     1
282
     1
141
0.0
142
0.0
 63
   250
  0
ENDTAB
  0
TABLE
  2
LTYPE
  5
5
330
0
100
AcDbSymbolTable
 70
     5
  0
LTYPE
  5
14
330
5
100
AcDbSymbolTableRecord
100
AcDbLinetypeTableRecord
  2
ByBlock
 70
     0
  3

 72
    65
 73
     0
 40
0.0
  0
LTYPE
  5
15
330
5
100
AcDbSymbolTableRecord
100
AcDbLinetypeTableRecord
  2
ByLayer
 70
     0
  3

 72
    65
 73
     0
 40
0.0
  0
LTYPE
  5
16
330
5
100
AcDbSymbolTableRecord
100
AcDbLinetypeTableRecord
  2
Continuous
 70
     0
  3
Solid line
 72
    65
 73
     0
 40
0.0
  0
LTYPE
  5
3F
330
5
100
AcDbSymbolTableRecord
100
AcDbLinetypeTableRecord
  2
JWW_HOJO
 70
     0
  3
  -   -   -   -   -   -   -   - 
 72
    65
 73
     2
 40
1.693333333333333
 49
-1.27
 74
     0
 49
0.4233333333333333
 74
     0
  0
LTYPE
  5
40
330
5
100
AcDbSymbolTableRecord
100
AcDbLinetypeTableRecord
  2
JWW_DASHED1
 70
     0
  3
-  --  --  --  --  --  --  --  -
 72
    65
 73
     2
 40
1.693333333333333
 49
0.8466666666666667
 74
     0
 49
-0.8466666666666667
 74
     0
  0
LTYPE
  5
41
330
5
100
AcDbSymbolTableRecord
100
AcDbLinetypeTableRecord
  2
JWW_CENTER1
 70
     0
  3
-----  --  ----------  --  -----
 72
    65
 73
     4
 40
6.773333333333333
 49
4.233333333333333
 74
     0
 49
-0.8466666666666667
 74
     0
 49
0.8466666666666667
 74
     0
 49
-0.8466666666666667
 74
     0
  0
LTYPE
  5
42
330
5
100
AcDbSymbolTableRecord
100
AcDbLinetypeTableRecord
  2
JWW_DASHED2
 70
     0
  3
--    ----    ----    ----    --
 72
    65
 73
     2
 40
3.386666666666667
 49
1.693333333333333
 74
     0
 49
-1.693333333333333
 74
     0
  0
ENDTAB
  0
TABLE
  2
LAYER
  5
2
330
0
100
AcDbSymbolTable
 70
    23
  0
LAYER
  5
10
330
2
100
AcDbSymbolTableRecord
100
AcDbLayerTableRecord
  2
0
 70
     0
 62
     7
  6
Continuous
370
    -3
390
F
347
3E
  0
LAYER
  5
43
330
2
100
AcDbSymbolTableRecord
100
AcDbLayerTableRecord
  2
F-0_補助線
 70
     0
 62
     7
  6
Continuous
370
    -3
390
F
347
3E
  0
LAYER
  5
44
330
2
100
AcDbSymbolTableRecord
100
AcDbLayerTableRecord
  2
F-1_枠
 70
     0
 62
     7
  6
Continuous
370
    -3
390
F
347
3E
  0
LAYER
  5
45
330
2
100
AcDbSymbolTableRecord
100
AcDbLayerTableRecord
  2
F-A_文字
 70
     0
 62
     7
  6
Continuous
370
    -3
390
F
347
3E
  0
LAYER
  5
46
330
2
100
AcDbSymbolTableRecord
100
AcDbLayerTableRecord
  2
0-A_文字
 70
     0
 62
     7
  6
Continuous
370
    -3
390
F
347
3E
  0
LAYER
  5
47
330
2
100
AcDbSymbolTableRecord
100
AcDbLayerTableRecord
  2
0-4_枠
 70
     0
 62
     7
  6
Continuous
370
    -3
390
F
347
3E
  0
LAYER
  5
48
330
2
100
AcDbSymbolTableRecord
100
AcDbLayerTableRecord
  2
0-C_ハッチ
 70
     0
 62
     7
  6
Continuous
370
    -3
390
F
347
3E
  0
LAYER
  5
49
330
2
100
AcDbSymbolTableRecord
100
AcDbLayerTableRecord
  2
0-3_仕上げ
 70
     0
 62
     7
  6
Continuous
370
    -3
390
F
347
3E
  0
LAYER
  5
4A
330
2
100
AcDbSymbolTableRecord
100
AcDbLayerTableRecord
  2
0-B_寸法
 70
     0
 62
     7
  6
Continuous
370
    -3
390
F
347
3E
  0
LAYER
  5
4B
330
2
100
AcDbSymbolTableRecord
100
AcDbLayerTableRecord
  2
0-1_通り芯
 70
     0
 62
     7
  6
Continuous
370
    -3
390
F
347
3E
  0
LAYER
  5
4C
330
2
100
AcDbSymbolTableRecord
100
AcDbLayerTableRecord
  2
0-2_柱
 70
     0
 62
     7
  6
Continuous
370
    -3
390
F
347
3E
  0
LAYER
  5
4D
330
2
100
AcDbSymbolTableRecord
100
AcDbLayerTableRecord
  2
0-6_扉
 70
     0
 62
     7
  6
Continuous
370
    -3
390
F
347
3E
  0
LAYER
  5
4E
330
2
100
AcDbSymbolTableRecord
100
AcDbLayerTableRecord
  2
0-7_金物
 70
     0
 62
     7
  6
Continuous
370
    -3
390
F
347
3E
  0
LAYER
  5
4F
330
2
100
AcDbSymbolTableRecord
100
AcDbLayerTableRecord
  2
0-0_補助線
 70
     0
 62
     7
  6
Continuous
370
    -3
390
F
347
3E
  0
LAYER
  5
50
330
2
100
AcDbSymbolTableRecord
100
AcDbLayerTableRecord
  2
戸当り
 70
     0
 62
     7
  6
Continuous
370
    -3
390
F
347
3E
  0
LAYER
  5
51
330
2
100
AcDbSymbolTableRecord
100
AcDbLayerTableRecord
  2
1-4_枠
 70
     0
 62
     7
  6
Continuous
370
    -3
390
F
347
3E
  0
LAYER
  5
52
330
2
100
AcDbSymbolTableRecord
100
AcDbLayerTableRecord
  2
1-6_扉
 70
     0
 62
     7
  6
Continuous
370
    -3
390
F
347
3E
  0
LAYER
  5
53
330
2
100
AcDbSymbolTableRecord
100
AcDbLayerTableRecord
  2
1-3_仕上げ
 70
     0
 62
     7
  6
Continuous
370
    -3
390
F
347
3E
  0
LAYER
  5
54
330
2
100
AcDbSymbolTableRecord
100
AcDbLayerTableRecord
  2
1-1_通り芯
 70
     0
 62
     7
  6
Continuous
370
    -3
390
F
347
3E
  0
LAYER
  5
55
330
2
100
AcDbSymbolTableRecord
100
AcDbLayerTableRecord
  2
1-B_寸法
 70
     0
 62
     7
  6
Continuous
370
    -3
390
F
347
3E
  0
LAYER
  5
56
330
2
100
AcDbSymbolTableRecord
100
AcDbLayerTableRecord
  2
1-7_金物
 70
     0
 62
     7
  6
Continuous
370
    -3
390
F
347
3E
  0
LAYER
  5
57
330
2
100
AcDbSymbolTableRecord
100
AcDbLayerTableRecord
  2
1-A_文字
 70
     0
 62
     7
  6
Continuous
370
    -3
390
F
347
3E
  0
LAYER
  5
58
330
2
100
AcDbSymbolTableRecord
100
AcDbLayerTableRecord
  2
1-0_補助線
 70
     0
 62
     7
  6
Continuous
370
    -3
390
F
347
3E
  0
ENDTAB
  0
TABLE
  2
STYLE
  5
3
330
0
100
AcDbSymbolTable
 70
     1
  0
STYLE
  5
11
330
3
100
AcDbSymbolTableRecord
100
AcDbTextStyleTableRecord
  2
Standard
 70
     0
 40
0.0
 41
1.0
 50
0.0
 71
     0
 42
2.5
  3
txt
  4

  0
ENDTAB
  0
TABLE
  2
VIEW
  5
6
330
0
100
AcDbSymbolTable
 70
     0
  0
ENDTAB
  0
TABLE
  2
UCS
  5
7
330
0
100
AcDbSymbolTable
 70
     0
  0
ENDTAB
  0
TABLE
  2
APPID
  5
9
330
0
100
AcDbSymbolTable
 70
     1
  0
APPID
  5
12
330
9
100
AcDbSymbolTableRecord
100
AcDbRegAppTableRecord
  2
ACAD
 70
     0
  0
ENDTAB
  0
TABLE
  2
DIMSTYLE
  5
A
330
0
100
AcDbSymbolTable
 70
     1
100
AcDbDimStyleTable
  0
DIMSTYLE
105
27
330
A
100
AcDbSymbolTableRecord
100
AcDbDimStyleTableRecord
  2
ISO-25
 70
     0
 41
2.5
 42
0.625
 43
3.75
 44
1.25
 73
     0
 74
     0
 77
     1
 78
     8
140
2.5
141
2.5
143
0.03937007874016
147
0.625
171
     3
172
     1
178
     0
271
     2
272
     2
274
     3
278
    44
283
     0
284
     8
340
11
  0
ENDTAB
  0
TABLE
  2
BLOCK_RECORD
  5
1
330
0
100
AcDbSymbolTable
 70
     1
  0
BLOCK_RECORD
  5
1F
330
1
100
AcDbSymbolTableRecord
100
AcDbBlockTableRecord
  2
*Model_Space
340
22
 70
     0
280
     1
281
     0
  0
BLOCK_RECORD
  5
1B
330
1
100
AcDbSymbolTableRecord
100
AcDbBlockTableRecord
  2
*Paper_Space
340
1E
 70
     0
280
     1
281
     0
  0
BLOCK_RECORD
  5
23
330
1
100
AcDbSymbolTableRecord
100
AcDbBlockTableRecord
  2
*Paper_Space0
340
26
 70
     0
280
     1
281
     0
  0
ENDTAB
  0
ENDSEC
  0
SECTION
  2
BLOCKS
  0
BLOCK
  5
20
330
1F
100
AcDbEntity
  8
0
100
AcDbBlockBegin
  2
*Model_Space
 70
     0
 10
0.0
 20
0.0
 30
0.0
  3
*Model_Space
  1

  0
ENDBLK
  5
21
330
1F
100
AcDbEntity
  8
0
100
AcDbBlockEnd
  0
BLOCK
  5
1C
330
1B
100
AcDbEntity
 67
     1
  8
0
100
AcDbBlockBegin
  2
*Paper_Space
 70
     0
 10
0.0
 20
0.0
 30
0.0
  3
*Paper_Space
  1

  0
ENDBLK
  5
1D
330
1B
100
AcDbEntity
 67
     1
  8
0
100
AcDbBlockEnd
  0
BLOCK
  5
24
330
23
100
AcDbEntity
  8
0
100
AcDbBlockBegin
  2
*Paper_Space0
 70
     0
 10
0.0
 20
0.0
 30
0.0
  3
*Paper_Space0
  1

  0
ENDBLK
  5
25
330
23
100
AcDbEntity
  8
0
100
AcDbBlockEnd
  0
ENDSEC
  0
SECTION
  2
ENTITIES
  0
LINE
  5
59
330
1F
100
AcDbEntity
  8
F-0_補助線
  6
JWW_HOJO
 62
   120
370
     5
100
AcDbLine
 10
-6140.081333436773
 20
-4455.0
 30
0.0
 11
-6140.081333436773
 21
4424.999604096284
 31
0.0
  0
LINE
  5
5A
330
1F
100
AcDbEntity
  8
F-0_補助線
  6
JWW_HOJO
 62
   120
370
     5
100
AcDbLine
 10
-6140.081333436773
 20
4424.999604096284
 30
0.0
 11
6159.917676803936
 21
4424.999604096284
 31
0.0
  0
LINE
  5
5B
330
1F
100
AcDbEntity
  8
F-0_補助線
  6
JWW_HOJO
 62
   120
370
     5
100
AcDbLine
 10
6159.917676803936
 20
4424.999604096284
 30
0.0
 11
6159.917676803936
 21
-4455.0
 31
0.0
  0
LINE
  5
5C
330
1F
100
AcDbEntity
  8
F-0_補助線
  6
JWW_HOJO
 62
   120
370
     5
100
AcDbLine
 10
6159.917676803936
 20
-4455.0
 30
0.0
 11
-6140.081333436773
 21
-4455.0
 31
0.0
  0
LINE
  5
5D
330
1F
100
AcDbEntity
  8
F-0_補助線
  6
JWW_HOJO
 62
     7
370
     9
100
AcDbLine
 10
509.9185840832865
 20
-3795.000003092998
 30
0.0
 11
509.9185840832865
 21
-4195.000008247994
 31
0.0
  0
LINE
  5
5E
330
1F
100
AcDbEntity
  8
F-1_枠
  6
Continuous
 62
   200
370
    20
100
AcDbLine
 10
5859.917429364114
 20
4174.999769056166
 30
0.0
 11
5859.917429364114
 21
-4205.000164959882
 31
0.0
  0
LINE
  5
5F
330
1F
100
AcDbEntity
  8
F-1_枠
  6
Continuous
 62
   200
370
    20
100
AcDbLine
 10
-5840.081317971782
 20
4174.999769056166
 30
0.0
 11
-5840.081317971782
 21
-4205.000164959882
 31
0.0
  0
LINE
  5
60
330
1F
100
AcDbEntity
  8
F-1_枠
  6
Continuous
 62
   200
370
    20
100
AcDbLine
 10
5859.917429364114
 20
-4205.000002577498
 30
0.0
 11
-5840.081085996952
 21
-4205.000002577498
 31
0.0
  0
LINE
  5
61
330
1F
100
AcDbEntity
  8
F-1_枠
  6
Continuous
 62
   200
370
    20
100
AcDbLine
 10
-5830.081323642279
 20
4174.999769056166
 30
0.0
 11
-5830.081323642279
 21
-4205.000164959882
 31
0.0
  0
LINE
  5
62
330
1F
100
AcDbEntity
  8
F-1_枠
  6
Continuous
 62
   200
370
    20
100
AcDbLine
 10
-5835.081309208291
 20
4174.999769056166
 30
0.0
 11
-5835.081309208291
 21
-4205.000164959882
 31
0.0
  0
LINE
  5
63
330
1F
100
AcDbEntity
  8
F-1_枠
  6
Continuous
 62
   200
370
    20
100
AcDbLine
 10
5854.917165428304
 20
4174.999769056166
 30
0.0
 11
5854.917165428304
 21
-4205.000164959882
 31
0.0
  0
LINE
  5
64
330
1F
100
AcDbEntity
  8
F-1_枠
  6
Continuous
 62
   200
370
    20
100
AcDbLine
 10
5849.917643811961
 20
4174.999769056166
 30
0.0
 11
5849.917643811961
 21
-4205.000164959882
 31
0.0
  0
LINE
  5
65
330
1F
100
AcDbEntity
  8
F-1_枠
  6
Continuous
 62
   200
370
    20
100
AcDbLine
 10
5859.917429364114
 20
-4199.999993814004
 30
0.0
 11
-5840.081085996952
 21
-4199.999993814004
 31
0.0
  0
LINE
  5
66
330
1F
100
AcDbEntity
  8
F-1_枠
  6
Continuous
 62
   200
370
    20
100
AcDbLine
 10
5859.917429364114
 20
-4195.000008247994
 30
0.0
 11
-5840.081085996952
 21
-4195.000008247994
 31
0.0
  0
LINE
  5
67
330
1F
100
AcDbEntity
  8
F-1_枠
  6
Continuous
 62
   200
370
    20
100
AcDbLine
 10
4349.917891251784
 20
-3795.000003092998
 30
0.0
 11
4349.917891251784
 21
-4195.000008247994
 31
0.0
  0
LINE
  5
68
330
1F
100
AcDbEntity
  8
F-1_枠
  6
Continuous
 62
   200
370
    20
100
AcDbLine
 10
2849.917396372139
 20
-3795.000003092998
 30
0.0
 11
2849.917396372139
 21
-4195.000008247994
 31
0.0
  0
LINE
  5
69
330
1F
100
AcDbEntity
  8
F-1_枠
  6
Continuous
 62
   200
370
    20
100
AcDbLine
 10
9.918542843316231
 20
-3795.000003092998
 30
0.0
 11
9.918542843316231
 21
-4195.000008247994
 31
0.0
  0
LINE
  5
6A
330
1F
100
AcDbEntity
  8
F-1_枠
  6
Continuous
 62
   200
370
    20
100
AcDbLine
 10
9.918542843316231
 20
-3994.999936078046
 30
0.0
 11
5849.917643811961
 21
-3995.005364289155
 31
0.0
  0
LINE
  5
6B
330
1F
100
AcDbEntity
  8
F-1_枠
  6
Continuous
 62
   200
370
    20
100
AcDbLine
 10
-5840.081085996952
 20
4174.999769056166
 30
0.0
 11
5859.917429364114
 21
4174.999769056166
 31
0.0
  0
LINE
  5
6C
330
1F
100
AcDbEntity
  8
F-1_枠
  6
Continuous
 62
   200
370
    20
100
AcDbLine
 10
-5840.081085996952
 20
4164.999983504013
 30
0.0
 11
5859.917429364114
 21
4164.999983504013
 31
0.0
  0
LINE
  5
6D
330
1F
100
AcDbEntity
  8
F-1_枠
  6
Continuous
 62
   200
370
    20
100
AcDbLine
 10
-5840.081085996952
 20
4169.999505120355
 30
0.0
 11
5859.917429364114
 21
4169.999505120355
 31
0.0
  0
LINE
  5
6E
330
1F
100
AcDbEntity
  8
F-0_補助線
  6
JWW_HOJO
 62
     7
370
     9
100
AcDbLine
 10
-5830.081323642279
 20
-3994.99993607839
 30
0.0
 11
9.918542843316231
 21
-3994.99993607839
 31
0.0
  0
LINE
  5
6F
330
1F
100
AcDbEntity
  8
F-0_補助線
  6
JWW_HOJO
 62
     7
370
     9
100
AcDbLine
 10
-5830.081323642279
 20
-3904.99993607839
 30
0.0
 11
9.918542843316231
 21
-3904.99993607839
 31
0.0
  0
LINE
  5
70
330
1F
100
AcDbEntity
  8
F-0_補助線
  6
JWW_HOJO
 62
     7
370
     9
100
AcDbLine
 10
-5830.081323642279
 20
-4084.99993607839
 30
0.0
 11
9.918542843316231
 21
-4084.99993607839
 31
0.0
  0
LINE
  5
71
330
1F
100
AcDbEntity
  8
F-0_補助線
  6
JWW_HOJO
 62
     7
370
     9
100
AcDbLine
 10
9.918408067688347
 20
-4139.999739777983
 30
0.0
 11
5849.917509036332
 21
-4140.005167989091
 31
0.0
  0
LINE
  5
72
330
1F
100
AcDbEntity
  8
F-0_補助線
  6
JWW_HOJO
 62
     7
370
     9
100
AcDbLine
 10
9.918491721639953
 20
-4049.999739778022
 30
0.0
 11
5849.917592690284
 21
-4050.005167989131
 31
0.0
  0
LINE
  5
73
330
1F
100
AcDbEntity
  8
F-0_補助線
  6
JWW_HOJO
 62
     7
370
     9
100
AcDbLine
 10
9.918593965360003
 20
-3939.99973721807
 30
0.0
 11
5849.917694934004
 21
-3940.005165429179
 31
0.0
  0
LINE
  5
74
330
1F
100
AcDbEntity
  8
F-0_補助線
  6
JWW_HOJO
 62
     7
370
     9
100
AcDbLine
 10
9.918677619311609
 20
-3849.999737218109
 30
0.0
 11
5849.917778587956
 21
-3850.005165429218
 31
0.0
  0
LINE
  5
75
330
1F
100
AcDbEntity
  8
F-0_補助線
  6
JWW_HOJO
 62
     7
370
     9
100
AcDbLine
 10
2939.917396372139
 20
-3795.000003092998
 30
0.0
 11
2939.917396372139
 21
-4195.000008247994
 31
0.0
  0
LINE
  5
76
330
1F
100
AcDbEntity
  8
F-0_補助線
  6
JWW_HOJO
 62
     7
370
     9
100
AcDbLine
 10
99.91854284331623
 20
-3795.000003092998
 30
0.0
 11
99.91854284331623
 21
-4195.000008247994
 31
0.0
  0
LINE
  5
77
330
1F
100
AcDbEntity
  8
F-0_補助線
  6
JWW_HOJO
 62
     7
370
     9
100
AcDbLine
 10
4439.917891251784
 20
-3795.000003092998
 30
0.0
 11
4439.917891251784
 21
-4195.000008247994
 31
0.0
  0
LINE
  5
78
330
1F
100
AcDbEntity
  8
F-1_枠
  6
Continuous
 62
   200
370
    20
100
AcDbLine
 10
5859.917429364114
 20
-3795.000003092998
 30
0.0
 11
-5840.081085996952
 21
-3795.000003092998
 31
0.0
  0
LINE
  5
79
330
1F
100
AcDbEntity
  8
F-1_枠
  6
Continuous
 62
   200
370
    20
100
AcDbLine
 10
5859.917429364114
 20
-3790.000017526987
 30
0.0
 11
-5840.081085996952
 21
-3790.000017526987
 31
0.0
  0
LINE
  5
7A
330
1F
100
AcDbEntity
  8
F-0_補助線
  6
JWW_HOJO
 62
     7
370
     9
100
AcDbLine
 10
-5087.628710189611
 20
-3795.000003092999
 30
0.0
 11
-5087.628710189611
 21
-4205.000164959882
 31
0.0
  0
LINE
  5
7B
330
1F
100
AcDbEntity
  8
F-0_補助線
  6
JWW_HOJO
 62
     7
370
     9
100
AcDbLine
 10
-50.08145715668377
 20
-3795.000003092998
 30
0.0
 11
-50.08145715668377
 21
-4195.000008247994
 31
0.0
  0
MTEXT
  5
7C
330
1F
100
AcDbEntity
  8
F-A_文字
  6
Continuous
 62
     7
370
     0
100
AcDbMText
 10
99.91854284331623
 20
-3887.139820871936
 30
0.0
 40
45.72
 41
180.0
 46
0.0
 71
     7
 72
     1
  1
{\fＭＳ ゴシック|b0|i0|c128|p49;図面名}
 73
     1
 44
1.0
  0
MTEXT
  5
7D
330
1F
100
AcDbEntity
  8
F-A_文字
  6
Continuous
 62
     7
370
     0
100
AcDbMText
 10
2939.917396372139
 20
-3887.142460617774
 30
0.0
 40
45.72
 41
300.0
 46
0.0
 71
     7
 72
     1
  1
{\fＭＳ ゴシック|b0|i0|c128|p49;ＳＣＡＬＥ}
 73
     1
 44
1.0
  0
MTEXT
  5
7E
330
1F
100
AcDbEntity
  8
F-A_文字
  6
Continuous
 62
     7
370
     0
100
AcDbMText
 10
4439.917891251784
 20
-3887.143854850754
 30
0.0
 40
45.72
 41
240.0
 46
0.0
 71
     7
 72
     1
  1
{\fＭＳ ゴシック|b0|i0|c128|p49;ＤＡＴＥ}
 73
     1
 44
1.0
  0
MTEXT
  5
7F
330
1F
100
AcDbEntity
  8
F-A_文字
  6
Continuous
 62
     7
370
     0
100
AcDbMText
 10
3569.917643811961
 20
-3946.903115907308
 30
0.0
 40
76.19999999999999
 41
150.0
 46
0.0
 71
     7
 72
     1
  1
{\fＭＳ ゴシック|b0|i0|c128|p49;1/5}
 73
     1
 44
1.0
  0
MTEXT
  5
80
330
1F
100
AcDbEntity
  8
F-A_文字
  6
Continuous
 62
     7
370
     0
100
AcDbMText
 10
2939.917396372139
 20
-4087.14246317786
 30
0.0
 40
45.72
 41
240.0
 46
0.0
 71
     7
 72
     1
  1
{\fＭＳ ゴシック|b0|i0|c128|p49;ＦＩＬＥ}
 73
     1
 44
1.0
  0
MTEXT
  5
81
330
1F
100
AcDbEntity
  8
F-A_文字
  6
Continuous
 62
     7
370
     0
100
AcDbMText
 10
4439.917891251784
 20
-4087.143857410839
 30
0.0
 40
45.72
 41
180.0
 46
0.0
 71
     7
 72
     1
  1
{\fＭＳ ゴシック|b0|i0|c128|p49;ＮＯ．}
 73
     1
 44
1.0
  0
MTEXT
  5
82
330
1F
100
AcDbEntity
  8
F-A_文字
  6
Continuous
 62
     7
370
     0
100
AcDbMText
 10
1394.917396372138
 20
-4096.140669266149
 30
0.0
 40
45.72
 41
120.0
 46
0.0
 71
     7
 72
     1
  1
{\fＭＳ ゴシック|b0|i0|c128|p49;株式}
 73
     1
 44
1.0
  0
MTEXT
  5
83
330
1F
100
AcDbEntity
  8
F-A_文字
  6
Continuous
 62
     7
370
     0
100
AcDbMText
 10
1604.917396372138
 20
-4164.281754523929
 30
0.0
 40
101.44125
 41
1065.0
 46
0.0
 71
     7
 72
     1
  1
{\fＭＳ ゴシック|b0|i0|c128|p49;ウッドワン・・・}
 73
     1
 44
1.0
  0
MTEXT
  5
84
330
1F
100
AcDbEntity
  8
F-A_文字
  6
Continuous
 62
     7
370
     0
100
AcDbMText
 10
1394.917396372138
 20
-4168.140669266187
 30
0.0
 40
45.72
 41
120.0
 46
0.0
 71
     7
 72
     1
  1
{\fＭＳ ゴシック|b0|i0|c128|p49;会社}
 73
     1
 44
1.0
  0
MTEXT
  5
85
330
1F
100
AcDbEntity
  8
F-A_文字
  6
Continuous
 62
     7
370
     0
100
AcDbMText
 10
5768.321977672939
 20
-4314.841419020919
 30
0.0
 40
68.58
 41
90.0
 46
0.0
 71
     7
 72
     1
  1
{\fＭＳ ゴシック|b0|i0|c128|p49;）}
 73
     1
 44
1.0
  0
MTEXT
  5
86
330
1F
100
AcDbEntity
  8
F-A_文字
  6
Continuous
 62
     7
370
     0
100
AcDbMText
 10
5350.114617405298
 20
-4316.235443869856
 30
0.0
 40
68.58
 41
45.0
 46
0.0
 71
     7
 72
     1
  1
{\fＭＳ ゴシック|b0|i0|c128|p49;,}
 73
     1
 44
1.0
  0
MTEXT
  5
87
330
1F
100
AcDbEntity
  8
F-A_文字
  6
Continuous
 62
     7
370
     0
100
AcDbMText
 10
5083.855928478601
 20
-4314.771967288282
 30
0.0
 40
74.295
 41
97.5
 46
0.0
 71
     7
 72
     1
  1
{\fＭＳ ゴシック|b0|i0|c128|p49;$y}
 73
     1
 44
1.0
  0
MTEXT
  5
88
330
1F
100
AcDbEntity
  8
F-A_文字
  6
Continuous
 62
     7
370
     0
100
AcDbMText
 10
5238.592649517422
 20
-4314.771967288282
 30
0.0
 40
74.295
 41
97.5
 46
0.0
 71
     7
 72
     1
  1
{\fＭＳ ゴシック|b0|i0|c128|p49;$m}
 73
     1
 44
1.0
  0
MTEXT
  5
89
330
1F
100
AcDbEntity
  8
F-A_文字
  6
Continuous
 62
     7
370
     0
100
AcDbMText
 10
5393.32938200033
 20
-4314.771967288282
 30
0.0
 40
74.295
 41
97.5
 46
0.0
 71
     7
 72
     1
  1
{\fＭＳ ゴシック|b0|i0|c128|p49;$d}
 73
     1
 44
1.0
  0
MTEXT
  5
8A
330
1F
100
AcDbEntity
  8
F-A_文字
  6
Continuous
 62
     7
370
     0
100
AcDbMText
 10
5548.066114483239
 20
-4314.771967288282
 30
0.0
 40
74.295
 41
195.0
 46
0.0
 71
     7
 72
     1
  1
{\fＭＳ ゴシック|b0|i0|c128|p49;印刷}
 73
     1
 44
1.0
  0
MTEXT
  5
8B
330
1F
100
AcDbEntity
  8
F-A_文字
  6
Continuous
 62
     7
370
     0
100
AcDbMText
 10
4943.952040816226
 20
-4319.023493567732
 30
0.0
 40
68.58
 41
90.0
 46
0.0
 71
     7
 72
     1
  1
{\fＭＳ ゴシック|b0|i0|c128|p49;（}
 73
     1
 44
1.0
  0
MTEXT
  5
8C
330
1F
100
AcDbEntity
  8
F-A_文字
  6
Continuous
 62
     7
370
     0
100
AcDbMText
 10
5191.195810375571
 20
-4319.023493567732
 30
0.0
 40
68.58
 41
45.0
 46
0.0
 71
     7
 72
     1
  1
{\fＭＳ ゴシック|b0|i0|c128|p49;,}
 73
     1
 44
1.0
  0
LINE
  5
8D
330
1F
100
AcDbEntity
  8
0-A_文字
  6
Continuous
 62
    92
370
    13
100
AcDbLine
 10
-5659.999495325861
 20
3730.00018145587
 30
0.0
 11
-5659.999495325861
 21
4000.00018145587
 31
0.0
  0
LINE
  5
8E
330
1F
100
AcDbEntity
  8
0-A_文字
  6
JWW_HOJO
 62
   120
370
     5
100
AcDbLine
 10
-6140.081333436773
 20
2438.999683277028
 30
0.0
 11
6159.917676803938
 21
2438.999683277028
 31
0.0
  0
LINE
  5
8F
330
1F
100
AcDbEntity
  8
0-A_文字
  6
JWW_HOJO
 62
   120
370
     5
100
AcDbLine
 10
-6140.081333436773
 20
194.9998020481414
 30
0.0
 11
6159.917676803938
 21
194.9998020481414
 31
0.0
  0
LINE
  5
90
330
1F
100
AcDbEntity
  8
0-A_文字
  6
JWW_HOJO
 62
   120
370
     5
100
AcDbLine
 10
-5659.999495325861
 20
4424.999604096284
 30
0.0
 11
-5659.999495325861
 21
-4455.000000000002
 31
0.0
  0
LINE
  5
91
330
1F
100
AcDbEntity
  8
0-A_文字
  6
JWW_HOJO
 62
   120
370
     5
100
AcDbLine
 10
-6140.081333436773
 20
-3159.000197951857
 30
0.0
 11
6159.917676803938
 21
-3159.000197951857
 31
0.0
  0
LINE
  5
92
330
1F
100
AcDbEntity
  8
0-A_文字
  6
JWW_HOJO
 62
   120
370
     5
100
AcDbLine
 10
-6140.081333436773
 20
3730.000181455871
 30
0.0
 11
6159.917676803938
 21
3730.000181455871
 31
0.0
  0
LINE
  5
93
330
1F
100
AcDbEntity
  8
0-A_文字
  6
JWW_HOJO
 62
   120
370
     5
100
AcDbLine
 10
-6140.081333436773
 20
4000.000181455871
 30
0.0
 11
6159.917676803938
 21
4000.000181455871
 31
0.0
  0
LINE
  5
94
330
1F
100
AcDbEntity
  8
0-A_文字
  6
JWW_HOJO
 62
   120
370
     5
100
AcDbLine
 10
9.91817168358267
 20
-4455.000000000002
 30
0.0
 11
9.91817168358267
 21
4424.999604096284
 31
0.0
  0
LINE
  5
95
330
1F
100
AcDbEntity
  8
0-A_文字
  6
JWW_HOJO
 62
   120
370
     5
100
AcDbLine
 10
5679.835838693025
 20
4424.999604096284
 30
0.0
 11
5679.835838693025
 21
-4455.000000000002
 31
0.0
  0
LINE
  5
96
330
1F
100
AcDbEntity
  8
0-4_枠
  6
Continuous
 62
    92
370
    13
100
AcDbLine
 10
84.64936544149364
 20
2423.999683277028
 30
0.0
 11
84.64936544149364
 21
1928.999683277028
 31
0.0
  0
LINE
  5
97
330
1F
100
AcDbEntity
  8
0-C_ハッチ
  6
JWW_DASHED1
 62
   120
370
     5
100
AcDbLine
 10
2790.112639529708
 20
2003.999683277019
 30
0.0
 11
2865.112886969539
 21
2078.99993071685
 31
0.0
  0
LINE
  5
98
330
1F
100
AcDbEntity
  8
0-C_ハッチ
  6
JWW_DASHED1
 62
   120
370
     5
100
AcDbLine
 10
2747.686232658511
 20
2003.999683277022
 30
0.0
 11
2822.686480098343
 21
2078.999930716854
 31
0.0
  0
LINE
  5
99
330
1F
100
AcDbEntity
  8
0-C_ハッチ
  6
JWW_DASHED1
 62
   120
370
     5
100
AcDbLine
 10
2705.259825787316
 20
2003.999683277026
 30
0.0
 11
2780.260073227147
 21
2078.999930716858
 31
0.0
  0
LINE
  5
9A
330
1F
100
AcDbEntity
  8
0-C_ハッチ
  6
JWW_DASHED1
 62
   120
370
     5
100
AcDbLine
 10
2662.833418916119
 20
2003.99968327703
 30
0.0
 11
2737.83366635595
 21
2078.999930716861
 31
0.0
  0
LINE
  5
9B
330
1F
100
AcDbEntity
  8
0-C_ハッチ
  6
JWW_DASHED1
 62
   120
370
     5
100
AcDbLine
 10
2620.407012044922
 20
2003.999683277033
 30
0.0
 11
2695.407259484753
 21
2078.999930716864
 31
0.0
  0
LINE
  5
9C
330
1F
100
AcDbEntity
  8
0-C_ハッチ
  6
JWW_DASHED1
 62
   120
370
     5
100
AcDbLine
 10
2577.980605173711
 20
2003.999683277021
 30
0.0
 11
2652.980852613542
 21
2078.999930716852
 31
0.0
  0
LINE
  5
9D
330
1F
100
AcDbEntity
  8
0-C_ハッチ
  6
JWW_DASHED1
 62
   120
370
     5
100
AcDbLine
 10
2535.554198302514
 20
2003.999683277025
 30
0.0
 11
2610.554445742345
 21
2078.999930716855
 31
0.0
  0
LINE
  5
9E
330
1F
100
AcDbEntity
  8
0-C_ハッチ
  6
JWW_DASHED1
 62
   120
370
     5
100
AcDbLine
 10
2493.127791431302
 20
2003.999683277013
 30
0.0
 11
2568.128038871133
 21
2078.999930716844
 31
0.0
  0
LINE
  5
9F
330
1F
100
AcDbEntity
  8
0-C_ハッチ
  6
JWW_DASHED1
 62
   120
370
     5
100
AcDbLine
 10
2450.701384560164
 20
2003.99968327702
 30
0.0
 11
2525.701631999995
 21
2078.999930716851
 31
0.0
  0
LINE
  5
A0
330
1F
100
AcDbEntity
  8
0-C_ハッチ
  6
JWW_DASHED1
 62
   120
370
     5
100
AcDbLine
 10
2408.274977688968
 20
2003.999683277024
 30
0.0
 11
2483.275225128798
 21
2078.999930716855
 31
0.0
  0
LINE
  5
A1
330
1F
100
AcDbEntity
  8
0-C_ハッチ
  6
JWW_DASHED1
 62
   120
370
     5
100
AcDbLine
 10
2365.848570817771
 20
2003.999683277027
 30
0.0
 11
2440.848818257602
 21
2078.999930716859
 31
0.0
  0
LINE
  5
A2
330
1F
100
AcDbEntity
  8
0-C_ハッチ
  6
JWW_DASHED1
 62
   120
370
     5
100
AcDbLine
 10
2323.422163946575
 20
2003.999683277031
 30
0.0
 11
2398.422411386406
 21
2078.999930716862
 31
0.0
  0
LINE
  5
A3
330
1F
100
AcDbEntity
  8
0-C_ハッチ
  6
JWW_DASHED1
 62
   120
370
     5
100
AcDbLine
 10
2280.995757075368
 20
2003.999683277024
 30
0.0
 11
2355.996004515198
 21
2078.999930716855
 31
0.0
  0
LINE
  5
A4
330
1F
100
AcDbEntity
  8
0-C_ハッチ
  6
JWW_DASHED1
 62
   120
370
     5
100
AcDbLine
 10
2238.569350204166
 20
2003.999683277022
 30
0.0
 11
2313.569597643997
 21
2078.999930716854
 31
0.0
  0
LINE
  5
A5
330
1F
100
AcDbEntity
  8
0-C_ハッチ
  6
JWW_DASHED1
 62
   120
370
     5
100
AcDbLine
 10
2196.142943332969
 20
2003.999683277026
 30
0.0
 11
2271.143190772801
 21
2078.999930716857
 31
0.0
  0
LINE
  5
A6
330
1F
100
AcDbEntity
  8
0-C_ハッチ
  6
JWW_DASHED1
 62
   120
370
     5
100
AcDbLine
 10
2153.716536461757
 20
2003.999683277013
 30
0.0
 11
2228.716783901588
 21
2078.999930716845
 31
0.0
  0
LINE
  5
A7
330
1F
100
AcDbEntity
  8
0-C_ハッチ
  6
JWW_DASHED1
 62
   120
370
     5
100
AcDbLine
 10
2111.290129590619
 20
2003.999683277021
 30
0.0
 11
2186.290377030451
 21
2078.999930716853
 31
0.0
  0
LINE
  5
A8
330
1F
100
AcDbEntity
  8
0-C_ハッチ
  6
JWW_DASHED1
 62
   120
370
     5
100
AcDbLine
 10
2068.863722719423
 20
2003.999683277025
 30
0.0
 11
2143.863970159254
 21
2078.999930716856
 31
0.0
  0
LINE
  5
A9
330
1F
100
AcDbEntity
  8
0-C_ハッチ
  6
JWW_DASHED1
 62
   120
370
     5
100
AcDbLine
 10
2026.437315848226
 20
2003.999683277028
 30
0.0
 11
2101.437563288058
 21
2078.99993071686
 31
0.0
  0
LINE
  5
AA
330
1F
100
AcDbEntity
  8
0-C_ハッチ
  6
JWW_DASHED1
 62
   120
370
     5
100
AcDbLine
 10
1984.01090897703
 20
2003.999683277032
 30
0.0
 11
2059.011156416861
 21
2078.999930716863
 31
0.0
  0
LINE
  5
AB
330
1F
100
AcDbEntity
  8
0-C_ハッチ
  6
JWW_DASHED1
 62
   120
370
     5
100
AcDbLine
 10
1941.584502105826
 20
2003.999683277027
 30
0.0
 11
2016.584749545656
 21
2078.999930716858
 31
0.0
  0
LINE
  5
AC
330
1F
100
AcDbEntity
  8
0-C_ハッチ
  6
JWW_DASHED1
 62
   120
370
     5
100
AcDbLine
 10
1899.158095234621
 20
2003.999683277023
 30
0.0
 11
1974.158342674453
 21
2078.999930716854
 31
0.0
  0
LINE
  5
AD
330
1F
100
AcDbEntity
  8
0-3_仕上げ
  6
Continuous
 62
    40
370
    15
100
AcDbLine
 10
-3077.350411862663
 20
2078.999683277028
 30
0.0
 11
-1877.350411862663
 21
2078.999683277028
 31
0.0
  0
LINE
  5
AE
330
1F
100
AcDbEntity
  8
0-3_仕上げ
  6
Continuous
 62
    40
370
    15
100
AcDbLine
 10
-3077.350411862663
 20
2798.999683277028
 30
0.0
 11
-1877.350411862663
 21
2798.999683277028
 31
0.0
  0
LINE
  5
AF
330
1F
100
AcDbEntity
  8
0-3_仕上げ
  6
Continuous
 62
    40
370
    15
100
AcDbLine
 10
-3077.350411862663
 20
2873.999683277028
 30
0.0
 11
-1877.350411862663
 21
2873.999683277028
 31
0.0
  0
LINE
  5
B0
330
1F
100
AcDbEntity
  8
0-3_仕上げ
  6
Continuous
 62
    40
370
    15
100
AcDbLine
 10
-3077.350411862663
 20
2003.999683277027
 30
0.0
 11
-1877.350411862663
 21
2003.999683277027
 31
0.0
  0
LINE
  5
B1
330
1F
100
AcDbEntity
  8
0-B_寸法
  6
Continuous
 62
   120
370
     5
100
AcDbLine
 10
-1388.820570640481
 20
2948.999683277028
 30
0.0
 11
-1595.952709464083
 21
2948.999683277028
 31
0.0
  0
LWPOLYLINE
  5
B2
330
1F
100
AcDbEntity
  8
0-B_寸法
  6
Continuous
 62
     7
370
     9
100
AcDbPolyline
 90
        4
 70
     1
 43
3.0
 10
-1387.320570640481
 20
2948.999683277028
 42
0.4142135623731
 10
-1388.820570640481
 20
2950.499683277027
 42
0.4142135623731
 10
-1390.320570640481
 20
2948.999683277028
 42
0.4142135623731
 10
-1388.820570640481
 20
2947.499683277028
 42
0.4142135623731
  0
LINE
  5
B3
330
1F
100
AcDbEntity
  8
0-B_寸法
  6
Continuous
 62
   120
370
     5
100
AcDbLine
 10
-1388.820570640483
 20
1928.999683277027
 30
0.0
 11
-1595.952709464083
 21
1928.999683277027
 31
0.0
  0
LWPOLYLINE
  5
B4
330
1F
100
AcDbEntity
  8
0-B_寸法
  6
Continuous
 62
     7
370
     9
100
AcDbPolyline
 90
        4
 70
     1
 43
3.0
 10
-1387.320570640483
 20
1928.999683277027
 42
0.4142135623731
 10
-1388.820570640483
 20
1930.499683277027
 42
0.4142135623731
 10
-1390.320570640483
 20
1928.999683277027
 42
0.4142135623731
 10
-1388.820570640483
 20
1927.499683277028
 42
0.4142135623731
  0
LINE
  5
B5
330
1F
100
AcDbEntity
  8
0-B_寸法
  6
Continuous
 62
   120
370
     5
100
AcDbLine
 10
-1388.820570640483
 20
1928.999683277027
 30
0.0
 11
-1388.820570640481
 21
2951.999843494314
 31
0.0
  0
LINE
  5
B6
330
1F
100
AcDbEntity
  8
0-3_仕上げ
  6
Continuous
 62
    40
370
    15
100
AcDbLine
 10
3097.187497549297
 20
2873.999683277028
 30
0.0
 11
1866.649216977598
 21
2873.999683277028
 31
0.0
  0
LINE
  5
B7
330
1F
100
AcDbEntity
  8
0-3_仕上げ
  6
Continuous
 62
    40
370
    15
100
AcDbLine
 10
3097.187497549297
 20
2798.999683277028
 30
0.0
 11
1866.649216977598
 21
2798.999683277028
 31
0.0
  0
LINE
  5
B8
330
1F
100
AcDbEntity
  8
0-1_通り芯
  6
JWW_CENTER1
 62
   120
370
     5
100
AcDbLine
 10
-3077.350411862663
 20
2438.999683277028
 30
0.0
 11
3097.187497549297
 21
2438.999683277028
 31
0.0
  0
LINE
  5
B9
330
1F
100
AcDbEntity
  8
0-3_仕上げ
  6
Continuous
 62
    40
370
    15
100
AcDbLine
 10
3097.187497549297
 20
2003.999683277027
 30
0.0
 11
733.3527590743614
 21
2003.999683277027
 31
0.0
  0
LINE
  5
BA
330
1F
100
AcDbEntity
  8
0-3_仕上げ
  6
Continuous
 62
    40
370
    15
100
AcDbLine
 10
613.3527590743614
 20
2003.999683277027
 30
0.0
 11
84.64958813733429
 21
2003.999683277027
 31
0.0
  0
LINE
  5
BB
330
1F
100
AcDbEntity
  8
0-3_仕上げ
  6
Continuous
 62
    40
370
    15
100
AcDbLine
 10
84.64958813733429
 20
2078.99993071685
 30
0.0
 11
613.3527590743614
 21
2078.99993071685
 31
0.0
  0
LINE
  5
BC
330
1F
100
AcDbEntity
  8
0-3_仕上げ
  6
Continuous
 62
    40
370
    15
100
AcDbLine
 10
733.3527590743614
 20
2078.99993071685
 30
0.0
 11
3097.187497549297
 21
2078.99993071685
 31
0.0
  0
LINE
  5
BD
330
1F
100
AcDbEntity
  8
0-C_ハッチ
  6
JWW_DASHED1
 62
   120
370
     5
100
AcDbLine
 10
3087.097487628057
 20
2003.999683277022
 30
0.0
 11
3097.187497549301
 21
2014.089693198266
 31
0.0
  0
LINE
  5
BE
330
1F
100
AcDbEntity
  8
0-C_ハッチ
  6
JWW_DASHED1
 62
   120
370
     5
100
AcDbLine
 10
3044.67108075686
 20
2003.999683277025
 30
0.0
 11
3097.187497549292
 21
2056.516100069457
 31
0.0
  0
LINE
  5
BF
330
1F
100
AcDbEntity
  8
0-C_ハッチ
  6
JWW_DASHED1
 62
   120
370
     5
100
AcDbLine
 10
3002.244673885663
 20
2003.999683277029
 30
0.0
 11
3077.244921325495
 21
2078.99993071686
 31
0.0
  0
LINE
  5
C0
330
1F
100
AcDbEntity
  8
0-C_ハッチ
  6
JWW_DASHED1
 62
   120
370
     5
100
AcDbLine
 10
2959.818267014467
 20
2003.999683277033
 30
0.0
 11
3034.818514454298
 21
2078.999930716863
 31
0.0
  0
LINE
  5
C1
330
1F
100
AcDbEntity
  8
0-C_ハッチ
  6
JWW_DASHED1
 62
   120
370
     5
100
AcDbLine
 10
2917.391860143256
 20
2003.999683277021
 30
0.0
 11
2992.392107583087
 21
2078.999930716852
 31
0.0
  0
LINE
  5
C2
330
1F
100
AcDbEntity
  8
0-C_ハッチ
  6
JWW_DASHED1
 62
   120
370
     5
100
AcDbLine
 10
2874.965453272058
 20
2003.999683277023
 30
0.0
 11
2949.965700711889
 21
2078.999930716855
 31
0.0
  0
LINE
  5
C3
330
1F
100
AcDbEntity
  8
0-C_ハッチ
  6
JWW_DASHED1
 62
   120
370
     5
100
AcDbLine
 10
2832.539046400862
 20
2003.999683277027
 30
0.0
 11
2907.539293840693
 21
2078.999930716858
 31
0.0
  0
LINE
  5
C4
330
1F
100
AcDbEntity
  8
0-C_ハッチ
  6
JWW_DASHED1
 62
   120
370
     5
100
AcDbLine
 10
1856.731688363425
 20
2003.999683277027
 30
0.0
 11
1931.731935803256
 21
2078.999930716858
 31
0.0
  0
LINE
  5
C5
330
1F
100
AcDbEntity
  8
0-C_ハッチ
  6
JWW_DASHED1
 62
   120
370
     5
100
AcDbLine
 10
1814.305281492272
 20
2003.999683277019
 30
0.0
 11
1889.305528932103
 21
2078.99993071685
 31
0.0
  0
LINE
  5
C6
330
1F
100
AcDbEntity
  8
0-C_ハッチ
  6
JWW_DASHED1
 62
   120
370
     5
100
AcDbLine
 10
1771.878874621075
 20
2003.999683277022
 30
0.0
 11
1846.879122060906
 21
2078.999930716854
 31
0.0
  0
LINE
  5
C7
330
1F
100
AcDbEntity
  8
0-C_ハッチ
  6
JWW_DASHED1
 62
   120
370
     5
100
AcDbLine
 10
1729.452467749879
 20
2003.999683277026
 30
0.0
 11
1804.45271518971
 21
2078.999930716857
 31
0.0
  0
LINE
  5
C8
330
1F
100
AcDbEntity
  8
0-C_ハッチ
  6
JWW_DASHED1
 62
   120
370
     5
100
AcDbLine
 10
1687.026060878682
 20
2003.99968327703
 30
0.0
 11
1762.026308318513
 21
2078.99993071686
 31
0.0
  0
LINE
  5
C9
330
1F
100
AcDbEntity
  8
0-C_ハッチ
  6
JWW_DASHED1
 62
   120
370
     5
100
AcDbLine
 10
1644.59965400748
 20
2003.999683277027
 30
0.0
 11
1719.59990144731
 21
2078.999930716858
 31
0.0
  0
LINE
  5
CA
330
1F
100
AcDbEntity
  8
0-C_ハッチ
  6
JWW_DASHED1
 62
   120
370
     5
100
AcDbLine
 10
1602.173247136274
 20
2003.999683277021
 30
0.0
 11
1677.173494576105
 21
2078.999930716852
 31
0.0
  0
LINE
  5
CB
330
1F
100
AcDbEntity
  8
0-C_ハッチ
  6
JWW_DASHED1
 62
   120
370
     5
100
AcDbLine
 10
1559.746840265077
 20
2003.999683277024
 30
0.0
 11
1634.747087704908
 21
2078.999930716855
 31
0.0
  0
LINE
  5
CC
330
1F
100
AcDbEntity
  8
0-C_ハッチ
  6
JWW_DASHED1
 62
   120
370
     5
100
AcDbLine
 10
1517.320433393865
 20
2003.999683277012
 30
0.0
 11
1592.320680833696
 21
2078.999930716843
 31
0.0
  0
LINE
  5
CD
330
1F
100
AcDbEntity
  8
0-C_ハッチ
  6
JWW_DASHED1
 62
   120
370
     5
100
AcDbLine
 10
1474.894026522727
 20
2003.99968327702
 30
0.0
 11
1549.894273962559
 21
2078.999930716851
 31
0.0
  0
LINE
  5
CE
330
1F
100
AcDbEntity
  8
0-C_ハッチ
  6
JWW_DASHED1
 62
   120
370
     5
100
AcDbLine
 10
1432.467619651531
 20
2003.999683277023
 30
0.0
 11
1507.467867091362
 21
2078.999930716855
 31
0.0
  0
LINE
  5
CF
330
1F
100
AcDbEntity
  8
0-C_ハッチ
  6
JWW_DASHED1
 62
   120
370
     5
100
AcDbLine
 10
1390.041212780334
 20
2003.999683277027
 30
0.0
 11
1465.041460220166
 21
2078.999930716859
 31
0.0
  0
LINE
  5
D0
330
1F
100
AcDbEntity
  8
0-C_ハッチ
  6
JWW_DASHED1
 62
   120
370
     5
100
AcDbLine
 10
1347.614805909138
 20
2003.999683277031
 30
0.0
 11
1422.615053348969
 21
2078.999930716862
 31
0.0
  0
LINE
  5
D1
330
1F
100
AcDbEntity
  8
0-C_ハッチ
  6
JWW_DASHED1
 62
   120
370
     5
100
AcDbLine
 10
1305.188399037937
 20
2003.99968327703
 30
0.0
 11
1380.188646477768
 21
2078.99993071686
 31
0.0
  0
LINE
  5
D2
330
1F
100
AcDbEntity
  8
0-C_ハッチ
  6
JWW_DASHED1
 62
   120
370
     5
100
AcDbLine
 10
1262.761992166729
 20
2003.999683277022
 30
0.0
 11
1337.76223960656
 21
2078.999930716853
 31
0.0
  0
LINE
  5
D3
330
1F
100
AcDbEntity
  8
0-C_ハッチ
  6
JWW_DASHED1
 62
   120
370
     5
100
AcDbLine
 10
1220.335585295532
 20
2003.999683277025
 30
0.0
 11
1295.335832735364
 21
2078.999930716856
 31
0.0
  0
LINE
  5
D4
330
1F
100
AcDbEntity
  8
0-C_ハッチ
  6
JWW_DASHED1
 62
   120
370
     5
100
AcDbLine
 10
1177.90917842432
 20
2003.999683277013
 30
0.0
 11
1252.909425864152
 21
2078.999930716845
 31
0.0
  0
LINE
  5
D5
330
1F
100
AcDbEntity
  8
0-C_ハッチ
  6
JWW_DASHED1
 62
   120
370
     5
100
AcDbLine
 10
1135.482771553183
 20
2003.999683277021
 30
0.0
 11
1210.483018993014
 21
2078.999930716852
 31
0.0
  0
LINE
  5
D6
330
1F
100
AcDbEntity
  8
0-C_ハッチ
  6
JWW_DASHED1
 62
   120
370
     5
100
AcDbLine
 10
1093.056364681986
 20
2003.999683277024
 30
0.0
 11
1168.056612121817
 21
2078.999930716855
 31
0.0
  0
LINE
  5
D7
330
1F
100
AcDbEntity
  8
0-C_ハッチ
  6
JWW_DASHED1
 62
   120
370
     5
100
AcDbLine
 10
1050.62995781079
 20
2003.999683277028
 30
0.0
 11
1125.630205250621
 21
2078.999930716859
 31
0.0
  0
LINE
  5
D8
330
1F
100
AcDbEntity
  8
0-C_ハッチ
  6
JWW_DASHED1
 62
   120
370
     5
100
AcDbLine
 10
1008.203550939593
 20
2003.999683277032
 30
0.0
 11
1083.203798379424
 21
2078.999930716863
 31
0.0
  0
LINE
  5
D9
330
1F
100
AcDbEntity
  8
0-C_ハッチ
  6
JWW_DASHED1
 62
   120
370
     5
100
AcDbLine
 10
965.7771440683953
 20
2003.999683277034
 30
0.0
 11
1040.777391508226
 21
2078.999930716864
 31
0.0
  0
LINE
  5
DA
330
1F
100
AcDbEntity
  8
0-C_ハッチ
  6
JWW_DASHED1
 62
   120
370
     5
100
AcDbLine
 10
923.3507371971847
 20
2003.999683277023
 30
0.0
 11
998.3509846370158
 21
2078.999930716854
 31
0.0
  0
LINE
  5
DB
330
1F
100
AcDbEntity
  8
0-C_ハッチ
  6
JWW_DASHED1
 62
   120
370
     5
100
AcDbLine
 10
880.9243303259881
 20
2003.999683277027
 30
0.0
 11
955.9245777658034
 21
2078.999930716842
 31
0.0
  0
LINE
  5
DC
330
1F
100
AcDbEntity
  8
0-C_ハッチ
  6
JWW_DASHED1
 62
   120
370
     5
100
AcDbLine
 10
838.4979234548347
 20
2003.999683277019
 30
0.0
 11
913.4981708946659
 21
2078.99993071685
 31
0.0
  0
LINE
  5
DD
330
1F
100
AcDbEntity
  8
0-C_ハッチ
  6
JWW_DASHED1
 62
   120
370
     5
100
AcDbLine
 10
796.0715165836383
 20
2003.999683277022
 30
0.0
 11
871.0717640234695
 21
2078.999930716854
 31
0.0
  0
LINE
  5
DE
330
1F
100
AcDbEntity
  8
0-C_ハッチ
  6
JWW_DASHED1
 62
   120
370
     5
100
AcDbLine
 10
753.6451097124419
 20
2003.999683277026
 30
0.0
 11
828.6453571522732
 21
2078.999930716857
 31
0.0
  0
LINE
  5
DF
330
1F
100
AcDbEntity
  8
0-C_ハッチ
  6
JWW_DASHED1
 62
   120
370
     5
100
AcDbLine
 10
733.3527590743563
 20
2026.13373951014
 30
0.0
 11
786.2189502810766
 21
2078.99993071686
 31
0.0
  0
LINE
  5
E0
330
1F
100
AcDbEntity
  8
0-C_ハッチ
  6
JWW_DASHED1
 62
   120
370
     5
100
AcDbLine
 10
733.352759074348
 20
2068.560146381332
 30
0.0
 11
743.79254340988
 21
2078.999930716864
 31
0.0
  0
LINE
  5
E1
330
1F
100
AcDbEntity
  8
0-C_ハッチ
  6
JWW_DASHED1
 62
   120
370
     5
100
AcDbLine
 10
583.9394822276391
 20
2003.999683277023
 30
0.0
 11
613.3527590743619
 21
2033.412960123746
 31
0.0
  0
LINE
  5
E2
330
1F
100
AcDbEntity
  8
0-C_ハッチ
  6
JWW_DASHED1
 62
   120
370
     5
100
AcDbLine
 10
541.5130753564267
 20
2003.999683277011
 30
0.0
 11
613.3527590743689
 21
2075.839366994953
 31
0.0
  0
LINE
  5
E3
330
1F
100
AcDbEntity
  8
0-C_ハッチ
  6
JWW_DASHED1
 62
   120
370
     5
100
AcDbLine
 10
499.0866684852894
 20
2003.999683277019
 30
0.0
 11
574.0869159251206
 21
2078.99993071685
 31
0.0
  0
LINE
  5
E4
330
1F
100
AcDbEntity
  8
0-C_ハッチ
  6
JWW_DASHED1
 62
   120
370
     5
100
AcDbLine
 10
456.6602616140927
 20
2003.999683277022
 30
0.0
 11
531.6605090539242
 21
2078.999930716854
 31
0.0
  0
LINE
  5
E5
330
1F
100
AcDbEntity
  8
0-C_ハッチ
  6
JWW_DASHED1
 62
   120
370
     5
100
AcDbLine
 10
414.2338547428964
 20
2003.999683277026
 30
0.0
 11
489.2341021827274
 21
2078.999930716857
 31
0.0
  0
LINE
  5
E6
330
1F
100
AcDbEntity
  8
0-C_ハッチ
  6
JWW_DASHED1
 62
   120
370
     5
100
AcDbLine
 10
371.8074478716923
 20
2003.999683277022
 30
0.0
 11
446.8076953115258
 21
2078.999930716855
 31
0.0
  0
LINE
  5
E7
330
1F
100
AcDbEntity
  8
0-C_ハッチ
  6
JWW_DASHED1
 62
   120
370
     5
100
AcDbLine
 10
329.3810410004946
 20
2003.999683277024
 30
0.0
 11
404.3812884403281
 21
2078.999930716858
 31
0.0
  0
LINE
  5
E8
330
1F
100
AcDbEntity
  8
0-C_ハッチ
  6
JWW_DASHED1
 62
   120
370
     5
100
AcDbLine
 10
286.954634129291
 20
2003.99968327702
 30
0.0
 11
361.9548815691222
 21
2078.999930716852
 31
0.0
  0
LINE
  5
E9
330
1F
100
AcDbEntity
  8
0-C_ハッチ
  6
JWW_DASHED1
 62
   120
370
     5
100
AcDbLine
 10
244.5282272580946
 20
2003.999683277024
 30
0.0
 11
319.5284746979256
 21
2078.999930716855
 31
0.0
  0
LINE
  5
EA
330
1F
100
AcDbEntity
  8
0-C_ハッチ
  6
JWW_DASHED1
 62
   120
370
     5
100
AcDbLine
 10
202.1018203869411
 20
2003.999683277016
 30
0.0
 11
277.1020678267723
 21
2078.999930716847
 31
0.0
  0
LINE
  5
EB
330
1F
100
AcDbEntity
  8
0-C_ハッチ
  6
JWW_DASHED1
 62
   120
370
     5
100
AcDbLine
 10
159.6754135157447
 20
2003.99968327702
 30
0.0
 11
234.6756609555759
 21
2078.999930716851
 31
0.0
  0
LINE
  5
EC
330
1F
100
AcDbEntity
  8
0-C_ハッチ
  6
JWW_DASHED1
 62
   120
370
     5
100
AcDbLine
 10
117.2490066445483
 20
2003.999683277023
 30
0.0
 11
192.2492540843793
 21
2078.999930716854
 31
0.0
  0
LINE
  5
ED
330
1F
100
AcDbEntity
  8
0-C_ハッチ
  6
JWW_DASHED1
 62
   120
370
     5
100
AcDbLine
 10
84.64936544149268
 20
2013.826448945168
 30
0.0
 11
149.8228472131829
 21
2078.999930716858
 31
0.0
  0
LINE
  5
EE
330
1F
100
AcDbEntity
  8
0-C_ハッチ
  6
JWW_DASHED1
 62
   120
370
     5
100
AcDbLine
 10
84.64936544150056
 20
2056.252855816375
 30
0.0
 11
107.3964403419711
 21
2078.999930716846
 31
0.0
  0
LINE
  5
EF
330
1F
100
AcDbEntity
  8
0-C_ハッチ
  6
JWW_DASHED1
 62
   120
370
     5
100
AcDbLine
 10
-2498.259064984532
 20
2798.99968327701
 30
0.0
 11
-2423.259064984518
 21
2873.999683277024
 31
0.0
  0
LINE
  5
F0
330
1F
100
AcDbEntity
  8
0-C_ハッチ
  6
JWW_DASHED1
 62
   120
370
     5
100
AcDbLine
 10
-2455.832658113378
 20
2798.999683277021
 30
0.0
 11
-2380.832658113382
 21
2873.999683277017
 31
0.0
  0
LINE
  5
F1
330
1F
100
AcDbEntity
  8
0-C_ハッチ
  6
JWW_DASHED1
 62
   120
370
     5
100
AcDbLine
 10
-2413.406251242181
 20
2798.999683277017
 30
0.0
 11
-2338.406251242181
 21
2873.999683277014
 31
0.0
  0
LINE
  5
F2
330
1F
100
AcDbEntity
  8
0-C_ハッチ
  6
JWW_DASHED1
 62
   120
370
     5
100
AcDbLine
 10
-2370.979844370971
 20
2798.999683277026
 30
0.0
 11
-2295.979844370973
 21
2873.999683277022
 31
0.0
  0
LINE
  5
F3
330
1F
100
AcDbEntity
  8
0-C_ハッチ
  6
JWW_DASHED1
 62
   120
370
     5
100
AcDbLine
 10
-2328.553437499773
 20
2798.999683277022
 30
0.0
 11
-2253.553437499781
 21
2873.999683277017
 31
0.0
  0
LINE
  5
F4
330
1F
100
AcDbEntity
  8
0-C_ハッチ
  6
JWW_DASHED1
 62
   120
370
     5
100
AcDbLine
 10
-2286.127030628571
 20
2798.999683277024
 30
0.0
 11
-2211.127030628573
 21
2873.999683277022
 31
0.0
  0
LINE
  5
F5
330
1F
100
AcDbEntity
  8
0-C_ハッチ
  6
JWW_DASHED1
 62
   120
370
     5
100
AcDbLine
 10
-2243.700623757373
 20
2798.999683277022
 30
0.0
 11
-2168.700623757362
 21
2873.999683277034
 31
0.0
  0
LINE
  5
F6
330
1F
100
AcDbEntity
  8
0-C_ハッチ
  6
JWW_DASHED1
 62
   120
370
     5
100
AcDbLine
 10
-2201.274216886178
 20
2798.999683277019
 30
0.0
 11
-2126.274216886164
 21
2873.999683277033
 31
0.0
  0
LINE
  5
F7
330
1F
100
AcDbEntity
  8
0-C_ハッチ
  6
JWW_DASHED1
 62
   120
370
     5
100
AcDbLine
 10
-2158.847810014964
 20
2798.999683277033
 30
0.0
 11
-2083.847810014968
 21
2873.999683277029
 31
0.0
  0
LINE
  5
F8
330
1F
100
AcDbEntity
  8
0-C_ハッチ
  6
JWW_DASHED1
 62
   120
370
     5
100
AcDbLine
 10
-2116.421403143826
 20
2798.999683277026
 30
0.0
 11
-2041.421403143827
 21
2873.999683277022
 31
0.0
  0
LINE
  5
F9
330
1F
100
AcDbEntity
  8
0-C_ハッチ
  6
JWW_DASHED1
 62
   120
370
     5
100
AcDbLine
 10
-2073.994996272625
 20
2798.999683277026
 30
0.0
 11
-1998.994996272627
 21
2873.999683277022
 31
0.0
  0
LINE
  5
FA
330
1F
100
AcDbEntity
  8
0-C_ハッチ
  6
JWW_DASHED1
 62
   120
370
     5
100
AcDbLine
 10
-2031.568589401427
 20
2798.999683277022
 30
0.0
 11
-1956.568589401431
 21
2873.999683277022
 31
0.0
  0
LINE
  5
FB
330
1F
100
AcDbEntity
  8
0-C_ハッチ
  6
JWW_DASHED1
 62
   120
370
     5
100
AcDbLine
 10
-2540.685471855713
 20
2798.999683277028
 30
0.0
 11
-2465.685471855717
 21
2873.999683277026
 31
0.0
  0
LINE
  5
FC
330
1F
100
AcDbEntity
  8
0-C_ハッチ
  6
JWW_DASHED1
 62
   120
370
     5
100
AcDbLine
 10
-2625.538285598105
 20
2798.999683277026
 30
0.0
 11
-2550.53828559811
 21
2873.999683277022
 31
0.0
  0
LINE
  5
FD
330
1F
100
AcDbEntity
  8
0-C_ハッチ
  6
JWW_DASHED1
 62
   120
370
     5
100
AcDbLine
 10
-2752.817506211667
 20
2798.99968327701
 30
0.0
 11
-2677.817506211655
 21
2873.999683277024
 31
0.0
  0
LINE
  5
FE
330
1F
100
AcDbEntity
  8
0-C_ハッチ
  6
JWW_DASHED1
 62
   120
370
     5
100
AcDbLine
 10
-2710.391099340513
 20
2798.999683277021
 30
0.0
 11
-2635.391099340517
 21
2873.999683277017
 31
0.0
  0
LINE
  5
FF
330
1F
100
AcDbEntity
  8
0-C_ハッチ
  6
JWW_DASHED1
 62
   120
370
     5
100
AcDbLine
 10
-2795.243913082848
 20
2798.999683277028
 30
0.0
 11
-2720.24391308285
 21
2873.999683277026
 31
0.0
  0
LINE
  5
100
330
1F
100
AcDbEntity
  8
0-C_ハッチ
  6
JWW_DASHED1
 62
   120
370
     5
100
AcDbLine
 10
-2880.096726825242
 20
2798.999683277026
 30
0.0
 11
-2805.096726825245
 21
2873.999683277022
 31
0.0
  0
LINE
  5
101
330
1F
100
AcDbEntity
  8
0-C_ハッチ
  6
JWW_DASHED1
 62
   120
370
     5
100
AcDbLine
 10
-2922.523133696448
 20
2798.999683277017
 30
0.0
 11
-2847.52313369645
 21
2873.999683277014
 31
0.0
  0
LINE
  5
102
330
1F
100
AcDbEntity
  8
0-C_ハッチ
  6
JWW_DASHED1
 62
   120
370
     5
100
AcDbLine
 10
-3049.802354309982
 20
2798.999683277028
 30
0.0
 11
-2974.802354309987
 21
2873.999683277026
 31
0.0
  0
LINE
  5
103
330
1F
100
AcDbEntity
  8
0-C_ハッチ
  6
JWW_DASHED1
 62
   120
370
     5
100
AcDbLine
 10
-2837.670319954048
 20
2798.999683277028
 30
0.0
 11
-2762.670319954048
 21
2873.999683277029
 31
0.0
  0
LINE
  5
104
330
1F
100
AcDbEntity
  8
0-C_ハッチ
  6
JWW_DASHED1
 62
   120
370
     5
100
AcDbLine
 10
-2667.964692469305
 20
2798.999683277028
 30
0.0
 11
-2592.964692469317
 21
2873.999683277014
 31
0.0
  0
LINE
  5
105
330
1F
100
AcDbEntity
  8
0-C_ハッチ
  6
JWW_DASHED1
 62
   120
370
     5
100
AcDbLine
 10
-3007.375947438782
 20
2798.999683277028
 30
0.0
 11
-2932.375947438789
 21
2873.999683277024
 31
0.0
  0
LINE
  5
106
330
1F
100
AcDbEntity
  8
0-C_ハッチ
  6
JWW_DASHED1
 62
   120
370
     5
100
AcDbLine
 10
-2964.94954056764
 20
2798.999683277028
 30
0.0
 11
-2889.94954056765
 21
2873.999683277017
 31
0.0
  0
LINE
  5
107
330
1F
100
AcDbEntity
  8
0-C_ハッチ
  6
JWW_DASHED1
 62
   120
370
     5
100
AcDbLine
 10
-3077.350411862663
 20
2813.878032595548
 30
0.0
 11
-3017.228761181182
 21
2873.999683277029
 31
0.0
  0
LINE
  5
108
330
1F
100
AcDbEntity
  8
0-C_ハッチ
  6
JWW_DASHED1
 62
   120
370
     5
100
AcDbLine
 10
-3077.350411862663
 20
2856.304439466746
 30
0.0
 11
-3059.655168052409
 21
2873.999683277002
 31
0.0
  0
LINE
  5
109
330
1F
100
AcDbEntity
  8
0-C_ハッチ
  6
JWW_DASHED1
 62
   120
370
     5
100
AcDbLine
 10
-2062.893265719933
 20
2003.999683277027
 30
0.0
 11
-1987.893265719933
 21
2078.999683277028
 31
0.0
  0
LINE
  5
10A
330
1F
100
AcDbEntity
  8
0-C_ハッチ
  6
JWW_DASHED1
 62
   120
370
     5
100
AcDbLine
 10
-3077.350411862663
 20
2050.202708914132
 30
0.0
 11
-3048.553437499768
 21
2078.999683277028
 31
0.0
  0
LINE
  5
10B
330
1F
100
AcDbEntity
  8
0-C_ハッチ
  6
JWW_DASHED1
 62
   120
370
     5
100
AcDbLine
 10
-3077.350411862663
 20
2007.776302042933
 30
0.0
 11
-3006.127030628568
 21
2078.999683277028
 31
0.0
  0
LINE
  5
10C
330
1F
100
AcDbEntity
  8
0-C_ハッチ
  6
JWW_DASHED1
 62
   120
370
     5
100
AcDbLine
 10
-3038.700623757368
 20
2003.999683277027
 30
0.0
 11
-2963.700623757369
 21
2078.999683277028
 31
0.0
  0
LINE
  5
10D
330
1F
100
AcDbEntity
  8
0-C_ハッチ
  6
JWW_DASHED1
 62
   120
370
     5
100
AcDbLine
 10
-2572.01014817428
 20
2003.999683277027
 30
0.0
 11
-2497.01014817428
 21
2078.999683277028
 31
0.0
  0
LINE
  5
10E
330
1F
100
AcDbEntity
  8
0-C_ハッチ
  6
JWW_DASHED1
 62
   120
370
     5
100
AcDbLine
 10
-2487.15733443188
 20
2003.999683277027
 30
0.0
 11
-2412.15733443188
 21
2078.999683277028
 31
0.0
  0
LINE
  5
10F
330
1F
100
AcDbEntity
  8
0-C_ハッチ
  6
JWW_DASHED1
 62
   120
370
     5
100
AcDbLine
 10
-2444.73092756068
 20
2003.999683277027
 30
0.0
 11
-2369.73092756068
 21
2078.999683277028
 31
0.0
  0
LINE
  5
110
330
1F
100
AcDbEntity
  8
0-C_ハッチ
  6
JWW_DASHED1
 62
   120
370
     5
100
AcDbLine
 10
-2402.30452068948
 20
2003.999683277027
 30
0.0
 11
-2327.30452068948
 21
2078.999683277028
 31
0.0
  0
LINE
  5
111
330
1F
100
AcDbEntity
  8
0-C_ハッチ
  6
JWW_DASHED1
 62
   120
370
     5
100
AcDbLine
 10
-2359.87811381828
 20
2003.999683277027
 30
0.0
 11
-2284.878113818277
 21
2078.999683277028
 31
0.0
  0
LINE
  5
112
330
1F
100
AcDbEntity
  8
0-C_ハッチ
  6
JWW_DASHED1
 62
   120
370
     5
100
AcDbLine
 10
-2317.451706947077
 20
2003.999683277027
 30
0.0
 11
-2242.451706947077
 21
2078.999683277028
 31
0.0
  0
LINE
  5
113
330
1F
100
AcDbEntity
  8
0-C_ハッチ
  6
JWW_DASHED1
 62
   120
370
     5
100
AcDbLine
 10
-2275.025300075931
 20
2003.999683277027
 30
0.0
 11
-2200.025300075931
 21
2078.999683277028
 31
0.0
  0
LINE
  5
114
330
1F
100
AcDbEntity
  8
0-C_ハッチ
  6
JWW_DASHED1
 62
   120
370
     5
100
AcDbLine
 10
-2232.598893204731
 20
2003.999683277027
 30
0.0
 11
-2157.598893204733
 21
2078.999683277028
 31
0.0
  0
LINE
  5
115
330
1F
100
AcDbEntity
  8
0-C_ハッチ
  6
JWW_DASHED1
 62
   120
370
     5
100
AcDbLine
 10
-2190.172486333533
 20
2003.999683277027
 30
0.0
 11
-2115.172486333533
 21
2078.999683277028
 31
0.0
  0
LINE
  5
116
330
1F
100
AcDbEntity
  8
0-C_ハッチ
  6
JWW_DASHED1
 62
   120
370
     5
100
AcDbLine
 10
-2147.746079462331
 20
2003.999683277027
 30
0.0
 11
-2072.746079462333
 21
2078.999683277028
 31
0.0
  0
LINE
  5
117
330
1F
100
AcDbEntity
  8
0-C_ハッチ
  6
JWW_DASHED1
 62
   120
370
     5
100
AcDbLine
 10
-2105.319672591133
 20
2003.999683277027
 30
0.0
 11
-2030.319672591131
 21
2078.999683277028
 31
0.0
  0
LINE
  5
118
330
1F
100
AcDbEntity
  8
0-C_ハッチ
  6
JWW_DASHED1
 62
   120
370
     5
100
AcDbLine
 10
-2529.583741303077
 20
2003.999683277027
 30
0.0
 11
-2454.58374130308
 21
2078.999683277028
 31
0.0
  0
LINE
  5
119
330
1F
100
AcDbEntity
  8
0-C_ハッチ
  6
JWW_DASHED1
 62
   120
370
     5
100
AcDbLine
 10
-2741.715775659024
 20
2003.999683277027
 30
0.0
 11
-2666.715775659025
 21
2078.999683277028
 31
0.0
  0
LINE
  5
11A
330
1F
100
AcDbEntity
  8
0-C_ハッチ
  6
JWW_DASHED1
 62
   120
370
     5
100
AcDbLine
 10
-2699.28936878788
 20
2003.999683277027
 30
0.0
 11
-2624.28936878788
 21
2078.999683277028
 31
0.0
  0
LINE
  5
11B
330
1F
100
AcDbEntity
  8
0-C_ハッチ
  6
JWW_DASHED1
 62
   120
370
     5
100
AcDbLine
 10
-2656.862961916678
 20
2003.999683277027
 30
0.0
 11
-2581.862961916677
 21
2078.999683277028
 31
0.0
  0
LINE
  5
11C
330
1F
100
AcDbEntity
  8
0-C_ハッチ
  6
JWW_DASHED1
 62
   120
370
     5
100
AcDbLine
 10
-2614.436555045477
 20
2003.999683277027
 30
0.0
 11
-2539.43655504548
 21
2078.999683277028
 31
0.0
  0
LINE
  5
11D
330
1F
100
AcDbEntity
  8
0-C_ハッチ
  6
JWW_DASHED1
 62
   120
370
     5
100
AcDbLine
 10
-2784.142182530222
 20
2003.999683277027
 30
0.0
 11
-2709.142182530222
 21
2078.999683277028
 31
0.0
  0
LINE
  5
11E
330
1F
100
AcDbEntity
  8
0-C_ハッチ
  6
JWW_DASHED1
 62
   120
370
     5
100
AcDbLine
 10
-2911.421403143822
 20
2003.999683277027
 30
0.0
 11
-2836.421403143824
 21
2078.999683277028
 31
0.0
  0
LINE
  5
11F
330
1F
100
AcDbEntity
  8
0-C_ハッチ
  6
JWW_DASHED1
 62
   120
370
     5
100
AcDbLine
 10
-2826.568589401422
 20
2003.999683277027
 30
0.0
 11
-2751.568589401422
 21
2078.999683277028
 31
0.0
  0
LINE
  5
120
330
1F
100
AcDbEntity
  8
0-C_ハッチ
  6
JWW_DASHED1
 62
   120
370
     5
100
AcDbLine
 10
-2868.994996272612
 20
2003.999683277027
 30
0.0
 11
-2793.994996272624
 21
2078.999683277028
 31
0.0
  0
LINE
  5
121
330
1F
100
AcDbEntity
  8
0-C_ハッチ
  6
JWW_DASHED1
 62
   120
370
     5
100
AcDbLine
 10
-2996.274216886224
 20
2003.999683277027
 30
0.0
 11
-2921.274216886224
 21
2078.999683277028
 31
0.0
  0
LINE
  5
122
330
1F
100
AcDbEntity
  8
0-C_ハッチ
  6
JWW_DASHED1
 62
   120
370
     5
100
AcDbLine
 10
-2953.847810015022
 20
2003.999683277027
 30
0.0
 11
-2878.847810015022
 21
2078.999683277028
 31
0.0
  0
LINE
  5
123
330
1F
100
AcDbEntity
  8
0-C_ハッチ
  6
JWW_DASHED1
 62
   120
370
     5
100
AcDbLine
 10
-2583.111878726913
 20
2798.999683277028
 30
0.0
 11
-2508.111878726913
 21
2873.999683277029
 31
0.0
  0
LINE
  5
124
330
1F
100
AcDbEntity
  8
0-C_ハッチ
  6
JWW_DASHED1
 62
   120
370
     5
100
AcDbLine
 10
-2020.466858848734
 20
2003.999683277027
 30
0.0
 11
-1945.466858848734
 21
2078.999683277028
 31
0.0
  0
LINE
  5
125
330
1F
100
AcDbEntity
  8
0-C_ハッチ
  6
JWW_DASHED1
 62
   120
370
     5
100
AcDbLine
 10
-1978.040451977534
 20
2003.999683277027
 30
0.0
 11
-1903.040451977534
 21
2078.999683277028
 31
0.0
  0
LINE
  5
126
330
1F
100
AcDbEntity
  8
0-C_ハッチ
  6
JWW_DASHED1
 62
   120
370
     5
100
AcDbLine
 10
-1989.142182530225
 20
2798.999683277026
 30
0.0
 11
-1914.142182530232
 21
2873.999683277022
 31
0.0
  0
LINE
  5
127
330
1F
100
AcDbEntity
  8
0-C_ハッチ
  6
JWW_DASHED1
 62
   120
370
     5
100
AcDbLine
 10
-1935.614045106334
 20
2003.999683277027
 30
0.0
 11
-1877.350411862663
 21
2062.2633165207
 31
0.0
  0
LINE
  5
128
330
1F
100
AcDbEntity
  8
0-C_ハッチ
  6
JWW_DASHED1
 62
   120
370
     5
100
AcDbLine
 10
-1904.289368787827
 20
2798.999683277026
 30
0.0
 11
-1877.350411862663
 21
2825.938640202193
 31
0.0
  0
LINE
  5
129
330
1F
100
AcDbEntity
  8
0-C_ハッチ
  6
JWW_DASHED1
 62
   120
370
     5
100
AcDbLine
 10
-1946.715775659027
 20
2798.999683277026
 30
0.0
 11
-1877.350411862663
 21
2868.365047073392
 31
0.0
  0
LINE
  5
12A
330
1F
100
AcDbEntity
  8
0-C_ハッチ
  6
JWW_DASHED1
 62
   120
370
     5
100
AcDbLine
 10
1898.136716705412
 20
2873.999683277015
 30
0.0
 11
1866.64921697761
 21
2842.512183549213
 31
0.0
  0
LINE
  5
12B
330
1F
100
AcDbEntity
  8
0-C_ハッチ
  6
JWW_DASHED1
 62
   120
370
     5
100
AcDbLine
 10
1940.563123576623
 20
2873.999683277026
 30
0.0
 11
1866.649216977597
 21
2800.085776677999
 31
0.0
  0
LINE
  5
12C
330
1F
100
AcDbEntity
  8
0-C_ハッチ
  6
JWW_DASHED1
 62
   120
370
     5
100
AcDbLine
 10
1982.98953044782
 20
2873.999683277022
 30
0.0
 11
1907.989530447825
 21
2798.999683277028
 31
0.0
  0
LINE
  5
12D
330
1F
100
AcDbEntity
  8
0-C_ハッチ
  6
JWW_DASHED1
 62
   120
370
     5
100
AcDbLine
 10
2025.415937319016
 20
2873.999683277019
 30
0.0
 11
1950.415937319021
 21
2798.999683277024
 31
0.0
  0
LINE
  5
12E
330
1F
100
AcDbEntity
  8
0-C_ハッチ
  6
JWW_DASHED1
 62
   120
370
     5
100
AcDbLine
 10
2067.842344190156
 20
2873.999683277014
 30
0.0
 11
1992.84234419016
 21
2798.999683277017
 31
0.0
  0
LINE
  5
12F
330
1F
100
AcDbEntity
  8
0-C_ハッチ
  6
JWW_DASHED1
 62
   120
370
     5
100
AcDbLine
 10
2110.268751061368
 20
2873.999683277026
 30
0.0
 11
2035.268751061356
 21
2798.999683277014
 31
0.0
  0
LINE
  5
130
330
1F
100
AcDbEntity
  8
0-C_ハッチ
  6
JWW_DASHED1
 62
   120
370
     5
100
AcDbLine
 10
2152.695157932566
 20
2873.999683277023
 30
0.0
 11
2077.695157932554
 21
2798.999683277011
 31
0.0
  0
LINE
  5
131
330
1F
100
AcDbEntity
  8
0-C_ハッチ
  6
JWW_DASHED1
 62
   120
370
     5
100
AcDbLine
 10
2195.121564803762
 20
2873.99968327702
 30
0.0
 11
2120.121564803751
 21
2798.999683277008
 31
0.0
  0
LINE
  5
132
330
1F
100
AcDbEntity
  8
0-C_ハッチ
  6
JWW_DASHED1
 62
   120
370
     5
100
AcDbLine
 10
2237.547971674971
 20
2873.999683277028
 30
0.0
 11
2162.547971674975
 21
2798.999683277033
 31
0.0
  0
LINE
  5
133
330
1F
100
AcDbEntity
  8
0-C_ハッチ
  6
JWW_DASHED1
 62
   120
370
     5
100
AcDbLine
 10
2279.974378546167
 20
2873.999683277024
 30
0.0
 11
2204.974378546172
 21
2798.999683277029
 31
0.0
  0
LINE
  5
134
330
1F
100
AcDbEntity
  8
0-C_ハッチ
  6
JWW_DASHED1
 62
   120
370
     5
100
AcDbLine
 10
2322.400785417363
 20
2873.999683277021
 30
0.0
 11
2247.400785417368
 21
2798.999683277026
 31
0.0
  0
LINE
  5
135
330
1F
100
AcDbEntity
  8
0-C_ハッチ
  6
JWW_DASHED1
 62
   120
370
     5
100
AcDbLine
 10
2364.82719228856
 20
2873.999683277017
 30
0.0
 11
2289.827192288564
 21
2798.999683277021
 31
0.0
  0
LINE
  5
136
330
1F
100
AcDbEntity
  8
0-C_ハッチ
  6
JWW_DASHED1
 62
   120
370
     5
100
AcDbLine
 10
2407.253599159705
 20
2873.999683277015
 30
0.0
 11
2332.253599159709
 21
2798.999683277021
 31
0.0
  0
LINE
  5
137
330
1F
100
AcDbEntity
  8
0-C_ハッチ
  6
JWW_DASHED1
 62
   120
370
     5
100
AcDbLine
 10
2449.680006030916
 20
2873.999683277028
 30
0.0
 11
2374.680006030905
 21
2798.999683277016
 31
0.0
  0
LINE
  5
138
330
1F
100
AcDbEntity
  8
0-C_ハッチ
  6
JWW_DASHED1
 62
   120
370
     5
100
AcDbLine
 10
2492.106412902114
 20
2873.999683277026
 30
0.0
 11
2417.106412902101
 21
2798.999683277013
 31
0.0
  0
LINE
  5
139
330
1F
100
AcDbEntity
  8
0-C_ハッチ
  6
JWW_DASHED1
 62
   120
370
     5
100
AcDbLine
 10
2534.53281977331
 20
2873.999683277022
 30
0.0
 11
2459.532819773315
 21
2798.999683277026
 31
0.0
  0
LINE
  5
13A
330
1F
100
AcDbEntity
  8
0-C_ハッチ
  6
JWW_DASHED1
 62
   120
370
     5
100
AcDbLine
 10
2576.959226644514
 20
2873.999683277026
 30
0.0
 11
2501.959226644519
 21
2798.999683277031
 31
0.0
  0
LINE
  5
13B
330
1F
100
AcDbEntity
  8
0-C_ハッチ
  6
JWW_DASHED1
 62
   120
370
     5
100
AcDbLine
 10
2619.38563351571
 20
2873.999683277022
 30
0.0
 11
2544.385633515716
 21
2798.999683277028
 31
0.0
  0
LINE
  5
13C
330
1F
100
AcDbEntity
  8
0-C_ハッチ
  6
JWW_DASHED1
 62
   120
370
     5
100
AcDbLine
 10
2661.812040386907
 20
2873.999683277019
 30
0.0
 11
2586.812040386912
 21
2798.999683277023
 31
0.0
  0
LINE
  5
13D
330
1F
100
AcDbEntity
  8
0-C_ハッチ
  6
JWW_DASHED1
 62
   120
370
     5
100
AcDbLine
 10
2704.238447258044
 20
2873.99968327701
 30
0.0
 11
2629.238447258048
 21
2798.999683277015
 31
0.0
  0
LINE
  5
13E
330
1F
100
AcDbEntity
  8
0-C_ハッチ
  6
JWW_DASHED1
 62
   120
370
     5
100
AcDbLine
 10
2746.664854129268
 20
2873.999683277034
 30
0.0
 11
2671.664854129255
 21
2798.999683277021
 31
0.0
  0
LINE
  5
13F
330
1F
100
AcDbEntity
  8
0-C_ハッチ
  6
JWW_DASHED1
 62
   120
370
     5
100
AcDbLine
 10
2789.091261000465
 20
2873.999683277031
 30
0.0
 11
2714.091261000452
 21
2798.999683277019
 31
0.0
  0
LINE
  5
140
330
1F
100
AcDbEntity
  8
0-C_ハッチ
  6
JWW_DASHED1
 62
   120
370
     5
100
AcDbLine
 10
2831.517667871661
 20
2873.999683277028
 30
0.0
 11
2756.517667871649
 21
2798.999683277015
 31
0.0
  0
LINE
  5
141
330
1F
100
AcDbEntity
  8
0-C_ハッチ
  6
JWW_DASHED1
 62
   120
370
     5
100
AcDbLine
 10
2873.944074742861
 20
2873.999683277028
 30
0.0
 11
2798.944074742866
 21
2798.999683277033
 31
0.0
  0
LINE
  5
142
330
1F
100
AcDbEntity
  8
0-C_ハッチ
  6
JWW_DASHED1
 62
   120
370
     5
100
AcDbLine
 10
2916.370481614058
 20
2873.999683277024
 30
0.0
 11
2841.370481614062
 21
2798.999683277028
 31
0.0
  0
LINE
  5
143
330
1F
100
AcDbEntity
  8
0-C_ハッチ
  6
JWW_DASHED1
 62
   120
370
     5
100
AcDbLine
 10
2958.796888485253
 20
2873.99968327702
 30
0.0
 11
2883.796888485259
 21
2798.999683277025
 31
0.0
  0
LINE
  5
144
330
1F
100
AcDbEntity
  8
0-C_ハッチ
  6
JWW_DASHED1
 62
   120
370
     5
100
AcDbLine
 10
3001.22329535645
 20
2873.999683277016
 30
0.0
 11
2926.223295356455
 21
2798.999683277021
 31
0.0
  0
LINE
  5
145
330
1F
100
AcDbEntity
  8
0-C_ハッチ
  6
JWW_DASHED1
 62
   120
370
     5
100
AcDbLine
 10
3043.649702227603
 20
2873.999683277023
 30
0.0
 11
2968.649702227607
 21
2798.999683277028
 31
0.0
  0
LINE
  5
146
330
1F
100
AcDbEntity
  8
0-C_ハッチ
  6
JWW_DASHED1
 62
   120
370
     5
100
AcDbLine
 10
3086.076109098815
 20
2873.999683277036
 30
0.0
 11
3011.076109098804
 21
2798.999683277024
 31
0.0
  0
LINE
  5
147
330
1F
100
AcDbEntity
  8
0-C_ハッチ
  6
JWW_DASHED1
 62
   120
370
     5
100
AcDbLine
 10
3097.187497549298
 20
2842.684664856319
 30
0.0
 11
3053.50251597
 21
2798.999683277021
 31
0.0
  0
LINE
  5
148
330
1F
100
AcDbEntity
  8
0-C_ハッチ
  6
JWW_DASHED1
 62
   120
370
     5
100
AcDbLine
 10
3097.187497549292
 20
2800.258257985113
 30
0.0
 11
3095.928922841213
 21
2798.999683277033
 31
0.0
  0
LINE
  5
149
330
1F
100
AcDbEntity
  8
0-4_枠
  6
Continuous
 62
    92
370
    13
100
AcDbLine
 10
-1874.350411862661
 20
2018.999683277029
 30
0.0
 11
-1874.350411862661
 21
1931.999248401539
 31
0.0
  0
LINE
  5
14A
330
1F
100
AcDbEntity
  8
0-4_枠
  6
Continuous
 62
    92
370
    13
100
AcDbLine
 10
-1874.350411862661
 20
2018.999683277029
 30
0.0
 11
-1877.350411862663
 21
2018.999683277029
 31
0.0
  0
LINE
  5
14B
330
1F
100
AcDbEntity
  8
0-4_枠
  6
Continuous
 62
    92
370
    13
100
AcDbLine
 10
-1710.078482387913
 20
1928.999683277029
 30
0.0
 11
-1877.350411862663
 21
1928.999683277029
 31
0.0
  0
LINE
  5
14C
330
1F
100
AcDbEntity
  8
0-4_枠
  6
Continuous
 62
    92
370
    13
100
AcDbLine
 10
-1710.078482387913
 20
1928.999683277029
 30
0.0
 11
-1697.350560326556
 21
1941.727605338388
 31
0.0
  0
LINE
  5
14D
330
1F
100
AcDbEntity
  8
0-4_枠
  6
Continuous
 62
    92
370
    13
100
AcDbLine
 10
-1711.321557950524
 20
1931.999248401539
 30
0.0
 11
-1700.350125451067
 21
1942.970680900992
 31
0.0
  0
LINE
  5
14E
330
1F
100
AcDbEntity
  8
0-4_枠
  6
Continuous
 62
    92
370
    13
100
AcDbLine
 10
-1711.321557950524
 20
1931.999248401539
 30
0.0
 11
-1874.350411862661
 21
1931.999248401539
 31
0.0
  0
LINE
  5
14F
330
1F
100
AcDbEntity
  8
0-4_枠
  6
Continuous
 62
    92
370
    13
100
AcDbLine
 10
-1877.350411862663
 20
2948.999683277028
 30
0.0
 11
-1877.350411862663
 21
1928.999683277029
 31
0.0
  0
LINE
  5
150
330
1F
100
AcDbEntity
  8
0-4_枠
  6
Continuous
 62
    92
370
    13
100
AcDbLine
 10
-1874.350411862661
 20
2858.999683277028
 30
0.0
 11
-1874.350411862661
 21
2945.99952305974
 31
0.0
  0
LINE
  5
151
330
1F
100
AcDbEntity
  8
0-4_枠
  6
Continuous
 62
    92
370
    13
100
AcDbLine
 10
-1874.350411862661
 20
2858.999683277028
 30
0.0
 11
-1877.350411862663
 21
2858.999683277028
 31
0.0
  0
LINE
  5
152
330
1F
100
AcDbEntity
  8
0-4_枠
  6
Continuous
 62
    92
370
    13
100
AcDbLine
 10
-1710.078482387913
 20
2948.999683277028
 30
0.0
 11
-1877.350411862663
 21
2948.999683277028
 31
0.0
  0
LINE
  5
153
330
1F
100
AcDbEntity
  8
0-4_枠
  6
Continuous
 62
    92
370
    13
100
AcDbLine
 10
-1697.350560326556
 20
2936.271761215669
 30
0.0
 11
-1710.078482387913
 21
2948.999683277028
 31
0.0
  0
LINE
  5
154
330
1F
100
AcDbEntity
  8
0-4_枠
  6
Continuous
 62
    92
370
    13
100
AcDbLine
 10
-1711.320962857747
 20
2945.99952305974
 30
0.0
 11
-1874.350411862661
 21
2945.99952305974
 31
0.0
  0
LINE
  5
155
330
1F
100
AcDbEntity
  8
0-4_枠
  6
Continuous
 62
    92
370
    13
100
AcDbLine
 10
-1700.350125451067
 20
2935.028685653062
 30
0.0
 11
-1711.320962857747
 21
2945.99952305974
 31
0.0
  0
LINE
  5
156
330
1F
100
AcDbEntity
  8
0-4_枠
  6
Continuous
 62
    92
370
    13
100
AcDbLine
 10
-1736.350560326558
 20
2426.999683277029
 30
0.0
 11
-1700.350125451067
 21
2426.999683277029
 31
0.0
  0
LINE
  5
157
330
1F
100
AcDbEntity
  8
0-4_枠
  6
Continuous
 62
    92
370
    13
100
AcDbLine
 10
-1736.350560326558
 20
2678.999683277028
 30
0.0
 11
-1736.350560326558
 21
2426.999683277029
 31
0.0
  0
LINE
  5
158
330
1F
100
AcDbEntity
  8
0-4_枠
  6
Continuous
 62
    92
370
    13
100
AcDbLine
 10
-1736.350560326558
 20
2678.999683277028
 30
0.0
 11
-1700.350125451067
 21
2678.999683277028
 31
0.0
  0
LINE
  5
159
330
1F
100
AcDbEntity
  8
0-4_枠
  6
Continuous
 62
    92
370
    13
100
AcDbLine
 10
-1733.350560326553
 20
2429.999683277028
 30
0.0
 11
-1697.350560326556
 21
2429.999683277028
 31
0.0
  0
LINE
  5
15A
330
1F
100
AcDbEntity
  8
0-4_枠
  6
Continuous
 62
    92
370
    13
100
AcDbLine
 10
-1733.350560326553
 20
2675.999683277028
 30
0.0
 11
-1697.350560326556
 21
2675.999683277028
 31
0.0
  0
LINE
  5
15B
330
1F
100
AcDbEntity
  8
0-4_枠
  6
Continuous
 62
    92
370
    13
100
AcDbLine
 10
-1733.350560326553
 20
2675.999683277028
 30
0.0
 11
-1733.350560326553
 21
2429.999683277028
 31
0.0
  0
LINE
  5
15C
330
1F
100
AcDbEntity
  8
0-4_枠
  6
Continuous
 62
    92
370
    13
100
AcDbLine
 10
-1697.350560326556
 20
2936.271761215669
 30
0.0
 11
-1697.350560326556
 21
2675.999683277028
 31
0.0
  0
LINE
  5
15D
330
1F
100
AcDbEntity
  8
0-4_枠
  6
Continuous
 62
    92
370
    13
100
AcDbLine
 10
-1700.350125451067
 20
2935.028685653062
 30
0.0
 11
-1700.350125451067
 21
2678.999683277028
 31
0.0
  0
LINE
  5
15E
330
1F
100
AcDbEntity
  8
0-4_枠
  6
Continuous
 62
    92
370
    13
100
AcDbLine
 10
-1697.350560326556
 20
1941.727605338388
 30
0.0
 11
-1697.350560326556
 21
2429.999683277028
 31
0.0
  0
LINE
  5
15F
330
1F
100
AcDbEntity
  8
0-4_枠
  6
Continuous
 62
    92
370
    13
100
AcDbLine
 10
-1700.350125451067
 20
1942.970680900992
 30
0.0
 11
-1700.350125451067
 21
2426.999683277029
 31
0.0
  0
LINE
  5
160
330
1F
100
AcDbEntity
  8
0-2_柱
  6
Continuous
 62
    92
370
    13
100
AcDbLine
 10
-1877.350411862663
 20
2798.999683277028
 30
0.0
 11
-1877.350411862663
 21
2078.999683277028
 31
0.0
  0
LINE
  5
161
330
1F
100
AcDbEntity
  8
0-4_枠
  6
Continuous
 62
    92
370
    13
100
AcDbLine
 10
1863.649216977597
 20
2858.999683277028
 30
0.0
 11
1866.649216977598
 21
2858.999683277028
 31
0.0
  0
LINE
  5
162
330
1F
100
AcDbEntity
  8
0-4_枠
  6
Continuous
 62
    92
370
    13
100
AcDbLine
 10
1863.649216977597
 20
2858.999683277028
 30
0.0
 11
1863.649216977597
 21
2945.999523059741
 31
0.0
  0
LINE
  5
163
330
1F
100
AcDbEntity
  8
0-4_枠
  6
Continuous
 62
    92
370
    13
100
AcDbLine
 10
1699.377139038956
 20
2948.999683277028
 30
0.0
 11
1866.649216977598
 21
2948.999683277028
 31
0.0
  0
LINE
  5
164
330
1F
100
AcDbEntity
  8
0-4_枠
  6
Continuous
 62
    92
370
    13
100
AcDbLine
 10
1699.377139038956
 20
2948.999683277028
 30
0.0
 11
1686.649216977598
 21
2936.271761215669
 31
0.0
  0
LINE
  5
165
330
1F
100
AcDbEntity
  8
0-4_枠
  6
Continuous
 62
    92
370
    13
100
AcDbLine
 10
1700.619619508789
 20
2945.999523059741
 30
0.0
 11
1689.648782102109
 21
2935.028685653061
 31
0.0
  0
LINE
  5
166
330
1F
100
AcDbEntity
  8
0-4_枠
  6
Continuous
 62
    92
370
    13
100
AcDbLine
 10
1700.619619508789
 20
2945.999523059741
 30
0.0
 11
1863.649216977597
 21
2945.999523059741
 31
0.0
  0
LINE
  5
167
330
1F
100
AcDbEntity
  8
0-4_枠
  6
Continuous
 62
    92
370
    13
100
AcDbLine
 10
1686.649216977598
 20
2675.999683277028
 30
0.0
 11
1722.649216977598
 21
2675.999683277028
 31
0.0
  0
LINE
  5
168
330
1F
100
AcDbEntity
  8
0-4_枠
  6
Continuous
 62
    92
370
    13
100
AcDbLine
 10
1689.648782102109
 20
2678.999683277028
 30
0.0
 11
1725.649216977598
 21
2678.999683277028
 31
0.0
  0
LINE
  5
169
330
1F
100
AcDbEntity
  8
0-4_枠
  6
Continuous
 62
    92
370
    13
100
AcDbLine
 10
1686.649216977598
 20
2936.271761215669
 30
0.0
 11
1686.649216977598
 21
2675.999683277028
 31
0.0
  0
LINE
  5
16A
330
1F
100
AcDbEntity
  8
0-4_枠
  6
Continuous
 62
    92
370
    13
100
AcDbLine
 10
1689.648782102109
 20
2935.028685653061
 30
0.0
 11
1689.648782102109
 21
2678.999683277028
 31
0.0
  0
LINE
  5
16B
330
1F
100
AcDbEntity
  8
0-4_枠
  6
Continuous
 62
    92
370
    13
100
AcDbLine
 10
1722.649216977598
 20
2675.999683277028
 30
0.0
 11
1722.649216977598
 21
2429.999683277028
 31
0.0
  0
LINE
  5
16C
330
1F
100
AcDbEntity
  8
0-4_枠
  6
Continuous
 62
    92
370
    13
100
AcDbLine
 10
1725.649216977598
 20
2678.999683277028
 30
0.0
 11
1725.649216977598
 21
2426.999683277028
 31
0.0
  0
LINE
  5
16D
330
1F
100
AcDbEntity
  8
0-4_枠
  6
Continuous
 62
    92
370
    13
100
AcDbLine
 10
1722.649216977598
 20
2429.999683277028
 30
0.0
 11
1686.649216977598
 21
2429.999683277028
 31
0.0
  0
LINE
  5
16E
330
1F
100
AcDbEntity
  8
0-4_枠
  6
Continuous
 62
    92
370
    13
100
AcDbLine
 10
1725.649216977598
 20
2426.999683277028
 30
0.0
 11
1689.648782102109
 21
2426.999683277028
 31
0.0
  0
LINE
  5
16F
330
1F
100
AcDbEntity
  8
0-4_枠
  6
Continuous
 62
    92
370
    13
100
AcDbLine
 10
1686.649216977598
 20
2303.999683277028
 30
0.0
 11
1866.649216977598
 21
2303.999683277028
 31
0.0
  0
LINE
  5
170
330
1F
100
AcDbEntity
  8
0-4_枠
  6
Continuous
 62
    92
370
    13
100
AcDbLine
 10
1866.649216977598
 20
2393.999683277028
 30
0.0
 11
1863.649216977597
 21
2393.999683277028
 31
0.0
  0
LINE
  5
171
330
1F
100
AcDbEntity
  8
0-4_枠
  6
Continuous
 62
    92
370
    13
100
AcDbLine
 10
1689.648782102109
 20
2306.999683277026
 30
0.0
 11
1863.649216977597
 21
2306.999683277026
 31
0.0
  0
LINE
  5
172
330
1F
100
AcDbEntity
  8
0-4_枠
  6
Continuous
 62
    92
370
    13
100
AcDbLine
 10
1863.649216977597
 20
2393.999683277028
 30
0.0
 11
1863.649216977597
 21
2306.999683277026
 31
0.0
  0
LINE
  5
173
330
1F
100
AcDbEntity
  8
0-4_枠
  6
Continuous
 62
    92
370
    13
100
AcDbLine
 10
1866.649216977598
 20
2303.999683277028
 30
0.0
 11
1866.649216977598
 21
2948.999683277028
 31
0.0
  0
LINE
  5
174
330
1F
100
AcDbEntity
  8
0-4_枠
  6
Continuous
 62
    92
370
    13
100
AcDbLine
 10
1689.648782102109
 20
2426.999683277028
 30
0.0
 11
1689.648782102109
 21
2306.999683277026
 31
0.0
  0
LINE
  5
175
330
1F
100
AcDbEntity
  8
0-4_枠
  6
Continuous
 62
    92
370
    13
100
AcDbLine
 10
1686.649216977598
 20
2429.999683277028
 30
0.0
 11
1686.649216977598
 21
2303.999683277028
 31
0.0
  0
LINE
  5
176
330
1F
100
AcDbEntity
  8
0-2_柱
  6
Continuous
 62
    92
370
    13
100
AcDbLine
 10
1866.649216977598
 20
2798.999683277027
 30
0.0
 11
1866.649216977598
 21
2078.99993071685
 31
0.0
  0
LINE
  5
177
330
1F
100
AcDbEntity
  8
0-3_仕上げ
  6
Continuous
 62
    40
370
    15
100
AcDbLine
 10
1686.649365441492
 20
2378.99993071685
 30
0.0
 11
1686.649365441492
 21
2303.999683277028
 31
0.0
  0
LINE
  5
178
330
1F
100
AcDbEntity
  8
0-3_仕上げ
  6
Continuous
 62
    40
370
    15
100
AcDbLine
 10
84.64958813733429
 20
2303.999683277028
 30
0.0
 11
613.3527590743614
 21
2303.999683277028
 31
0.0
  0
LINE
  5
179
330
1F
100
AcDbEntity
  8
0-3_仕上げ
  6
Continuous
 62
    40
370
    15
100
AcDbLine
 10
733.3527590743614
 20
2303.999683277028
 30
0.0
 11
1686.649365441491
 21
2303.999683277028
 31
0.0
  0
LINE
  5
17A
330
1F
100
AcDbEntity
  8
0-3_仕上げ
  6
Continuous
 62
    40
370
    15
100
AcDbLine
 10
84.64958813733429
 20
2378.99993071685
 30
0.0
 11
613.3527590743614
 21
2378.99993071685
 31
0.0
  0
LINE
  5
17B
330
1F
100
AcDbEntity
  8
0-3_仕上げ
  6
Continuous
 62
    40
370
    15
100
AcDbLine
 10
733.3527590743614
 20
2378.99993071685
 30
0.0
 11
1686.649365441491
 21
2378.99993071685
 31
0.0
  0
LINE
  5
17C
330
1F
100
AcDbEntity
  8
0-C_ハッチ
  6
JWW_DASHED1
 62
   120
370
     5
100
AcDbLine
 10
1645.040866364586
 20
2303.99968327703
 30
0.0
 11
1686.649365441484
 21
2345.608182353928
 31
0.0
  0
LINE
  5
17D
330
1F
100
AcDbEntity
  8
0-C_ハッチ
  6
JWW_DASHED1
 62
   120
370
     5
100
AcDbLine
 10
1602.614459493389
 20
2303.999683277033
 30
0.0
 11
1677.614706933204
 21
2378.999930716849
 31
0.0
  0
LINE
  5
17E
330
1F
100
AcDbEntity
  8
0-C_ハッチ
  6
JWW_DASHED1
 62
   120
370
     5
100
AcDbLine
 10
1560.188052622179
 20
2303.999683277023
 30
0.0
 11
1635.188300061993
 21
2378.999930716837
 31
0.0
  0
LINE
  5
17F
330
1F
100
AcDbEntity
  8
0-C_ハッチ
  6
JWW_DASHED1
 62
   120
370
     5
100
AcDbLine
 10
1517.76164575098
 20
2303.999683277024
 30
0.0
 11
1592.761893190795
 21
2378.99993071684
 31
0.0
  0
LINE
  5
180
330
1F
100
AcDbEntity
  8
0-C_ハッチ
  6
JWW_DASHED1
 62
   120
370
     5
100
AcDbLine
 10
1475.335238879783
 20
2303.999683277028
 30
0.0
 11
1550.335486319599
 21
2378.999930716843
 31
0.0
  0
LINE
  5
181
330
1F
100
AcDbEntity
  8
0-C_ハッチ
  6
JWW_DASHED1
 62
   120
370
     5
100
AcDbLine
 10
1432.908832008587
 20
2303.999683277031
 30
0.0
 11
1507.909079448403
 21
2378.999930716847
 31
0.0
  0
LINE
  5
182
330
1F
100
AcDbEntity
  8
0-C_ハッチ
  6
JWW_DASHED1
 62
   120
370
     5
100
AcDbLine
 10
1390.482425137449
 20
2303.999683277039
 30
0.0
 11
1465.482672577265
 21
2378.999930716855
 31
0.0
  0
LINE
  5
183
330
1F
100
AcDbEntity
  8
0-C_ハッチ
  6
JWW_DASHED1
 62
   120
370
     5
100
AcDbLine
 10
1348.056018266237
 20
2303.999683277027
 30
0.0
 11
1423.056265706068
 21
2378.999930716858
 31
0.0
  0
LINE
  5
184
330
1F
100
AcDbEntity
  8
0-C_ハッチ
  6
JWW_DASHED1
 62
   120
370
     5
100
AcDbLine
 10
1305.62961139504
 20
2303.99968327703
 30
0.0
 11
1380.629858834856
 21
2378.999930716846
 31
0.0
  0
LINE
  5
185
330
1F
100
AcDbEntity
  8
0-C_ハッチ
  6
JWW_DASHED1
 62
   120
370
     5
100
AcDbLine
 10
1263.203204523835
 20
2303.999683277025
 30
0.0
 11
1338.20345196365
 21
2378.99993071684
 31
0.0
  0
LINE
  5
186
330
1F
100
AcDbEntity
  8
0-C_ハッチ
  6
JWW_DASHED1
 62
   120
370
     5
100
AcDbLine
 10
1220.776797652639
 20
2303.999683277029
 30
0.0
 11
1295.777045092454
 21
2378.999930716844
 31
0.0
  0
LINE
  5
187
330
1F
100
AcDbEntity
  8
0-C_ハッチ
  6
JWW_DASHED1
 62
   120
370
     5
100
AcDbLine
 10
1178.350390781435
 20
2303.999683277025
 30
0.0
 11
1253.35063822125
 21
2378.99993071684
 31
0.0
  0
LINE
  5
188
330
1F
100
AcDbEntity
  8
0-C_ハッチ
  6
JWW_DASHED1
 62
   120
370
     5
100
AcDbLine
 10
1135.923983910238
 20
2303.999683277028
 30
0.0
 11
1210.924231350054
 21
2378.999930716844
 31
0.0
  0
LINE
  5
189
330
1F
100
AcDbEntity
  8
0-C_ハッチ
  6
JWW_DASHED1
 62
   120
370
     5
100
AcDbLine
 10
1093.497577039101
 20
2303.999683277036
 30
0.0
 11
1168.497824478916
 21
2378.999930716852
 31
0.0
  0
LINE
  5
18A
330
1F
100
AcDbEntity
  8
0-C_ハッチ
  6
JWW_DASHED1
 62
   120
370
     5
100
AcDbLine
 10
1051.071170167904
 20
2303.999683277039
 30
0.0
 11
1126.07141760772
 21
2378.999930716855
 31
0.0
  0
LINE
  5
18B
330
1F
100
AcDbEntity
  8
0-C_ハッチ
  6
JWW_DASHED1
 62
   120
370
     5
100
AcDbLine
 10
1008.644763296692
 20
2303.999683277028
 30
0.0
 11
1083.645010736523
 21
2378.999930716859
 31
0.0
  0
LINE
  5
18C
330
1F
100
AcDbEntity
  8
0-C_ハッチ
  6
JWW_DASHED1
 62
   120
370
     5
100
AcDbLine
 10
966.2183564254952
 20
2303.999683277031
 30
0.0
 11
1041.218603865311
 21
2378.999930716846
 31
0.0
  0
LINE
  5
18D
330
1F
100
AcDbEntity
  8
0-C_ハッチ
  6
JWW_DASHED1
 62
   120
370
     5
100
AcDbLine
 10
923.7919495542952
 20
2303.999683277031
 30
0.0
 11
998.7921969941099
 21
2378.999930716845
 31
0.0
  0
LINE
  5
18E
330
1F
100
AcDbEntity
  8
0-C_ハッチ
  6
JWW_DASHED1
 62
   120
370
     5
100
AcDbLine
 10
881.3655426830862
 20
2303.999683277022
 30
0.0
 11
956.3657901229017
 21
2378.999930716837
 31
0.0
  0
LINE
  5
18F
330
1F
100
AcDbEntity
  8
0-C_ハッチ
  6
JWW_DASHED1
 62
   120
370
     5
100
AcDbLine
 10
838.9391358118896
 20
2303.999683277025
 30
0.0
 11
913.9393832517055
 21
2378.999930716841
 31
0.0
  0
LINE
  5
190
330
1F
100
AcDbEntity
  8
0-C_ハッチ
  6
JWW_DASHED1
 62
   120
370
     5
100
AcDbLine
 10
796.5127289406935
 20
2303.999683277029
 30
0.0
 11
871.5129763805089
 21
2378.999930716845
 31
0.0
  0
LINE
  5
191
330
1F
100
AcDbEntity
  8
0-C_ハッチ
  6
JWW_DASHED1
 62
   120
370
     5
100
AcDbLine
 10
754.0863220695555
 20
2303.999683277037
 30
0.0
 11
829.0865695093712
 21
2378.999930716852
 31
0.0
  0
LINE
  5
192
330
1F
100
AcDbEntity
  8
0-C_ハッチ
  6
JWW_DASHED1
 62
   120
370
     5
100
AcDbLine
 10
733.3527590743502
 20
2325.692527153031
 30
0.0
 11
786.6601626381746
 21
2378.999930716855
 31
0.0
  0
LINE
  5
193
330
1F
100
AcDbEntity
  8
0-C_ハッチ
  6
JWW_DASHED1
 62
   120
370
     5
100
AcDbLine
 10
733.3527590743533
 20
2368.118934024234
 30
0.0
 11
744.233755766978
 21
2378.999930716859
 31
0.0
  0
LINE
  5
194
330
1F
100
AcDbEntity
  8
0-C_ハッチ
  6
JWW_DASHED1
 62
   120
370
     5
100
AcDbLine
 10
584.3806945847523
 20
2303.999683277033
 30
0.0
 11
613.3527590743568
 21
2332.971747766638
 31
0.0
  0
LINE
  5
195
330
1F
100
AcDbEntity
  8
0-C_ハッチ
  6
JWW_DASHED1
 62
   120
370
     5
100
AcDbLine
 10
541.9542877135409
 20
2303.999683277022
 30
0.0
 11
613.3527590743734
 21
2375.398154637855
 31
0.0
  0
LINE
  5
196
330
1F
100
AcDbEntity
  8
0-C_ハッチ
  6
JWW_DASHED1
 62
   120
370
     5
100
AcDbLine
 10
499.5278808423444
 20
2303.999683277026
 30
0.0
 11
574.5281282821597
 21
2378.99993071684
 31
0.0
  0
LINE
  5
197
330
1F
100
AcDbEntity
  8
0-C_ハッチ
  6
JWW_DASHED1
 62
   120
370
     5
100
AcDbLine
 10
457.1014739712066
 20
2303.999683277033
 30
0.0
 11
532.101721411022
 21
2378.999930716848
 31
0.0
  0
LINE
  5
198
330
1F
100
AcDbEntity
  8
0-C_ハッチ
  6
JWW_DASHED1
 62
   120
370
     5
100
AcDbLine
 10
414.6750671000102
 20
2303.999683277037
 30
0.0
 11
489.6753145398256
 21
2378.999930716852
 31
0.0
  0
LINE
  5
199
330
1F
100
AcDbEntity
  8
0-C_ハッチ
  6
JWW_DASHED1
 62
   120
370
     5
100
AcDbLine
 10
372.2486602287978
 20
2303.999683277024
 30
0.0
 11
447.2489076686292
 21
2378.999930716856
 31
0.0
  0
LINE
  5
19A
330
1F
100
AcDbEntity
  8
0-C_ハッチ
  6
JWW_DASHED1
 62
   120
370
     5
100
AcDbLine
 10
329.8222533576014
 20
2303.999683277028
 30
0.0
 11
404.8225007974168
 21
2378.999930716843
 31
0.0
  0
LINE
  5
19B
330
1F
100
AcDbEntity
  8
0-C_ハッチ
  6
JWW_DASHED1
 62
   120
370
     5
100
AcDbLine
 10
287.395846486395
 20
2303.999683277021
 30
0.0
 11
362.3960939262128
 21
2378.99993071684
 31
0.0
  0
LINE
  5
19C
330
1F
100
AcDbEntity
  8
0-C_ハッチ
  6
JWW_DASHED1
 62
   120
370
     5
100
AcDbLine
 10
244.9694396151973
 20
2303.999683277024
 30
0.0
 11
319.9696870550151
 21
2378.999930716841
 31
0.0
  0
LINE
  5
19D
330
1F
100
AcDbEntity
  8
0-C_ハッチ
  6
JWW_DASHED1
 62
   120
370
     5
100
AcDbLine
 10
202.543032743996
 20
2303.999683277023
 30
0.0
 11
277.5432801838115
 21
2378.999930716838
 31
0.0
  0
LINE
  5
19E
330
1F
100
AcDbEntity
  8
0-C_ハッチ
  6
JWW_DASHED1
 62
   120
370
     5
100
AcDbLine
 10
160.1166258727997
 20
2303.999683277027
 30
0.0
 11
235.116873312615
 21
2378.999930716841
 31
0.0
  0
LINE
  5
19F
330
1F
100
AcDbEntity
  8
0-C_ハッチ
  6
JWW_DASHED1
 62
   120
370
     5
100
AcDbLine
 10
117.6902190016619
 20
2303.999683277034
 30
0.0
 11
192.6904664414773
 21
2378.999930716849
 31
0.0
  0
LINE
  5
1A0
330
1F
100
AcDbEntity
  8
0-C_ハッチ
  6
JWW_DASHED1
 62
   120
370
     5
100
AcDbLine
 10
84.64936544148394
 20
2313.385236588056
 30
0.0
 11
150.2640595702809
 21
2378.999930716853
 31
0.0
  0
LINE
  5
1A1
330
1F
100
AcDbEntity
  8
0-C_ハッチ
  6
JWW_DASHED1
 62
   120
370
     5
100
AcDbLine
 10
84.64936544148948
 20
2355.811643459261
 30
0.0
 11
107.8376526990841
 21
2378.999930716856
 31
0.0
  0
LINE
  5
1A2
330
1F
100
AcDbEntity
  8
0-2_柱
  6
Continuous
 62
    92
370
    13
100
AcDbLine
 10
1686.649216977598
 20
2303.999683277028
 30
0.0
 11
1686.649216977598
 21
2078.99993071685
 31
0.0
  0
LINE
  5
1A3
330
1F
100
AcDbEntity
  8
0-2_柱
  6
Continuous
 62
    92
370
    13
100
AcDbLine
 10
264.6493654414936
 20
2303.999683277028
 30
0.0
 11
264.6493654414936
 21
2078.99993071685
 31
0.0
  0
LINE
  5
1A4
330
1F
100
AcDbEntity
  8
0-2_柱
  6
Continuous
 62
     7
370
     9
100
AcDbLine
 10
264.6493654414936
 20
2303.999683277028
 30
0.0
 11
84.64958813733429
 21
2078.99993071685
 31
0.0
  0
LINE
  5
1A5
330
1F
100
AcDbEntity
  8
0-2_柱
  6
Continuous
 62
     7
370
     9
100
AcDbLine
 10
1866.649216977598
 20
2303.999683277028
 30
0.0
 11
1686.649216977598
 21
2078.99993071685
 31
0.0
  0
LINE
  5
1A6
330
1F
100
AcDbEntity
  8
0-B_寸法
  6
Continuous
 62
   120
370
     5
100
AcDbLine
 10
1262.055930011389
 20
2948.999683277028
 30
0.0
 11
1262.055930011389
 21
2303.999683277028
 31
0.0
  0
LWPOLYLINE
  5
1A7
330
1F
100
AcDbEntity
  8
0-B_寸法
  6
Continuous
 62
     7
370
     9
100
AcDbPolyline
 90
        4
 70
     1
 43
3.0
 10
1263.555930011389
 20
2948.999683277028
 42
0.4142135623731
 10
1262.055930011389
 20
2950.499683277027
 42
0.4142135623731
 10
1260.555930011389
 20
2948.999683277028
 42
0.4142135623731
 10
1262.055930011389
 20
2947.499683277028
 42
0.4142135623731
  0
LWPOLYLINE
  5
1A8
330
1F
100
AcDbEntity
  8
0-B_寸法
  6
Continuous
 62
     7
370
     9
100
AcDbPolyline
 90
        4
 70
     1
 43
3.0
 10
1263.555930011389
 20
2303.999683277028
 42
0.4142135623731
 10
1262.055930011389
 20
2305.499683277027
 42
0.4142135623731
 10
1260.555930011389
 20
2303.999683277028
 42
0.4142135623731
 10
1262.055930011389
 20
2302.499683277028
 42
0.4142135623731
  0
LINE
  5
1A9
330
1F
100
AcDbEntity
  8
0-B_寸法
  6
Continuous
 62
   120
370
     5
100
AcDbLine
 10
1262.055930011389
 20
2948.999683277028
 30
0.0
 11
1390.924013640222
 21
2948.999683277028
 31
0.0
  0
LINE
  5
1AA
330
1F
100
AcDbEntity
  8
0-B_寸法
  6
Continuous
 62
   120
370
     5
100
AcDbLine
 10
1262.055930011389
 20
2303.999683277028
 30
0.0
 11
1390.924013640222
 21
2303.999683277028
 31
0.0
  0
LINE
  5
1AB
330
1F
100
AcDbEntity
  8
0-6_扉
  6
Continuous
 62
   200
370
    20
100
AcDbLine
 10
84.64958813733429
 20
2462.999683277028
 30
0.0
 11
84.64958813733429
 21
2643.000039590373
 31
0.0
  0
LINE
  5
1AC
330
1F
100
AcDbEntity
  8
0-6_扉
  6
JWW_DASHED2
 62
    40
370
    15
100
AcDbLine
 10
-95.35063455850721
 20
2462.999683277028
 30
0.0
 11
-95.35063455850721
 21
2642.999683277028
 31
0.0
  0
LINE
  5
1AD
330
1F
100
AcDbEntity
  8
0-7_金物
  6
Continuous
 62
     7
370
     9
100
AcDbLine
 10
-1733.350561558594
 20
2507.999912262363
 30
0.0
 11
-1733.350561528683
 21
2597.99991386181
 31
0.0
  0
LINE
  5
1AE
330
1F
100
AcDbEntity
  8
0-7_金物
  6
Continuous
 62
     7
370
     9
100
AcDbLine
 10
-1733.350561548128
 20
2537.99991327235
 30
0.0
 11
-1763.35056124147
 21
2537.999913510779
 31
0.0
  0
LINE
  5
1AF
330
1F
100
AcDbEntity
  8
0-7_金物
  6
Continuous
 62
     7
370
     9
100
AcDbLine
 10
-1763.35056124147
 20
2537.999913510779
 30
0.0
 11
-1763.350561003383
 21
2567.999913089567
 31
0.0
  0
LINE
  5
1B0
330
1F
100
AcDbEntity
  8
0-7_金物
  6
Continuous
 62
     7
370
     9
100
AcDbLine
 10
-1733.350561539148
 20
2567.999912851823
 30
0.0
 11
-1763.350561003383
 21
2567.999913089567
 31
0.0
  0
LINE
  5
1B1
330
1F
100
AcDbEntity
  8
0-7_金物
  6
Continuous
 62
     7
370
     9
100
AcDbLine
 10
-1715.350413118254
 20
2507.999913263241
 30
0.0
 11
-1733.350561558594
 21
2507.999912262363
 31
0.0
  0
LINE
  5
1B2
330
1F
100
AcDbEntity
  8
0-7_金物
  6
Continuous
 62
     7
370
     9
100
AcDbLine
 10
-1715.350412403997
 20
2597.999911999606
 30
0.0
 11
-1733.350561528683
 21
2597.99991386181
 31
0.0
  0
ARC
  5
1B3
330
1F
100
AcDbEntity
  8
0-7_金物
  6
Continuous
 62
     7
370
     9
100
AcDbCircle
 10
-1898.057756852239
 20
2552.99991310875
 30
0.0
 40
188.167407989502
100
AcDbArc
 50
346.1637114550783
 51
13.83631887695323
  0
LINE
  5
1B4
330
1F
100
AcDbEntity
  8
0-6_扉
  6
Continuous
 62
   200
370
    20
100
AcDbLine
 10
-1715.350411862666
 20
2462.999683277028
 30
0.0
 11
-1715.350411862666
 21
2642.999683277028
 31
0.0
  0
LINE
  5
1B5
330
1F
100
AcDbEntity
  8
0-7_金物
  6
Continuous
 62
     7
370
     9
100
AcDbLine
 10
1704.649365494957
 20
2507.999913261443
 30
0.0
 11
1722.649365471403
 21
2507.999912260566
 31
0.0
  0
LINE
  5
1B6
330
1F
100
AcDbEntity
  8
0-7_金物
  6
Continuous
 62
     7
370
     9
100
AcDbLine
 10
1722.649365471403
 20
2507.999912260566
 30
0.0
 11
1722.649365441492
 21
2597.999913860013
 31
0.0
  0
LINE
  5
1B7
330
1F
100
AcDbEntity
  8
0-7_金物
  6
Continuous
 62
     7
370
     9
100
AcDbLine
 10
1704.649364780698
 20
2597.999911997809
 30
0.0
 11
1722.649365441492
 21
2597.999913860013
 31
0.0
  0
LINE
  5
1B8
330
1F
100
AcDbEntity
  8
0-7_金物
  6
Continuous
 62
     7
370
     9
100
AcDbLine
 10
1722.649365460937
 20
2537.999913270553
 30
0.0
 11
1752.649365154279
 21
2537.999913508982
 31
0.0
  0
LINE
  5
1B9
330
1F
100
AcDbEntity
  8
0-7_金物
  6
Continuous
 62
     7
370
     9
100
AcDbLine
 10
1752.649365154279
 20
2537.999913508982
 30
0.0
 11
1752.649364916192
 21
2567.99991308777
 31
0.0
  0
LINE
  5
1BA
330
1F
100
AcDbEntity
  8
0-7_金物
  6
Continuous
 62
     7
370
     9
100
AcDbLine
 10
1722.649365451955
 20
2567.999912850026
 30
0.0
 11
1752.649364916192
 21
2567.99991308777
 31
0.0
  0
ARC
  5
1BB
330
1F
100
AcDbEntity
  8
0-7_金物
  6
Continuous
 62
     7
370
     9
100
AcDbCircle
 10
1887.356709228942
 20
2552.999913106953
 30
0.0
 40
188.167407989502
100
AcDbArc
 50
166.1636811230468
 51
193.8362885449218
  0
LINE
  5
1BC
330
1F
100
AcDbEntity
  8
0-6_扉
  6
JWW_DASHED2
 62
    40
370
    15
100
AcDbLine
 10
1704.649365441493
 20
2462.999683277028
 30
0.0
 11
1704.649365441493
 21
2642.999683277028
 31
0.0
  0
LINE
  5
1BD
330
1F
100
AcDbEntity
  8
0-6_扉
  6
Continuous
 62
   200
370
    20
100
AcDbLine
 10
-1715.350411862666
 20
2462.999683277028
 30
0.0
 11
-965.3505232105864
 21
2462.999683277028
 31
0.0
  0
LINE
  5
1BE
330
1F
100
AcDbEntity
  8
0-6_扉
  6
Continuous
 62
   200
370
    20
100
AcDbLine
 10
-1715.350411862666
 20
2642.999683277028
 30
0.0
 11
-965.3505232105864
 21
2642.999683277028
 31
0.0
  0
LINE
  5
1BF
330
1F
100
AcDbEntity
  8
0-6_扉
  6
Continuous
 62
   200
370
    20
100
AcDbLine
 10
-845.3505232105864
 20
2642.999683277028
 30
0.0
 11
84.64958813733429
 21
2642.999683277028
 31
0.0
  0
LINE
  5
1C0
330
1F
100
AcDbEntity
  8
0-6_扉
  6
JWW_DASHED2
 62
    40
370
    15
100
AcDbLine
 10
-95.35063455850721
 20
2462.999683277028
 30
0.0
 11
613.3527590743614
 21
2462.999683277028
 31
0.0
  0
LINE
  5
1C1
330
1F
100
AcDbEntity
  8
0-6_扉
  6
JWW_DASHED2
 62
    40
370
    15
100
AcDbLine
 10
733.3527590743614
 20
2462.999683277028
 30
0.0
 11
1704.649365441493
 21
2462.999683277028
 31
0.0
  0
LINE
  5
1C2
330
1F
100
AcDbEntity
  8
0-6_扉
  6
JWW_DASHED2
 62
    40
370
    15
100
AcDbLine
 10
-95.35063455850721
 20
2642.999683277028
 30
0.0
 11
613.3527590743614
 21
2642.999683277028
 31
0.0
  0
LINE
  5
1C3
330
1F
100
AcDbEntity
  8
0-6_扉
  6
JWW_DASHED2
 62
    40
370
    15
100
AcDbLine
 10
733.3527590743614
 20
2642.999683277028
 30
0.0
 11
1704.649365441493
 21
2642.999683277028
 31
0.0
  0
LWPOLYLINE
  5
1C4
330
1F
100
AcDbEntity
  8
0-B_寸法
  6
Continuous
 62
     7
370
     9
100
AcDbPolyline
 90
        4
 70
     1
 43
3.0
 10
-278.0783666240681
 20
1928.999683277028
 42
0.4142135623731
 10
-279.5783666240681
 20
1930.499683277028
 42
0.4142135623731
 10
-281.0783666240681
 20
1928.999683277028
 42
0.4142135623731
 10
-279.5783666240681
 20
1927.499683277028
 42
0.4142135623731
  0
LINE
  5
1C5
330
1F
100
AcDbEntity
  8
0-B_寸法
  6
Continuous
 62
   120
370
     5
100
AcDbLine
 10
-279.5783666240681
 20
2423.999683277028
 30
0.0
 11
-279.5783666240681
 21
1928.999683277028
 31
0.0
  0
LINE
  5
1C6
330
1F
100
AcDbEntity
  8
0-B_寸法
  6
Continuous
 62
   120
370
     5
100
AcDbLine
 10
-125.7318653462616
 20
1928.999683277028
 30
0.0
 11
-279.5783666240681
 21
1928.999683277028
 31
0.0
  0
LWPOLYLINE
  5
1C7
330
1F
100
AcDbEntity
  8
0-B_寸法
  6
Continuous
 62
     7
370
     9
100
AcDbPolyline
 90
        4
 70
     1
 43
3.0
 10
-278.0783666240681
 20
2462.999683277028
 42
0.4142135623731
 10
-279.5783666240681
 20
2464.499683277028
 42
0.4142135623731
 10
-281.0783666240681
 20
2462.999683277028
 42
0.4142135623731
 10
-279.5783666240681
 20
2461.499683277028
 42
0.4142135623731
  0
LINE
  5
1C8
330
1F
100
AcDbEntity
  8
0-B_寸法
  6
Continuous
 62
   120
370
     5
100
AcDbLine
 10
-129.3006154231611
 20
2642.999683277028
 30
0.0
 11
-279.5783666240681
 21
2642.999683277028
 31
0.0
  0
LWPOLYLINE
  5
1C9
330
1F
100
AcDbEntity
  8
0-B_寸法
  6
Continuous
 62
     7
370
     9
100
AcDbPolyline
 90
        4
 70
     1
 43
3.0
 10
-278.0783666240681
 20
2642.999683277028
 42
0.4142135623731
 10
-279.5783666240681
 20
2644.499683277028
 42
0.4142135623731
 10
-281.0783666240681
 20
2642.999683277028
 42
0.4142135623731
 10
-279.5783666240681
 20
2641.499683277028
 42
0.4142135623731
  0
LINE
  5
1CA
330
1F
100
AcDbEntity
  8
0-B_寸法
  6
Continuous
 62
   120
370
     5
100
AcDbLine
 10
-279.5783666240681
 20
2642.999683277028
 30
0.0
 11
-279.5783666240681
 21
2462.999683277028
 31
0.0
  0
LWPOLYLINE
  5
1CB
330
1F
100
AcDbEntity
  8
0-B_寸法
  6
Continuous
 62
     7
370
     9
100
AcDbPolyline
 90
        4
 70
     1
 43
3.0
 10
-278.0783666240681
 20
2423.999683277028
 42
0.4142135623731
 10
-279.5783666240681
 20
2425.499683277028
 42
0.4142135623731
 10
-281.0783666240681
 20
2423.999683277028
 42
0.4142135623731
 10
-279.5783666240681
 20
2422.499683277028
 42
0.4142135623731
  0
LINE
  5
1CC
330
1F
100
AcDbEntity
  8
0-B_寸法
  6
Continuous
 62
   120
370
     5
100
AcDbLine
 10
-279.5783666240681
 20
2462.999683277028
 30
0.0
 11
-279.5783666240681
 21
2423.999683277028
 31
0.0
  0
LINE
  5
1CD
330
1F
100
AcDbEntity
  8
0-4_枠
  6
Continuous
 62
    92
370
    13
100
AcDbLine
 10
-82.6227124971494
 20
1928.999683277028
 30
0.0
 11
-95.35063455850721
 21
1941.727605338386
 31
0.0
  0
LINE
  5
1CE
330
1F
100
AcDbEntity
  8
0-4_枠
  6
Continuous
 62
    92
370
    13
100
AcDbLine
 10
-95.35063455850721
 20
1941.727605338386
 30
0.0
 11
-95.35063455850721
 21
2423.999683277028
 31
0.0
  0
LINE
  5
1CF
330
1F
100
AcDbEntity
  8
0-4_枠
  6
Continuous
 62
    92
370
    13
100
AcDbLine
 10
-82.6227124971494
 20
1928.999683277028
 30
0.0
 11
84.64936544149364
 21
1928.999683277028
 31
0.0
  0
LINE
  5
1D0
330
1F
100
AcDbEntity
  8
0-4_枠
  6
Continuous
 62
    92
370
    13
100
AcDbLine
 10
81.64936544149381
 20
2018.999683277028
 30
0.0
 11
81.64936544149381
 21
1931.999683277028
 31
0.0
  0
LINE
  5
1D1
330
1F
100
AcDbEntity
  8
0-4_枠
  6
Continuous
 62
    92
370
    13
100
AcDbLine
 10
81.64936544149381
 20
2018.999683277028
 30
0.0
 11
84.64936544149364
 21
2018.999683277028
 31
0.0
  0
LINE
  5
1D2
330
1F
100
AcDbEntity
  8
0-4_枠
  6
Continuous
 62
    92
370
    13
100
AcDbLine
 10
-92.35063455850567
 20
2420.999683277029
 30
0.0
 11
-92.35063455850567
 21
1942.970246025504
 31
0.0
  0
LINE
  5
1D3
330
1F
100
AcDbEntity
  8
0-4_枠
  6
Continuous
 62
    92
370
    13
100
AcDbLine
 10
-81.38007181002983
 20
1931.999683277028
 30
0.0
 11
81.64936544149381
 21
1931.999683277028
 31
0.0
  0
LINE
  5
1D4
330
1F
100
AcDbEntity
  8
0-4_枠
  6
Continuous
 62
    92
370
    13
100
AcDbLine
 10
-81.38007181002983
 20
1931.999683277028
 30
0.0
 11
-92.35063455850567
 21
1942.970246025504
 31
0.0
  0
LINE
  5
1D5
330
1F
100
AcDbEntity
  8
0-4_枠
  6
Continuous
 62
    92
370
    13
100
AcDbLine
 10
81.64936544149381
 20
2333.999683277028
 30
0.0
 11
84.64936544149364
 21
2333.999683277028
 31
0.0
  0
LINE
  5
1D6
330
1F
100
AcDbEntity
  8
0-4_枠
  6
Continuous
 62
    92
370
    13
100
AcDbLine
 10
81.64936544149381
 20
2333.999683277028
 30
0.0
 11
81.64936544149381
 21
2420.999683277029
 31
0.0
  0
LINE
  5
1D7
330
1F
100
AcDbEntity
  8
0-4_枠
  6
Continuous
 62
    92
370
    13
100
AcDbLine
 10
-41.3506345585072
 20
2411.999683277028
 30
0.0
 11
30.64936544149361
 21
2411.999683277028
 31
0.0
  0
LINE
  5
1D8
330
1F
100
AcDbEntity
  8
0-4_枠
  6
Continuous
 62
    92
370
    13
100
AcDbLine
 10
30.64936544149361
 20
2423.999683277028
 30
0.0
 11
30.64936544149361
 21
2411.999683277028
 31
0.0
  0
LINE
  5
1D9
330
1F
100
AcDbEntity
  8
0-4_枠
  6
Continuous
 62
    92
370
    13
100
AcDbLine
 10
30.64936544149361
 20
2423.999683277028
 30
0.0
 11
84.64936544149364
 21
2423.999683277028
 31
0.0
  0
LINE
  5
1DA
330
1F
100
AcDbEntity
  8
0-4_枠
  6
Continuous
 62
    92
370
    13
100
AcDbLine
 10
-41.3506345585072
 20
2423.999683277028
 30
0.0
 11
-41.3506345585072
 21
2411.999683277028
 31
0.0
  0
LINE
  5
1DB
330
1F
100
AcDbEntity
  8
0-4_枠
  6
Continuous
 62
    92
370
    13
100
AcDbLine
 10
-41.3506345585072
 20
2423.999683277028
 30
0.0
 11
-95.35063455850721
 21
2423.999683277028
 31
0.0
  0
LINE
  5
1DC
330
1F
100
AcDbEntity
  8
0-4_枠
  6
Continuous
 62
    92
370
    13
100
AcDbLine
 10
-41.3506345585072
 20
2420.999683277029
 30
0.0
 11
-92.35063455850567
 21
2420.999683277029
 31
0.0
  0
LINE
  5
1DD
330
1F
100
AcDbEntity
  8
0-4_枠
  6
Continuous
 62
    92
370
    13
100
AcDbLine
 10
30.64936544149361
 20
2420.999683277029
 30
0.0
 11
81.64936544149381
 21
2420.999683277029
 31
0.0
  0
LINE
  5
1DE
330
1F
100
AcDbEntity
  8
0-2_柱
  6
Continuous
 62
    92
370
    13
100
AcDbLine
 10
-2057.350411862663
 20
2798.999683277028
 30
0.0
 11
-2057.350411862663
 21
2078.999683277028
 31
0.0
  0
LINE
  5
1DF
330
1F
100
AcDbEntity
  8
0-2_柱
  6
Continuous
 62
    92
370
    13
100
AcDbLine
 10
-2777.350411862663
 20
2798.999683277028
 30
0.0
 11
-2777.350411862663
 21
2078.999683277028
 31
0.0
  0
LINE
  5
1E0
330
1F
100
AcDbEntity
  8
0-2_柱
  6
Continuous
 62
     7
370
     9
100
AcDbLine
 10
-2777.350411862663
 20
2798.999683277028
 30
0.0
 11
-2057.350411862663
 21
2078.999683277028
 31
0.0
  0
LINE
  5
1E1
330
1F
100
AcDbEntity
  8
0-2_柱
  6
Continuous
 62
     7
370
     9
100
AcDbLine
 10
-2057.350411862663
 20
2798.999683277028
 30
0.0
 11
-2769.861746857679
 21
2078.999683277014
 31
0.0
  0
LINE
  5
1E2
330
1F
100
AcDbEntity
  8
0-2_柱
  6
Continuous
 62
     7
370
     9
100
AcDbLine
 10
-1877.350411862663
 20
2798.999683277028
 30
0.0
 11
-2057.350411862663
 21
2078.999683277028
 31
0.0
  0
LINE
  5
1E3
330
1F
100
AcDbEntity
  8
0-2_柱
  6
Continuous
 62
    92
370
    13
100
AcDbLine
 10
2046.649216977598
 20
2078.99993071685
 30
0.0
 11
2046.649216977598
 21
2798.999683277027
 31
0.0
  0
LINE
  5
1E4
330
1F
100
AcDbEntity
  8
0-2_柱
  6
Continuous
 62
     7
370
     9
100
AcDbLine
 10
1866.649216977598
 20
2078.99993071685
 30
0.0
 11
2046.649216977598
 21
2798.999683277027
 31
0.0
  0
LINE
  5
1E5
330
1F
100
AcDbEntity
  8
0-2_柱
  6
Continuous
 62
     7
370
     9
100
AcDbLine
 10
2046.649216977598
 20
2078.99993071685
 30
0.0
 11
2766.649216977598
 21
2798.999683277027
 31
0.0
  0
LINE
  5
1E6
330
1F
100
AcDbEntity
  8
0-2_柱
  6
Continuous
 62
     7
370
     9
100
AcDbLine
 10
2766.649216977598
 20
2078.99993071685
 30
0.0
 11
2046.649216977598
 21
2798.999683277027
 31
0.0
  0
LINE
  5
1E7
330
1F
100
AcDbEntity
  8
0-2_柱
  6
Continuous
 62
    92
370
    13
100
AcDbLine
 10
2766.649216977598
 20
2798.999683277027
 30
0.0
 11
2766.649216977598
 21
2078.99993071685
 31
0.0
  0
LWPOLYLINE
  5
1E8
330
1F
100
AcDbEntity
  8
0-B_寸法
  6
Continuous
 62
     7
370
     9
100
AcDbPolyline
 90
        4
 70
     1
 43
3.0
 10
-1875.850411862664
 20
1238.999683277029
 42
0.4142135623731
 10
-1877.350411862663
 20
1240.499683277029
 42
0.4142135623731
 10
-1878.850411862663
 20
1238.999683277029
 42
0.4142135623731
 10
-1877.350411862663
 20
1237.499683277029
 42
0.4142135623731
  0
LWPOLYLINE
  5
1E9
330
1F
100
AcDbEntity
  8
0-B_寸法
  6
Continuous
 62
     7
370
     9
100
AcDbPolyline
 90
        4
 70
     1
 43
3.0
 10
-1695.850560326557
 20
1238.999683277029
 42
0.4142135623731
 10
-1697.350560326557
 20
1240.499683277029
 42
0.4142135623731
 10
-1698.850560326557
 20
1238.999683277029
 42
0.4142135623731
 10
-1697.350560326557
 20
1237.499683277029
 42
0.4142135623731
  0
LINE
  5
1EA
330
1F
100
AcDbEntity
  8
0-B_寸法
  6
Continuous
 62
   120
370
     5
100
AcDbLine
 10
-1697.350560326557
 20
1238.999683277029
 30
0.0
 11
-1697.350560326557
 21
1808.999683277029
 31
0.0
  0
LWPOLYLINE
  5
1EB
330
1F
100
AcDbEntity
  8
0-B_寸法
  6
Continuous
 62
     7
370
     9
100
AcDbPolyline
 90
        4
 70
     1
 43
3.0
 10
1688.149365441491
 20
1238.999683277029
 42
0.4142135623731
 10
1686.649365441491
 20
1240.499683277029
 42
0.4142135623731
 10
1685.149365441491
 20
1238.999683277029
 42
0.4142135623731
 10
1686.649365441491
 20
1237.499683277029
 42
0.4142135623731
  0
LINE
  5
1EC
330
1F
100
AcDbEntity
  8
0-B_寸法
  6
Continuous
 62
   120
370
     5
100
AcDbLine
 10
1686.649365441491
 20
1238.999683277029
 30
0.0
 11
1686.649365441491
 21
1808.999683277029
 31
0.0
  0
LWPOLYLINE
  5
1ED
330
1F
100
AcDbEntity
  8
0-B_寸法
  6
Continuous
 62
     7
370
     9
100
AcDbPolyline
 90
        4
 70
     1
 43
3.0
 10
1868.149216977597
 20
1238.999683277029
 42
0.4142135623731
 10
1866.649216977597
 20
1240.499683277029
 42
0.4142135623731
 10
1865.149216977597
 20
1238.999683277029
 42
0.4142135623731
 10
1866.649216977597
 20
1237.499683277029
 42
0.4142135623731
  0
LINE
  5
1EE
330
1F
100
AcDbEntity
  8
0-B_寸法
  6
Continuous
 62
   120
370
     5
100
AcDbLine
 10
-1877.350411862663
 20
1238.999683277029
 30
0.0
 11
1866.649216977597
 21
1238.999683277029
 31
0.0
  0
LINE
  5
1EF
330
1F
100
AcDbEntity
  8
0-B_寸法
  6
Continuous
 62
   120
370
     5
100
AcDbLine
 10
-1877.350411862663
 20
1028.999683277029
 30
0.0
 11
-1877.350411862663
 21
1808.999683277029
 31
0.0
  0
LWPOLYLINE
  5
1F0
330
1F
100
AcDbEntity
  8
0-B_寸法
  6
Continuous
 62
     7
370
     9
100
AcDbPolyline
 90
        4
 70
     1
 43
3.0
 10
-1875.850411862664
 20
1028.999683277029
 42
0.4142135623731
 10
-1877.350411862663
 20
1030.499683277029
 42
0.4142135623731
 10
-1878.850411862663
 20
1028.999683277029
 42
0.4142135623731
 10
-1877.350411862663
 20
1027.499683277029
 42
0.4142135623731
  0
LINE
  5
1F1
330
1F
100
AcDbEntity
  8
0-B_寸法
  6
Continuous
 62
   120
370
     5
100
AcDbLine
 10
1866.649216977597
 20
1028.999683277029
 30
0.0
 11
1866.649216977597
 21
1808.999683277029
 31
0.0
  0
LWPOLYLINE
  5
1F2
330
1F
100
AcDbEntity
  8
0-B_寸法
  6
Continuous
 62
     7
370
     9
100
AcDbPolyline
 90
        4
 70
     1
 43
3.0
 10
1868.149216977597
 20
1028.999683277029
 42
0.4142135623731
 10
1866.649216977597
 20
1030.499683277029
 42
0.4142135623731
 10
1865.149216977597
 20
1028.999683277029
 42
0.4142135623731
 10
1866.649216977597
 20
1027.499683277029
 42
0.4142135623731
  0
LINE
  5
1F3
330
1F
100
AcDbEntity
  8
0-B_寸法
  6
Continuous
 62
   120
370
     5
100
AcDbLine
 10
-1877.350411862663
 20
1028.999683277029
 30
0.0
 11
1866.649216977597
 21
1028.999683277029
 31
0.0
  0
LWPOLYLINE
  5
1F4
330
1F
100
AcDbEntity
  8
0-B_寸法
  6
Continuous
 62
     7
370
     9
100
AcDbPolyline
 90
        4
 70
     1
 43
3.0
 10
86.14936544149417
 20
1448.999683277029
 42
0.4142135623731
 10
84.64936544149417
 20
1450.499683277029
 42
0.4142135623731
 10
83.14936544149417
 20
1448.999683277029
 42
0.4142135623731
 10
84.64936544149417
 20
1447.499683277029
 42
0.4142135623731
  0
LWPOLYLINE
  5
1F5
330
1F
100
AcDbEntity
  8
0-B_寸法
  6
Continuous
 62
     7
370
     9
100
AcDbPolyline
 90
        4
 70
     1
 43
3.0
 10
-93.85063455850754
 20
1448.999683277029
 42
0.4142135623731
 10
-95.35063455850754
 20
1450.499683277029
 42
0.4142135623731
 10
-96.85063455850754
 20
1448.999683277029
 42
0.4142135623731
 10
-95.35063455850754
 20
1447.499683277029
 42
0.4142135623731
  0
LINE
  5
1F6
330
1F
100
AcDbEntity
  8
0-B_寸法
  6
Continuous
 62
   120
370
     5
100
AcDbLine
 10
-95.35063455850754
 20
1448.999683277029
 30
0.0
 11
-95.35063455850754
 21
1808.999683277029
 31
0.0
  0
LINE
  5
1F7
330
1F
100
AcDbEntity
  8
0-B_寸法
  6
Continuous
 62
   120
370
     5
100
AcDbLine
 10
84.64936544149332
 20
1808.999683277029
 30
0.0
 11
84.64936544149332
 21
1448.999683277029
 31
0.0
  0
LINE
  5
1F8
330
1F
100
AcDbEntity
  8
0-B_寸法
  6
Continuous
 62
   120
370
     5
100
AcDbLine
 10
-95.35063455850754
 20
1448.999683277029
 30
0.0
 11
84.64936544149332
 21
1448.999683277029
 31
0.0
  0
LINE
  5
1F9
330
1F
100
AcDbEntity
  8
0-B_寸法
  6
Continuous
 62
   120
370
     5
100
AcDbLine
 10
1686.649365441491
 20
1448.999683277029
 30
0.0
 11
84.64936544149417
 21
1448.999683277029
 31
0.0
  0
LWPOLYLINE
  5
1FA
330
1F
100
AcDbEntity
  8
0-B_寸法
  6
Continuous
 62
     7
370
     9
100
AcDbPolyline
 90
        4
 70
     1
 43
3.0
 10
1688.149365441491
 20
1448.999683277029
 42
0.4142135623731
 10
1686.649365441491
 20
1450.499683277029
 42
0.4142135623731
 10
1685.149365441491
 20
1448.999683277029
 42
0.4142135623731
 10
1686.649365441491
 20
1447.499683277029
 42
0.4142135623731
  0
LINE
  5
1FB
330
1F
100
AcDbEntity
  8
0-B_寸法
  6
Continuous
 62
   120
370
     5
100
AcDbLine
 10
-95.35063455850754
 20
1448.999683277029
 30
0.0
 11
-1697.350560326557
 21
1448.999683277029
 31
0.0
  0
LWPOLYLINE
  5
1FC
330
1F
100
AcDbEntity
  8
0-B_寸法
  6
Continuous
 62
     7
370
     9
100
AcDbPolyline
 90
        4
 70
     1
 43
3.0
 10
-1695.850560326557
 20
1448.999683277029
 42
0.4142135623731
 10
-1697.350560326557
 20
1450.499683277029
 42
0.4142135623731
 10
-1698.850560326557
 20
1448.999683277029
 42
0.4142135623731
 10
-1697.350560326557
 20
1447.499683277029
 42
0.4142135623731
  0
LINE
  5
1FD
330
1F
100
AcDbEntity
  8
0-0_補助線
  6
JWW_HOJO
 62
   120
370
     5
100
AcDbLine
 10
3097.187497549297
 20
3008.999683277028
 30
0.0
 11
3097.187497549297
 21
1028.999683277029
 31
0.0
  0
LINE
  5
1FE
330
1F
100
AcDbEntity
  8
0-C_ハッチ
  6
Continuous
 62
   120
370
     5
100
AcDbLine
 10
1840.073370170209
 20
2306.999683277034
 30
0.0
 11
1863.649216977592
 21
2330.575530084417
 31
0.0
  0
LINE
  5
1FF
330
1F
100
AcDbEntity
  8
0-C_ハッチ
  6
Continuous
 62
   120
370
     5
100
AcDbLine
 10
1780.676400550535
 20
2306.999683277007
 30
0.0
 11
1863.649216977607
 21
2389.972499704079
 31
0.0
  0
LINE
  5
200
330
1F
100
AcDbEntity
  8
0-C_ハッチ
  6
Continuous
 62
   120
370
     5
100
AcDbLine
 10
1721.279430930848
 20
2306.999683277023
 30
0.0
 11
1866.649216977587
 21
2452.369469323761
 31
0.0
  0
LINE
  5
201
330
1F
100
AcDbEntity
  8
0-C_ハッチ
  6
Continuous
 62
   120
370
     5
100
AcDbLine
 10
1689.648782102112
 20
2334.766004067934
 30
0.0
 11
1866.649216977599
 21
2511.76643894342
 31
0.0
  0
LINE
  5
202
330
1F
100
AcDbEntity
  8
0-C_ハッチ
  6
Continuous
 62
   120
370
     5
100
AcDbLine
 10
1689.648782102108
 20
2394.162973687577
 30
0.0
 11
1722.485491691555
 21
2426.999683277024
 31
0.0
  0
LINE
  5
203
330
1F
100
AcDbEntity
  8
0-C_ハッチ
  6
Continuous
 62
   120
370
     5
100
AcDbLine
 10
1725.649216977604
 20
2430.163408563073
 30
0.0
 11
1866.649216977594
 21
2571.163408563062
 31
0.0
  0
LINE
  5
204
330
1F
100
AcDbEntity
  8
0-C_ハッチ
  6
Continuous
 62
   120
370
     5
100
AcDbLine
 10
1725.649216977601
 20
2489.560378182771
 30
0.0
 11
1866.649216977594
 21
2630.560378182764
 31
0.0
  0
LINE
  5
205
330
1F
100
AcDbEntity
  8
0-C_ハッチ
  6
Continuous
 62
   120
370
     5
100
AcDbLine
 10
1725.649216977601
 20
2548.957347802419
 30
0.0
 11
1866.649216977589
 21
2689.957347802407
 31
0.0
  0
LINE
  5
206
330
1F
100
AcDbEntity
  8
0-C_ハッチ
  6
Continuous
 62
   120
370
     5
100
AcDbLine
 10
1725.649216977586
 20
2608.354317422105
 30
0.0
 11
1866.649216977589
 21
2749.354317422109
 31
0.0
  0
LINE
  5
207
330
1F
100
AcDbEntity
  8
0-C_ハッチ
  6
Continuous
 62
   120
370
     5
100
AcDbLine
 10
1725.649216977599
 20
2667.751287041766
 30
0.0
 11
1866.649216977601
 21
2808.751287041768
 31
0.0
  0
LINE
  5
208
330
1F
100
AcDbEntity
  8
0-C_ハッチ
  6
Continuous
 62
   120
370
     5
100
AcDbLine
 10
1689.648782102118
 20
2691.147821785987
 30
0.0
 11
1863.649216977588
 21
2865.148256661457
 31
0.0
  0
LINE
  5
209
330
1F
100
AcDbEntity
  8
0-C_ハッチ
  6
Continuous
 62
   120
370
     5
100
AcDbLine
 10
1689.648782102116
 20
2750.544791405632
 30
0.0
 11
1863.649216977597
 21
2924.545226281114
 31
0.0
  0
LINE
  5
20A
330
1F
100
AcDbEntity
  8
0-C_ハッチ
  6
Continuous
 62
   120
370
     5
100
AcDbLine
 10
1689.648782102112
 20
2809.941761025276
 30
0.0
 11
1825.706544136568
 21
2945.999523059731
 31
0.0
  0
LINE
  5
20B
330
1F
100
AcDbEntity
  8
0-C_ハッチ
  6
Continuous
 62
   120
370
     5
100
AcDbLine
 10
1689.648782102113
 20
2869.338730644979
 30
0.0
 11
1766.309574516885
 21
2945.99952305975
 31
0.0
  0
LINE
  5
20C
330
1F
100
AcDbEntity
  8
0-C_ハッチ
  6
Continuous
 62
   120
370
     5
100
AcDbLine
 10
1689.648782102126
 20
2928.735700264639
 30
0.0
 11
1706.912604897229
 21
2945.999523059741
 31
0.0
  0
LINE
  5
20D
330
1F
100
AcDbEntity
  8
0-C_ハッチ
  6
Continuous
 62
   120
370
     5
100
AcDbLine
 10
32.9135816659403
 20
1931.999683277034
 30
0.0
 11
81.64958813733435
 21
1980.735689748427
 31
0.0
  0
LINE
  5
20E
330
1F
100
AcDbEntity
  8
0-C_ハッチ
  6
Continuous
 62
   120
370
     5
100
AcDbLine
 10
-26.48338795376731
 20
1931.999683277028
 30
0.0
 11
84.64958813733247
 21
2043.132659368127
 31
0.0
  0
LINE
  5
20F
330
1F
100
AcDbEntity
  8
0-C_ハッチ
  6
Continuous
 62
   120
370
     5
100
AcDbLine
 10
-83.6301033438005
 20
1934.249937506642
 30
0.0
 11
84.64958813733055
 21
2102.529628987773
 31
0.0
  0
LINE
  5
210
330
1F
100
AcDbEntity
  8
0-C_ハッチ
  6
Continuous
 62
   120
370
     5
100
AcDbLine
 10
-92.35041186266002
 20
1984.926598607429
 30
0.0
 11
84.6495881373427
 21
2161.926598607432
 31
0.0
  0
LINE
  5
211
330
1F
100
AcDbEntity
  8
0-C_ハッチ
  6
Continuous
 62
   120
370
     5
100
AcDbLine
 10
-92.35041186264638
 20
2044.323568227145
 30
0.0
 11
84.64958813733396
 21
2221.323568227126
 31
0.0
  0
LINE
  5
212
330
1F
100
AcDbEntity
  8
0-C_ハッチ
  6
Continuous
 62
   120
370
     5
100
AcDbLine
 10
-92.35041186266216
 20
2103.720537846777
 30
0.0
 11
84.64958813734079
 21
2280.72053784678
 31
0.0
  0
LINE
  5
213
330
1F
100
AcDbEntity
  8
0-C_ハッチ
  6
Continuous
 62
   120
370
     5
100
AcDbLine
 10
-92.35041186265235
 20
2163.117507466488
 30
0.0
 11
81.64958813732987
 21
2337.117507466471
 31
0.0
  0
LINE
  5
214
330
1F
100
AcDbEntity
  8
0-C_ハッチ
  6
Continuous
 62
   120
370
     5
100
AcDbLine
 10
-92.35041186265747
 20
2222.51447708613
 30
0.0
 11
81.64958813734415
 21
2396.514477086132
 31
0.0
  0
LINE
  5
215
330
1F
100
AcDbEntity
  8
0-C_ハッチ
  6
Continuous
 62
   120
370
     5
100
AcDbLine
 10
-92.35041186265875
 20
2281.911446705831
 30
0.0
 11
46.7378247085405
 21
2420.99968327703
 31
0.0
  0
LINE
  5
216
330
1F
100
AcDbEntity
  8
0-C_ハッチ
  6
Continuous
 62
   120
370
     5
100
AcDbLine
 10
-92.35041186264851
 20
2341.308416325489
 30
0.0
 11
-21.65914491109966
 21
2411.999683277038
 31
0.0
  0
LINE
  5
217
330
1F
100
AcDbEntity
  8
0-C_ハッチ
  6
Continuous
 62
   120
370
     5
100
AcDbLine
 10
-92.35041186265406
 20
2400.70538594513
 30
0.0
 11
-72.05611453076088
 21
2420.999683277023
 31
0.0
  0
LINE
  5
218
330
1F
100
AcDbEntity
  8
0-C_ハッチ
  6
Continuous
 62
   120
370
     5
100
AcDbLine
 10
-1766.085046132639
 20
1931.998852497833
 30
0.0
 11
-1700.35012545106
 21
1997.733773179411
 31
0.0
  0
LINE
  5
219
330
1F
100
AcDbEntity
  8
0-C_ハッチ
  6
Continuous
 62
   120
370
     5
100
AcDbLine
 10
-1825.482015752354
 20
1931.99885249782
 30
0.0
 11
-1700.350125451074
 21
2057.130742799101
 31
0.0
  0
LINE
  5
21A
330
1F
100
AcDbEntity
  8
0-C_ハッチ
  6
Continuous
 62
   120
370
     5
100
AcDbLine
 10
-1874.350411862678
 20
1942.527426007144
 30
0.0
 11
-1700.350125451067
 21
2116.527712418754
 31
0.0
  0
LINE
  5
21B
330
1F
100
AcDbEntity
  8
0-C_ハッチ
  6
Continuous
 62
   120
370
     5
100
AcDbLine
 10
-1874.350411862657
 20
2001.924395626811
 30
0.0
 11
-1700.350125451072
 21
2175.924682038396
 31
0.0
  0
LINE
  5
21C
330
1F
100
AcDbEntity
  8
0-C_ハッチ
  6
Continuous
 62
   120
370
     5
100
AcDbLine
 10
-1877.350411862651
 20
2058.321365246519
 30
0.0
 11
-1700.350125451064
 21
2235.321651658106
 31
0.0
  0
LINE
  5
21D
330
1F
100
AcDbEntity
  8
0-C_ハッチ
  6
Continuous
 62
   120
370
     5
100
AcDbLine
 10
-1877.350411862657
 20
2117.71833486616
 30
0.0
 11
-1700.350125451063
 21
2294.718621277755
 31
0.0
  0
LINE
  5
21E
330
1F
100
AcDbEntity
  8
0-C_ハッチ
  6
Continuous
 62
   120
370
     5
100
AcDbLine
 10
-1877.350411862654
 20
2177.115304485864
 30
0.0
 11
-1700.350125451066
 21
2354.115590897453
 31
0.0
  0
LINE
  5
21F
330
1F
100
AcDbEntity
  8
0-C_ハッチ
  6
Continuous
 62
   120
370
     5
100
AcDbLine
 10
-1877.350411862647
 20
2236.512274105519
 30
0.0
 11
-1700.350125451069
 21
2413.512560517097
 31
0.0
  0
LINE
  5
220
330
1F
100
AcDbEntity
  8
0-C_ハッチ
  6
Continuous
 62
   120
370
     5
100
AcDbLine
 10
-1877.350411862652
 20
2295.909243725161
 30
0.0
 11
-1736.350560326555
 21
2436.909095261259
 31
0.0
  0
LINE
  5
221
330
1F
100
AcDbEntity
  8
0-C_ハッチ
  6
Continuous
 62
   120
370
     5
100
AcDbLine
 10
-1877.350411862647
 20
2355.306213344868
 30
0.0
 11
-1736.35056032655
 21
2496.306064880966
 31
0.0
  0
LINE
  5
222
330
1F
100
AcDbEntity
  8
0-C_ハッチ
  6
Continuous
 62
   120
370
     5
100
AcDbLine
 10
-1877.350411862658
 20
2414.703182964505
 30
0.0
 11
-1736.350560326558
 21
2555.703034500605
 31
0.0
  0
LINE
  5
223
330
1F
100
AcDbEntity
  8
0-C_ハッチ
  6
Continuous
 62
   120
370
     5
100
AcDbLine
 10
-1877.350411862651
 20
2474.100152584214
 30
0.0
 11
-1736.350560326542
 21
2615.100004120322
 31
0.0
  0
LINE
  5
224
330
1F
100
AcDbEntity
  8
0-C_ハッチ
  6
Continuous
 62
   120
370
     5
100
AcDbLine
 10
-1877.350411862664
 20
2533.497122203848
 30
0.0
 11
-1736.350560326562
 21
2674.49697373995
 31
0.0
  0
LINE
  5
225
330
1F
100
AcDbEntity
  8
0-C_ハッチ
  6
Continuous
 62
   120
370
     5
100
AcDbLine
 10
-1731.848246693196
 20
2678.999287373316
 30
0.0
 11
-1700.350125451065
 21
2710.497408615447
 31
0.0
  0
LINE
  5
226
330
1F
100
AcDbEntity
  8
0-C_ハッチ
  6
Continuous
 62
   120
370
     5
100
AcDbLine
 10
-1877.350411862654
 20
2592.894091823559
 30
0.0
 11
-1700.35012545107
 21
2769.894378235144
 31
0.0
  0
LINE
  5
227
330
1F
100
AcDbEntity
  8
0-C_ハッチ
  6
Continuous
 62
   120
370
     5
100
AcDbLine
 10
-1877.350411862642
 20
2652.291061443219
 30
0.0
 11
-1700.35012545106
 21
2829.291347854801
 31
0.0
  0
LINE
  5
228
330
1F
100
AcDbEntity
  8
0-C_ハッチ
  6
Continuous
 62
   120
370
     5
100
AcDbLine
 10
-1877.350411862659
 20
2711.688031062849
 30
0.0
 11
-1700.350125451083
 21
2888.688317474426
 31
0.0
  0
LINE
  5
229
330
1F
100
AcDbEntity
  8
0-C_ハッチ
  6
Continuous
 62
   120
370
     5
100
AcDbLine
 10
-1877.350411862646
 20
2771.085000682564
 30
0.0
 11
-1706.878624123466
 21
2941.556788421744
 31
0.0
  0
LINE
  5
22A
330
1F
100
AcDbEntity
  8
0-C_ハッチ
  6
Continuous
 62
   120
370
     5
100
AcDbLine
 10
-1877.350411862666
 20
2830.481970302192
 30
0.0
 11
-1761.833255008827
 21
2945.999127156031
 31
0.0
  0
LINE
  5
22B
330
1F
100
AcDbEntity
  8
0-C_ハッチ
  6
Continuous
 62
   120
370
     5
100
AcDbLine
 10
-1874.350411862654
 20
2892.878939921905
 30
0.0
 11
-1821.230224628542
 21
2945.999127156017
 31
0.0
  0
LINE
  5
22C
330
1F
100
AcDbEntity
  8
0-0_補助線
  6
JWW_HOJO
 62
   120
370
     5
100
AcDbLine
 10
-965.3505232105864
 20
1808.999683277029
 30
0.0
 11
-965.3505232105864
 21
3008.999683277028
 31
0.0
  0
LINE
  5
22D
330
1F
100
AcDbEntity
  8
0-0_補助線
  6
JWW_HOJO
 62
   120
370
     5
100
AcDbLine
 10
733.3527590743614
 20
1808.999683277029
 30
0.0
 11
733.3527590743614
 21
3008.999683277028
 31
0.0
  0
LINE
  5
22E
330
1F
100
AcDbEntity
  8
0-0_補助線
  6
JWW_HOJO
 62
   120
370
     5
100
AcDbLine
 10
-845.3505232105864
 20
1808.999683277029
 30
0.0
 11
-845.3505232105864
 21
3008.999683277028
 31
0.0
  0
LINE
  5
22F
330
1F
100
AcDbEntity
  8
0-0_補助線
  6
JWW_HOJO
 62
   120
370
     5
100
AcDbLine
 10
613.3527590743614
 20
1808.999683277029
 30
0.0
 11
613.3527590743614
 21
3008.999683277028
 31
0.0
  0
MTEXT
  5
230
330
1F
100
AcDbEntity
  8
0-B_寸法
  6
Continuous
 62
     7
370
     0
100
AcDbMText
 10
-294.5784161120321
 20
2478.722340780723
 30
0.0
 40
91.44
 41
120.0
 46
0.0
 71
     7
 72
     1
  1
{\fＭＳ ゴシック|b0|i0|c128|p49;30}
 11
6.123031769111886E-17
 21
1.0
 31
0.0
 73
     1
 44
1.0
  0
MTEXT
  5
231
330
1F
100
AcDbEntity
  8
0-B_寸法
  6
Continuous
 62
     7
370
   211
100
AcDbMText
 10
-144.5783666240681
 20
2339.219683277027
 30
0.0
 40
91.44
 41
180.0
 46
0.0
 71
     7
 72
     1
  1
{\fＭＳ ゴシック|b0|i0|c128|p49;6.5}
 11
6.123031769111886E-17
 21
1.0
 31
0.0
 73
     1
 44
1.0
  0
MTEXT
  5
232
330
1F
100
AcDbEntity
  8
0-B_寸法
  6
Continuous
 62
     7
370
     0
100
AcDbMText
 10
-294.5783666240681
 20
2042.219683277028
 30
0.0
 40
91.44
 41
240.0
 46
0.0
 71
     7
 72
     1
  1
{\fＭＳ ゴシック|b0|i0|c128|p49;82.5}
 11
6.123031769111886E-17
 21
1.0
 31
0.0
 73
     1
 44
1.0
  0
MTEXT
  5
233
330
1F
100
AcDbEntity
  8
0-B_寸法
  6
Continuous
 62
     7
370
   211
100
AcDbMText
 10
-65.35052321058721
 20
1449.719683277029
 30
0.0
 40
91.44
 41
120.0
 46
0.0
 71
     7
 72
     1
  1
{\fＭＳ ゴシック|b0|i0|c128|p49;30}
 73
     1
 44
1.0
  0
MTEXT
  5
234
330
1F
100
AcDbEntity
  8
0-B_寸法
  6
Continuous
 62
     7
370
   211
100
AcDbMText
 10
-1847.35048609461
 20
1239.719683277029
 30
0.0
 40
91.44
 41
120.0
 46
0.0
 71
     7
 72
     1
  1
{\fＭＳ ゴシック|b0|i0|c128|p49;30}
 73
     1
 44
1.0
  0
MTEXT
  5
235
330
1F
100
AcDbEntity
  8
0-B_寸法
  6
Continuous
 62
     7
370
   211
100
AcDbMText
 10
1716.649291209544
 20
1239.719683277029
 30
0.0
 40
91.44
 41
120.0
 46
0.0
 71
     7
 72
     1
  1
{\fＭＳ ゴシック|b0|i0|c128|p49;30}
 73
     1
 44
1.0
  0
MTEXT
  5
236
330
1F
100
AcDbEntity
  8
0-A_文字
  6
Continuous
 62
     7
370
     9
100
AcDbMText
 10
-3077.350411862663
 20
3211.51602209953
 30
0.0
 40
91.44
 41
600.0
 46
0.0
 71
     7
 72
     1
  1
{\fＭＳ ゴシック|b0|i0|c128|p49;■横断面図}
 73
     1
 44
1.0
  0
MTEXT
  5
237
330
1F
100
AcDbEntity
  8
0-A_文字
  6
Continuous
 62
     7
370
     9
100
AcDbMText
 10
1281.098330226144
 20
868.9072115561273
 30
0.0
 40
78.58125
 41
825.0
 46
0.0
 71
     7
 72
     1
  1
{\fＭＳ ゴシック|b0|i0|c128|p49;※図示：左引き手}
 73
     1
 44
1.0
  0
LINE
  5
238
330
1F
100
AcDbEntity
  8
0-0_補助線
  6
JWW_HOJO
 62
   120
370
     5
100
AcDbLine
 10
-3077.350411862663
 20
3008.999683277028
 30
0.0
 11
3097.187497549296
 21
3008.999683277028
 31
0.0
  0
LINE
  5
239
330
1F
100
AcDbEntity
  8
0-0_補助線
  6
JWW_HOJO
 62
   120
370
     5
100
AcDbLine
 10
-3077.350411862663
 20
1808.999683277029
 30
0.0
 11
3097.187497549296
 21
1808.999683277029
 31
0.0
  0
LINE
  5
23A
330
1F
100
AcDbEntity
  8
0-0_補助線
  6
JWW_HOJO
 62
   120
370
     5
100
AcDbLine
 10
-3077.350411862663
 20
1448.999683277029
 30
0.0
 11
3097.187497549296
 21
1448.999683277029
 31
0.0
  0
LINE
  5
23B
330
1F
100
AcDbEntity
  8
0-0_補助線
  6
JWW_HOJO
 62
   120
370
     5
100
AcDbLine
 10
-3077.350411862663
 20
1238.999683277029
 30
0.0
 11
3097.187497549296
 21
1238.999683277029
 31
0.0
  0
LINE
  5
23C
330
1F
100
AcDbEntity
  8
0-0_補助線
  6
JWW_HOJO
 62
   120
370
     5
100
AcDbLine
 10
-3077.350411862663
 20
1028.999683277029
 30
0.0
 11
-3077.350411862663
 21
3008.999683277028
 31
0.0
  0
LINE
  5
23D
330
1F
100
AcDbEntity
  8
0-0_補助線
  6
JWW_HOJO
 62
   120
370
     5
100
AcDbLine
 10
3097.187497549297
 20
1028.999683277029
 30
0.0
 11
-3077.350411862663
 21
1028.999683277029
 31
0.0
  0
MTEXT
  5
23E
330
1F
100
AcDbEntity
  8
0-B_寸法
  6
Continuous
 62
     7
370
     0
100
AcDbMText
 10
-1377.08488152881
 20
2759.095477101476
 30
0.0
 40
102.1976470588236
 41
2280.000000000001
 46
0.0
 71
     7
 72
     1
  1
{\fＭＳ ゴシック|b0|i0|c128|p49;ＤＷ＝900（810）<713>［650]〔583〕}
 73
     1
 44
1.0
  0
MTEXT
  5
23F
330
1F
100
AcDbEntity
  8
0-B_寸法
  6
Continuous
 62
     7
370
     0
100
AcDbMText
 10
-1248.850671674477
 20
1594.340455190938
 30
0.0
 40
100.9649999999999
 41
794.9999999999991
 46
0.0
 71
     7
 72
     1
  1
{\fＭＳ ゴシック|b0|i0|c128|p49;有効開口寸法}
 73
     1
 44
1.0
  0
MTEXT
  5
240
330
1F
100
AcDbEntity
  8
0-B_寸法
  6
Continuous
 62
     7
370
     0
100
AcDbMText
 10
-1657.600671674476
 20
1452.740990905224
 30
0.0
 40
87.76607142857131
 41
1612.499999999998
 46
0.0
 71
     7
 72
     1
  1
{\fＭＳ ゴシック|b0|i0|c128|p49;867（777）<680>［617]〔550〕}
 73
     1
 44
1.0
  0
MTEXT
  5
241
330
1F
100
AcDbEntity
  8
0-B_寸法
  6
Continuous
 62
     7
370
     0
100
AcDbMText
 10
114.4805610323948
 20
1457.417771223285
 30
0.0
 40
87.7660714285714
 41
1612.5
 46
0.0
 71
     7
 72
     1
  1
{\fＭＳ ゴシック|b0|i0|c128|p49;867（777）<680>［617]〔550〕}
 73
     1
 44
1.0
  0
MTEXT
  5
242
330
1F
100
AcDbEntity
  8
0-B_寸法
  6
Continuous
 62
     7
370
     0
100
AcDbMText
 10
-1478.955297536603
 20
1247.638601595387
 30
0.0
 40
102.3504545454545
 41
2954.999999999997
 46
0.0
 71
     7
 72
     1
  1
{\fＭＳ ゴシック|b0|i0|c128|p49;枠内＝1,764（1,584）<1,390>［1,264]〔1,130〕}
 73
     1
 44
1.0
  0
MTEXT
  5
243
330
1F
100
AcDbEntity
  8
0-B_寸法
  6
Continuous
 62
     7
370
     0
100
AcDbMText
 10
-1478.955297536603
 20
1028.921507969993
 30
0.0
 40
102.3504545454545
 41
2954.999999999997
 46
0.0
 71
     7
 72
     1
  1
{\fＭＳ ゴシック|b0|i0|c128|p49;枠外＝1,824（1,644）<1,450>［1,324]〔1,190〕}
 73
     1
 44
1.0
  0
MTEXT
  5
244
330
1F
100
AcDbEntity
  8
0-A_文字
  6
Continuous
 62
     7
370
     9
100
AcDbMText
 10
1281.098330226144
 20
659.4210602403379
 30
0.0
 40
79.60894736842103
 41
2977.5
 46
0.0
 71
     7
 72
     1
  1
{\fＭＳ ゴシック|b0|i0|c128|p49;　ご使用ください。ただし、有効開口は102ミリ狭くなります。}
 73
     1
 44
1.0
  0
MTEXT
  5
245
330
1F
100
AcDbEntity
  8
0-A_文字
  6
Continuous
 62
     7
370
     9
100
AcDbMText
 10
1281.098330226144
 20
764.4174794132701
 30
0.0
 40
79.6017857142857
 41
2925.0
 46
0.0
 71
     7
 72
     1
  1
{\fＭＳ ゴシック|b0|i0|c128|p49;※大型サムターン表示錠使用時は、引戸引き残しストッパーを}
 73
     1
 44
1.0
  0
ELLIPSE
  5
246
330
1F
100
AcDbEntity
  8
戸当り
  6
Continuous
 62
    92
370
    13
100
AcDbEllipse
 10
5095.749112339141
 20
2921.053788253369
 30
0.0
 11
11.36181697857171
 21
42.40287823032828
 31
0.0
210
0.0
220
0.0
230
0.9999999999999999
 40
0.6
 41
1.570796326794897
 42
4.71238898038469
  0
LINE
  5
247
330
1F
100
AcDbEntity
  8
戸当り
  6
Continuous
 62
    92
370
    13
100
AcDbLine
 10
5121.190839277338
 20
2914.236698066226
 30
0.0
 11
5070.307385400944
 21
2927.870878440512
 31
0.0
  0
LINE
  5
248
330
1F
100
AcDbEntity
  8
戸当り
  6
Continuous
 62
    92
370
    13
100
AcDbLine
 10
5124.451959245629
 20
2926.407363477468
 30
0.0
 11
5073.568505369235
 21
2940.041543851754
 31
0.0
  0
ELLIPSE
  5
249
330
1F
100
AcDbEntity
  8
戸当り
  6
Continuous
 62
    92
370
    13
100
AcDbEllipse
 10
5119.92250563682
 20
3011.270120231655
 30
0.0
 11
21.86569797210526
 21
81.6038957748525
 31
0.0
210
0.0
220
0.0
230
1.0
 40
0.5
 41
4.340591432030095
 42
8.225779182329084
  0
ELLIPSE
  5
24A
330
1F
100
AcDbEntity
  8
戸当り
  6
Continuous
 62
    92
370
    13
100
AcDbEllipse
 10
5119.296882763718
 20
3008.935263882863
 30
0.0
 11
26.49533313827761
 21
98.88192943551533
 31
0.0
210
0.0
220
0.0
230
0.9999999999999999
 40
0.4
 41
3.840308517104466
 42
4.432552034522944
  0
ELLIPSE
  5
24B
330
1F
100
AcDbEntity
  8
戸当り
  6
Continuous
 62
    92
370
    13
100
AcDbEllipse
 10
5119.296882763718
 20
3008.935263882863
 30
0.0
 11
26.49533313827761
 21
98.88192943551533
 31
0.0
210
0.0
220
0.0
230
0.9999999999999999
 40
0.4
 41
1.850633272656679
 42
2.442876790075129
  0
ELLIPSE
  5
24C
330
1F
100
AcDbEntity
  8
戸当り
  6
Continuous
 62
    92
370
    13
100
AcDbEllipse
 10
4980.634902592438
 20
2883.285044889069
 30
0.0
 11
-7.622927487939132
 21
43.23177007461331
 31
0.0
210
0.0
220
0.0
230
1.0
 40
0.6000000000000001
 41
1.570796326794897
 42
4.71238898038469
  0
LINE
  5
24D
330
1F
100
AcDbEntity
  8
戸当り
  6
Continuous
 62
    92
370
    13
100
AcDbLine
 10
5006.573964637206
 20
2887.858801381832
 30
0.0
 11
4954.695840547671
 21
2878.711288396305
 31
0.0
  0
LINE
  5
24E
330
1F
100
AcDbEntity
  8
戸当り
  6
Continuous
 62
    92
370
    13
100
AcDbLine
 10
5004.385997598602
 20
2900.267379069786
 30
0.0
 11
4952.507873509067
 21
2891.119866084259
 31
0.0
  0
ELLIPSE
  5
24F
330
1F
100
AcDbEntity
  8
戸当り
  6
Continuous
 62
    92
370
    13
100
AcDbEllipse
 10
4964.41636777594
 20
2975.264926534712
 30
0.0
 11
-14.67024424252691
 21
83.19908946199426
 31
0.0
210
0.0
220
0.0
230
1.0
 40
0.5
 41
4.340591432030095
 42
8.225779182329084
  0
ELLIPSE
  5
250
330
1F
100
AcDbEntity
  8
戸当り
  6
Continuous
 62
    92
370
    13
100
AcDbEllipse
 10
4964.836113825841
 20
2972.884428393055
 30
0.0
 11
-17.7763823922528
 21
100.8148742797557
 31
0.0
210
0.0
220
0.0
230
1.0
 40
0.4000000000000001
 41
3.840308517104466
 42
4.432552034522944
  0
ELLIPSE
  5
251
330
1F
100
AcDbEntity
  8
戸当り
  6
Continuous
 62
    92
370
    13
100
AcDbEllipse
 10
4964.836113825841
 20
2972.884428393055
 30
0.0
 11
-17.7763823922528
 21
100.8148742797557
 31
0.0
210
0.0
220
0.0
230
1.0
 40
0.4000000000000001
 41
1.850633272656679
 42
2.442876790075129
  0
ELLIPSE
  5
252
330
1F
100
AcDbEntity
  8
戸当り
  6
Continuous
 62
    92
370
    13
100
AcDbEllipse
 10
4550.94911233914
 20
2921.053788253369
 30
0.0
 11
11.36181697857171
 21
42.40287823032828
 31
0.0
210
0.0
220
0.0
230
0.9999999999999999
 40
0.6
 41
1.570796326794897
 42
4.71238898038469
  0
LINE
  5
253
330
1F
100
AcDbEntity
  8
戸当り
  6
Continuous
 62
    92
370
    13
100
AcDbLine
 10
4576.390839277336
 20
2914.236698066226
 30
0.0
 11
4525.507385400943
 21
2927.870878440512
 31
0.0
  0
LINE
  5
254
330
1F
100
AcDbEntity
  8
戸当り
  6
Continuous
 62
    92
370
    13
100
AcDbLine
 10
4579.651959245628
 20
2926.407363477468
 30
0.0
 11
4528.768505369234
 21
2940.041543851754
 31
0.0
  0
ELLIPSE
  5
255
330
1F
100
AcDbEntity
  8
戸当り
  6
Continuous
 62
    92
370
    13
100
AcDbEllipse
 10
4575.122505636819
 20
3011.270120231655
 30
0.0
 11
21.86569797210526
 21
81.6038957748525
 31
0.0
210
0.0
220
0.0
230
1.0
 40
0.5
 41
4.340591432030095
 42
8.225779182329084
  0
ELLIPSE
  5
256
330
1F
100
AcDbEntity
  8
戸当り
  6
Continuous
 62
    92
370
    13
100
AcDbEllipse
 10
4574.496882763717
 20
3008.935263882863
 30
0.0
 11
26.49533313827761
 21
98.88192943551533
 31
0.0
210
0.0
220
0.0
230
0.9999999999999999
 40
0.4
 41
3.840308517104466
 42
4.432552034522944
  0
ELLIPSE
  5
257
330
1F
100
AcDbEntity
  8
戸当り
  6
Continuous
 62
    92
370
    13
100
AcDbEllipse
 10
4574.496882763717
 20
3008.935263882863
 30
0.0
 11
26.49533313827761
 21
98.88192943551533
 31
0.0
210
0.0
220
0.0
230
0.9999999999999999
 40
0.4
 41
1.850633272656679
 42
2.442876790075129
  0
ELLIPSE
  5
258
330
1F
100
AcDbEntity
  8
戸当り
  6
Continuous
 62
    92
370
    13
100
AcDbEllipse
 10
4435.834902592438
 20
2883.285044889069
 30
0.0
 11
-7.622927487939132
 21
43.23177007461331
 31
0.0
210
0.0
220
0.0
230
1.0
 40
0.6000000000000001
 41
1.570796326794897
 42
4.71238898038469
  0
LINE
  5
259
330
1F
100
AcDbEntity
  8
戸当り
  6
Continuous
 62
    92
370
    13
100
AcDbLine
 10
4461.773964637206
 20
2887.858801381832
 30
0.0
 11
4409.895840547671
 21
2878.711288396305
 31
0.0
  0
LINE
  5
25A
330
1F
100
AcDbEntity
  8
戸当り
  6
Continuous
 62
    92
370
    13
100
AcDbLine
 10
4459.585997598602
 20
2900.267379069786
 30
0.0
 11
4407.707873509067
 21
2891.119866084259
 31
0.0
  0
ELLIPSE
  5
25B
330
1F
100
AcDbEntity
  8
戸当り
  6
Continuous
 62
    92
370
    13
100
AcDbEllipse
 10
4419.616367775939
 20
2975.264926534712
 30
0.0
 11
-14.67024424252691
 21
83.19908946199426
 31
0.0
210
0.0
220
0.0
230
1.0
 40
0.5
 41
4.340591432030095
 42
8.225779182329084
  0
ELLIPSE
  5
25C
330
1F
100
AcDbEntity
  8
戸当り
  6
Continuous
 62
    92
370
    13
100
AcDbEllipse
 10
4420.036113825839
 20
2972.884428393055
 30
0.0
 11
-17.7763823922528
 21
100.8148742797557
 31
0.0
210
0.0
220
0.0
230
1.0
 40
0.4000000000000001
 41
3.840308517104466
 42
4.432552034522944
  0
ELLIPSE
  5
25D
330
1F
100
AcDbEntity
  8
戸当り
  6
Continuous
 62
    92
370
    13
100
AcDbEllipse
 10
4420.036113825839
 20
2972.884428393055
 30
0.0
 11
-17.7763823922528
 21
100.8148742797557
 31
0.0
210
0.0
220
0.0
230
1.0
 40
0.4000000000000001
 41
1.850633272656679
 42
2.442876790075129
  0
LINE
  5
25E
330
1F
100
AcDbEntity
  8
戸当り
  6
Continuous
 62
    92
370
    13
100
AcDbLine
 10
5040.235838693025
 20
3305.123723027998
 30
0.0
 11
5040.235838693025
 21
3449.123723027998
 31
0.0
  0
LINE
  5
25F
330
1F
100
AcDbEntity
  8
戸当り
  6
Continuous
 62
    40
370
    15
100
AcDbLine
 10
4863.835838693023
 20
3387.923723027998
 30
0.0
 11
4791.835838693024
 21
3387.923723027998
 31
0.0
  0
LINE
  5
260
330
1F
100
AcDbEntity
  8
戸当り
  6
Continuous
 62
    40
370
    15
100
AcDbLine
 10
4863.835838693023
 20
3344.723723027999
 30
0.0
 11
4791.835838693024
 21
3344.723723027999
 31
0.0
  0
LINE
  5
261
330
1F
100
AcDbEntity
  8
戸当り
  6
Continuous
 62
    40
370
    15
100
AcDbLine
 10
5231.035838693026
 20
3377.123723027998
 30
0.0
 11
4863.835838693023
 21
3377.123723027998
 31
0.0
  0
LINE
  5
262
330
1F
100
AcDbEntity
  8
戸当り
  6
Continuous
 62
    40
370
    15
100
AcDbLine
 10
4863.835838693023
 20
3344.723723027999
 30
0.0
 11
4863.835838693023
 21
3387.923723027998
 31
0.0
  0
LINE
  5
263
330
1F
100
AcDbEntity
  8
戸当り
  6
Continuous
 62
    40
370
    15
100
AcDbLine
 10
5583.835838693025
 20
3387.923723027998
 30
0.0
 11
5655.835838693025
 21
3387.923723027998
 31
0.0
  0
LINE
  5
264
330
1F
100
AcDbEntity
  8
戸当り
  6
JWW_DASHED2
 62
    40
370
    15
100
AcDbLine
 10
5231.035838693026
 20
3377.123723027998
 30
0.0
 11
5583.835838693025
 21
3377.123723027998
 31
0.0
  0
LINE
  5
265
330
1F
100
AcDbEntity
  8
戸当り
  6
Continuous
 62
    40
370
    15
100
AcDbLine
 10
5583.835838693025
 20
3366.323723027999
 30
0.0
 11
5583.835838693025
 21
3387.923723027998
 31
0.0
  0
LINE
  5
266
330
1F
100
AcDbEntity
  8
戸当り
  6
Continuous
 62
    40
370
    15
100
AcDbLine
 10
5583.835838693025
 20
3366.323723027999
 30
0.0
 11
5216.635838693025
 21
3366.323723027999
 31
0.0
  0
LINE
  5
267
330
1F
100
AcDbEntity
  8
戸当り
  6
Continuous
 62
    40
370
    15
100
AcDbLine
 10
5655.835838693025
 20
3344.723723027999
 30
0.0
 11
5216.635838693025
 21
3344.723723027999
 31
0.0
  0
LINE
  5
268
330
1F
100
AcDbEntity
  8
戸当り
  6
Continuous
 62
    40
370
    15
100
AcDbLine
 10
5216.635838693025
 20
3344.723723027999
 30
0.0
 11
5216.635838693025
 21
3366.323723027999
 31
0.0
  0
LINE
  5
269
330
1F
100
AcDbEntity
  8
戸当り
  6
Continuous
 62
    92
370
    13
100
AcDbLine
 10
4495.435838693024
 20
3305.123723027998
 30
0.0
 11
4495.435838693024
 21
3449.123723027998
 31
0.0
  0
LINE
  5
26A
330
1F
100
AcDbEntity
  8
戸当り
  6
Continuous
 62
    40
370
    15
100
AcDbLine
 10
4671.835838693024
 20
3387.923723027998
 30
0.0
 11
4743.835838693023
 21
3387.923723027998
 31
0.0
  0
LINE
  5
26B
330
1F
100
AcDbEntity
  8
戸当り
  6
Continuous
 62
    40
370
    15
100
AcDbLine
 10
4671.835838693024
 20
3344.723723027999
 30
0.0
 11
4743.835838693023
 21
3344.723723027999
 31
0.0
  0
LINE
  5
26C
330
1F
100
AcDbEntity
  8
戸当り
  6
Continuous
 62
    40
370
    15
100
AcDbLine
 10
4304.635838693024
 20
3377.123723027998
 30
0.0
 11
4671.835838693024
 21
3377.123723027998
 31
0.0
  0
LINE
  5
26D
330
1F
100
AcDbEntity
  8
戸当り
  6
Continuous
 62
    40
370
    15
100
AcDbLine
 10
4671.835838693024
 20
3344.723723027999
 30
0.0
 11
4671.835838693024
 21
3387.923723027998
 31
0.0
  0
LINE
  5
26E
330
1F
100
AcDbEntity
  8
戸当り
  6
Continuous
 62
    40
370
    15
100
AcDbLine
 10
3951.835838693024
 20
3387.923723027998
 30
0.0
 11
3879.835838693023
 21
3387.923723027998
 31
0.0
  0
LINE
  5
26F
330
1F
100
AcDbEntity
  8
戸当り
  6
JWW_DASHED2
 62
    40
370
    15
100
AcDbLine
 10
4304.635838693024
 20
3377.123723027998
 30
0.0
 11
3951.835838693024
 21
3377.123723027998
 31
0.0
  0
LINE
  5
270
330
1F
100
AcDbEntity
  8
戸当り
  6
Continuous
 62
    40
370
    15
100
AcDbLine
 10
3951.835838693024
 20
3366.323723027999
 30
0.0
 11
3951.835838693024
 21
3387.923723027998
 31
0.0
  0
LINE
  5
271
330
1F
100
AcDbEntity
  8
戸当り
  6
Continuous
 62
    40
370
    15
100
AcDbLine
 10
3951.835838693024
 20
3366.323723027999
 30
0.0
 11
4319.035838693025
 21
3366.323723027999
 31
0.0
  0
LINE
  5
272
330
1F
100
AcDbEntity
  8
戸当り
  6
Continuous
 62
    40
370
    15
100
AcDbLine
 10
3879.835838693023
 20
3344.723723027999
 30
0.0
 11
4319.035838693025
 21
3344.723723027999
 31
0.0
  0
LINE
  5
273
330
1F
100
AcDbEntity
  8
戸当り
  6
Continuous
 62
    40
370
    15
100
AcDbLine
 10
4319.035838693025
 20
3344.723723027999
 30
0.0
 11
4319.035838693025
 21
3366.323723027999
 31
0.0
  0
LINE
  5
274
330
1F
100
AcDbEntity
  8
0-A_文字
  6
Continuous
 62
    92
370
    13
100
AcDbLine
 10
5679.835838693025
 20
3730.000181455871
 30
0.0
 11
5679.835838693025
 21
2764.000181455871
 31
0.0
  0
LINE
  5
275
330
1F
100
AcDbEntity
  8
0-A_文字
  6
Continuous
 62
    92
370
    13
100
AcDbLine
 10
4767.835838693024
 20
3730.000181455871
 30
0.0
 11
4767.835838693024
 21
2764.000181455871
 31
0.0
  0
LINE
  5
276
330
1F
100
AcDbEntity
  8
0-A_文字
  6
Continuous
 62
    92
370
    13
100
AcDbLine
 10
3855.835838693024
 20
3730.000181455871
 30
0.0
 11
3855.835838693024
 21
2764.000181455871
 31
0.0
  0
LINE
  5
277
330
1F
100
AcDbEntity
  8
0-0_補助線
  6
JWW_HOJO
 62
   120
370
     5
100
AcDbLine
 10
5655.835838693025
 20
3730.000181455871
 30
0.0
 11
5655.835838693025
 21
2764.000181455871
 31
0.0
  0
LINE
  5
278
330
1F
100
AcDbEntity
  8
0-0_補助線
  6
JWW_HOJO
 62
   120
370
     5
100
AcDbLine
 10
4791.835838693024
 20
3730.000181455871
 30
0.0
 11
4791.835838693024
 21
2764.000181455871
 31
0.0
  0
LINE
  5
279
330
1F
100
AcDbEntity
  8
0-0_補助線
  6
JWW_HOJO
 62
   120
370
     5
100
AcDbLine
 10
4743.835838693023
 20
3730.000181455871
 30
0.0
 11
4743.835838693023
 21
2764.000181455871
 31
0.0
  0
LINE
  5
27A
330
1F
100
AcDbEntity
  8
0-0_補助線
  6
JWW_HOJO
 62
   120
370
     5
100
AcDbLine
 10
3879.835838693023
 20
3730.000181455871
 30
0.0
 11
3879.835838693023
 21
2764.000181455871
 31
0.0
  0
LINE
  5
27B
330
1F
100
AcDbEntity
  8
0-0_補助線
  6
JWW_HOJO
 62
   120
370
     5
100
AcDbLine
 10
5223.835838693025
 20
3730.000181455871
 30
0.0
 11
5223.835838693025
 21
2764.000181455871
 31
0.0
  0
LINE
  5
27C
330
1F
100
AcDbEntity
  8
0-0_補助線
  6
JWW_HOJO
 62
   120
370
     5
100
AcDbLine
 10
4311.835838693024
 20
3730.000181455871
 30
0.0
 11
4311.835838693024
 21
2764.000181455871
 31
0.0
  0
LINE
  5
27D
330
1F
100
AcDbEntity
  8
0-A_文字
  6
Continuous
 62
    92
370
    13
100
AcDbLine
 10
5679.835838693025
 20
2764.000181455871
 30
0.0
 11
3855.835838693024
 21
2764.000181455871
 31
0.0
  0
LINE
  5
27E
330
1F
100
AcDbEntity
  8
0-A_文字
  6
Continuous
 62
    92
370
    13
100
AcDbLine
 10
3855.835838693024
 20
3586.000181455872
 30
0.0
 11
5679.835838693025
 21
3586.000181455872
 31
0.0
  0
LINE
  5
27F
330
1F
100
AcDbEntity
  8
0-A_文字
  6
Continuous
 62
    92
370
    13
100
AcDbLine
 10
5679.835838693025
 20
3730.000181455871
 30
0.0
 11
3855.835838693024
 21
3730.000181455871
 31
0.0
  0
MTEXT
  5
280
330
1F
100
AcDbEntity
  8
0-A_文字
  6
Continuous
 62
     7
370
     9
100
AcDbMText
 10
3855.835838693024
 20
3745.720181455871
 30
0.0
 40
91.44
 41
720.0
 46
0.0
 71
     7
 72
     1
  1
{\fＭＳ ゴシック|b0|i0|c128|p49;■引き手方向}
 73
     1
 44
1.0
  0
MTEXT
  5
281
330
1F
100
AcDbEntity
  8
0-A_文字
  6
Continuous
 62
     7
370
     9
100
AcDbMText
 10
4109.335838693024
 20
3606.576431455872
 30
0.0
 40
77.15249999999999
 41
405.0
 46
0.0
 71
     7
 72
     1
  1
{\fＭＳ ゴシック|b0|i0|c128|p49;右引き手}
 73
     1
 44
1.0
  0
MTEXT
  5
282
330
1F
100
AcDbEntity
  8
0-A_文字
  6
Continuous
 62
     7
370
     9
100
AcDbMText
 10
5021.335838693025
 20
3606.576431455872
 30
0.0
 40
77.15249999999999
 41
405.0
 46
0.0
 71
     7
 72
     1
  1
{\fＭＳ ゴシック|b0|i0|c128|p49;左引き手}
 73
     1
 44
1.0
  0
MTEXT
  5
283
330
1F
100
AcDbEntity
  8
F-A_文字
  6
Continuous
 62
     7
370
     9
100
AcDbMText
 10
5096.167700144058
 20
-4147.857012699985
 30
0.0
 40
74.295
 41
97.5
 46
0.0
 71
     7
 72
     1
  1
{\fＭＳ ゴシック|b0|i0|c128|p49;01}
 73
     1
 44
1.0
  0
MTEXT
  5
284
330
1F
100
AcDbEntity
  8
0-A_文字
  6
Continuous
 62
    92
370
    13
100
AcDbMText
 10
-5558.749495325861
 20
3758.968610027299
 30
0.0
 40
147.9368571428572
 41
3397.5
 46
0.0
 71
     7
 72
     1
  1
{\fＭＳ ゴシック|b0|i0|c128|p49;片引き戸　上吊りタイプ　固定枠170巾}
 73
     1
 44
1.0
  0
LINE
  5
285
330
1F
100
AcDbEntity
  8
0-A_文字
  6
Continuous
 62
    92
370
    13
100
AcDbLine
 10
-5659.999495325861
 20
3730.00018145587
 30
0.0
 11
-2064.285714285714
 21
3730.00018145587
 31
0.0
  0
LINE
  5
286
330
1F
100
AcDbEntity
  8
0-A_文字
  6
Continuous
 62
    92
370
    13
100
AcDbLine
 10
-5659.999495325861
 20
4000.00018145587
 30
0.0
 11
-2064.285714285714
 21
4000.00018145587
 31
0.0
  0
LINE
  5
287
330
1F
100
AcDbEntity
  8
0-A_文字
  6
Continuous
 62
    92
370
    13
100
AcDbLine
 10
-2064.285714285714
 20
3730.00018145587
 30
0.0
 11
-2064.285714285714
 21
4000.00018145587
 31
0.0
  0
MTEXT
  5
288
330
1F
100
AcDbEntity
  8
0-A_文字
  6
Continuous
 62
     7
370
     9
100
AcDbMText
 10
-4330.545515168689
 20
354.3775129854489
 30
0.0
 40
100.584
 41
660.0
 46
0.0
 71
     7
 72
     1
  1
{\fＭＳ ゴシック|b0|i0|c128|p49;■縦断面図}
 73
     1
 44
1.0
  0
LINE
  5
289
330
1F
100
AcDbEntity
  8
0-7_金物
  6
Continuous
 62
     7
370
     9
100
AcDbLine
 10
-3584.145514393987
 20
-465.3076502883684
 30
0.0
 11
-3584.145514393987
 21
-356.1076510077319
 31
0.0
  0
ARC
  5
28A
330
1F
100
AcDbEntity
  8
0-7_金物
  6
Continuous
 62
     7
370
     9
100
AcDbCircle
 10
-3582.945514401891
 20
-356.1076510077319
 30
0.0
 40
1.199999992094489
100
AcDbArc
 50
89.99999999999997
 51
180.0
  0
LINE
  5
28B
330
1F
100
AcDbEntity
  8
0-1_通り芯
  6
JWW_CENTER1
 62
   120
370
     5
100
AcDbLine
 10
-4344.890277680453
 20
-2994.907445021986
 30
0.0
 11
-1927.545515168687
 21
-2994.907444743116
 31
0.0
  0
LINE
  5
28C
330
1F
100
AcDbEntity
  8
0-1_通り芯
  6
JWW_CENTER1
 62
   120
370
     5
100
AcDbLine
 10
-4330.545515168689
 20
-174.9076510156388
 30
0.0
 11
-1927.545515168687
 21
-174.9076510156388
 31
0.0
  0
LINE
  5
28D
330
1F
100
AcDbEntity
  8
0-4_枠
  6
Continuous
 62
   120
370
     5
100
AcDbLine
 10
-3070.545515168684
 20
-2922.90765101564
 30
0.0
 11
-3070.545515168684
 21
-1728.907548018813
 31
0.0
  0
LINE
  5
28E
330
1F
100
AcDbEntity
  8
0-4_枠
  6
Continuous
 62
   120
370
     5
100
AcDbLine
 10
-4090.545515168682
 20
-1728.907548018813
 30
0.0
 11
-4090.545515168682
 21
-2922.90765101564
 31
0.0
  0
LINE
  5
28F
330
1F
100
AcDbEntity
  8
0-4_枠
  6
Continuous
 62
   120
370
     5
100
AcDbLine
 10
-3070.545515168684
 20
-1608.907548018813
 30
0.0
 11
-3070.545515168684
 21
-174.9076510156388
 31
0.0
  0
LINE
  5
290
330
1F
100
AcDbEntity
  8
0-4_枠
  6
Continuous
 62
   120
370
     5
100
AcDbLine
 10
-4090.545515168682
 20
-174.9076510156388
 30
0.0
 11
-4090.545515168682
 21
-1608.907548018813
 31
0.0
  0
LINE
  5
291
330
1F
100
AcDbEntity
  8
0-2_柱
  6
Continuous
 62
    92
370
    13
100
AcDbLine
 10
-3940.545515168689
 20
-12.9076510156365
 30
0.0
 11
-3220.545515168688
 21
-12.9076510156365
 31
0.0
  0
LINE
  5
292
330
1F
100
AcDbEntity
  8
0-2_柱
  6
Continuous
 62
     7
370
     9
100
AcDbLine
 10
-3940.545515168689
 20
-174.9076510156388
 30
0.0
 11
-3220.545515168688
 21
-12.9076510156365
 31
0.0
  0
LINE
  5
293
330
1F
100
AcDbEntity
  8
0-2_柱
  6
Continuous
 62
    92
370
    13
100
AcDbLine
 10
-3940.545515168689
 20
-174.9076510156388
 30
0.0
 11
-3220.545515168688
 21
-174.9076510156388
 31
0.0
  0
LINE
  5
294
330
1F
100
AcDbEntity
  8
0-C_ハッチ
  6
JWW_DASHED1
 62
   120
370
     5
100
AcDbLine
 10
-3159.087791724364
 20
-174.9076510156388
 30
0.0
 11
-3145.545515168703
 21
-161.3653744599779
 31
0.0
  0
LINE
  5
295
330
1F
100
AcDbEntity
  8
0-C_ハッチ
  6
JWW_DASHED1
 62
   120
370
     5
100
AcDbLine
 10
-3201.514198595583
 20
-174.9076510156388
 30
0.0
 11
-3145.545515168703
 21
-118.9389675887642
 31
0.0
  0
LINE
  5
296
330
1F
100
AcDbEntity
  8
0-C_ハッチ
  6
JWW_DASHED1
 62
   120
370
     5
100
AcDbLine
 10
-3220.545515168689
 20
-151.5125607175557
 30
0.0
 11
-3145.545515168693
 21
-76.51256071755057
 31
0.0
  0
LINE
  5
297
330
1F
100
AcDbEntity
  8
0-C_ハッチ
  6
JWW_DASHED1
 62
   120
370
     5
100
AcDbLine
 10
-3220.545515168689
 20
-109.0861538463489
 30
0.0
 11
-3145.545515168698
 21
-34.08615384635098
 31
0.0
  0
LINE
  5
298
330
1F
100
AcDbEntity
  8
0-C_ハッチ
  6
JWW_DASHED1
 62
   120
370
     5
100
AcDbLine
 10
-3220.545515168679
 20
145.4722873808082
 30
0.0
 11
-3192.925453565104
 21
173.0923489843853
 31
0.0
  0
LINE
  5
299
330
1F
100
AcDbEntity
  8
0-C_ハッチ
  6
JWW_DASHED1
 62
   120
370
     5
100
AcDbLine
 10
-3220.545515168693
 20
103.0458805095945
 30
0.0
 11
-3150.499046693904
 21
173.0923489843853
 31
0.0
  0
LINE
  5
29A
330
1F
100
AcDbEntity
  8
0-C_ハッチ
  6
JWW_DASHED1
 62
   120
370
     5
100
AcDbLine
 10
-3220.545515168698
 20
60.61947363839451
 30
0.0
 11
-3145.545515168688
 21
135.6194736384018
 31
0.0
  0
LINE
  5
29B
330
1F
100
AcDbEntity
  8
0-C_ハッチ
  6
JWW_DASHED1
 62
   120
370
     5
100
AcDbLine
 10
-3220.545515168702
 20
-24.23334010401234
 30
0.0
 11
-3145.545515168703
 21
50.76665989598126
 31
0.0
  0
LINE
  5
29C
330
1F
100
AcDbEntity
  8
0-C_ハッチ
  6
JWW_DASHED1
 62
   120
370
     5
100
AcDbLine
 10
-3220.545515168702
 20
-66.65974697521193
 30
0.0
 11
-3145.545515168703
 21
8.340253024787643
 31
0.0
  0
LINE
  5
29D
330
1F
100
AcDbEntity
  8
0-C_ハッチ
  6
JWW_DASHED1
 62
   120
370
     5
100
AcDbLine
 10
-3220.545515168703
 20
18.19306676718298
 30
0.0
 11
-3145.545515168707
 21
93.19306676718085
 31
0.0
  0
LINE
  5
29E
330
1F
100
AcDbEntity
  8
0-3_仕上げ
  6
Continuous
 62
    40
370
    15
100
AcDbLine
 10
-3220.545515168688
 20
-174.9076510156388
 30
0.0
 11
-3220.545515168688
 21
173.0923489843853
 31
0.0
  0
LINE
  5
29F
330
1F
100
AcDbEntity
  8
0-3_仕上げ
  6
Continuous
 62
    40
370
    15
100
AcDbLine
 10
-3145.545515168688
 20
-174.9076510156388
 30
0.0
 11
-3145.545515168688
 21
173.0923489843853
 31
0.0
  0
LINE
  5
2A0
330
1F
100
AcDbEntity
  8
0-C_ハッチ
  6
JWW_DASHED1
 62
   120
370
     5
100
AcDbLine
 10
-3970.168168657051
 20
-174.9076510156388
 30
0.0
 11
-3940.376975291157
 21
-145.1164576497482
 31
0.0
  0
LINE
  5
2A1
330
1F
100
AcDbEntity
  8
0-C_ハッチ
  6
JWW_DASHED1
 62
   120
370
     5
100
AcDbLine
 10
-4012.594575528264
 20
-174.9076510156388
 30
0.0
 11
-3940.376975291157
 21
-102.6900507785345
 31
0.0
  0
LINE
  5
2A2
330
1F
100
AcDbEntity
  8
0-C_ハッチ
  6
JWW_DASHED1
 62
   120
370
     5
100
AcDbLine
 10
-4015.376975291143
 20
161.7212041910929
 30
0.0
 11
-4004.005830497853
 21
173.0923489843853
 31
0.0
  0
LINE
  5
2A3
330
1F
100
AcDbEntity
  8
0-C_ハッチ
  6
JWW_DASHED1
 62
   120
370
     5
100
AcDbLine
 10
-4015.376975291139
 20
119.2947973198993
 30
0.0
 11
-3961.579423626653
 21
173.0923489843853
 31
0.0
  0
LINE
  5
2A4
330
1F
100
AcDbEntity
  8
0-C_ハッチ
  6
JWW_DASHED1
 62
   120
370
     5
100
AcDbLine
 10
-4015.545515168689
 20
-135.4321837848502
 30
0.0
 11
-3940.376975291157
 21
-60.26364390732127
 31
0.0
  0
LINE
  5
2A5
330
1F
100
AcDbEntity
  8
0-C_ハッチ
  6
JWW_DASHED1
 62
   120
370
     5
100
AcDbLine
 10
-4015.376975291153
 20
76.86839044868563
 30
0.0
 11
-3940.376975291139
 21
151.868390448695
 31
0.0
  0
LINE
  5
2A6
330
1F
100
AcDbEntity
  8
0-C_ハッチ
  6
JWW_DASHED1
 62
   120
370
     5
100
AcDbLine
 10
-4015.376975291153
 20
34.44198357748093
 30
0.0
 11
-3940.376975291143
 21
109.4419835774924
 31
0.0
  0
LINE
  5
2A7
330
1F
100
AcDbEntity
  8
0-C_ハッチ
  6
JWW_DASHED1
 62
   120
370
     5
100
AcDbLine
 10
-4015.376975291153
 20
-7.9844232937144
 30
0.0
 11
-3940.376975291157
 21
67.0155767062792
 31
0.0
  0
LINE
  5
2A8
330
1F
100
AcDbEntity
  8
0-C_ハッチ
  6
JWW_DASHED1
 62
   120
370
     5
100
AcDbLine
 10
-4015.37697529116
 20
-50.41083016492593
 30
0.0
 11
-3940.376975291167
 21
24.58916983507194
 31
0.0
  0
LINE
  5
2A9
330
1F
100
AcDbEntity
  8
0-C_ハッチ
  6
JWW_DASHED1
 62
   120
370
     5
100
AcDbLine
 10
-4013.447389270666
 20
-90.90765101562653
 30
0.0
 11
-3940.37697529116
 21
-17.83723703612594
 31
0.0
  0
LINE
  5
2AA
330
1F
100
AcDbEntity
  8
0-3_仕上げ
  6
Continuous
 62
    40
370
    15
100
AcDbLine
 10
-3940.545515168689
 20
-174.9076510156388
 30
0.0
 11
-3940.545515168689
 21
173.0923489843853
 31
0.0
  0
LINE
  5
2AB
330
1F
100
AcDbEntity
  8
0-3_仕上げ
  6
Continuous
 62
    40
370
    15
100
AcDbLine
 10
-4015.545515168689
 20
-174.9076510156388
 30
0.0
 11
-4015.545515168689
 21
173.0923489843853
 31
0.0
  0
LINE
  5
2AC
330
1F
100
AcDbEntity
  8
0-C_ハッチ
  6
Continuous
 62
   120
370
     5
100
AcDbLine
 10
-3107.360679907681
 20
-351.9076510156419
 30
0.0
 11
-3097.545675385969
 21
-342.0926464939336
 31
0.0
  0
LINE
  5
2AD
330
1F
100
AcDbEntity
  8
0-C_ハッチ
  6
Continuous
 62
   120
370
     5
100
AcDbLine
 10
-3166.757649527374
 20
-351.9076510156419
 30
0.0
 11
-3097.545675385969
 21
-282.6956768742454
 31
0.0
  0
LINE
  5
2AE
330
1F
100
AcDbEntity
  8
0-C_ハッチ
  6
Continuous
 62
   120
370
     5
100
AcDbLine
 10
-3226.154619147069
 20
-351.9076510156415
 30
0.0
 11
-3097.545675385969
 21
-223.2987072545389
 31
0.0
  0
LINE
  5
2AF
330
1F
100
AcDbEntity
  8
0-C_ハッチ
  6
Continuous
 62
   120
370
     5
100
AcDbLine
 10
-3285.551588766723
 20
-351.9076510156484
 30
0.0
 11
-3111.551588766716
 21
-177.9076510156365
 31
0.0
  0
LINE
  5
2B0
330
1F
100
AcDbEntity
  8
0-C_ハッチ
  6
Continuous
 62
   120
370
     5
100
AcDbLine
 10
-4063.545950044176
 20
-179.5504983784163
 30
0.0
 11
-4061.903102681396
 21
-177.9076510156365
 31
0.0
  0
LINE
  5
2B1
330
1F
100
AcDbEntity
  8
0-C_ハッチ
  6
Continuous
 62
   120
370
     5
100
AcDbLine
 10
-4063.545950044176
 20
-238.9474679980614
 30
0.0
 11
-4002.506133061749
 21
-177.9076510156365
 31
0.0
  0
LINE
  5
2B2
330
1F
100
AcDbEntity
  8
0-C_ハッチ
  6
Continuous
 62
   120
370
     5
100
AcDbLine
 10
-4063.545950044176
 20
-298.3444376177087
 30
0.0
 11
-3943.109163442105
 21
-177.9076510156365
 31
0.0
  0
LINE
  5
2B3
330
1F
100
AcDbEntity
  8
0-C_ハッチ
  6
Continuous
 62
   120
370
     5
100
AcDbLine
 10
-4057.712193822405
 20
-351.9076510156415
 30
0.0
 11
-3880.712193822403
 21
-174.9076510156388
 31
0.0
  0
LINE
  5
2B4
330
1F
100
AcDbEntity
  8
0-C_ハッチ
  6
Continuous
 62
   120
370
     5
100
AcDbLine
 10
-3170.948558386358
 20
-177.9076510156365
 30
0.0
 11
-3344.948558386358
 21
-351.9076510156351
 31
0.0
  0
LINE
  5
2B5
330
1F
100
AcDbEntity
  8
0-C_ハッチ
  6
Continuous
 62
   120
370
     5
100
AcDbLine
 10
-3380.145515168687
 20
-327.7076381782618
 30
0.0
 11
-3229.545515168687
 21
-177.1076381782559
 31
0.0
  0
LINE
  5
2B6
330
1F
100
AcDbEntity
  8
0-C_ハッチ
  6
Continuous
 62
   120
370
     5
100
AcDbLine
 10
-3489.536436865065
 20
-258.9076510156378
 30
0.0
 11
-3405.536436865061
 21
-174.9076510156388
 31
0.0
  0
LINE
  5
2B7
330
1F
100
AcDbEntity
  8
0-C_ハッチ
  6
Continuous
 62
   120
370
     5
100
AcDbLine
 10
-3548.933406484763
 20
-258.9076510156378
 30
0.0
 11
-3464.933406484761
 21
-174.9076510156388
 31
0.0
  0
LINE
  5
2B8
330
1F
100
AcDbEntity
  8
0-C_ハッチ
  6
Continuous
 62
   120
370
     5
100
AcDbLine
 10
-3430.139467245412
 20
-258.9076510156378
 30
0.0
 11
-3346.139467245413
 21
-174.9076510156388
 31
0.0
  0
LINE
  5
2B9
330
1F
100
AcDbEntity
  8
0-C_ハッチ
  6
Continuous
 62
   120
370
     5
100
AcDbLine
 10
-3998.315224202765
 20
-351.9076510156488
 30
0.0
 11
-3821.315224202755
 21
-174.9076510156388
 31
0.0
  0
LINE
  5
2BA
330
1F
100
AcDbEntity
  8
0-C_ハッチ
  6
Continuous
 62
   120
370
     5
100
AcDbLine
 10
-3380.145515168687
 20
-268.3106685586145
 30
0.0
 11
-3286.742497625712
 21
-174.9076510156388
 31
0.0
  0
LINE
  5
2BB
330
1F
100
AcDbEntity
  8
0-4_枠
  6
Continuous
 62
    92
370
    13
100
AcDbLine
 10
-3094.545515168687
 20
-174.9076510156388
 30
0.0
 11
-4066.545515168684
 21
-174.9076510156388
 31
0.0
  0
LINE
  5
2BC
330
1F
100
AcDbEntity
  8
0-4_枠
  6
Continuous
 62
   120
370
     5
100
AcDbLine
 10
-3070.545515168684
 20
-174.9076510156388
 30
0.0
 11
-3094.545515168687
 21
-174.9076510156388
 31
0.0
  0
LINE
  5
2BD
330
1F
100
AcDbEntity
  8
0-4_枠
  6
Continuous
 62
    92
370
    13
100
AcDbLine
 10
-3184.545515168687
 20
-177.9076510156365
 30
0.0
 11
-3097.545675385969
 21
-177.9076510156365
 31
0.0
  0
LINE
  5
2BE
330
1F
100
AcDbEntity
  8
0-4_枠
  6
Continuous
 62
    92
370
    13
100
AcDbLine
 10
-3097.545675385969
 20
-351.9076510156415
 30
0.0
 11
-3097.545675385969
 21
-177.9076510156365
 31
0.0
  0
LINE
  5
2BF
330
1F
100
AcDbEntity
  8
0-4_枠
  6
Continuous
 62
    92
370
    13
100
AcDbLine
 10
-3094.545515168687
 20
-354.9076510156388
 30
0.0
 11
-3094.545515168687
 21
-174.9076510156388
 31
0.0
  0
LINE
  5
2C0
330
1F
100
AcDbEntity
  8
0-4_枠
  6
Continuous
 62
    92
370
    13
100
AcDbLine
 10
-3184.545515168687
 20
-177.9076510156365
 30
0.0
 11
-3184.545515168687
 21
-174.9076510156388
 31
0.0
  0
LINE
  5
2C1
330
1F
100
AcDbEntity
  8
0-B_寸法
  6
Continuous
 62
   120
370
     5
100
AcDbLine
 10
-4066.545515168684
 20
-890.7326473567368
 30
0.0
 11
-3094.545515168687
 21
-890.7326473567368
 31
0.0
  0
LWPOLYLINE
  5
2C2
330
1F
100
AcDbEntity
  8
0-B_寸法
  6
Continuous
 62
     7
370
     9
100
AcDbPolyline
 90
        4
 70
     1
 43
3.0
 10
-3093.045515168687
 20
-890.7326473567368
 42
0.4142135623731
 10
-3094.545515168687
 20
-889.2326473567368
 42
0.4142135623731
 10
-3096.045515168686
 20
-890.7326473567368
 42
0.4142135623731
 10
-3094.545515168687
 20
-892.232647356737
 42
0.4142135623731
  0
LINE
  5
2C3
330
1F
100
AcDbEntity
  8
0-B_寸法
  6
Continuous
 62
   120
370
     5
100
AcDbLine
 10
-3094.545515168687
 20
-890.7326473567368
 30
0.0
 11
-3094.545515168687
 21
-767.383214082254
 31
0.0
  0
LINE
  5
2C4
330
1F
100
AcDbEntity
  8
0-4_枠
  6
Continuous
 62
    92
370
    13
100
AcDbLine
 10
-3094.545515168687
 20
-354.9076510156388
 30
0.0
 11
-3380.145515168687
 21
-354.9076510156388
 31
0.0
  0
LINE
  5
2C5
330
1F
100
AcDbEntity
  8
0-4_枠
  6
Continuous
 62
    92
370
    13
100
AcDbLine
 10
-3097.545675385969
 20
-351.9076510156415
 30
0.0
 11
-3380.145515168687
 21
-351.9076510156415
 31
0.0
  0
LINE
  5
2C6
330
1F
100
AcDbEntity
  8
0-4_枠
  6
Continuous
 62
    92
370
    13
100
AcDbLine
 10
-3931.545515168684
 20
-177.9076510156365
 30
0.0
 11
-4063.545950044176
 21
-177.9076510156365
 31
0.0
  0
LINE
  5
2C7
330
1F
100
AcDbEntity
  8
0-4_枠
  6
Continuous
 62
    92
370
    13
100
AcDbLine
 10
-3931.545515168684
 20
-174.9076510156388
 30
0.0
 11
-3931.545515168684
 21
-177.9076510156365
 31
0.0
  0
LINE
  5
2C8
330
1F
100
AcDbEntity
  8
0-4_枠
  6
Continuous
 62
    92
370
    13
100
AcDbLine
 10
-3380.145515168687
 20
-354.9076510156388
 30
0.0
 11
-3380.145515168687
 21
-258.9076510156378
 31
0.0
  0
LINE
  5
2C9
330
1F
100
AcDbEntity
  8
0-4_枠
  6
Continuous
 62
    92
370
    13
100
AcDbLine
 10
-3380.145515168687
 20
-258.9076510156378
 30
0.0
 11
-3552.945515168687
 21
-258.9076510156378
 31
0.0
  0
LINE
  5
2CA
330
1F
100
AcDbEntity
  8
0-4_枠
  6
Continuous
 62
    92
370
    13
100
AcDbLine
 10
-3552.945515168687
 20
-354.9076510156388
 30
0.0
 11
-3552.945515168687
 21
-258.9076510156378
 31
0.0
  0
LINE
  5
2CB
330
1F
100
AcDbEntity
  8
0-4_枠
  6
Continuous
 62
   120
370
     5
100
AcDbLine
 10
-4090.545515168682
 20
-174.9076510156388
 30
0.0
 11
-4066.545515168684
 21
-174.9076510156388
 31
0.0
  0
LINE
  5
2CC
330
1F
100
AcDbEntity
  8
0-4_枠
  6
Continuous
 62
    92
370
    13
100
AcDbLine
 10
-4063.545950044176
 20
-351.9076510156415
 30
0.0
 11
-4063.545950044176
 21
-177.9076510156365
 31
0.0
  0
LINE
  5
2CD
330
1F
100
AcDbEntity
  8
0-4_枠
  6
Continuous
 62
    92
370
    13
100
AcDbLine
 10
-4066.545515168684
 20
-354.9076510156388
 30
0.0
 11
-4066.545515168684
 21
-174.9076510156388
 31
0.0
  0
LWPOLYLINE
  5
2CE
330
1F
100
AcDbEntity
  8
0-B_寸法
  6
Continuous
 62
     7
370
     9
100
AcDbPolyline
 90
        4
 70
     1
 43
3.0
 10
-4065.045515168684
 20
-890.7326473567368
 42
0.4142135623731
 10
-4066.545515168684
 20
-889.2326473567368
 42
0.4142135623731
 10
-4068.045515168684
 20
-890.7326473567368
 42
0.4142135623731
 10
-4066.545515168684
 20
-892.232647356737
 42
0.4142135623731
  0
LINE
  5
2CF
330
1F
100
AcDbEntity
  8
0-B_寸法
  6
Continuous
 62
   120
370
     5
100
AcDbLine
 10
-4066.545515168684
 20
-890.7326473567368
 30
0.0
 11
-4066.545515168684
 21
-746.3832140822594
 31
0.0
  0
LINE
  5
2D0
330
1F
100
AcDbEntity
  8
0-0_補助線
  6
JWW_HOJO
 62
   120
370
     5
100
AcDbLine
 10
-2989.545515168687
 20
-1728.907548018813
 30
0.0
 11
-4171.545515168687
 21
-1728.907548018813
 31
0.0
  0
LINE
  5
2D1
330
1F
100
AcDbEntity
  8
0-0_補助線
  6
JWW_HOJO
 62
   120
370
     5
100
AcDbLine
 10
-2989.545515168687
 20
-1608.907548018813
 30
0.0
 11
-4171.545515168687
 21
-1608.907548018813
 31
0.0
  0
LINE
  5
2D2
330
1F
100
AcDbEntity
  8
0-7_金物
  6
Continuous
 62
     7
370
     9
100
AcDbLine
 10
-3484.545514615321
 20
-435.9076510156385
 30
0.0
 11
-3484.545514615321
 21
-404.7076506875752
 31
0.0
  0
LINE
  5
2D3
330
1F
100
AcDbEntity
  8
0-7_金物
  6
Continuous
 62
     7
370
     9
100
AcDbLine
 10
-3448.545514615321
 20
-404.7076506875752
 30
0.0
 11
-3448.545514615321
 21
-435.9076510156385
 31
0.0
  0
ARC
  5
2D4
330
1F
100
AcDbEntity
  8
0-7_金物
  6
Continuous
 62
     7
370
     9
100
AcDbCircle
 10
-3580.545514417701
 20
-465.3076502883684
 30
0.0
 40
3.599999976284835
100
AcDbArc
 50
180.0
 51
0.0
  0
LINE
  5
2D5
330
1F
100
AcDbEntity
  8
0-7_金物
  6
Continuous
 62
     7
370
     9
100
AcDbLine
 10
-3576.945514441415
 20
-363.3076509603026
 30
0.0
 11
-3576.945514441415
 21
-465.3076502883684
 31
0.0
  0
ARC
  5
2D6
330
1F
100
AcDbEntity
  8
0-7_金物
  6
Continuous
 62
     7
370
     9
100
AcDbCircle
 10
-3575.745514449322
 20
-363.3076509603043
 30
0.0
 40
1.199999992095854
100
AcDbArc
 50
89.99999999993486
 51
179.9999999999349
  0
LINE
  5
2D7
330
1F
100
AcDbEntity
  8
0-7_金物
  6
Continuous
 62
     7
370
     9
100
AcDbLine
 10
-3550.545514615329
 20
-362.1076509682078
 30
0.0
 11
-3575.745514449319
 21
-362.1076509682078
 31
0.0
  0
LINE
  5
2D8
330
1F
100
AcDbEntity
  8
0-7_金物
  6
Continuous
 62
     7
370
     9
100
AcDbLine
 10
-3582.945514401891
 20
-354.9076510156388
 30
0.0
 11
-3550.545514615329
 21
-354.9076510156388
 31
0.0
  0
LINE
  5
2D9
330
1F
100
AcDbEntity
  8
0-7_金物
  6
Continuous
 62
     7
370
     9
100
AcDbLine
 10
-3550.545514615329
 20
-375.7022444857776
 30
0.0
 11
-3550.545514615329
 21
-362.1076509682078
 31
0.0
  0
ARC
  5
2DA
330
1F
100
AcDbEntity
  8
0-7_金物
  6
Continuous
 62
     7
370
     9
100
AcDbCircle
 10
-3538.54551469438
 20
-375.7022444857776
 30
0.0
 40
11.99999992094837
100
AcDbArc
 50
179.9999999999987
 51
215.9505676196161
  0
ARC
  5
2DB
330
1F
100
AcDbEntity
  8
0-7_金物
  6
Continuous
 62
     7
370
     9
100
AcDbCircle
 10
-3518.145514828767
 20
-360.9076509761113
 30
0.0
 40
37.19999975494188
100
AcDbArc
 50
215.9505676196163
 51
293.8188413934565
  0
ARC
  5
2DC
330
1F
100
AcDbEntity
  8
0-7_金物
  6
Continuous
 62
     7
370
     9
100
AcDbCircle
 10
-3505.545514911768
 20
-389.4502505295262
 30
0.0
 40
5.999999960474696
100
AcDbArc
 50
293.8188413934587
 51
0.0000000000009542
  0
LINE
  5
2DD
330
1F
100
AcDbEntity
  8
0-7_金物
  6
Continuous
 62
     7
370
     9
100
AcDbLine
 10
-3499.545514951296
 20
-387.9076507982475
 30
0.0
 11
-3499.545514951296
 21
-389.4502505295262
 31
0.0
  0
ARC
  5
2DE
330
1F
100
AcDbEntity
  8
0-7_金物
  6
Continuous
 62
     7
370
     9
100
AcDbCircle
 10
-3501.345514939438
 20
-387.9076507982475
 30
0.0
 40
1.799999988141737
100
AcDbArc
 50
359.9999999999994
 51
121.8907918018427
  0
ARC
  5
2DF
330
1F
100
AcDbEntity
  8
0-7_金物
  6
Continuous
 62
     7
370
     9
100
AcDbCircle
 10
-3518.145514828763
 20
-360.9076509761113
 30
0.0
 40
29.99999980237392
100
AcDbArc
 50
213.9231120032609
 51
301.8907918018446
  0
ARC
  5
2E0
330
1F
100
AcDbEntity
  8
0-7_金物
  6
Continuous
 62
     7
370
     9
100
AcDbCircle
 10
-3541.545514674614
 20
-376.6455033307651
 30
0.0
 40
1.799999988143631
100
AcDbArc
 50
179.9999999999944
 51
213.923112003254
  0
LINE
  5
2E1
330
1F
100
AcDbEntity
  8
0-7_金物
  6
Continuous
 62
     7
370
     9
100
AcDbLine
 10
-3543.34551466276
 20
-291.9076514306542
 30
0.0
 11
-3543.34551466276
 21
-376.6455033307616
 31
0.0
  0
ARC
  5
2E2
330
1F
100
AcDbEntity
  8
0-7_金物
  6
Continuous
 62
     7
370
     9
100
AcDbCircle
 10
-3531.345514741808
 20
-291.9076514306542
 30
0.0
 40
11.99999992094899
100
AcDbArc
 50
90.0
 51
180.0
  0
LINE
  5
2E3
330
1F
100
AcDbEntity
  8
0-7_金物
  6
Continuous
 62
     7
370
     9
100
AcDbLine
 10
-3496.245514973031
 20
-279.9076515097059
 30
0.0
 11
-3531.345514741808
 21
-279.9076515097059
 31
0.0
  0
ARC
  5
2E4
330
1F
100
AcDbEntity
  8
0-7_金物
  6
Continuous
 62
     7
370
     9
100
AcDbCircle
 10
-3496.245514973031
 20
-278.1076515215628
 30
0.0
 40
1.799999988141394
100
AcDbArc
 50
269.9999999999891
 51
359.9999999999891
  0
LINE
  5
2E5
330
1F
100
AcDbEntity
  8
0-7_金物
  6
Continuous
 62
     7
370
     9
100
AcDbLine
 10
-3494.445514984892
 20
-269.7076515768973
 30
0.0
 11
-3494.445514984892
 21
-278.1076515215628
 31
0.0
  0
ARC
  5
2E6
330
1F
100
AcDbEntity
  8
0-7_金物
  6
Continuous
 62
     7
370
     9
100
AcDbCircle
 10
-3492.645514996749
 20
-269.7076515768973
 30
0.0
 40
1.799999988142416
100
AcDbArc
 50
89.99999999997829
 51
179.9999999999783
  0
LINE
  5
2E7
330
1F
100
AcDbEntity
  8
0-7_金物
  6
Continuous
 62
     7
370
     9
100
AcDbLine
 10
-3468.345515156827
 20
-267.9076515887576
 30
0.0
 11
-3492.645514996749
 21
-267.9076515887576
 31
0.0
  0
LINE
  5
2E8
330
1F
100
AcDbEntity
  8
0-7_金物
  6
Continuous
 62
     7
370
     9
100
AcDbLine
 10
-3466.545515168684
 20
-266.1076516006145
 30
0.0
 11
-3468.345515156827
 21
-267.9076515887576
 31
0.0
  0
LINE
  5
2E9
330
1F
100
AcDbEntity
  8
0-7_金物
  6
Continuous
 62
     7
370
     9
100
AcDbLine
 10
-3464.745515180541
 20
-267.9076515887576
 30
0.0
 11
-3466.545515168684
 21
-266.1076516006145
 31
0.0
  0
LINE
  5
2EA
330
1F
100
AcDbEntity
  8
0-7_金物
  6
Continuous
 62
     7
370
     9
100
AcDbLine
 10
-3440.445515340622
 20
-267.9076515887576
 30
0.0
 11
-3464.745515180541
 21
-267.9076515887576
 31
0.0
  0
ARC
  5
2EB
330
1F
100
AcDbEntity
  8
0-7_金物
  6
Continuous
 62
     7
370
     9
100
AcDbCircle
 10
-3440.445515340621
 20
-269.7076515768973
 30
0.0
 40
1.799999988142416
100
AcDbArc
 50
0.0000000000217168
 51
90.00000000002173
  0
LINE
  5
2EC
330
1F
100
AcDbEntity
  8
0-7_金物
  6
Continuous
 62
     7
370
     9
100
AcDbLine
 10
-3438.645515352479
 20
-278.1076515215628
 30
0.0
 11
-3438.645515352479
 21
-269.7076515768973
 31
0.0
  0
ARC
  5
2ED
330
1F
100
AcDbEntity
  8
0-7_金物
  6
Continuous
 62
     7
370
     9
100
AcDbCircle
 10
-3436.845515364336
 20
-278.1076515215628
 30
0.0
 40
1.799999988142076
100
AcDbArc
 50
180.0000000000326
 51
270.0000000000326
  0
LINE
  5
2EE
330
1F
100
AcDbEntity
  8
0-7_金物
  6
Continuous
 62
     7
370
     9
100
AcDbLine
 10
-3401.745515595559
 20
-279.9076515097059
 30
0.0
 11
-3436.845515364336
 21
-279.9076515097059
 31
0.0
  0
ARC
  5
2EF
330
1F
100
AcDbEntity
  8
0-7_金物
  6
Continuous
 62
     7
370
     9
100
AcDbCircle
 10
-3401.745515595559
 20
-291.9076514306542
 30
0.0
 40
11.99999992094899
100
AcDbArc
 50
0.0
 51
90.00000000000001
  0
LINE
  5
2F0
330
1F
100
AcDbEntity
  8
0-7_金物
  6
Continuous
 62
     7
370
     9
100
AcDbLine
 10
-3389.745515674608
 20
-376.6455033307616
 30
0.0
 11
-3389.745515674608
 21
-291.9076514306542
 31
0.0
  0
ARC
  5
2F1
330
1F
100
AcDbEntity
  8
0-7_金物
  6
Continuous
 62
     7
370
     9
100
AcDbCircle
 10
-3391.545515662756
 20
-376.6455033307616
 30
0.0
 40
1.799999988144312
100
AcDbArc
 50
326.0768879966748
 51
359.9999999999343
  0
ARC
  5
2F2
330
1F
100
AcDbEntity
  8
0-7_金物
  6
Continuous
 62
     7
370
     9
100
AcDbCircle
 10
-3414.945515508604
 20
-360.9076509761113
 30
0.0
 40
29.99999980237201
100
AcDbArc
 50
238.1092081981562
 51
326.07688799674
  0
ARC
  5
2F3
330
1F
100
AcDbEntity
  8
0-7_金物
  6
Continuous
 62
     7
370
     9
100
AcDbCircle
 10
-3431.745515397934
 20
-387.9076507982492
 30
0.0
 40
1.799999988143101
100
AcDbArc
 50
58.10920819813321
 51
179.9999999999765
  0
LINE
  5
2F4
330
1F
100
AcDbEntity
  8
0-7_金物
  6
Continuous
 62
     7
370
     9
100
AcDbLine
 10
-3433.545515386077
 20
-389.4502505295262
 30
0.0
 11
-3433.545515386077
 21
-387.9076507982475
 31
0.0
  0
ARC
  5
2F5
330
1F
100
AcDbEntity
  8
0-7_金物
  6
Continuous
 62
     7
370
     9
100
AcDbCircle
 10
-3427.545515425599
 20
-389.4502505295262
 30
0.0
 40
5.999999960474696
100
AcDbArc
 50
179.9999999999991
 51
246.1811586065413
  0
ARC
  5
2F6
330
1F
100
AcDbEntity
  8
0-7_金物
  6
Continuous
 62
     7
370
     9
100
AcDbCircle
 10
-3414.945515508604
 20
-360.9076509761113
 30
0.0
 40
37.19999975494105
100
AcDbArc
 50
246.1811586065432
 51
324.0494323803861
  0
ARC
  5
2F7
330
1F
100
AcDbEntity
  8
0-7_金物
  6
Continuous
 62
     7
370
     9
100
AcDbCircle
 10
-3394.545515642987
 20
-375.7022444857776
 30
0.0
 40
11.99999992094679
100
AcDbArc
 50
324.0494323803814
 51
359.9999999999989
  0
LINE
  5
2F8
330
1F
100
AcDbEntity
  8
0-7_金物
  6
Continuous
 62
     7
370
     9
100
AcDbLine
 10
-3382.545515722042
 20
-362.1076509682078
 30
0.0
 11
-3382.545515722042
 21
-375.7022444857776
 31
0.0
  0
LINE
  5
2F9
330
1F
100
AcDbEntity
  8
0-7_金物
  6
Continuous
 62
     7
370
     9
100
AcDbLine
 10
-3374.145515777377
 20
-362.1076509682078
 30
0.0
 11
-3382.545515722042
 21
-362.1076509682078
 31
0.0
  0
ARC
  5
2FA
330
1F
100
AcDbEntity
  8
0-7_金物
  6
Continuous
 62
     7
370
     9
100
AcDbCircle
 10
-3374.145515777377
 20
-358.5076509919233
 30
0.0
 40
3.599999976284494
100
AcDbArc
 50
270.0
 51
90.0
  0
LINE
  5
2FB
330
1F
100
AcDbEntity
  8
0-7_金物
  6
Continuous
 62
     7
370
     9
100
AcDbLine
 10
-3382.545515722042
 20
-354.9076510156388
 30
0.0
 11
-3374.145515777377
 21
-354.9076510156388
 31
0.0
  0
LINE
  5
2FC
330
1F
100
AcDbEntity
  8
0-7_金物
  6
Continuous
 62
     7
370
     9
100
AcDbLine
 10
-3382.545515722042
 20
-261.9076516282817
 30
0.0
 11
-3382.545515722042
 21
-354.9076510156388
 31
0.0
  0
ARC
  5
2FD
330
1F
100
AcDbEntity
  8
0-7_金物
  6
Continuous
 62
     7
370
     9
100
AcDbCircle
 10
-3385.545515702278
 20
-261.9076516282817
 30
0.0
 40
2.999999980237589
100
AcDbArc
 50
0.0
 51
90.0
  0
LINE
  5
2FE
330
1F
100
AcDbEntity
  8
0-7_金物
  6
Continuous
 62
     7
370
     9
100
AcDbLine
 10
-3386.745515694372
 20
-258.9076516480455
 30
0.0
 11
-3385.545515702278
 21
-258.9076516480455
 31
0.0
  0
ARC
  5
2FF
330
1F
100
AcDbEntity
  8
0-7_金物
  6
Continuous
 62
     7
370
     9
100
AcDbCircle
 10
-3386.745515694372
 20
-261.9076516282817
 30
0.0
 40
2.999999980236907
100
AcDbArc
 50
90.00000000001303
 51
180.000000000013
  0
LINE
  5
300
330
1F
100
AcDbEntity
  8
0-7_金物
  6
Continuous
 62
     7
370
     9
100
AcDbLine
 10
-3389.745515674608
 20
-267.9076515887576
 30
0.0
 11
-3389.745515674608
 21
-261.9076516282817
 31
0.0
  0
ARC
  5
301
330
1F
100
AcDbEntity
  8
0-7_金物
  6
Continuous
 62
     7
370
     9
100
AcDbCircle
 10
-3392.745515654848
 20
-267.9076515887576
 30
0.0
 40
2.999999980237248
100
AcDbArc
 50
269.9999999999935
 51
359.9999999999935
  0
LINE
  5
302
330
1F
100
AcDbEntity
  8
0-7_金物
  6
Continuous
 62
     7
370
     9
100
AcDbLine
 10
-3426.645515431528
 20
-270.9076515689938
 30
0.0
 11
-3392.745515654848
 21
-270.9076515689938
 31
0.0
  0
ARC
  5
303
330
1F
100
AcDbEntity
  8
0-7_金物
  6
Continuous
 62
     7
370
     9
100
AcDbCircle
 10
-3426.645515431528
 20
-267.9076515887576
 30
0.0
 40
2.999999980236565
100
AcDbArc
 50
179.9999999999935
 51
269.9999999999935
  0
LINE
  5
304
330
1F
100
AcDbEntity
  8
0-7_金物
  6
Continuous
 62
     7
370
     9
100
AcDbLine
 10
-3429.645515411764
 20
-261.9076516282817
 30
0.0
 11
-3429.645515411764
 21
-267.9076515887576
 31
0.0
  0
ARC
  5
305
330
1F
100
AcDbEntity
  8
0-7_金物
  6
Continuous
 62
     7
370
     9
100
AcDbCircle
 10
-3432.645515392006
 20
-261.9076516282817
 30
0.0
 40
2.999999980237589
100
AcDbArc
 50
0.0
 51
90.0
  0
LINE
  5
306
330
1F
100
AcDbEntity
  8
0-7_金物
  6
Continuous
 62
     7
370
     9
100
AcDbLine
 10
-3500.445514945367
 20
-258.9076516480455
 30
0.0
 11
-3432.645515392006
 21
-258.9076516480455
 31
0.0
  0
ARC
  5
307
330
1F
100
AcDbEntity
  8
0-7_金物
  6
Continuous
 62
     7
370
     9
100
AcDbCircle
 10
-3500.445514945367
 20
-261.9076516282817
 30
0.0
 40
2.999999980237589
100
AcDbArc
 50
89.99999999999997
 51
180.0
  0
LINE
  5
308
330
1F
100
AcDbEntity
  8
0-7_金物
  6
Continuous
 62
     7
370
     9
100
AcDbLine
 10
-3503.445514925604
 20
-267.9076515887576
 30
0.0
 11
-3503.445514925604
 21
-261.9076516282817
 31
0.0
  0
ARC
  5
309
330
1F
100
AcDbEntity
  8
0-7_金物
  6
Continuous
 62
     7
370
     9
100
AcDbCircle
 10
-3506.44551490584
 20
-267.9076515887576
 30
0.0
 40
2.999999980236565
100
AcDbArc
 50
270.0000000000065
 51
0.0000000000065138
  0
LINE
  5
30A
330
1F
100
AcDbEntity
  8
0-7_金物
  6
Continuous
 62
     7
370
     9
100
AcDbLine
 10
-3540.345514682522
 20
-270.9076515689938
 30
0.0
 11
-3506.44551490584
 21
-270.9076515689938
 31
0.0
  0
ARC
  5
30B
330
1F
100
AcDbEntity
  8
0-7_金物
  6
Continuous
 62
     7
370
     9
100
AcDbCircle
 10
-3540.345514682522
 20
-267.9076515887576
 30
0.0
 40
2.999999980237248
100
AcDbArc
 50
180.0000000000066
 51
270.0000000000065
  0
LINE
  5
30C
330
1F
100
AcDbEntity
  8
0-7_金物
  6
Continuous
 62
     7
370
     9
100
AcDbLine
 10
-3543.34551466276
 20
-261.9076516282817
 30
0.0
 11
-3543.34551466276
 21
-267.9076515887576
 31
0.0
  0
ARC
  5
30D
330
1F
100
AcDbEntity
  8
0-7_金物
  6
Continuous
 62
     7
370
     9
100
AcDbCircle
 10
-3546.345514642996
 20
-261.9076516282817
 30
0.0
 40
2.999999980236907
100
AcDbArc
 50
359.999999999987
 51
89.99999999998697
  0
LINE
  5
30E
330
1F
100
AcDbEntity
  8
0-7_金物
  6
Continuous
 62
     7
370
     9
100
AcDbLine
 10
-3547.545514635089
 20
-258.9076516480455
 30
0.0
 11
-3546.345514642996
 21
-258.9076516480455
 31
0.0
  0
ARC
  5
30F
330
1F
100
AcDbEntity
  8
0-7_金物
  6
Continuous
 62
     7
370
     9
100
AcDbCircle
 10
-3547.545514635089
 20
-261.9076516282817
 30
0.0
 40
2.999999980237589
100
AcDbArc
 50
89.99999999999997
 51
180.0
  0
LINE
  5
310
330
1F
100
AcDbEntity
  8
0-7_金物
  6
Continuous
 62
     7
370
     9
100
AcDbLine
 10
-3550.545514615329
 20
-354.9076510156388
 30
0.0
 11
-3550.545514615329
 21
-261.9076516282817
 31
0.0
  0
LINE
  5
311
330
1F
100
AcDbEntity
  8
0-7_金物
  6
Continuous
 62
     7
370
     9
100
AcDbLine
 10
-3466.545515168684
 20
-396.9076507389596
 30
0.0
 11
-3487.545515030343
 21
-396.9076507389596
 31
0.0
  0
ARC
  5
312
330
1F
100
AcDbEntity
  8
0-7_金物
  6
Continuous
 62
     7
370
     9
100
AcDbCircle
 10
-3487.545515030343
 20
-390.9076507784854
 30
0.0
 40
5.999999960474506
100
AcDbArc
 50
180.0
 51
270.0
  0
ARC
  5
313
330
1F
100
AcDbEntity
  8
0-7_金物
  6
Continuous
 62
     7
370
     9
100
AcDbCircle
 10
-3505.545514911765
 20
-390.9076507784872
 30
0.0
 40
11.99999992094901
100
AcDbArc
 50
0.0
 51
63.25631604961301
  0
LINE
  5
314
330
1F
100
AcDbEntity
  8
0-7_金物
  6
Continuous
 62
     7
370
     9
100
AcDbLine
 10
-3500.145514947339
 20
-288.9076514504146
 30
0.0
 11
-3500.145514947339
 21
-336.9076511342146
 31
0.0
  0
ARC
  5
315
330
1F
100
AcDbEntity
  8
0-7_金物
  6
Continuous
 62
     7
370
     9
100
AcDbCircle
 10
-3518.145514828763
 20
-312.907651292318
 30
0.0
 40
29.99999980237253
100
AcDbArc
 50
53.13010235415425
 51
126.8698976458457
  0
ARC
  5
316
330
1F
100
AcDbEntity
  8
0-7_金物
  6
Continuous
 62
     7
370
     9
100
AcDbCircle
 10
-3518.145514828763
 20
-360.9076509761113
 30
0.0
 40
29.99999980237253
100
AcDbArc
 50
233.1301023541541
 51
306.8698976458458
  0
LINE
  5
317
330
1F
100
AcDbEntity
  8
0-7_金物
  6
Continuous
 62
     7
370
     9
100
AcDbLine
 10
-3497.145514967103
 20
-314.1076512844094
 30
0.0
 11
-3498.345514959196
 21
-312.907651292318
 31
0.0
  0
LINE
  5
318
330
1F
100
AcDbEntity
  8
0-7_金物
  6
Continuous
 62
     7
370
     9
100
AcDbLine
 10
-3497.145514967103
 20
-359.7076509840181
 30
0.0
 11
-3498.345514959196
 21
-360.9076509761113
 31
0.0
  0
LINE
  5
319
330
1F
100
AcDbEntity
  8
0-7_金物
  6
Continuous
 62
     7
370
     9
100
AcDbLine
 10
-3500.145514947339
 20
-321.9076512330267
 30
0.0
 11
-3497.145514967103
 21
-321.9076512330267
 31
0.0
  0
LINE
  5
31A
330
1F
100
AcDbEntity
  8
0-7_金物
  6
Continuous
 62
     7
370
     9
100
AcDbLine
 10
-3500.145514947339
 20
-351.9076510354009
 30
0.0
 11
-3497.145514967103
 21
-351.9076510354009
 31
0.0
  0
LINE
  5
31B
330
1F
100
AcDbEntity
  8
0-7_金物
  6
Continuous
 62
     7
370
     9
100
AcDbLine
 10
-3498.345514959201
 20
-321.9076512330267
 30
0.0
 11
-3497.145514967103
 21
-320.7076512409319
 31
0.0
  0
LINE
  5
31C
330
1F
100
AcDbEntity
  8
0-7_金物
  6
Continuous
 62
     7
370
     9
100
AcDbLine
 10
-3497.145514967103
 20
-353.1076510274957
 30
0.0
 11
-3498.345514959196
 21
-351.9076510354009
 31
0.0
  0
LINE
  5
31D
330
1F
100
AcDbEntity
  8
0-7_金物
  6
Continuous
 62
     7
370
     9
100
AcDbLine
 10
-3500.145514947345
 20
-312.907651292318
 30
0.0
 11
-3498.345514959196
 21
-312.907651292318
 31
0.0
  0
LINE
  5
31E
330
1F
100
AcDbEntity
  8
0-7_金物
  6
Continuous
 62
     7
370
     9
100
AcDbLine
 10
-3500.145514947339
 20
-360.9076509761113
 30
0.0
 11
-3498.345514959196
 21
-360.9076509761113
 31
0.0
  0
LINE
  5
31F
330
1F
100
AcDbEntity
  8
0-7_金物
  6
Continuous
 62
     7
370
     9
100
AcDbLine
 10
-3500.145514947339
 20
-336.9076511342146
 30
0.0
 11
-3500.145514947339
 21
-384.9076508180113
 31
0.0
  0
LINE
  5
320
330
1F
100
AcDbEntity
  8
0-7_金物
  6
Continuous
 62
     7
370
     9
100
AcDbLine
 10
-3484.545515050108
 20
-396.9076507389596
 30
0.0
 11
-3484.545515050108
 21
-398.707650727101
 31
0.0
  0
LINE
  5
321
330
1F
100
AcDbEntity
  8
0-7_金物
  6
Continuous
 62
     7
370
     9
100
AcDbLine
 10
-3487.545515030344
 20
-303.9076513516025
 30
0.0
 11
-3466.545515168684
 21
-303.9076513516025
 31
0.0
  0
ARC
  5
322
330
1F
100
AcDbEntity
  8
0-7_金物
  6
Continuous
 62
     7
370
     9
100
AcDbCircle
 10
-3496.545514971058
 20
-363.9076509563509
 30
0.0
 40
2.999999980237253
100
AcDbArc
 50
0.0
 51
90.0
  0
ARC
  5
323
330
1F
100
AcDbEntity
  8
0-7_金物
  6
Continuous
 62
     7
370
     9
100
AcDbCircle
 10
-3496.545514971058
 20
-309.9076513120801
 30
0.0
 40
2.999999980237253
100
AcDbArc
 50
270.0
 51
0.0
  0
LINE
  5
324
330
1F
100
AcDbEntity
  8
0-7_金物
  6
Continuous
 62
     7
370
     9
100
AcDbLine
 10
-3536.145514710187
 20
-384.9076508180113
 30
0.0
 11
-3536.145514710187
 21
-288.907651450418
 31
0.0
  0
LINE
  5
325
330
1F
100
AcDbEntity
  8
0-7_金物
  6
Continuous
 62
     7
370
     9
100
AcDbLine
 10
-3496.545514971058
 20
-312.907651292318
 30
0.0
 11
-3497.145514967103
 21
-312.907651292318
 31
0.0
  0
LINE
  5
326
330
1F
100
AcDbEntity
  8
0-7_金物
  6
Continuous
 62
     7
370
     9
100
AcDbLine
 10
-3496.545514971058
 20
-360.9076509761113
 30
0.0
 11
-3497.145514967103
 21
-360.9076509761113
 31
0.0
  0
LINE
  5
327
330
1F
100
AcDbEntity
  8
0-7_金物
  6
Continuous
 62
     7
370
     9
100
AcDbLine
 10
-3493.545514990817
 20
-372.907650897063
 30
0.0
 11
-3493.545514990817
 21
-363.9076509563509
 31
0.0
  0
LINE
  5
328
330
1F
100
AcDbEntity
  8
0-7_金物
  6
Continuous
 62
     7
370
     9
100
AcDbLine
 10
-3487.545515030344
 20
-378.9076508575354
 30
0.0
 11
-3466.545515168684
 21
-378.9076508575354
 31
0.0
  0
ARC
  5
329
330
1F
100
AcDbEntity
  8
0-7_金物
  6
Continuous
 62
     7
370
     9
100
AcDbCircle
 10
-3487.545515030344
 20
-372.907650897063
 30
0.0
 40
5.999999960474506
100
AcDbArc
 50
180.0
 51
270.0
  0
ARC
  5
32A
330
1F
100
AcDbEntity
  8
0-7_金物
  6
Continuous
 62
     7
370
     9
100
AcDbCircle
 10
-3487.545515030344
 20
-309.9076513120801
 30
0.0
 40
5.999999960474506
100
AcDbArc
 50
90.0
 51
180.0
  0
LINE
  5
32B
330
1F
100
AcDbEntity
  8
0-7_金物
  6
Continuous
 62
     7
370
     9
100
AcDbLine
 10
-3497.145514967103
 20
-312.907651292318
 30
0.0
 11
-3497.145514967103
 21
-336.9076511342146
 31
0.0
  0
LINE
  5
32C
330
1F
100
AcDbEntity
  8
0-7_金物
  6
Continuous
 62
     7
370
     9
100
AcDbLine
 10
-3497.145514967103
 20
-360.9076509761113
 30
0.0
 11
-3497.145514967103
 21
-336.9076511342146
 31
0.0
  0
LINE
  5
32D
330
1F
100
AcDbEntity
  8
0-7_金物
  6
Continuous
 62
     7
370
     9
100
AcDbLine
 10
-3466.545515168684
 20
-396.9076507389596
 30
0.0
 11
-3445.545515307023
 21
-396.9076507389596
 31
0.0
  0
ARC
  5
32E
330
1F
100
AcDbEntity
  8
0-7_金物
  6
Continuous
 62
     7
370
     9
100
AcDbCircle
 10
-3445.545515307023
 20
-390.9076507784854
 30
0.0
 40
5.999999960474506
100
AcDbArc
 50
270.0
 51
0.0
  0
ARC
  5
32F
330
1F
100
AcDbEntity
  8
0-7_金物
  6
Continuous
 62
     7
370
     9
100
AcDbCircle
 10
-3427.545515425599
 20
-390.9076507784872
 30
0.0
 40
11.99999992094901
100
AcDbArc
 50
116.743683950387
 51
180.0
  0
LINE
  5
330
330
1F
100
AcDbEntity
  8
0-7_金物
  6
Continuous
 62
     7
370
     9
100
AcDbLine
 10
-3432.945515390025
 20
-288.9076514504146
 30
0.0
 11
-3432.945515390025
 21
-336.9076511342146
 31
0.0
  0
ARC
  5
331
330
1F
100
AcDbEntity
  8
0-7_金物
  6
Continuous
 62
     7
370
     9
100
AcDbCircle
 10
-3414.945515508603
 20
-312.907651292318
 30
0.0
 40
29.99999980237253
100
AcDbArc
 50
53.13010235415425
 51
126.8698976458457
  0
ARC
  5
332
330
1F
100
AcDbEntity
  8
0-7_金物
  6
Continuous
 62
     7
370
     9
100
AcDbCircle
 10
-3414.945515508603
 20
-360.9076509761113
 30
0.0
 40
29.99999980237253
100
AcDbArc
 50
233.1301023541541
 51
306.8698976458458
  0
LINE
  5
333
330
1F
100
AcDbEntity
  8
0-7_金物
  6
Continuous
 62
     7
370
     9
100
AcDbLine
 10
-3435.945515370263
 20
-314.1076512844094
 30
0.0
 11
-3434.745515378168
 21
-312.907651292318
 31
0.0
  0
LINE
  5
334
330
1F
100
AcDbEntity
  8
0-7_金物
  6
Continuous
 62
     7
370
     9
100
AcDbLine
 10
-3435.945515370263
 20
-359.7076509840181
 30
0.0
 11
-3434.745515378168
 21
-360.9076509761113
 31
0.0
  0
LINE
  5
335
330
1F
100
AcDbEntity
  8
0-7_金物
  6
Continuous
 62
     7
370
     9
100
AcDbLine
 10
-3432.945515390025
 20
-321.9076512330267
 30
0.0
 11
-3435.945515370263
 21
-321.9076512330267
 31
0.0
  0
LINE
  5
336
330
1F
100
AcDbEntity
  8
0-7_金物
  6
Continuous
 62
     7
370
     9
100
AcDbLine
 10
-3432.945515390025
 20
-351.9076510354009
 30
0.0
 11
-3435.945515370263
 21
-351.9076510354009
 31
0.0
  0
LINE
  5
337
330
1F
100
AcDbEntity
  8
0-7_金物
  6
Continuous
 62
     7
370
     9
100
AcDbLine
 10
-3434.745515378168
 20
-321.9076512330267
 30
0.0
 11
-3435.945515370263
 21
-320.7076512409319
 31
0.0
  0
LINE
  5
338
330
1F
100
AcDbEntity
  8
0-7_金物
  6
Continuous
 62
     7
370
     9
100
AcDbLine
 10
-3435.945515370263
 20
-353.1076510274957
 30
0.0
 11
-3434.745515378168
 21
-351.9076510354009
 31
0.0
  0
LINE
  5
339
330
1F
100
AcDbEntity
  8
0-7_金物
  6
Continuous
 62
     7
370
     9
100
AcDbLine
 10
-3432.945515390025
 20
-312.907651292318
 30
0.0
 11
-3434.745515378168
 21
-312.907651292318
 31
0.0
  0
LINE
  5
33A
330
1F
100
AcDbEntity
  8
0-7_金物
  6
Continuous
 62
     7
370
     9
100
AcDbLine
 10
-3432.945515390025
 20
-360.9076509761113
 30
0.0
 11
-3434.745515378168
 21
-360.9076509761113
 31
0.0
  0
LINE
  5
33B
330
1F
100
AcDbEntity
  8
0-7_金物
  6
Continuous
 62
     7
370
     9
100
AcDbLine
 10
-3432.945515390025
 20
-336.9076511342146
 30
0.0
 11
-3432.945515390025
 21
-384.9076508180113
 31
0.0
  0
LINE
  5
33C
330
1F
100
AcDbEntity
  8
0-7_金物
  6
Continuous
 62
     7
370
     9
100
AcDbLine
 10
-3448.54551528726
 20
-396.9076507389596
 30
0.0
 11
-3448.54551528726
 21
-398.707650727101
 31
0.0
  0
LINE
  5
33D
330
1F
100
AcDbEntity
  8
0-7_金物
  6
Continuous
 62
     7
370
     9
100
AcDbLine
 10
-3445.545515307022
 20
-303.9076513516025
 30
0.0
 11
-3466.545515168684
 21
-303.9076513516025
 31
0.0
  0
ARC
  5
33E
330
1F
100
AcDbEntity
  8
0-7_金物
  6
Continuous
 62
     7
370
     9
100
AcDbCircle
 10
-3436.545515366308
 20
-363.9076509563509
 30
0.0
 40
2.999999980237253
100
AcDbArc
 50
90.0
 51
180.0
  0
ARC
  5
33F
330
1F
100
AcDbEntity
  8
0-7_金物
  6
Continuous
 62
     7
370
     9
100
AcDbCircle
 10
-3436.545515366308
 20
-309.9076513120801
 30
0.0
 40
2.999999980237253
100
AcDbArc
 50
180.0
 51
270.0
  0
LINE
  5
340
330
1F
100
AcDbEntity
  8
0-7_金物
  6
Continuous
 62
     7
370
     9
100
AcDbLine
 10
-3396.945515627177
 20
-384.9076508180113
 30
0.0
 11
-3396.945515627177
 21
-288.907651450418
 31
0.0
  0
LINE
  5
341
330
1F
100
AcDbEntity
  8
0-7_金物
  6
Continuous
 62
     7
370
     9
100
AcDbLine
 10
-3436.545515366308
 20
-312.907651292318
 30
0.0
 11
-3435.945515370263
 21
-312.907651292318
 31
0.0
  0
LINE
  5
342
330
1F
100
AcDbEntity
  8
0-7_金物
  6
Continuous
 62
     7
370
     9
100
AcDbLine
 10
-3436.545515366308
 20
-360.9076509761113
 30
0.0
 11
-3435.945515370263
 21
-360.9076509761113
 31
0.0
  0
LINE
  5
343
330
1F
100
AcDbEntity
  8
0-7_金物
  6
Continuous
 62
     7
370
     9
100
AcDbLine
 10
-3439.54551534655
 20
-372.907650897063
 30
0.0
 11
-3439.54551534655
 21
-363.9076509563509
 31
0.0
  0
LINE
  5
344
330
1F
100
AcDbEntity
  8
0-7_金物
  6
Continuous
 62
     7
370
     9
100
AcDbLine
 10
-3445.545515307022
 20
-378.9076508575354
 30
0.0
 11
-3466.545515168684
 21
-378.9076508575354
 31
0.0
  0
ARC
  5
345
330
1F
100
AcDbEntity
  8
0-7_金物
  6
Continuous
 62
     7
370
     9
100
AcDbCircle
 10
-3445.545515307022
 20
-372.907650897063
 30
0.0
 40
5.999999960474506
100
AcDbArc
 50
270.0
 51
0.0
  0
ARC
  5
346
330
1F
100
AcDbEntity
  8
0-7_金物
  6
Continuous
 62
     7
370
     9
100
AcDbCircle
 10
-3445.545515307022
 20
-309.9076513120801
 30
0.0
 40
5.999999960474506
100
AcDbArc
 50
0.0
 51
90.0
  0
LINE
  5
347
330
1F
100
AcDbEntity
  8
0-7_金物
  6
Continuous
 62
     7
370
     9
100
AcDbLine
 10
-3435.945515370263
 20
-312.907651292318
 30
0.0
 11
-3435.945515370263
 21
-336.9076511342146
 31
0.0
  0
LINE
  5
348
330
1F
100
AcDbEntity
  8
0-7_金物
  6
Continuous
 62
     7
370
     9
100
AcDbLine
 10
-3435.945515370263
 20
-360.9076509761113
 30
0.0
 11
-3435.945515370263
 21
-336.9076511342146
 31
0.0
  0
LINE
  5
349
330
1F
100
AcDbEntity
  8
0-7_金物
  6
Continuous
 62
     7
370
     9
100
AcDbLine
 10
-3490.54551501058
 20
-404.7076506875752
 30
0.0
 11
-3442.545515326786
 21
-404.7076506875752
 31
0.0
  0
LINE
  5
34A
330
1F
100
AcDbEntity
  8
0-7_金物
  6
Continuous
 62
     7
370
     9
100
AcDbLine
 10
-3442.545515326786
 20
-398.707650727101
 30
0.0
 11
-3442.545515326786
 21
-404.7076506875752
 31
0.0
  0
LINE
  5
34B
330
1F
100
AcDbEntity
  8
0-7_金物
  6
Continuous
 62
     7
370
     9
100
AcDbLine
 10
-3442.545515326786
 20
-398.707650727101
 30
0.0
 11
-3490.54551501058
 21
-398.707650727101
 31
0.0
  0
LINE
  5
34C
330
1F
100
AcDbEntity
  8
0-7_金物
  6
Continuous
 62
     7
370
     9
100
AcDbLine
 10
-3490.54551501058
 20
-398.707650727101
 30
0.0
 11
-3490.54551501058
 21
-404.7076506875752
 31
0.0
  0
LINE
  5
34D
330
1F
100
AcDbEntity
  8
0-7_金物
  6
Continuous
 62
     7
370
     9
100
AcDbLine
 10
-3513.684841081043
 20
-435.9076510156385
 30
0.0
 11
-3418.884841705544
 21
-435.9076510156385
 31
0.0
  0
ARC
  5
34E
330
1F
100
AcDbEntity
  8
0-7_金物
  6
Continuous
 62
     7
370
     9
100
AcDbCircle
 10
-3466.540639684655
 20
-495.9076506203851
 30
0.0
 40
38.39999974703684
100
AcDbArc
 50
341.7900431357177
 51
12.17573410274985
  0
ARC
  5
34F
330
1F
100
AcDbEntity
  8
0-7_金物
  6
Continuous
 62
     7
370
     9
100
AcDbCircle
 10
-3466.540639684655
 20
-495.9076506203851
 30
0.0
 40
38.39999974703684
100
AcDbArc
 50
167.8242658972536
 51
198.2099568642824
  0
ARC
  5
350
330
1F
100
AcDbEntity
  8
0-7_金物
  6
Continuous
 62
     7
370
     9
100
AcDbCircle
 10
-3466.540639684655
 20
-579.9076500670267
 30
0.0
 40
38.39999974703684
100
AcDbArc
 50
167.8242658972536
 51
198.2099568642824
  0
ARC
  5
351
330
1F
100
AcDbEntity
  8
0-7_金物
  6
Continuous
 62
     7
370
     9
100
AcDbCircle
 10
-3466.540639684655
 20
-579.9076500670267
 30
0.0
 40
38.39999974703684
100
AcDbArc
 50
341.7900431357177
 51
12.17573410274985
  0
ARC
  5
352
330
1F
100
AcDbEntity
  8
0-7_金物
  6
Continuous
 62
     7
370
     9
100
AcDbCircle
 10
-3466.540639684655
 20
-646.5076496282941
 30
0.0
 40
47.3999996877486
100
AcDbArc
 50
180.0
 51
0.0
  0
LINE
  5
353
330
1F
100
AcDbEntity
  8
0-7_金物
  6
Continuous
 62
     7
370
     9
100
AcDbLine
 10
-3419.140639996905
 20
-435.9076510156385
 30
0.0
 11
-3419.140639996905
 21
-645.307649636201
 31
0.0
  0
LINE
  5
354
330
1F
100
AcDbEntity
  8
0-7_金物
  6
Continuous
 62
     7
370
     9
100
AcDbLine
 10
-3513.940639372401
 20
-435.9076510156385
 30
0.0
 11
-3513.940639372401
 21
-645.307649636201
 31
0.0
  0
LINE
  5
355
330
1F
100
AcDbEntity
  8
0-7_金物
  6
Continuous
 62
     7
370
     9
100
AcDbLine
 10
-3428.140639937616
 20
-495.9076506203851
 30
0.0
 11
-3421.540639981094
 21
-495.9076506203851
 31
0.0
  0
LINE
  5
356
330
1F
100
AcDbEntity
  8
0-7_金物
  6
Continuous
 62
     7
370
     9
100
AcDbLine
 10
-3501.940639451455
 20
-450.9076509168247
 30
0.0
 11
-3431.140639917853
 21
-450.9076509168247
 31
0.0
  0
CIRCLE
  5
357
330
1F
100
AcDbEntity
  8
0-7_金物
  6
Continuous
 62
     7
370
     9
100
AcDbCircle
 10
-3466.540639684655
 20
-579.9076500670267
 30
0.0
 40
29.99999980237253
  0
LINE
  5
358
330
1F
100
AcDbEntity
  8
0-7_金物
  6
Continuous
 62
     7
370
     9
100
AcDbLine
 10
-3507.940639411927
 20
-435.9076510156385
 30
0.0
 11
-3507.940639411927
 21
-444.9076509563523
 31
0.0
  0
LINE
  5
359
330
1F
100
AcDbEntity
  8
0-7_金物
  6
Continuous
 62
     7
370
     9
100
AcDbLine
 10
-3425.14063995738
 20
-435.9076510156385
 30
0.0
 11
-3425.14063995738
 21
-444.9076509563523
 31
0.0
  0
ARC
  5
35A
330
1F
100
AcDbEntity
  8
0-7_金物
  6
Continuous
 62
     7
370
     9
100
AcDbCircle
 10
-3501.940639451455
 20
-444.9076509563523
 30
0.0
 40
5.999999960474506
100
AcDbArc
 50
180.0
 51
270.0
  0
ARC
  5
35B
330
1F
100
AcDbEntity
  8
0-7_金物
  6
Continuous
 62
     7
370
     9
100
AcDbCircle
 10
-3431.140639917853
 20
-444.9076509563523
 30
0.0
 40
5.999999960474506
100
AcDbArc
 50
270.0
 51
0.0
  0
LINE
  5
35C
330
1F
100
AcDbEntity
  8
0-7_金物
  6
Continuous
 62
     7
370
     9
100
AcDbLine
 10
-3492.940639510741
 20
-615.907649829875
 30
0.0
 11
-3440.140639858567
 21
-615.907649829875
 31
0.0
  0
LINE
  5
35D
330
1F
100
AcDbEntity
  8
0-7_金物
  6
Continuous
 62
     7
370
     9
100
AcDbLine
 10
-3507.940639411927
 20
-645.307649636201
 30
0.0
 11
-3507.940639411927
 21
-630.9076497310596
 31
0.0
  0
LINE
  5
35E
330
1F
100
AcDbEntity
  8
0-7_金物
  6
Continuous
 62
     7
370
     9
100
AcDbLine
 10
-3425.14063995738
 20
-645.307649636201
 30
0.0
 11
-3425.14063995738
 21
-630.9076497310596
 31
0.0
  0
LINE
  5
35F
330
1F
100
AcDbEntity
  8
0-7_金物
  6
Continuous
 62
     7
370
     9
100
AcDbLine
 10
-3487.540639546315
 20
-680.9862143947296
 30
0.0
 11
-3487.540639546315
 21
-636.9076496915354
 31
0.0
  0
LINE
  5
360
330
1F
100
AcDbEntity
  8
0-7_金物
  6
Continuous
 62
     7
370
     9
100
AcDbLine
 10
-3445.540639822991
 20
-680.9862143947296
 30
0.0
 11
-3445.540639822991
 21
-636.9076496915354
 31
0.0
  0
ARC
  5
361
330
1F
100
AcDbEntity
  8
0-7_金物
  6
Continuous
 62
     7
370
     9
100
AcDbCircle
 10
-3440.140639858567
 20
-621.9076497903475
 30
0.0
 40
5.999999960474506
100
AcDbArc
 50
0.0
 51
90.0
  0
ARC
  5
362
330
1F
100
AcDbEntity
  8
0-7_金物
  6
Continuous
 62
     7
370
     9
100
AcDbCircle
 10
-3428.140639937616
 20
-621.9076497903475
 30
0.0
 40
5.999999960474506
100
AcDbArc
 50
180.0
 51
270.0
  0
ARC
  5
363
330
1F
100
AcDbEntity
  8
0-7_金物
  6
Continuous
 62
     7
370
     9
100
AcDbCircle
 10
-3428.140639937616
 20
-630.9076497310596
 30
0.0
 40
2.999999980237253
100
AcDbArc
 50
0.0
 51
90.0
  0
ARC
  5
364
330
1F
100
AcDbEntity
  8
0-7_金物
  6
Continuous
 62
     7
370
     9
100
AcDbCircle
 10
-3492.940639510741
 20
-621.9076497903475
 30
0.0
 40
5.999999960474506
100
AcDbArc
 50
90.0
 51
180.0
  0
ARC
  5
365
330
1F
100
AcDbEntity
  8
0-7_金物
  6
Continuous
 62
     7
370
     9
100
AcDbCircle
 10
-3504.940639431691
 20
-630.9076497310596
 30
0.0
 40
2.999999980237253
100
AcDbArc
 50
90.0
 51
180.0
  0
ARC
  5
366
330
1F
100
AcDbEntity
  8
0-7_金物
  6
Continuous
 62
     7
370
     9
100
AcDbCircle
 10
-3504.940639431691
 20
-621.9076497903475
 30
0.0
 40
5.999999960474506
100
AcDbArc
 50
270.0
 51
0.0
  0
LINE
  5
367
330
1F
100
AcDbEntity
  8
0-7_金物
  6
Continuous
 62
     7
370
     9
100
AcDbLine
 10
-3487.540639546315
 20
-636.9076496915354
 30
0.0
 11
-3445.540639822991
 21
-636.9076496915354
 31
0.0
  0
LINE
  5
368
330
1F
100
AcDbEntity
  8
0-7_金物
  6
Continuous
 62
     7
370
     9
100
AcDbLine
 10
-3487.540639546315
 20
-657.9076495531958
 30
0.0
 11
-3445.540639822991
 21
-657.9076495531958
 31
0.0
  0
LINE
  5
369
330
1F
100
AcDbEntity
  8
0-7_金物
  6
Continuous
 62
     7
370
     9
100
AcDbLine
 10
-3504.940639431691
 20
-627.9076497508233
 30
0.0
 11
-3428.140639937616
 21
-627.9076497508233
 31
0.0
  0
LINE
  5
36A
330
1F
100
AcDbEntity
  8
0-7_金物
  6
Continuous
 62
     7
370
     9
100
AcDbLine
 10
-3484.709844280632
 20
-682.5076493911424
 30
0.0
 11
-3448.37143508867
 21
-682.5076493911424
 31
0.0
  0
LINE
  5
36B
330
1F
100
AcDbEntity
  8
0-7_金物
  6
Continuous
 62
     7
370
     9
100
AcDbLine
 10
-3437.140639878331
 20
-522.9076504425179
 30
0.0
 11
-3425.14063995738
 21
-522.9076504425179
 31
0.0
  0
LINE
  5
36C
330
1F
100
AcDbEntity
  8
0-7_金物
  6
Continuous
 62
     7
370
     9
100
AcDbLine
 10
-3437.140639878331
 20
-537.9076503437059
 30
0.0
 11
-3425.14063995738
 21
-537.9076503437059
 31
0.0
  0
LINE
  5
36D
330
1F
100
AcDbEntity
  8
0-7_金物
  6
Continuous
 62
     7
370
     9
100
AcDbLine
 10
-3425.14063995738
 20
-522.9076504425179
 30
0.0
 11
-3425.14063995738
 21
-537.9076503437059
 31
0.0
  0
LINE
  5
36E
330
1F
100
AcDbEntity
  8
0-7_金物
  6
Continuous
 62
     7
370
     9
100
AcDbLine
 10
-3443.140639838803
 20
-528.9076504029938
 30
0.0
 11
-3443.140639838803
 21
-531.9076503832334
 31
0.0
  0
ARC
  5
36F
330
1F
100
AcDbEntity
  8
0-7_金物
  6
Continuous
 62
     7
370
     9
100
AcDbCircle
 10
-3437.140639878331
 20
-528.9076504029938
 30
0.0
 40
5.999999960474506
100
AcDbArc
 50
90.0
 51
180.0
  0
ARC
  5
370
330
1F
100
AcDbEntity
  8
0-7_金物
  6
Continuous
 62
     7
370
     9
100
AcDbCircle
 10
-3437.140639878331
 20
-531.9076503832334
 30
0.0
 40
5.999999960474506
100
AcDbArc
 50
180.0
 51
270.0
  0
LINE
  5
371
330
1F
100
AcDbEntity
  8
0-7_金物
  6
Continuous
 62
     7
370
     9
100
AcDbLine
 10
-3495.940639490977
 20
-522.9076504425179
 30
0.0
 11
-3507.940639411927
 21
-522.9076504425179
 31
0.0
  0
LINE
  5
372
330
1F
100
AcDbEntity
  8
0-7_金物
  6
Continuous
 62
     7
370
     9
100
AcDbLine
 10
-3495.940639490977
 20
-537.9076503437059
 30
0.0
 11
-3507.940639411927
 21
-537.9076503437059
 31
0.0
  0
ARC
  5
373
330
1F
100
AcDbEntity
  8
0-7_金物
  6
Continuous
 62
     7
370
     9
100
AcDbCircle
 10
-3495.940639490977
 20
-528.9076504029938
 30
0.0
 40
5.999999960474506
100
AcDbArc
 50
0.0
 51
90.0
  0
ARC
  5
374
330
1F
100
AcDbEntity
  8
0-7_金物
  6
Continuous
 62
     7
370
     9
100
AcDbCircle
 10
-3495.940639490977
 20
-531.9076503832334
 30
0.0
 40
5.999999960474506
100
AcDbArc
 50
270.0
 51
0.0
  0
LINE
  5
375
330
1F
100
AcDbEntity
  8
0-7_金物
  6
Continuous
 62
     7
370
     9
100
AcDbLine
 10
-3507.940639411927
 20
-522.9076504425179
 30
0.0
 11
-3507.940639411927
 21
-537.9076503437059
 31
0.0
  0
LINE
  5
376
330
1F
100
AcDbEntity
  8
0-7_金物
  6
Continuous
 62
     7
370
     9
100
AcDbLine
 10
-3489.940639530505
 20
-528.9076504029938
 30
0.0
 11
-3489.940639530505
 21
-531.9076503832334
 31
0.0
  0
LINE
  5
377
330
1F
100
AcDbEntity
  8
0-7_金物
  6
Continuous
 62
     7
370
     9
100
AcDbLine
 10
-3432.599514411288
 20
-483.9076506994368
 30
0.0
 11
-3421.540639981094
 21
-495.9076506203851
 31
0.0
  0
LINE
  5
378
330
1F
100
AcDbEntity
  8
0-7_金物
  6
Continuous
 62
     7
370
     9
100
AcDbLine
 10
-3500.481764958015
 20
-483.9076506994368
 30
0.0
 11
-3511.540639388214
 21
-495.9076506203851
 31
0.0
  0
LINE
  5
379
330
1F
100
AcDbEntity
  8
0-7_金物
  6
Continuous
 62
     7
370
     9
100
AcDbLine
 10
-3504.940639431691
 20
-495.9076506203851
 30
0.0
 11
-3511.540639388214
 21
-495.9076506203851
 31
0.0
  0
LINE
  5
37A
330
1F
100
AcDbEntity
  8
0-7_金物
  6
Continuous
 62
     7
370
     9
100
AcDbLine
 10
-3500.481764958015
 20
-567.9076501460784
 30
0.0
 11
-3511.540639388214
 21
-579.9076500670267
 31
0.0
  0
LINE
  5
37B
330
1F
100
AcDbEntity
  8
0-7_金物
  6
Continuous
 62
     7
370
     9
100
AcDbLine
 10
-3504.940639431691
 20
-579.9076500670267
 30
0.0
 11
-3511.540639388214
 21
-579.9076500670267
 31
0.0
  0
LINE
  5
37C
330
1F
100
AcDbEntity
  8
0-7_金物
  6
Continuous
 62
     7
370
     9
100
AcDbLine
 10
-3428.140639937616
 20
-579.9076500670267
 30
0.0
 11
-3421.540639981094
 21
-579.9076500670267
 31
0.0
  0
LINE
  5
37D
330
1F
100
AcDbEntity
  8
0-7_金物
  6
Continuous
 62
     7
370
     9
100
AcDbLine
 10
-3432.599514411288
 20
-567.9076501460784
 30
0.0
 11
-3421.540639981094
 21
-579.9076500670267
 31
0.0
  0
LINE
  5
37E
330
1F
100
AcDbEntity
  8
0-7_金物
  6
Continuous
 62
     7
370
     9
100
AcDbLine
 10
-3463.624457410311
 20
-481.2076507172222
 30
0.0
 11
-3469.456821958997
 21
-481.2076507172222
 31
0.0
  0
LINE
  5
37F
330
1F
100
AcDbEntity
  8
0-7_金物
  6
Continuous
 62
     7
370
     9
100
AcDbLine
 10
-3469.658980569142
 20
-492.7893097358938
 30
0.0
 11
-3469.456821958997
 21
-481.2076507172222
 31
0.0
  0
LINE
  5
380
330
1F
100
AcDbEntity
  8
0-7_金物
  6
Continuous
 62
     7
370
     9
100
AcDbLine
 10
-3463.422298800165
 20
-492.7893097358938
 30
0.0
 11
-3463.624457410311
 21
-481.2076507172222
 31
0.0
  0
LINE
  5
381
330
1F
100
AcDbEntity
  8
0-7_金物
  6
Continuous
 62
     7
370
     9
100
AcDbLine
 10
-3451.840639781492
 20
-498.8238328947276
 30
0.0
 11
-3451.840639781492
 21
-492.9914683460427
 31
0.0
  0
LINE
  5
382
330
1F
100
AcDbEntity
  8
0-7_金物
  6
Continuous
 62
     7
370
     9
100
AcDbLine
 10
-3463.422298800165
 20
-492.7893097358938
 30
0.0
 11
-3451.840639781492
 21
-492.9914683460427
 31
0.0
  0
LINE
  5
383
330
1F
100
AcDbEntity
  8
0-7_金物
  6
Continuous
 62
     7
370
     9
100
AcDbLine
 10
-3463.422298800165
 20
-499.0259915048748
 30
0.0
 11
-3451.840639781492
 21
-498.8238328947276
 31
0.0
  0
LINE
  5
384
330
1F
100
AcDbEntity
  8
0-7_金物
  6
Continuous
 62
     7
370
     9
100
AcDbLine
 10
-3469.456821958997
 20
-510.6076505235481
 30
0.0
 11
-3463.624457410311
 21
-510.6076505235481
 31
0.0
  0
LINE
  5
385
330
1F
100
AcDbEntity
  8
0-7_金物
  6
Continuous
 62
     7
370
     9
100
AcDbLine
 10
-3463.422298800165
 20
-499.0259915048748
 30
0.0
 11
-3463.624457410311
 21
-510.6076505235481
 31
0.0
  0
LINE
  5
386
330
1F
100
AcDbEntity
  8
0-7_金物
  6
Continuous
 62
     7
370
     9
100
AcDbLine
 10
-3469.658980569142
 20
-499.0259915048748
 30
0.0
 11
-3469.456821958997
 21
-510.6076505235481
 31
0.0
  0
LINE
  5
387
330
1F
100
AcDbEntity
  8
0-7_金物
  6
Continuous
 62
     7
370
     9
100
AcDbLine
 10
-3481.240639587816
 20
-492.9914683460427
 30
0.0
 11
-3481.240639587816
 21
-498.8238328947276
 31
0.0
  0
LINE
  5
388
330
1F
100
AcDbEntity
  8
0-7_金物
  6
Continuous
 62
     7
370
     9
100
AcDbLine
 10
-3469.658980569142
 20
-499.0259915048748
 30
0.0
 11
-3481.240639587816
 21
-498.8238328947276
 31
0.0
  0
LINE
  5
389
330
1F
100
AcDbEntity
  8
0-7_金物
  6
Continuous
 62
     7
370
     9
100
AcDbLine
 10
-3469.658980569142
 20
-492.7893097358938
 30
0.0
 11
-3481.240639587816
 21
-492.9914683460427
 31
0.0
  0
LINE
  5
38A
330
1F
100
AcDbEntity
  8
0-7_金物
  6
Continuous
 62
     7
370
     9
100
AcDbLine
 10
-3463.624457410311
 20
-565.2076501638637
 30
0.0
 11
-3469.456821958997
 21
-565.2076501638637
 31
0.0
  0
LINE
  5
38B
330
1F
100
AcDbEntity
  8
0-7_金物
  6
Continuous
 62
     7
370
     9
100
AcDbLine
 10
-3469.658980569142
 20
-576.7893091825354
 30
0.0
 11
-3469.456821958997
 21
-565.2076501638637
 31
0.0
  0
LINE
  5
38C
330
1F
100
AcDbEntity
  8
0-7_金物
  6
Continuous
 62
     7
370
     9
100
AcDbLine
 10
-3463.422298800165
 20
-576.7893091825354
 30
0.0
 11
-3463.624457410311
 21
-565.2076501638637
 31
0.0
  0
LINE
  5
38D
330
1F
100
AcDbEntity
  8
0-7_金物
  6
Continuous
 62
     7
370
     9
100
AcDbLine
 10
-3451.840639781492
 20
-582.8238323413725
 30
0.0
 11
-3451.840639781492
 21
-576.9914677926843
 31
0.0
  0
LINE
  5
38E
330
1F
100
AcDbEntity
  8
0-7_金物
  6
Continuous
 62
     7
370
     9
100
AcDbLine
 10
-3463.422298800165
 20
-576.7893091825354
 30
0.0
 11
-3451.840639781492
 21
-576.9914677926843
 31
0.0
  0
LINE
  5
38F
330
1F
100
AcDbEntity
  8
0-7_金物
  6
Continuous
 62
     7
370
     9
100
AcDbLine
 10
-3463.422298800165
 20
-583.025990951518
 30
0.0
 11
-3451.840639781492
 21
-582.8238323413725
 31
0.0
  0
LINE
  5
390
330
1F
100
AcDbEntity
  8
0-7_金物
  6
Continuous
 62
     7
370
     9
100
AcDbLine
 10
-3469.456821958997
 20
-594.6076499701896
 30
0.0
 11
-3463.624457410311
 21
-594.6076499701896
 31
0.0
  0
LINE
  5
391
330
1F
100
AcDbEntity
  8
0-7_金物
  6
Continuous
 62
     7
370
     9
100
AcDbLine
 10
-3463.422298800165
 20
-583.025990951518
 30
0.0
 11
-3463.624457410311
 21
-594.6076499701896
 31
0.0
  0
LINE
  5
392
330
1F
100
AcDbEntity
  8
0-7_金物
  6
Continuous
 62
     7
370
     9
100
AcDbLine
 10
-3469.658980569142
 20
-583.025990951518
 30
0.0
 11
-3469.456821958997
 21
-594.6076499701896
 31
0.0
  0
LINE
  5
393
330
1F
100
AcDbEntity
  8
0-7_金物
  6
Continuous
 62
     7
370
     9
100
AcDbLine
 10
-3481.240639587816
 20
-576.9914677926843
 30
0.0
 11
-3481.240639587816
 21
-582.8238323413725
 31
0.0
  0
LINE
  5
394
330
1F
100
AcDbEntity
  8
0-7_金物
  6
Continuous
 62
     7
370
     9
100
AcDbLine
 10
-3469.658980569142
 20
-583.025990951518
 30
0.0
 11
-3481.240639587816
 21
-582.8238323413725
 31
0.0
  0
LINE
  5
395
330
1F
100
AcDbEntity
  8
0-7_金物
  6
Continuous
 62
     7
370
     9
100
AcDbLine
 10
-3469.658980569142
 20
-576.7893091825354
 30
0.0
 11
-3481.240639587816
 21
-576.9914677926843
 31
0.0
  0
ARC
  5
396
330
1F
100
AcDbEntity
  8
0-7_金物
  6
Continuous
 62
     7
370
     9
100
AcDbCircle
 10
-3466.540639684655
 20
-645.307649636201
 30
0.0
 40
41.39999972727429
100
AcDbArc
 50
180.0
 51
0.0
  0
CIRCLE
  5
397
330
1F
100
AcDbEntity
  8
0-7_金物
  6
Continuous
 62
     7
370
     9
100
AcDbCircle
 10
-3466.540639684655
 20
-495.9076506203851
 30
0.0
 40
29.99999980237253
  0
LINE
  5
398
330
1F
100
AcDbEntity
  8
0-0_補助線
  6
JWW_HOJO
 62
   120
370
     5
100
AcDbLine
 10
-4330.545515168689
 20
-2994.907444743116
 30
0.0
 11
-2041.545515168687
 21
-2994.907444743116
 31
0.0
  0
LINE
  5
399
330
1F
100
AcDbEntity
  8
0-0_補助線
  6
JWW_HOJO
 62
   120
370
     5
100
AcDbLine
 10
-4330.545515168689
 20
194.9998020481414
 30
0.0
 11
-2041.545515168687
 21
194.9998020481414
 31
0.0
  0
LINE
  5
39A
330
1F
100
AcDbEntity
  8
0-0_補助線
  6
JWW_HOJO
 62
   120
370
     5
100
AcDbLine
 10
-2041.545515168687
 20
194.9998020481414
 30
0.0
 11
-2041.545515168687
 21
-2994.907444743116
 31
0.0
  0
LINE
  5
39B
330
1F
100
AcDbEntity
  8
0-0_補助線
  6
JWW_HOJO
 62
   120
370
     5
100
AcDbLine
 10
-2251.545515168687
 20
194.9998020481414
 30
0.0
 11
-2251.545515168687
 21
-2994.907444743116
 31
0.0
  0
LINE
  5
39C
330
1F
100
AcDbEntity
  8
0-0_補助線
  6
JWW_HOJO
 62
   120
370
     5
100
AcDbLine
 10
-2461.545515168687
 20
194.9998020481414
 30
0.0
 11
-2461.545515168687
 21
-2994.907444743116
 31
0.0
  0
LINE
  5
39D
330
1F
100
AcDbEntity
  8
0-0_補助線
  6
JWW_HOJO
 62
   120
370
     5
100
AcDbLine
 10
-2671.545515168687
 20
194.9998020481414
 30
0.0
 11
-2671.545515168687
 21
-2994.907444743116
 31
0.0
  0
LINE
  5
39E
330
1F
100
AcDbEntity
  8
0-B_寸法
  6
Continuous
 62
   120
370
     5
100
AcDbLine
 10
-2041.545515168687
 20
-2922.90765101564
 30
0.0
 11
-2881.545515168687
 21
-2922.90765101564
 31
0.0
  0
LWPOLYLINE
  5
39F
330
1F
100
AcDbEntity
  8
0-B_寸法
  6
Continuous
 62
     7
370
     9
100
AcDbPolyline
 90
        4
 70
     1
 43
3.0
 10
-2040.045515168687
 20
-2994.907444743116
 42
0.4142135623731
 10
-2041.545515168687
 20
-2993.407444743116
 42
0.4142135623731
 10
-2043.045515168687
 20
-2994.907444743116
 42
0.4142135623731
 10
-2041.545515168687
 20
-2996.407444743116
 42
0.4142135623731
  0
LWPOLYLINE
  5
3A0
330
1F
100
AcDbEntity
  8
0-B_寸法
  6
Continuous
 62
     7
370
     9
100
AcDbPolyline
 90
        4
 70
     1
 43
3.0
 10
-2040.045515168687
 20
-2922.907857009292
 42
0.4142135623731
 10
-2041.545515168687
 20
-2921.407857009292
 42
0.4142135623731
 10
-2043.045515168687
 20
-2922.907857009292
 42
0.4142135623731
 10
-2041.545515168687
 20
-2924.407857009292
 42
0.4142135623731
  0
LINE
  5
3A1
330
1F
100
AcDbEntity
  8
0-B_寸法
  6
Continuous
 62
   120
370
     5
100
AcDbLine
 10
-2041.545515168687
 20
-174.9076510156388
 30
0.0
 11
-2881.545515168687
 21
-174.9076510156388
 31
0.0
  0
LINE
  5
3A2
330
1F
100
AcDbEntity
  8
0-B_寸法
  6
Continuous
 62
   120
370
     5
100
AcDbLine
 10
-2041.545515168687
 20
-2994.907444743116
 30
0.0
 11
-2881.545515168687
 21
-2994.907444743116
 31
0.0
  0
LWPOLYLINE
  5
3A3
330
1F
100
AcDbEntity
  8
0-B_寸法
  6
Continuous
 62
     7
370
     9
100
AcDbPolyline
 90
        4
 70
     1
 43
3.0
 10
-2040.045515168687
 20
-174.9076510156388
 42
0.4142135623731
 10
-2041.545515168687
 20
-173.4076510156388
 42
0.4142135623731
 10
-2043.045515168687
 20
-174.9076510156388
 42
0.4142135623731
 10
-2041.545515168687
 20
-176.4076510156388
 42
0.4142135623731
  0
LINE
  5
3A4
330
1F
100
AcDbEntity
  8
0-B_寸法
  6
Continuous
 62
   120
370
     5
100
AcDbLine
 10
-2041.545515168687
 20
-2994.907444743116
 30
0.0
 11
-2041.545515168687
 21
-174.9076510156388
 31
0.0
  0
LWPOLYLINE
  5
3A5
330
1F
100
AcDbEntity
  8
0-B_寸法
  6
Continuous
 62
     7
370
     9
100
AcDbPolyline
 90
        4
 70
     1
 43
3.0
 10
-2250.045515168687
 20
-2922.90765101564
 42
0.4142135623731
 10
-2251.545515168687
 20
-2921.40765101564
 42
0.4142135623731
 10
-2253.045515168687
 20
-2922.90765101564
 42
0.4142135623731
 10
-2251.545515168687
 20
-2924.407651015639
 42
0.4142135623731
  0
LINE
  5
3A6
330
1F
100
AcDbEntity
  8
0-B_寸法
  6
Continuous
 62
   120
370
     5
100
AcDbLine
 10
-2251.545515168687
 20
-174.9076510156388
 30
0.0
 11
-2251.545515168687
 21
-2922.907857009292
 31
0.0
  0
LINE
  5
3A7
330
1F
100
AcDbEntity
  8
0-0_補助線
  6
JWW_HOJO
 62
   120
370
     5
100
AcDbLine
 10
-2881.545515168687
 20
194.9998020481414
 30
0.0
 11
-2881.545515168687
 21
-2994.907444743116
 31
0.0
  0
LINE
  5
3A8
330
1F
100
AcDbEntity
  8
0-6_扉
  6
Continuous
 62
   200
370
    20
100
AcDbLine
 10
-3376.545515168696
 20
-435.9076510156385
 30
0.0
 11
-3556.545515168696
 21
-435.9076510156385
 31
0.0
  0
LINE
  5
3A9
330
1F
100
AcDbEntity
  8
0-6_扉
  6
Continuous
 62
   200
370
    20
100
AcDbLine
 10
-3376.545515168696
 20
-435.9076510156385
 30
0.0
 11
-3376.545515168696
 21
-1608.907548018813
 31
0.0
  0
LINE
  5
3AA
330
1F
100
AcDbEntity
  8
0-B_寸法
  6
Continuous
 62
   120
370
     5
100
AcDbLine
 10
-2671.545515168687
 20
-398.1076507310561
 30
0.0
 11
-2881.545515168687
 21
-398.1076507310561
 31
0.0
  0
LINE
  5
3AB
330
1F
100
AcDbEntity
  8
0-B_寸法
  6
Continuous
 62
   120
370
     5
100
AcDbLine
 10
-2461.545515168687
 20
-435.9076510156402
 30
0.0
 11
-2881.545515168687
 21
-435.9076510156402
 31
0.0
  0
LWPOLYLINE
  5
3AC
330
1F
100
AcDbEntity
  8
0-B_寸法
  6
Continuous
 62
     7
370
     9
100
AcDbPolyline
 90
        4
 70
     1
 43
3.0
 10
-2670.045515168687
 20
-398.1076507310561
 42
0.4142135623731
 10
-2671.545515168687
 20
-396.6076507310561
 42
0.4142135623731
 10
-2673.045515168687
 20
-398.1076507310561
 42
0.4142135623731
 10
-2671.545515168687
 20
-399.6076507310561
 42
0.4142135623731
  0
LWPOLYLINE
  5
3AD
330
1F
100
AcDbEntity
  8
0-B_寸法
  6
Continuous
 62
     7
370
     9
100
AcDbPolyline
 90
        4
 70
     1
 43
3.0
 10
-2670.045515168687
 20
-435.9076510156402
 42
0.4142135623731
 10
-2671.545515168687
 20
-434.4076510156402
 42
0.4142135623731
 10
-2673.045515168687
 20
-435.9076510156402
 42
0.4142135623731
 10
-2671.545515168687
 20
-437.4076510156402
 42
0.4142135623731
  0
LINE
  5
3AE
330
1F
100
AcDbEntity
  8
0-B_寸法
  6
Continuous
 62
   120
370
     5
100
AcDbLine
 10
-2671.545515168687
 20
-435.9076510156402
 30
0.0
 11
-2671.545515168687
 21
-398.1076507310561
 31
0.0
  0
LINE
  5
3AF
330
1F
100
AcDbEntity
  8
0-B_寸法
  6
Continuous
 62
   120
370
     5
100
AcDbLine
 10
-2461.545515168687
 20
-354.9076510156388
 30
0.0
 11
-2461.545515168687
 21
-2922.907857009292
 31
0.0
  0
LWPOLYLINE
  5
3B0
330
1F
100
AcDbEntity
  8
0-B_寸法
  6
Continuous
 62
     7
370
     9
100
AcDbPolyline
 90
        4
 70
     1
 43
3.0
 10
-2460.045515168687
 20
-435.9076510156402
 42
0.4142135623731
 10
-2461.545515168687
 20
-434.4076510156402
 42
0.4142135623731
 10
-2463.045515168687
 20
-435.9076510156402
 42
0.4142135623731
 10
-2461.545515168687
 20
-437.4076510156402
 42
0.4142135623731
  0
LWPOLYLINE
  5
3B1
330
1F
100
AcDbEntity
  8
0-B_寸法
  6
Continuous
 62
     7
370
     9
100
AcDbPolyline
 90
        4
 70
     1
 43
3.0
 10
-2460.045515168687
 20
-354.9076510156388
 42
0.4142135623731
 10
-2461.545515168687
 20
-353.4076510156388
 42
0.4142135623731
 10
-2463.045515168687
 20
-354.9076510156388
 42
0.4142135623731
 10
-2461.545515168687
 20
-356.4076510156388
 42
0.4142135623731
  0
LWPOLYLINE
  5
3B2
330
1F
100
AcDbEntity
  8
0-B_寸法
  6
Continuous
 62
     7
370
     9
100
AcDbPolyline
 90
        4
 70
     1
 43
3.0
 10
-2250.045515168687
 20
-354.9076510156388
 42
0.4142135623731
 10
-2251.545515168687
 20
-353.4076510156388
 42
0.4142135623731
 10
-2253.045515168687
 20
-354.9076510156388
 42
0.4142135623731
 10
-2251.545515168687
 20
-356.4076510156388
 42
0.4142135623731
  0
LWPOLYLINE
  5
3B3
330
1F
100
AcDbEntity
  8
0-B_寸法
  6
Continuous
 62
     7
370
     9
100
AcDbPolyline
 90
        4
 70
     1
 43
3.0
 10
-2250.045515168687
 20
-174.9076510156388
 42
0.4142135623731
 10
-2251.545515168687
 20
-173.4076510156388
 42
0.4142135623731
 10
-2253.045515168687
 20
-174.9076510156388
 42
0.4142135623731
 10
-2251.545515168687
 20
-176.4076510156388
 42
0.4142135623731
  0
LINE
  5
3B4
330
1F
100
AcDbEntity
  8
0-B_寸法
  6
Continuous
 62
   120
370
     5
100
AcDbLine
 10
-2251.545515168687
 20
-354.9076510156388
 30
0.0
 11
-2881.545515168687
 21
-354.9076510156388
 31
0.0
  0
LWPOLYLINE
  5
3B5
330
1F
100
AcDbEntity
  8
0-B_寸法
  6
Continuous
 62
     7
370
     9
100
AcDbPolyline
 90
        4
 70
     1
 43
3.0
 10
-2250.045515168687
 20
-2922.907857009292
 42
0.4142135623731
 10
-2251.545515168687
 20
-2921.407857009292
 42
0.4142135623731
 10
-2253.045515168687
 20
-2922.907857009292
 42
0.4142135623731
 10
-2251.545515168687
 20
-2924.407857009292
 42
0.4142135623731
  0
LINE
  5
3B6
330
1F
100
AcDbEntity
  8
0-B_寸法
  6
Continuous
 62
   120
370
     5
100
AcDbLine
 10
-2461.545515168687
 20
-2871.907857009292
 30
0.0
 11
-2881.545515168687
 21
-2871.907857009292
 31
0.0
  0
LWPOLYLINE
  5
3B7
330
1F
100
AcDbEntity
  8
0-B_寸法
  6
Continuous
 62
     7
370
     9
100
AcDbPolyline
 90
        4
 70
     1
 43
3.0
 10
-2460.045515168687
 20
-2871.907857009292
 42
0.4142135623731
 10
-2461.545515168687
 20
-2870.407857009292
 42
0.4142135623731
 10
-2463.045515168687
 20
-2871.907857009292
 42
0.4142135623731
 10
-2461.545515168687
 20
-2873.407857009292
 42
0.4142135623731
  0
LWPOLYLINE
  5
3B8
330
1F
100
AcDbEntity
  8
0-B_寸法
  6
Continuous
 62
     7
370
     9
100
AcDbPolyline
 90
        4
 70
     1
 43
3.0
 10
-2460.045515168687
 20
-2922.907857009292
 42
0.4142135623731
 10
-2461.545515168687
 20
-2921.407857009292
 42
0.4142135623731
 10
-2463.045515168687
 20
-2922.907857009292
 42
0.4142135623731
 10
-2461.545515168687
 20
-2924.407857009292
 42
0.4142135623731
  0
LINE
  5
3B9
330
1F
100
AcDbEntity
  8
0-6_扉
  6
Continuous
 62
   200
370
    20
100
AcDbLine
 10
-3376.545515168696
 20
-1728.907548018813
 30
0.0
 11
-3376.545515168696
 21
-2871.907651015641
 31
0.0
  0
LINE
  5
3BA
330
1F
100
AcDbEntity
  8
0-6_扉
  6
Continuous
 62
   200
370
    20
100
AcDbLine
 10
-3556.545515168696
 20
-1728.907548018813
 30
0.0
 11
-3556.545515168696
 21
-2871.907651015641
 31
0.0
  0
LINE
  5
3BB
330
1F
100
AcDbEntity
  8
0-3_仕上げ
  6
Continuous
 62
    40
370
    15
100
AcDbLine
 10
-4330.545515168689
 20
-2922.90765101564
 30
0.0
 11
-2881.545515168687
 21
-2922.90765101564
 31
0.0
  0
LINE
  5
3BC
330
1F
100
AcDbEntity
  8
0-3_仕上げ
  6
Continuous
 62
    40
370
    15
100
AcDbLine
 10
-4330.545515168689
 20
-2994.90765101564
 30
0.0
 11
-2881.545515168687
 21
-2994.90765101564
 31
0.0
  0
LINE
  5
3BD
330
1F
100
AcDbEntity
  8
0-3_仕上げ
  6
Continuous
 62
     7
370
     9
100
AcDbLine
 10
-4330.545515168689
 20
-2985.907651015638
 30
0.0
 11
-2881.545515168687
 21
-2985.907651015638
 31
0.0
  0
LINE
  5
3BE
330
1F
100
AcDbEntity
  8
0-3_仕上げ
  6
Continuous
 62
     7
370
     9
100
AcDbLine
 10
-4330.545515168689
 20
-2976.907651015638
 30
0.0
 11
-2881.545515168687
 21
-2976.907651015638
 31
0.0
  0
LINE
  5
3BF
330
1F
100
AcDbEntity
  8
0-3_仕上げ
  6
Continuous
 62
     7
370
     9
100
AcDbLine
 10
-4330.545515168689
 20
-2967.90765101564
 30
0.0
 11
-2881.545515168687
 21
-2967.90765101564
 31
0.0
  0
LINE
  5
3C0
330
1F
100
AcDbEntity
  8
0-3_仕上げ
  6
Continuous
 62
     7
370
     9
100
AcDbLine
 10
-4330.545515168689
 20
-2958.907651015638
 30
0.0
 11
-2881.545515168687
 21
-2958.907651015638
 31
0.0
  0
LINE
  5
3C1
330
1F
100
AcDbEntity
  8
0-3_仕上げ
  6
Continuous
 62
     7
370
     9
100
AcDbLine
 10
-4330.545515168689
 20
-2949.907651015638
 30
0.0
 11
-2881.545515168687
 21
-2949.907651015638
 31
0.0
  0
LINE
  5
3C2
330
1F
100
AcDbEntity
  8
0-3_仕上げ
  6
Continuous
 62
     7
370
     9
100
AcDbLine
 10
-4330.545515168689
 20
-2940.907651015638
 30
0.0
 11
-2881.545515168687
 21
-2940.907651015638
 31
0.0
  0
LINE
  5
3C3
330
1F
100
AcDbEntity
  8
0-3_仕上げ
  6
Continuous
 62
     7
370
     9
100
AcDbLine
 10
-4330.545515168689
 20
-2931.907651015638
 30
0.0
 11
-2881.545515168687
 21
-2931.907651015638
 31
0.0
  0
LWPOLYLINE
  5
3C4
330
1F
100
AcDbEntity
  8
0-B_寸法
  6
Continuous
 62
     7
370
     9
100
AcDbPolyline
 90
        4
 70
     1
 43
3.0
 10
-3555.045515168696
 20
-1140.907777864213
 42
0.4142135623731
 10
-3556.545515168696
 20
-1139.407777864214
 42
0.4142135623731
 10
-3558.045515168696
 20
-1140.907777864213
 42
0.4142135623731
 10
-3556.545515168696
 20
-1142.407777864213
 42
0.4142135623731
  0
LWPOLYLINE
  5
3C5
330
1F
100
AcDbEntity
  8
0-B_寸法
  6
Continuous
 62
     7
370
     9
100
AcDbPolyline
 90
        4
 70
     1
 43
3.0
 10
-3375.045515168696
 20
-1140.907777864213
 42
0.4142135623731
 10
-3376.545515168696
 20
-1139.407777864214
 42
0.4142135623731
 10
-3378.045515168696
 20
-1140.907777864213
 42
0.4142135623731
 10
-3376.545515168696
 20
-1142.407777864213
 42
0.4142135623731
  0
LINE
  5
3C6
330
1F
100
AcDbEntity
  8
0-0_補助線
  6
JWW_HOJO
 62
   120
370
     5
100
AcDbLine
 10
-4330.545515168689
 20
194.9998020481414
 30
0.0
 11
-4330.545515168689
 21
-2994.907444743116
 31
0.0
  0
LINE
  5
3C7
330
1F
100
AcDbEntity
  8
0-A_文字
  6
Continuous
 62
     7
370
     9
100
AcDbLine
 10
-4237.158411168276
 20
-2870.026153083052
 30
0.0
 11
-4267.158411168276
 21
-2921.987677310118
 31
0.0
  0
LINE
  5
3C8
330
1F
100
AcDbEntity
  8
0-A_文字
  6
Continuous
 62
     7
370
     9
100
AcDbLine
 10
-4297.158411168276
 20
-2870.026153083052
 30
0.0
 11
-4237.158411168276
 21
-2870.026153083052
 31
0.0
  0
LINE
  5
3C9
330
1F
100
AcDbEntity
  8
0-A_文字
  6
Continuous
 62
     7
370
     9
100
AcDbLine
 10
-4297.158411168276
 20
-2870.026153083052
 30
0.0
 11
-4267.158411168276
 21
-2921.987677310118
 31
0.0
  0
LINE
  5
3CA
330
1F
100
AcDbEntity
  8
0-B_寸法
  6
Continuous
 62
   120
370
     5
100
AcDbLine
 10
-3196.545515168696
 20
-2763.907651015641
 30
0.0
 11
-3316.545515168696
 21
-2763.907651015641
 31
0.0
  0
LINE
  5
3CB
330
1F
100
AcDbEntity
  8
0-B_寸法
  6
Continuous
 62
   120
370
     5
100
AcDbLine
 10
-3196.545515168696
 20
-2871.907651015641
 30
0.0
 11
-3316.545515168696
 21
-2871.907651015641
 31
0.0
  0
LWPOLYLINE
  5
3CC
330
1F
100
AcDbEntity
  8
0-B_寸法
  6
Continuous
 62
     7
370
     9
100
AcDbPolyline
 90
        4
 70
     1
 43
3.0
 10
-3195.045515168696
 20
-2763.907651015641
 42
0.4142135623731
 10
-3196.545515168696
 20
-2762.407651015641
 42
0.4142135623731
 10
-3198.045515168696
 20
-2763.907651015641
 42
0.4142135623731
 10
-3196.545515168696
 20
-2765.407651015641
 42
0.4142135623731
  0
LWPOLYLINE
  5
3CD
330
1F
100
AcDbEntity
  8
0-B_寸法
  6
Continuous
 62
     7
370
     9
100
AcDbPolyline
 90
        4
 70
     1
 43
3.0
 10
-3195.045515168696
 20
-2871.907651015641
 42
0.4142135623731
 10
-3196.545515168696
 20
-2870.407651015641
 42
0.4142135623731
 10
-3198.045515168696
 20
-2871.907651015641
 42
0.4142135623731
 10
-3196.545515168696
 20
-2873.407651015641
 42
0.4142135623731
  0
LINE
  5
3CE
330
1F
100
AcDbEntity
  8
0-B_寸法
  6
Continuous
 62
   120
370
     5
100
AcDbLine
 10
-3196.545515168696
 20
-2871.907651015641
 30
0.0
 11
-3196.545515168696
 21
-2763.907651015641
 31
0.0
  0
LINE
  5
3CF
330
1F
100
AcDbEntity
  8
0-0_補助線
  6
JWW_HOJO
 62
   120
370
     5
100
AcDbLine
 10
-3346.545515168696
 20
-2733.90765101564
 30
0.0
 11
-3346.545515168696
 21
-2994.907444743116
 31
0.0
  0
LINE
  5
3D0
330
1F
100
AcDbEntity
  8
0-B_寸法
  6
Continuous
 62
   120
370
     5
100
AcDbLine
 10
-3556.545515168696
 20
-1140.907777864213
 30
0.0
 11
-3376.545515168696
 21
-1140.907777864213
 31
0.0
  0
LINE
  5
3D1
330
1F
100
AcDbEntity
  8
0-0_補助線
  6
JWW_HOJO
 62
   120
370
     5
100
AcDbLine
 10
-3586.545515168696
 20
-2733.90765101564
 30
0.0
 11
-3586.545515168696
 21
-2994.907444743116
 31
0.0
  0
LINE
  5
3D2
330
1F
100
AcDbEntity
  8
0-0_補助線
  6
JWW_HOJO
 62
   120
370
     5
100
AcDbLine
 10
-3346.545515168696
 20
-2733.90765101564
 30
0.0
 11
-3586.545515168696
 21
-2733.90765101564
 31
0.0
  0
LWPOLYLINE
  5
3D3
330
1F
100
AcDbEntity
  8
0-B_寸法
  6
Continuous
 62
     7
370
     9
100
AcDbPolyline
 90
        4
 70
     1
 43
3.0
 10
-3705.045515168696
 20
-2922.90765101564
 42
0.4142135623731
 10
-3706.545515168696
 20
-2921.407651015641
 42
0.4142135623731
 10
-3708.045515168696
 20
-2922.90765101564
 42
0.4142135623731
 10
-3706.545515168696
 20
-2924.40765101564
 42
0.4142135623731
  0
LINE
  5
3D4
330
1F
100
AcDbEntity
  8
0-B_寸法
  6
Continuous
 62
   120
370
     5
100
AcDbLine
 10
-3706.545515168696
 20
-2922.90765101564
 30
0.0
 11
-3586.545515168696
 21
-2922.90765101564
 31
0.0
  0
LINE
  5
3D5
330
1F
100
AcDbEntity
  8
0-4_枠
  6
Continuous
 62
    92
370
    13
100
AcDbLine
 10
-4063.545950044176
 20
-351.9076510156415
 30
0.0
 11
-3552.945515168687
 21
-351.9076510156415
 31
0.0
  0
LINE
  5
3D6
330
1F
100
AcDbEntity
  8
0-4_枠
  6
Continuous
 62
    92
370
    13
100
AcDbLine
 10
-3552.945515168687
 20
-354.9076510156388
 30
0.0
 11
-4066.545515168684
 21
-354.9076510156388
 31
0.0
  0
LINE
  5
3D7
330
1F
100
AcDbEntity
  8
0-C_ハッチ
  6
Continuous
 62
   120
370
     5
100
AcDbLine
 10
-3820.124315343758
 20
-351.9076510156466
 30
0.0
 11
-3643.124315343759
 21
-174.9076510156388
 31
0.0
  0
LINE
  5
3D8
330
1F
100
AcDbEntity
  8
0-C_ハッチ
  6
Continuous
 62
   120
370
     5
100
AcDbLine
 10
-3938.918254583111
 20
-351.9076510156415
 30
0.0
 11
-3761.918254583108
 21
-174.9076510156388
 31
0.0
  0
LINE
  5
3D9
330
1F
100
AcDbEntity
  8
0-C_ハッチ
  6
Continuous
 62
   120
370
     5
100
AcDbLine
 10
-3879.521284963423
 20
-351.9076510156552
 30
0.0
 11
-3702.521284963406
 21
-174.9076510156388
 31
0.0
  0
LINE
  5
3DA
330
1F
100
AcDbEntity
  8
0-C_ハッチ
  6
Continuous
 62
   120
370
     5
100
AcDbLine
 10
-3760.727345724059
 20
-351.9076510156415
 30
0.0
 11
-3583.727345724057
 21
-174.9076510156388
 31
0.0
  0
LINE
  5
3DB
330
1F
100
AcDbEntity
  8
0-C_ハッチ
  6
Continuous
 62
   120
370
     5
100
AcDbLine
 10
-3582.536436865063
 20
-351.9076510156415
 30
0.0
 11
-3552.945515168687
 21
-322.3167293192587
 31
0.0
  0
LINE
  5
3DC
330
1F
100
AcDbEntity
  8
0-C_ハッチ
  6
Continuous
 62
   120
370
     5
100
AcDbLine
 10
-3701.330376104422
 20
-351.9076510156415
 30
0.0
 11
-3524.330376104414
 21
-174.9076510156388
 31
0.0
  0
LINE
  5
3DD
330
1F
100
AcDbEntity
  8
0-C_ハッチ
  6
Continuous
 62
   120
370
     5
100
AcDbLine
 10
-3641.933406484765
 20
-351.9076510156415
 30
0.0
 11
-3552.945515168687
 21
-262.9197596995633
 31
0.0
  0
LINE
  5
3DE
330
1F
100
AcDbEntity
  8
0-C_ハッチ
  6
Continuous
 62
   120
370
     5
100
AcDbLine
 10
-3472.583189177274
 20
-2922.663071601854
 30
0.0
 11
-3457.785517642079
 21
-2907.865400066657
 31
0.0
  0
LINE
  5
3DF
330
1F
100
AcDbEntity
  8
0-C_ハッチ
  6
Continuous
 62
   120
370
     5
100
AcDbLine
 10
-3498.283612713808
 20
-2922.90765101563
 30
0.0
 11
-3480.284209801085
 21
-2904.90824810291
 31
0.0
  0
LINE
  5
3E0
330
1F
100
AcDbEntity
  8
0-C_ハッチ
  6
Continuous
 62
   120
370
     5
100
AcDbLine
 10
-3475.545515168702
 20
-2900.169553470522
 30
0.0
 11
-3457.545515168687
 21
-2882.169553470513
 31
0.0
  0
LINE
  5
3E1
330
1F
100
AcDbEntity
  8
0-C_ハッチ
  6
Continuous
 62
   120
370
     5
100
AcDbLine
 10
-3523.73945683651
 20
-2922.907651015639
 30
0.0
 11
-3505.740053923796
 21
-2904.90824810292
 31
0.0
  0
LINE
  5
3E2
330
1F
100
AcDbEntity
  8
0-C_ハッチ
  6
Continuous
 62
   120
370
     5
100
AcDbLine
 10
-3475.545515168691
 20
-2874.713709347817
 30
0.0
 11
-3457.545515168684
 21
-2856.713709347811
 31
0.0
  0
LINE
  5
3E3
330
1F
100
AcDbEntity
  8
0-C_ハッチ
  6
Continuous
 62
   120
370
     5
100
AcDbLine
 10
-3549.195300959212
 20
-2922.907651015642
 30
0.0
 11
-3531.195898046501
 21
-2904.90824810293
 31
0.0
  0
LINE
  5
3E4
330
1F
100
AcDbEntity
  8
0-C_ハッチ
  6
Continuous
 62
   120
370
     5
100
AcDbLine
 10
-3475.545515168681
 20
-2849.25786522511
 30
0.0
 11
-3457.545515168677
 21
-2831.257865225106
 31
0.0
  0
LINE
  5
3E5
330
1F
100
AcDbEntity
  8
0-C_ハッチ
  6
Continuous
 62
   120
370
     5
100
AcDbLine
 10
-3475.545515168688
 20
-2823.802021102366
 30
0.0
 11
-3457.54551516868
 21
-2805.802021102357
 31
0.0
  0
LINE
  5
3E6
330
1F
100
AcDbEntity
  8
0-C_ハッチ
  6
Continuous
 62
   120
370
     5
100
AcDbLine
 10
-3565.545515168696
 20
-2913.802021102371
 30
0.0
 11
-3556.651742169237
 21
-2904.908248102912
 31
0.0
  0
LINE
  5
3E7
330
1F
100
AcDbEntity
  8
0-7_金物
  6
Continuous
 62
     7
370
     9
100
AcDbLine
 10
-3486.045515168695
 20
-2871.907651015641
 30
0.0
 11
-3486.045515168695
 21
-2763.907651015641
 31
0.0
  0
LINE
  5
3E8
330
1F
100
AcDbEntity
  8
0-7_金物
  6
Continuous
 62
     7
370
     9
100
AcDbLine
 10
-3504.045515168696
 20
-2871.907651015641
 30
0.0
 11
-3486.045515168695
 21
-2871.907651015641
 31
0.0
  0
LINE
  5
3E9
330
1F
100
AcDbEntity
  8
0-7_金物
  6
Continuous
 62
     7
370
     9
100
AcDbLine
 10
-3504.045515168696
 20
-2877.90765101564
 30
0.0
 11
-3504.045515168696
 21
-2871.907651015641
 31
0.0
  0
LINE
  5
3EA
330
1F
100
AcDbEntity
  8
0-7_金物
  6
Continuous
 62
     7
370
     9
100
AcDbLine
 10
-3480.045515168694
 20
-2877.90765101564
 30
0.0
 11
-3480.045515168694
 21
-2769.907651015641
 31
0.0
  0
LINE
  5
3EB
330
1F
100
AcDbEntity
  8
0-7_金物
  6
Continuous
 62
     7
370
     9
100
AcDbLine
 10
-3480.045515168694
 20
-2877.90765101564
 30
0.0
 11
-3504.045515168696
 21
-2877.90765101564
 31
0.0
  0
LINE
  5
3EC
330
1F
100
AcDbEntity
  8
0-7_金物
  6
Continuous
 62
     7
370
     9
100
AcDbLine
 10
-3447.045515168695
 20
-2763.907651015641
 30
0.0
 11
-3447.045515168695
 21
-2871.907651015641
 31
0.0
  0
LINE
  5
3ED
330
1F
100
AcDbEntity
  8
0-7_金物
  6
Continuous
 62
     7
370
     9
100
AcDbLine
 10
-3453.045515168696
 20
-2769.907651015641
 30
0.0
 11
-3453.045515168696
 21
-2877.90765101564
 31
0.0
  0
LINE
  5
3EE
330
1F
100
AcDbEntity
  8
0-7_金物
  6
Continuous
 62
     7
370
     9
100
AcDbLine
 10
-3486.045515168695
 20
-2763.907651015641
 30
0.0
 11
-3447.045515168695
 21
-2763.907651015641
 31
0.0
  0
LINE
  5
3EF
330
1F
100
AcDbEntity
  8
0-7_金物
  6
Continuous
 62
     7
370
     9
100
AcDbLine
 10
-3453.045515168696
 20
-2769.907651015641
 30
0.0
 11
-3480.045515168694
 21
-2769.907651015641
 31
0.0
  0
LINE
  5
3F0
330
1F
100
AcDbEntity
  8
0-7_金物
  6
Continuous
 62
     7
370
     9
100
AcDbLine
 10
-3453.045515168696
 20
-2877.90765101564
 30
0.0
 11
-3429.045515168696
 21
-2877.90765101564
 31
0.0
  0
LINE
  5
3F1
330
1F
100
AcDbEntity
  8
0-7_金物
  6
Continuous
 62
     7
370
     9
100
AcDbLine
 10
-3429.045515168696
 20
-2871.907651015641
 30
0.0
 11
-3429.045515168696
 21
-2877.90765101564
 31
0.0
  0
LINE
  5
3F2
330
1F
100
AcDbEntity
  8
0-7_金物
  6
Continuous
 62
     7
370
     9
100
AcDbLine
 10
-3447.045515168695
 20
-2871.907651015641
 30
0.0
 11
-3429.045515168696
 21
-2871.907651015641
 31
0.0
  0
LINE
  5
3F3
330
1F
100
AcDbEntity
  8
0-7_金物
  6
Continuous
 62
    92
370
    13
100
AcDbLine
 10
-3565.545515168696
 20
-2904.90765101564
 30
0.0
 11
-3565.545515168696
 21
-2922.90765101564
 31
0.0
  0
LINE
  5
3F4
330
1F
100
AcDbEntity
  8
0-7_金物
  6
Continuous
 62
    92
370
    13
100
AcDbLine
 10
-3565.545515168696
 20
-2904.90765101564
 30
0.0
 11
-3475.545515168687
 21
-2904.90765101564
 31
0.0
  0
LINE
  5
3F5
330
1F
100
AcDbEntity
  8
0-7_金物
  6
Continuous
 62
    92
370
    13
100
AcDbLine
 10
-3475.545515168687
 20
-2802.90765101564
 30
0.0
 11
-3457.545515168687
 21
-2802.90765101564
 31
0.0
  0
LINE
  5
3F6
330
1F
100
AcDbEntity
  8
0-7_金物
  6
Continuous
 62
    92
370
    13
100
AcDbLine
 10
-3475.545515168687
 20
-2802.90765101564
 30
0.0
 11
-3475.545515168687
 21
-2904.90765101564
 31
0.0
  0
LINE
  5
3F7
330
1F
100
AcDbEntity
  8
0-7_金物
  6
Continuous
 62
    92
370
    13
100
AcDbLine
 10
-3475.545515168687
 20
-2922.90765101564
 30
0.0
 11
-3565.545515168696
 21
-2922.90765101564
 31
0.0
  0
LINE
  5
3F8
330
1F
100
AcDbEntity
  8
0-7_金物
  6
Continuous
 62
    92
370
    13
100
AcDbLine
 10
-3457.545515168687
 20
-2904.90765101564
 30
0.0
 11
-3457.545515168687
 21
-2802.90765101564
 31
0.0
  0
ARC
  5
3F9
330
1F
100
AcDbEntity
  8
0-7_金物
  6
Continuous
 62
    92
370
    13
100
AcDbCircle
 10
-3475.545515168687
 20
-2904.90765101564
 30
0.0
 40
18.0
100
AcDbArc
 50
270.0
 51
0.0
  0
LINE
  5
3FA
330
1F
100
AcDbEntity
  8
0-6_扉
  6
Continuous
 62
   200
370
    20
100
AcDbLine
 10
-3447.045515168695
 20
-2763.907651015641
 30
0.0
 11
-3447.045515168695
 21
-2871.907651015641
 31
0.0
  0
LINE
  5
3FB
330
1F
100
AcDbEntity
  8
0-6_扉
  6
Continuous
 62
   200
370
    20
100
AcDbLine
 10
-3486.045515168697
 20
-2763.907651015641
 30
0.0
 11
-3486.045515168697
 21
-2871.907651015641
 31
0.0
  0
LINE
  5
3FC
330
1F
100
AcDbEntity
  8
0-6_扉
  6
Continuous
 62
   200
370
    20
100
AcDbLine
 10
-3447.045515168695
 20
-2763.907651015641
 30
0.0
 11
-3486.045515168697
 21
-2763.907651015641
 31
0.0
  0
LINE
  5
3FD
330
1F
100
AcDbEntity
  8
0-6_扉
  6
Continuous
 62
   200
370
    20
100
AcDbLine
 10
-3486.045515168697
 20
-2871.907651015641
 30
0.0
 11
-3556.545515168696
 21
-2871.907651015641
 31
0.0
  0
LINE
  5
3FE
330
1F
100
AcDbEntity
  8
0-6_扉
  6
Continuous
 62
   200
370
    20
100
AcDbLine
 10
-3376.545515168696
 20
-2871.907651015641
 30
0.0
 11
-3447.045515168695
 21
-2871.907651015641
 31
0.0
  0
LINE
  5
3FF
330
1F
100
AcDbEntity
  8
0-0_補助線
  6
JWW_HOJO
 62
   120
370
     5
100
AcDbLine
 10
-3417.045515168697
 20
-2733.90765101564
 30
0.0
 11
-3417.045515168697
 21
-2997.907838481051
 31
0.0
  0
LWPOLYLINE
  5
400
330
1F
100
AcDbEntity
  8
0-B_寸法
  6
Continuous
 62
     7
370
     9
100
AcDbPolyline
 90
        4
 70
     1
 43
3.0
 10
-3451.545515168686
 20
-2673.90765101564
 42
0.4142135623731
 10
-3453.045515168686
 20
-2672.40765101564
 42
0.4142135623731
 10
-3454.545515168686
 20
-2673.90765101564
 42
0.4142135623731
 10
-3453.045515168686
 20
-2675.40765101564
 42
0.4142135623731
  0
LINE
  5
401
330
1F
100
AcDbEntity
  8
0-B_寸法
  6
Continuous
 62
   120
370
     5
100
AcDbLine
 10
-3453.045515168686
 20
-2673.90765101564
 30
0.0
 11
-3453.045515168686
 21
-2733.90765101564
 31
0.0
  0
LWPOLYLINE
  5
402
330
1F
100
AcDbEntity
  8
0-B_寸法
  6
Continuous
 62
     7
370
     9
100
AcDbPolyline
 90
        4
 70
     1
 43
3.0
 10
-3478.545515168686
 20
-2673.90765101564
 42
0.4142135623731
 10
-3480.045515168685
 20
-2672.40765101564
 42
0.4142135623731
 10
-3481.545515168685
 20
-2673.90765101564
 42
0.4142135623731
 10
-3480.045515168685
 20
-2675.40765101564
 42
0.4142135623731
  0
LINE
  5
403
330
1F
100
AcDbEntity
  8
0-B_寸法
  6
Continuous
 62
   120
370
     5
100
AcDbLine
 10
-3480.045515168685
 20
-2673.90765101564
 30
0.0
 11
-3480.045515168685
 21
-2733.90765101564
 31
0.0
  0
LINE
  5
404
330
1F
100
AcDbEntity
  8
0-B_寸法
  6
Continuous
 62
   120
370
     5
100
AcDbLine
 10
-3480.045515168685
 20
-2673.90765101564
 30
0.0
 11
-3453.045515168686
 21
-2673.90765101564
 31
0.0
  0
LINE
  5
405
330
1F
100
AcDbEntity
  8
0-B_寸法
  6
Continuous
 62
   120
370
     5
100
AcDbLine
 10
-3706.545515168696
 20
-2922.90765101564
 30
0.0
 11
-3706.545515168696
 21
-2802.90765101564
 31
0.0
  0
LWPOLYLINE
  5
406
330
1F
100
AcDbEntity
  8
0-B_寸法
  6
Continuous
 62
     7
370
     9
100
AcDbPolyline
 90
        4
 70
     1
 43
3.0
 10
-3705.045515168696
 20
-2802.90765101564
 42
0.4142135623731
 10
-3706.545515168696
 20
-2801.407651015641
 42
0.4142135623731
 10
-3708.045515168696
 20
-2802.90765101564
 42
0.4142135623731
 10
-3706.545515168696
 20
-2804.40765101564
 42
0.4142135623731
  0
LINE
  5
407
330
1F
100
AcDbEntity
  8
0-B_寸法
  6
Continuous
 62
   120
370
     5
100
AcDbLine
 10
-3706.545515168696
 20
-2802.90765101564
 30
0.0
 11
-3586.545515168696
 21
-2802.90765101564
 31
0.0
  0
MTEXT
  5
408
330
1F
100
AcDbEntity
  8
0-B_寸法
  6
Continuous
 62
     7
370
   211
100
AcDbMText
 10
-2266.545515168687
 20
-339.1876510156388
 30
0.0
 40
91.44
 41
120.0
 46
0.0
 71
     7
 72
     1
  1
{\fＭＳ ゴシック|b0|i0|c128|p49;30}
 11
6.123031769111886E-17
 21
1.0
 31
0.0
 73
     1
 44
1.0
  0
MTEXT
  5
409
330
1F
100
AcDbEntity
  8
0-B_寸法
  6
Continuous
 62
     7
370
   211
100
AcDbMText
 10
-2686.545515168687
 20
-648.1876510156374
 30
0.0
 40
91.44
 41
180.0
 46
0.0
 71
     7
 72
     1
  1
{\fＭＳ ゴシック|b0|i0|c128|p49;6.3}
 11
6.123031769111886E-17
 21
1.0
 31
0.0
 73
     1
 44
1.0
  0
MTEXT
  5
40A
330
1F
100
AcDbEntity
  8
0-B_寸法
  6
Continuous
 62
     7
370
     0
100
AcDbMText
 10
-2473.545515168687
 20
-708.1876510156387
 30
0.0
 40
91.44
 41
240.0
 46
0.0
 71
     7
 72
     1
  1
{\fＭＳ ゴシック|b0|i0|c128|p49;13.5}
 11
6.123031769111886E-17
 21
1.0
 31
0.0
 73
     1
 44
1.0
  0
MTEXT
  5
40B
330
1F
100
AcDbEntity
  8
0-B_寸法
  6
Continuous
 62
     7
370
   211
100
AcDbMText
 10
-3526.545515168694
 20
-1140.187777864213
 30
0.0
 40
91.44
 41
120.0
 46
0.0
 71
     7
 72
     1
  1
{\fＭＳ ゴシック|b0|i0|c128|p49;30}
 73
     1
 44
1.0
  0
MTEXT
  5
40C
330
1F
100
AcDbEntity
  8
0-B_寸法
  6
Continuous
 62
     7
370
   211
100
AcDbMText
 10
-3544.545515168687
 20
-2665.80765101564
 30
0.0
 40
76.19999999999999
 41
150.0
 46
0.0
 71
     7
 72
     1
  1
{\fＭＳ ゴシック|b0|i0|c128|p49;4.5}
 73
     1
 44
1.0
  0
MTEXT
  5
40D
330
1F
100
AcDbEntity
  8
0-B_寸法
  6
Continuous
 62
     7
370
     0
100
AcDbMText
 10
-2473.545515168687
 20
-2868.187857009292
 30
0.0
 40
91.44
 41
180.0
 46
0.0
 71
     7
 72
     1
  1
{\fＭＳ ゴシック|b0|i0|c128|p49;8.5}
 11
6.123031769111886E-17
 21
1.0
 31
0.0
 73
     1
 44
1.0
  0
MTEXT
  5
40E
330
1F
100
AcDbEntity
  8
0-B_寸法
  6
Continuous
 62
     7
370
   211
100
AcDbMText
 10
-3211.545515168696
 20
-2892.187651015641
 30
0.0
 40
91.44
 41
120.0
 46
0.0
 71
     7
 72
     1
  1
{\fＭＳ ゴシック|b0|i0|c128|p49;18}
 11
6.123031769111886E-17
 21
1.0
 31
0.0
 73
     1
 44
1.0
  0
MTEXT
  5
40F
330
1F
100
AcDbEntity
  8
0-B_寸法
  6
Continuous
 62
     7
370
   211
100
AcDbMText
 10
-2056.545515168687
 20
-2916.330151015639
 30
0.0
 40
97.15499999999999
 41
127.5
 46
0.0
 71
     7
 72
     1
  1
{\fＭＳ ゴシック|b0|i0|c128|p49;12}
 11
6.123031769111886E-17
 21
1.0
 31
0.0
 73
     1
 44
1.0
  0
MTEXT
  5
410
330
1F
100
AcDbEntity
  8
0-B_寸法
  6
Continuous
 62
     7
370
   211
100
AcDbMText
 10
-3721.545515168696
 20
-2926.427987969955
 30
0.0
 40
91.44
 41
120.0
 46
0.0
 71
     7
 72
     1
  1
{\fＭＳ ゴシック|b0|i0|c128|p49;20}
 11
6.123031769111886E-17
 21
1.0
 31
0.0
 73
     1
 44
1.0
  0
MTEXT
  5
411
330
1F
100
AcDbEntity
  8
0-B_寸法
  6
Continuous
 62
     7
370
     0
100
AcDbMText
 10
-2476.545515168687
 20
-2238.187754012464
 30
0.0
 40
91.43999999999996
 41
1140.0
 46
0.0
 71
     7
 72
     1
  1
{\fＭＳ ゴシック|b0|i0|c128|p49;ＤＨ＝1,983 (2,183)}
 11
6.123031769111886E-17
 21
1.0
 31
0.0
 73
     1
 44
1.0
  0
MTEXT
  5
412
330
1F
100
AcDbEntity
  8
0-B_寸法
  6
Continuous
 62
     7
370
   211
100
AcDbMText
 10
-2266.545515168687
 20
-2238.187754012465
 30
0.0
 40
91.44
 41
1140.0
 46
0.0
 71
     7
 72
     1
  1
{\fＭＳ ゴシック|b0|i0|c128|p49;枠内＝2,005 (2,205)}
 11
5.053195275411815E-16
 21
1.0
 31
0.0
 73
     1
 44
1.0
  0
MTEXT
  5
413
330
1F
100
AcDbEntity
  8
0-B_寸法
  6
Continuous
 62
     7
370
   211
100
AcDbMText
 10
-2056.545515168687
 20
-2315.273337492497
 30
0.0
 40
102.2684210526315
 41
1275.0
 46
0.0
 71
     7
 72
     1
  1
{\fＭＳ ゴシック|b0|i0|c128|p49;枠外＝2,035 (2,235)}
 11
2.832749226161502E-16
 21
1.0
 31
0.0
 73
     1
 44
1.0
  0
MTEXT
  5
414
330
1F
100
AcDbEntity
  8
0-A_文字
  6
Continuous
 62
     7
370
     0
100
AcDbMText
 10
-3145.911243348046
 20
-3397.201675922478
 30
0.0
 40
78.97090909090909
 41
1140.0
 46
0.0
 71
     7
 72
     1
  1
{\fＭＳ ゴシック|b0|i0|c128|p49;※(　)内寸法はハイドア}
 73
     1
 44
1.0
  0
LINE
  5
415
330
1F
100
AcDbEntity
  8
0-A_文字
  6
Continuous
 62
    92
370
    13
100
AcDbLine
 10
-1561.545515168687
 20
-2832.907857009287
 30
0.0
 11
-1561.545515168687
 21
-12.9076510156365
 31
0.0
  0
LINE
  5
416
330
1F
100
AcDbEntity
  8
1-4_枠
  6
Continuous
 62
    92
370
    13
100
AcDbLine
 10
-1111.545515168687
 20
-505.8178527460565
 30
0.0
 11
-1111.545515168687
 21
-2310.563256394591
 31
0.0
  0
LINE
  5
417
330
1F
100
AcDbEntity
  8
1-6_扉
  6
JWW_DASHED2
 62
     7
370
     9
100
AcDbLine
 10
673.4544848312887
 20
-505.8178527460565
 30
0.0
 11
673.4544848312887
 21
-2183.063256394595
 31
0.0
  0
LINE
  5
418
330
1F
100
AcDbEntity
  8
1-6_扉
  6
JWW_DASHED2
 62
     7
370
     9
100
AcDbLine
 10
223.4544848312888
 20
-505.8178527460565
 30
0.0
 11
223.4544848312888
 21
-2183.063256394595
 31
0.0
  0
LINE
  5
419
330
1F
100
AcDbEntity
  8
1-4_枠
  6
Continuous
 62
    92
370
    13
100
AcDbLine
 10
1438.454484831313
 20
-2310.563256394591
 30
0.0
 11
1438.454484831313
 21
-505.8178527460565
 31
0.0
  0
LINE
  5
41A
330
1F
100
AcDbEntity
  8
1-3_仕上げ
  6
Continuous
 62
    40
370
    15
100
AcDbLine
 10
-1291.545515168687
 20
-2310.563256394591
 30
0.0
 11
1618.454484831313
 21
-2310.563256394591
 31
0.0
  0
LINE
  5
41B
330
1F
100
AcDbEntity
  8
1-3_仕上げ
  6
Continuous
 62
    40
370
    15
100
AcDbLine
 10
-1291.545515168687
 20
-2490.563256394592
 30
0.0
 11
1618.454484831313
 21
-2490.563256394592
 31
0.0
  0
LINE
  5
41C
330
1F
100
AcDbEntity
  8
1-1_通り芯
  6
JWW_CENTER1
 62
   120
370
     5
100
AcDbLine
 10
163.4544848313126
 20
-477.0211085251283
 30
0.0
 11
163.4544848313126
 21
-2624.644596061579
 31
0.0
  0
LINE
  5
41D
330
1F
100
AcDbEntity
  8
1-B_寸法
  6
Continuous
 62
   120
370
     5
100
AcDbLine
 10
-1111.545515168687
 20
-718.3963451407062
 30
0.0
 11
1438.454484831313
 21
-718.3963451407062
 31
0.0
  0
LWPOLYLINE
  5
41E
330
1F
100
AcDbEntity
  8
1-B_寸法
  6
Continuous
 62
     7
370
     9
100
AcDbPolyline
 90
        4
 70
     1
 43
3.0
 10
-1110.045515168687
 20
-718.3963451407062
 42
0.4142135623731
 10
-1111.545515168687
 20
-716.8963451407062
 42
0.4142135623731
 10
-1113.045515168687
 20
-718.3963451407062
 42
0.4142135623731
 10
-1111.545515168687
 20
-719.8963451407062
 42
0.4142135623731
  0
LWPOLYLINE
  5
41F
330
1F
100
AcDbEntity
  8
1-B_寸法
  6
Continuous
 62
     7
370
     9
100
AcDbPolyline
 90
        4
 70
     1
 43
3.0
 10
1439.954484831313
 20
-718.3963451407062
 42
0.4142135623731
 10
1438.454484831313
 20
-716.8963451407062
 42
0.4142135623731
 10
1436.954484831313
 20
-718.3963451407062
 42
0.4142135623731
 10
1438.454484831313
 20
-719.8963451407062
 42
0.4142135623731
  0
LINE
  5
420
330
1F
100
AcDbEntity
  8
1-B_寸法
  6
Continuous
 62
   120
370
     5
100
AcDbLine
 10
-1111.545515168687
 20
-718.3963451407062
 30
0.0
 11
-1111.545515168687
 21
-1048.396345140706
 31
0.0
  0
LINE
  5
421
330
1F
100
AcDbEntity
  8
1-B_寸法
  6
Continuous
 62
   120
370
     5
100
AcDbLine
 10
1438.454484831313
 20
-718.3963451407062
 30
0.0
 11
1438.454484831313
 21
-1048.396345140706
 31
0.0
  0
LINE
  5
422
330
1F
100
AcDbEntity
  8
1-B_寸法
  6
Continuous
 62
   120
370
     5
100
AcDbLine
 10
898.4544848312921
 20
-2310.563256394598
 30
0.0
 11
898.4544848312921
 21
-2265.563256394598
 31
0.0
  0
LWPOLYLINE
  5
423
330
1F
100
AcDbEntity
  8
1-B_寸法
  6
Continuous
 62
     7
370
     9
100
AcDbPolyline
 90
        4
 70
     1
 43
3.0
 10
899.9544848312922
 20
-2310.563256394598
 42
0.4142135623731
 10
898.4544848312921
 20
-2309.063256394598
 42
0.4142135623731
 10
896.9544848312921
 20
-2310.563256394598
 42
0.4142135623731
 10
898.4544848312921
 20
-2312.063256394598
 42
0.4142135623731
  0
LWPOLYLINE
  5
424
330
1F
100
AcDbEntity
  8
1-B_寸法
  6
Continuous
 62
     7
370
     9
100
AcDbPolyline
 90
        4
 70
     1
 43
3.0
 10
899.9544848312922
 20
-2265.563256394598
 42
0.4142135623731
 10
898.4544848312921
 20
-2264.063256394598
 42
0.4142135623731
 10
896.9544848312921
 20
-2265.563256394598
 42
0.4142135623731
 10
898.4544848312921
 20
-2267.063256394598
 42
0.4142135623731
  0
LINE
  5
425
330
1F
100
AcDbEntity
  8
1-B_寸法
  6
Continuous
 62
   120
370
     5
100
AcDbLine
 10
1048.454484831292
 20
-2310.563256394598
 30
0.0
 11
748.4544848312921
 21
-2310.563256394598
 31
0.0
  0
LINE
  5
426
330
1F
100
AcDbEntity
  8
1-B_寸法
  6
Continuous
 62
   120
370
     5
100
AcDbLine
 10
898.4544848312921
 20
-2265.563256394598
 30
0.0
 11
748.4544848312921
 21
-2265.563256394598
 31
0.0
  0
LWPOLYLINE
  5
427
330
1F
100
AcDbEntity
  8
1-B_寸法
  6
Continuous
 62
     7
370
     9
100
AcDbPolyline
 90
        4
 70
     1
 43
3.0
 10
899.9544848312922
 20
-2183.063256394597
 42
0.4142135623731
 10
898.4544848312921
 20
-2181.563256394597
 42
0.4142135623731
 10
896.9544848312921
 20
-2183.063256394597
 42
0.4142135623731
 10
898.4544848312921
 20
-2184.563256394597
 42
0.4142135623731
  0
LINE
  5
428
330
1F
100
AcDbEntity
  8
1-B_寸法
  6
Continuous
 62
   120
370
     5
100
AcDbLine
 10
1048.454484831292
 20
-2183.063256394597
 30
0.0
 11
748.4544848312921
 21
-2183.063256394597
 31
0.0
  0
LINE
  5
429
330
1F
100
AcDbEntity
  8
1-B_寸法
  6
Continuous
 62
   120
370
     5
100
AcDbLine
 10
1048.454484831292
 20
-2490.563256394597
 30
0.0
 11
1048.454484831292
 21
-2310.563256394598
 31
0.0
  0
LWPOLYLINE
  5
42A
330
1F
100
AcDbEntity
  8
1-B_寸法
  6
Continuous
 62
     7
370
     9
100
AcDbPolyline
 90
        4
 70
     1
 43
3.0
 10
1049.954484831292
 20
-2490.563256394597
 42
0.4142135623731
 10
1048.454484831292
 20
-2489.063256394597
 42
0.4142135623731
 10
1046.954484831292
 20
-2490.563256394597
 42
0.4142135623731
 10
1048.454484831292
 20
-2492.063256394597
 42
0.4142135623731
  0
LWPOLYLINE
  5
42B
330
1F
100
AcDbEntity
  8
1-B_寸法
  6
Continuous
 62
     7
370
     9
100
AcDbPolyline
 90
        4
 70
     1
 43
3.0
 10
1049.954484831292
 20
-2310.563256394598
 42
0.4142135623731
 10
1048.454484831292
 20
-2309.063256394598
 42
0.4142135623731
 10
1046.954484831292
 20
-2310.563256394598
 42
0.4142135623731
 10
1048.454484831292
 20
-2312.063256394598
 42
0.4142135623731
  0
LINE
  5
42C
330
1F
100
AcDbEntity
  8
1-B_寸法
  6
Continuous
 62
   120
370
     5
100
AcDbLine
 10
1048.454484831292
 20
-2490.563256394597
 30
0.0
 11
748.4544848312921
 21
-2490.563256394597
 31
0.0
  0
LWPOLYLINE
  5
42D
330
1F
100
AcDbEntity
  8
1-B_寸法
  6
Continuous
 62
     7
370
     9
100
AcDbPolyline
 90
        4
 70
     1
 43
3.0
 10
1049.954484831292
 20
-2183.063256394597
 42
0.4142135623731
 10
1048.454484831292
 20
-2181.563256394597
 42
0.4142135623731
 10
1046.954484831292
 20
-2183.063256394597
 42
0.4142135623731
 10
1048.454484831292
 20
-2184.563256394597
 42
0.4142135623731
  0
LINE
  5
42E
330
1F
100
AcDbEntity
  8
1-B_寸法
  6
Continuous
 62
   120
370
     5
100
AcDbLine
 10
898.4544848312921
 20
-2265.563256394598
 30
0.0
 11
898.4544848312921
 21
-1992.003817353415
 31
0.0
  0
LINE
  5
42F
330
1F
100
AcDbEntity
  8
1-B_寸法
  6
Continuous
 62
   120
370
     5
100
AcDbLine
 10
1048.454484831292
 20
-2310.563256394598
 30
0.0
 11
1048.454484831292
 21
-1992.003817353415
 31
0.0
  0
LINE
  5
430
330
1F
100
AcDbEntity
  8
0-A_文字
  6
Continuous
 62
    92
370
    13
100
AcDbLine
 10
-1561.545515168687
 20
-192.9076510156365
 30
0.0
 11
1888.454484831313
 21
-192.9076510156365
 31
0.0
  0
LINE
  5
431
330
1F
100
AcDbEntity
  8
0-A_文字
  6
Continuous
 62
    92
370
    13
100
AcDbLine
 10
-1561.545515168687
 20
-12.9076510156365
 30
0.0
 11
1888.454484831313
 21
-12.9076510156365
 31
0.0
  0
LINE
  5
432
330
1F
100
AcDbEntity
  8
0-A_文字
  6
Continuous
 62
    92
370
    13
100
AcDbLine
 10
-1561.545515168687
 20
-2832.907857009287
 30
0.0
 11
1888.454484831313
 21
-2832.907857009287
 31
0.0
  0
LINE
  5
433
330
1F
100
AcDbEntity
  8
0-A_文字
  6
Continuous
 62
    92
370
    13
100
AcDbLine
 10
1888.454484831313
 20
-12.9076510156365
 30
0.0
 11
1888.454484831313
 21
-2832.907857009287
 31
0.0
  0
LINE
  5
434
330
1F
100
AcDbEntity
  8
1-4_枠
  6
Continuous
 62
    92
370
    13
100
AcDbLine
 10
125.9544848313126
 20
-505.8178527460565
 30
0.0
 11
125.9544848313126
 21
-2310.563256394591
 31
0.0
  0
LINE
  5
435
330
1F
100
AcDbEntity
  8
1-B_寸法
  6
Continuous
 62
   120
370
     5
100
AcDbLine
 10
-1111.545515168687
 20
-898.3963451407062
 30
0.0
 11
125.9544848313126
 21
-898.3963451407062
 31
0.0
  0
LWPOLYLINE
  5
436
330
1F
100
AcDbEntity
  8
1-B_寸法
  6
Continuous
 62
     7
370
     9
100
AcDbPolyline
 90
        4
 70
     1
 43
3.0
 10
-1110.045515168687
 20
-898.3963451407062
 42
0.4142135623731
 10
-1111.545515168687
 20
-896.8963451407062
 42
0.4142135623731
 10
-1113.045515168687
 20
-898.3963451407062
 42
0.4142135623731
 10
-1111.545515168687
 20
-899.8963451407062
 42
0.4142135623731
  0
LWPOLYLINE
  5
437
330
1F
100
AcDbEntity
  8
1-B_寸法
  6
Continuous
 62
     7
370
     9
100
AcDbPolyline
 90
        4
 70
     1
 43
3.0
 10
127.4544848313126
 20
-898.3963451407062
 42
0.4142135623731
 10
125.9544848313126
 20
-896.8963451407062
 42
0.4142135623731
 10
124.4544848313126
 20
-898.3963451407062
 42
0.4142135623731
 10
125.9544848313126
 20
-899.8963451407062
 42
0.4142135623731
  0
LINE
  5
438
330
1F
100
AcDbEntity
  8
1-B_寸法
  6
Continuous
 62
   120
370
     5
100
AcDbLine
 10
125.9544848313126
 20
-898.3963451407062
 30
0.0
 11
125.9544848313126
 21
-1048.396345140706
 31
0.0
  0
LINE
  5
439
330
1F
100
AcDbEntity
  8
1-B_寸法
  6
Continuous
 62
   120
370
     5
100
AcDbLine
 10
125.9544848313126
 20
-898.3963451407062
 30
0.0
 11
223.4544848312888
 21
-898.3963451407062
 31
0.0
  0
LWPOLYLINE
  5
43A
330
1F
100
AcDbEntity
  8
1-B_寸法
  6
Continuous
 62
     7
370
     9
100
AcDbPolyline
 90
        4
 70
     1
 43
3.0
 10
224.9544848312888
 20
-898.3963451407062
 42
0.4142135623731
 10
223.4544848312888
 20
-896.8963451407062
 42
0.4142135623731
 10
221.9544848312888
 20
-898.3963451407062
 42
0.4142135623731
 10
223.4544848312888
 20
-899.8963451407062
 42
0.4142135623731
  0
LINE
  5
43B
330
1F
100
AcDbEntity
  8
1-B_寸法
  6
Continuous
 62
   120
370
     5
100
AcDbLine
 10
223.4544848312888
 20
-898.3963451407062
 30
0.0
 11
223.4544848312888
 21
-1048.396345140706
 31
0.0
  0
LINE
  5
43C
330
1F
100
AcDbEntity
  8
1-6_扉
  6
JWW_DASHED2
 62
     7
370
     9
100
AcDbLine
 10
399.7023676743268
 20
-2183.06325639459
 30
0.0
 11
399.7023676743268
 21
-1913.063256394591
 31
0.0
  0
LINE
  5
43D
330
1F
100
AcDbEntity
  8
1-6_扉
  6
JWW_DASHED2
 62
     7
370
     9
100
AcDbLine
 10
497.2044848313101
 20
-1913.063256394591
 30
0.0
 11
497.2044848313101
 21
-2183.06325639459
 31
0.0
  0
LINE
  5
43E
330
1F
100
AcDbEntity
  8
1-6_扉
  6
JWW_DASHED2
 62
     7
370
     9
100
AcDbLine
 10
497.2044848313101
 20
-1913.063256394591
 30
0.0
 11
399.7023676743268
 21
-1913.063256394591
 31
0.0
  0
LINE
  5
43F
330
1F
100
AcDbEntity
  8
1-7_金物
  6
Continuous
 62
   120
370
     5
100
AcDbLine
 10
433.3624598821643
 20
-2309.951807860129
 30
0.0
 11
470.3566387201505
 21
-2272.957629022134
 31
0.0
  0
LINE
  5
440
330
1F
100
AcDbEntity
  8
1-7_金物
  6
Continuous
 62
   120
370
     5
100
AcDbLine
 10
369.1114010408285
 20
-2310.563256394567
 30
0.0
 11
414.1099083226379
 21
-2265.564749112767
 31
0.0
  0
LINE
  5
441
330
1F
100
AcDbEntity
  8
1-7_金物
  6
Continuous
 62
   120
370
     5
100
AcDbLine
 10
425.9566449035958
 20
-2253.718012531798
 30
0.0
 11
470.9566449036316
 21
-2208.718012531775
 31
0.0
  0
LINE
  5
442
330
1F
100
AcDbEntity
  8
1-7_金物
  6
Continuous
 62
   120
370
     5
100
AcDbLine
 10
305.4717907340745
 20
-2310.563256394589
 30
0.0
 11
350.4702980158584
 21
-2265.564749112792
 31
0.0
  0
LINE
  5
443
330
1F
100
AcDbEntity
  8
1-7_金物
  6
Continuous
 62
   120
370
     5
100
AcDbLine
 10
425.9566449036214
 20
-2190.078402225035
 30
0.0
 11
470.9566449036402
 21
-2145.078402225021
 31
0.0
  0
LINE
  5
444
330
1F
100
AcDbEntity
  8
1-7_金物
  6
Continuous
 62
   120
370
     5
100
AcDbLine
 10
241.8321804273205
 20
-2310.563256394597
 30
0.0
 11
286.8306877090959
 21
-2265.564749112818
 31
0.0
  0
LINE
  5
445
330
1F
100
AcDbEntity
  8
1-7_金物
  6
Continuous
 62
   120
370
     5
100
AcDbLine
 10
425.956644903647
 20
-2126.438791918269
 30
0.0
 11
470.9566449036572
 21
-2081.438791918256
 31
0.0
  0
LINE
  5
446
330
1F
100
AcDbEntity
  8
1-7_金物
  6
Continuous
 62
   120
370
     5
100
AcDbLine
 10
425.9566449036299
 20
-2062.799181611408
 30
0.0
 11
470.9566449036487
 21
-2017.799181611385
 31
0.0
  0
LINE
  5
447
330
1F
100
AcDbEntity
  8
1-7_金物
  6
Continuous
 62
   120
370
     5
100
AcDbLine
 10
200.9566449036086
 20
-2287.799181611421
 30
0.0
 11
223.1910774022566
 21
-2265.564749112773
 31
0.0
  0
LINE
  5
448
330
1F
100
AcDbEntity
  8
1-7_金物
  6
Continuous
 62
     7
370
     9
100
AcDbLine
 10
399.7066449036112
 20
-2183.063256394594
 30
0.0
 11
399.7066449036112
 21
-1913.063256394594
 31
0.0
  0
LINE
  5
449
330
1F
100
AcDbEntity
  8
1-7_金物
  6
Continuous
 62
     7
370
     9
100
AcDbLine
 10
354.7066449036095
 20
-2183.063256394594
 30
0.0
 11
399.7066449036112
 21
-2183.063256394594
 31
0.0
  0
LINE
  5
44A
330
1F
100
AcDbEntity
  8
1-7_金物
  6
Continuous
 62
     7
370
     9
100
AcDbLine
 10
354.7066449036095
 20
-2198.063256394591
 30
0.0
 11
354.7066449036095
 21
-2183.063256394594
 31
0.0
  0
LINE
  5
44B
330
1F
100
AcDbEntity
  8
1-7_金物
  6
Continuous
 62
     7
370
     9
100
AcDbLine
 10
414.7066449036146
 20
-2198.063256394591
 30
0.0
 11
414.7066449036146
 21
-1928.063256394594
 31
0.0
  0
LINE
  5
44C
330
1F
100
AcDbEntity
  8
1-7_金物
  6
Continuous
 62
     7
370
     9
100
AcDbLine
 10
414.7066449036146
 20
-2198.063256394591
 30
0.0
 11
354.7066449036095
 21
-2198.063256394591
 31
0.0
  0
LINE
  5
44D
330
1F
100
AcDbEntity
  8
1-7_金物
  6
Continuous
 62
     7
370
     9
100
AcDbLine
 10
497.206644903612
 20
-1913.063256394594
 30
0.0
 11
497.206644903612
 21
-2183.063256394594
 31
0.0
  0
LINE
  5
44E
330
1F
100
AcDbEntity
  8
1-7_金物
  6
Continuous
 62
     7
370
     9
100
AcDbLine
 10
482.2066449036086
 20
-1928.063256394594
 30
0.0
 11
482.2066449036086
 21
-2198.063256394591
 31
0.0
  0
LINE
  5
44F
330
1F
100
AcDbEntity
  8
1-7_金物
  6
Continuous
 62
     7
370
     9
100
AcDbLine
 10
399.7066449036112
 20
-1913.063256394594
 30
0.0
 11
497.206644903612
 21
-1913.063256394594
 31
0.0
  0
LINE
  5
450
330
1F
100
AcDbEntity
  8
1-7_金物
  6
Continuous
 62
     7
370
     9
100
AcDbLine
 10
482.2066449036086
 20
-1928.063256394594
 30
0.0
 11
414.7066449036146
 21
-1928.063256394594
 31
0.0
  0
LINE
  5
451
330
1F
100
AcDbEntity
  8
1-7_金物
  6
Continuous
 62
     7
370
     9
100
AcDbLine
 10
482.2066449036086
 20
-2198.063256394591
 30
0.0
 11
542.2066449036095
 21
-2198.063256394591
 31
0.0
  0
LINE
  5
452
330
1F
100
AcDbEntity
  8
1-7_金物
  6
Continuous
 62
     7
370
     9
100
AcDbLine
 10
542.2066449036095
 20
-2183.063256394594
 30
0.0
 11
542.2066449036095
 21
-2198.063256394591
 31
0.0
  0
LINE
  5
453
330
1F
100
AcDbEntity
  8
1-7_金物
  6
Continuous
 62
     7
370
     9
100
AcDbLine
 10
497.206644903612
 20
-2183.063256394594
 30
0.0
 11
542.2066449036095
 21
-2183.063256394594
 31
0.0
  0
LINE
  5
454
330
1F
100
AcDbEntity
  8
1-7_金物
  6
Continuous
 62
    92
370
    13
100
AcDbLine
 10
200.9566449036086
 20
-2265.563256394591
 30
0.0
 11
200.9566449036086
 21
-2310.563256394591
 31
0.0
  0
LINE
  5
455
330
1F
100
AcDbEntity
  8
1-7_金物
  6
Continuous
 62
    92
370
    13
100
AcDbLine
 10
200.9566449036086
 20
-2265.563256394591
 30
0.0
 11
425.9566449036325
 21
-2265.563256394591
 31
0.0
  0
LINE
  5
456
330
1F
100
AcDbEntity
  8
1-7_金物
  6
Continuous
 62
    92
370
    13
100
AcDbLine
 10
425.9566449036325
 20
-2010.563256394591
 30
0.0
 11
470.9566449036316
 21
-2010.563256394591
 31
0.0
  0
LINE
  5
457
330
1F
100
AcDbEntity
  8
1-7_金物
  6
Continuous
 62
    92
370
    13
100
AcDbLine
 10
425.9566449036325
 20
-2010.563256394591
 30
0.0
 11
425.9566449036325
 21
-2265.563256394591
 31
0.0
  0
LINE
  5
458
330
1F
100
AcDbEntity
  8
1-7_金物
  6
Continuous
 62
    92
370
    13
100
AcDbLine
 10
425.9566449036325
 20
-2310.563256394591
 30
0.0
 11
200.9566449036086
 21
-2310.563256394591
 31
0.0
  0
LINE
  5
459
330
1F
100
AcDbEntity
  8
1-7_金物
  6
Continuous
 62
    92
370
    13
100
AcDbLine
 10
470.9566449036316
 20
-2265.563256394591
 30
0.0
 11
470.9566449036316
 21
-2010.563256394591
 31
0.0
  0
ARC
  5
45A
330
1F
100
AcDbEntity
  8
1-7_金物
  6
Continuous
 62
    92
370
    13
100
AcDbCircle
 10
425.9566449036325
 20
-2265.563256394591
 30
0.0
 40
45.0
100
AcDbArc
 50
270.0
 51
0.0
  0
LINE
  5
45B
330
1F
100
AcDbEntity
  8
1-6_扉
  6
JWW_DASHED2
 62
     7
370
     9
100
AcDbLine
 10
399.7002505173427
 20
-2183.06325639459
 30
0.0
 11
223.4544848313143
 21
-2183.06325639459
 31
0.0
  0
LINE
  5
45C
330
1F
100
AcDbEntity
  8
1-6_扉
  6
JWW_DASHED2
 62
     7
370
     9
100
AcDbLine
 10
497.2023247589885
 20
-2183.06325639459
 30
0.0
 11
673.4544848313144
 21
-2183.06325639459
 31
0.0
  0
LINE
  5
45D
330
1F
100
AcDbEntity
  8
1-A_文字
  6
Continuous
 62
     7
370
     9
100
AcDbLine
 10
39.00107929313606
 20
-2626.880339152267
 30
0.0
 11
-35.99892070686394
 21
-2626.880339152267
 31
0.0
  0
LINE
  5
45E
330
1F
100
AcDbEntity
  8
1-A_文字
  6
Continuous
 62
     7
370
     9
100
AcDbLine
 10
232.7521008588019
 20
-2291.293725782161
 30
0.0
 11
39.00107929313606
 21
-2626.880339152267
 31
0.0
  0
LINE
  5
45F
330
1F
100
AcDbEntity
  8
1-B_寸法
  6
Continuous
 62
   120
370
     5
100
AcDbLine
 10
470.9566449036325
 20
-1688.063256394591
 30
0.0
 11
200.9566449036086
 21
-1688.063256394591
 31
0.0
  0
LWPOLYLINE
  5
460
330
1F
100
AcDbEntity
  8
1-B_寸法
  6
Continuous
 62
     7
370
     9
100
AcDbPolyline
 90
        4
 70
     1
 43
3.0
 10
472.4566449036325
 20
-1688.063256394591
 42
0.4142135623731
 10
470.9566449036325
 20
-1686.563256394591
 42
0.4142135623731
 10
469.4566449036325
 20
-1688.063256394591
 42
0.4142135623731
 10
470.9566449036325
 20
-1689.563256394591
 42
0.4142135623731
  0
LWPOLYLINE
  5
461
330
1F
100
AcDbEntity
  8
1-B_寸法
  6
Continuous
 62
     7
370
     9
100
AcDbPolyline
 90
        4
 70
     1
 43
3.0
 10
202.4566449036086
 20
-1688.063256394591
 42
0.4142135623731
 10
200.9566449036086
 20
-1686.563256394591
 42
0.4142135623731
 10
199.4566449036086
 20
-1688.063256394591
 42
0.4142135623731
 10
200.9566449036086
 20
-1689.563256394591
 42
0.4142135623731
  0
LINE
  5
462
330
1F
100
AcDbEntity
  8
1-B_寸法
  6
Continuous
 62
   120
370
     5
100
AcDbLine
 10
470.9566449036325
 20
-1688.063256394591
 30
0.0
 11
470.9566449036325
 21
-1838.063256394591
 31
0.0
  0
LINE
  5
463
330
1F
100
AcDbEntity
  8
1-B_寸法
  6
Continuous
 62
   120
370
     5
100
AcDbLine
 10
200.9566449036086
 20
-1688.063256394591
 30
0.0
 11
200.9566449036086
 21
-1838.063256394591
 31
0.0
  0
LINE
  5
464
330
1F
100
AcDbEntity
  8
1-B_寸法
  6
Continuous
 62
   120
370
     5
100
AcDbLine
 10
200.9566449036086
 20
-1688.063256394591
 30
0.0
 11
125.9544848313126
 21
-1688.063256394591
 31
0.0
  0
LWPOLYLINE
  5
465
330
1F
100
AcDbEntity
  8
1-B_寸法
  6
Continuous
 62
     7
370
     9
100
AcDbPolyline
 90
        4
 70
     1
 43
3.0
 10
127.4544848313126
 20
-1688.063256394591
 42
0.4142135623731
 10
125.9544848313126
 20
-1686.563256394591
 42
0.4142135623731
 10
124.4544848313126
 20
-1688.063256394591
 42
0.4142135623731
 10
125.9544848313126
 20
-1689.563256394591
 42
0.4142135623731
  0
LINE
  5
466
330
1F
100
AcDbEntity
  8
1-B_寸法
  6
Continuous
 62
   120
370
     5
100
AcDbLine
 10
125.9544848313126
 20
-1688.063256394591
 30
0.0
 11
125.9544848313126
 21
-1838.063256394591
 31
0.0
  0
LINE
  5
467
330
1F
100
AcDbEntity
  8
1-0_補助線
  6
JWW_HOJO
 62
   120
370
     5
100
AcDbLine
 10
748.4544848312887
 20
-1838.063256394591
 30
0.0
 11
748.4544848312887
 21
-2490.562740713283
 31
0.0
  0
LINE
  5
468
330
1F
100
AcDbEntity
  8
1-0_補助線
  6
JWW_HOJO
 62
   120
370
     5
100
AcDbLine
 10
572.2044848312853
 20
-1838.063256394591
 30
0.0
 11
572.2044848312853
 21
-2490.562740713283
 31
0.0
  0
LINE
  5
469
330
1F
100
AcDbEntity
  8
1-0_補助線
  6
JWW_HOJO
 62
   120
370
     5
100
AcDbLine
 10
223.454484831357
 20
-1838.063256394591
 30
0.0
 11
223.454484831357
 21
-2490.562740713283
 31
0.0
  0
LINE
  5
46A
330
1F
100
AcDbEntity
  8
1-0_補助線
  6
JWW_HOJO
 62
   120
370
     5
100
AcDbLine
 10
47.20448483131264
 20
-1838.063256394591
 30
0.0
 11
47.20448483131264
 21
-2490.562740713283
 31
0.0
  0
LINE
  5
46B
330
1F
100
AcDbEntity
  8
1-0_補助線
  6
JWW_HOJO
 62
   120
370
     5
100
AcDbLine
 10
748.4544848312887
 20
-1838.063256394591
 30
0.0
 11
47.20448483131264
 21
-1838.063256394591
 31
0.0
  0
LWPOLYLINE
  5
46C
330
1F
100
AcDbEntity
  8
1-B_寸法
  6
Continuous
 62
     7
370
     9
100
AcDbPolyline
 90
        4
 70
     1
 43
3.0
 10
-44.47355177434537
 20
-2310.563256394591
 42
0.4142135623731
 10
-45.97355177434537
 20
-2309.063256394591
 42
0.4142135623731
 10
-47.47355177434537
 20
-2310.563256394591
 42
0.4142135623731
 10
-45.97355177434537
 20
-2312.063256394591
 42
0.4142135623731
  0
LINE
  5
46D
330
1F
100
AcDbEntity
  8
1-B_寸法
  6
Continuous
 62
   120
370
     5
100
AcDbLine
 10
-45.97355177434537
 20
-2310.563256394591
 30
0.0
 11
47.20448483131264
 21
-2310.563256394591
 31
0.0
  0
LINE
  5
46E
330
1F
100
AcDbEntity
  8
1-B_寸法
  6
Continuous
 62
   120
370
     5
100
AcDbLine
 10
-45.97355177434537
 20
-2310.563256394591
 30
0.0
 11
-45.97355177434537
 21
-2010.563256394591
 31
0.0
  0
LWPOLYLINE
  5
46F
330
1F
100
AcDbEntity
  8
1-B_寸法
  6
Continuous
 62
     7
370
     9
100
AcDbPolyline
 90
        4
 70
     1
 43
3.0
 10
-44.47355177434537
 20
-2010.563256394591
 42
0.4142135623731
 10
-45.97355177434537
 20
-2009.063256394591
 42
0.4142135623731
 10
-47.47355177434537
 20
-2010.563256394591
 42
0.4142135623731
 10
-45.97355177434537
 20
-2012.063256394591
 42
0.4142135623731
  0
LINE
  5
470
330
1F
100
AcDbEntity
  8
1-B_寸法
  6
Continuous
 62
   120
370
     5
100
AcDbLine
 10
-45.97355177434537
 20
-2010.563256394591
 30
0.0
 11
47.20448483131264
 21
-2010.563256394591
 31
0.0
  0
LINE
  5
471
330
1F
100
AcDbEntity
  8
1-B_寸法
  6
Continuous
 62
   120
370
     5
100
AcDbLine
 10
-204.4705783350159
 20
-2183.06325639459
 30
0.0
 11
-204.4705783350159
 21
-1913.063256394591
 31
0.0
  0
LWPOLYLINE
  5
472
330
1F
100
AcDbEntity
  8
1-B_寸法
  6
Continuous
 62
     7
370
     9
100
AcDbPolyline
 90
        4
 70
     1
 43
3.0
 10
-202.9705783350159
 20
-2183.06325639459
 42
0.4142135623731
 10
-204.4705783350159
 20
-2181.56325639459
 42
0.4142135623731
 10
-205.9705783350159
 20
-2183.06325639459
 42
0.4142135623731
 10
-204.4705783350159
 20
-2184.56325639459
 42
0.4142135623731
  0
LWPOLYLINE
  5
473
330
1F
100
AcDbEntity
  8
1-B_寸法
  6
Continuous
 62
     7
370
     9
100
AcDbPolyline
 90
        4
 70
     1
 43
3.0
 10
-202.9705783350159
 20
-1913.063256394591
 42
0.4142135623731
 10
-204.4705783350159
 20
-1911.563256394591
 42
0.4142135623731
 10
-205.9705783350159
 20
-1913.063256394591
 42
0.4142135623731
 10
-204.4705783350159
 20
-1914.563256394591
 42
0.4142135623731
  0
LINE
  5
474
330
1F
100
AcDbEntity
  8
1-B_寸法
  6
Continuous
 62
   120
370
     5
100
AcDbLine
 10
-204.4705783350159
 20
-1913.063256394591
 30
0.0
 11
47.20448483131264
 21
-1913.063256394591
 31
0.0
  0
LINE
  5
475
330
1F
100
AcDbEntity
  8
1-B_寸法
  6
Continuous
 62
   120
370
     5
100
AcDbLine
 10
-204.4705783350159
 20
-2183.06325639459
 30
0.0
 11
-61.79170978260601
 21
-2183.06325639459
 31
0.0
  0
MTEXT
  5
476
330
1F
100
AcDbEntity
  8
0-A_文字
  6
Continuous
 62
     7
370
     9
100
AcDbMText
 10
-766.5455151686874
 20
-177.1876510156365
 30
0.0
 40
91.44000000000001
 41
1860.0
 46
0.0
 71
     7
 72
     1
  1
{\fＭＳ ゴシック|b0|i0|c128|p49;振れ止め金具取り付け位置　S=1/2}
 73
     1
 44
1.0
  0
MTEXT
  5
477
330
1F
100
AcDbEntity
  8
1-A_文字
  6
Continuous
 62
     7
370
     9
100
AcDbMText
 10
-76.54551516868736
 20
-491.3011085251283
 30
0.0
 40
91.44
 41
480.0
 46
0.0
 71
     7
 72
     1
  1
{\fＭＳ ゴシック|b0|i0|c128|p49;センター}
 73
     1
 44
1.0
  0
MTEXT
  5
478
330
1F
100
AcDbEntity
  8
1-A_文字
  6
Continuous
 62
     7
370
     9
100
AcDbMText
 10
-552.7955151686874
 20
-1140.256284547258
 30
0.0
 40
91.44
 41
360.0
 46
0.0
 71
     7
 72
     1
  1
{\f@ＭＳ ゴシック|b0|i0|c128|p49;中方立}
 11
-1.836909530733566E-16
 21
-1.0
 31
0.0
 73
     1
 44
1.0
  0
MTEXT
  5
479
330
1F
100
AcDbEntity
  8
1-A_文字
  6
Continuous
 62
     7
370
     9
100
AcDbMText
 10
403.4544848313126
 20
-1140.256284547258
 30
0.0
 40
91.44
 41
360.0
 46
0.0
 71
     7
 72
     1
  1
{\f@ＭＳ ゴシック|b0|i0|c128|p49;引き戸}
 11
-1.836909530733566E-16
 21
-1.0
 31
0.0
 73
     1
 44
1.0
  0
MTEXT
  5
47A
330
1F
100
AcDbEntity
  8
1-A_文字
  6
Continuous
 62
     7
370
     9
100
AcDbMText
 10
-999.0455151686874
 20
-2474.843256394593
 30
0.0
 40
91.44
 41
480.0
 46
0.0
 71
     7
 72
     1
  1
{\fＭＳ ゴシック|b0|i0|c128|p49;フロアー}
 73
     1
 44
1.0
  0
MTEXT
  5
47B
330
1F
100
AcDbEntity
  8
1-A_文字
  6
Continuous
 62
     7
370
     9
100
AcDbMText
 10
-755.9989207068639
 20
-2701.160339152267
 30
0.0
 40
91.44
 41
720.0
 46
0.0
 71
     7
 72
     1
  1
{\fＭＳ ゴシック|b0|i0|c128|p49;振れ止め金具}
 73
     1
 44
1.0
  0
MTEXT
  5
47C
330
1F
100
AcDbEntity
  8
1-B_寸法
  6
Continuous
 62
     7
370
   211
100
AcDbMText
 10
73.45448483131264
 20
-717.6763451407062
 30
0.0
 40
91.44
 41
180.0
 46
0.0
 71
     7
 72
     1
  1
{\fＭＳ ゴシック|b0|i0|c128|p49;170}
 73
     1
 44
1.0
  0
MTEXT
  5
47D
330
1F
100
AcDbEntity
  8
1-B_寸法
  6
Continuous
 62
     7
370
   211
100
AcDbMText
 10
-612.7955151686874
 20
-897.6763451407062
 30
0.0
 40
91.44
 41
240.0
 46
0.0
 71
     7
 72
     1
  1
{\fＭＳ ゴシック|b0|i0|c128|p49;82.5}
 73
     1
 44
1.0
  0
MTEXT
  5
47E
330
1F
100
AcDbEntity
  8
1-B_寸法
  6
Continuous
 62
     7
370
   211
100
AcDbMText
 10
237.0953209293997
 20
-897.6763451407062
 30
0.0
 40
91.44
 41
180.0
 46
0.0
 71
     7
 72
     1
  1
{\fＭＳ ゴシック|b0|i0|c128|p49;6.5}
 73
     1
 44
1.0
  0
MTEXT
  5
47F
330
1F
100
AcDbEntity
  8
1-B_寸法
  6
Continuous
 62
     7
370
   211
100
AcDbMText
 10
133.4555648674606
 20
-1687.343256394591
 30
0.0
 40
91.44
 41
60.0
 46
0.0
 71
     7
 72
     1
  1
{\fＭＳ ゴシック|b0|i0|c128|p49;5}
 73
     1
 44
1.0
  0
MTEXT
  5
480
330
1F
100
AcDbEntity
  8
1-B_寸法
  6
Continuous
 62
     7
370
   211
100
AcDbMText
 10
272.2066449036205
 20
-1684.48575639459
 30
0.0
 40
97.15499999999999
 41
127.5
 46
0.0
 71
     7
 72
     1
  1
{\fＭＳ ゴシック|b0|i0|c128|p49;18}
 73
     1
 44
1.0
  0
MTEXT
  5
481
330
1F
100
AcDbEntity
  8
1-B_寸法
  6
Continuous
 62
     7
370
   211
100
AcDbMText
 10
-219.4705783350159
 20
-2122.343256394591
 30
0.0
 40
91.44
 41
120.0
 46
0.0
 71
     7
 72
     1
  1
{\fＭＳ ゴシック|b0|i0|c128|p49;18}
 11
6.123031769111886E-17
 21
1.0
 31
0.0
 73
     1
 44
1.0
  0
MTEXT
  5
482
330
1F
100
AcDbEntity
  8
1-B_寸法
  6
Continuous
 62
     7
370
   211
100
AcDbMText
 10
-60.97355177434537
 20
-2177.244319783003
 30
0.0
 40
91.44
 41
120.0
 46
0.0
 71
     7
 72
     1
  1
{\fＭＳ ゴシック|b0|i0|c128|p49;20}
 11
6.123031769111886E-17
 21
1.0
 31
0.0
 73
     1
 44
1.0
  0
MTEXT
  5
483
330
1F
100
AcDbEntity
  8
1-B_寸法
  6
Continuous
 62
     7
370
   211
100
AcDbMText
 10
1033.454484831292
 20
-2184.132374659569
 30
0.0
 40
91.44
 41
180.0
 46
0.0
 71
     7
 72
     1
  1
{\fＭＳ ゴシック|b0|i0|c128|p49;8.5}
 11
6.123031769111886E-17
 21
1.0
 31
0.0
 73
     1
 44
1.0
  0
MTEXT
  5
484
330
1F
100
AcDbEntity
  8
1-B_寸法
  6
Continuous
 62
     7
370
   211
100
AcDbMText
 10
883.4544848312921
 20
-2186.283817353415
 30
0.0
 40
91.44
 41
180.0
 46
0.0
 71
     7
 72
     1
  1
{\fＭＳ ゴシック|b0|i0|c128|p49;5.5}
 11
6.123031769111886E-17
 21
1.0
 31
0.0
 73
     1
 44
1.0
  0
MTEXT
  5
485
330
1F
100
AcDbEntity
  8
1-B_寸法
  6
Continuous
 62
     7
370
   211
100
AcDbMText
 10
883.4544848312921
 20
-2332.343256394598
 30
0.0
 40
91.44
 41
60.0
 46
0.0
 71
     7
 72
     1
  1
{\fＭＳ ゴシック|b0|i0|c128|p49;3}
 11
6.123031769111886E-17
 21
1.0
 31
0.0
 73
     1
 44
1.0
  0
MTEXT
  5
486
330
1F
100
AcDbEntity
  8
1-B_寸法
  6
Continuous
 62
     7
370
   211
100
AcDbMText
 10
1033.454484831292
 20
-2474.843256394598
 30
0.0
 40
91.44
 41
120.0
 46
0.0
 71
     7
 72
     1
  1
{\fＭＳ ゴシック|b0|i0|c128|p49;12}
 11
6.123031769111886E-17
 21
1.0
 31
0.0
 73
     1
 44
1.0
  0
LINE
  5
487
330
1F
100
AcDbEntity
  8
1-4_枠
  6
JWW_CENTER1
 62
   120
370
     5
100
AcDbLine
 10
4056.338204586542
 20
-3052.582876764919
 30
0.0
 11
2816.113888670021
 21
-3052.582876764919
 31
0.0
  0
LINE
  5
488
330
1F
100
AcDbEntity
  8
1-4_枠
  6
Continuous
 62
    92
370
    13
100
AcDbLine
 10
4056.338204586542
 20
-3277.582876764919
 30
0.0
 11
3216.338204586542
 21
-3277.582876764919
 31
0.0
  0
LINE
  5
489
330
1F
100
AcDbEntity
  8
1-4_枠
  6
Continuous
 62
    92
370
    13
100
AcDbLine
 10
3216.338204586542
 20
-2827.582876764917
 30
0.0
 11
4056.338204586542
 21
-2827.582876764917
 31
0.0
  0
LINE
  5
48A
330
1F
100
AcDbEntity
  8
0-A_文字
  6
Continuous
 62
   120
370
     5
100
AcDbLine
 10
3196.124832997965
 20
-2742.951376264494
 30
0.0
 11
3964.05104159406
 21
-2742.951376264494
 31
0.0
  0
LINE
  5
48B
330
1F
100
AcDbEntity
  8
0-A_文字
  6
Continuous
 62
   120
370
     5
100
AcDbLine
 10
3068.781516303564
 20
-2931.154385639766
 30
0.0
 11
3196.124832997965
 21
-2742.951376264494
 31
0.0
  0
LINE
  5
48C
330
1F
100
AcDbEntity
  8
0-6_扉
  6
Continuous
 62
     7
370
     9
100
AcDbLine
 10
2513.093398953587
 20
-970.3363357675216
 30
0.0
 11
2718.854313800015
 21
-1089.13245534281
 31
0.0
  0
LINE
  5
48D
330
1F
100
AcDbEntity
  8
0-6_扉
  6
Continuous
 62
     7
370
     9
100
AcDbLine
 10
2941.085747049402
 20
-1217.437833151741
 30
0.0
 11
3031.178170582064
 21
-1269.45271813027
 31
0.0
  0
LINE
  5
48E
330
1F
100
AcDbEntity
  8
0-6_扉
  6
Continuous
 62
    40
370
    15
100
AcDbLine
 10
3236.897571274249
 20
-598.5357001200861
 30
0.0
 11
3236.897571274249
 21
-1273.268156457655
 31
0.0
  0
LINE
  5
48F
330
1F
100
AcDbEntity
  8
0-6_扉
  6
Continuous
 62
    40
370
    15
100
AcDbLine
 10
3263.414075568743
 20
-598.5357001200861
 30
0.0
 11
3263.414075568743
 21
-1464.771423959394
 31
0.0
  0
LINE
  5
490
330
1F
100
AcDbEntity
  8
0-6_扉
  6
Continuous
 62
    40
370
    15
100
AcDbLine
 10
3364.176791887822
 20
-598.5357001200861
 30
0.0
 11
3364.176791887822
 21
-1553.565427135283
 31
0.0
  0
LINE
  5
491
330
1F
100
AcDbEntity
  8
0-6_扉
  6
Continuous
 62
    40
370
    15
100
AcDbLine
 10
3459.636207348015
 20
-598.5357001200861
 30
0.0
 11
3459.636207348015
 21
-1608.678946347908
 31
0.0
  0
LINE
  5
492
330
1F
100
AcDbEntity
  8
0-6_扉
  6
Continuous
 62
    40
370
    15
100
AcDbLine
 10
4032.392700109113
 20
-598.5357001200861
 30
0.0
 11
4032.392700109113
 21
-1277.997831072181
 31
0.0
  0
LINE
  5
493
330
1F
100
AcDbEntity
  8
0-6_扉
  6
Continuous
 62
    40
370
    15
100
AcDbLine
 10
3141.438155814066
 20
-598.5357001200861
 30
0.0
 11
3141.438155814066
 21
-1424.96721563917
 31
0.0
  0
LINE
  5
494
330
1F
100
AcDbEntity
  8
0-6_扉
  6
Continuous
 62
    40
370
    15
100
AcDbLine
 10
3236.897571274249
 20
-1480.080734851788
 30
0.0
 11
3232.771357994255
 21
-1477.698464503852
 31
0.0
  0
LINE
  5
495
330
1F
100
AcDbEntity
  8
0-6_扉
  6
Continuous
 62
    40
370
    15
100
AcDbLine
 10
3228.424394124678
 20
-1475.188743743593
 30
0.0
 11
3141.438155814066
 21
-1424.96721563917
 31
0.0
  0
LINE
  5
496
330
1F
100
AcDbEntity
  8
0-6_扉
  6
Continuous
 62
    40
370
    15
100
AcDbLine
 10
3236.897571274249
 20
-1420.674084064277
 30
0.0
 11
3236.897571274249
 21
-1480.080734851788
 31
0.0
  0
LINE
  5
497
330
1F
100
AcDbEntity
  8
0-6_扉
  6
Continuous
 62
     7
370
     9
100
AcDbLine
 10
3047.713718717413
 20
-1278.99952129741
 30
0.0
 11
3141.438155814066
 21
-1333.11135028481
 31
0.0
  0
LINE
  5
498
330
1F
100
AcDbEntity
  8
0-B_寸法
  6
JWW_CENTER1
 62
   120
370
     5
100
AcDbLine
 10
3373.870132728012
 20
-1658.196012617103
 30
0.0
 11
3550.251224601117
 21
-1760.02968349
 31
0.0
  0
LINE
  5
499
330
1F
100
AcDbEntity
  8
0-B_寸法
  6
JWW_CENTER1
 62
   120
370
     5
100
AcDbLine
 10
3327.0536978603
 20
-1501.513777020553
 30
0.0
 11
2915.627810858886
 21
-1739.050623632399
 31
0.0
  0
LINE
  5
49A
330
1F
100
AcDbEntity
  8
0-B_寸法
  6
Continuous
 62
   120
370
     5
100
AcDbLine
 10
2802.923931021033
 20
-1804.120225156677
 30
0.0
 11
2902.785908479817
 21
-1746.46488558904
 31
0.0
  0
LWPOLYLINE
  5
49B
330
1F
100
AcDbEntity
  8
0-B_寸法
  6
Continuous
 62
     7
370
     9
100
AcDbPolyline
 90
        4
 70
     1
 43
3.0
 10
2804.423931021033
 20
-1804.120225156677
 42
0.4142135623731
 10
2802.923931021033
 20
-1802.620225156677
 42
0.4142135623731
 10
2801.423931021033
 20
-1804.120225156677
 42
0.4142135623731
 10
2802.923931021033
 20
-1805.620225156677
 42
0.4142135623731
  0
LINE
  5
49C
330
1F
100
AcDbEntity
  8
0-B_寸法
  6
Continuous
 62
   120
370
     5
100
AcDbLine
 10
2802.923931021033
 20
-1804.120225156677
 30
0.0
 11
2962.023025982615
 21
-1895.976130460572
 31
0.0
  0
ELLIPSE
  5
49D
330
1F
100
AcDbEntity
  8
0-7_金物
  6
Continuous
 62
     7
370
     9
100
AcDbEllipse
 10
2992.561287574991
 20
-1372.030519629041
 30
0.0
 11
3.839167031409308
 21
6.442887280167158
 31
0.0
210
0.0
220
0.0
230
0.9999999999999998
 40
0.6634139481689362
 41
6.22960553505472
 42
7.015003698451609
  0
ELLIPSE
  5
49E
330
1F
100
AcDbEntity
  8
0-7_金物
  6
Continuous
 62
     7
370
     9
100
AcDbEllipse
 10
2998.30662089838
 20
-1583.961353529365
 30
0.0
 11
23.03500218845609
 21
38.65732368100281
 31
0.0
210
0.0
220
0.0
230
1.0
 40
0.6634139481689381
 41
2.302614718066926
 42
3.088012881464371
  0
LINE
  5
49F
330
1F
100
AcDbEntity
  8
0-7_金物
  6
Continuous
 62
     7
370
     9
100
AcDbLine
 10
3114.008390641956
 20
-1691.876496580373
 30
0.0
 11
3114.008390641956
 21
-1438.564065973424
 31
0.0
  0
LINE
  5
4A0
330
1F
100
AcDbEntity
  8
0-7_金物
  6
Continuous
 62
     7
370
     9
100
AcDbLine
 10
3079.536390701606
 20
-1453.026787191371
 30
0.0
 11
2963.834620958026
 21
-1384.082787310664
 31
0.0
  0
LINE
  5
4A1
330
1F
100
AcDbEntity
  8
0-7_金物
  6
Continuous
 62
     7
370
     9
100
AcDbLine
 10
3079.732158187295
 20
-1451.263573968538
 30
0.0
 11
2964.030388443715
 21
-1382.31957408783
 31
0.0
  0
LINE
  5
4A2
330
1F
100
AcDbEntity
  8
0-7_金物
  6
Continuous
 62
     7
370
     9
100
AcDbLine
 10
3080.306119413732
 20
-1449.456252387954
 30
0.0
 11
2964.604349670152
 21
-1380.512252507246
 31
0.0
  0
LINE
  5
4A3
330
1F
100
AcDbEntity
  8
0-7_金物
  6
Continuous
 62
     7
370
     9
100
AcDbLine
 10
3081.219159871848
 20
-1447.727988428599
 30
0.0
 11
2965.517390128271
 21
-1378.78398854789
 31
0.0
  0
LINE
  5
4A4
330
1F
100
AcDbEntity
  8
0-7_金物
  6
Continuous
 62
     7
370
     9
100
AcDbLine
 10
3082.409057363301
 20
-1446.196560423209
 30
0.0
 11
2966.707287619721
 21
-1377.252560542501
 31
0.0
  0
LINE
  5
4A5
330
1F
100
AcDbEntity
  8
0-7_金物
  6
Continuous
 62
     7
370
     9
100
AcDbLine
 10
3083.794722340439
 20
-1444.966332659549
 30
0.0
 11
2968.092952596862
 21
-1376.022332778841
 31
0.0
  0
LINE
  5
4A6
330
1F
100
AcDbEntity
  8
0-7_金物
  6
Continuous
 62
     7
370
     9
100
AcDbLine
 10
3085.281724024995
 20
-1444.121143126663
 30
0.0
 11
2969.579954281422
 21
-1375.177143245955
 31
0.0
  0
ELLIPSE
  5
4A7
330
1F
100
AcDbEntity
  8
0-7_金物
  6
Continuous
 62
     7
370
     9
100
AcDbEllipse
 10
2969.579954281422
 20
-1381.672333774339
 30
0.0
 11
3.839167031409303
 21
6.442887280167151
 31
0.0
210
0.0
220
0.0
230
0.9999999999999999
 40
0.6634139481689377
 41
0.7318183912720223
 42
2.302614718066919
  0
ELLIPSE
  5
4A8
330
1F
100
AcDbEntity
  8
0-7_金物
  6
Continuous
 62
     7
370
     9
100
AcDbEllipse
 10
3085.281724024995
 20
-1450.616333655047
 30
0.0
 11
3.839167031409386
 21
6.442887280167133
 31
0.0
210
0.0
220
0.0
230
1.0
 40
0.6634139481689393
 41
0.7318183912720424
 42
2.302614718066939
  0
LINE
  5
4A9
330
1F
100
AcDbEntity
  8
0-7_金物
  6
Continuous
 62
     7
370
     9
100
AcDbLine
 10
3079.536390701606
 20
-1667.36807462802
 30
0.0
 11
2963.834620958026
 21
-1598.424074747312
 31
0.0
  0
LINE
  5
4AA
330
1F
100
AcDbEntity
  8
0-7_金物
  6
Continuous
 62
     7
370
     9
100
AcDbLine
 10
3079.536390701606
 20
-1453.026787191371
 30
0.0
 11
3079.536390701606
 21
-1667.36807462802
 31
0.0
  0
LINE
  5
4AB
330
1F
100
AcDbEntity
  8
0-7_金物
  6
Continuous
 62
     7
370
     9
100
AcDbLine
 10
2963.834620958026
 20
-1384.082787310664
 30
0.0
 11
2963.834620958026
 21
-1598.424074747312
 31
0.0
  0
LINE
  5
4AC
330
1F
100
AcDbEntity
  8
0-7_金物
  6
Continuous
 62
     7
370
     9
100
AcDbLine
 10
3108.263057318564
 20
-1434.479328981365
 30
0.0
 11
2992.561287574991
 21
-1365.535329100658
 31
0.0
  0
LINE
  5
4AD
330
1F
100
AcDbEntity
  8
0-7_金物
  6
Continuous
 62
     7
370
     9
100
AcDbLine
 10
3085.281724024995
 20
-1444.121143126663
 30
0.0
 11
3108.263057318564
 21
-1434.479328981365
 31
0.0
  0
LINE
  5
4AE
330
1F
100
AcDbEntity
  8
0-7_金物
  6
Continuous
 62
     7
370
     9
100
AcDbLine
 10
2969.579954281422
 20
-1375.177143245955
 30
0.0
 11
2992.561287574991
 21
-1365.535329100658
 31
0.0
  0
LINE
  5
4AF
330
1F
100
AcDbEntity
  8
0-7_金物
  6
Continuous
 62
     7
370
     9
100
AcDbLine
 10
3109.750059003121
 20
-1434.076775949179
 30
0.0
 11
2994.048289259544
 21
-1365.132776068472
 31
0.0
  0
LINE
  5
4B0
330
1F
100
AcDbEntity
  8
0-7_金物
  6
Continuous
 62
     7
370
     9
100
AcDbLine
 10
3111.135723980266
 20
-1434.144292741586
 30
0.0
 11
2995.433954236682
 21
-1365.200292860878
 31
0.0
  0
LINE
  5
4B1
330
1F
100
AcDbEntity
  8
0-7_金物
  6
Continuous
 62
     7
370
     9
100
AcDbLine
 10
3112.325621471715
 20
-1434.67727820076
 30
0.0
 11
2996.623851728135
 21
-1365.733278320052
 31
0.0
  0
ELLIPSE
  5
4B2
330
1F
100
AcDbEntity
  8
0-7_金物
  6
Continuous
 62
     7
370
     9
100
AcDbEllipse
 10
3108.263057318564
 20
-1440.974519509748
 30
0.0
 11
3.839167031409386
 21
6.442887280167132
 31
0.0
210
0.0
220
0.0
230
1.0
 40
0.6634139481689387
 41
5.444207371656721
 42
7.015003698451618
  0
LINE
  5
4B3
330
1F
100
AcDbEntity
  8
0-7_金物
  6
Continuous
 62
     7
370
     9
100
AcDbLine
 10
3089.63300572307
 20
-1690.688801264004
 30
0.0
 11
2973.931235979494
 21
-1621.744801383296
 31
0.0
  0
LINE
  5
4B4
330
1F
100
AcDbEntity
  8
0-7_金物
  6
Continuous
 62
     7
370
     9
100
AcDbLine
 10
3084.154762974359
 20
-1684.916008977816
 30
0.0
 11
2968.452993230779
 21
-1615.972009097109
 31
0.0
  0
ELLIPSE
  5
4B5
330
1F
100
AcDbEntity
  8
0-7_金物
  6
Continuous
 62
     7
370
     9
100
AcDbEllipse
 10
3114.008390641956
 20
-1652.905353410073
 30
0.0
 11
23.03500218845613
 21
38.65732368100281
 31
0.0
210
0.0
220
0.0
230
0.9999999999999998
 40
0.6634139481689386
 41
2.302614718066926
 42
3.873411044861822
  0
LINE
  5
4B6
330
1F
100
AcDbEntity
  8
0-7_金物
  6
Continuous
 62
     7
370
     9
100
AcDbLine
 10
3080.710995615737
 20
-1676.961743414797
 30
0.0
 11
2965.009225872157
 21
-1608.017743534089
 31
0.0
  0
LINE
  5
4B7
330
1F
100
AcDbEntity
  8
0-7_金物
  6
Continuous
 62
     7
370
     9
100
AcDbLine
 10
3193.557903525443
 20
-1737.804429257557
 30
0.0
 11
3114.008390641956
 21
-1691.876496580373
 31
0.0
  0
ELLIPSE
  5
4B8
330
1F
100
AcDbEntity
  8
0-7_金物
  6
Continuous
 62
     7
370
     9
100
AcDbEllipse
 10
3214.77110696104
 20
-1676.567185687978
 30
0.0
 11
29.99999999999995
 21
6.661338147750928E-14
 31
0.0
210
0.0
220
0.0
230
1.0
 40
0.5773502691896261
 41
2.356194490192344
 42
2.780225529683081
  0
ELLIPSE
  5
4B9
330
1F
100
AcDbEntity
  8
0-7_金物
  6
Continuous
 62
     7
370
     9
100
AcDbEllipse
 10
3246.59091211444
 20
-1658.196012617103
 30
0.0
 11
30.00000000000003
 21
7.993605777301137E-14
 31
0.0
210
0.0
220
0.0
230
1.0
 40
0.5773502691896266
 41
0.2617993877991396
 42
2.356194490192344
  0
LINE
  5
4BA
330
1F
100
AcDbEntity
  8
0-7_金物
  6
Continuous
 62
     7
370
     9
100
AcDbLine
 10
3257.197513832233
 20
-1664.319736974061
 30
0.0
 11
3289.017318985626
 21
-1645.948563903188
 31
0.0
  0
LINE
  5
4BB
330
1F
100
AcDbEntity
  8
0-7_金物
  6
Continuous
 62
     7
370
     9
100
AcDbLine
 10
3172.344700089846
 20
-1615.329942118398
 30
0.0
 11
3204.164505243243
 21
-1596.958769047525
 31
0.0
  0
LINE
  5
4BC
330
1F
100
AcDbEntity
  8
0-7_金物
  6
Continuous
 62
     7
370
     9
100
AcDbLine
 10
3352.656929292415
 20
-1609.20621776144
 30
0.0
 11
3114.008390641956
 21
-1471.422419729886
 31
0.0
  0
LINE
  5
4BD
330
1F
100
AcDbEntity
  8
0-7_金物
  6
Continuous
 62
     7
370
     9
100
AcDbLine
 10
2917.786258862694
 20
-1517.350352407071
 30
0.0
 11
2963.834620958026
 21
-1490.764318155587
 31
0.0
  0
ELLIPSE
  5
4BE
330
1F
100
AcDbEntity
  8
0-7_金物
  6
Continuous
 62
     7
370
     9
100
AcDbEllipse
 10
3055.672081194067
 20
-1547.968974191861
 30
0.0
 11
60.00000000000006
 21
0.0
 31
0.0
210
0.0
220
0.0
230
1.0
 40
0.5773502691896251
 41
6.047146014440955
 42
6.519224599918218
  0
ELLIPSE
  5
4BF
330
1F
100
AcDbEntity
  8
0-7_金物
  6
Continuous
 62
     7
370
     9
100
AcDbEllipse
 10
3055.672081194067
 20
-1511.226628050113
 30
0.0
 11
60.00000000000006
 21
0.0
 31
0.0
210
0.0
220
0.0
230
1.0
 40
0.5773502691896251
 41
6.047146014440955
 42
6.519224599918218
  0
LINE
  5
4C0
330
1F
100
AcDbEntity
  8
0-7_金物
  6
Continuous
 62
     7
370
     9
100
AcDbLine
 10
2963.834620958026
 20
-1568.431284086387
 30
0.0
 11
2917.786258862694
 21
-1541.845249834903
 31
0.0
  0
LINE
  5
4C1
330
1F
100
AcDbEntity
  8
0-7_金物
  6
Continuous
 62
     7
370
     9
100
AcDbLine
 10
3193.557903525443
 20
-1701.06208311581
 30
0.0
 11
3114.008390641956
 21
-1655.134150438625
 31
0.0
  0
LINE
  5
4C2
330
1F
100
AcDbEntity
  8
0-7_金物
  6
Continuous
 62
     7
370
     9
100
AcDbLine
 10
2964.456597922675
 20
-1605.532728796104
 30
0.0
 11
2917.786258862694
 21
-1578.587595976651
 31
0.0
  0
ELLIPSE
  5
4C3
330
1F
100
AcDbEntity
  8
0-7_金物
  6
Continuous
 62
     7
370
     9
100
AcDbEllipse
 10
3331.443725856819
 20
-1658.196012617103
 30
0.0
 11
-30.00000000000001
 21
3.673819061467133E-15
 31
0.0
210
0.0
220
0.0
230
1.0
 40
0.5773502691896252
 41
2.356194490192344
 42
3.141592653589793
  0
ELLIPSE
  5
4C4
330
1F
100
AcDbEntity
  8
0-7_金物
  6
Continuous
 62
     7
370
     9
100
AcDbEllipse
 10
2938.999462298287
 20
-1566.340147262734
 30
0.0
 11
-30.00000000000001
 21
-1.699649535696902E-14
 31
0.0
210
0.0
220
0.0
230
1.0
 40
0.5773502691896268
 41
0.0
 42
0.7853981633974476
  0
LINE
  5
4C5
330
1F
100
AcDbEntity
  8
0-7_金物
  6
Continuous
 62
     7
370
     9
100
AcDbLine
 10
3225.37770867884
 20
-1645.948563903188
 30
0.0
 11
3193.557903525443
 21
-1664.319736974061
 31
0.0
  0
ELLIPSE
  5
4C6
330
1F
100
AcDbEntity
  8
0-7_金物
  6
Continuous
 62
     7
370
     9
100
AcDbEllipse
 10
3214.77110696104
 20
-1639.824839546229
 30
0.0
 11
59.99999999999998
 21
0.0
 31
0.0
210
0.0
220
0.0
230
1.0
 40
0.5773502691896258
 41
2.356194490192344
 42
5.497787143782136
  0
LINE
  5
4C7
330
1F
100
AcDbEntity
  8
0-7_金物
  6
Continuous
 62
     7
370
     9
100
AcDbLine
 10
3115.672081194067
 20
-1511.226628050113
 30
0.0
 11
3115.672081194067
 21
-1547.968974191861
 31
0.0
  0
ELLIPSE
  5
4C8
330
1F
100
AcDbEntity
  8
0-7_金物
  6
Continuous
 62
     7
370
     9
100
AcDbEllipse
 10
3246.59091211444
 20
-1621.453666475356
 30
0.0
 11
60.00000000000004
 21
0.0
 31
0.0
210
0.0
220
0.0
230
1.0
 40
0.5773502691896252
 41
5.497787143782138
 42
8.63937979737193
  0
LINE
  5
4C9
330
1F
100
AcDbEntity
  8
0-7_金物
  6
Continuous
 62
     7
370
     9
100
AcDbLine
 10
3235.98431039664
 20
-1701.06208311581
 30
0.0
 11
3235.98431039664
 21
-1737.804429257557
 31
0.0
  0
LINE
  5
4CA
330
1F
100
AcDbEntity
  8
0-7_金物
  6
Continuous
 62
     7
370
     9
100
AcDbLine
 10
3352.656929292415
 20
-1633.701115189272
 30
0.0
 11
3352.656929292415
 21
-1670.443461331019
 31
0.0
  0
LINE
  5
4CB
330
1F
100
AcDbEntity
  8
0-7_金物
  6
Continuous
 62
     7
370
     9
100
AcDbLine
 10
3352.656929292415
 20
-1633.701115189272
 30
0.0
 11
3235.98431039664
 21
-1701.06208311581
 31
0.0
  0
LINE
  5
4CC
330
1F
100
AcDbEntity
  8
0-7_金物
  6
Continuous
 62
     7
370
     9
100
AcDbLine
 10
3352.656929292415
 20
-1670.443461331019
 30
0.0
 11
3235.98431039664
 21
-1737.804429257557
 31
0.0
  0
LINE
  5
4CD
330
1F
100
AcDbEntity
  8
0-7_金物
  6
Continuous
 62
     7
370
     9
100
AcDbLine
 10
3361.443725856819
 20
-1621.453666475356
 30
0.0
 11
3361.443725856819
 21
-1658.196012617103
 31
0.0
  0
LINE
  5
4CE
330
1F
100
AcDbEntity
  8
0-7_金物
  6
Continuous
 62
     7
370
     9
100
AcDbLine
 10
3360.421500645492
 20
-1625.936543836197
 30
0.0
 11
3360.421500645492
 21
-1662.678889977944
 31
0.0
  0
LINE
  5
4CF
330
1F
100
AcDbEntity
  8
0-7_金物
  6
Continuous
 62
     7
370
     9
100
AcDbLine
 10
3357.424487970351
 20
-1630.113920513201
 30
0.0
 11
3357.424487970351
 21
-1666.856266654948
 31
0.0
  0
ELLIPSE
  5
4D0
330
1F
100
AcDbEntity
  8
0-7_金物
  6
Continuous
 62
     7
370
     9
100
AcDbEllipse
 10
3331.443725856819
 20
-1621.453666475356
 30
0.0
 11
-30.00000000000001
 21
3.673819061467133E-15
 31
0.0
210
0.0
220
0.0
230
1.0
 40
0.5773502691896252
 41
2.356194490192344
 42
3.92699081698724
  0
LINE
  5
4D1
330
1F
100
AcDbEntity
  8
0-7_金物
  6
Continuous
 62
     7
370
     9
100
AcDbLine
 10
3229.77110696104
 20
-1703.814634401893
 30
0.0
 11
3229.77110696104
 21
-1740.556980543641
 31
0.0
  0
LINE
  5
4D2
330
1F
100
AcDbEntity
  8
0-7_金物
  6
Continuous
 62
     7
370
     9
100
AcDbLine
 10
3222.535678314116
 20
-1705.54496047665
 30
0.0
 11
3222.535678314116
 21
-1742.287306618397
 31
0.0
  0
LINE
  5
4D3
330
1F
100
AcDbEntity
  8
0-7_金物
  6
Continuous
 62
     7
370
     9
100
AcDbLine
 10
3214.77110696104
 20
-1706.135142477582
 30
0.0
 11
3214.77110696104
 21
-1742.87748861933
 31
0.0
  0
LINE
  5
4D4
330
1F
100
AcDbEntity
  8
0-7_金物
  6
Continuous
 62
     7
370
     9
100
AcDbLine
 10
3207.006535607967
 20
-1705.54496047665
 30
0.0
 11
3207.006535607967
 21
-1742.287306618397
 31
0.0
  0
LINE
  5
4D5
330
1F
100
AcDbEntity
  8
0-7_金物
  6
Continuous
 62
     7
370
     9
100
AcDbLine
 10
3199.77110696104
 20
-1703.814634401893
 30
0.0
 11
3199.77110696104
 21
-1740.556980543641
 31
0.0
  0
LINE
  5
4D6
330
1F
100
AcDbEntity
  8
0-7_金物
  6
Continuous
 62
     7
370
     9
100
AcDbLine
 10
3193.557903525443
 20
-1701.06208311581
 30
0.0
 11
3193.557903525443
 21
-1737.804429257557
 31
0.0
  0
ELLIPSE
  5
4D7
330
1F
100
AcDbEntity
  8
0-7_金物
  6
Continuous
 62
     7
370
     9
100
AcDbEllipse
 10
3214.77110696104
 20
-1725.556980543641
 30
0.0
 11
-29.99999999999994
 21
-4.364184794797269E-14
 31
0.0
210
0.0
220
0.0
230
1.0
 40
0.5773502691896277
 41
0.7853981633974488
 42
2.356194490192345
  0
ELLIPSE
  5
4D8
330
1F
100
AcDbEntity
  8
0-7_金物
  6
Continuous
 62
     7
370
     9
100
AcDbEllipse
 10
3214.77110696104
 20
-1688.814634401893
 30
0.0
 11
-29.99999999999994
 21
-4.364184794797269E-14
 31
0.0
210
0.0
220
0.0
230
1.0
 40
0.5773502691896277
 41
0.7853981633974482
 42
2.356194490192345
  0
LINE
  5
4D9
330
1F
100
AcDbEntity
  8
0-7_金物
  6
Continuous
 62
     7
370
     9
100
AcDbLine
 10
2917.786258862694
 20
-1541.845249834903
 30
0.0
 11
2917.786258862694
 21
-1578.587595976651
 31
0.0
  0
LINE
  5
4DA
330
1F
100
AcDbEntity
  8
0-7_金物
  6
Continuous
 62
     7
370
     9
100
AcDbLine
 10
2913.018700184758
 20
-1538.258055158832
 30
0.0
 11
2913.018700184758
 21
-1575.000401300579
 31
0.0
  0
LINE
  5
4DB
330
1F
100
AcDbEntity
  8
0-7_金物
  6
Continuous
 62
     7
370
     9
100
AcDbLine
 10
2910.021687509614
 20
-1534.080678481827
 30
0.0
 11
2910.021687509614
 21
-1570.823024623575
 31
0.0
  0
LINE
  5
4DC
330
1F
100
AcDbEntity
  8
0-7_金物
  6
Continuous
 62
     7
370
     9
100
AcDbLine
 10
2908.999462298287
 20
-1529.597801120987
 30
0.0
 11
2908.999462298287
 21
-1566.340147262734
 31
0.0
  0
ELLIPSE
  5
4DD
330
1F
100
AcDbEntity
  8
0-7_金物
  6
Continuous
 62
     7
370
     9
100
AcDbEllipse
 10
2938.999462298287
 20
-1529.597801120987
 30
0.0
 11
-30.00000000000005
 21
3.673819061467138E-15
 31
0.0
210
0.0
220
0.0
230
1.0
 40
0.5773502691896267
 41
5.497787143782136
 42
7.068583470577034
  0
LINE
  5
4DE
330
1F
100
AcDbEntity
  8
0-7_金物
  6
Continuous
 62
     7
370
     9
100
AcDbLine
 10
3040.245648520769
 20
-1391.726494841569
 30
0.0
 11
3052.727953927552
 21
-1203.31202171668
 31
0.0
  0
LINE
  5
4DF
330
1F
100
AcDbEntity
  8
0-7_金物
  6
Continuous
 62
     7
370
     9
100
AcDbLine
 10
3039.23896866514
 20
-1391.126637674301
 30
0.0
 11
3026.796403307195
 21
-1203.31202171668
 31
0.0
  0
LINE
  5
4E0
330
1F
100
AcDbEntity
  8
0-7_金物
  6
Continuous
 62
     7
370
     9
100
AcDbLine
 10
3036.660504606369
 20
-1173.722562905679
 30
0.0
 11
3036.660504606369
 21
-1164.62630738668
 31
0.0
  0
LINE
  5
4E1
330
1F
100
AcDbEntity
  8
0-7_金物
  6
Continuous
 62
     7
370
     9
100
AcDbLine
 10
3036.660504606369
 20
-1189.022166446679
 30
0.0
 11
3036.660504606369
 21
-1179.92591092768
 31
0.0
  0
LINE
  5
4E2
330
1F
100
AcDbEntity
  8
0-7_金物
  6
Continuous
 62
     7
370
     9
100
AcDbLine
 10
3042.863852628371
 20
-1173.722562905679
 30
0.0
 11
3042.863852628371
 21
-1164.62630738668
 31
0.0
  0
LINE
  5
4E3
330
1F
100
AcDbEntity
  8
0-7_金物
  6
Continuous
 62
     7
370
     9
100
AcDbLine
 10
3042.863852628371
 20
-1189.022166446679
 30
0.0
 11
3042.863852628371
 21
-1179.92591092768
 31
0.0
  0
LINE
  5
4E4
330
1F
100
AcDbEntity
  8
0-7_金物
  6
Continuous
 62
     7
370
     9
100
AcDbLine
 10
3042.863852628371
 20
-1179.92591092768
 30
0.0
 11
3063.041775873371
 21
-1179.92591092768
 31
0.0
  0
LINE
  5
4E5
330
1F
100
AcDbEntity
  8
0-7_金物
  6
Continuous
 62
     7
370
     9
100
AcDbLine
 10
3016.482581360247
 20
-1179.92591092768
 30
0.0
 11
3036.660504606369
 21
-1179.92591092768
 31
0.0
  0
LINE
  5
4E6
330
1F
100
AcDbEntity
  8
0-7_金物
  6
Continuous
 62
     7
370
     9
100
AcDbLine
 10
3042.863852628371
 20
-1173.722562905679
 30
0.0
 11
3063.041775873371
 21
-1173.722562905679
 31
0.0
  0
LINE
  5
4E7
330
1F
100
AcDbEntity
  8
0-7_金物
  6
Continuous
 62
     7
370
     9
100
AcDbLine
 10
3016.482581360247
 20
-1173.722562905679
 30
0.0
 11
3036.660504606369
 21
-1173.722562905679
 31
0.0
  0
LINE
  5
4E8
330
1F
100
AcDbEntity
  8
0-7_金物
  6
Continuous
 62
     7
370
     9
100
AcDbLine
 10
3036.660504606369
 20
-1164.62630738668
 30
0.0
 11
3042.863852628371
 21
-1164.62630738668
 31
0.0
  0
LINE
  5
4E9
330
1F
100
AcDbEntity
  8
0-7_金物
  6
Continuous
 62
     7
370
     9
100
AcDbLine
 10
3036.660504606369
 20
-1189.022166446679
 30
0.0
 11
3042.863852628371
 21
-1189.022166446679
 31
0.0
  0
LINE
  5
4EA
330
1F
100
AcDbEntity
  8
0-7_金物
  6
Continuous
 62
     7
370
     9
100
AcDbLine
 10
3063.041775873371
 20
-1179.92591092768
 30
0.0
 11
3063.041775873371
 21
-1173.722562905679
 31
0.0
  0
LINE
  5
4EB
330
1F
100
AcDbEntity
  8
0-7_金物
  6
Continuous
 62
     7
370
     9
100
AcDbLine
 10
3016.482581360247
 20
-1173.722562905679
 30
0.0
 11
3016.482581360247
 21
-1179.92591092768
 31
0.0
  0
LINE
  5
4EC
330
1F
100
AcDbEntity
  8
0-7_金物
  6
Continuous
 62
     7
370
     9
100
AcDbLine
 10
3041.747297248195
 20
-1369.059820331081
 30
0.0
 11
3037.920585231831
 21
-1371.226265758331
 31
0.0
  0
LINE
  5
4ED
330
1F
100
AcDbEntity
  8
0-7_金物
  6
Continuous
 62
     7
370
     9
100
AcDbLine
 10
3042.394472013403
 20
-1359.291024549073
 30
0.0
 11
3037.320201583017
 21
-1362.163759660458
 31
0.0
  0
LINE
  5
4EE
330
1F
100
AcDbEntity
  8
0-7_金物
  6
Continuous
 62
     7
370
     9
100
AcDbLine
 10
3043.041646778619
 20
-1349.522228767064
 30
0.0
 11
3036.719817934199
 21
-1353.101253562582
 31
0.0
  0
LINE
  5
4EF
330
1F
100
AcDbEntity
  8
0-7_金物
  6
Continuous
 62
     7
370
     9
100
AcDbLine
 10
3043.688821543834
 20
-1339.753432985056
 30
0.0
 11
3036.119434285382
 21
-1344.038747464708
 31
0.0
  0
LINE
  5
4F0
330
1F
100
AcDbEntity
  8
0-7_金物
  6
Continuous
 62
     7
370
     9
100
AcDbLine
 10
3044.335996309046
 20
-1329.984637203049
 30
0.0
 11
3035.519050636568
 21
-1334.976241366835
 31
0.0
  0
LINE
  5
4F1
330
1F
100
AcDbEntity
  8
0-7_金物
  6
Continuous
 62
     7
370
     9
100
AcDbLine
 10
3044.983171074265
 20
-1320.215841421042
 30
0.0
 11
3034.91866698775
 21
-1325.913735268959
 31
0.0
  0
LINE
  5
4F2
330
1F
100
AcDbEntity
  8
0-7_金物
  6
Continuous
 62
     7
370
     9
100
AcDbLine
 10
3045.630345839473
 20
-1310.447045639034
 30
0.0
 11
3034.318283338933
 21
-1316.851229171085
 31
0.0
  0
LINE
  5
4F3
330
1F
100
AcDbEntity
  8
0-7_金物
  6
Continuous
 62
     7
370
     9
100
AcDbLine
 10
3046.277520604689
 20
-1300.678249857026
 30
0.0
 11
3033.717899690119
 21
-1307.788723073211
 31
0.0
  0
LINE
  5
4F4
330
1F
100
AcDbEntity
  8
0-7_金物
  6
Continuous
 62
     7
370
     9
100
AcDbLine
 10
3046.924695369904
 20
-1290.909454075017
 30
0.0
 11
3033.117516041302
 21
-1298.726216975335
 31
0.0
  0
LINE
  5
4F5
330
1F
100
AcDbEntity
  8
0-7_金物
  6
Continuous
 62
     7
370
     9
100
AcDbLine
 10
3047.571870135116
 20
-1281.140658293011
 30
0.0
 11
3032.517132392491
 21
-1289.663710877462
 31
0.0
  0
LINE
  5
4F6
330
1F
100
AcDbEntity
  8
0-7_金物
  6
Continuous
 62
     7
370
     9
100
AcDbLine
 10
3048.219044900328
 20
-1271.371862511001
 30
0.0
 11
3031.916748743671
 21
-1280.601204779587
 31
0.0
  0
LINE
  5
4F7
330
1F
100
AcDbEntity
  8
0-7_金物
  6
Continuous
 62
     7
370
     9
100
AcDbLine
 10
3048.866219665543
 20
-1261.603066728994
 30
0.0
 11
3031.316365094853
 21
-1271.538698681712
 31
0.0
  0
LINE
  5
4F8
330
1F
100
AcDbEntity
  8
0-7_金物
  6
Continuous
 62
     7
370
     9
100
AcDbLine
 10
3049.513394430759
 20
-1251.834270946987
 30
0.0
 11
3030.715981446043
 21
-1262.476192583838
 31
0.0
  0
LINE
  5
4F9
330
1F
100
AcDbEntity
  8
0-7_金物
  6
Continuous
 62
     7
370
     9
100
AcDbLine
 10
3050.160569195974
 20
-1242.065475164979
 30
0.0
 11
3030.115597797222
 21
-1253.413686485965
 31
0.0
  0
LINE
  5
4FA
330
1F
100
AcDbEntity
  8
0-7_金物
  6
Continuous
 62
     7
370
     9
100
AcDbLine
 10
3050.807743961186
 20
-1232.296679382972
 30
0.0
 11
3029.515214148405
 21
-1244.351180388089
 31
0.0
  0
LINE
  5
4FB
330
1F
100
AcDbEntity
  8
0-7_金物
  6
Continuous
 62
     7
370
     9
100
AcDbLine
 10
3051.454918726398
 20
-1222.527883600962
 30
0.0
 11
3028.914830499594
 21
-1235.288674290214
 31
0.0
  0
LINE
  5
4FC
330
1F
100
AcDbEntity
  8
0-7_金物
  6
Continuous
 62
     7
370
     9
100
AcDbLine
 10
3041.100122482976
 20
-1378.828616113089
 30
0.0
 11
3038.520968880648
 21
-1380.288771856206
 31
0.0
  0
LINE
  5
4FD
330
1F
100
AcDbEntity
  8
0-7_金物
  6
Continuous
 62
     7
370
     9
100
AcDbLine
 10
3052.102093491613
 20
-1212.759087818956
 30
0.0
 11
3028.314446850773
 21
-1226.22616819234
 31
0.0
  0
LINE
  5
4FE
330
1F
100
AcDbEntity
  8
0-7_金物
  6
Continuous
 62
     7
370
     9
100
AcDbLine
 10
3063.673221305188
 20
-1184.354262516179
 30
0.0
 11
3052.727953927552
 21
-1203.31202171668
 31
0.0
  0
LINE
  5
4FF
330
1F
100
AcDbEntity
  8
0-7_金物
  6
Continuous
 62
     7
370
     9
100
AcDbLine
 10
3015.851135929553
 20
-1184.354262516179
 30
0.0
 11
3026.796403307195
 21
-1203.31202171668
 31
0.0
  0
ELLIPSE
  5
500
330
1F
100
AcDbEntity
  8
0-7_金物
  6
Continuous
 62
     7
370
     9
100
AcDbEllipse
 10
3039.76217861737
 20
-1176.824236916679
 30
0.0
 11
28.25850499469571
 21
0.0
 31
0.0
210
0.0
220
0.0
230
1.0
 40
0.5
 41
0.0
 42
6.283185307179586
  0
LINE
  5
501
330
1F
100
AcDbEntity
  8
0-7_金物
  6
Continuous
 62
     7
370
     9
100
AcDbLine
 10
3227.579335526738
 20
-1283.949601330922
 30
0.0
 11
3227.579335526738
 21
-1274.853345811922
 31
0.0
  0
LINE
  5
502
330
1F
100
AcDbEntity
  8
0-7_金物
  6
Continuous
 62
     7
370
     9
100
AcDbLine
 10
3227.579335526738
 20
-1299.249204871922
 30
0.0
 11
3227.579335526738
 21
-1290.152949352922
 31
0.0
  0
LINE
  5
503
330
1F
100
AcDbEntity
  8
0-7_金物
  6
Continuous
 62
     7
370
     9
100
AcDbLine
 10
3233.782683548737
 20
-1283.949601330922
 30
0.0
 11
3233.782683548737
 21
-1274.853345811922
 31
0.0
  0
LINE
  5
504
330
1F
100
AcDbEntity
  8
0-7_金物
  6
Continuous
 62
     7
370
     9
100
AcDbLine
 10
3233.782683548737
 20
-1299.249204871922
 30
0.0
 11
3233.782683548737
 21
-1290.152949352922
 31
0.0
  0
LINE
  5
505
330
1F
100
AcDbEntity
  8
0-7_金物
  6
Continuous
 62
     7
370
     9
100
AcDbLine
 10
3233.782683548737
 20
-1290.152949352922
 30
0.0
 11
3253.96060679374
 21
-1290.152949352922
 31
0.0
  0
LINE
  5
506
330
1F
100
AcDbEntity
  8
0-7_金物
  6
Continuous
 62
     7
370
     9
100
AcDbLine
 10
3207.401412280613
 20
-1290.152949352922
 30
0.0
 11
3227.579335526738
 21
-1290.152949352922
 31
0.0
  0
LINE
  5
507
330
1F
100
AcDbEntity
  8
0-7_金物
  6
Continuous
 62
     7
370
     9
100
AcDbLine
 10
3233.782683548737
 20
-1283.949601330922
 30
0.0
 11
3253.96060679374
 21
-1283.949601330922
 31
0.0
  0
LINE
  5
508
330
1F
100
AcDbEntity
  8
0-7_金物
  6
Continuous
 62
     7
370
     9
100
AcDbLine
 10
3207.401412280613
 20
-1283.949601330922
 30
0.0
 11
3227.579335526738
 21
-1283.949601330922
 31
0.0
  0
LINE
  5
509
330
1F
100
AcDbEntity
  8
0-7_金物
  6
Continuous
 62
     7
370
     9
100
AcDbLine
 10
3227.579335526738
 20
-1274.853345811922
 30
0.0
 11
3233.782683548737
 21
-1274.853345811922
 31
0.0
  0
LINE
  5
50A
330
1F
100
AcDbEntity
  8
0-7_金物
  6
Continuous
 62
     7
370
     9
100
AcDbLine
 10
3227.579335526738
 20
-1299.249204871922
 30
0.0
 11
3233.782683548737
 21
-1299.249204871922
 31
0.0
  0
LINE
  5
50B
330
1F
100
AcDbEntity
  8
0-7_金物
  6
Continuous
 62
     7
370
     9
100
AcDbLine
 10
3253.96060679374
 20
-1290.152949352922
 30
0.0
 11
3253.96060679374
 21
-1283.949601330922
 31
0.0
  0
LINE
  5
50C
330
1F
100
AcDbEntity
  8
0-7_金物
  6
Continuous
 62
     7
370
     9
100
AcDbLine
 10
3207.401412280613
 20
-1283.949601330922
 30
0.0
 11
3207.401412280613
 21
-1290.152949352922
 31
0.0
  0
LINE
  5
50D
330
1F
100
AcDbEntity
  8
0-7_金物
  6
Continuous
 62
     7
370
     9
100
AcDbLine
 10
3232.666128168557
 20
-1479.286858756324
 30
0.0
 11
3228.8394161522
 21
-1481.453304183574
 31
0.0
  0
LINE
  5
50E
330
1F
100
AcDbEntity
  8
0-7_金物
  6
Continuous
 62
     7
370
     9
100
AcDbLine
 10
3233.313302933776
 20
-1469.518062974315
 30
0.0
 11
3228.239032503383
 21
-1472.390798085701
 31
0.0
  0
LINE
  5
50F
330
1F
100
AcDbEntity
  8
0-7_金物
  6
Continuous
 62
     7
370
     9
100
AcDbLine
 10
3233.960477698985
 20
-1459.749267192308
 30
0.0
 11
3227.638648854569
 21
-1463.328291987825
 31
0.0
  0
LINE
  5
510
330
1F
100
AcDbEntity
  8
0-7_金物
  6
Continuous
 62
     7
370
     9
100
AcDbLine
 10
3234.6076524642
 20
-1449.9804714103
 30
0.0
 11
3227.038265205751
 21
-1454.265785889951
 31
0.0
  0
LINE
  5
511
330
1F
100
AcDbEntity
  8
0-7_金物
  6
Continuous
 62
     7
370
     9
100
AcDbLine
 10
3235.254827229415
 20
-1440.211675628292
 30
0.0
 11
3226.437881556934
 21
-1445.203279792078
 31
0.0
  0
LINE
  5
512
330
1F
100
AcDbEntity
  8
0-7_金物
  6
Continuous
 62
     7
370
     9
100
AcDbLine
 10
3235.902001994627
 20
-1430.442879846285
 30
0.0
 11
3225.83749790812
 21
-1436.140773694202
 31
0.0
  0
LINE
  5
513
330
1F
100
AcDbEntity
  8
0-7_金物
  6
Continuous
 62
     7
370
     9
100
AcDbLine
 10
3236.549176759846
 20
-1420.674084064277
 30
0.0
 11
3225.237114259302
 21
-1427.078267596328
 31
0.0
  0
LINE
  5
514
330
1F
100
AcDbEntity
  8
0-7_金物
  6
Continuous
 62
     7
370
     9
100
AcDbLine
 10
3237.196351525055
 20
-1410.905288282269
 30
0.0
 11
3224.636730610485
 21
-1418.015761498453
 31
0.0
  0
LINE
  5
515
330
1F
100
AcDbEntity
  8
0-7_金物
  6
Continuous
 62
     7
370
     9
100
AcDbLine
 10
3237.84352629027
 20
-1401.13649250026
 30
0.0
 11
3224.036346961671
 21
-1408.953255400578
 31
0.0
  0
LINE
  5
516
330
1F
100
AcDbEntity
  8
0-7_金物
  6
Continuous
 62
     7
370
     9
100
AcDbLine
 10
3238.490701055485
 20
-1391.367696718254
 30
0.0
 11
3223.435963312854
 21
-1399.890749302705
 31
0.0
  0
LINE
  5
517
330
1F
100
AcDbEntity
  8
0-7_金物
  6
Continuous
 62
     7
370
     9
100
AcDbLine
 10
3239.137875820697
 20
-1381.598900936244
 30
0.0
 11
3222.835579664037
 21
-1390.82824320483
 31
0.0
  0
LINE
  5
518
330
1F
100
AcDbEntity
  8
0-7_金物
  6
Continuous
 62
     7
370
     9
100
AcDbLine
 10
3239.785050585909
 20
-1371.830105154237
 30
0.0
 11
3222.235196015223
 21
-1381.765737106955
 31
0.0
  0
LINE
  5
519
330
1F
100
AcDbEntity
  8
0-7_金物
  6
Continuous
 62
     7
370
     9
100
AcDbLine
 10
3240.432225351125
 20
-1362.06130937223
 30
0.0
 11
3221.634812366405
 21
-1372.703231009081
 31
0.0
  0
LINE
  5
51A
330
1F
100
AcDbEntity
  8
0-7_金物
  6
Continuous
 62
     7
370
     9
100
AcDbLine
 10
3241.07940011634
 20
-1352.292513590222
 30
0.0
 11
3221.034428717595
 21
-1363.640724911207
 31
0.0
  0
LINE
  5
51B
330
1F
100
AcDbEntity
  8
0-7_金物
  6
Continuous
 62
     7
370
     9
100
AcDbLine
 10
3241.726574881555
 20
-1342.523717808215
 30
0.0
 11
3220.434045068774
 21
-1354.578218813332
 31
0.0
  0
LINE
  5
51C
330
1F
100
AcDbEntity
  8
0-7_金物
  6
Continuous
 62
     7
370
     9
100
AcDbLine
 10
3242.373749646767
 20
-1332.754922026205
 30
0.0
 11
3219.833661419957
 21
-1345.515712715457
 31
0.0
  0
LINE
  5
51D
330
1F
100
AcDbEntity
  8
0-7_金物
  6
Continuous
 62
     7
370
     9
100
AcDbLine
 10
3232.018953403345
 20
-1489.055654538332
 30
0.0
 11
3229.439799801017
 21
-1490.515810281448
 31
0.0
  0
LINE
  5
51E
330
1F
100
AcDbEntity
  8
0-7_金物
  6
Continuous
 62
     7
370
     9
100
AcDbLine
 10
3243.020924411979
 20
-1322.986126244199
 30
0.0
 11
3219.233277771146
 21
-1336.453206617583
 31
0.0
  0
LINE
  5
51F
330
1F
100
AcDbEntity
  8
0-7_金物
  6
Continuous
 62
     7
370
     9
100
AcDbLine
 10
3230.68100953774
 20
-1509.251281891922
 30
0.0
 11
3243.646784847915
 21
-1313.539060141923
 31
0.0
  0
LINE
  5
520
330
1F
100
AcDbEntity
  8
0-7_金物
  6
Continuous
 62
     7
370
     9
100
AcDbLine
 10
3254.592052225557
 20
-1294.581300941423
 30
0.0
 11
3243.646784847915
 21
-1313.539060141923
 31
0.0
  0
LINE
  5
521
330
1F
100
AcDbEntity
  8
0-7_金物
  6
Continuous
 62
     7
370
     9
100
AcDbLine
 10
3230.68100953774
 20
-1509.251281891922
 30
0.0
 11
3217.715234227557
 21
-1313.539060141923
 31
0.0
  0
LINE
  5
522
330
1F
100
AcDbEntity
  8
0-7_金物
  6
Continuous
 62
     7
370
     9
100
AcDbLine
 10
3206.769966849919
 20
-1294.581300941423
 30
0.0
 11
3217.715234227557
 21
-1313.539060141923
 31
0.0
  0
ELLIPSE
  5
523
330
1F
100
AcDbEntity
  8
0-7_金物
  6
Continuous
 62
     7
370
     9
100
AcDbEllipse
 10
3230.68100953774
 20
-1287.051275341923
 30
0.0
 11
28.25850499469571
 21
0.0
 31
0.0
210
0.0
220
0.0
230
1.0
 40
0.5
 41
0.0
 42
6.283185307179586
  0
LINE
  5
524
330
1F
100
AcDbEntity
  8
0-0_補助線
  6
JWW_HOJO
 62
   120
370
     5
100
AcDbLine
 10
3289.017318985626
 20
-1633.701115189272
 30
0.0
 11
3172.344700089846
 21
-1701.06208311581
 31
0.0
  0
LINE
  5
525
330
1F
100
AcDbEntity
  8
0-0_補助線
  6
JWW_HOJO
 62
   120
370
     5
100
AcDbLine
 10
3188.254602666543
 20
-1642.886701724709
 30
0.0
 11
3273.107416408929
 21
-1691.876496580373
 31
0.0
  0
LINE
  5
526
330
1F
100
AcDbEntity
  8
0-0_補助線
  6
JWW_HOJO
 62
   120
370
     5
100
AcDbLine
 10
3284.427028363347
 20
-1648.59876942962
 30
0.0
 11
3306.59091211444
 21
-1621.453666475356
 31
0.0
  0
LINE
  5
527
330
1F
100
AcDbEntity
  8
0-0_補助線
  6
JWW_HOJO
 62
   120
370
     5
100
AcDbLine
 10
3304.546461691778
 20
-1630.419421197036
 30
0.0
 11
3293.391899892423
 21
-1643.130593863745
 31
0.0
  0
LINE
  5
528
330
1F
100
AcDbEntity
  8
0-0_補助線
  6
JWW_HOJO
 62
   120
370
     5
100
AcDbLine
 10
3179.417312287543
 20
-1667.813582534461
 30
0.0
 11
3156.815557383697
 21
-1630.85908482455
 31
0.0
  0
LINE
  5
529
330
1F
100
AcDbEntity
  8
0-0_補助線
  6
JWW_HOJO
 62
   120
370
     5
100
AcDbLine
 10
3154.77110696104
 20
-1639.824839546229
 30
0.0
 11
3173.825164316585
 21
-1665.145646411712
 31
0.0
  0
LINE
  5
52A
330
1F
100
AcDbEntity
  8
0-0_補助線
  6
JWW_HOJO
 62
   120
370
     5
100
AcDbLine
 10
3115.672081194067
 20
-1511.226628050113
 30
0.0
 11
3114.008390641956
 21
-1513.264224521391
 31
0.0
  0
LINE
  5
52B
330
1F
100
AcDbEntity
  8
0-0_補助線
  6
JWW_HOJO
 62
   120
370
     5
100
AcDbLine
 10
3172.344700089846
 20
-1615.329942118398
 30
0.0
 11
3193.557903525443
 21
-1664.319736974061
 31
0.0
  0
LINE
  5
52C
330
1F
100
AcDbEntity
  8
0-0_補助線
  6
JWW_HOJO
 62
   120
370
     5
100
AcDbLine
 10
3304.546461691778
 20
-1612.487911753675
 30
0.0
 11
3275.568686903106
 21
-1653.713135256263
 31
0.0
  0
LINE
  5
52D
330
1F
100
AcDbEntity
  8
0-0_補助線
  6
JWW_HOJO
 62
   120
370
     5
100
AcDbLine
 10
3272.571674227969
 20
-1649.535758579259
 30
0.0
 11
3298.552436341501
 21
-1604.133158399667
 31
0.0
  0
LINE
  5
52E
330
1F
100
AcDbEntity
  8
0-0_補助線
  6
JWW_HOJO
 62
   120
370
     5
100
AcDbLine
 10
3289.017318985626
 20
-1596.958769047525
 30
0.0
 11
3267.804115550029
 21
-1645.948563903188
 31
0.0
  0
LINE
  5
52F
330
1F
100
AcDbEntity
  8
0-0_補助線
  6
JWW_HOJO
 62
   120
370
     5
100
AcDbLine
 10
3261.59091211444
 20
-1643.196012617103
 30
0.0
 11
3276.59091211444
 21
-1591.453666475356
 31
0.0
  0
LINE
  5
530
330
1F
100
AcDbEntity
  8
0-0_補助線
  6
JWW_HOJO
 62
   120
370
     5
100
AcDbLine
 10
3262.120054820585
 20
-1587.993014325843
 30
0.0
 11
3254.355483467512
 21
-1641.465686542347
 31
0.0
  0
LINE
  5
531
330
1F
100
AcDbEntity
  8
0-0_補助線
  6
JWW_HOJO
 62
   120
370
     5
100
AcDbLine
 10
3246.59091211444
 20
-1640.875504541415
 30
0.0
 11
3246.59091211444
 21
-1586.812650323978
 31
0.0
  0
LINE
  5
532
330
1F
100
AcDbEntity
  8
0-0_補助線
  6
JWW_HOJO
 62
   120
370
     5
100
AcDbLine
 10
3231.061769408283
 20
-1587.993014325843
 30
0.0
 11
3238.82634076136
 21
-1641.465686542347
 31
0.0
  0
LINE
  5
533
330
1F
100
AcDbEntity
  8
0-0_補助線
  6
JWW_HOJO
 62
   120
370
     5
100
AcDbLine
 10
3231.59091211444
 20
-1643.196012617103
 30
0.0
 11
3216.59091211444
 21
-1591.453666475356
 31
0.0
  0
LINE
  5
534
330
1F
100
AcDbEntity
  8
0-0_補助線
  6
JWW_HOJO
 62
   120
370
     5
100
AcDbLine
 10
3204.164505243243
 20
-1596.958769047525
 30
0.0
 11
3225.37770867884
 21
-1645.948563903188
 31
0.0
  0
LINE
  5
535
330
1F
100
AcDbEntity
  8
0-B_寸法
  6
Continuous
 62
   120
370
     5
100
AcDbLine
 10
3024.767585276055
 20
-1859.750542262321
 30
0.0
 11
2962.023025982615
 21
-1895.976130460573
 31
0.0
  0
LINE
  5
536
330
1F
100
AcDbEntity
  8
0-B_寸法
  6
JWW_CENTER1
 62
   120
370
     5
100
AcDbLine
 10
3459.636207348015
 20
-1608.678946347908
 30
0.0
 11
3042.848336229644
 21
-1849.311535933071
 31
0.0
  0
LWPOLYLINE
  5
537
330
1F
100
AcDbEntity
  8
0-B_寸法
  6
Continuous
 62
     7
370
     9
100
AcDbPolyline
 90
        4
 70
     1
 43
3.0
 10
2963.523025982615
 20
-1895.976130460573
 42
0.4142135623731
 10
2962.023025982615
 20
-1894.476130460573
 42
0.4142135623731
 10
2960.523025982615
 20
-1895.976130460573
 42
0.4142135623731
 10
2962.023025982615
 20
-1897.476130460573
 42
0.4142135623731
  0
LINE
  5
538
330
1F
100
AcDbEntity
  8
0-B_寸法
  6
Continuous
 62
   120
370
     5
100
AcDbLine
 10
3550.251224601117
 20
-1760.02968349
 30
0.0
 11
3602.094665388018
 21
-1789.961507984032
 31
0.0
  0
LINE
  5
539
330
1F
100
AcDbEntity
  8
0-B_寸法
  6
Continuous
 62
   120
370
     5
100
AcDbLine
 10
3687.860739997776
 20
-1740.444441720748
 30
0.0
 11
3602.094665388018
 21
-1789.961507984031
 31
0.0
  0
LWPOLYLINE
  5
53A
330
1F
100
AcDbEntity
  8
0-B_寸法
  6
Continuous
 62
     7
370
     9
100
AcDbPolyline
 90
        4
 70
     1
 43
3.0
 10
3603.594665388018
 20
-1789.961507984032
 42
0.4142135623731
 10
3602.094665388018
 20
-1788.461507984032
 42
0.4142135623731
 10
3600.594665388018
 20
-1789.961507984032
 42
0.4142135623731
 10
3602.094665388018
 20
-1791.461507984032
 42
0.4142135623731
  0
LINE
  5
53B
330
1F
100
AcDbEntity
  8
0-B_寸法
  6
Continuous
 62
   120
370
     5
100
AcDbLine
 10
3687.860739987537
 20
-1740.444441703014
 30
0.0
 11
3634.034499662543
 21
-1709.367847361913
 31
0.0
  0
LWPOLYLINE
  5
53C
330
1F
100
AcDbEntity
  8
0-B_寸法
  6
Continuous
 62
     7
370
     9
100
AcDbPolyline
 90
        4
 70
     1
 43
3.0
 10
3689.360739987537
 20
-1740.444441703014
 42
0.4142135623731
 10
3687.860739987537
 20
-1738.944441703014
 42
0.4142135623731
 10
3686.360739987537
 20
-1740.444441703014
 42
0.4142135623731
 10
3687.860739987537
 20
-1741.944441703014
 42
0.4142135623731
  0
LINE
  5
53D
330
1F
100
AcDbEntity
  8
0-B_寸法
  6
JWW_CENTER1
 62
   120
370
     5
100
AcDbLine
 10
3459.636207348015
 20
-1608.678946347908
 30
0.0
 11
3622.272301439585
 21
-1702.576939051626
 31
0.0
  0
LINE
  5
53E
330
1F
100
AcDbEntity
  8
0-6_扉
  6
Continuous
 62
    40
370
    15
100
AcDbLine
 10
3263.414075568743
 20
-1464.771423959394
 30
0.0
 11
3236.897571274249
 21
-1480.080734851788
 31
0.0
  0
LINE
  5
53F
330
1F
100
AcDbEntity
  8
0-6_扉
  6
Continuous
 62
    40
370
    15
100
AcDbLine
 10
3364.176791887822
 20
-1553.565427135283
 30
0.0
 11
3459.636207348015
 21
-1608.678946347908
 31
0.0
  0
LINE
  5
540
330
1F
100
AcDbEntity
  8
0-6_扉
  6
Continuous
 62
    40
370
    15
100
AcDbLine
 10
3459.636207348015
 20
-1608.678946347908
 30
0.0
 11
4032.392700109113
 21
-1277.997831072181
 31
0.0
  0
LINE
  5
541
330
1F
100
AcDbEntity
  8
0-7_金物
  6
Continuous
 62
     7
370
     9
100
AcDbLine
 10
2241.639401703851
 20
-2285.182062047559
 30
0.0
 11
4250.790816013335
 21
-2285.182062047559
 31
0.0
  0
LWPOLYLINE
  5
542
330
1F
100
AcDbEntity
  8
1-B_寸法
  6
Continuous
 62
     7
370
     9
100
AcDbPolyline
 90
        4
 70
     1
 43
3.0
 10
3217.838204586542
 20
-3472.679012834433
 42
0.4142135623731
 10
3216.338204586542
 20
-3471.179012834433
 42
0.4142135623731
 10
3214.838204586542
 20
-3472.679012834433
 42
0.4142135623731
 10
3216.338204586542
 20
-3474.179012834433
 42
0.4142135623731
  0
LINE
  5
543
330
1F
100
AcDbEntity
  8
1-B_寸法
  6
Continuous
 62
   120
370
     5
100
AcDbLine
 10
3216.338204586542
 20
-3472.679012834433
 30
0.0
 11
3216.338204586542
 21
-3352.582876764919
 31
0.0
  0
LINE
  5
544
330
1F
100
AcDbEntity
  8
0-7_金物
  6
Continuous
 62
     7
370
     9
100
AcDbLine
 10
4250.790816013335
 20
-2285.182062047559
 30
0.0
 11
4250.790816013335
 21
-3545.892161713922
 31
0.0
  0
LINE
  5
545
330
1F
100
AcDbEntity
  8
0-7_金物
  6
Continuous
 62
     7
370
     9
100
AcDbLine
 10
2241.639401703851
 20
-3545.892161713922
 30
0.0
 11
2241.639401703851
 21
-2285.182062047559
 31
0.0
  0
LINE
  5
546
330
1F
100
AcDbEntity
  8
1-B_寸法
  6
Continuous
 62
   120
370
     5
100
AcDbLine
 10
3216.338204586542
 20
-3472.679012834433
 30
0.0
 11
2932.068778668171
 21
-3472.679012834433
 31
0.0
  0
LINE
  5
547
330
1F
100
AcDbEntity
  8
1-B_寸法
  6
Continuous
 62
   120
370
     5
100
AcDbLine
 10
3141.338204586542
 20
-3352.582876764919
 30
0.0
 11
3141.338204586542
 21
-3472.679012834433
 31
0.0
  0
LWPOLYLINE
  5
548
330
1F
100
AcDbEntity
  8
1-B_寸法
  6
Continuous
 62
     7
370
     9
100
AcDbPolyline
 90
        4
 70
     1
 43
3.0
 10
3142.838204586542
 20
-3472.679012834433
 42
0.4142135623731
 10
3141.338204586542
 20
-3471.179012834433
 42
0.4142135623731
 10
3139.838204586542
 20
-3472.679012834433
 42
0.4142135623731
 10
3141.338204586542
 20
-3474.179012834433
 42
0.4142135623731
  0
LINE
  5
549
330
1F
100
AcDbEntity
  8
0-7_金物
  6
Continuous
 62
     7
370
     9
100
AcDbLine
 10
4250.790816013335
 20
-3545.892161713922
 30
0.0
 11
2241.639401703851
 21
-3545.892161713922
 31
0.0
  0
LWPOLYLINE
  5
54A
330
1F
100
AcDbEntity
  8
1-B_寸法
  6
Continuous
 62
     7
370
     9
100
AcDbPolyline
 90
        4
 70
     1
 43
3.0
 10
2720.541007293877
 20
-3277.582876764919
 42
0.4142135623731
 10
2719.041007293877
 20
-3276.082876764919
 42
0.4142135623731
 10
2717.541007293877
 20
-3277.582876764919
 42
0.4142135623731
 10
2719.041007293877
 20
-3279.082876764919
 42
0.4142135623731
  0
LINE
  5
54B
330
1F
100
AcDbEntity
  8
1-B_寸法
  6
Continuous
 62
   120
370
     5
100
AcDbLine
 10
2719.041007293877
 20
-3277.582876764919
 30
0.0
 11
2816.113888670021
 21
-3277.582876764919
 31
0.0
  0
ARC
  5
54C
330
1F
100
AcDbEntity
  8
1-7_金物
  6
Continuous
 62
     7
370
     9
100
AcDbCircle
 10
2878.838204586542
 20
-2970.082876764919
 30
0.0
 40
7.5
100
AcDbArc
 50
90.0
 51
180.0
  0
LINE
  5
54D
330
1F
100
AcDbEntity
  8
1-7_金物
  6
Continuous
 62
     7
370
     9
100
AcDbLine
 10
2871.338204586542
 20
-3135.082876764919
 30
0.0
 11
2871.338204586542
 21
-2970.082876764919
 31
0.0
  0
ARC
  5
54E
330
1F
100
AcDbEntity
  8
1-7_金物
  6
Continuous
 62
     7
370
     9
100
AcDbCircle
 10
2878.838204586542
 20
-3135.082876764919
 30
0.0
 40
7.5
100
AcDbArc
 50
180.0
 51
270.0
  0
LINE
  5
54F
330
1F
100
AcDbEntity
  8
1-7_金物
  6
Continuous
 62
     7
370
     9
100
AcDbLine
 10
2908.838204586542
 20
-3142.582876764919
 30
0.0
 11
2878.838204586542
 21
-3142.582876764919
 31
0.0
  0
ARC
  5
550
330
1F
100
AcDbEntity
  8
1-7_金物
  6
Continuous
 62
     7
370
     9
100
AcDbCircle
 10
2908.838204586542
 20
-3135.082876764919
 30
0.0
 40
7.5
100
AcDbArc
 50
270.0
 51
0.0
  0
LINE
  5
551
330
1F
100
AcDbEntity
  8
1-7_金物
  6
Continuous
 62
     7
370
     9
100
AcDbLine
 10
2908.838204586542
 20
-2962.582876764919
 30
0.0
 11
2878.838204586542
 21
-2962.582876764919
 31
0.0
  0
ARC
  5
552
330
1F
100
AcDbEntity
  8
1-7_金物
  6
Continuous
 62
     7
370
     9
100
AcDbCircle
 10
2908.838204586542
 20
-2970.082876764919
 30
0.0
 40
7.5
100
AcDbArc
 50
0.0
 51
90.0
  0
ARC
  5
553
330
1F
100
AcDbEntity
  8
1-7_金物
  6
Continuous
 62
     7
370
     9
100
AcDbCircle
 10
2946.338204586542
 20
-2857.582876764919
 30
0.0
 40
30.0
100
AcDbArc
 50
90.0
 51
180.0
  0
LINE
  5
554
330
1F
100
AcDbEntity
  8
1-7_金物
  6
Continuous
 62
     7
370
     9
100
AcDbLine
 10
2916.338204586542
 20
-3247.582876764919
 30
0.0
 11
2916.338204586542
 21
-2857.582876764919
 31
0.0
  0
ARC
  5
555
330
1F
100
AcDbEntity
  8
1-7_金物
  6
Continuous
 62
     7
370
     9
100
AcDbCircle
 10
2946.338204586542
 20
-3247.582876764919
 30
0.0
 40
30.0
100
AcDbArc
 50
180.0
 51
270.0
  0
ARC
  5
556
330
1F
100
AcDbEntity
  8
1-7_金物
  6
Continuous
 62
     7
370
     9
100
AcDbCircle
 10
3111.338204586542
 20
-2857.582876764919
 30
0.0
 40
30.0
100
AcDbArc
 50
0.0
 51
90.0
  0
LINE
  5
557
330
1F
100
AcDbEntity
  8
1-7_金物
  6
Continuous
 62
     7
370
     9
100
AcDbLine
 10
3141.338204586542
 20
-3247.582876764919
 30
0.0
 11
3141.338204586542
 21
-2857.582876764919
 31
0.0
  0
ARC
  5
558
330
1F
100
AcDbEntity
  8
1-7_金物
  6
Continuous
 62
     7
370
     9
100
AcDbCircle
 10
3111.338204586542
 20
-3247.582876764919
 30
0.0
 40
30.0
100
AcDbArc
 50
270.0
 51
0.0
  0
LINE
  5
559
330
1F
100
AcDbEntity
  8
1-7_金物
  6
Continuous
 62
     7
370
     9
100
AcDbLine
 10
3111.338204586542
 20
-3277.582876764919
 30
0.0
 11
2946.338204586542
 21
-3277.582876764919
 31
0.0
  0
LINE
  5
55A
330
1F
100
AcDbEntity
  8
1-7_金物
  6
Continuous
 62
     7
370
     9
100
AcDbLine
 10
2946.338204586542
 20
-2827.582876764919
 30
0.0
 11
3111.338204586542
 21
-2827.582876764919
 31
0.0
  0
ARC
  5
55B
330
1F
100
AcDbEntity
  8
1-7_金物
  6
Continuous
 62
     7
370
     9
100
AcDbCircle
 10
3051.338204586542
 20
-3187.582876764919
 30
0.0
 40
60.0
100
AcDbArc
 50
270.0
 51
90.0
  0
ARC
  5
55C
330
1F
100
AcDbEntity
  8
1-7_金物
  6
Continuous
 62
     7
370
     9
100
AcDbCircle
 10
3051.338204586542
 20
-2917.582876764919
 30
0.0
 40
60.0
100
AcDbArc
 50
270.0
 51
90.0
  0
ARC
  5
55D
330
1F
100
AcDbEntity
  8
1-7_金物
  6
Continuous
 62
     7
370
     9
100
AcDbCircle
 10
3051.338204586542
 20
-2917.582876764919
 30
0.0
 40
30.0
100
AcDbArc
 50
270.0
 51
90.0
  0
ARC
  5
55E
330
1F
100
AcDbEntity
  8
1-7_金物
  6
Continuous
 62
     7
370
     9
100
AcDbCircle
 10
3051.338204586542
 20
-3187.582876764919
 30
0.0
 40
30.0
100
AcDbArc
 50
270.0
 51
90.0
  0
ARC
  5
55F
330
1F
100
AcDbEntity
  8
1-7_金物
  6
Continuous
 62
     7
370
     9
100
AcDbCircle
 10
3006.338204586542
 20
-2917.582876764919
 30
0.0
 40
60.0
100
AcDbArc
 50
90.0
 51
270.0
  0
ARC
  5
560
330
1F
100
AcDbEntity
  8
1-7_金物
  6
Continuous
 62
     7
370
     9
100
AcDbCircle
 10
3006.338204586542
 20
-2917.582876764919
 30
0.0
 40
30.0
100
AcDbArc
 50
90.0
 51
270.0
  0
ARC
  5
561
330
1F
100
AcDbEntity
  8
1-7_金物
  6
Continuous
 62
     7
370
     9
100
AcDbCircle
 10
3006.338204586542
 20
-3187.582876764919
 30
0.0
 40
60.0
100
AcDbArc
 50
90.0
 51
270.0
  0
ARC
  5
562
330
1F
100
AcDbEntity
  8
1-7_金物
  6
Continuous
 62
     7
370
     9
100
AcDbCircle
 10
3006.338204586542
 20
-3187.582876764919
 30
0.0
 40
30.0
100
AcDbArc
 50
90.0
 51
270.0
  0
LINE
  5
563
330
1F
100
AcDbEntity
  8
1-7_金物
  6
Continuous
 62
     7
370
     9
100
AcDbLine
 10
3006.338204586542
 20
-2947.582876764919
 30
0.0
 11
3051.338204586542
 21
-2947.582876764919
 31
0.0
  0
LINE
  5
564
330
1F
100
AcDbEntity
  8
1-7_金物
  6
Continuous
 62
     7
370
     9
100
AcDbLine
 10
3051.338204586542
 20
-2887.582876764919
 30
0.0
 11
3006.338204586542
 21
-2887.582876764919
 31
0.0
  0
LINE
  5
565
330
1F
100
AcDbEntity
  8
1-7_金物
  6
Continuous
 62
     7
370
     9
100
AcDbLine
 10
3051.338204586542
 20
-2857.582876764919
 30
0.0
 11
3006.338204586542
 21
-2857.582876764919
 31
0.0
  0
LINE
  5
566
330
1F
100
AcDbEntity
  8
1-7_金物
  6
Continuous
 62
     7
370
     9
100
AcDbLine
 10
3051.338204586542
 20
-2977.582876764919
 30
0.0
 11
3006.338204586542
 21
-2977.582876764919
 31
0.0
  0
LINE
  5
567
330
1F
100
AcDbEntity
  8
1-7_金物
  6
Continuous
 62
     7
370
     9
100
AcDbLine
 10
3006.338204586542
 20
-3247.582876764919
 30
0.0
 11
3051.338204586542
 21
-3247.582876764919
 31
0.0
  0
LINE
  5
568
330
1F
100
AcDbEntity
  8
1-7_金物
  6
Continuous
 62
     7
370
     9
100
AcDbLine
 10
3006.338204586542
 20
-3217.582876764919
 30
0.0
 11
3051.338204586542
 21
-3217.582876764919
 31
0.0
  0
LINE
  5
569
330
1F
100
AcDbEntity
  8
1-7_金物
  6
Continuous
 62
     7
370
     9
100
AcDbLine
 10
3051.338204586542
 20
-3157.582876764919
 30
0.0
 11
3006.338204586542
 21
-3157.582876764919
 31
0.0
  0
LINE
  5
56A
330
1F
100
AcDbEntity
  8
1-7_金物
  6
Continuous
 62
     7
370
     9
100
AcDbLine
 10
3006.338204586542
 20
-3127.582876764919
 30
0.0
 11
3051.338204586542
 21
-3127.582876764919
 31
0.0
  0
LWPOLYLINE
  5
56B
330
1F
100
AcDbEntity
  8
1-B_寸法
  6
Continuous
 62
     7
370
     9
100
AcDbPolyline
 90
        4
 70
     1
 43
3.0
 10
2720.541007293877
 20
-2827.582876764919
 42
0.4142135623731
 10
2719.041007293877
 20
-2826.082876764919
 42
0.4142135623731
 10
2717.541007293877
 20
-2827.582876764919
 42
0.4142135623731
 10
2719.041007293877
 20
-2829.082876764919
 42
0.4142135623731
  0
LINE
  5
56C
330
1F
100
AcDbEntity
  8
1-B_寸法
  6
Continuous
 62
   120
370
     5
100
AcDbLine
 10
2719.041007293877
 20
-2827.582876764919
 30
0.0
 11
2816.113888670021
 21
-2827.582876764919
 31
0.0
  0
LINE
  5
56D
330
1F
100
AcDbEntity
  8
1-B_寸法
  6
Continuous
 62
   120
370
     5
100
AcDbLine
 10
2719.041007293877
 20
-3277.582876764919
 30
0.0
 11
2719.041007293877
 21
-2827.582876764919
 31
0.0
  0
LWPOLYLINE
  5
56E
330
1F
100
AcDbEntity
  8
1-B_寸法
  6
Continuous
 62
     7
370
     9
100
AcDbPolyline
 90
        4
 70
     1
 43
3.0
 10
3142.838204586542
 20
-2529.935635234906
 42
0.4142135623731
 10
3141.338204586542
 20
-2528.435635234906
 42
0.4142135623731
 10
3139.838204586542
 20
-2529.935635234906
 42
0.4142135623731
 10
3141.338204586542
 20
-2531.435635234906
 42
0.4142135623731
  0
LINE
  5
56F
330
1F
100
AcDbEntity
  8
1-B_寸法
  6
Continuous
 62
   120
370
     5
100
AcDbLine
 10
3141.338204586542
 20
-2529.935635234906
 30
0.0
 11
3141.338204586542
 21
-2632.582876764919
 31
0.0
  0
LINE
  5
570
330
1F
100
AcDbEntity
  8
1-B_寸法
  6
Continuous
 62
   120
370
     5
100
AcDbLine
 10
2871.338204586542
 20
-2529.935635234906
 30
0.0
 11
3141.338204586542
 21
-2529.935635234906
 31
0.0
  0
LWPOLYLINE
  5
571
330
1F
100
AcDbEntity
  8
1-B_寸法
  6
Continuous
 62
     7
370
     9
100
AcDbPolyline
 90
        4
 70
     1
 43
3.0
 10
2872.838204586542
 20
-2529.935635234906
 42
0.4142135623731
 10
2871.338204586542
 20
-2528.435635234906
 42
0.4142135623731
 10
2869.838204586542
 20
-2529.935635234906
 42
0.4142135623731
 10
2871.338204586542
 20
-2531.435635234906
 42
0.4142135623731
  0
LINE
  5
572
330
1F
100
AcDbEntity
  8
1-B_寸法
  6
Continuous
 62
   120
370
     5
100
AcDbLine
 10
2871.338204586542
 20
-2529.935635234906
 30
0.0
 11
2871.338204586542
 21
-2632.582876764919
 31
0.0
  0
LWPOLYLINE
  5
573
330
1F
100
AcDbEntity
  8
1-B_寸法
  6
Continuous
 62
     7
370
     9
100
AcDbPolyline
 90
        4
 70
     1
 43
3.0
 10
2872.838204586542
 20
-2632.582876764919
 42
0.4142135623731
 10
2871.338204586542
 20
-2631.082876764919
 42
0.4142135623731
 10
2869.838204586542
 20
-2632.582876764919
 42
0.4142135623731
 10
2871.338204586542
 20
-2634.082876764919
 42
0.4142135623731
  0
LWPOLYLINE
  5
574
330
1F
100
AcDbEntity
  8
1-B_寸法
  6
Continuous
 62
     7
370
     9
100
AcDbPolyline
 90
        4
 70
     1
 43
3.0
 10
2917.838204586542
 20
-2632.582876764919
 42
0.4142135623731
 10
2916.338204586542
 20
-2631.082876764919
 42
0.4142135623731
 10
2914.838204586542
 20
-2632.582876764919
 42
0.4142135623731
 10
2916.338204586542
 20
-2634.082876764919
 42
0.4142135623731
  0
LINE
  5
575
330
1F
100
AcDbEntity
  8
1-B_寸法
  6
Continuous
 62
   120
370
     5
100
AcDbLine
 10
2871.338204586542
 20
-2632.582876764919
 30
0.0
 11
2871.338204586542
 21
-2752.582876764919
 31
0.0
  0
LINE
  5
576
330
1F
100
AcDbEntity
  8
1-B_寸法
  6
Continuous
 62
   120
370
     5
100
AcDbLine
 10
2916.338204586542
 20
-2632.582876764919
 30
0.0
 11
2916.338204586542
 21
-2752.582876764919
 31
0.0
  0
LINE
  5
577
330
1F
100
AcDbEntity
  8
1-B_寸法
  6
Continuous
 62
   120
370
     5
100
AcDbLine
 10
2916.338204586542
 20
-2632.582876764919
 30
0.0
 11
3141.338204586542
 21
-2632.582876764919
 31
0.0
  0
LWPOLYLINE
  5
578
330
1F
100
AcDbEntity
  8
1-B_寸法
  6
Continuous
 62
     7
370
     9
100
AcDbPolyline
 90
        4
 70
     1
 43
3.0
 10
3142.838204586542
 20
-2632.582876764919
 42
0.4142135623731
 10
3141.338204586542
 20
-2631.082876764919
 42
0.4142135623731
 10
3139.838204586542
 20
-2632.582876764919
 42
0.4142135623731
 10
3141.338204586542
 20
-2634.082876764919
 42
0.4142135623731
  0
LINE
  5
579
330
1F
100
AcDbEntity
  8
1-B_寸法
  6
Continuous
 62
   120
370
     5
100
AcDbLine
 10
3141.338204586542
 20
-2632.582876764919
 30
0.0
 11
3141.338204586542
 21
-2752.582876764919
 31
0.0
  0
LINE
  5
57A
330
1F
100
AcDbEntity
  8
1-B_寸法
  6
Continuous
 62
   120
370
     5
100
AcDbLine
 10
2801.948268900959
 20
-2632.582876764919
 30
0.0
 11
2916.338204586542
 21
-2632.582876764919
 31
0.0
  0
LINE
  5
57B
330
1F
100
AcDbEntity
  8
1-4_枠
  6
JWW_CENTER1
 62
   120
370
     5
100
AcDbLine
 10
3028.838204586542
 20
-2827.582876764919
 30
0.0
 11
3028.838204586542
 21
-3277.582876764919
 31
0.0
  0
LINE
  5
57C
330
1F
100
AcDbEntity
  8
0-6_扉
  6
Continuous
 62
    40
370
    15
100
AcDbLine
 10
3364.176791887822
 20
-1522.946805350493
 30
0.0
 11
3263.414075568743
 21
-1464.771423959394
 31
0.0
  0
LINE
  5
57D
330
1F
100
AcDbEntity
  8
0-A_文字
  6
Continuous
 62
    92
370
    13
100
AcDbLine
 10
2128.454484831313
 20
-12.9076510156365
 30
0.0
 11
4364.727363367086
 21
-12.9076510156365
 31
0.0
  0
LINE
  5
57E
330
1F
100
AcDbEntity
  8
0-A_文字
  6
Continuous
 62
    92
370
    13
100
AcDbLine
 10
2128.454484831313
 20
-192.9076510156365
 30
0.0
 11
4364.727363367086
 21
-192.9076510156365
 31
0.0
  0
LINE
  5
57F
330
1F
100
AcDbEntity
  8
1-4_枠
  6
Continuous
 62
    92
370
    13
100
AcDbLine
 10
3246.33820458654
 20
-3142.582876764919
 30
0.0
 11
3246.33820458654
 21
-2962.582876764917
 31
0.0
  0
LINE
  5
580
330
1F
100
AcDbEntity
  8
1-4_枠
  6
Continuous
 62
    92
370
    13
100
AcDbLine
 10
3216.338204586542
 20
-2962.582876764917
 30
0.0
 11
3246.33820458654
 21
-2962.582876764917
 31
0.0
  0
LINE
  5
581
330
1F
100
AcDbEntity
  8
1-4_枠
  6
Continuous
 62
    92
370
    13
100
AcDbLine
 10
3216.338204586542
 20
-2962.582876764917
 30
0.0
 11
3216.338204586542
 21
-2827.582876764917
 31
0.0
  0
LINE
  5
582
330
1F
100
AcDbEntity
  8
1-4_枠
  6
Continuous
 62
    92
370
    13
100
AcDbLine
 10
3216.338204586542
 20
-3142.582876764919
 30
0.0
 11
3246.33820458654
 21
-3142.582876764919
 31
0.0
  0
LINE
  5
583
330
1F
100
AcDbEntity
  8
1-4_枠
  6
Continuous
 62
    92
370
    13
100
AcDbLine
 10
3216.338204586542
 20
-3142.582876764919
 30
0.0
 11
3216.338204586542
 21
-3277.582876764919
 31
0.0
  0
LINE
  5
584
330
1F
100
AcDbEntity
  8
1-3_仕上げ
  6
Continuous
 62
    40
370
    15
100
AcDbLine
 10
3328.837585986986
 20
-2827.582320025315
 30
0.0
 11
3328.837585986986
 21
-2323.884726260599
 31
0.0
  0
MTEXT
  5
585
330
1F
100
AcDbEntity
  8
0-A_文字
  6
Continuous
 62
     7
370
     9
100
AcDbMText
 10
2346.5909240992
 20
-177.1876510156365
 30
0.0
 40
91.43999999999996
 41
1800.0
 46
0.0
 71
     7
 72
     1
  1
{\fＭＳ ゴシック|b0|i0|c128|p49;振れ止め金具(床付け用)取り付け}
 73
     1
 44
1.0
  0
MTEXT
  5
586
330
1F
100
AcDbEntity
  8
0-A_文字
  6
Continuous
 62
     7
370
     9
100
AcDbMText
 10
2241.90787125327
 20
-380.3725331244
 30
0.0
 40
68.58
 41
1080.0
 46
0.0
 71
     7
 72
     1
  1
{\fＭＳ ゴシック|b0|i0|c128|p49;振れ止め金具(床付け用)を}
 73
     1
 44
1.0
  0
MTEXT
  5
587
330
1F
100
AcDbEntity
  8
0-A_文字
  6
Continuous
 62
     7
370
     9
100
AcDbMText
 10
2241.90787125327
 20
-485.5893648259534
 30
0.0
 40
68.58
 41
1260.0
 46
0.0
 71
     7
 72
     1
  1
{\fＭＳ ゴシック|b0|i0|c128|p49;下記のように床へ取り付けます}
 73
     1
 44
1.0
  0
MTEXT
  5
588
330
1F
100
AcDbEntity
  8
0-A_文字
  6
Continuous
 62
     7
370
     9
100
AcDbMText
 10
2770.561580883977
 20
-877.8729879736624
 30
0.0
 40
68.58
 41
180.0
 46
0.0
 71
     7
 72
     1
  1
{\fＭＳ ゴシック|b0|i0|c128|p49;小壁}
 73
     1
 44
1.0
  0
MTEXT
  5
589
330
1F
100
AcDbEntity
  8
0-A_文字
  6
Continuous
 62
     7
370
     9
100
AcDbMText
 10
3611.014453728564
 20
-1066.558512100119
 30
0.0
 40
68.57999999999998
 41
270.0
 46
0.0
 71
     7
 72
     1
  1
{\fＭＳ ゴシック|b0|i0|c128|p49;中方立}
 73
     1
 44
1.0
  0
MTEXT
  5
58A
330
1F
100
AcDbEntity
  8
0-A_文字
  6
Continuous
 62
     7
370
     9
100
AcDbMText
 10
2316.28998406658
 20
-2424.752294992651
 30
0.0
 40
68.57999999999998
 41
270.0
 46
0.0
 71
     7
 72
     1
  1
{\fＭＳ ゴシック|b0|i0|c128|p49;平面図}
 73
     1
 44
1.0
  0
MTEXT
  5
58B
330
1F
100
AcDbEntity
  8
0-A_文字
  6
Continuous
 62
     7
370
     9
100
AcDbMText
 10
3658.838204586542
 20
-2469.341835394614
 30
0.0
 40
68.58
 41
180.0
 46
0.0
 71
     7
 72
     1
  1
{\fＭＳ ゴシック|b0|i0|c128|p49;小壁}
 73
     1
 44
1.0
  0
MTEXT
  5
58C
330
1F
100
AcDbEntity
  8
0-A_文字
  6
Continuous
 62
     7
370
     9
100
AcDbMText
 10
3478.838204586542
 20
-3108.292876764919
 30
0.0
 40
68.57999999999998
 41
270.0
 46
0.0
 71
     7
 72
     1
  1
{\fＭＳ ゴシック|b0|i0|c128|p49;中方立}
 73
     1
 44
1.0
  0
MTEXT
  5
58D
330
1F
100
AcDbEntity
  8
0-B_寸法
  6
Continuous
 62
     7
370
     9
100
AcDbMText
 10
2510.243736406793
 20
-1214.622572525622
 30
0.0
 40
68.58
 41
450.0
 46
0.0
 71
     7
 72
     1
  1
{\fＭＳ ゴシック|b0|i0|c128|p49;ビス(同梱)}
 73
     1
 44
1.0
  0
MTEXT
  5
58E
330
1F
100
AcDbEntity
  8
0-B_寸法
  6
Continuous
 62
     7
370
   211
100
AcDbMText
 10
3698.487400234409
 20
-1908.138858367997
 30
0.0
 40
91.44
 41
60.0
 46
0.0
 71
     7
 72
     1
  1
{\fＭＳ ゴシック|b0|i0|c128|p49;5}
 73
     1
 44
1.0
  0
MTEXT
  5
58F
330
1F
100
AcDbEntity
  8
0-B_寸法
  6
Continuous
 62
     7
370
   211
100
AcDbMText
 10
2602.023025982618
 20
-2065.416849776413
 30
0.0
 40
91.44
 41
720.0
 46
0.0
 71
     7
 72
     1
  1
{\fＭＳ ゴシック|b0|i0|c128|p49;15(中方立芯)}
 73
     1
 44
1.0
  0
MTEXT
  5
590
330
1F
100
AcDbEntity
  8
0-B_寸法
  6
Continuous
 62
     7
370
     9
100
AcDbMText
 10
3566.427272769125
 20
-2158.723101528549
 30
0.0
 40
68.58000000000001
 41
765.0
 46
0.0
 71
     7
 72
     1
  1
{\fＭＳ ゴシック|b0|i0|c128|p49;※図は左引き(L)の}
 73
     1
 44
1.0
  0
MTEXT
  5
591
330
1F
100
AcDbEntity
  8
0-B_寸法
  6
Continuous
 62
     7
370
     9
100
AcDbMText
 10
3566.427272769125
 20
-2270.209371883757
 30
0.0
 40
68.58
 41
540.0
 46
0.0
 71
     7
 72
     1
  1
{\fＭＳ ゴシック|b0|i0|c128|p49;　場合です。}
 73
     1
 44
1.0
  0
MTEXT
  5
592
330
1F
100
AcDbEntity
  8
1-A_文字
  6
Continuous
 62
     7
370
     9
100
AcDbMText
 10
3192.550764278476
 20
-2744.666892709045
 30
0.0
 40
68.58
 41
810.0
 46
0.0
 71
     7
 72
     1
  1
{\fＭＳ ゴシック|b0|i0|c128|p49;振れ止め金具(床用)}
 73
     1
 44
1.0
  0
MTEXT
  5
593
330
1F
100
AcDbEntity
  8
1-B_寸法
  6
Continuous
 62
     7
370
   211
100
AcDbMText
 10
2946.338204586542
 20
-2529.215635234906
 30
0.0
 40
91.44
 41
120.0
 46
0.0
 71
     7
 72
     1
  1
{\fＭＳ ゴシック|b0|i0|c128|p49;18}
 73
     1
 44
1.0
  0
MTEXT
  5
594
330
1F
100
AcDbEntity
  8
1-B_寸法
  6
Continuous
 62
     7
370
   211
100
AcDbMText
 10
2801.948268900959
 20
-2781.862876764919
 30
0.0
 40
91.44
 41
60.0
 46
0.0
 71
     7
 72
     1
  1
{\fＭＳ ゴシック|b0|i0|c128|p49;3}
 73
     1
 44
1.0
  0
MTEXT
  5
595
330
1F
100
AcDbEntity
  8
1-B_寸法
  6
Continuous
 62
     7
370
   211
100
AcDbMText
 10
2980.088204586542
 20
-2781.862876764919
 30
0.0
 40
91.44
 41
120.0
 46
0.0
 71
     7
 72
     1
  1
{\fＭＳ ゴシック|b0|i0|c128|p49;15}
 73
     1
 44
1.0
  0
MTEXT
  5
596
330
1F
100
AcDbEntity
  8
1-B_寸法
  6
Continuous
 62
     7
370
   211
100
AcDbMText
 10
2704.041007293877
 20
-3126.862876764919
 30
0.0
 40
91.44
 41
120.0
 46
0.0
 71
     7
 72
     1
  1
{\fＭＳ ゴシック|b0|i0|c128|p49;30}
 11
6.123031769111886E-17
 21
1.0
 31
0.0
 73
     1
 44
1.0
  0
MTEXT
  5
597
330
1F
100
AcDbEntity
  8
1-B_寸法
  6
Continuous
 62
     7
370
   211
100
AcDbMText
 10
3003.529307416557
 20
-3478.628452656952
 30
0.0
 40
91.44
 41
60.0
 46
0.0
 71
     7
 72
     1
  1
{\fＭＳ ゴシック|b0|i0|c128|p49;5}
 73
     1
 44
1.0
  0
LINE
  5
598
330
1F
100
AcDbEntity
  8
0-A_文字
  6
Continuous
 62
    92
370
    13
100
AcDbLine
 10
4364.727363367086
 20
-3637.70780336947
 30
0.0
 11
4364.727363367086
 21
-12.9076510156365
 31
0.0
  0
LINE
  5
599
330
1F
100
AcDbEntity
  8
0-A_文字
  6
Continuous
 62
    92
370
    13
100
AcDbLine
 10
2128.454484831313
 20
-3637.70780336947
 30
0.0
 11
2128.454484831313
 21
-12.9076510156365
 31
0.0
  0
LINE
  5
59A
330
1F
100
AcDbEntity
  8
0-A_文字
  6
Continuous
 62
    92
370
    13
100
AcDbLine
 10
2128.454484831313
 20
-3637.70780336947
 30
0.0
 11
4364.727363367086
 21
-3637.70780336947
 31
0.0
  0
MTEXT
  5
59B
330
1F
100
AcDbEntity
  8
F-A_文字
  6
Continuous
 62
     7
370
     0
100
AcDbMText
 10
-5087.628710189611
 20
-4045.24893607839
 30
0.0
 40
79.50199999999998
 41
2347.5
 46
0.0
 71
     7
 72
     1
  1
{\fＭＳ ゴシック|b0|i0|c128|p49;ドレタス　片引き戸　上吊りタイプ　固定枠170巾}
 73
     1
 44
1.0
  0
LINE
  5
59C
330
1F
100
AcDbEntity
  8
F-0_補助線
  6
JWW_HOJO
 62
     7
370
     9
100
AcDbLine
 10
1109.918584083287
 20
-3795.000003092998
 30
0.0
 11
1109.918584083287
 21
-4195.000008247994
 31
0.0
  0
LINE
  5
59D
330
1F
100
AcDbEntity
  8
F-0_補助線
  6
JWW_HOJO
 62
     7
370
     9
100
AcDbLine
 10
4889.917891251784
 20
-3795.000003092998
 30
0.0
 11
4889.917891251784
 21
-4195.000008247994
 31
0.0
  0
MTEXT
  5
59E
330
1F
100
AcDbEntity
  8
F-0_補助線
  6
Continuous
 62
     7
370
     0
100
AcDbMText
 10
1109.918584083287
 20
-3945.948259655243
 30
0.0
 40
78.105
 41
615.0
 46
0.0
 71
     7
 72
     1
  1
{\fＭＳ ゴシック|b0|i0|c128|p49;建具納まり図}
 73
     1
 44
1.0
  0
MTEXT
  5
59F
330
1F
100
AcDbEntity
  8
F-0_補助線
  6
Continuous
 62
     7
370
     0
100
AcDbMText
 10
509.9185840832865
 20
-3945.709576962234
 30
0.0
 40
78.58125
 41
412.5
 46
0.0
 71
     7
 72
     1
  1
{\fＭＳ ゴシック|b0|i0|c128|p49;DOORETUS}
 73
     1
 44
1.0
  0
LWPOLYLINE
  5
5A0
330
1F
100
AcDbEntity
  8
0-B_寸法
  6
Continuous
 62
     7
370
     9
100
AcDbPolyline
 90
        4
 70
     1
 43
3.0
 10
-1087.320570640482
 20
2552.999683277028
 42
0.4142135623731
 10
-1088.820570640482
 20
2554.499683277028
 42
0.4142135623731
 10
-1090.320570640482
 20
2552.999683277028
 42
0.4142135623731
 10
-1088.820570640482
 20
2551.499683277028
 42
0.4142135623731
  0
LWPOLYLINE
  5
5A1
330
1F
100
AcDbEntity
  8
0-B_寸法
  6
Continuous
 62
     7
370
     9
100
AcDbPolyline
 90
        4
 70
     1
 43
3.0
 10
-1087.320570640482
 20
2438.999683277028
 42
0.4142135623731
 10
-1088.820570640482
 20
2440.499683277027
 42
0.4142135623731
 10
-1090.320570640482
 20
2438.999683277028
 42
0.4142135623731
 10
-1088.820570640482
 20
2437.499683277028
 42
0.4142135623731
  0
MTEXT
  5
5A2
330
1F
100
AcDbEntity
  8
0-B_寸法
  6
Continuous
 62
     7
370
     0
100
AcDbMText
 10
-1403.820570640483
 20
2220.450771787542
 30
0.0
 40
91.44
 41
180.0
 46
0.0
 71
     7
 72
     1
  1
{\fＭＳ ゴシック|b0|i0|c128|p49;170}
 11
6.123031769111886E-17
 21
1.0
 31
0.0
 73
     1
 44
1.0
  0
LWPOLYLINE
  5
5A3
330
1F
100
AcDbEntity
  8
0-B_寸法
  6
Continuous
 62
     7
370
     9
100
AcDbPolyline
 90
        4
 70
     1
 43
3.0
 10
-3465.045515168684
 20
-1440.907777864213
 42
0.4142135623731
 10
-3466.545515168684
 20
-1439.407777864214
 42
0.4142135623731
 10
-3468.045515168684
 20
-1440.907777864213
 42
0.4142135623731
 10
-3466.545515168684
 20
-1442.407777864213
 42
0.4142135623731
  0
LWPOLYLINE
  5
5A4
330
1F
100
AcDbEntity
  8
0-B_寸法
  6
Continuous
 62
     7
370
     9
100
AcDbPolyline
 90
        4
 70
     1
 43
3.0
 10
-3579.04551516869
 20
-1440.907777864213
 42
0.4142135623731
 10
-3580.545515168689
 20
-1439.407777864214
 42
0.4142135623731
 10
-3582.045515168689
 20
-1440.907777864213
 42
0.4142135623731
 10
-3580.545515168689
 20
-1442.407777864213
 42
0.4142135623731
  0
MTEXT
  5
5A5
330
1F
100
AcDbEntity
  8
F-A_文字
  6
Continuous
 62
     7
370
     0
100
AcDbMText
 10
4889.917891251784
 20
-3945.570773120548
 30
0.0
 40
78.86699999999999
 41
517.5
 46
0.0
 71
     7
 72
     1
  1
{\fＭＳ ゴシック|b0|i0|c128|p49;2022.04.01}
 73
     1
 44
1.0
  0
LINE
  5
5A6
330
1F
100
AcDbEntity
  8
0-1_通り芯
  6
JWW_CENTER1
 62
   120
370
     5
100
AcDbLine
 10
-3466.545515168684
 20
-258.9076510156378
 30
0.0
 11
-3466.545515168684
 21
-2922.90765101564
 31
0.0
  0
LINE
  5
5A7
330
1F
100
AcDbEntity
  8
0-1_通り芯
  6
JWW_CENTER1
 62
   120
370
     5
100
AcDbLine
 10
-3580.545515168689
 20
194.9998020481414
 30
0.0
 11
-3580.545515168689
 21
-3115.849645980841
 31
0.0
  0
LINE
  5
5A8
330
1F
100
AcDbEntity
  8
0-1_通り芯
  6
JWW_CENTER1
 62
   120
370
     5
100
AcDbLine
 10
-1763.350561122429
 20
2552.999683277028
 30
0.0
 11
1752.649365154278
 21
2552.999683277028
 31
0.0
  0
MTEXT
  5
5A9
330
1F
100
AcDbEntity
  8
0-B_寸法
  6
Continuous
 62
     7
370
   211
100
AcDbMText
 10
-1103.820570640482
 20
2289.719683277027
 30
0.0
 40
91.44
 41
120.0
 46
0.0
 71
     7
 72
     1
  1
{\fＭＳ ゴシック|b0|i0|c128|p49;19}
 11
6.123031769111886E-17
 21
1.0
 31
0.0
 73
     1
 44
1.0
  0
LINE
  5
5AA
330
1F
100
AcDbEntity
  8
0-B_寸法
  6
Continuous
 62
   120
370
     5
100
AcDbLine
 10
-1088.820570640482
 20
2552.999683277028
 30
0.0
 11
-1088.820570640482
 21
2306.999683277027
 31
0.0
  0
LINE
  5
5AB
330
1F
100
AcDbEntity
  8
0-6_扉
  6
Continuous
 62
   200
370
    20
100
AcDbLine
 10
-845.3505232105864
 20
2462.999683277028
 30
0.0
 11
84.64958813733429
 21
2462.999683277028
 31
0.0
  0
LINE
  5
5AC
330
1F
100
AcDbEntity
  8
0-B_寸法
  6
Continuous
 62
   120
370
     5
100
AcDbLine
 10
-129.3006154231611
 20
2462.999683277028
 30
0.0
 11
-279.5783666240681
 21
2462.999683277028
 31
0.0
  0
LINE
  5
5AD
330
1F
100
AcDbEntity
  8
0-B_寸法
  6
Continuous
 62
   120
370
     5
100
AcDbLine
 10
-129.3006154231611
 20
2423.999683277028
 30
0.0
 11
-279.5783666240681
 21
2423.999683277028
 31
0.0
  0
MTEXT
  5
5AE
330
1F
100
AcDbEntity
  8
0-B_寸法
  6
Continuous
 62
     7
370
     0
100
AcDbMText
 10
-3782.884206214813
 20
-890.0126473567368
 30
0.0
 40
91.44
 41
180.0
 46
0.0
 71
     7
 72
     1
  1
{\fＭＳ ゴシック|b0|i0|c128|p49;162}
 73
     1
 44
1.0
  0
LINE
  5
5AF
330
1F
100
AcDbEntity
  8
0-6_扉
  6
Continuous
 62
   200
370
    20
100
AcDbLine
 10
-3556.545515168696
 20
-435.9076510156385
 30
0.0
 11
-3556.545515168696
 21
-1608.907548018813
 31
0.0
  0
MTEXT
  5
5B0
330
1F
100
AcDbEntity
  8
0-B_寸法
  6
Continuous
 62
     7
370
   211
100
AcDbMText
 10
-3715.545515168687
 20
-1440.187777864213
 30
0.0
 40
91.44
 41
120.0
 46
0.0
 71
     7
 72
     1
  1
{\fＭＳ ゴシック|b0|i0|c128|p49;19}
 73
     1
 44
1.0
  0
LINE
  5
5B1
330
1F
100
AcDbEntity
  8
0-B_寸法
  6
Continuous
 62
   120
370
     5
100
AcDbLine
 10
-3466.545515168684
 20
-1440.907777864213
 30
0.0
 11
-3712.54551516869
 21
-1440.907777864213
 31
0.0
  0
MTEXT
  5
5B2
330
1F
100
AcDbEntity
  8
0-B_寸法
  6
Continuous
 62
     7
370
   211
100
AcDbMText
 10
1247.055930011389
 20
2447.969696601941
 30
0.0
 40
91.44
 41
300.0
 46
0.0
 71
     7
 72
     1
  1
{\fＭＳ ゴシック|b0|i0|c128|p49;107.5}
 11
6.123031769111886E-17
 21
1.0
 31
0.0
 73
     1
 44
1.0
  0
ENDSEC
  0
SECTION
  2
OBJECTS
  0
DICTIONARY
  5
C
330
0
100
AcDbDictionary
281
     1
  3
ACAD_GROUP
350
D
  3
ACAD_LAYOUT
350
1A
  3
ACAD_MATERIAL
350
3B
  3
ACAD_MLEADERSTYLE
350
5B4
  3
ACAD_MLINESTYLE
350
17
  3
ACAD_PLOTSETTINGS
350
19
  3
ACAD_PLOTSTYLENAME
350
E
  3
ACAD_TABLESTYLE
350
5B3
  3
ACAD_VISUALSTYLE
350
2A
  0
DICTIONARY
  5
D
102
{ACAD_REACTORS
330
C
102
}
330
C
100
AcDbDictionary
281
     1
  0
DICTIONARY
  5
1A
102
{ACAD_REACTORS
330
C
102
}
330
C
100
AcDbDictionary
281
     1
  3
Layout1
350
1E
  3
Layout2
350
26
  3
Model
350
22
  0
DICTIONARY
  5
3B
102
{ACAD_REACTORS
330
C
102
}
330
C
100
AcDbDictionary
281
     1
  3
ByBlock
350
3D
  3
ByLayer
350
3C
  3
Global
350
3E
  0
DICTIONARY
  5
5B4
102
{ACAD_REACTORS
330
C
102
}
330
C
100
AcDbDictionary
281
     1
  0
DICTIONARY
  5
17
102
{ACAD_REACTORS
330
C
102
}
330
C
100
AcDbDictionary
281
     1
  3
Standard
350
18
  0
DICTIONARY
  5
19
102
{ACAD_REACTORS
330
C
102
}
330
C
100
AcDbDictionary
281
     1
  0
ACDBDICTIONARYWDFLT
  5
E
102
{ACAD_REACTORS
330
C
102
}
330
C
100
AcDbDictionary
281
     1
  3
Normal
350
F
100
AcDbDictionaryWithDefault
340
F
  0
DICTIONARY
  5
5B3
102
{ACAD_REACTORS
330
C
102
}
330
C
100
AcDbDictionary
281
     1
  0
DICTIONARY
  5
2A
102
{ACAD_REACTORS
330
C
102
}
330
C
100
AcDbDictionary
281
     1
  3
2dWireframe
350
2F
  3
3D Hidden
350
31
  3
3dWireframe
350
30
  3
Basic
350
32
  3
Brighten
350
36
  3
ColorChange
350
3A
  3
Conceptual
350
34
  3
Dim
350
35
  3
Facepattern
350
39
  3
Flat
350
2B
  3
FlatWithEdges
350
2C
  3
Gouraud
350
2D
  3
GouraudWithEdges
350
2E
  3
Linepattern
350
38
  3
Realistic
350
33
  3
Thicken
350
37
  0
LAYOUT
  5
1E
102
{ACAD_REACTORS
330
1A
102
}
330
1A
100
AcDbPlotSettings
  1

  2
none_device
  4

  6

 40
0.0
 41
0.0
 42
0.0
 43
0.0
 44
0.0
 45
0.0
 46
0.0
 47
0.0
 48
0.0
 49
0.0
140
0.0
141
0.0
142
1.0
143
1.0
 70
   688
 72
     0
 73
     0
 74
     5
  7

 75
    16
 76
     0
 77
     5
 78
   300
147
1.0
148
0.0
149
0.0
100
AcDbLayout
  1
Layout1
 70
     1
 71
     1
 10
0.0
 20
0.0
 11
420.0
 21
297.0
 12
0.0
 22
0.0
 32
0.0
 14
1.000000000000000E+20
 24
1.000000000000000E+20
 34
1.000000000000000E+20
 15
-1.000000000000000E+20
 25
-1.000000000000000E+20
 35
-1.000000000000000E+20
146
0.0
 13
0.0
 23
0.0
 33
0.0
 16
1.0
 26
0.0
 36
0.0
 17
0.0
 27
1.0
 37
0.0
 76
     0
330
1B
  0
LAYOUT
  5
26
102
{ACAD_REACTORS
330
1A
102
}
330
1A
100
AcDbPlotSettings
  1

  2
none_device
  4

  6

 40
0.0
 41
0.0
 42
0.0
 43
0.0
 44
0.0
 45
0.0
 46
0.0
 47
0.0
 48
0.0
 49
0.0
140
0.0
141
0.0
142
1.0
143
1.0
 70
   688
 72
     0
 73
     0
 74
     5
  7

 75
    16
 76
     0
 77
     5
 78
   300
147
1.0
148
0.0
149
0.0
100
AcDbLayout
  1
Layout2
 70
     1
 71
     2
 10
0.0
 20
0.0
 11
0.0
 21
0.0
 12
0.0
 22
0.0
 32
0.0
 14
0.0
 24
0.0
 34
0.0
 15
0.0
 25
0.0
 35
0.0
146
0.0
 13
0.0
 23
0.0
 33
0.0
 16
1.0
 26
0.0
 36
0.0
 17
0.0
 27
1.0
 37
0.0
 76
     0
330
23
  0
LAYOUT
  5
22
102
{ACAD_REACTORS
330
1A
102
}
330
1A
100
AcDbPlotSettings
  1

  2
none_device
  4

  6

 40
0.0
 41
0.0
 42
0.0
 43
0.0
 44
0.0
 45
0.0
 46
0.0
 47
0.0
 48
0.0
 49
0.0
140
0.0
141
0.0
142
1.0
143
1.0
 70
  1712
 72
     0
 73
     0
 74
     0
  7

 75
     0
 76
     0
 77
     5
 78
   300
147
1.0
148
0.0
149
0.0
100
AcDbLayout
  1
Model
 70
     1
 71
     0
 10
-8910.0
 20
-6300.0
 11
8910.0
 21
6300.0
 12
0.0
 22
0.0
 32
0.0
 14
-8910.0
 24
-6300.0
 34
0.0
 15
8910.0
 25
6300.0
 35
0.0
146
0.0
 13
0.0
 23
0.0
 33
0.0
 16
1.0
 26
0.0
 36
0.0
 17
0.0
 27
1.0
 37
0.0
 76
     0
330
1F
331
29
  0
MATERIAL
  5
3D
102
{ACAD_REACTORS
330
3B
102
}
330
3B
100
AcDbMaterial
  1
ByBlock
 72
     1
 94
      127
  0
MATERIAL
  5
3C
102
{ACAD_REACTORS
330
3B
102
}
330
3B
100
AcDbMaterial
  1
ByLayer
 72
     1
 94
      127
  0
MATERIAL
  5
3E
102
{ACAD_REACTORS
330
3B
102
}
330
3B
100
AcDbMaterial
  1
Global
 72
     1
 94
      127
  0
MLINESTYLE
  5
18
102
{ACAD_REACTORS
330
17
102
}
330
17
100
AcDbMlineStyle
  2
Standard
 70
     0
  3

 62
   256
 51
90.0
 52
90.0
 71
     2
 49
0.5
 62
   256
  6
BYLAYER
 49
-0.5
 62
   256
  6
BYLAYER
  0
ACDBPLACEHOLDER
  5
F
102
{ACAD_REACTORS
330
E
102
}
330
E
  0
VISUALSTYLE
  5
2F
102
{ACAD_REACTORS
330
2A
102
}
330
2A
100
AcDbVisualStyle
  2
2dWireframe
 70
     4
177
     2
291
     0
 71
     0
176
     1
 72
     2
176
     1
 73
     0
176
     1
 90
        0
176
     1
 40
-0.6
176
     1
 41
-30.0
176
     1
 62
     5
 63
     7
421
 16777215
176
     1
 74
     1
176
     1
 91
        4
176
     1
 64
     7
176
     1
 65
   257
176
     1
 75
     1
176
     1
175
     1
176
     1
 42
1.0
176
     1
 92
        0
176
     1
 66
   257
176
     1
 43
1.0
176
     1
 76
     1
176
     1
 77
     6
176
     1
 78
     2
176
     1
 67
     7
176
     1
 79
     5
176
     1
170
     0
176
     1
171
     0
176
     1
290
     0
176
     1
 93
        1
176
     1
 44
0.0
176
     1
173
     0
176
     1
  0
VISUALSTYLE
  5
31
102
{ACAD_REACTORS
330
2A
102
}
330
2A
100
AcDbVisualStyle
  2
3D Hidden
 70
     6
177
     2
291
     0
 71
     1
176
     1
 72
     2
176
     1
 73
     2
176
     1
 90
        0
176
     1
 40
-0.6
176
     1
 41
-30.0
176
     1
 62
     5
 63
     7
421
 16777215
176
     1
 74
     2
176
     1
 91
        2
176
     1
 64
     7
176
     1
 65
   257
176
     1
 75
     2
176
     1
175
     1
176
     1
 42
40.0
176
     1
 92
        0
176
     1
 66
   257
176
     1
 43
1.0
176
     1
 76
     1
176
     1
 77
     6
176
     1
 78
     2
176
     1
 67
     7
176
     1
 79
     3
176
     1
170
     0
176
     1
171
     0
176
     1
290
     0
176
     1
 93
        1
176
     1
 44
0.0
176
     1
173
     0
176
     1
  0
VISUALSTYLE
  5
30
102
{ACAD_REACTORS
330
2A
102
}
330
2A
100
AcDbVisualStyle
  2
3dWireframe
 70
     5
177
     2
291
     0
 71
     0
176
     1
 72
     2
176
     1
 73
     0
176
     1
 90
        0
176
     1
 40
-0.6
176
     1
 41
-30.0
176
     1
 62
     5
 63
     7
421
 16777215
176
     1
 74
     1
176
     1
 91
        4
176
     1
 64
     7
176
     1
 65
   257
176
     1
 75
     1
176
     1
175
     1
176
     1
 42
1.0
176
     1
 92
        0
176
     1
 66
   257
176
     1
 43
1.0
176
     1
 76
     1
176
     1
 77
     6
176
     1
 78
     2
176
     1
 67
     7
176
     1
 79
     5
176
     1
170
     0
176
     1
171
     0
176
     1
290
     0
176
     1
 93
        1
176
     1
 44
0.0
176
     1
173
     0
176
     1
  0
VISUALSTYLE
  5
32
102
{ACAD_REACTORS
330
2A
102
}
330
2A
100
AcDbVisualStyle
  2
Basic
 70
     7
177
     2
291
     1
 71
     1
176
     1
 72
     0
176
     1
 73
     1
176
     1
 90
        0
176
     1
 40
-0.6
176
     1
 41
-30.0
176
     1
 62
     5
 63
     7
421
 16777215
176
     1
 74
     0
176
     1
 91
        4
176
     1
 64
     7
176
     1
 65
   257
176
     1
 75
     1
176
     1
175
     1
176
     1
 42
1.0
176
     1
 92
        8
176
     1
 66
     7
176
     1
 43
1.0
176
     1
 76
     1
176
     1
 77
     6
176
     1
 78
     2
176
     1
 67
     7
176
     1
 79
     5
176
     1
170
     0
176
     1
171
     0
176
     1
290
     0
176
     1
 93
        1
176
     1
 44
0.0
176
     1
173
     0
176
     1
  0
VISUALSTYLE
  5
36
102
{ACAD_REACTORS
330
2A
102
}
330
2A
100
AcDbVisualStyle
  2
Brighten
 70
    12
177
     2
291
     1
 71
     2
176
     1
 72
     2
176
     1
 73
     0
176
     1
 90
        0
176
     1
 40
-0.6
176
     1
 41
-30.0
176
     1
 62
     5
 63
     7
421
 16777215
176
     1
 74
     1
176
     1
 91
        4
176
     1
 64
     7
176
     1
 65
   257
176
     1
 75
     1
176
     1
175
     1
176
     1
 42
1.0
176
     1
 92
        8
176
     1
 66
     7
176
     1
 43
1.0
176
     1
 76
     1
176
     1
 77
     6
176
     1
 78
     2
176
     1
 67
     7
176
     1
 79
     5
176
     1
170
     0
176
     1
171
     0
176
     1
290
     0
176
     1
 93
        1
176
     1
 44
50.0
176
     1
173
     0
176
     1
  0
VISUALSTYLE
  5
3A
102
{ACAD_REACTORS
330
2A
102
}
330
2A
100
AcDbVisualStyle
  2
ColorChange
 70
    16
177
     2
291
     1
 71
     2
176
     1
 72
     2
176
     1
 73
     3
176
     1
 90
        0
176
     1
 40
-0.6
176
     1
 41
-30.0
176
     1
 62
     5
 63
     8
421
  8421504
176
     1
 74
     1
176
     1
 91
        4
176
     1
 64
     7
176
     1
 65
   257
176
     1
 75
     1
176
     1
175
     1
176
     1
 42
1.0
176
     1
 92
        8
176
     1
 66
     8
424
  8421504
176
     1
 43
1.0
176
     1
 76
     1
176
     1
 77
     6
176
     1
 78
     2
176
     1
 67
     7
176
     1
 79
     5
176
     1
170
     0
176
     1
171
     0
176
     1
290
     0
176
     1
 93
        1
176
     1
 44
0.0
176
     1
173
     0
176
     1
  0
VISUALSTYLE
  5
34
102
{ACAD_REACTORS
330
2A
102
}
330
2A
100
AcDbVisualStyle
  2
Conceptual
 70
     9
177
     2
291
     0
 71
     3
176
     1
 72
     2
176
     1
 73
     0
176
     1
 90
        0
176
     1
 40
-0.6
176
     1
 41
-30.0
176
     1
 62
     5
 63
     7
421
 16777215
176
     1
 74
     2
176
     1
 91
        2
176
     1
 64
     7
176
     1
 65
   257
176
     1
 75
     1
176
     1
175
     1
176
     1
 42
40.0
176
     1
 92
        8
176
     1
 66
     7
176
     1
 43
1.0
176
     1
 76
     1
176
     1
 77
     6
176
     1
 78
     2
176
     1
 67
     7
176
     1
 79
     3
176
     1
170
     0
176
     1
171
     0
176
     1
290
     0
176
     1
 93
        1
176
     1
 44
0.0
176
     1
173
     0
176
     1
  0
VISUALSTYLE
  5
35
102
{ACAD_REACTORS
330
2A
102
}
330
2A
100
AcDbVisualStyle
  2
Dim
 70
    11
177
     2
291
     1
 71
     2
176
     1
 72
     2
176
     1
 73
     0
176
     1
 90
        0
176
     1
 40
-0.6
176
     1
 41
-30.0
176
     1
 62
     5
 63
     7
421
 16777215
176
     1
 74
     1
176
     1
 91
        4
176
     1
 64
     7
176
     1
 65
   257
176
     1
 75
     1
176
     1
175
     1
176
     1
 42
1.0
176
     1
 92
        8
176
     1
 66
     7
176
     1
 43
1.0
176
     1
 76
     1
176
     1
 77
     6
176
     1
 78
     2
176
     1
 67
     7
176
     1
 79
     5
176
     1
170
     0
176
     1
171
     0
176
     1
290
     0
176
     1
 93
        1
176
     1
 44
-50.0
176
     1
173
     0
176
     1
  0
VISUALSTYLE
  5
39
102
{ACAD_REACTORS
330
2A
102
}
330
2A
100
AcDbVisualStyle
  2
Facepattern
 70
    15
177
     2
291
     1
 71
     2
176
     1
 72
     2
176
     1
 73
     0
176
     1
 90
        0
176
     1
 40
-0.6
176
     1
 41
-30.0
176
     1
 62
     5
 63
     7
421
 16777215
176
     1
 74
     1
176
     1
 91
        4
176
     1
 64
     7
176
     1
 65
   257
176
     1
 75
     1
176
     1
175
     1
176
     1
 42
1.0
176
     1
 92
        8
176
     1
 66
     7
176
     1
 43
1.0
176
     1
 76
     1
176
     1
 77
     6
176
     1
 78
     2
176
     1
 67
     7
176
     1
 79
     5
176
     1
170
     0
176
     1
171
     0
176
     1
290
     0
176
     1
 93
        1
176
     1
 44
0.0
176
     1
173
     0
176
     1
  0
VISUALSTYLE
  5
2B
102
{ACAD_REACTORS
330
2A
102
}
330
2A
100
AcDbVisualStyle
  2
Flat
 70
     0
177
     2
291
     1
 71
     2
176
     1
 72
     1
176
     1
 73
     1
176
     1
 90
        2
176
     1
 40
-0.6
176
     1
 41
30.0
176
     1
 62
     5
 63
     7
421
 16777215
176
     1
 74
     0
176
     1
 91
        4
176
     1
 64
     7
176
     1
 65
   257
176
     1
 75
     1
176
     1
175
     1
176
     1
 42
1.0
176
     1
 92
        8
176
     1
 66
     7
176
     1
 43
1.0
176
     1
 76
     1
176
     1
 77
     6
176
     1
 78
     2
176
     1
 67
     7
176
     1
 79
     5
176
     1
170
     0
176
     1
171
     0
176
     1
290
     0
176
     1
 93
       13
176
     1
 44
0.0
176
     1
173
     0
176
     1
  0
VISUALSTYLE
  5
2C
102
{ACAD_REACTORS
330
2A
102
}
330
2A
100
AcDbVisualStyle
  2
FlatWithEdges
 70
     1
177
     2
291
     1
 71
     2
176
     1
 72
     1
176
     1
 73
     1
176
     1
 90
        2
176
     1
 40
-0.6
176
     1
 41
30.0
176
     1
 62
     5
 63
     7
421
 16777215
176
     1
 74
     1
176
     1
 91
        4
176
     1
 64
     7
176
     1
 65
   257
176
     1
 75
     1
176
     1
175
     1
176
     1
 42
1.0
176
     1
 92
        0
176
     1
 66
   257
176
     1
 43
1.0
176
     1
 76
     1
176
     1
 77
     6
176
     1
 78
     2
176
     1
 67
     7
176
     1
 79
     5
176
     1
170
     0
176
     1
171
     0
176
     1
290
     0
176
     1
 93
       13
176
     1
 44
0.0
176
     1
173
     0
176
     1
  0
VISUALSTYLE
  5
2D
102
{ACAD_REACTORS
330
2A
102
}
330
2A
100
AcDbVisualStyle
  2
Gouraud
 70
     2
177
     2
291
     1
 71
     2
176
     1
 72
     2
176
     1
 73
     1
176
     1
 90
        2
176
     1
 40
-0.6
176
     1
 41
30.0
176
     1
 62
     5
 63
     7
421
 16777215
176
     1
 74
     0
176
     1
 91
        4
176
     1
 64
     7
176
     1
 65
   257
176
     1
 75
     1
176
     1
175
     1
176
     1
 42
1.0
176
     1
 92
        0
176
     1
 66
     7
176
     1
 43
1.0
176
     1
 76
     1
176
     1
 77
     6
176
     1
 78
     2
176
     1
 67
     7
176
     1
 79
     5
176
     1
170
     0
176
     1
171
     0
176
     1
290
     0
176
     1
 93
       13
176
     1
 44
0.0
176
     1
173
     0
176
     1
  0
VISUALSTYLE
  5
2E
102
{ACAD_REACTORS
330
2A
102
}
330
2A
100
AcDbVisualStyle
  2
GouraudWithEdges
 70
     3
177
     2
291
     1
 71
     2
176
     1
 72
     2
176
     1
 73
     1
176
     1
 90
        2
176
     1
 40
-0.6
176
     1
 41
30.0
176
     1
 62
     5
 63
     7
421
 16777215
176
     1
 74
     1
176
     1
 91
        4
176
     1
 64
     7
176
     1
 65
   257
176
     1
 75
     1
176
     1
175
     1
176
     1
 42
1.0
176
     1
 92
        0
176
     1
 66
   257
176
     1
 43
1.0
176
     1
 76
     1
176
     1
 77
     6
176
     1
 78
     2
176
     1
 67
     7
176
     1
 79
     5
176
     1
170
     0
176
     1
171
     0
176
     1
290
     0
176
     1
 93
       13
176
     1
 44
0.0
176
     1
173
     0
176
     1
  0
VISUALSTYLE
  5
38
102
{ACAD_REACTORS
330
2A
102
}
330
2A
100
AcDbVisualStyle
  2
Linepattern
 70
    14
177
     2
291
     1
 71
     2
176
     1
 72
     2
176
     1
 73
     0
176
     1
 90
        0
176
     1
 40
-0.6
176
     1
 41
-30.0
176
     1
 62
     5
 63
     7
421
 16777215
176
     1
 74
     1
176
     1
 91
        4
176
     1
 64
     7
176
     1
 65
   257
176
     1
 75
     7
176
     1
175
     7
176
     1
 42
1.0
176
     1
 92
        8
176
     1
 66
     7
176
     1
 43
1.0
176
     1
 76
     1
176
     1
 77
     6
176
     1
 78
     2
176
     1
 67
     7
176
     1
 79
     5
176
     1
170
     0
176
     1
171
     0
176
     1
290
     0
176
     1
 93
        1
176
     1
 44
0.0
176
     1
173
     0
176
     1
  0
VISUALSTYLE
  5
33
102
{ACAD_REACTORS
330
2A
102
}
330
2A
100
AcDbVisualStyle
  2
Realistic
 70
     8
177
     2
291
     0
 71
     2
176
     1
 72
     2
176
     1
 73
     0
176
     1
 90
        0
176
     1
 40
-0.6
176
     1
 41
-30.0
176
     1
 62
     5
 63
     7
421
 16777215
176
     1
 74
     1
176
     1
 91
        0
176
     1
 64
     7
176
     1
 65
   257
176
     1
 75
     1
176
     1
175
     1
176
     1
 42
1.0
176
     1
 92
        8
176
     1
 66
     8
424
  7895160
176
     1
 43
1.0
176
     1
 76
     1
176
     1
 77
     6
176
     1
 78
     2
176
     1
 67
     7
176
     1
 79
     5
176
     1
170
     0
176
     1
171
     0
176
     1
290
     0
176
     1
 93
       13
176
     1
 44
0.0
176
     1
173
     0
176
     1
  0
VISUALSTYLE
  5
37
102
{ACAD_REACTORS
330
2A
102
}
330
2A
100
AcDbVisualStyle
  2
Thicken
 70
    13
177
     2
291
     1
 71
     2
176
     1
 72
     2
176
     1
 73
     0
176
     1
 90
        0
176
     1
 40
-0.6
176
     1
 41
-30.0
176
     1
 62
     5
 63
     7
421
 16777215
176
     1
 74
     1
176
     1
 91
        4
176
     1
 64
     7
176
     1
 65
   257
176
     1
 75
     1
176
     1
175
     1
176
     1
 42
1.0
176
     1
 92
       12
176
     1
 66
     7
176
     1
 43
1.0
176
     1
 76
     1
176
     1
 77
     6
176
     1
 78
     2
176
     1
 67
     7
176
     1
 79
     5
176
     1
170
     0
176
     1
171
     0
176
     1
290
     0
176
     1
 93
        1
176
     1
 44
0.0
176
     1
173
     0
176
     1
  0
ENDSEC
  0
EOF
