  0
SECTION
  2
HEADER
  9
$ACADVER
  1
AC1024
  9
$ACADMAINTVER
 70
     6
  9
$DWGCODEPAGE
  3
ANSI_932
  9
$INSBASE
 10
0.0
 20
0.0
 30
0.0
  9
$EXTMIN
 10
-8910.0
 20
-6300.0
 30
0.0
  9
$EXTMAX
 10
8910.0
 20
6300.0
 30
0.0
  9
$LIMMIN
 10
-8910.0
 20
-6300.0
  9
$LIMMAX
 10
8910.0
 20
6300.0
  9
$ORTHOMODE
 70
     0
  9
$REGENMODE
 70
     1
  9
$FILLMODE
 70
     1
  9
$QTEXTMODE
 70
     0
  9
$MIRRTEXT
 70
     1
  9
$LTSCALE
 40
30.0
  9
$ATTMODE
 70
     1
  9
$TEXTSIZE
 40
2.5
  9
$TRACEWID
 40
1.0
  9
$TEXTSTYLE
  7
Standard
  9
$CLAYER
  8
0
  9
$CELTYPE
  6
ByLayer
  9
$CECOLOR
 62
   256
  9
$CELTSCALE
 40
1.0
  9
$DISPSILH
 70
     0
  9
$DIMSCALE
 40
1.0
  9
$DIMASZ
 40
2.5
  9
$DIMEXO
 40
0.625
  9
$DIMDLI
 40
3.75
  9
$DIMRND
 40
0.0
  9
$DIMDLE
 40
0.0
  9
$DIMEXE
 40
1.25
  9
$DIMTP
 40
0.0
  9
$DIMTM
 40
0.0
  9
$DIMTXT
 40
2.5
  9
$DIMCEN
 40
2.5
  9
$DIMTSZ
 40
0.0
  9
$DIMTOL
 70
     0
  9
$DIMLIM
 70
     0
  9
$DIMTIH
 70
     0
  9
$DIMTOH
 70
     0
  9
$DIMSE1
 70
     0
  9
$DIMSE2
 70
     0
  9
$DIMTAD
 70
     1
  9
$DIMZIN
 70
     8
  9
$DIMBLK
  1

  9
$DIMASO
 70
     1
  9
$DIMSHO
 70
     1
  9
$DIMPOST
  1

  9
$DIMAPOST
  1

  9
$DIMALT
 70
     0
  9
$DIMALTD
 70
     3
  9
$DIMALTF
 40
0.03937007874016
  9
$DIMLFAC
 40
1.0
  9
$DIMTOFL
 70
     1
  9
$DIMTVP
 40
0.0
  9
$DIMTIX
 70
     0
  9
$DIMSOXD
 70
     0
  9
$DIMSAH
 70
     0
  9
$DIMBLK1
  1

  9
$DIMBLK2
  1

  9
$DIMSTYLE
  2
ISO-25
  9
$DIMCLRD
 70
     0
  9
$DIMCLRE
 70
     0
  9
$DIMCLRT
 70
     0
  9
$DIMTFAC
 40
1.0
  9
$DIMGAP
 40
0.625
  9
$DIMJUST
 70
     0
  9
$DIMSD1
 70
     0
  9
$DIMSD2
 70
     0
  9
$DIMTOLJ
 70
     0
  9
$DIMTZIN
 70
     8
  9
$DIMALTZ
 70
     0
  9
$DIMALTTZ
 70
     0
  9
$DIMUPT
 70
     0
  9
$DIMDEC
 70
     2
  9
$DIMTDEC
 70
     2
  9
$DIMALTU
 70
     2
  9
$DIMALTTD
 70
     3
  9
$DIMTXSTY
  7
Standard
  9
$DIMAUNIT
 70
     0
  9
$DIMADEC
 70
     0
  9
$DIMALTRND
 40
0.0
  9
$DIMAZIN
 70
     0
  9
$DIMDSEP
 70
    44
  9
$DIMATFIT
 70
     3
  9
$DIMFRAC
 70
     0
  9
$DIMLDRBLK
  1

  9
$DIMLUNIT
 70
     2
  9
$DIMLWD
 70
    -2
  9
$DIMLWE
 70
    -2
  9
$DIMTMOVE
 70
     0
  9
$DIMFXL
 40
1.0
  9
$DIMFXLON
 70
     0
  9
$DIMJOGANG
 40
0.7853981633974483
  9
$DIMTFILL
 70
     0
  9
$DIMTFILLCLR
 70
     0
  9
$DIMARCSYM
 70
     0
  9
$DIMLTYPE
  6

  9
$DIMLTEX1
  6

  9
$DIMLTEX2
  6

  9
$DIMTXTDIRECTION
 70
     0
  9
$LUNITS
 70
     2
  9
$LUPREC
 70
     4
  9
$SKETCHINC
 40
1.0
  9
$FILLETRAD
 40
10.0
  9
$AUNITS
 70
     0
  9
$AUPREC
 70
     0
  9
$MENU
  1
.
  9
$ELEVATION
 40
0.0
  9
$PELEVATION
 40
0.0
  9
$THICKNESS
 40
0.0
  9
$LIMCHECK
 70
     0
  9
$CHAMFERA
 40
10.0
  9
$CHAMFERB
 40
10.0
  9
$CHAMFERC
 40
20.0
  9
$CHAMFERD
 40
0.0
  9
$SKPOLY
 70
     0
  9
$TDCREATE
 40
2459720.720127813
  9
$TDUCREATE
 40
2459720.345127813
  9
$TDUPDATE
 40
2459720.720127824
  9
$TDUUPDATE
 40
2459720.345127824
  9
$TDINDWG
 40
0.0000000116
  9
$TDUSRTIMER
 40
0.0000000116
  9
$USRTIMER
 70
     1
  9
$ANGBASE
 50
0.0
  9
$ANGDIR
 70
     0
  9
$PDMODE
 70
     0
  9
$PDSIZE
 40
0.0
  9
$PLINEWID
 40
0.0
  9
$SPLFRAME
 70
     0
  9
$SPLINETYPE
 70
     6
  9
$SPLINESEGS
 70
     8
  9
$HANDSEED
  5
5A7
  9
$SURFTAB1
 70
     6
  9
$SURFTAB2
 70
     6
  9
$SURFTYPE
 70
     6
  9
$SURFU
 70
     6
  9
$SURFV
 70
     6
  9
$UCSBASE
  2

  9
$UCSNAME
  2

  9
$UCSORG
 10
0.0
 20
0.0
 30
0.0
  9
$UCSXDIR
 10
1.0
 20
0.0
 30
0.0
  9
$UCSYDIR
 10
0.0
 20
1.0
 30
0.0
  9
$UCSORTHOREF
  2

  9
$UCSORTHOVIEW
 70
     0
  9
$UCSORGTOP
 10
0.0
 20
0.0
 30
0.0
  9
$UCSORGBOTTOM
 10
0.0
 20
0.0
 30
0.0
  9
$UCSORGLEFT
 10
0.0
 20
0.0
 30
0.0
  9
$UCSORGRIGHT
 10
0.0
 20
0.0
 30
0.0
  9
$UCSORGFRONT
 10
0.0
 20
0.0
 30
0.0
  9
$UCSORGBACK
 10
0.0
 20
0.0
 30
0.0
  9
$PUCSBASE
  2

  9
$PUCSNAME
  2

  9
$PUCSORG
 10
0.0
 20
0.0
 30
0.0
  9
$PUCSXDIR
 10
1.0
 20
0.0
 30
0.0
  9
$PUCSYDIR
 10
0.0
 20
1.0
 30
0.0
  9
$PUCSORTHOREF
  2

  9
$PUCSORTHOVIEW
 70
     0
  9
$PUCSORGTOP
 10
0.0
 20
0.0
 30
0.0
  9
$PUCSORGBOTTOM
 10
0.0
 20
0.0
 30
0.0
  9
$PUCSORGLEFT
 10
0.0
 20
0.0
 30
0.0
  9
$PUCSORGRIGHT
 10
0.0
 20
0.0
 30
0.0
  9
$PUCSORGFRONT
 10
0.0
 20
0.0
 30
0.0
  9
$PUCSORGBACK
 10
0.0
 20
0.0
 30
0.0
  9
$USERI1
 70
     0
  9
$USERI2
 70
     0
  9
$USERI3
 70
     0
  9
$USERI4
 70
     0
  9
$USERI5
 70
     0
  9
$USERR1
 40
0.0
  9
$USERR2
 40
0.0
  9
$USERR3
 40
0.0
  9
$USERR4
 40
0.0
  9
$USERR5
 40
0.0
  9
$WORLDVIEW
 70
     1
  9
$SHADEDGE
 70
     3
  9
$SHADEDIF
 70
    70
  9
$TILEMODE
 70
     1
  9
$MAXACTVP
 70
    64
  9
$PINSBASE
 10
0.0
 20
0.0
 30
0.0
  9
$PLIMCHECK
 70
     0
  9
$PEXTMIN
 10
1.000000000000000E+20
 20
1.000000000000000E+20
 30
1.000000000000000E+20
  9
$PEXTMAX
 10
-1.000000000000000E+20
 20
-1.000000000000000E+20
 30
-1.000000000000000E+20
  9
$PLIMMIN
 10
0.0
 20
0.0
  9
$PLIMMAX
 10
420.0
 20
297.0
  9
$UNITMODE
 70
     0
  9
$VISRETAIN
 70
     1
  9
$PLINEGEN
 70
     0
  9
$PSLTSCALE
 70
     1
  9
$TREEDEPTH
 70
  3020
  9
$CMLSTYLE
  2
Standard
  9
$CMLJUST
 70
     0
  9
$CMLSCALE
 40
20.0
  9
$PROXYGRAPHICS
 70
     1
  9
$MEASUREMENT
 70
     1
  9
$CELWEIGHT
370
    -1
  9
$ENDCAPS
280
     0
  9
$JOINSTYLE
280
     0
  9
$LWDISPLAY
290
     0
  9
$INSUNITS
 70
     4
  9
$HYPERLINKBASE
  1

  9
$STYLESHEET
  1

  9
$XEDIT
290
     1
  9
$CEPSNTYPE
380
     0
  9
$PSTYLEMODE
290
     1
  9
$FINGERPRINTGUID
  2
{B018D99A-F4EF-4DCA-B4BA-E787182EAE6F}
  9
$VERSIONGUID
  2
{FAEB1C32-E019-11D5-929B-00C0DF256EC4}
  9
$EXTNAMES
290
     1
  9
$PSVPSCALE
 40
0.0
  9
$OLESTARTUP
290
     0
  9
$SORTENTS
280
   127
  9
$INDEXCTL
280
     0
  9
$HIDETEXT
280
     1
  9
$XCLIPFRAME
280
     2
  9
$HALOGAP
280
     0
  9
$OBSCOLOR
 70
   257
  9
$OBSLTYPE
280
     0
  9
$INTERSECTIONDISPLAY
280
     0
  9
$INTERSECTIONCOLOR
 70
   257
  9
$DIMASSOC
280
     2
  9
$PROJECTNAME
  1

  9
$CAMERADISPLAY
290
     0
  9
$LENSLENGTH
 40
50.0
  9
$CAMERAHEIGHT
 40
0.0
  9
$STEPSPERSEC
 40
2.0
  9
$STEPSIZE
 40
6.0
  9
$3DDWFPREC
 40
2.0
  9
$PSOLWIDTH
 40
5.0
  9
$PSOLHEIGHT
 40
80.0
  9
$LOFTANG1
 40
1.570796326794897
  9
$LOFTANG2
 40
1.570796326794897
  9
$LOFTMAG1
 40
0.0
  9
$LOFTMAG2
 40
0.0
  9
$LOFTPARAM
 70
     7
  9
$LOFTNORMALS
280
     1
  9
$LATITUDE
 40
37.795
  9
$LONGITUDE
 40
-122.394
  9
$NORTHDIRECTION
 40
0.0
  9
$TIMEZONE
 70
 -8000
  9
$LIGHTGLYPHDISPLAY
280
     1
  9
$TILEMODELIGHTSYNCH
280
     1
  9
$SOLIDHIST
280
     1
  9
$SHOWHIST
280
     1
  9
$DWFFRAME
280
     2
  9
$DGNFRAME
280
     2
  9
$REALWORLDSCALE
290
     1
  9
$INTERFERECOLOR
 62
   256
  9
$CSHADOW
280
     0
  9
$SHADOWPLANELOCATION
 40
0.0
  0
ENDSEC
  0
SECTION
  2
CLASSES
  0
CLASS
  1
ACDBDICTIONARYWDFLT
  2
AcDbDictionaryWithDefault
  3
ObjectDBX Classes
 90
        0
 91
        4
280
     0
281
     0
  0
CLASS
  1
VISUALSTYLE
  2
AcDbVisualStyle
  3
ObjectDBX Classes
 90
     4095
 91
        4
280
     0
281
     0
  0
CLASS
  1
MATERIAL
  2
AcDbMaterial
  3
ObjectDBX Classes
 90
     1153
 91
        4
280
     0
281
     0
  0
ENDSEC
  0
SECTION
  2
TABLES
  0
TABLE
  2
VPORT
  5
8
330
0
100
AcDbSymbolTable
 70
     1
  0
VPORT
  5
29
330
8
100
AcDbSymbolTableRecord
100
AcDbViewportTableRecord
  2
*Active
 70
     0
 10
0.0
 20
0.0
 11
1.0
 21
1.0
 12
0.0
 22
0.0
 13
0.0
 23
0.0
 14
10.0
 24
10.0
 15
10.0
 25
10.0
 16
0.0
 26
0.0
 36
1.0
 17
0.0
 27
0.0
 37
0.0
 40
13860.0
 41
1.414285714285714
 42
50.0
 43
0.0
 44
0.0
 50
0.0
 51
0.0
 71
     0
 72
 10000
 73
     1
 74
     3
 75
     0
 76
     0
 77
     0
 78
     0
281
     0
 65
     1
110
0.0
120
0.0
130
0.0
111
1.0
121
0.0
131
0.0
112
0.0
122
1.0
132
0.0
 79
     0
146
0.0
 60
     3
 61
     5
292
     1
282
     1
141
0.0
142
0.0
 63
   250
  0
ENDTAB
  0
TABLE
  2
LTYPE
  5
5
330
0
100
AcDbSymbolTable
 70
     5
  0
LTYPE
  5
14
330
5
100
AcDbSymbolTableRecord
100
AcDbLinetypeTableRecord
  2
ByBlock
 70
     0
  3

 72
    65
 73
     0
 40
0.0
  0
LTYPE
  5
15
330
5
100
AcDbSymbolTableRecord
100
AcDbLinetypeTableRecord
  2
ByLayer
 70
     0
  3

 72
    65
 73
     0
 40
0.0
  0
LTYPE
  5
16
330
5
100
AcDbSymbolTableRecord
100
AcDbLinetypeTableRecord
  2
Continuous
 70
     0
  3
Solid line
 72
    65
 73
     0
 40
0.0
  0
LTYPE
  5
3F
330
5
100
AcDbSymbolTableRecord
100
AcDbLinetypeTableRecord
  2
JWW_HOJO
 70
     0
  3
  -   -   -   -   -   -   -   - 
 72
    65
 73
     2
 40
1.693333333333333
 49
-1.27
 74
     0
 49
0.4233333333333333
 74
     0
  0
LTYPE
  5
40
330
5
100
AcDbSymbolTableRecord
100
AcDbLinetypeTableRecord
  2
JWW_CENTER1
 70
     0
  3
-----  --  ----------  --  -----
 72
    65
 73
     4
 40
6.773333333333333
 49
4.233333333333333
 74
     0
 49
-0.8466666666666667
 74
     0
 49
0.8466666666666667
 74
     0
 49
-0.8466666666666667
 74
     0
  0
LTYPE
  5
41
330
5
100
AcDbSymbolTableRecord
100
AcDbLinetypeTableRecord
  2
JWW_DASHED1
 70
     0
  3
-  --  --  --  --  --  --  --  -
 72
    65
 73
     2
 40
1.693333333333333
 49
0.8466666666666667
 74
     0
 49
-0.8466666666666667
 74
     0
  0
LTYPE
  5
42
330
5
100
AcDbSymbolTableRecord
100
AcDbLinetypeTableRecord
  2
JWW_DASHED2
 70
     0
  3
--    ----    ----    ----    --
 72
    65
 73
     2
 40
3.386666666666667
 49
1.693333333333333
 74
     0
 49
-1.693333333333333
 74
     0
  0
ENDTAB
  0
TABLE
  2
LAYER
  5
2
330
0
100
AcDbSymbolTable
 70
    23
  0
LAYER
  5
10
330
2
100
AcDbSymbolTableRecord
100
AcDbLayerTableRecord
  2
0
 70
     0
 62
     7
  6
Continuous
370
    -3
390
F
347
3E
  0
LAYER
  5
43
330
2
100
AcDbSymbolTableRecord
100
AcDbLayerTableRecord
  2
F-0_補助線
 70
     0
 62
     7
  6
Continuous
370
    -3
390
F
347
3E
  0
LAYER
  5
44
330
2
100
AcDbSymbolTableRecord
100
AcDbLayerTableRecord
  2
F-1_枠
 70
     0
 62
     7
  6
Continuous
370
    -3
390
F
347
3E
  0
LAYER
  5
45
330
2
100
AcDbSymbolTableRecord
100
AcDbLayerTableRecord
  2
F-A_文字
 70
     0
 62
     7
  6
Continuous
370
    -3
390
F
347
3E
  0
LAYER
  5
46
330
2
100
AcDbSymbolTableRecord
100
AcDbLayerTableRecord
  2
0-A_文字
 70
     0
 62
     7
  6
Continuous
370
    -3
390
F
347
3E
  0
LAYER
  5
47
330
2
100
AcDbSymbolTableRecord
100
AcDbLayerTableRecord
  2
0-4_枠
 70
     0
 62
     7
  6
Continuous
370
    -3
390
F
347
3E
  0
LAYER
  5
48
330
2
100
AcDbSymbolTableRecord
100
AcDbLayerTableRecord
  2
0-3_仕上げ
 70
     0
 62
     7
  6
Continuous
370
    -3
390
F
347
3E
  0
LAYER
  5
49
330
2
100
AcDbSymbolTableRecord
100
AcDbLayerTableRecord
  2
0-B_寸法
 70
     0
 62
     7
  6
Continuous
370
    -3
390
F
347
3E
  0
LAYER
  5
4A
330
2
100
AcDbSymbolTableRecord
100
AcDbLayerTableRecord
  2
0-1_通り芯
 70
     0
 62
     7
  6
Continuous
370
    -3
390
F
347
3E
  0
LAYER
  5
4B
330
2
100
AcDbSymbolTableRecord
100
AcDbLayerTableRecord
  2
0-C_ハッチ
 70
     0
 62
     7
  6
Continuous
370
    -3
390
F
347
3E
  0
LAYER
  5
4C
330
2
100
AcDbSymbolTableRecord
100
AcDbLayerTableRecord
  2
0-7_金物
 70
     0
 62
     7
  6
Continuous
370
    -3
390
F
347
3E
  0
LAYER
  5
4D
330
2
100
AcDbSymbolTableRecord
100
AcDbLayerTableRecord
  2
0-6_扉
 70
     0
 62
     7
  6
Continuous
370
    -3
390
F
347
3E
  0
LAYER
  5
4E
330
2
100
AcDbSymbolTableRecord
100
AcDbLayerTableRecord
  2
0-2_柱
 70
     0
 62
     7
  6
Continuous
370
    -3
390
F
347
3E
  0
LAYER
  5
4F
330
2
100
AcDbSymbolTableRecord
100
AcDbLayerTableRecord
  2
0-0_補助線
 70
     0
 62
     7
  6
Continuous
370
    -3
390
F
347
3E
  0
LAYER
  5
50
330
2
100
AcDbSymbolTableRecord
100
AcDbLayerTableRecord
  2
戸当り
 70
     0
 62
     7
  6
Continuous
370
    -3
390
F
347
3E
  0
LAYER
  5
51
330
2
100
AcDbSymbolTableRecord
100
AcDbLayerTableRecord
  2
1-B_寸法
 70
     0
 62
     7
  6
Continuous
370
    -3
390
F
347
3E
  0
LAYER
  5
52
330
2
100
AcDbSymbolTableRecord
100
AcDbLayerTableRecord
  2
1-7_金物
 70
     0
 62
     7
  6
Continuous
370
    -3
390
F
347
3E
  0
LAYER
  5
53
330
2
100
AcDbSymbolTableRecord
100
AcDbLayerTableRecord
  2
1-4_枠
 70
     0
 62
     7
  6
Continuous
370
    -3
390
F
347
3E
  0
LAYER
  5
54
330
2
100
AcDbSymbolTableRecord
100
AcDbLayerTableRecord
  2
1-A_文字
 70
     0
 62
     7
  6
Continuous
370
    -3
390
F
347
3E
  0
LAYER
  5
55
330
2
100
AcDbSymbolTableRecord
100
AcDbLayerTableRecord
  2
1-3_仕上げ
 70
     0
 62
     7
  6
Continuous
370
    -3
390
F
347
3E
  0
LAYER
  5
56
330
2
100
AcDbSymbolTableRecord
100
AcDbLayerTableRecord
  2
1-6_扉
 70
     0
 62
     7
  6
Continuous
370
    -3
390
F
347
3E
  0
LAYER
  5
57
330
2
100
AcDbSymbolTableRecord
100
AcDbLayerTableRecord
  2
1-1_通り芯
 70
     0
 62
     7
  6
Continuous
370
    -3
390
F
347
3E
  0
LAYER
  5
58
330
2
100
AcDbSymbolTableRecord
100
AcDbLayerTableRecord
  2
1-0_補助線
 70
     0
 62
     7
  6
Continuous
370
    -3
390
F
347
3E
  0
ENDTAB
  0
TABLE
  2
STYLE
  5
3
330
0
100
AcDbSymbolTable
 70
     1
  0
STYLE
  5
11
330
3
100
AcDbSymbolTableRecord
100
AcDbTextStyleTableRecord
  2
Standard
 70
     0
 40
0.0
 41
1.0
 50
0.0
 71
     0
 42
2.5
  3
txt
  4

  0
ENDTAB
  0
TABLE
  2
VIEW
  5
6
330
0
100
AcDbSymbolTable
 70
     0
  0
ENDTAB
  0
TABLE
  2
UCS
  5
7
330
0
100
AcDbSymbolTable
 70
     0
  0
ENDTAB
  0
TABLE
  2
APPID
  5
9
330
0
100
AcDbSymbolTable
 70
     1
  0
APPID
  5
12
330
9
100
AcDbSymbolTableRecord
100
AcDbRegAppTableRecord
  2
ACAD
 70
     0
  0
ENDTAB
  0
TABLE
  2
DIMSTYLE
  5
A
330
0
100
AcDbSymbolTable
 70
     1
100
AcDbDimStyleTable
  0
DIMSTYLE
105
27
330
A
100
AcDbSymbolTableRecord
100
AcDbDimStyleTableRecord
  2
ISO-25
 70
     0
 41
2.5
 42
0.625
 43
3.75
 44
1.25
 73
     0
 74
     0
 77
     1
 78
     8
140
2.5
141
2.5
143
0.03937007874016
147
0.625
171
     3
172
     1
178
     0
271
     2
272
     2
274
     3
278
    44
283
     0
284
     8
340
11
  0
ENDTAB
  0
TABLE
  2
BLOCK_RECORD
  5
1
330
0
100
AcDbSymbolTable
 70
     1
  0
BLOCK_RECORD
  5
1F
330
1
100
AcDbSymbolTableRecord
100
AcDbBlockTableRecord
  2
*Model_Space
340
22
 70
     0
280
     1
281
     0
  0
BLOCK_RECORD
  5
1B
330
1
100
AcDbSymbolTableRecord
100
AcDbBlockTableRecord
  2
*Paper_Space
340
1E
 70
     0
280
     1
281
     0
  0
BLOCK_RECORD
  5
23
330
1
100
AcDbSymbolTableRecord
100
AcDbBlockTableRecord
  2
*Paper_Space0
340
26
 70
     0
280
     1
281
     0
  0
ENDTAB
  0
ENDSEC
  0
SECTION
  2
BLOCKS
  0
BLOCK
  5
20
330
1F
100
AcDbEntity
  8
0
100
AcDbBlockBegin
  2
*Model_Space
 70
     0
 10
0.0
 20
0.0
 30
0.0
  3
*Model_Space
  1

  0
ENDBLK
  5
21
330
1F
100
AcDbEntity
  8
0
100
AcDbBlockEnd
  0
BLOCK
  5
1C
330
1B
100
AcDbEntity
 67
     1
  8
0
100
AcDbBlockBegin
  2
*Paper_Space
 70
     0
 10
0.0
 20
0.0
 30
0.0
  3
*Paper_Space
  1

  0
ENDBLK
  5
1D
330
1B
100
AcDbEntity
 67
     1
  8
0
100
AcDbBlockEnd
  0
BLOCK
  5
24
330
23
100
AcDbEntity
  8
0
100
AcDbBlockBegin
  2
*Paper_Space0
 70
     0
 10
0.0
 20
0.0
 30
0.0
  3
*Paper_Space0
  1

  0
ENDBLK
  5
25
330
23
100
AcDbEntity
  8
0
100
AcDbBlockEnd
  0
ENDSEC
  0
SECTION
  2
ENTITIES
  0
LINE
  5
59
330
1F
100
AcDbEntity
  8
F-0_補助線
  6
JWW_HOJO
 62
   120
370
     5
100
AcDbLine
 10
-6140.081333436773
 20
-4455.0
 30
0.0
 11
-6140.081333436773
 21
4424.999604096284
 31
0.0
  0
LINE
  5
5A
330
1F
100
AcDbEntity
  8
F-0_補助線
  6
JWW_HOJO
 62
   120
370
     5
100
AcDbLine
 10
-6140.081333436773
 20
4424.999604096284
 30
0.0
 11
6159.917676803936
 21
4424.999604096284
 31
0.0
  0
LINE
  5
5B
330
1F
100
AcDbEntity
  8
F-0_補助線
  6
JWW_HOJO
 62
   120
370
     5
100
AcDbLine
 10
6159.917676803936
 20
4424.999604096284
 30
0.0
 11
6159.917676803936
 21
-4455.0
 31
0.0
  0
LINE
  5
5C
330
1F
100
AcDbEntity
  8
F-0_補助線
  6
JWW_HOJO
 62
   120
370
     5
100
AcDbLine
 10
6159.917676803936
 20
-4455.0
 30
0.0
 11
-6140.081333436773
 21
-4455.0
 31
0.0
  0
LINE
  5
5D
330
1F
100
AcDbEntity
  8
F-0_補助線
  6
JWW_HOJO
 62
     7
370
     5
100
AcDbLine
 10
509.9185840832865
 20
-3795.000003092998
 30
0.0
 11
509.9185840832865
 21
-4195.000008247994
 31
0.0
  0
LINE
  5
5E
330
1F
100
AcDbEntity
  8
F-1_枠
  6
Continuous
 62
   200
370
     5
100
AcDbLine
 10
5859.917429364114
 20
4174.999769056166
 30
0.0
 11
5859.917429364114
 21
-4205.000164959882
 31
0.0
  0
LINE
  5
5F
330
1F
100
AcDbEntity
  8
F-1_枠
  6
Continuous
 62
   200
370
     5
100
AcDbLine
 10
-5840.081317971782
 20
4174.999769056166
 30
0.0
 11
-5840.081317971782
 21
-4205.000164959882
 31
0.0
  0
LINE
  5
60
330
1F
100
AcDbEntity
  8
F-1_枠
  6
Continuous
 62
   200
370
     5
100
AcDbLine
 10
5859.917429364114
 20
-4205.000002577498
 30
0.0
 11
-5840.081085996952
 21
-4205.000002577498
 31
0.0
  0
LINE
  5
61
330
1F
100
AcDbEntity
  8
F-1_枠
  6
Continuous
 62
   200
370
     5
100
AcDbLine
 10
-5830.081323642279
 20
4174.999769056166
 30
0.0
 11
-5830.081323642279
 21
-4205.000164959882
 31
0.0
  0
LINE
  5
62
330
1F
100
AcDbEntity
  8
F-1_枠
  6
Continuous
 62
   200
370
     5
100
AcDbLine
 10
-5835.081309208291
 20
4174.999769056166
 30
0.0
 11
-5835.081309208291
 21
-4205.000164959882
 31
0.0
  0
LINE
  5
63
330
1F
100
AcDbEntity
  8
F-1_枠
  6
Continuous
 62
   200
370
     5
100
AcDbLine
 10
5854.917165428304
 20
4174.999769056166
 30
0.0
 11
5854.917165428304
 21
-4205.000164959882
 31
0.0
  0
LINE
  5
64
330
1F
100
AcDbEntity
  8
F-1_枠
  6
Continuous
 62
   200
370
     5
100
AcDbLine
 10
5849.917643811961
 20
4174.999769056166
 30
0.0
 11
5849.917643811961
 21
-4205.000164959882
 31
0.0
  0
LINE
  5
65
330
1F
100
AcDbEntity
  8
F-1_枠
  6
Continuous
 62
   200
370
     5
100
AcDbLine
 10
5859.917429364114
 20
-4199.999993814004
 30
0.0
 11
-5840.081085996952
 21
-4199.999993814004
 31
0.0
  0
LINE
  5
66
330
1F
100
AcDbEntity
  8
F-1_枠
  6
Continuous
 62
   200
370
     5
100
AcDbLine
 10
5859.917429364114
 20
-4195.000008247994
 30
0.0
 11
-5840.081085996952
 21
-4195.000008247994
 31
0.0
  0
LINE
  5
67
330
1F
100
AcDbEntity
  8
F-1_枠
  6
Continuous
 62
   200
370
     5
100
AcDbLine
 10
4349.917891251784
 20
-3795.000003092998
 30
0.0
 11
4349.917891251784
 21
-4195.000008247994
 31
0.0
  0
LINE
  5
68
330
1F
100
AcDbEntity
  8
F-1_枠
  6
Continuous
 62
   200
370
     5
100
AcDbLine
 10
2849.917396372139
 20
-3795.000003092998
 30
0.0
 11
2849.917396372139
 21
-4195.000008247994
 31
0.0
  0
LINE
  5
69
330
1F
100
AcDbEntity
  8
F-1_枠
  6
Continuous
 62
   200
370
     5
100
AcDbLine
 10
9.918542843316231
 20
-3795.000003092998
 30
0.0
 11
9.918542843316231
 21
-4195.000008247994
 31
0.0
  0
LINE
  5
6A
330
1F
100
AcDbEntity
  8
F-1_枠
  6
Continuous
 62
   200
370
     5
100
AcDbLine
 10
9.918542843316231
 20
-3994.999936078046
 30
0.0
 11
5849.917643811961
 21
-3995.005364289155
 31
0.0
  0
LINE
  5
6B
330
1F
100
AcDbEntity
  8
F-1_枠
  6
Continuous
 62
   200
370
     5
100
AcDbLine
 10
-5840.081085996952
 20
4174.999769056166
 30
0.0
 11
5859.917429364114
 21
4174.999769056166
 31
0.0
  0
LINE
  5
6C
330
1F
100
AcDbEntity
  8
F-1_枠
  6
Continuous
 62
   200
370
     5
100
AcDbLine
 10
-5840.081085996952
 20
4164.999983504013
 30
0.0
 11
5859.917429364114
 21
4164.999983504013
 31
0.0
  0
LINE
  5
6D
330
1F
100
AcDbEntity
  8
F-1_枠
  6
Continuous
 62
   200
370
     5
100
AcDbLine
 10
-5840.081085996952
 20
4169.999505120355
 30
0.0
 11
5859.917429364114
 21
4169.999505120355
 31
0.0
  0
LINE
  5
6E
330
1F
100
AcDbEntity
  8
F-0_補助線
  6
JWW_HOJO
 62
     7
370
     5
100
AcDbLine
 10
-5830.081323642279
 20
-3994.99993607839
 30
0.0
 11
9.918542843316231
 21
-3994.99993607839
 31
0.0
  0
LINE
  5
6F
330
1F
100
AcDbEntity
  8
F-0_補助線
  6
JWW_HOJO
 62
     7
370
     5
100
AcDbLine
 10
-5830.081323642279
 20
-3904.99993607839
 30
0.0
 11
9.918542843316231
 21
-3904.99993607839
 31
0.0
  0
LINE
  5
70
330
1F
100
AcDbEntity
  8
F-0_補助線
  6
JWW_HOJO
 62
     7
370
     5
100
AcDbLine
 10
-5830.081323642279
 20
-4084.99993607839
 30
0.0
 11
9.918542843316231
 21
-4084.99993607839
 31
0.0
  0
LINE
  5
71
330
1F
100
AcDbEntity
  8
F-0_補助線
  6
JWW_HOJO
 62
     7
370
     5
100
AcDbLine
 10
9.918408067688347
 20
-4139.999739777983
 30
0.0
 11
5849.917509036332
 21
-4140.005167989091
 31
0.0
  0
LINE
  5
72
330
1F
100
AcDbEntity
  8
F-0_補助線
  6
JWW_HOJO
 62
     7
370
     5
100
AcDbLine
 10
9.918491721639953
 20
-4049.999739778022
 30
0.0
 11
5849.917592690284
 21
-4050.005167989131
 31
0.0
  0
LINE
  5
73
330
1F
100
AcDbEntity
  8
F-0_補助線
  6
JWW_HOJO
 62
     7
370
     5
100
AcDbLine
 10
9.918593965360003
 20
-3939.99973721807
 30
0.0
 11
5849.917694934004
 21
-3940.005165429179
 31
0.0
  0
LINE
  5
74
330
1F
100
AcDbEntity
  8
F-0_補助線
  6
JWW_HOJO
 62
     7
370
     5
100
AcDbLine
 10
9.918677619311609
 20
-3849.999737218109
 30
0.0
 11
5849.917778587956
 21
-3850.005165429218
 31
0.0
  0
LINE
  5
75
330
1F
100
AcDbEntity
  8
F-0_補助線
  6
JWW_HOJO
 62
     7
370
     5
100
AcDbLine
 10
2939.917396372139
 20
-3795.000003092998
 30
0.0
 11
2939.917396372139
 21
-4195.000008247994
 31
0.0
  0
LINE
  5
76
330
1F
100
AcDbEntity
  8
F-0_補助線
  6
JWW_HOJO
 62
     7
370
     5
100
AcDbLine
 10
99.91854284331623
 20
-3795.000003092998
 30
0.0
 11
99.91854284331623
 21
-4195.000008247994
 31
0.0
  0
LINE
  5
77
330
1F
100
AcDbEntity
  8
F-0_補助線
  6
JWW_HOJO
 62
     7
370
     5
100
AcDbLine
 10
4439.917891251784
 20
-3795.000003092998
 30
0.0
 11
4439.917891251784
 21
-4195.000008247994
 31
0.0
  0
LINE
  5
78
330
1F
100
AcDbEntity
  8
F-1_枠
  6
Continuous
 62
   200
370
     5
100
AcDbLine
 10
5859.917429364114
 20
-3795.000003092998
 30
0.0
 11
-5840.081085996952
 21
-3795.000003092998
 31
0.0
  0
LINE
  5
79
330
1F
100
AcDbEntity
  8
F-1_枠
  6
Continuous
 62
   200
370
     5
100
AcDbLine
 10
5859.917429364114
 20
-3790.000017526987
 30
0.0
 11
-5840.081085996952
 21
-3790.000017526987
 31
0.0
  0
LINE
  5
7A
330
1F
100
AcDbEntity
  8
F-0_補助線
  6
JWW_HOJO
 62
     7
370
     5
100
AcDbLine
 10
-5087.628710189611
 20
-3795.000003092999
 30
0.0
 11
-5087.628710189611
 21
-4205.000164959882
 31
0.0
  0
LINE
  5
7B
330
1F
100
AcDbEntity
  8
F-0_補助線
  6
JWW_HOJO
 62
     7
370
     5
100
AcDbLine
 10
-50.08145715668377
 20
-3795.000003092998
 30
0.0
 11
-50.08145715668377
 21
-4195.000008247994
 31
0.0
  0
MTEXT
  5
7C
330
1F
100
AcDbEntity
  8
F-A_文字
  6
Continuous
 62
     7
370
     0
100
AcDbMText
 10
99.91854284331623
 20
-3887.139820871936
 30
0.0
 40
45.72
 41
180.0
 46
0.0
 71
     7
 72
     1
  1
{\fＭＳ ゴシック|b0|i0|c128|p49;図面名}
 73
     1
 44
1.0
  0
MTEXT
  5
7D
330
1F
100
AcDbEntity
  8
F-A_文字
  6
Continuous
 62
     7
370
     0
100
AcDbMText
 10
2939.917396372139
 20
-3887.142460617774
 30
0.0
 40
45.72
 41
300.0
 46
0.0
 71
     7
 72
     1
  1
{\fＭＳ ゴシック|b0|i0|c128|p49;ＳＣＡＬＥ}
 73
     1
 44
1.0
  0
MTEXT
  5
7E
330
1F
100
AcDbEntity
  8
F-A_文字
  6
Continuous
 62
     7
370
     0
100
AcDbMText
 10
4439.917891251784
 20
-3887.143854850754
 30
0.0
 40
45.72
 41
240.0
 46
0.0
 71
     7
 72
     1
  1
{\fＭＳ ゴシック|b0|i0|c128|p49;ＤＡＴＥ}
 73
     1
 44
1.0
  0
MTEXT
  5
7F
330
1F
100
AcDbEntity
  8
F-A_文字
  6
Continuous
 62
     7
370
     0
100
AcDbMText
 10
3569.917643811961
 20
-3946.903115907308
 30
0.0
 40
76.19999999999999
 41
150.0
 46
0.0
 71
     7
 72
     1
  1
{\fＭＳ ゴシック|b0|i0|c128|p49;1/5}
 73
     1
 44
1.0
  0
MTEXT
  5
80
330
1F
100
AcDbEntity
  8
F-A_文字
  6
Continuous
 62
     7
370
     0
100
AcDbMText
 10
2939.917396372139
 20
-4087.14246317786
 30
0.0
 40
45.72
 41
240.0
 46
0.0
 71
     7
 72
     1
  1
{\fＭＳ ゴシック|b0|i0|c128|p49;ＦＩＬＥ}
 73
     1
 44
1.0
  0
MTEXT
  5
81
330
1F
100
AcDbEntity
  8
F-A_文字
  6
Continuous
 62
     7
370
     0
100
AcDbMText
 10
4439.917891251784
 20
-4087.143857410839
 30
0.0
 40
45.72
 41
180.0
 46
0.0
 71
     7
 72
     1
  1
{\fＭＳ ゴシック|b0|i0|c128|p49;ＮＯ．}
 73
     1
 44
1.0
  0
MTEXT
  5
82
330
1F
100
AcDbEntity
  8
F-A_文字
  6
Continuous
 62
     7
370
     0
100
AcDbMText
 10
1394.917396372138
 20
-4096.140669266149
 30
0.0
 40
45.72
 41
120.0
 46
0.0
 71
     7
 72
     1
  1
{\fＭＳ ゴシック|b0|i0|c128|p49;株式}
 73
     1
 44
1.0
  0
MTEXT
  5
83
330
1F
100
AcDbEntity
  8
F-A_文字
  6
Continuous
 62
     7
370
     0
100
AcDbMText
 10
1604.917396372138
 20
-4164.281754523929
 30
0.0
 40
101.44125
 41
1065.0
 46
0.0
 71
     7
 72
     1
  1
{\fＭＳ ゴシック|b0|i0|c128|p49;ウッドワン・・・}
 73
     1
 44
1.0
  0
MTEXT
  5
84
330
1F
100
AcDbEntity
  8
F-A_文字
  6
Continuous
 62
     7
370
     0
100
AcDbMText
 10
1394.917396372138
 20
-4168.140669266187
 30
0.0
 40
45.72
 41
120.0
 46
0.0
 71
     7
 72
     1
  1
{\fＭＳ ゴシック|b0|i0|c128|p49;会社}
 73
     1
 44
1.0
  0
MTEXT
  5
85
330
1F
100
AcDbEntity
  8
F-A_文字
  6
Continuous
 62
     7
370
     0
100
AcDbMText
 10
5768.321977672939
 20
-4314.841419020919
 30
0.0
 40
68.58
 41
90.0
 46
0.0
 71
     7
 72
     1
  1
{\fＭＳ ゴシック|b0|i0|c128|p49;）}
 73
     1
 44
1.0
  0
MTEXT
  5
86
330
1F
100
AcDbEntity
  8
F-A_文字
  6
Continuous
 62
     7
370
     0
100
AcDbMText
 10
5350.114617405298
 20
-4316.235443869856
 30
0.0
 40
68.58
 41
45.0
 46
0.0
 71
     7
 72
     1
  1
{\fＭＳ ゴシック|b0|i0|c128|p49;,}
 73
     1
 44
1.0
  0
MTEXT
  5
87
330
1F
100
AcDbEntity
  8
F-A_文字
  6
Continuous
 62
     7
370
     0
100
AcDbMText
 10
5083.855928478601
 20
-4314.771967288282
 30
0.0
 40
74.295
 41
97.5
 46
0.0
 71
     7
 72
     1
  1
{\fＭＳ ゴシック|b0|i0|c128|p49;$y}
 73
     1
 44
1.0
  0
MTEXT
  5
88
330
1F
100
AcDbEntity
  8
F-A_文字
  6
Continuous
 62
     7
370
     0
100
AcDbMText
 10
5238.592649517422
 20
-4314.771967288282
 30
0.0
 40
74.295
 41
97.5
 46
0.0
 71
     7
 72
     1
  1
{\fＭＳ ゴシック|b0|i0|c128|p49;$m}
 73
     1
 44
1.0
  0
MTEXT
  5
89
330
1F
100
AcDbEntity
  8
F-A_文字
  6
Continuous
 62
     7
370
     0
100
AcDbMText
 10
5393.32938200033
 20
-4314.771967288282
 30
0.0
 40
74.295
 41
97.5
 46
0.0
 71
     7
 72
     1
  1
{\fＭＳ ゴシック|b0|i0|c128|p49;$d}
 73
     1
 44
1.0
  0
MTEXT
  5
8A
330
1F
100
AcDbEntity
  8
F-A_文字
  6
Continuous
 62
     7
370
     0
100
AcDbMText
 10
5548.066114483239
 20
-4314.771967288282
 30
0.0
 40
74.295
 41
195.0
 46
0.0
 71
     7
 72
     1
  1
{\fＭＳ ゴシック|b0|i0|c128|p49;印刷}
 73
     1
 44
1.0
  0
MTEXT
  5
8B
330
1F
100
AcDbEntity
  8
F-A_文字
  6
Continuous
 62
     7
370
     0
100
AcDbMText
 10
4943.952040816226
 20
-4319.023493567732
 30
0.0
 40
68.58
 41
90.0
 46
0.0
 71
     7
 72
     1
  1
{\fＭＳ ゴシック|b0|i0|c128|p49;（}
 73
     1
 44
1.0
  0
MTEXT
  5
8C
330
1F
100
AcDbEntity
  8
F-A_文字
  6
Continuous
 62
     7
370
     0
100
AcDbMText
 10
5191.195810375571
 20
-4319.023493567732
 30
0.0
 40
68.58
 41
45.0
 46
0.0
 71
     7
 72
     1
  1
{\fＭＳ ゴシック|b0|i0|c128|p49;,}
 73
     1
 44
1.0
  0
LINE
  5
8D
330
1F
100
AcDbEntity
  8
0-A_文字
  6
Continuous
 62
    92
370
     5
100
AcDbLine
 10
-5659.999495325861
 20
3730.00018145587
 30
0.0
 11
-5659.999495325861
 21
4000.00018145587
 31
0.0
  0
LINE
  5
8E
330
1F
100
AcDbEntity
  8
0-A_文字
  6
JWW_HOJO
 62
   120
370
     5
100
AcDbLine
 10
-6140.081333436773
 20
2438.999683277028
 30
0.0
 11
6159.917676803938
 21
2438.999683277028
 31
0.0
  0
LINE
  5
8F
330
1F
100
AcDbEntity
  8
0-A_文字
  6
JWW_HOJO
 62
   120
370
     5
100
AcDbLine
 10
-6140.081333436773
 20
194.9998020481414
 30
0.0
 11
6159.917676803938
 21
194.9998020481414
 31
0.0
  0
LINE
  5
90
330
1F
100
AcDbEntity
  8
0-A_文字
  6
JWW_HOJO
 62
   120
370
     5
100
AcDbLine
 10
-5659.999495325861
 20
4424.999604096284
 30
0.0
 11
-5659.999495325861
 21
-4455.000000000002
 31
0.0
  0
LINE
  5
91
330
1F
100
AcDbEntity
  8
0-A_文字
  6
JWW_HOJO
 62
   120
370
     5
100
AcDbLine
 10
-6140.081333436773
 20
-3159.000197951857
 30
0.0
 11
6159.917676803938
 21
-3159.000197951857
 31
0.0
  0
LINE
  5
92
330
1F
100
AcDbEntity
  8
0-A_文字
  6
JWW_HOJO
 62
   120
370
     5
100
AcDbLine
 10
-6140.081333436773
 20
3730.000181455871
 30
0.0
 11
6159.917676803938
 21
3730.000181455871
 31
0.0
  0
LINE
  5
93
330
1F
100
AcDbEntity
  8
0-A_文字
  6
JWW_HOJO
 62
   120
370
     5
100
AcDbLine
 10
-6140.081333436773
 20
4000.000181455871
 30
0.0
 11
6159.917676803938
 21
4000.000181455871
 31
0.0
  0
LINE
  5
94
330
1F
100
AcDbEntity
  8
0-A_文字
  6
JWW_HOJO
 62
   120
370
     5
100
AcDbLine
 10
9.91817168358267
 20
-4455.000000000002
 30
0.0
 11
9.91817168358267
 21
4424.999604096284
 31
0.0
  0
LINE
  5
95
330
1F
100
AcDbEntity
  8
0-A_文字
  6
JWW_HOJO
 62
   120
370
     5
100
AcDbLine
 10
5679.835838693025
 20
4424.999604096284
 30
0.0
 11
5679.835838693025
 21
-4455.000000000002
 31
0.0
  0
LINE
  5
96
330
1F
100
AcDbEntity
  8
0-4_枠
  6
Continuous
 62
    92
370
     5
100
AcDbLine
 10
1687.833698006264
 20
2303.999683277028
 30
0.0
 11
1867.834291861836
 21
2303.999683277028
 31
0.0
  0
LINE
  5
97
330
1F
100
AcDbEntity
  8
0-4_枠
  6
Continuous
 62
    92
370
     5
100
AcDbLine
 10
1867.834291861836
 20
2303.999683277028
 30
0.0
 11
1867.834291861836
 21
2903.999683277028
 31
0.0
  0
LINE
  5
98
330
1F
100
AcDbEntity
  8
0-4_枠
  6
Continuous
 62
    92
370
     5
100
AcDbLine
 10
1864.834291861837
 20
2900.999683277027
 30
0.0
 11
1864.834291861837
 21
2813.999683277028
 31
0.0
  0
LINE
  5
99
330
1F
100
AcDbEntity
  8
0-4_枠
  6
Continuous
 62
    92
370
     5
100
AcDbLine
 10
1867.834291861836
 20
2813.999683277028
 30
0.0
 11
1864.834291861837
 21
2813.999683277028
 31
0.0
  0
LINE
  5
9A
330
1F
100
AcDbEntity
  8
0-4_枠
  6
Continuous
 62
    92
370
     5
100
AcDbLine
 10
1864.834291861837
 20
2303.999683277028
 30
0.0
 11
1864.834291861837
 21
2393.999683277028
 31
0.0
  0
LINE
  5
9B
330
1F
100
AcDbEntity
  8
0-4_枠
  6
Continuous
 62
    92
370
     5
100
AcDbLine
 10
1864.834291861837
 20
2393.999683277028
 30
0.0
 11
1867.834291861836
 21
2393.999683277028
 31
0.0
  0
LINE
  5
9C
330
1F
100
AcDbEntity
  8
0-4_枠
  6
Continuous
 62
    92
370
     5
100
AcDbLine
 10
1723.833698006264
 20
2429.999683277029
 30
0.0
 11
1687.833698006264
 21
2429.999683277029
 31
0.0
  0
LINE
  5
9D
330
1F
100
AcDbEntity
  8
0-4_枠
  6
Continuous
 62
    92
370
     5
100
AcDbLine
 10
1690.833263130774
 20
2303.999683277028
 30
0.0
 11
1690.833263130774
 21
2429.999683277029
 31
0.0
  0
LINE
  5
9E
330
1F
100
AcDbEntity
  8
0-4_枠
  6
Continuous
 62
    92
370
     5
100
AcDbLine
 10
1687.833698006264
 20
2303.999683277028
 30
0.0
 11
1687.833698006264
 21
2429.999683277029
 31
0.0
  0
LINE
  5
9F
330
1F
100
AcDbEntity
  8
0-4_枠
  6
Continuous
 62
    92
370
     5
100
AcDbLine
 10
1723.833698006264
 20
2429.999683277029
 30
0.0
 11
1723.833698006264
 21
2675.999683277027
 31
0.0
  0
LINE
  5
A0
330
1F
100
AcDbEntity
  8
0-4_枠
  6
Continuous
 62
    92
370
     5
100
AcDbLine
 10
1723.833698006264
 20
2675.999683277027
 30
0.0
 11
1687.833698006264
 21
2675.999683277027
 31
0.0
  0
LINE
  5
A1
330
1F
100
AcDbEntity
  8
0-3_仕上げ
  6
Continuous
 62
    40
370
     5
100
AcDbLine
 10
-3083.956679109746
 20
2753.999683277028
 30
0.0
 11
-1883.956679109746
 21
2753.999683277028
 31
0.0
  0
LINE
  5
A2
330
1F
100
AcDbEntity
  8
0-3_仕上げ
  6
Continuous
 62
    40
370
     5
100
AcDbLine
 10
-3083.956679109746
 20
2123.999683277028
 30
0.0
 11
-1883.956679109746
 21
2123.999683277028
 31
0.0
  0
LINE
  5
A3
330
1F
100
AcDbEntity
  8
0-3_仕上げ
  6
Continuous
 62
    40
370
     5
100
AcDbLine
 10
-3083.956679109746
 20
2048.999683277028
 30
0.0
 11
-1883.956679109746
 21
2048.999683277028
 31
0.0
  0
LINE
  5
A4
330
1F
100
AcDbEntity
  8
0-3_仕上げ
  6
Continuous
 62
    40
370
     5
100
AcDbLine
 10
-3083.956679109746
 20
2828.999683277028
 30
0.0
 11
-1883.956679109746
 21
2828.999683277028
 31
0.0
  0
LINE
  5
A5
330
1F
100
AcDbEntity
  8
0-3_仕上げ
  6
Continuous
 62
    40
370
     5
100
AcDbLine
 10
1867.833549542369
 20
2753.999683277028
 30
0.0
 11
3067.834291861836
 21
2753.999683277028
 31
0.0
  0
LINE
  5
A6
330
1F
100
AcDbEntity
  8
0-3_仕上げ
  6
Continuous
 62
    40
370
     5
100
AcDbLine
 10
1867.833549542369
 20
2828.999683277028
 30
0.0
 11
3067.834291861836
 21
2828.999683277028
 31
0.0
  0
LINE
  5
A7
330
1F
100
AcDbEntity
  8
0-B_寸法
  6
Continuous
 62
   120
370
     5
100
AcDbLine
 10
1443.987196728457
 20
2303.999683277041
 30
0.0
 11
1597.833698006264
 21
2303.999683277041
 31
0.0
  0
LWPOLYLINE
  5
A8
330
1F
100
AcDbEntity
  8
0-B_寸法
  6
Continuous
 62
     7
370
     5
100
AcDbPolyline
 90
        4
 70
     1
 43
3.0
 10
1445.487196728457
 20
2303.999683277041
 42
0.4142135623731
 10
1443.987196728457
 20
2305.499683277041
 42
0.4142135623731
 10
1442.487196728457
 20
2303.999683277041
 42
0.4142135623731
 10
1443.987196728457
 20
2302.499683277041
 42
0.4142135623731
  0
LINE
  5
A9
330
1F
100
AcDbEntity
  8
0-B_寸法
  6
Continuous
 62
   120
370
     5
100
AcDbLine
 10
1443.987196728457
 20
2903.999683277028
 30
0.0
 11
1597.833698006264
 21
2903.999683277028
 31
0.0
  0
LWPOLYLINE
  5
AA
330
1F
100
AcDbEntity
  8
0-B_寸法
  6
Continuous
 62
     7
370
     5
100
AcDbPolyline
 90
        4
 70
     1
 43
3.0
 10
1445.487196728457
 20
2903.999683277028
 42
0.4142135623731
 10
1443.987196728457
 20
2905.499683277027
 42
0.4142135623731
 10
1442.487196728457
 20
2903.999683277028
 42
0.4142135623731
 10
1443.987196728457
 20
2902.499683277028
 42
0.4142135623731
  0
LINE
  5
AB
330
1F
100
AcDbEntity
  8
0-B_寸法
  6
Continuous
 62
   120
370
     5
100
AcDbLine
 10
1443.987196728457
 20
2903.999683277028
 30
0.0
 11
1443.987196728457
 21
2303.999683277041
 31
0.0
  0
LINE
  5
AC
330
1F
100
AcDbEntity
  8
0-1_通り芯
  6
JWW_CENTER1
 62
   120
370
     5
100
AcDbLine
 10
-3083.956679109746
 20
2438.999683277028
 30
0.0
 11
3067.834291861836
 21
2438.999683277028
 31
0.0
  0
LINE
  5
AD
330
1F
100
AcDbEntity
  8
0-3_仕上げ
  6
Continuous
 62
    40
370
     5
100
AcDbLine
 10
81.9385465642327
 20
2378.999683277028
 30
0.0
 11
824.8861222852472
 21
2378.999683277028
 31
0.0
  0
LINE
  5
AE
330
1F
100
AcDbEntity
  8
0-3_仕上げ
  6
Continuous
 62
    40
370
     5
100
AcDbLine
 10
944.8861222852472
 20
2378.999683277028
 30
0.0
 11
1687.833698006264
 21
2378.999683277028
 31
0.0
  0
LINE
  5
AF
330
1F
100
AcDbEntity
  8
0-3_仕上げ
  6
Continuous
 62
    40
370
     5
100
AcDbLine
 10
81.9385465642327
 20
2303.999683277028
 30
0.0
 11
824.8861222852472
 21
2303.999683277028
 31
0.0
  0
LINE
  5
B0
330
1F
100
AcDbEntity
  8
0-3_仕上げ
  6
Continuous
 62
    40
370
     5
100
AcDbLine
 10
944.8861222852472
 20
2303.999683277028
 30
0.0
 11
1867.834291861836
 21
2303.999683277028
 31
0.0
  0
LINE
  5
B1
330
1F
100
AcDbEntity
  8
0-3_仕上げ
  6
Continuous
 62
    40
370
     5
100
AcDbLine
 10
3067.834291861836
 20
2123.999683277028
 30
0.0
 11
944.8861222852472
 21
2123.999683277028
 31
0.0
  0
LINE
  5
B2
330
1F
100
AcDbEntity
  8
0-3_仕上げ
  6
Continuous
 62
    40
370
     5
100
AcDbLine
 10
824.8861222852472
 20
2123.999683277028
 30
0.0
 11
81.9385465642327
 21
2123.999683277028
 31
0.0
  0
LINE
  5
B3
330
1F
100
AcDbEntity
  8
0-3_仕上げ
  6
Continuous
 62
    40
370
     5
100
AcDbLine
 10
3067.834291861836
 20
2048.999683277028
 30
0.0
 11
944.8861222852472
 21
2048.999683277028
 31
0.0
  0
LINE
  5
B4
330
1F
100
AcDbEntity
  8
0-3_仕上げ
  6
Continuous
 62
    40
370
     5
100
AcDbLine
 10
824.8861222852472
 20
2048.999683277028
 30
0.0
 11
81.9385465642327
 21
2048.999683277028
 31
0.0
  0
LINE
  5
B5
330
1F
100
AcDbEntity
  8
0-C_ハッチ
  6
JWW_DASHED1
 62
   120
370
     5
100
AcDbLine
 10
3031.411436425417
 20
2048.999683277031
 30
0.0
 11
3067.834291861827
 21
2085.422538713439
 31
0.0
  0
LINE
  5
B6
330
1F
100
AcDbEntity
  8
0-C_ハッチ
  6
JWW_DASHED1
 62
   120
370
     5
100
AcDbLine
 10
2988.985029554222
 20
2048.999683277034
 30
0.0
 11
3063.985029554232
 21
2123.999683277044
 31
0.0
  0
LINE
  5
B7
330
1F
100
AcDbEntity
  8
0-C_ハッチ
  6
JWW_DASHED1
 62
   120
370
     5
100
AcDbLine
 10
2946.558622683024
 20
2048.999683277038
 30
0.0
 11
3021.558622683022
 21
2123.999683277034
 31
0.0
  0
LINE
  5
B8
330
1F
100
AcDbEntity
  8
0-C_ハッチ
  6
JWW_DASHED1
 62
   120
370
     5
100
AcDbLine
 10
2904.132215811827
 20
2048.999683277041
 30
0.0
 11
2979.132215811824
 21
2123.999683277036
 31
0.0
  0
LINE
  5
B9
330
1F
100
AcDbEntity
  8
0-C_ハッチ
  6
JWW_DASHED1
 62
   120
370
     5
100
AcDbLine
 10
2861.705808940631
 20
2048.999683277044
 30
0.0
 11
2936.705808940627
 21
2123.999683277041
 31
0.0
  0
LINE
  5
BA
330
1F
100
AcDbEntity
  8
0-C_ハッチ
  6
JWW_DASHED1
 62
   120
370
     5
100
AcDbLine
 10
2819.279402069478
 20
2048.999683277038
 30
0.0
 11
2894.279402069476
 21
2123.999683277034
 31
0.0
  0
LINE
  5
BB
330
1F
100
AcDbEntity
  8
0-C_ハッチ
  6
JWW_DASHED1
 62
   120
370
     5
100
AcDbLine
 10
2776.852995198282
 20
2048.999683277041
 30
0.0
 11
2851.852995198278
 21
2123.999683277036
 31
0.0
  0
LINE
  5
BC
330
1F
100
AcDbEntity
  8
0-C_ハッチ
  6
JWW_DASHED1
 62
   120
370
     5
100
AcDbLine
 10
2734.426588327071
 20
2048.999683277029
 30
0.0
 11
2809.426588327082
 21
2123.999683277041
 31
0.0
  0
LINE
  5
BD
330
1F
100
AcDbEntity
  8
0-C_ハッチ
  6
JWW_DASHED1
 62
   120
370
     5
100
AcDbLine
 10
2692.000181455876
 20
2048.999683277034
 30
0.0
 11
2767.000181455885
 21
2123.999683277044
 31
0.0
  0
LINE
  5
BE
330
1F
100
AcDbEntity
  8
0-C_ハッチ
  6
JWW_DASHED1
 62
   120
370
     5
100
AcDbLine
 10
2649.573774584676
 20
2048.999683277034
 30
0.0
 11
2724.573774584671
 21
2123.999683277029
 31
0.0
  0
LINE
  5
BF
330
1F
100
AcDbEntity
  8
0-C_ハッチ
  6
JWW_DASHED1
 62
   120
370
     5
100
AcDbLine
 10
2607.147367713478
 20
2048.999683277036
 30
0.0
 11
2682.147367713473
 21
2123.999683277031
 31
0.0
  0
LINE
  5
C0
330
1F
100
AcDbEntity
  8
0-C_ハッチ
  6
JWW_DASHED1
 62
   120
370
     5
100
AcDbLine
 10
2564.720960842282
 20
2048.999683277041
 30
0.0
 11
2639.720960842278
 21
2123.999683277036
 31
0.0
  0
LINE
  5
C1
330
1F
100
AcDbEntity
  8
0-C_ハッチ
  6
JWW_DASHED1
 62
   120
370
     5
100
AcDbLine
 10
2522.294553971133
 20
2048.999683277036
 30
0.0
 11
2597.294553971128
 21
2123.999683277031
 31
0.0
  0
LINE
  5
C2
330
1F
100
AcDbEntity
  8
0-C_ハッチ
  6
JWW_DASHED1
 62
   120
370
     5
100
AcDbLine
 10
2479.868147099936
 20
2048.999683277041
 30
0.0
 11
2554.868147099931
 21
2123.999683277034
 31
0.0
  0
LINE
  5
C3
330
1F
100
AcDbEntity
  8
0-C_ハッチ
  6
JWW_DASHED1
 62
   120
370
     5
100
AcDbLine
 10
2437.441740228723
 20
2048.999683277028
 30
0.0
 11
2512.441740228734
 21
2123.999683277038
 31
0.0
  0
LINE
  5
C4
330
1F
100
AcDbEntity
  8
0-C_ハッチ
  6
JWW_DASHED1
 62
   120
370
     5
100
AcDbLine
 10
2395.015333357528
 20
2048.999683277031
 30
0.0
 11
2470.015333357539
 21
2123.999683277043
 31
0.0
  0
LINE
  5
C5
330
1F
100
AcDbEntity
  8
0-C_ハッチ
  6
JWW_DASHED1
 62
   120
370
     5
100
AcDbLine
 10
2352.588926486331
 20
2048.999683277034
 30
0.0
 11
2427.588926486341
 21
2123.999683277044
 31
0.0
  0
LINE
  5
C6
330
1F
100
AcDbEntity
  8
0-C_ハッチ
  6
JWW_DASHED1
 62
   120
370
     5
100
AcDbLine
 10
3057.588926486328
 20
2753.999683277031
 30
0.0
 11
3067.834291861829
 21
2764.245048652532
 31
0.0
  0
LINE
  5
C7
330
1F
100
AcDbEntity
  8
0-C_ハッチ
  6
JWW_DASHED1
 62
   120
370
     5
100
AcDbLine
 10
2310.162519615131
 20
2048.999683277034
 30
0.0
 11
2385.162519615124
 21
2123.999683277029
 31
0.0
  0
LINE
  5
C8
330
1F
100
AcDbEntity
  8
0-C_ハッチ
  6
JWW_DASHED1
 62
   120
370
     5
100
AcDbLine
 10
3015.162519615133
 20
2753.999683277034
 30
0.0
 11
3067.83429186182
 21
2806.671455523724
 31
0.0
  0
LINE
  5
C9
330
1F
100
AcDbEntity
  8
0-C_ハッチ
  6
JWW_DASHED1
 62
   120
370
     5
100
AcDbLine
 10
2267.736112743933
 20
2048.999683277036
 30
0.0
 11
2342.736112743928
 21
2123.999683277031
 31
0.0
  0
LINE
  5
CA
330
1F
100
AcDbEntity
  8
0-C_ハッチ
  6
JWW_DASHED1
 62
   120
370
     5
100
AcDbLine
 10
2972.736112743933
 20
2753.999683277038
 30
0.0
 11
3047.736112743931
 21
2828.999683277034
 31
0.0
  0
LINE
  5
CB
330
1F
100
AcDbEntity
  8
0-C_ハッチ
  6
JWW_DASHED1
 62
   120
370
     5
100
AcDbLine
 10
2225.309705872736
 20
2048.999683277041
 30
0.0
 11
2300.309705872731
 21
2123.999683277034
 31
0.0
  0
LINE
  5
CC
330
1F
100
AcDbEntity
  8
0-C_ハッチ
  6
JWW_DASHED1
 62
   120
370
     5
100
AcDbLine
 10
2930.309705872739
 20
2753.999683277041
 30
0.0
 11
3005.309705872733
 21
2828.999683277038
 31
0.0
  0
LINE
  5
CD
330
1F
100
AcDbEntity
  8
0-C_ハッチ
  6
JWW_DASHED1
 62
   120
370
     5
100
AcDbLine
 10
2182.883299001589
 20
2048.999683277038
 30
0.0
 11
2257.883299001585
 21
2123.999683277034
 31
0.0
  0
LINE
  5
CE
330
1F
100
AcDbEntity
  8
0-C_ハッチ
  6
JWW_DASHED1
 62
   120
370
     5
100
AcDbLine
 10
2887.883299001585
 20
2753.999683277034
 30
0.0
 11
2962.88329900158
 21
2828.999683277031
 31
0.0
  0
LINE
  5
CF
330
1F
100
AcDbEntity
  8
0-C_ハッチ
  6
JWW_DASHED1
 62
   120
370
     5
100
AcDbLine
 10
2140.456892130392
 20
2048.999683277041
 30
0.0
 11
2215.456892130387
 21
2123.999683277036
 31
0.0
  0
LINE
  5
D0
330
1F
100
AcDbEntity
  8
0-C_ハッチ
  6
JWW_DASHED1
 62
   120
370
     5
100
AcDbLine
 10
2845.456892130391
 20
2753.999683277041
 30
0.0
 11
2920.456892130387
 21
2828.999683277034
 31
0.0
  0
LINE
  5
D1
330
1F
100
AcDbEntity
  8
0-C_ハッチ
  6
JWW_DASHED1
 62
   120
370
     5
100
AcDbLine
 10
2098.03048525918
 20
2048.999683277029
 30
0.0
 11
2173.030485259191
 21
2123.999683277041
 31
0.0
  0
LINE
  5
D2
330
1F
100
AcDbEntity
  8
0-C_ハッチ
  6
JWW_DASHED1
 62
   120
370
     5
100
AcDbLine
 10
2803.030485259194
 20
2753.999683277043
 30
0.0
 11
2878.030485259189
 21
2828.999683277038
 31
0.0
  0
LINE
  5
D3
330
1F
100
AcDbEntity
  8
0-C_ハッチ
  6
JWW_DASHED1
 62
   120
370
     5
100
AcDbLine
 10
2055.604078387985
 20
2048.999683277034
 30
0.0
 11
2130.604078387994
 21
2123.999683277044
 31
0.0
  0
LINE
  5
D4
330
1F
100
AcDbEntity
  8
0-C_ハッチ
  6
JWW_DASHED1
 62
   120
370
     5
100
AcDbLine
 10
2760.60407838798
 20
2753.999683277031
 30
0.0
 11
2835.604078387992
 21
2828.999683277041
 31
0.0
  0
LINE
  5
D5
330
1F
100
AcDbEntity
  8
0-C_ハッチ
  6
JWW_DASHED1
 62
   120
370
     5
100
AcDbLine
 10
2013.177671516787
 20
2048.999683277036
 30
0.0
 11
2088.177671516782
 21
2123.999683277031
 31
0.0
  0
LINE
  5
D6
330
1F
100
AcDbEntity
  8
0-C_ハッチ
  6
JWW_DASHED1
 62
   120
370
     5
100
AcDbLine
 10
2718.17767151678
 20
2753.999683277031
 30
0.0
 11
2793.177671516792
 21
2828.999683277041
 31
0.0
  0
LINE
  5
D7
330
1F
100
AcDbEntity
  8
0-C_ハッチ
  6
JWW_DASHED1
 62
   120
370
     5
100
AcDbLine
 10
1970.751264645585
 20
2048.999683277031
 30
0.0
 11
2045.751264645578
 21
2123.999683277028
 31
0.0
  0
LINE
  5
D8
330
1F
100
AcDbEntity
  8
0-C_ハッチ
  6
JWW_DASHED1
 62
   120
370
     5
100
AcDbLine
 10
2675.751264645585
 20
2753.999683277034
 30
0.0
 11
2750.75126464558
 21
2828.999683277029
 31
0.0
  0
LINE
  5
D9
330
1F
100
AcDbEntity
  8
0-C_ハッチ
  6
JWW_DASHED1
 62
   120
370
     5
100
AcDbLine
 10
1928.324857774387
 20
2048.999683277036
 30
0.0
 11
2003.324857774382
 21
2123.999683277031
 31
0.0
  0
LINE
  5
DA
330
1F
100
AcDbEntity
  8
0-C_ハッチ
  6
JWW_DASHED1
 62
   120
370
     5
100
AcDbLine
 10
2633.324857774387
 20
2753.999683277036
 30
0.0
 11
2708.324857774385
 21
2828.999683277034
 31
0.0
  0
LINE
  5
DB
330
1F
100
AcDbEntity
  8
0-C_ハッチ
  6
JWW_DASHED1
 62
   120
370
     5
100
AcDbLine
 10
1885.89845090319
 20
2048.999683277038
 30
0.0
 11
1960.898450903185
 21
2123.999683277034
 31
0.0
  0
LINE
  5
DC
330
1F
100
AcDbEntity
  8
0-C_ハッチ
  6
JWW_DASHED1
 62
   120
370
     5
100
AcDbLine
 10
2590.898450903191
 20
2753.999683277041
 30
0.0
 11
2665.898450903185
 21
2828.999683277036
 31
0.0
  0
LINE
  5
DD
330
1F
100
AcDbEntity
  8
0-C_ハッチ
  6
JWW_DASHED1
 62
   120
370
     5
100
AcDbLine
 10
1843.472044032045
 20
2048.999683277041
 30
0.0
 11
1918.47204403204
 21
2123.999683277034
 31
0.0
  0
LINE
  5
DE
330
1F
100
AcDbEntity
  8
0-C_ハッチ
  6
JWW_DASHED1
 62
   120
370
     5
100
AcDbLine
 10
2548.472044032043
 20
2753.999683277038
 30
0.0
 11
2623.47204403204
 21
2828.999683277034
 31
0.0
  0
LINE
  5
DF
330
1F
100
AcDbEntity
  8
0-C_ハッチ
  6
JWW_DASHED1
 62
   120
370
     5
100
AcDbLine
 10
1801.045637160833
 20
2048.999683277028
 30
0.0
 11
1876.045637160845
 21
2123.999683277038
 31
0.0
  0
LINE
  5
E0
330
1F
100
AcDbEntity
  8
0-C_ハッチ
  6
JWW_DASHED1
 62
   120
370
     5
100
AcDbLine
 10
2506.045637160848
 20
2753.999683277043
 30
0.0
 11
2581.045637160842
 21
2828.999683277038
 31
0.0
  0
LINE
  5
E1
330
1F
100
AcDbEntity
  8
0-C_ハッチ
  6
JWW_DASHED1
 62
   120
370
     5
100
AcDbLine
 10
1758.619230289637
 20
2048.999683277031
 30
0.0
 11
1833.619230289648
 21
2123.999683277043
 31
0.0
  0
LINE
  5
E2
330
1F
100
AcDbEntity
  8
0-C_ハッチ
  6
JWW_DASHED1
 62
   120
370
     5
100
AcDbLine
 10
2463.619230289635
 20
2753.999683277031
 30
0.0
 11
2538.619230289647
 21
2828.999683277041
 31
0.0
  0
LINE
  5
E3
330
1F
100
AcDbEntity
  8
0-C_ハッチ
  6
JWW_DASHED1
 62
   120
370
     5
100
AcDbLine
 10
1716.19282341844
 20
2048.999683277034
 30
0.0
 11
1791.192823418453
 21
2123.999683277048
 31
0.0
  0
LINE
  5
E4
330
1F
100
AcDbEntity
  8
0-C_ハッチ
  6
JWW_DASHED1
 62
   120
370
     5
100
AcDbLine
 10
2421.19282341844
 20
2753.999683277034
 30
0.0
 11
2496.19282341845
 21
2828.999683277044
 31
0.0
  0
LINE
  5
E5
330
1F
100
AcDbEntity
  8
0-C_ハッチ
  6
JWW_DASHED1
 62
   120
370
     5
100
AcDbLine
 10
1673.766416547233
 20
2048.999683277028
 30
0.0
 11
1748.76641654723
 21
2123.999683277024
 31
0.0
  0
LINE
  5
E6
330
1F
100
AcDbEntity
  8
0-C_ハッチ
  6
JWW_DASHED1
 62
   120
370
     5
100
AcDbLine
 10
2378.766416547235
 20
2753.999683277029
 30
0.0
 11
2453.766416547245
 21
2828.999683277041
 31
0.0
  0
LINE
  5
E7
330
1F
100
AcDbEntity
  8
0-C_ハッチ
  6
JWW_DASHED1
 62
   120
370
     5
100
AcDbLine
 10
1631.340009676037
 20
2048.999683277031
 30
0.0
 11
1706.340009676033
 21
2123.999683277028
 31
0.0
  0
LINE
  5
E8
330
1F
100
AcDbEntity
  8
0-C_ハッチ
  6
JWW_DASHED1
 62
   120
370
     5
100
AcDbLine
 10
2336.340009676037
 20
2753.999683277031
 30
0.0
 11
2411.340009676033
 21
2828.999683277029
 31
0.0
  0
LINE
  5
E9
330
1F
100
AcDbEntity
  8
0-C_ハッチ
  6
JWW_DASHED1
 62
   120
370
     5
100
AcDbLine
 10
1588.91360280484
 20
2048.999683277034
 30
0.0
 11
1663.913602804837
 21
2123.999683277031
 31
0.0
  0
LINE
  5
EA
330
1F
100
AcDbEntity
  8
0-C_ハッチ
  6
JWW_DASHED1
 62
   120
370
     5
100
AcDbLine
 10
2293.91360280484
 20
2753.999683277034
 30
0.0
 11
2368.913602804835
 21
2828.999683277031
 31
0.0
  0
LINE
  5
EB
330
1F
100
AcDbEntity
  8
0-C_ハッチ
  6
JWW_DASHED1
 62
   120
370
     5
100
AcDbLine
 10
1546.487195933698
 20
2048.999683277038
 30
0.0
 11
1621.487195933694
 21
2123.999683277034
 31
0.0
  0
LINE
  5
EC
330
1F
100
AcDbEntity
  8
0-C_ハッチ
  6
JWW_DASHED1
 62
   120
370
     5
100
AcDbLine
 10
2251.487195933698
 20
2753.999683277038
 30
0.0
 11
2326.487195933694
 21
2828.999683277034
 31
0.0
  0
LINE
  5
ED
330
1F
100
AcDbEntity
  8
0-C_ハッチ
  6
JWW_DASHED1
 62
   120
370
     5
100
AcDbLine
 10
1504.060789062501
 20
2048.999683277041
 30
0.0
 11
1579.060789062496
 21
2123.999683277038
 31
0.0
  0
LINE
  5
EE
330
1F
100
AcDbEntity
  8
0-C_ハッチ
  6
JWW_DASHED1
 62
   120
370
     5
100
AcDbLine
 10
2209.060789062501
 20
2753.999683277041
 30
0.0
 11
2284.060789062496
 21
2828.999683277036
 31
0.0
  0
LINE
  5
EF
330
1F
100
AcDbEntity
  8
0-C_ハッチ
  6
JWW_DASHED1
 62
   120
370
     5
100
AcDbLine
 10
1461.634382191289
 20
2048.999683277029
 30
0.0
 11
1536.634382191299
 21
2123.999683277041
 31
0.0
  0
LINE
  5
F0
330
1F
100
AcDbEntity
  8
0-C_ハッチ
  6
JWW_DASHED1
 62
   120
370
     5
100
AcDbLine
 10
2166.634382191305
 20
2753.999683277044
 30
0.0
 11
2241.6343821913
 21
2828.999683277041
 31
0.0
  0
LINE
  5
F1
330
1F
100
AcDbEntity
  8
0-C_ハッチ
  6
JWW_DASHED1
 62
   120
370
     5
100
AcDbLine
 10
1419.207975320094
 20
2048.999683277034
 30
0.0
 11
1494.207975320105
 21
2123.999683277044
 31
0.0
  0
LINE
  5
F2
330
1F
100
AcDbEntity
  8
0-C_ハッチ
  6
JWW_DASHED1
 62
   120
370
     5
100
AcDbLine
 10
1674.207975320096
 20
2303.999683277036
 30
0.0
 11
1687.833698006256
 21
2317.625405963194
 31
0.0
  0
LINE
  5
F3
330
1F
100
AcDbEntity
  8
0-C_ハッチ
  6
JWW_DASHED1
 62
   120
370
     5
100
AcDbLine
 10
2124.207975320094
 20
2753.999683277034
 30
0.0
 11
2199.207975320103
 21
2828.999683277044
 31
0.0
  0
LINE
  5
F4
330
1F
100
AcDbEntity
  8
0-C_ハッチ
  6
JWW_DASHED1
 62
   120
370
     5
100
AcDbLine
 10
1376.781568448895
 20
2048.999683277036
 30
0.0
 11
1451.781568448908
 21
2123.999683277048
 31
0.0
  0
LINE
  5
F5
330
1F
100
AcDbEntity
  8
0-C_ハッチ
  6
JWW_DASHED1
 62
   120
370
     5
100
AcDbLine
 10
1631.781568448899
 20
2303.999683277041
 30
0.0
 11
1687.833698006254
 21
2360.051812834394
 31
0.0
  0
LINE
  5
F6
330
1F
100
AcDbEntity
  8
0-C_ハッチ
  6
JWW_DASHED1
 62
   120
370
     5
100
AcDbLine
 10
2081.781568448896
 20
2753.999683277038
 30
0.0
 11
2156.781568448908
 21
2828.999683277048
 31
0.0
  0
LINE
  5
F7
330
1F
100
AcDbEntity
  8
0-C_ハッチ
  6
JWW_DASHED1
 62
   120
370
     5
100
AcDbLine
 10
1334.355161577688
 20
2048.999683277028
 30
0.0
 11
1409.355161577682
 21
2123.999683277024
 31
0.0
  0
LINE
  5
F8
330
1F
100
AcDbEntity
  8
0-C_ハッチ
  6
JWW_DASHED1
 62
   120
370
     5
100
AcDbLine
 10
1589.355161577686
 20
2303.999683277028
 30
0.0
 11
1664.355161577698
 21
2378.999683277038
 31
0.0
  0
LINE
  5
F9
330
1F
100
AcDbEntity
  8
0-C_ハッチ
  6
JWW_DASHED1
 62
   120
370
     5
100
AcDbLine
 10
2039.355161577687
 20
2753.999683277028
 30
0.0
 11
2114.3551615777
 21
2828.999683277041
 31
0.0
  0
LINE
  5
FA
330
1F
100
AcDbEntity
  8
0-C_ハッチ
  6
JWW_DASHED1
 62
   120
370
     5
100
AcDbLine
 10
1291.928754706491
 20
2048.999683277031
 30
0.0
 11
1366.928754706486
 21
2123.999683277028
 31
0.0
  0
LINE
  5
FB
330
1F
100
AcDbEntity
  8
0-C_ハッチ
  6
JWW_DASHED1
 62
   120
370
     5
100
AcDbLine
 10
1546.928754706489
 20
2303.999683277029
 30
0.0
 11
1621.928754706501
 21
2378.999683277041
 31
0.0
  0
LINE
  5
FC
330
1F
100
AcDbEntity
  8
0-C_ハッチ
  6
JWW_DASHED1
 62
   120
370
     5
100
AcDbLine
 10
1996.928754706489
 20
2753.999683277031
 30
0.0
 11
2071.928754706486
 21
2828.999683277028
 31
0.0
  0
LINE
  5
FD
330
1F
100
AcDbEntity
  8
0-C_ハッチ
  6
JWW_DASHED1
 62
   120
370
     5
100
AcDbLine
 10
1249.502347835295
 20
2048.999683277034
 30
0.0
 11
1324.502347835288
 21
2123.999683277029
 31
0.0
  0
LINE
  5
FE
330
1F
100
AcDbEntity
  8
0-C_ハッチ
  6
JWW_DASHED1
 62
   120
370
     5
100
AcDbLine
 10
1504.502347835294
 20
2303.999683277034
 30
0.0
 11
1579.502347835303
 21
2378.999683277044
 31
0.0
  0
LINE
  5
FF
330
1F
100
AcDbEntity
  8
0-C_ハッチ
  6
JWW_DASHED1
 62
   120
370
     5
100
AcDbLine
 10
1954.502347835294
 20
2753.999683277034
 30
0.0
 11
2029.502347835289
 21
2828.999683277029
 31
0.0
  0
LINE
  5
100
330
1F
100
AcDbEntity
  8
0-C_ハッチ
  6
JWW_DASHED1
 62
   120
370
     5
100
AcDbLine
 10
1207.075940964154
 20
2048.999683277041
 30
0.0
 11
1282.07594096415
 21
2123.999683277034
 31
0.0
  0
LINE
  5
101
330
1F
100
AcDbEntity
  8
0-C_ハッチ
  6
JWW_DASHED1
 62
   120
370
     5
100
AcDbLine
 10
1462.075940964154
 20
2303.999683277041
 30
0.0
 11
1537.075940964151
 21
2378.999683277036
 31
0.0
  0
LINE
  5
102
330
1F
100
AcDbEntity
  8
0-C_ハッチ
  6
JWW_DASHED1
 62
   120
370
     5
100
AcDbLine
 10
1912.075940964156
 20
2753.999683277041
 30
0.0
 11
1987.075940964151
 21
2828.999683277036
 31
0.0
  0
LINE
  5
103
330
1F
100
AcDbEntity
  8
0-C_ハッチ
  6
JWW_DASHED1
 62
   120
370
     5
100
AcDbLine
 10
1164.649534092956
 20
2048.999683277043
 30
0.0
 11
1239.649534092954
 21
2123.999683277041
 31
0.0
  0
LINE
  5
104
330
1F
100
AcDbEntity
  8
0-C_ハッチ
  6
JWW_DASHED1
 62
   120
370
     5
100
AcDbLine
 10
1419.649534092957
 20
2303.999683277043
 30
0.0
 11
1494.649534092952
 21
2378.999683277038
 31
0.0
  0
LINE
  5
105
330
1F
100
AcDbEntity
  8
0-C_ハッチ
  6
JWW_DASHED1
 62
   120
370
     5
100
AcDbLine
 10
1869.649534092959
 20
2753.999683277044
 30
0.0
 11
1944.649534092954
 21
2828.999683277041
 31
0.0
  0
LINE
  5
106
330
1F
100
AcDbEntity
  8
0-C_ハッチ
  6
JWW_DASHED1
 62
   120
370
     5
100
AcDbLine
 10
1122.223127221745
 20
2048.999683277031
 30
0.0
 11
1197.223127221756
 21
2123.999683277043
 31
0.0
  0
LINE
  5
107
330
1F
100
AcDbEntity
  8
0-C_ハッチ
  6
JWW_DASHED1
 62
   120
370
     5
100
AcDbLine
 10
1377.22312722175
 20
2303.999683277036
 30
0.0
 11
1452.223127221745
 21
2378.999683277031
 31
0.0
  0
LINE
  5
108
330
1F
100
AcDbEntity
  8
0-C_ハッチ
  6
JWW_DASHED1
 62
   120
370
     5
100
AcDbLine
 10
1867.834291861817
 20
2794.610847917104
 30
0.0
 11
1902.223127221757
 21
2828.999683277043
 31
0.0
  0
LINE
  5
109
330
1F
100
AcDbEntity
  8
0-C_ハッチ
  6
JWW_DASHED1
 62
   120
370
     5
100
AcDbLine
 10
1079.79672035055
 20
2048.999683277034
 30
0.0
 11
1154.796720350562
 21
2123.999683277048
 31
0.0
  0
LINE
  5
10A
330
1F
100
AcDbEntity
  8
0-C_ハッチ
  6
JWW_DASHED1
 62
   120
370
     5
100
AcDbLine
 10
1334.796720350555
 20
2303.999683277041
 30
0.0
 11
1409.796720350549
 21
2378.999683277036
 31
0.0
  0
LINE
  5
10B
330
1F
100
AcDbEntity
  8
0-C_ハッチ
  6
JWW_DASHED1
 62
   120
370
     5
100
AcDbLine
 10
1037.370313479339
 20
2048.999683277024
 30
0.0
 11
1112.370313479334
 21
2123.999683277021
 31
0.0
  0
LINE
  5
10C
330
1F
100
AcDbEntity
  8
0-C_ハッチ
  6
JWW_DASHED1
 62
   120
370
     5
100
AcDbLine
 10
1292.37031347935
 20
2303.999683277036
 30
0.0
 11
1367.370313479348
 21
2378.999683277034
 31
0.0
  0
LINE
  5
10D
330
1F
100
AcDbEntity
  8
0-C_ハッチ
  6
JWW_DASHED1
 62
   120
370
     5
100
AcDbLine
 10
994.9439066081411
 20
2048.999683277028
 30
0.0
 11
1069.943906608136
 21
2123.999683277022
 31
0.0
  0
LINE
  5
10E
330
1F
100
AcDbEntity
  8
0-C_ハッチ
  6
JWW_DASHED1
 62
   120
370
     5
100
AcDbLine
 10
1249.943906608139
 20
2303.999683277024
 30
0.0
 11
1324.94390660815
 21
2378.999683277036
 31
0.0
  0
LINE
  5
10F
330
1F
100
AcDbEntity
  8
0-C_ハッチ
  6
JWW_DASHED1
 62
   120
370
     5
100
AcDbLine
 10
952.5174997369453
 20
2048.999683277031
 30
0.0
 11
1027.51749973694
 21
2123.999683277028
 31
0.0
  0
LINE
  5
110
330
1F
100
AcDbEntity
  8
0-C_ハッチ
  6
JWW_DASHED1
 62
   120
370
     5
100
AcDbLine
 10
1207.517499736941
 20
2303.999683277028
 30
0.0
 11
1282.517499736952
 21
2378.999683277038
 31
0.0
  0
LINE
  5
111
330
1F
100
AcDbEntity
  8
0-C_ハッチ
  6
JWW_DASHED1
 62
   120
370
     5
100
AcDbLine
 10
944.8861222852378
 20
2083.794712696469
 30
0.0
 11
985.0910928658025
 21
2123.999683277034
 31
0.0
  0
LINE
  5
112
330
1F
100
AcDbEntity
  8
0-C_ハッチ
  6
JWW_DASHED1
 62
   120
370
     5
100
AcDbLine
 10
1165.091092865804
 20
2303.999683277034
 30
0.0
 11
1240.0910928658
 21
2378.999683277031
 31
0.0
  0
LINE
  5
113
330
1F
100
AcDbEntity
  8
0-C_ハッチ
  6
JWW_DASHED1
 62
   120
370
     5
100
AcDbLine
 10
1122.664685994607
 20
2303.999683277038
 30
0.0
 11
1197.664685994602
 21
2378.999683277034
 31
0.0
  0
LINE
  5
114
330
1F
100
AcDbEntity
  8
0-C_ハッチ
  6
JWW_DASHED1
 62
   120
370
     5
100
AcDbLine
 10
1080.238279123409
 20
2303.999683277041
 30
0.0
 11
1155.238279123404
 21
2378.999683277036
 31
0.0
  0
LINE
  5
115
330
1F
100
AcDbEntity
  8
0-C_ハッチ
  6
JWW_DASHED1
 62
   120
370
     5
100
AcDbLine
 10
782.8118722521998
 20
2048.999683277031
 30
0.0
 11
824.8861222852352
 21
2091.073933310067
 31
0.0
  0
LINE
  5
116
330
1F
100
AcDbEntity
  8
0-C_ハッチ
  6
JWW_DASHED1
 62
   120
370
     5
100
AcDbLine
 10
1037.811872252211
 20
2303.999683277041
 30
0.0
 11
1112.811872252204
 21
2378.999683277036
 31
0.0
  0
LINE
  5
117
330
1F
100
AcDbEntity
  8
0-C_ハッチ
  6
JWW_DASHED1
 62
   120
370
     5
100
AcDbLine
 10
740.385465381004
 20
2048.999683277034
 30
0.0
 11
815.385465381016
 21
2123.999683277048
 31
0.0
  0
LINE
  5
118
330
1F
100
AcDbEntity
  8
0-C_ハッチ
  6
JWW_DASHED1
 62
   120
370
     5
100
AcDbLine
 10
995.385465381016
 20
2303.999683277048
 30
0.0
 11
1070.385465381009
 21
2378.999683277041
 31
0.0
  0
LINE
  5
119
330
1F
100
AcDbEntity
  8
0-C_ハッチ
  6
JWW_DASHED1
 62
   120
370
     5
100
AcDbLine
 10
697.9590585098066
 20
2048.999683277038
 30
0.0
 11
772.959058509804
 21
2123.999683277034
 31
0.0
  0
LINE
  5
11A
330
1F
100
AcDbEntity
  8
0-C_ハッチ
  6
JWW_DASHED1
 62
   120
370
     5
100
AcDbLine
 10
952.959058509804
 20
2303.999683277034
 30
0.0
 11
1027.9590585098
 21
2378.999683277031
 31
0.0
  0
LINE
  5
11B
330
1F
100
AcDbEntity
  8
0-C_ハッチ
  6
JWW_DASHED1
 62
   120
370
     5
100
AcDbLine
 10
655.5326516385971
 20
2048.999683277029
 30
0.0
 11
730.5326516385929
 21
2123.999683277024
 31
0.0
  0
LINE
  5
11C
330
1F
100
AcDbEntity
  8
0-C_ハッチ
  6
JWW_DASHED1
 62
   120
370
     5
100
AcDbLine
 10
944.8861222852472
 20
2338.353153923679
 30
0.0
 11
985.5326516386024
 21
2378.999683277034
 31
0.0
  0
LINE
  5
11D
330
1F
100
AcDbEntity
  8
0-C_ハッチ
  6
JWW_DASHED1
 62
   120
370
     5
100
AcDbLine
 10
613.1062447674024
 20
2048.999683277034
 30
0.0
 11
688.1062447673971
 21
2123.999683277028
 31
0.0
  0
LINE
  5
11E
330
1F
100
AcDbEntity
  8
0-C_ハッチ
  6
JWW_DASHED1
 62
   120
370
     5
100
AcDbLine
 10
570.6798378962585
 20
2048.999683277036
 30
0.0
 11
645.6798378962543
 21
2123.999683277031
 31
0.0
  0
LINE
  5
11F
330
1F
100
AcDbEntity
  8
0-C_ハッチ
  6
JWW_DASHED1
 62
   120
370
     5
100
AcDbLine
 10
528.2534310250628
 20
2048.999683277041
 30
0.0
 11
603.2534310250585
 21
2123.999683277036
 31
0.0
  0
LINE
  5
120
330
1F
100
AcDbEntity
  8
0-C_ハッチ
  6
JWW_DASHED1
 62
   120
370
     5
100
AcDbLine
 10
783.2534310250585
 20
2303.999683277036
 30
0.0
 11
824.886122285242
 21
2345.632374537218
 31
0.0
  0
LINE
  5
121
330
1F
100
AcDbEntity
  8
0-C_ハッチ
  6
JWW_DASHED1
 62
   120
370
     5
100
AcDbLine
 10
485.82702415385
 20
2048.999683277028
 30
0.0
 11
560.8270241538611
 21
2123.999683277038
 31
0.0
  0
LINE
  5
122
330
1F
100
AcDbEntity
  8
0-C_ハッチ
  6
JWW_DASHED1
 62
   120
370
     5
100
AcDbLine
 10
740.8270241538611
 20
2303.999683277038
 30
0.0
 11
815.8270241538585
 21
2378.999683277034
 31
0.0
  0
LINE
  5
123
330
1F
100
AcDbEntity
  8
0-C_ハッチ
  6
JWW_DASHED1
 62
   120
370
     5
100
AcDbLine
 10
443.4006172826517
 20
2048.999683277029
 30
0.0
 11
518.4006172826653
 21
2123.999683277041
 31
0.0
  0
LINE
  5
124
330
1F
100
AcDbEntity
  8
0-C_ハッチ
  6
JWW_DASHED1
 62
   120
370
     5
100
AcDbLine
 10
698.4006172826653
 20
2303.999683277043
 30
0.0
 11
773.4006172826611
 21
2378.999683277038
 31
0.0
  0
LINE
  5
125
330
1F
100
AcDbEntity
  8
0-C_ハッチ
  6
JWW_DASHED1
 62
   120
370
     5
100
AcDbLine
 10
400.9742104114568
 20
2048.999683277034
 30
0.0
 11
475.9742104114517
 21
2123.999683277029
 31
0.0
  0
LINE
  5
126
330
1F
100
AcDbEntity
  8
0-C_ハッチ
  6
JWW_DASHED1
 62
   120
370
     5
100
AcDbLine
 10
655.9742104114679
 20
2303.999683277044
 30
0.0
 11
730.9742104114653
 21
2378.999683277041
 31
0.0
  0
LINE
  5
127
330
1F
100
AcDbEntity
  8
0-C_ハッチ
  6
JWW_DASHED1
 62
   120
370
     5
100
AcDbLine
 10
358.5478035402542
 20
2048.999683277031
 30
0.0
 11
433.5478035402474
 21
2123.999683277024
 31
0.0
  0
LINE
  5
128
330
1F
100
AcDbEntity
  8
0-C_ハッチ
  6
JWW_DASHED1
 62
   120
370
     5
100
AcDbLine
 10
613.5478035402448
 20
2303.999683277022
 30
0.0
 11
688.5478035402542
 21
2378.999683277031
 31
0.0
  0
LINE
  5
129
330
1F
100
AcDbEntity
  8
0-C_ハッチ
  6
JWW_DASHED1
 62
   120
370
     5
100
AcDbLine
 10
316.1213966690585
 20
2048.999683277034
 30
0.0
 11
391.1213966690516
 21
2123.999683277029
 31
0.0
  0
LINE
  5
12A
330
1F
100
AcDbEntity
  8
0-C_ハッチ
  6
JWW_DASHED1
 62
   120
370
     5
100
AcDbLine
 10
571.1213966690474
 20
2303.999683277024
 30
0.0
 11
646.1213966690584
 21
2378.999683277036
 31
0.0
  0
LINE
  5
12B
330
1F
100
AcDbEntity
  8
0-C_ハッチ
  6
JWW_DASHED1
 62
   120
370
     5
100
AcDbLine
 10
273.694989797861
 20
2048.999683277038
 30
0.0
 11
348.6949897978567
 21
2123.999683277034
 31
0.0
  0
LINE
  5
12C
330
1F
100
AcDbEntity
  8
0-C_ハッチ
  6
JWW_DASHED1
 62
   120
370
     5
100
AcDbLine
 10
528.6949897978516
 20
2303.999683277029
 30
0.0
 11
603.6949897978627
 21
2378.999683277041
 31
0.0
  0
LINE
  5
12D
330
1F
100
AcDbEntity
  8
0-C_ハッチ
  6
JWW_DASHED1
 62
   120
370
     5
100
AcDbLine
 10
231.268582926713
 20
2048.999683277034
 30
0.0
 11
306.2685829267087
 21
2123.999683277031
 31
0.0
  0
LINE
  5
12E
330
1F
100
AcDbEntity
  8
0-C_ハッチ
  6
JWW_DASHED1
 62
   120
370
     5
100
AcDbLine
 10
486.2685829267087
 20
2303.999683277031
 30
0.0
 11
561.2685829267045
 21
2378.999683277028
 31
0.0
  0
LINE
  5
12F
330
1F
100
AcDbEntity
  8
0-C_ハッチ
  6
JWW_DASHED1
 62
   120
370
     5
100
AcDbLine
 10
188.8421760555156
 20
2048.999683277038
 30
0.0
 11
263.8421760555113
 21
2123.999683277034
 31
0.0
  0
LINE
  5
130
330
1F
100
AcDbEntity
  8
0-C_ハッチ
  6
JWW_DASHED1
 62
   120
370
     5
100
AcDbLine
 10
443.8421760555113
 20
2303.999683277034
 30
0.0
 11
518.8421760555061
 21
2378.999683277029
 31
0.0
  0
LINE
  5
131
330
1F
100
AcDbEntity
  8
0-C_ハッチ
  6
JWW_DASHED1
 62
   120
370
     5
100
AcDbLine
 10
146.4157691843019
 20
2048.999683277024
 30
0.0
 11
221.415769184313
 21
2123.999683277036
 31
0.0
  0
LINE
  5
132
330
1F
100
AcDbEntity
  8
0-C_ハッチ
  6
JWW_DASHED1
 62
   120
370
     5
100
AcDbLine
 10
401.4157691843155
 20
2303.999683277038
 30
0.0
 11
476.4157691843113
 21
2378.999683277034
 31
0.0
  0
LINE
  5
133
330
1F
100
AcDbEntity
  8
0-C_ハッチ
  6
JWW_DASHED1
 62
   120
370
     5
100
AcDbLine
 10
103.9893623131061
 20
2048.999683277028
 30
0.0
 11
178.9893623131172
 21
2123.999683277041
 31
0.0
  0
LINE
  5
134
330
1F
100
AcDbEntity
  8
0-C_ハッチ
  6
JWW_DASHED1
 62
   120
370
     5
100
AcDbLine
 10
358.9893623131172
 20
2303.999683277041
 30
0.0
 11
433.989362313113
 21
2378.999683277036
 31
0.0
  0
LINE
  5
135
330
1F
100
AcDbEntity
  8
0-C_ハッチ
  6
JWW_DASHED1
 62
   120
370
     5
100
AcDbLine
 10
81.93854656422843
 20
2069.37527439935
 30
0.0
 11
136.5629554419044
 21
2123.999683277028
 31
0.0
  0
LINE
  5
136
330
1F
100
AcDbEntity
  8
0-C_ハッチ
  6
JWW_DASHED1
 62
   120
370
     5
100
AcDbLine
 10
316.5629554419198
 20
2303.999683277043
 30
0.0
 11
391.5629554419172
 21
2378.999683277041
 31
0.0
  0
LINE
  5
137
330
1F
100
AcDbEntity
  8
0-C_ハッチ
  6
JWW_DASHED1
 62
   120
370
     5
100
AcDbLine
 10
81.93854656422843
 20
2111.80168127055
 30
0.0
 11
94.13654857070611
 21
2123.999683277029
 31
0.0
  0
LINE
  5
138
330
1F
100
AcDbEntity
  8
0-C_ハッチ
  6
JWW_DASHED1
 62
   120
370
     5
100
AcDbLine
 10
274.1365485707036
 20
2303.999683277028
 30
0.0
 11
349.1365485707129
 21
2378.999683277036
 31
0.0
  0
LINE
  5
139
330
1F
100
AcDbEntity
  8
0-C_ハッチ
  6
JWW_DASHED1
 62
   120
370
     5
100
AcDbLine
 10
231.7101416995087
 20
2303.999683277031
 30
0.0
 11
306.7101416995197
 21
2378.999683277041
 31
0.0
  0
LINE
  5
13A
330
1F
100
AcDbEntity
  8
0-C_ハッチ
  6
JWW_DASHED1
 62
   120
370
     5
100
AcDbLine
 10
189.2837348283564
 20
2303.999683277024
 30
0.0
 11
264.2837348283538
 21
2378.999683277021
 31
0.0
  0
LINE
  5
13B
330
1F
100
AcDbEntity
  8
0-C_ハッチ
  6
JWW_DASHED1
 62
   120
370
     5
100
AcDbLine
 10
146.8573279571606
 20
2303.999683277029
 30
0.0
 11
221.8573279571564
 21
2378.999683277024
 31
0.0
  0
LINE
  5
13C
330
1F
100
AcDbEntity
  8
0-C_ハッチ
  6
JWW_DASHED1
 62
   120
370
     5
100
AcDbLine
 10
104.4309210859632
 20
2303.999683277031
 30
0.0
 11
179.4309210859606
 21
2378.999683277028
 31
0.0
  0
LINE
  5
13D
330
1F
100
AcDbEntity
  8
0-C_ハッチ
  6
JWW_DASHED1
 62
   120
370
     5
100
AcDbLine
 10
81.93854656422587
 20
2323.933715626493
 30
0.0
 11
137.0045142147632
 21
2378.999683277031
 31
0.0
  0
LINE
  5
13E
330
1F
100
AcDbEntity
  8
0-C_ハッチ
  6
JWW_DASHED1
 62
   120
370
     5
100
AcDbLine
 10
81.93854656422587
 20
2366.360122497693
 30
0.0
 11
94.57810734356741
 21
2378.999683277034
 31
0.0
  0
LWPOLYLINE
  5
13F
330
1F
100
AcDbEntity
  8
0-B_寸法
  6
Continuous
 62
     7
370
     5
100
AcDbPolyline
 90
        4
 70
     1
 43
3.0
 10
-1393.926837887565
 20
1973.999683277027
 42
0.4142135623731
 10
-1395.426837887565
 20
1975.499683277027
 42
0.4142135623731
 10
-1396.926837887565
 20
1973.999683277027
 42
0.4142135623731
 10
-1395.426837887565
 20
1972.499683277028
 42
0.4142135623731
  0
LINE
  5
140
330
1F
100
AcDbEntity
  8
0-B_寸法
  6
Continuous
 62
   120
370
     5
100
AcDbLine
 10
-1395.426837887565
 20
1973.999683277027
 30
0.0
 11
-1395.426837887561
 21
2903.999683277028
 31
0.0
  0
LINE
  5
141
330
1F
100
AcDbEntity
  8
0-B_寸法
  6
Continuous
 62
   120
370
     5
100
AcDbLine
 10
-1395.426837887565
 20
1973.999683277027
 30
0.0
 11
-1602.558976711164
 21
1973.999683277027
 31
0.0
  0
LWPOLYLINE
  5
142
330
1F
100
AcDbEntity
  8
0-B_寸法
  6
Continuous
 62
     7
370
     5
100
AcDbPolyline
 90
        4
 70
     1
 43
3.0
 10
-1393.926837887561
 20
2903.999683277028
 42
0.4142135623731
 10
-1395.426837887561
 20
2905.499683277027
 42
0.4142135623731
 10
-1396.926837887561
 20
2903.999683277028
 42
0.4142135623731
 10
-1395.426837887561
 20
2902.499683277028
 42
0.4142135623731
  0
LINE
  5
143
330
1F
100
AcDbEntity
  8
0-B_寸法
  6
Continuous
 62
   120
370
     5
100
AcDbLine
 10
-1395.426837887561
 20
2903.999683277028
 30
0.0
 11
-1602.558976711164
 21
2903.999683277028
 31
0.0
  0
LINE
  5
144
330
1F
100
AcDbEntity
  8
0-C_ハッチ
  6
Continuous
 62
   120
370
     5
100
AcDbLine
 10
-1730.133453216876
 20
1976.999248401538
 30
0.0
 11
-1706.95639269815
 21
2000.176624508362
 31
0.0
  0
LINE
  5
145
330
1F
100
AcDbEntity
  8
0-C_ハッチ
  6
Continuous
 62
   120
370
     5
100
AcDbLine
 10
-1798.014967574778
 20
1976.999248401538
 30
0.0
 11
-1706.95639269815
 21
2068.059063168031
 31
0.0
  0
LINE
  5
146
330
1F
100
AcDbEntity
  8
0-C_ハッチ
  6
Continuous
 62
   120
370
     5
100
AcDbLine
 10
-1865.897024694294
 20
1976.999248401538
 30
0.0
 11
-1706.95639269815
 21
2135.9415018277
 31
0.0
  0
LINE
  5
147
330
1F
100
AcDbEntity
  8
0-C_ハッチ
  6
Continuous
 62
   120
370
     5
100
AcDbLine
 10
-1883.956679109746
 20
2569.881400807639
 30
0.0
 11
-1706.95639269815
 21
2746.881126614075
 31
0.0
  0
LINE
  5
148
330
1F
100
AcDbEntity
  8
0-C_ハッチ
  6
Continuous
 62
   120
370
     5
100
AcDbLine
 10
-1883.956679109746
 20
2366.234301640784
 30
0.0
 11
-1742.95682757364
 21
2507.233774828493
 31
0.0
  0
LINE
  5
149
330
1F
100
AcDbEntity
  8
0-C_ハッチ
  6
Continuous
 62
   120
370
     5
100
AcDbLine
 10
-1883.956679109746
 20
2434.116480822298
 30
0.0
 11
-1742.95682757364
 21
2575.115317338424
 31
0.0
  0
LINE
  5
14A
330
1F
100
AcDbEntity
  8
0-C_ハッチ
  6
Continuous
 62
   120
370
     5
100
AcDbLine
 10
-1883.956679109746
 20
2298.351949218236
 30
0.0
 11
-1742.95682757364
 21
2439.351625064559
 31
0.0
  0
LINE
  5
14B
330
1F
100
AcDbEntity
  8
0-C_ハッチ
  6
Continuous
 62
   120
370
     5
100
AcDbLine
 10
-1883.956679109746
 20
2502.002251043123
 30
0.0
 11
-1742.95682757364
 21
2642.999026919869
 31
0.0
  0
LINE
  5
14C
330
1F
100
AcDbEntity
  8
0-C_ハッチ
  6
Continuous
 62
   120
370
     5
100
AcDbLine
 10
-1880.956679109745
 20
2830.891145638511
 30
0.0
 11
-1810.848220060836
 21
2900.999523059741
 31
0.0
  0
LINE
  5
14D
330
1F
100
AcDbEntity
  8
0-C_ハッチ
  6
Continuous
 62
   120
370
     5
100
AcDbLine
 10
-1883.956679109746
 20
2773.527586053951
 30
0.0
 11
-1756.484593687478
 21
2900.999523059741
 31
0.0
  0
LINE
  5
14E
330
1F
100
AcDbEntity
  8
0-C_ハッチ
  6
Continuous
 62
   120
370
     5
100
AcDbLine
 10
-1880.956679109745
 20
2885.254708715989
 30
0.0
 11
-1865.211846434193
 21
2900.999523059741
 31
0.0
  0
LINE
  5
14F
330
1F
100
AcDbEntity
  8
0-C_ハッチ
  6
Continuous
 62
   120
370
     5
100
AcDbLine
 10
-1880.956679109745
 20
2029.820701169807
 30
0.0
 11
-1706.95639269815
 21
2203.823356838685
 31
0.0
  0
LINE
  5
150
330
1F
100
AcDbEntity
  8
0-C_ハッチ
  6
Continuous
 62
   120
370
     5
100
AcDbLine
 10
-1883.956679109746
 20
2230.469316855808
 30
0.0
 11
-1706.95639269815
 21
2407.470089169009
 31
0.0
  0
LINE
  5
151
330
1F
100
AcDbEntity
  8
0-C_ハッチ
  6
Continuous
 62
   120
370
     5
100
AcDbLine
 10
-1883.956679109746
 20
2705.645430226279
 30
0.0
 11
-1706.95639269815
 21
2882.645510555429
 31
0.0
  0
LINE
  5
152
330
1F
100
AcDbEntity
  8
0-C_ハッチ
  6
Continuous
 62
   120
370
     5
100
AcDbLine
 10
-1883.956679109746
 20
2094.7037034215
 30
0.0
 11
-1706.95639269815
 21
2271.705795498355
 31
0.0
  0
LINE
  5
153
330
1F
100
AcDbEntity
  8
0-C_ハッチ
  6
Continuous
 62
   120
370
     5
100
AcDbLine
 10
-1883.956679109746
 20
2162.586792771878
 30
0.0
 11
-1706.95639269815
 21
2339.587650509343
 31
0.0
  0
LINE
  5
154
330
1F
100
AcDbEntity
  8
0-C_ハッチ
  6
Continuous
 62
   120
370
     5
100
AcDbLine
 10
-1883.956679109746
 20
2637.76355663555
 30
0.0
 11
-1706.95639269815
 21
2814.763565273748
 31
0.0
  0
LINE
  5
155
330
1F
100
AcDbEntity
  8
0-7_金物
  6
Continuous
 62
     7
370
     5
100
AcDbLine
 10
-1721.956827627105
 20
2507.999683465013
 30
0.0
 11
-1739.956827603549
 21
2507.999682464137
 31
0.0
  0
LINE
  5
156
330
1F
100
AcDbEntity
  8
0-7_金物
  6
Continuous
 62
     7
370
     5
100
AcDbLine
 10
-1739.956827603549
 20
2507.999682464137
 30
0.0
 11
-1739.956827573638
 21
2597.999684063583
 31
0.0
  0
LINE
  5
157
330
1F
100
AcDbEntity
  8
0-7_金物
  6
Continuous
 62
     7
370
     5
100
AcDbLine
 10
-1721.956826912846
 20
2597.999682201379
 30
0.0
 11
-1739.956827573638
 21
2597.999684063583
 31
0.0
  0
LINE
  5
158
330
1F
100
AcDbEntity
  8
0-7_金物
  6
Continuous
 62
     7
370
     5
100
AcDbLine
 10
-1739.956827593086
 20
2537.999683474125
 30
0.0
 11
-1769.956827286427
 21
2537.999683712554
 31
0.0
  0
LINE
  5
159
330
1F
100
AcDbEntity
  8
0-7_金物
  6
Continuous
 62
     7
370
     5
100
AcDbLine
 10
-1769.956827286427
 20
2537.999683712554
 30
0.0
 11
-1769.956827048343
 21
2567.99968329134
 31
0.0
  0
LINE
  5
15A
330
1F
100
AcDbEntity
  8
0-7_金物
  6
Continuous
 62
     7
370
     5
100
AcDbLine
 10
-1739.956827584102
 20
2567.999683053597
 30
0.0
 11
-1769.956827048343
 21
2567.99968329134
 31
0.0
  0
ARC
  5
15B
330
1F
100
AcDbEntity
  8
0-7_金物
  6
Continuous
 62
     7
370
     5
100
AcDbCircle
 10
-1904.664171361089
 20
2552.999683310525
 30
0.0
 40
188.167407989502
100
AcDbArc
 50
346.1637114550782
 51
13.83631887695318
  0
LINE
  5
15C
330
1F
100
AcDbEntity
  8
0-6_扉
  6
JWW_DASHED1
 62
    40
370
     5
100
AcDbLine
 10
81.9385465642327
 20
2643.00015325804
 30
0.0
 11
824.8861222852472
 21
2643.00015325804
 31
0.0
  0
LINE
  5
15D
330
1F
100
AcDbEntity
  8
0-6_扉
  6
Continuous
 62
   200
370
     5
100
AcDbLine
 10
-760.0091405047033
 20
2643.00015325804
 30
0.0
 11
81.9385465642327
 21
2643.00015325804
 31
0.0
  0
LINE
  5
15E
330
1F
100
AcDbEntity
  8
0-6_扉
  6
Continuous
 62
   200
370
     5
100
AcDbLine
 10
81.9385465642327
 20
2643.00015325804
 30
0.0
 11
81.9385465642327
 21
2463.000301721933
 31
0.0
  0
LINE
  5
15F
330
1F
100
AcDbEntity
  8
0-6_扉
  6
JWW_DASHED1
 62
    40
370
     5
100
AcDbLine
 10
-98.0616759937385
 20
2643.00015325804
 30
0.0
 11
-98.0616759937385
 21
2463.000301721933
 31
0.0
  0
LINE
  5
160
330
1F
100
AcDbEntity
  8
0-6_扉
  6
Continuous
 62
   200
370
     5
100
AcDbLine
 10
-1721.95682757364
 20
2462.999757663623
 30
0.0
 11
-1721.95682757364
 21
2642.999608890432
 31
0.0
  0
LINE
  5
161
330
1F
100
AcDbEntity
  8
0-6_扉
  6
JWW_DASHED1
 62
    40
370
     5
100
AcDbLine
 10
1705.833698006263
 20
2463.000301721933
 30
0.0
 11
1705.833698006263
 21
2643.00015325804
 31
0.0
  0
LINE
  5
162
330
1F
100
AcDbEntity
  8
0-6_扉
  6
JWW_DASHED1
 62
    40
370
     5
100
AcDbLine
 10
944.8861222852472
 20
2463.000301721933
 30
0.0
 11
1705.833698006263
 21
2463.000301721933
 31
0.0
  0
LINE
  5
163
330
1F
100
AcDbEntity
  8
0-6_扉
  6
Continuous
 62
   200
370
     5
100
AcDbLine
 10
-1721.95682757364
 20
2643.00015325804
 30
0.0
 11
-880.0091405047033
 21
2643.00015325804
 31
0.0
  0
LINE
  5
164
330
1F
100
AcDbEntity
  8
0-6_扉
  6
JWW_DASHED1
 62
    40
370
     5
100
AcDbLine
 10
824.8861222852472
 20
2463.000301721933
 30
0.0
 11
-98.0616759937385
 21
2463.000301721933
 31
0.0
  0
LINE
  5
165
330
1F
100
AcDbEntity
  8
0-7_金物
  6
Continuous
 62
     7
370
     5
100
AcDbLine
 10
1705.833699261852
 20
2507.999683465015
 30
0.0
 11
1723.833699238297
 21
2507.999682464137
 31
0.0
  0
LINE
  5
166
330
1F
100
AcDbEntity
  8
0-7_金物
  6
Continuous
 62
     7
370
     5
100
AcDbLine
 10
1723.833699238297
 20
2507.999682464137
 30
0.0
 11
1723.833699208388
 21
2597.999684063583
 31
0.0
  0
LINE
  5
167
330
1F
100
AcDbEntity
  8
0-7_金物
  6
Continuous
 62
     7
370
     5
100
AcDbLine
 10
1705.833698547594
 20
2597.999682201379
 30
0.0
 11
1723.833699208388
 21
2597.999684063583
 31
0.0
  0
LINE
  5
168
330
1F
100
AcDbEntity
  8
0-7_金物
  6
Continuous
 62
     7
370
     5
100
AcDbLine
 10
1723.833699227833
 20
2537.999683474125
 30
0.0
 11
1753.833698921174
 21
2537.999683712554
 31
0.0
  0
LINE
  5
169
330
1F
100
AcDbEntity
  8
0-7_金物
  6
Continuous
 62
     7
370
     5
100
AcDbLine
 10
1753.833698921174
 20
2537.999683712554
 30
0.0
 11
1753.833698683088
 21
2567.99968329134
 31
0.0
  0
LINE
  5
16A
330
1F
100
AcDbEntity
  8
0-7_金物
  6
Continuous
 62
     7
370
     5
100
AcDbLine
 10
1723.833699218852
 20
2567.999683053597
 30
0.0
 11
1753.833698683088
 21
2567.99968329134
 31
0.0
  0
ARC
  5
16B
330
1F
100
AcDbEntity
  8
0-7_金物
  6
Continuous
 62
     7
370
     5
100
AcDbCircle
 10
1888.541042995838
 20
2552.999683310525
 30
0.0
 40
188.167407989502
100
AcDbArc
 50
166.1636811230468
 51
193.8362885449218
  0
LINE
  5
16C
330
1F
100
AcDbEntity
  8
0-B_寸法
  6
Continuous
 62
   120
370
     5
100
AcDbLine
 10
-341.9081774094153
 20
2643.00015325804
 30
0.0
 11
-341.9081774094153
 21
2463.000301721933
 31
0.0
  0
LWPOLYLINE
  5
16D
330
1F
100
AcDbEntity
  8
0-B_寸法
  6
Continuous
 62
     7
370
     5
100
AcDbPolyline
 90
        4
 70
     1
 43
3.0
 10
-340.4081774094153
 20
2643.00015325804
 42
0.4142135623731
 10
-341.9081774094153
 20
2644.50015325804
 42
0.4142135623731
 10
-343.4081774094153
 20
2643.00015325804
 42
0.4142135623731
 10
-341.9081774094153
 20
2641.50015325804
 42
0.4142135623731
  0
LWPOLYLINE
  5
16E
330
1F
100
AcDbEntity
  8
0-B_寸法
  6
Continuous
 62
     7
370
     5
100
AcDbPolyline
 90
        4
 70
     1
 43
3.0
 10
-340.4081774094153
 20
2463.000301721933
 42
0.4142135623731
 10
-341.9081774094153
 20
2464.500301721933
 42
0.4142135623731
 10
-343.4081774094153
 20
2463.000301721933
 42
0.4142135623731
 10
-341.9081774094153
 20
2461.500301721934
 42
0.4142135623731
  0
LINE
  5
16F
330
1F
100
AcDbEntity
  8
0-B_寸法
  6
Continuous
 62
   120
370
     5
100
AcDbLine
 10
-341.9081774094153
 20
2643.00015325804
 30
0.0
 11
-191.6304262085066
 21
2643.00015325804
 31
0.0
  0
LINE
  5
170
330
1F
100
AcDbEntity
  8
0-B_寸法
  6
Continuous
 62
   120
370
     5
100
AcDbLine
 10
-341.9081774094153
 20
2463.000301721933
 30
0.0
 11
-341.9081774094153
 21
2424.000301721935
 31
0.0
  0
LWPOLYLINE
  5
171
330
1F
100
AcDbEntity
  8
0-B_寸法
  6
Continuous
 62
     7
370
     5
100
AcDbPolyline
 90
        4
 70
     1
 43
3.0
 10
-340.4081774094153
 20
2424.000301721935
 42
0.4142135623731
 10
-341.9081774094153
 20
2425.500301721935
 42
0.4142135623731
 10
-343.4081774094153
 20
2424.000301721935
 42
0.4142135623731
 10
-341.9081774094153
 20
2422.500301721935
 42
0.4142135623731
  0
LINE
  5
172
330
1F
100
AcDbEntity
  8
0-B_寸法
  6
Continuous
 62
   120
370
     5
100
AcDbLine
 10
-341.9081774094153
 20
2424.000301721935
 30
0.0
 11
-341.9081774094153
 21
1974.000301721935
 31
0.0
  0
LWPOLYLINE
  5
173
330
1F
100
AcDbEntity
  8
0-B_寸法
  6
Continuous
 62
     7
370
     5
100
AcDbPolyline
 90
        4
 70
     1
 43
3.0
 10
-340.4081774094153
 20
1974.000301721935
 42
0.4142135623731
 10
-341.9081774094153
 20
1975.500301721935
 42
0.4142135623731
 10
-343.4081774094153
 20
1974.000301721935
 42
0.4142135623731
 10
-341.9081774094153
 20
1972.500301721935
 42
0.4142135623731
  0
LINE
  5
174
330
1F
100
AcDbEntity
  8
0-B_寸法
  6
Continuous
 62
   120
370
     5
100
AcDbLine
 10
-341.9081774094153
 20
1974.000301721935
 30
0.0
 11
-191.6304262085066
 21
1974.000301721935
 31
0.0
  0
LINE
  5
175
330
1F
100
AcDbEntity
  8
0-2_柱
  6
Continuous
 62
    92
370
     5
100
AcDbLine
 10
1867.833549542369
 20
2303.999683277028
 30
0.0
 11
1867.833549542369
 21
2123.999683277028
 31
0.0
  0
LINE
  5
176
330
1F
100
AcDbEntity
  8
0-2_柱
  6
Continuous
 62
     7
370
     5
100
AcDbLine
 10
2048.295615509536
 20
2123.999683277028
 30
0.0
 11
2678.295615509536
 21
2753.999683277028
 31
0.0
  0
LINE
  5
177
330
1F
100
AcDbEntity
  8
0-2_柱
  6
Continuous
 62
     7
370
     5
100
AcDbLine
 10
2678.295615509536
 20
2123.999683277028
 30
0.0
 11
2048.295615509536
 21
2753.999683277028
 31
0.0
  0
LINE
  5
178
330
1F
100
AcDbEntity
  8
0-2_柱
  6
Continuous
 62
    92
370
     5
100
AcDbLine
 10
2048.295615509536
 20
2123.999683277028
 30
0.0
 11
2048.295615509536
 21
2753.999683277028
 31
0.0
  0
LINE
  5
179
330
1F
100
AcDbEntity
  8
0-2_柱
  6
Continuous
 62
    92
370
     5
100
AcDbLine
 10
1867.834291861836
 20
2753.999683277028
 30
0.0
 11
1867.834291861836
 21
2123.999683277028
 31
0.0
  0
LINE
  5
17A
330
1F
100
AcDbEntity
  8
0-2_柱
  6
Continuous
 62
    92
370
     5
100
AcDbLine
 10
2678.295615509536
 20
2753.999683277028
 30
0.0
 11
2678.295615509536
 21
2123.999683277028
 31
0.0
  0
LINE
  5
17B
330
1F
100
AcDbEntity
  8
0-2_柱
  6
Continuous
 62
    92
370
     5
100
AcDbLine
 10
-2063.232175321445
 20
2123.999683277028
 30
0.0
 11
-2063.232175321445
 21
2753.999683277028
 31
0.0
  0
LINE
  5
17C
330
1F
100
AcDbEntity
  8
0-2_柱
  6
Continuous
 62
    92
370
     5
100
AcDbLine
 10
-1883.956679109746
 20
2753.999683277028
 30
0.0
 11
-1883.956679109746
 21
2123.999683277028
 31
0.0
  0
LINE
  5
17D
330
1F
100
AcDbEntity
  8
0-2_柱
  6
Continuous
 62
     7
370
     5
100
AcDbLine
 10
-2693.232175321445
 20
2123.999683277028
 30
0.0
 11
-2063.232175321445
 21
2753.999683277028
 31
0.0
  0
LINE
  5
17E
330
1F
100
AcDbEntity
  8
0-2_柱
  6
Continuous
 62
     7
370
     5
100
AcDbLine
 10
-2063.232175321445
 20
2123.999683277028
 30
0.0
 11
-2693.232175321445
 21
2753.999683277028
 31
0.0
  0
LINE
  5
17F
330
1F
100
AcDbEntity
  8
0-2_柱
  6
Continuous
 62
    92
370
     5
100
AcDbLine
 10
-2693.232175321445
 20
2123.999683277028
 30
0.0
 11
-2693.232175321445
 21
2753.999683277028
 31
0.0
  0
LINE
  5
180
330
1F
100
AcDbEntity
  8
0-0_補助線
  6
JWW_HOJO
 62
   120
370
     5
100
AcDbLine
 10
3067.834291861836
 20
1853.999683277027
 30
0.0
 11
-3083.956679109746
 21
1853.999683277027
 31
0.0
  0
LINE
  5
181
330
1F
100
AcDbEntity
  8
0-0_補助線
  6
JWW_HOJO
 62
   120
370
     5
100
AcDbLine
 10
3067.834291861836
 20
1493.999683277027
 30
0.0
 11
-3083.956679109746
 21
1493.999683277027
 31
0.0
  0
LWPOLYLINE
  5
182
330
1F
100
AcDbEntity
  8
0-B_寸法
  6
Continuous
 62
     7
370
     5
100
AcDbPolyline
 90
        4
 70
     1
 43
3.0
 10
-1702.456827573639
 20
1493.999683277027
 42
0.4142135623731
 10
-1703.956827573639
 20
1495.499683277027
 42
0.4142135623731
 10
-1705.456827573639
 20
1493.999683277027
 42
0.4142135623731
 10
-1703.956827573639
 20
1492.499683277028
 42
0.4142135623731
  0
LWPOLYLINE
  5
183
330
1F
100
AcDbEntity
  8
0-B_寸法
  6
Continuous
 62
     7
370
     5
100
AcDbPolyline
 90
        4
 70
     1
 43
3.0
 10
1689.333698006264
 20
1493.999683277027
 42
0.4142135623731
 10
1687.833698006264
 20
1495.499683277027
 42
0.4142135623731
 10
1686.333698006264
 20
1493.999683277027
 42
0.4142135623731
 10
1687.833698006264
 20
1492.499683277028
 42
0.4142135623731
  0
LINE
  5
184
330
1F
100
AcDbEntity
  8
0-B_寸法
  6
Continuous
 62
   120
370
     5
100
AcDbLine
 10
-1703.956827573639
 20
1493.999683277027
 30
0.0
 11
1687.833698006264
 21
1493.999683277027
 31
0.0
  0
LWPOLYLINE
  5
185
330
1F
100
AcDbEntity
  8
0-B_寸法
  6
Continuous
 62
     7
370
     5
100
AcDbPolyline
 90
        4
 70
     1
 43
3.0
 10
-96.5616761316088
 20
1493.999683277027
 42
0.4142135623731
 10
-98.0616761316088
 20
1495.499683277027
 42
0.4142135623731
 10
-99.5616761316088
 20
1493.999683277027
 42
0.4142135623731
 10
-98.0616761316088
 20
1492.499683277028
 42
0.4142135623731
  0
LWPOLYLINE
  5
186
330
1F
100
AcDbEntity
  8
0-B_寸法
  6
Continuous
 62
     7
370
     5
100
AcDbPolyline
 90
        4
 70
     1
 43
3.0
 10
83.4385465642327
 20
1493.999683277027
 42
0.4142135623731
 10
81.9385465642327
 20
1495.499683277027
 42
0.4142135623731
 10
80.4385465642327
 20
1493.999683277027
 42
0.4142135623731
 10
81.9385465642327
 20
1492.499683277028
 42
0.4142135623731
  0
LINE
  5
187
330
1F
100
AcDbEntity
  8
0-B_寸法
  6
Continuous
 62
   120
370
     5
100
AcDbLine
 10
-98.0616761316088
 20
1853.999683277027
 30
0.0
 11
-98.0616761316088
 21
1493.999683277027
 31
0.0
  0
LINE
  5
188
330
1F
100
AcDbEntity
  8
0-B_寸法
  6
Continuous
 62
   120
370
     5
100
AcDbLine
 10
81.9385465642327
 20
1853.999683277027
 30
0.0
 11
81.9385465642327
 21
1493.999683277027
 31
0.0
  0
LINE
  5
189
330
1F
100
AcDbEntity
  8
0-B_寸法
  6
Continuous
 62
   120
370
     5
100
AcDbLine
 10
-1703.956827573639
 20
1853.999683277027
 30
0.0
 11
-1703.956827573639
 21
1283.999683277027
 31
0.0
  0
LWPOLYLINE
  5
18A
330
1F
100
AcDbEntity
  8
0-B_寸法
  6
Continuous
 62
     7
370
     5
100
AcDbPolyline
 90
        4
 70
     1
 43
3.0
 10
-1882.456679109746
 20
1283.999683277027
 42
0.4142135623731
 10
-1883.956679109746
 20
1285.499683277027
 42
0.4142135623731
 10
-1885.456679109746
 20
1283.999683277027
 42
0.4142135623731
 10
-1883.956679109746
 20
1282.499683277028
 42
0.4142135623731
  0
LWPOLYLINE
  5
18B
330
1F
100
AcDbEntity
  8
0-B_寸法
  6
Continuous
 62
     7
370
     5
100
AcDbPolyline
 90
        4
 70
     1
 43
3.0
 10
-1702.456827573639
 20
1283.999683277027
 42
0.4142135623731
 10
-1703.956827573639
 20
1285.499683277027
 42
0.4142135623731
 10
-1705.456827573639
 20
1283.999683277027
 42
0.4142135623731
 10
-1703.956827573639
 20
1282.499683277028
 42
0.4142135623731
  0
LINE
  5
18C
330
1F
100
AcDbEntity
  8
0-B_寸法
  6
Continuous
 62
   120
370
     5
100
AcDbLine
 10
-1883.956679109746
 20
1283.999683277027
 30
0.0
 11
1867.834291861836
 21
1283.999683277027
 31
0.0
  0
LINE
  5
18D
330
1F
100
AcDbEntity
  8
0-B_寸法
  6
Continuous
 62
   120
370
     5
100
AcDbLine
 10
1687.833698006264
 20
1853.999683277027
 30
0.0
 11
1687.833698006264
 21
1283.999683277027
 31
0.0
  0
LWPOLYLINE
  5
18E
330
1F
100
AcDbEntity
  8
0-B_寸法
  6
Continuous
 62
     7
370
     5
100
AcDbPolyline
 90
        4
 70
     1
 43
3.0
 10
1689.333698006264
 20
1283.999683277027
 42
0.4142135623731
 10
1687.833698006264
 20
1285.499683277027
 42
0.4142135623731
 10
1686.333698006264
 20
1283.999683277027
 42
0.4142135623731
 10
1687.833698006264
 20
1282.499683277028
 42
0.4142135623731
  0
LWPOLYLINE
  5
18F
330
1F
100
AcDbEntity
  8
0-B_寸法
  6
Continuous
 62
     7
370
     5
100
AcDbPolyline
 90
        4
 70
     1
 43
3.0
 10
1869.334291861836
 20
1283.999683277027
 42
0.4142135623731
 10
1867.834291861836
 20
1285.499683277027
 42
0.4142135623731
 10
1866.334291861836
 20
1283.999683277027
 42
0.4142135623731
 10
1867.834291861836
 20
1282.499683277028
 42
0.4142135623731
  0
LINE
  5
190
330
1F
100
AcDbEntity
  8
0-B_寸法
  6
Continuous
 62
   120
370
     5
100
AcDbLine
 10
-1883.956679109746
 20
1853.999683277027
 30
0.0
 11
-1883.956679109746
 21
1073.999683277027
 31
0.0
  0
LWPOLYLINE
  5
191
330
1F
100
AcDbEntity
  8
0-B_寸法
  6
Continuous
 62
     7
370
     5
100
AcDbPolyline
 90
        4
 70
     1
 43
3.0
 10
-1882.456679109746
 20
1073.999683277027
 42
0.4142135623731
 10
-1883.956679109746
 20
1075.499683277027
 42
0.4142135623731
 10
-1885.456679109746
 20
1073.999683277027
 42
0.4142135623731
 10
-1883.956679109746
 20
1072.499683277028
 42
0.4142135623731
  0
LINE
  5
192
330
1F
100
AcDbEntity
  8
0-B_寸法
  6
Continuous
 62
   120
370
     5
100
AcDbLine
 10
1867.834291861836
 20
1853.999683277027
 30
0.0
 11
1867.834291861836
 21
1073.999683277027
 31
0.0
  0
LWPOLYLINE
  5
193
330
1F
100
AcDbEntity
  8
0-B_寸法
  6
Continuous
 62
     7
370
     5
100
AcDbPolyline
 90
        4
 70
     1
 43
3.0
 10
1869.334291861836
 20
1073.999683277027
 42
0.4142135623731
 10
1867.834291861836
 20
1075.499683277027
 42
0.4142135623731
 10
1866.334291861836
 20
1073.999683277027
 42
0.4142135623731
 10
1867.834291861836
 20
1072.499683277028
 42
0.4142135623731
  0
LINE
  5
194
330
1F
100
AcDbEntity
  8
0-B_寸法
  6
Continuous
 62
   120
370
     5
100
AcDbLine
 10
-1883.956679109746
 20
1073.999683277027
 30
0.0
 11
1867.834291861836
 21
1073.999683277027
 31
0.0
  0
LINE
  5
195
330
1F
100
AcDbEntity
  8
0-0_補助線
  6
JWW_HOJO
 62
   120
370
     5
100
AcDbLine
 10
3067.834291861836
 20
1283.999683277027
 30
0.0
 11
-3083.956679109746
 21
1283.999683277027
 31
0.0
  0
LINE
  5
196
330
1F
100
AcDbEntity
  8
0-0_補助線
  6
JWW_HOJO
 62
   120
370
     5
100
AcDbLine
 10
3067.834291861836
 20
1073.999683277027
 30
0.0
 11
-3083.956679109746
 21
1073.999683277027
 31
0.0
  0
LINE
  5
197
330
1F
100
AcDbEntity
  8
0-2_柱
  6
Continuous
 62
     7
370
     5
100
AcDbLine
 10
-2063.232175321445
 20
2123.999683277028
 30
0.0
 11
-1883.956679109746
 21
2753.999683277028
 31
0.0
  0
LINE
  5
198
330
1F
100
AcDbEntity
  8
0-2_柱
  6
Continuous
 62
     7
370
     5
100
AcDbLine
 10
1867.834291861836
 20
2123.999683277028
 30
0.0
 11
2048.295615509536
 21
2753.999683277028
 31
0.0
  0
LINE
  5
199
330
1F
100
AcDbEntity
  8
0-C_ハッチ
  6
JWW_DASHED1
 62
   120
370
     5
100
AcDbLine
 10
-3062.060459485792
 20
2828.999683277031
 30
0.0
 11
-3083.956679109747
 21
2807.103463653081
 31
0.0
  0
LINE
  5
19A
330
1F
100
AcDbEntity
  8
0-C_ハッチ
  6
JWW_DASHED1
 62
   120
370
     5
100
AcDbLine
 10
-3019.634052614597
 20
2828.999683277029
 30
0.0
 11
-3083.95667910975
 21
2764.677056781878
 31
0.0
  0
LINE
  5
19B
330
1F
100
AcDbEntity
  8
0-C_ハッチ
  6
JWW_DASHED1
 62
   120
370
     5
100
AcDbLine
 10
-2977.2076457434
 20
2828.999683277028
 30
0.0
 11
-3052.207645743397
 21
2753.999683277029
 31
0.0
  0
LINE
  5
19C
330
1F
100
AcDbEntity
  8
0-C_ハッチ
  6
JWW_DASHED1
 62
   120
370
     5
100
AcDbLine
 10
-2934.781238872204
 20
2828.999683277022
 30
0.0
 11
-3009.7812388722
 21
2753.999683277028
 31
0.0
  0
LINE
  5
19D
330
1F
100
AcDbEntity
  8
0-C_ハッチ
  6
JWW_DASHED1
 62
   120
370
     5
100
AcDbLine
 10
-2892.354832001054
 20
2828.999683277028
 30
0.0
 11
-2967.354832001047
 21
2753.999683277034
 31
0.0
  0
LINE
  5
19E
330
1F
100
AcDbEntity
  8
0-C_ハッチ
  6
JWW_DASHED1
 62
   120
370
     5
100
AcDbLine
 10
-2849.928425129857
 20
2828.999683277024
 30
0.0
 11
-2924.928425129852
 21
2753.999683277029
 31
0.0
  0
LINE
  5
19F
330
1F
100
AcDbEntity
  8
0-C_ハッチ
  6
JWW_DASHED1
 62
   120
370
     5
100
AcDbLine
 10
-2807.502018258645
 20
2828.999683277036
 30
0.0
 11
-2882.502018258655
 21
2753.999683277028
 31
0.0
  0
LINE
  5
1A0
330
1F
100
AcDbEntity
  8
0-C_ハッチ
  6
JWW_DASHED1
 62
   120
370
     5
100
AcDbLine
 10
-2765.075611387447
 20
2828.999683277034
 30
0.0
 11
-2840.075611387459
 21
2753.999683277022
 31
0.0
  0
LINE
  5
1A1
330
1F
100
AcDbEntity
  8
0-C_ハッチ
  6
JWW_DASHED1
 62
   120
370
     5
100
AcDbLine
 10
-2722.649204516252
 20
2828.999683277029
 30
0.0
 11
-2797.649204516247
 21
2753.999683277034
 31
0.0
  0
LINE
  5
1A2
330
1F
100
AcDbEntity
  8
0-C_ハッチ
  6
JWW_DASHED1
 62
   120
370
     5
100
AcDbLine
 10
-2680.222797645052
 20
2828.999683277031
 30
0.0
 11
-2755.222797645047
 21
2753.999683277034
 31
0.0
  0
LINE
  5
1A3
330
1F
100
AcDbEntity
  8
0-C_ハッチ
  6
JWW_DASHED1
 62
   120
370
     5
100
AcDbLine
 10
-2637.796390773855
 20
2828.999683277028
 30
0.0
 11
-2712.79639077385
 21
2753.999683277031
 31
0.0
  0
LINE
  5
1A4
330
1F
100
AcDbEntity
  8
0-C_ハッチ
  6
JWW_DASHED1
 62
   120
370
     5
100
AcDbLine
 10
-2595.369983902706
 20
2828.999683277029
 30
0.0
 11
-2670.369983902701
 21
2753.999683277034
 31
0.0
  0
LINE
  5
1A5
330
1F
100
AcDbEntity
  8
0-C_ハッチ
  6
JWW_DASHED1
 62
   120
370
     5
100
AcDbLine
 10
-2552.943577031511
 20
2828.999683277024
 30
0.0
 11
-2627.943577031506
 21
2753.999683277029
 31
0.0
  0
LINE
  5
1A6
330
1F
100
AcDbEntity
  8
0-C_ハッチ
  6
JWW_DASHED1
 62
   120
370
     5
100
AcDbLine
 10
-2510.517170160299
 20
2828.999683277038
 30
0.0
 11
-2585.517170160309
 21
2753.999683277028
 31
0.0
  0
LINE
  5
1A7
330
1F
100
AcDbEntity
  8
0-C_ハッチ
  6
JWW_DASHED1
 62
   120
370
     5
100
AcDbLine
 10
-2468.090763289101
 20
2828.999683277034
 30
0.0
 11
-2543.090763289113
 21
2753.999683277022
 31
0.0
  0
LINE
  5
1A8
330
1F
100
AcDbEntity
  8
0-C_ハッチ
  6
JWW_DASHED1
 62
   120
370
     5
100
AcDbLine
 10
-2425.664356417906
 20
2828.999683277029
 30
0.0
 11
-2500.664356417915
 21
2753.999683277017
 31
0.0
  0
LINE
  5
1A9
330
1F
100
AcDbEntity
  8
0-C_ハッチ
  6
JWW_DASHED1
 62
   120
370
     5
100
AcDbLine
 10
-2383.237949546701
 20
2828.999683277034
 30
0.0
 11
-2458.237949546695
 21
2753.999683277038
 31
0.0
  0
LINE
  5
1AA
330
1F
100
AcDbEntity
  8
0-C_ハッチ
  6
JWW_DASHED1
 62
   120
370
     5
100
AcDbLine
 10
-2340.811542675505
 20
2828.999683277031
 30
0.0
 11
-2415.811542675499
 21
2753.999683277036
 31
0.0
  0
LINE
  5
1AB
330
1F
100
AcDbEntity
  8
0-C_ハッチ
  6
JWW_DASHED1
 62
   120
370
     5
100
AcDbLine
 10
-3045.811542675508
 20
2123.999683277028
 30
0.0
 11
-3083.956679109747
 21
2085.854546842788
 31
0.0
  0
LINE
  5
1AC
330
1F
100
AcDbEntity
  8
0-C_ハッチ
  6
JWW_DASHED1
 62
   120
370
     5
100
AcDbLine
 10
-2298.385135804308
 20
2828.999683277028
 30
0.0
 11
-2373.385135804301
 21
2753.999683277034
 31
0.0
  0
LINE
  5
1AD
330
1F
100
AcDbEntity
  8
0-C_ハッチ
  6
JWW_DASHED1
 62
   120
370
     5
100
AcDbLine
 10
-3003.385135804311
 20
2123.999683277024
 30
0.0
 11
-3078.385135804306
 21
2048.999683277029
 31
0.0
  0
LINE
  5
1AE
330
1F
100
AcDbEntity
  8
0-C_ハッチ
  6
JWW_DASHED1
 62
   120
370
     5
100
AcDbLine
 10
-2255.958728933163
 20
2828.999683277028
 30
0.0
 11
-2330.958728933159
 21
2753.999683277031
 31
0.0
  0
LINE
  5
1AF
330
1F
100
AcDbEntity
  8
0-C_ハッチ
  6
JWW_DASHED1
 62
   120
370
     5
100
AcDbLine
 10
-2960.958728933159
 20
2123.999683277031
 30
0.0
 11
-3035.958728933154
 21
2048.999683277036
 31
0.0
  0
LINE
  5
1B0
330
1F
100
AcDbEntity
  8
0-C_ハッチ
  6
JWW_DASHED1
 62
   120
370
     5
100
AcDbLine
 10
-2213.532322061968
 20
2828.999683277022
 30
0.0
 11
-2288.532322061963
 21
2753.999683277028
 31
0.0
  0
LINE
  5
1B1
330
1F
100
AcDbEntity
  8
0-C_ハッチ
  6
JWW_DASHED1
 62
   120
370
     5
100
AcDbLine
 10
-2918.532322061963
 20
2123.999683277028
 30
0.0
 11
-2993.532322061956
 21
2048.999683277034
 31
0.0
  0
LINE
  5
1B2
330
1F
100
AcDbEntity
  8
0-C_ハッチ
  6
JWW_DASHED1
 62
   120
370
     5
100
AcDbLine
 10
-2171.105915190756
 20
2828.999683277034
 30
0.0
 11
-2246.105915190768
 21
2753.999683277022
 31
0.0
  0
LINE
  5
1B3
330
1F
100
AcDbEntity
  8
0-C_ハッチ
  6
JWW_DASHED1
 62
   120
370
     5
100
AcDbLine
 10
-2876.105915190768
 20
2123.999683277024
 30
0.0
 11
-2951.105915190761
 21
2048.999683277029
 31
0.0
  0
LINE
  5
1B4
330
1F
100
AcDbEntity
  8
0-C_ハッチ
  6
JWW_DASHED1
 62
   120
370
     5
100
AcDbLine
 10
-2128.679508319561
 20
2828.999683277029
 30
0.0
 11
-2203.679508319569
 21
2753.999683277021
 31
0.0
  0
LINE
  5
1B5
330
1F
100
AcDbEntity
  8
0-C_ハッチ
  6
JWW_DASHED1
 62
   120
370
     5
100
AcDbLine
 10
-2833.679508319554
 20
2123.999683277036
 30
0.0
 11
-2908.679508319566
 21
2048.999683277024
 31
0.0
  0
LINE
  5
1B6
330
1F
100
AcDbEntity
  8
0-C_ハッチ
  6
JWW_DASHED1
 62
   120
370
     5
100
AcDbLine
 10
-2086.253101448363
 20
2828.999683277028
 30
0.0
 11
-2161.253101448374
 21
2753.999683277015
 31
0.0
  0
LINE
  5
1B7
330
1F
100
AcDbEntity
  8
0-C_ハッチ
  6
JWW_DASHED1
 62
   120
370
     5
100
AcDbLine
 10
-2791.253101448359
 20
2123.999683277031
 30
0.0
 11
-2866.253101448369
 21
2048.999683277021
 31
0.0
  0
LINE
  5
1B8
330
1F
100
AcDbEntity
  8
0-C_ハッチ
  6
JWW_DASHED1
 62
   120
370
     5
100
AcDbLine
 10
-2043.826694577154
 20
2828.999683277036
 30
0.0
 11
-2118.82669457715
 21
2753.999683277041
 31
0.0
  0
LINE
  5
1B9
330
1F
100
AcDbEntity
  8
0-C_ハッチ
  6
JWW_DASHED1
 62
   120
370
     5
100
AcDbLine
 10
-2748.826694577156
 20
2123.999683277034
 30
0.0
 11
-2823.826694577169
 21
2048.999683277021
 31
0.0
  0
LINE
  5
1BA
330
1F
100
AcDbEntity
  8
0-C_ハッチ
  6
JWW_DASHED1
 62
   120
370
     5
100
AcDbLine
 10
-2001.400287705956
 20
2828.999683277034
 30
0.0
 11
-2076.400287705954
 21
2753.999683277036
 31
0.0
  0
LINE
  5
1BB
330
1F
100
AcDbEntity
  8
0-C_ハッチ
  6
JWW_DASHED1
 62
   120
370
     5
100
AcDbLine
 10
-2706.400287705961
 20
2123.999683277029
 30
0.0
 11
-2781.400287705956
 21
2048.999683277034
 31
0.0
  0
LINE
  5
1BC
330
1F
100
AcDbEntity
  8
0-C_ハッチ
  6
JWW_DASHED1
 62
   120
370
     5
100
AcDbLine
 10
-1958.973880834818
 20
2828.999683277028
 30
0.0
 11
-2033.973880834814
 21
2753.999683277031
 31
0.0
  0
LINE
  5
1BD
330
1F
100
AcDbEntity
  8
0-C_ハッチ
  6
JWW_DASHED1
 62
   120
370
     5
100
AcDbLine
 10
-2663.97388083481
 20
2123.999683277031
 30
0.0
 11
-2738.973880834808
 21
2048.999683277036
 31
0.0
  0
LINE
  5
1BE
330
1F
100
AcDbEntity
  8
0-C_ハッチ
  6
JWW_DASHED1
 62
   120
370
     5
100
AcDbLine
 10
-1916.547473963622
 20
2828.999683277022
 30
0.0
 11
-1991.547473963617
 21
2753.999683277028
 31
0.0
  0
LINE
  5
1BF
330
1F
100
AcDbEntity
  8
0-C_ハッチ
  6
JWW_DASHED1
 62
   120
370
     5
100
AcDbLine
 10
-2621.547473963617
 20
2123.999683277028
 30
0.0
 11
-2696.54747396361
 21
2048.999683277034
 31
0.0
  0
LINE
  5
1C0
330
1F
100
AcDbEntity
  8
0-C_ハッチ
  6
JWW_DASHED1
 62
   120
370
     5
100
AcDbLine
 10
-1883.956679109736
 20
2819.164071259709
 30
0.0
 11
-1949.12106709242
 21
2753.999683277024
 31
0.0
  0
LINE
  5
1C1
330
1F
100
AcDbEntity
  8
0-C_ハッチ
  6
JWW_DASHED1
 62
   120
370
     5
100
AcDbLine
 10
-2579.12106709242
 20
2123.999683277024
 30
0.0
 11
-2654.121067092415
 21
2048.999683277029
 31
0.0
  0
LINE
  5
1C2
330
1F
100
AcDbEntity
  8
0-C_ハッチ
  6
JWW_DASHED1
 62
   120
370
     5
100
AcDbLine
 10
-1883.95667910974
 20
2776.737664388504
 30
0.0
 11
-1906.694660221224
 21
2753.999683277021
 31
0.0
  0
LINE
  5
1C3
330
1F
100
AcDbEntity
  8
0-C_ハッチ
  6
JWW_DASHED1
 62
   120
370
     5
100
AcDbLine
 10
-2536.694660221224
 20
2123.999683277021
 30
0.0
 11
-2611.694660221218
 21
2048.999683277028
 31
0.0
  0
LINE
  5
1C4
330
1F
100
AcDbEntity
  8
0-C_ハッチ
  6
JWW_DASHED1
 62
   120
370
     5
100
AcDbLine
 10
-2494.26825335001
 20
2123.999683277034
 30
0.0
 11
-2569.268253350022
 21
2048.999683277022
 31
0.0
  0
LINE
  5
1C5
330
1F
100
AcDbEntity
  8
0-C_ハッチ
  6
JWW_DASHED1
 62
   120
370
     5
100
AcDbLine
 10
-2451.841846478808
 20
2123.999683277038
 30
0.0
 11
-2526.841846478818
 21
2048.999683277024
 31
0.0
  0
LINE
  5
1C6
330
1F
100
AcDbEntity
  8
0-C_ハッチ
  6
JWW_DASHED1
 62
   120
370
     5
100
AcDbLine
 10
-2409.41543960761
 20
2123.999683277034
 30
0.0
 11
-2484.415439607606
 21
2048.999683277038
 31
0.0
  0
LINE
  5
1C7
330
1F
100
AcDbEntity
  8
0-C_ハッチ
  6
JWW_DASHED1
 62
   120
370
     5
100
AcDbLine
 10
-2366.989032736414
 20
2123.999683277031
 30
0.0
 11
-2441.98903273641
 21
2048.999683277034
 31
0.0
  0
LINE
  5
1C8
330
1F
100
AcDbEntity
  8
0-C_ハッチ
  6
JWW_DASHED1
 62
   120
370
     5
100
AcDbLine
 10
-2324.56262586527
 20
2123.999683277029
 30
0.0
 11
-2399.562625865265
 21
2048.999683277034
 31
0.0
  0
LINE
  5
1C9
330
1F
100
AcDbEntity
  8
0-C_ハッチ
  6
JWW_DASHED1
 62
   120
370
     5
100
AcDbLine
 10
-2282.136218994072
 20
2123.999683277024
 30
0.0
 11
-2357.13621899407
 21
2048.999683277029
 31
0.0
  0
LINE
  5
1CA
330
1F
100
AcDbEntity
  8
0-C_ハッチ
  6
JWW_DASHED1
 62
   120
370
     5
100
AcDbLine
 10
-2239.709812122878
 20
2123.999683277021
 30
0.0
 11
-2314.709812122872
 21
2048.999683277028
 31
0.0
  0
LINE
  5
1CB
330
1F
100
AcDbEntity
  8
0-C_ハッチ
  6
JWW_DASHED1
 62
   120
370
     5
100
AcDbLine
 10
-2197.283405251665
 20
2123.999683277034
 30
0.0
 11
-2272.283405251676
 21
2048.999683277022
 31
0.0
  0
LINE
  5
1CC
330
1F
100
AcDbEntity
  8
0-C_ハッチ
  6
JWW_DASHED1
 62
   120
370
     5
100
AcDbLine
 10
-2154.85699838047
 20
2123.999683277029
 30
0.0
 11
-2229.856998380478
 21
2048.999683277017
 31
0.0
  0
LINE
  5
1CD
330
1F
100
AcDbEntity
  8
0-C_ハッチ
  6
JWW_DASHED1
 62
   120
370
     5
100
AcDbLine
 10
-2112.430591509261
 20
2123.999683277038
 30
0.0
 11
-2187.430591509272
 21
2048.999683277028
 31
0.0
  0
LINE
  5
1CE
330
1F
100
AcDbEntity
  8
0-C_ハッチ
  6
JWW_DASHED1
 62
   120
370
     5
100
AcDbLine
 10
-2070.004184638063
 20
2123.999683277036
 30
0.0
 11
-2145.004184638059
 21
2048.999683277041
 31
0.0
  0
LINE
  5
1CF
330
1F
100
AcDbEntity
  8
0-C_ハッチ
  6
JWW_DASHED1
 62
   120
370
     5
100
AcDbLine
 10
-2027.577777766865
 20
2123.999683277031
 30
0.0
 11
-2102.577777766863
 21
2048.999683277036
 31
0.0
  0
LINE
  5
1D0
330
1F
100
AcDbEntity
  8
0-C_ハッチ
  6
JWW_DASHED1
 62
   120
370
     5
100
AcDbLine
 10
-1985.151370895727
 20
2123.999683277028
 30
0.0
 11
-2060.151370895723
 21
2048.999683277031
 31
0.0
  0
LINE
  5
1D1
330
1F
100
AcDbEntity
  8
0-C_ハッチ
  6
JWW_DASHED1
 62
   120
370
     5
100
AcDbLine
 10
-1942.724964024531
 20
2123.999683277022
 30
0.0
 11
-2017.724964024527
 21
2048.999683277028
 31
0.0
  0
LINE
  5
1D2
330
1F
100
AcDbEntity
  8
0-C_ハッチ
  6
JWW_DASHED1
 62
   120
370
     5
100
AcDbLine
 10
-1900.298557153336
 20
2123.999683277017
 30
0.0
 11
-1975.298557153331
 21
2048.999683277022
 31
0.0
  0
LINE
  5
1D3
330
1F
100
AcDbEntity
  8
0-C_ハッチ
  6
JWW_DASHED1
 62
   120
370
     5
100
AcDbLine
 10
-1883.956679109742
 20
2097.915154449411
 30
0.0
 11
-1932.872150282133
 21
2048.999683277021
 31
0.0
  0
LINE
  5
1D4
330
1F
100
AcDbEntity
  8
0-C_ハッチ
  6
JWW_DASHED1
 62
   120
370
     5
100
AcDbLine
 10
-1883.956679109734
 20
2055.488747578219
 30
0.0
 11
-1890.445743410938
 21
2048.999683277015
 31
0.0
  0
LINE
  5
1D5
330
1F
100
AcDbEntity
  8
0-2_柱
  6
Continuous
 62
    92
370
     5
100
AcDbLine
 10
1687.372968214136
 20
2123.999930716849
 30
0.0
 11
1687.372968214136
 21
2303.999683277028
 31
0.0
  0
LINE
  5
1D6
330
1F
100
AcDbEntity
  8
0-2_柱
  6
Continuous
 62
     7
370
     5
100
AcDbLine
 10
1687.372597054389
 20
2123.999683277028
 30
0.0
 11
1867.833920702091
 21
2303.999683277028
 31
0.0
  0
LINE
  5
1D7
330
1F
100
AcDbEntity
  8
0-2_柱
  6
Continuous
 62
    92
370
     5
100
AcDbLine
 10
262.3991278924666
 20
2303.999683277028
 30
0.0
 11
262.3991278924666
 21
2123.999683277028
 31
0.0
  0
LINE
  5
1D8
330
1F
100
AcDbEntity
  8
0-2_柱
  6
Continuous
 62
    92
370
     5
100
AcDbLine
 10
81.9385465642327
 20
2123.999930716849
 30
0.0
 11
81.9385465642327
 21
2303.999683277028
 31
0.0
  0
LINE
  5
1D9
330
1F
100
AcDbEntity
  8
0-2_柱
  6
Continuous
 62
     7
370
     5
100
AcDbLine
 10
81.93817540448634
 20
2123.999683277028
 30
0.0
 11
262.3994990521874
 21
2303.999683277028
 31
0.0
  0
LINE
  5
1DA
330
1F
100
AcDbEntity
  8
0-C_ハッチ
  6
Continuous
 62
   120
370
     5
100
AcDbLine
 10
1864.834726737325
 20
2341.495817301466
 30
0.0
 11
1827.338592712893
 21
2303.999683277034
 31
0.0
  0
LINE
  5
1DB
330
1F
100
AcDbEntity
  8
0-C_ハッチ
  6
Continuous
 62
   120
370
     5
100
AcDbLine
 10
1867.834291861836
 20
2412.377633419875
 30
0.0
 11
1759.45634171899
 21
2303.999683277031
 31
0.0
  0
LINE
  5
1DC
330
1F
100
AcDbEntity
  8
0-C_ハッチ
  6
Continuous
 62
   120
370
     5
100
AcDbLine
 10
1867.834291861836
 20
2548.142135407726
 30
0.0
 11
1690.83369800627
 21
2371.141541552159
 31
0.0
  0
LINE
  5
1DD
330
1F
100
AcDbEntity
  8
0-C_ハッチ
  6
Continuous
 62
   120
370
     5
100
AcDbLine
 10
1867.834291861836
 20
2480.259884413828
 30
0.0
 11
1691.57409072503
 21
2303.999683277022
 31
0.0
  0
LINE
  5
1DE
330
1F
100
AcDbEntity
  8
0-C_ハッチ
  6
Continuous
 62
   120
370
     5
100
AcDbLine
 10
1864.834291861839
 20
2816.671139383376
 30
0.0
 11
1723.833698006264
 21
2675.6705455278
 31
0.0
  0
LINE
  5
1DF
330
1F
100
AcDbEntity
  8
0-C_ハッチ
  6
Continuous
 62
   120
370
     5
100
AcDbLine
 10
1867.834291861836
 20
2616.024386401624
 30
0.0
 11
1723.833698006264
 21
2472.023792546051
 31
0.0
  0
LINE
  5
1E0
330
1F
100
AcDbEntity
  8
0-C_ハッチ
  6
Continuous
 62
   120
370
     5
100
AcDbLine
 10
1867.834291861836
 20
2751.788888389421
 30
0.0
 11
1723.833698006264
 21
2607.788294533847
 31
0.0
  0
LINE
  5
1E1
330
1F
100
AcDbEntity
  8
0-C_ハッチ
  6
Continuous
 62
   120
370
     5
100
AcDbLine
 10
1867.834291861836
 20
2683.906637395522
 30
0.0
 11
1723.833698006264
 21
2539.906043539949
 31
0.0
  0
LINE
  5
1E2
330
1F
100
AcDbEntity
  8
0-C_ハッチ
  6
Continuous
 62
   120
370
     5
100
AcDbLine
 10
1745.516082773793
 20
2900.999683277023
 30
0.0
 11
1690.833698006263
 21
2846.317298509494
 31
0.0
  0
LINE
  5
1E3
330
1F
100
AcDbEntity
  8
0-C_ハッチ
  6
Continuous
 62
   120
370
     5
100
AcDbLine
 10
1864.834291861842
 20
2884.553390377278
 30
0.0
 11
1690.833698006263
 21
2710.552796521699
 31
0.0
  0
LINE
  5
1E4
330
1F
100
AcDbEntity
  8
0-C_ハッチ
  6
Continuous
 62
   120
370
     5
100
AcDbLine
 10
1813.398333767681
 20
2900.999683277017
 30
0.0
 11
1690.833698006263
 21
2778.435047515597
 31
0.0
  0
LINE
  5
1E5
330
1F
100
AcDbEntity
  8
0-C_ハッチ
  6
Continuous
 62
   120
370
     5
100
AcDbLine
 10
78.93854656422604
 20
2047.616820335047
 30
0.0
 11
8.321409506197028
 21
1976.999683277018
 31
0.0
  0
LINE
  5
1E6
330
1F
100
AcDbEntity
  8
0-C_ハッチ
  6
Continuous
 62
   120
370
     5
100
AcDbLine
 10
81.9385465642327
 20
2118.499071328951
 30
0.0
 11
-59.560841487679
 21
1976.99968327704
 31
0.0
  0
LINE
  5
1E7
330
1F
100
AcDbEntity
  8
0-C_ハッチ
  6
Continuous
 62
   120
370
     5
100
AcDbLine
 10
-34.85372900622792
 20
2409.000301721935
 30
0.0
 11
-95.06167613160727
 21
2348.792354596555
 31
0.0
  0
LINE
  5
1E8
330
1F
100
AcDbEntity
  8
0-C_ハッチ
  6
Continuous
 62
   120
370
     5
100
AcDbLine
 10
81.9385465642327
 20
2186.381322322849
 30
0.0
 11
-95.06167613160727
 21
2009.381099627009
 31
0.0
  0
LINE
  5
1E9
330
1F
100
AcDbEntity
  8
0-C_ハッチ
  6
Continuous
 62
   120
370
     5
100
AcDbLine
 10
78.93854656423116
 20
2387.028075304598
 30
0.0
 11
-95.06167613160727
 21
2213.027852608758
 31
0.0
  0
LINE
  5
1EA
330
1F
100
AcDbEntity
  8
0-C_ハッチ
  6
Continuous
 62
   120
370
     5
100
AcDbLine
 10
81.9385465642327
 20
2322.145824310645
 30
0.0
 11
-95.06167613160727
 21
2145.145601614805
 31
0.0
  0
LINE
  5
1EB
330
1F
100
AcDbEntity
  8
0-C_ハッチ
  6
Continuous
 62
   120
370
     5
100
AcDbLine
 10
81.9385465642327
 20
2254.263573316747
 30
0.0
 11
-95.06167613160727
 21
2077.263350620907
 31
0.0
  0
LINE
  5
1EC
330
1F
100
AcDbEntity
  8
0-C_ハッチ
  6
Continuous
 62
   120
370
     5
100
AcDbLine
 10
45.02852198766874
 20
2421.000301721936
 30
0.0
 11
-95.06167613160727
 21
2280.910103602646
 31
0.0
  0
LINE
  5
1ED
330
1F
100
AcDbEntity
  8
0-4_枠
  6
Continuous
 62
    92
370
     5
100
AcDbLine
 10
78.93854656423287
 20
2063.999683277028
 30
0.0
 11
81.9385465642327
 21
2063.999683277028
 31
0.0
  0
LINE
  5
1EE
330
1F
100
AcDbEntity
  8
0-4_枠
  6
Continuous
 62
    92
370
     5
100
AcDbLine
 10
78.93854656423287
 20
1976.999683277026
 30
0.0
 11
78.93854656423287
 21
2063.999683277028
 31
0.0
  0
LINE
  5
1EF
330
1F
100
AcDbEntity
  8
0-4_枠
  6
Continuous
 62
    92
370
     5
100
AcDbLine
 10
-44.06145343576611
 20
2424.000301721935
 30
0.0
 11
-98.06145343577157
 21
2424.000301721935
 31
0.0
  0
LINE
  5
1F0
330
1F
100
AcDbEntity
  8
0-4_枠
  6
Continuous
 62
    92
370
     5
100
AcDbLine
 10
27.93854656423662
 20
2424.000301721935
 30
0.0
 11
81.9385465642327
 21
2424.000301721935
 31
0.0
  0
LINE
  5
1F1
330
1F
100
AcDbEntity
  8
0-4_枠
  6
Continuous
 62
    92
370
     5
100
AcDbLine
 10
-44.06145343576611
 20
2409.000301721935
 30
0.0
 11
-44.06145343576611
 21
2424.000301721935
 31
0.0
  0
LINE
  5
1F2
330
1F
100
AcDbEntity
  8
0-4_枠
  6
Continuous
 62
    92
370
     5
100
AcDbLine
 10
-44.06145343576611
 20
2409.000301721935
 30
0.0
 11
27.93854656423662
 21
2409.000301721935
 31
0.0
  0
LINE
  5
1F3
330
1F
100
AcDbEntity
  8
0-4_枠
  6
Continuous
 62
    92
370
     5
100
AcDbLine
 10
27.93854656423662
 20
2409.000301721935
 30
0.0
 11
27.93854656423662
 21
2424.000301721935
 31
0.0
  0
LINE
  5
1F4
330
1F
100
AcDbEntity
  8
0-4_枠
  6
Continuous
 62
    92
370
     5
100
AcDbLine
 10
81.9385465642327
 20
1973.999683277027
 30
0.0
 11
81.9385465642327
 21
2424.000301721935
 31
0.0
  0
LINE
  5
1F5
330
1F
100
AcDbEntity
  8
0-4_枠
  6
Continuous
 62
    92
370
     5
100
AcDbLine
 10
-44.06145343576611
 20
2421.000301721936
 30
0.0
 11
-95.06145343577174
 21
2421.000301721936
 31
0.0
  0
LINE
  5
1F6
330
1F
100
AcDbEntity
  8
0-4_枠
  6
Continuous
 62
    92
370
     5
100
AcDbLine
 10
27.93854656423662
 20
2421.000301721936
 30
0.0
 11
78.93854656423287
 21
2421.000301721936
 31
0.0
  0
LINE
  5
1F7
330
1F
100
AcDbEntity
  8
0-4_枠
  6
Continuous
 62
    92
370
     5
100
AcDbLine
 10
78.93854656423287
 20
2334.000301721935
 30
0.0
 11
81.9385465642327
 21
2334.000301721935
 31
0.0
  0
LINE
  5
1F8
330
1F
100
AcDbEntity
  8
0-4_枠
  6
Continuous
 62
    92
370
     5
100
AcDbLine
 10
78.93854656423287
 20
2334.000301721935
 30
0.0
 11
78.93854656423287
 21
2421.000301721936
 31
0.0
  0
LINE
  5
1F9
330
1F
100
AcDbEntity
  8
0-4_枠
  6
Continuous
 62
    92
370
     5
100
AcDbLine
 10
-1883.956679109746
 20
1973.999683277029
 30
0.0
 11
-1883.956679109746
 21
2903.999683277028
 31
0.0
  0
LINE
  5
1FA
330
1F
100
AcDbEntity
  8
0-4_枠
  6
Continuous
 62
    92
370
     5
100
AcDbLine
 10
-1880.956679109746
 20
1976.999248401538
 30
0.0
 11
-1880.956679109746
 21
2063.999683277029
 31
0.0
  0
LINE
  5
1FB
330
1F
100
AcDbEntity
  8
0-4_枠
  6
Continuous
 62
    92
370
     5
100
AcDbLine
 10
-1880.956679109746
 20
2063.999683277029
 30
0.0
 11
-1883.956530645855
 21
2063.999683277029
 31
0.0
  0
LINE
  5
1FC
330
1F
100
AcDbEntity
  8
0-4_枠
  6
Continuous
 62
    92
370
     5
100
AcDbLine
 10
-1880.956679109746
 20
2813.999683277028
 30
0.0
 11
-1883.956530645855
 21
2813.999683277028
 31
0.0
  0
LINE
  5
1FD
330
1F
100
AcDbEntity
  8
0-4_枠
  6
Continuous
 62
    92
370
     5
100
AcDbLine
 10
-1880.956679109746
 20
2813.999683277028
 30
0.0
 11
-1880.956679109746
 21
2900.999523059741
 31
0.0
  0
LINE
  5
1FE
330
1F
100
AcDbEntity
  8
0-4_枠
  6
Continuous
 62
    92
370
     5
100
AcDbLine
 10
-1742.956679109749
 20
2426.999683277028
 30
0.0
 11
-1706.95624423426
 21
2426.999683277028
 31
0.0
  0
LINE
  5
1FF
330
1F
100
AcDbEntity
  8
0-4_枠
  6
Continuous
 62
    92
370
     5
100
AcDbLine
 10
-1742.956679109749
 20
2678.999683277029
 30
0.0
 11
-1742.956679109749
 21
2426.999683277028
 31
0.0
  0
LINE
  5
200
330
1F
100
AcDbEntity
  8
0-4_枠
  6
Continuous
 62
    92
370
     5
100
AcDbLine
 10
-1742.956679109749
 20
2678.999683277029
 30
0.0
 11
-1706.95624423426
 21
2678.999683277029
 31
0.0
  0
LINE
  5
201
330
1F
100
AcDbEntity
  8
0-4_枠
  6
Continuous
 62
    92
370
     5
100
AcDbLine
 10
-1739.956679109747
 20
2429.999683277029
 30
0.0
 11
-1703.956679109746
 21
2429.999683277029
 31
0.0
  0
LINE
  5
202
330
1F
100
AcDbEntity
  8
0-4_枠
  6
Continuous
 62
    92
370
     5
100
AcDbLine
 10
-1739.956679109747
 20
2675.999683277027
 30
0.0
 11
-1703.956679109746
 21
2675.999683277027
 31
0.0
  0
LINE
  5
203
330
1F
100
AcDbEntity
  8
0-4_枠
  6
Continuous
 62
    92
370
     5
100
AcDbLine
 10
-1739.956679109747
 20
2675.999683277027
 30
0.0
 11
-1739.956679109747
 21
2429.999683277029
 31
0.0
  0
LINE
  5
204
330
1F
100
AcDbEntity
  8
0-4_枠
  6
Continuous
 62
    92
370
     5
100
AcDbLine
 10
1687.833698006264
 20
2891.271761215672
 30
0.0
 11
1687.833698006264
 21
2675.999683277027
 31
0.0
  0
LINE
  5
205
330
1F
100
AcDbEntity
  8
0-4_枠
  6
Continuous
 62
    92
370
     5
100
AcDbLine
 10
1700.56162006762
 20
2903.999683277028
 30
0.0
 11
1867.834291861836
 21
2903.999683277028
 31
0.0
  0
LINE
  5
206
330
1F
100
AcDbEntity
  8
0-4_枠
  6
Continuous
 62
    92
370
     5
100
AcDbLine
 10
1687.833698006264
 20
2891.271761215672
 30
0.0
 11
1700.56162006762
 21
2903.999683277028
 31
0.0
  0
LINE
  5
207
330
1F
100
AcDbEntity
  8
0-4_枠
  6
Continuous
 62
    92
370
     5
100
AcDbLine
 10
1701.804260754741
 20
2900.999683277027
 30
0.0
 11
1864.834291861837
 21
2900.999683277027
 31
0.0
  0
LINE
  5
208
330
1F
100
AcDbEntity
  8
0-4_枠
  6
Continuous
 62
    92
370
     5
100
AcDbLine
 10
1690.833698006263
 20
2890.02912052855
 30
0.0
 11
1701.804260754741
 21
2900.999683277027
 31
0.0
  0
LINE
  5
209
330
1F
100
AcDbEntity
  8
0-4_枠
  6
Continuous
 62
    92
370
     5
100
AcDbLine
 10
1690.833698006263
 20
2890.02912052855
 30
0.0
 11
1690.833698006263
 21
2675.999683277027
 31
0.0
  0
LINE
  5
20A
330
1F
100
AcDbEntity
  8
0-4_枠
  6
Continuous
 62
    92
370
     5
100
AcDbLine
 10
-1716.684601171103
 20
2903.999683277028
 30
0.0
 11
-1883.956679109746
 21
2903.999683277028
 31
0.0
  0
LINE
  5
20B
330
1F
100
AcDbEntity
  8
0-4_枠
  6
Continuous
 62
    92
370
     5
100
AcDbLine
 10
-1703.956679109746
 20
2891.271761215668
 30
0.0
 11
-1703.956679109746
 21
2675.999683277027
 31
0.0
  0
LINE
  5
20C
330
1F
100
AcDbEntity
  8
0-4_枠
  6
Continuous
 62
    92
370
     5
100
AcDbLine
 10
-1716.684601171103
 20
2903.999683277028
 30
0.0
 11
-1703.956679109746
 21
2891.271761215668
 31
0.0
  0
LINE
  5
20D
330
1F
100
AcDbEntity
  8
0-4_枠
  6
Continuous
 62
    92
370
     5
100
AcDbLine
 10
-1716.684601171103
 20
1973.999683277029
 30
0.0
 11
-1883.956679109746
 21
1973.999683277029
 31
0.0
  0
LINE
  5
20E
330
1F
100
AcDbEntity
  8
0-4_枠
  6
Continuous
 62
    92
370
     5
100
AcDbLine
 10
-1703.956679109746
 20
1986.727605338387
 30
0.0
 11
-1703.956679109746
 21
2429.999683277029
 31
0.0
  0
LINE
  5
20F
330
1F
100
AcDbEntity
  8
0-4_枠
  6
Continuous
 62
    92
370
     5
100
AcDbLine
 10
-1716.684601171103
 20
1973.999683277029
 30
0.0
 11
-1703.956679109746
 21
1986.727605338387
 31
0.0
  0
LINE
  5
210
330
1F
100
AcDbEntity
  8
0-4_枠
  6
Continuous
 62
    92
370
     5
100
AcDbLine
 10
-85.33353137441395
 20
1973.999683277027
 30
0.0
 11
81.9385465642327
 21
1973.999683277027
 31
0.0
  0
LINE
  5
211
330
1F
100
AcDbEntity
  8
0-4_枠
  6
Continuous
 62
    92
370
     5
100
AcDbLine
 10
-98.06145343577157
 20
1986.727605338383
 30
0.0
 11
-98.06145343577157
 21
2424.000301721935
 31
0.0
  0
LINE
  5
212
330
1F
100
AcDbEntity
  8
0-4_枠
  6
Continuous
 62
    92
370
     5
100
AcDbLine
 10
-85.33353137441395
 20
1973.999683277027
 30
0.0
 11
-98.06145343577157
 21
1986.727605338383
 31
0.0
  0
LINE
  5
213
330
1F
100
AcDbEntity
  8
0-4_枠
  6
Continuous
 62
    92
370
     5
100
AcDbLine
 10
-84.09089068729429
 20
1976.999683277026
 30
0.0
 11
78.93854656423287
 21
1976.999683277026
 31
0.0
  0
LINE
  5
214
330
1F
100
AcDbEntity
  8
0-4_枠
  6
Continuous
 62
    92
370
     5
100
AcDbLine
 10
-84.09089068729429
 20
1976.999683277026
 30
0.0
 11
-95.06145343577174
 21
1987.970246025505
 31
0.0
  0
LINE
  5
215
330
1F
100
AcDbEntity
  8
0-4_枠
  6
Continuous
 62
    92
370
     5
100
AcDbLine
 10
-95.06145343577174
 20
1987.970246025505
 30
0.0
 11
-95.06145343577174
 21
2421.000301721936
 31
0.0
  0
LINE
  5
216
330
1F
100
AcDbEntity
  8
0-4_枠
  6
Continuous
 62
    92
370
     5
100
AcDbLine
 10
-1717.927081640936
 20
2900.999523059741
 30
0.0
 11
-1880.956679109746
 21
2900.999523059741
 31
0.0
  0
LINE
  5
217
330
1F
100
AcDbEntity
  8
0-4_枠
  6
Continuous
 62
    92
370
     5
100
AcDbLine
 10
-1717.927081640936
 20
2900.999523059741
 30
0.0
 11
-1706.95624423426
 21
2890.028685653064
 31
0.0
  0
LINE
  5
218
330
1F
100
AcDbEntity
  8
0-4_枠
  6
Continuous
 62
    92
370
     5
100
AcDbLine
 10
-1706.95624423426
 20
2890.028685653064
 30
0.0
 11
-1706.95624423426
 21
2678.999683277029
 31
0.0
  0
LINE
  5
219
330
1F
100
AcDbEntity
  8
0-4_枠
  6
Continuous
 62
    92
370
     5
100
AcDbLine
 10
-1717.927676733713
 20
1976.999248401538
 30
0.0
 11
-1880.956679109746
 21
1976.999248401538
 31
0.0
  0
LINE
  5
21A
330
1F
100
AcDbEntity
  8
0-4_枠
  6
Continuous
 62
    92
370
     5
100
AcDbLine
 10
-1717.927676733713
 20
1976.999248401538
 30
0.0
 11
-1706.95624423426
 21
1987.970680900994
 31
0.0
  0
LINE
  5
21B
330
1F
100
AcDbEntity
  8
0-4_枠
  6
Continuous
 62
    92
370
     5
100
AcDbLine
 10
-1706.95624423426
 20
1987.970680900994
 30
0.0
 11
-1706.95624423426
 21
2426.999683277028
 31
0.0
  0
LINE
  5
21C
330
1F
100
AcDbEntity
  8
0-0_補助線
  6
JWW_HOJO
 62
   120
370
     5
100
AcDbLine
 10
3067.834291861836
 20
2963.999683277028
 30
0.0
 11
-3083.956679109746
 21
2963.999683277028
 31
0.0
  0
LINE
  5
21D
330
1F
100
AcDbEntity
  8
0-0_補助線
  6
JWW_HOJO
 62
   120
370
     5
100
AcDbLine
 10
-3083.956679109746
 20
1073.999683277027
 30
0.0
 11
-3083.956679109746
 21
2963.999683277028
 31
0.0
  0
LINE
  5
21E
330
1F
100
AcDbEntity
  8
0-0_補助線
  6
JWW_HOJO
 62
   120
370
     5
100
AcDbLine
 10
3067.834291861836
 20
2963.999683277028
 30
0.0
 11
3067.834291861836
 21
1073.999683277027
 31
0.0
  0
LINE
  5
21F
330
1F
100
AcDbEntity
  8
0-0_補助線
  6
JWW_HOJO
 62
   120
370
     5
100
AcDbLine
 10
-880.0091405047033
 20
2963.999683277028
 30
0.0
 11
-880.0091405047033
 21
1853.999683277027
 31
0.0
  0
LINE
  5
220
330
1F
100
AcDbEntity
  8
0-0_補助線
  6
JWW_HOJO
 62
   120
370
     5
100
AcDbLine
 10
944.8861222852472
 20
1853.999683277027
 30
0.0
 11
944.8861222852472
 21
2963.999683277028
 31
0.0
  0
LINE
  5
221
330
1F
100
AcDbEntity
  8
0-0_補助線
  6
JWW_HOJO
 62
   120
370
     5
100
AcDbLine
 10
824.8861222852472
 20
1853.999683277027
 30
0.0
 11
824.8861222852472
 21
2963.999683277028
 31
0.0
  0
LINE
  5
222
330
1F
100
AcDbEntity
  8
0-0_補助線
  6
JWW_HOJO
 62
   120
370
     5
100
AcDbLine
 10
-760.0091405047033
 20
2963.999683277028
 30
0.0
 11
-760.0091405047033
 21
1853.999683277027
 31
0.0
  0
MTEXT
  5
223
330
1F
100
AcDbEntity
  8
0-A_文字
  6
Continuous
 62
     7
370
     5
100
AcDbMText
 10
-3083.956679109746
 20
3009.719683277027
 30
0.0
 40
91.44
 41
600.0
 46
0.0
 71
     7
 72
     1
  1
{\fＭＳ ゴシック|b0|i0|c128|p49;■横断面図}
 73
     1
 44
1.0
  0
MTEXT
  5
224
330
1F
100
AcDbEntity
  8
0-A_文字
  6
Continuous
 62
     7
370
     5
100
AcDbMText
 10
1282.283405110382
 20
913.9072115561258
 30
0.0
 40
78.58125
 41
825.0
 46
0.0
 71
     7
 72
     1
  1
{\fＭＳ ゴシック|b0|i0|c128|p49;※図示：左引き手}
 73
     1
 44
1.0
  0
MTEXT
  5
225
330
1F
100
AcDbEntity
  8
0-B_寸法
  6
Continuous
 62
     7
370
   211
100
AcDbMText
 10
-356.9081774094153
 20
2477.827727489987
 30
0.0
 40
97.15499999999999
 41
127.5
 46
0.0
 71
     7
 72
     1
  1
{\fＭＳ ゴシック|b0|i0|c128|p49;30}
 11
6.123031769111886E-17
 21
1.0
 31
0.0
 73
     1
 44
1.0
  0
MTEXT
  5
226
330
1F
100
AcDbEntity
  8
0-B_寸法
  6
Continuous
 62
     7
370
   211
100
AcDbMText
 10
-206.9081774094153
 20
2335.530301721936
 30
0.0
 40
99.06
 41
195.0
 46
0.0
 71
     7
 72
     1
  1
{\fＭＳ ゴシック|b0|i0|c128|p49;6.5}
 11
6.123031769111886E-17
 21
1.0
 31
0.0
 73
     1
 44
1.0
  0
MTEXT
  5
227
330
1F
100
AcDbEntity
  8
0-B_寸法
  6
Continuous
 62
     7
370
   211
100
AcDbMText
 10
-356.9081774094153
 20
2123.827801721935
 30
0.0
 40
97.15499999999999
 41
127.5
 46
0.0
 71
     7
 72
     1
  1
{\fＭＳ ゴシック|b0|i0|c128|p49;75}
 11
6.123031769111886E-17
 21
1.0
 31
0.0
 73
     1
 44
1.0
  0
MTEXT
  5
228
330
1F
100
AcDbEntity
  8
0-B_寸法
  6
Continuous
 62
     7
370
     0
100
AcDbMText
 10
-68.06175036355484
 20
1494.719732764991
 30
0.0
 40
91.44
 41
120.0
 46
0.0
 71
     7
 72
     1
  1
{\fＭＳ ゴシック|b0|i0|c128|p49;30}
 73
     1
 44
1.0
  0
MTEXT
  5
229
330
1F
100
AcDbEntity
  8
0-B_寸法
  6
Continuous
 62
     7
370
     0
100
AcDbMText
 10
-1853.956753341694
 20
1284.719732764991
 30
0.0
 40
91.44
 41
120.0
 46
0.0
 71
     7
 72
     1
  1
{\fＭＳ ゴシック|b0|i0|c128|p49;30}
 73
     1
 44
1.0
  0
MTEXT
  5
22A
330
1F
100
AcDbEntity
  8
0-B_寸法
  6
Continuous
 62
     7
370
     0
100
AcDbMText
 10
1717.834366093784
 20
1284.719732764991
 30
0.0
 40
91.44
 41
120.0
 46
0.0
 71
     7
 72
     1
  1
{\fＭＳ ゴシック|b0|i0|c128|p49;30}
 73
     1
 44
1.0
  0
MTEXT
  5
22B
330
1F
100
AcDbEntity
  8
0-B_寸法
  6
Continuous
 62
     7
370
     0
100
AcDbMText
 10
-1383.691148775893
 20
2714.095477101476
 30
0.0
 40
102.1976470588235
 41
2280.0
 46
0.0
 71
     7
 72
     1
  1
{\fＭＳ ゴシック|b0|i0|c128|p49;ＤＷ＝900（810）<713>［650]〔583〕}
 73
     1
 44
1.0
  0
MTEXT
  5
22C
330
1F
100
AcDbEntity
  8
0-B_寸法
  6
Continuous
 62
     7
370
     0
100
AcDbMText
 10
-1255.456938921559
 20
1639.340455190937
 30
0.0
 40
100.965
 41
795.0
 46
0.0
 71
     7
 72
     1
  1
{\fＭＳ ゴシック|b0|i0|c128|p49;有効開口寸法}
 73
     1
 44
1.0
  0
MTEXT
  5
22D
330
1F
100
AcDbEntity
  8
0-B_寸法
  6
Continuous
 62
     7
370
     0
100
AcDbMText
 10
-1664.206938921559
 20
1497.740990905222
 30
0.0
 40
87.76607142857134
 41
1612.499999999999
 46
0.0
 71
     7
 72
     1
  1
{\fＭＳ ゴシック|b0|i0|c128|p49;867（777）<680>［617]〔550〕}
 73
     1
 44
1.0
  0
MTEXT
  5
22E
330
1F
100
AcDbEntity
  8
0-B_寸法
  6
Continuous
 62
     7
370
     0
100
AcDbMText
 10
107.8742937853121
 20
1502.417771223284
 30
0.0
 40
87.7660714285714
 41
1612.5
 46
0.0
 71
     7
 72
     1
  1
{\fＭＳ ゴシック|b0|i0|c128|p49;867（777）<680>［617]〔550〕}
 73
     1
 44
1.0
  0
MTEXT
  5
22F
330
1F
100
AcDbEntity
  8
0-B_寸法
  6
Continuous
 62
     7
370
     0
100
AcDbMText
 10
-1485.561564783687
 20
1292.638601595385
 30
0.0
 40
102.3504545454545
 41
2954.999999999999
 46
0.0
 71
     7
 72
     1
  1
{\fＭＳ ゴシック|b0|i0|c128|p49;枠内＝1,764（1,584）<1,390>［1,264]〔1,130〕}
 73
     1
 44
1.0
  0
MTEXT
  5
230
330
1F
100
AcDbEntity
  8
0-B_寸法
  6
Continuous
 62
     7
370
     0
100
AcDbMText
 10
-1485.561564783687
 20
1073.921507969991
 30
0.0
 40
102.3504545454545
 41
2954.999999999999
 46
0.0
 71
     7
 72
     1
  1
{\fＭＳ ゴシック|b0|i0|c128|p49;枠外＝1,824（1,644）<1,450>［1,324]〔1,190〕}
 73
     1
 44
1.0
  0
MTEXT
  5
231
330
1F
100
AcDbEntity
  8
0-A_文字
  6
Continuous
 62
     7
370
     5
100
AcDbMText
 10
1282.283405110382
 20
704.4210602403364
 30
0.0
 40
79.60894736842103
 41
2977.5
 46
0.0
 71
     7
 72
     1
  1
{\fＭＳ ゴシック|b0|i0|c128|p49;　ご使用ください。ただし、有効開口は102ミリ狭くなります。}
 73
     1
 44
1.0
  0
MTEXT
  5
232
330
1F
100
AcDbEntity
  8
0-A_文字
  6
Continuous
 62
     7
370
     5
100
AcDbMText
 10
1282.283405110382
 20
809.4174794132687
 30
0.0
 40
79.6017857142857
 41
2925.0
 46
0.0
 71
     7
 72
     1
  1
{\fＭＳ ゴシック|b0|i0|c128|p49;※大型サムターン表示錠使用時は、引戸引き残しストッパーを}
 73
     1
 44
1.0
  0
LINE
  5
233
330
1F
100
AcDbEntity
  8
0-A_文字
  6
Continuous
 62
    92
370
     5
100
AcDbLine
 10
5679.835838693025
 20
3730.000181455871
 30
0.0
 11
3855.835838693024
 21
3730.000181455871
 31
0.0
  0
LINE
  5
234
330
1F
100
AcDbEntity
  8
0-A_文字
  6
Continuous
 62
    92
370
     5
100
AcDbLine
 10
3855.835838693024
 20
3586.000181455872
 30
0.0
 11
5679.835838693025
 21
3586.000181455872
 31
0.0
  0
LINE
  5
235
330
1F
100
AcDbEntity
  8
0-A_文字
  6
Continuous
 62
    92
370
     5
100
AcDbLine
 10
5679.835838693025
 20
2764.000181455871
 30
0.0
 11
3855.835838693024
 21
2764.000181455871
 31
0.0
  0
LINE
  5
236
330
1F
100
AcDbEntity
  8
0-0_補助線
  6
JWW_HOJO
 62
   120
370
     5
100
AcDbLine
 10
4311.835838693024
 20
3730.000181455871
 30
0.0
 11
4311.835838693024
 21
2764.000181455871
 31
0.0
  0
LINE
  5
237
330
1F
100
AcDbEntity
  8
0-0_補助線
  6
JWW_HOJO
 62
   120
370
     5
100
AcDbLine
 10
5223.835838693025
 20
3730.000181455871
 30
0.0
 11
5223.835838693025
 21
2764.000181455871
 31
0.0
  0
LINE
  5
238
330
1F
100
AcDbEntity
  8
0-0_補助線
  6
JWW_HOJO
 62
   120
370
     5
100
AcDbLine
 10
3879.835838693023
 20
3730.000181455871
 30
0.0
 11
3879.835838693023
 21
2764.000181455871
 31
0.0
  0
LINE
  5
239
330
1F
100
AcDbEntity
  8
0-0_補助線
  6
JWW_HOJO
 62
   120
370
     5
100
AcDbLine
 10
4743.835838693023
 20
3730.000181455871
 30
0.0
 11
4743.835838693023
 21
2764.000181455871
 31
0.0
  0
LINE
  5
23A
330
1F
100
AcDbEntity
  8
0-0_補助線
  6
JWW_HOJO
 62
   120
370
     5
100
AcDbLine
 10
4791.835838693024
 20
3730.000181455871
 30
0.0
 11
4791.835838693024
 21
2764.000181455871
 31
0.0
  0
LINE
  5
23B
330
1F
100
AcDbEntity
  8
0-0_補助線
  6
JWW_HOJO
 62
   120
370
     5
100
AcDbLine
 10
5655.835838693025
 20
3730.000181455871
 30
0.0
 11
5655.835838693025
 21
2764.000181455871
 31
0.0
  0
LINE
  5
23C
330
1F
100
AcDbEntity
  8
0-A_文字
  6
Continuous
 62
    92
370
     5
100
AcDbLine
 10
3855.835838693024
 20
3730.000181455871
 30
0.0
 11
3855.835838693024
 21
2764.000181455871
 31
0.0
  0
LINE
  5
23D
330
1F
100
AcDbEntity
  8
0-A_文字
  6
Continuous
 62
    92
370
     5
100
AcDbLine
 10
4767.835838693024
 20
3730.000181455871
 30
0.0
 11
4767.835838693024
 21
2764.000181455871
 31
0.0
  0
LINE
  5
23E
330
1F
100
AcDbEntity
  8
0-A_文字
  6
Continuous
 62
    92
370
     5
100
AcDbLine
 10
5679.835838693025
 20
3730.000181455871
 30
0.0
 11
5679.835838693025
 21
2764.000181455871
 31
0.0
  0
LINE
  5
23F
330
1F
100
AcDbEntity
  8
戸当り
  6
Continuous
 62
    40
370
     5
100
AcDbLine
 10
4319.035838693025
 20
3344.723723027999
 30
0.0
 11
4319.035838693025
 21
3366.323723027999
 31
0.0
  0
LINE
  5
240
330
1F
100
AcDbEntity
  8
戸当り
  6
Continuous
 62
    40
370
     5
100
AcDbLine
 10
3879.835838693023
 20
3344.723723027999
 30
0.0
 11
4319.035838693025
 21
3344.723723027999
 31
0.0
  0
LINE
  5
241
330
1F
100
AcDbEntity
  8
戸当り
  6
Continuous
 62
    40
370
     5
100
AcDbLine
 10
3951.835838693024
 20
3366.323723027999
 30
0.0
 11
4319.035838693025
 21
3366.323723027999
 31
0.0
  0
LINE
  5
242
330
1F
100
AcDbEntity
  8
戸当り
  6
Continuous
 62
    40
370
     5
100
AcDbLine
 10
3951.835838693024
 20
3366.323723027999
 30
0.0
 11
3951.835838693024
 21
3387.923723027998
 31
0.0
  0
LINE
  5
243
330
1F
100
AcDbEntity
  8
戸当り
  6
JWW_DASHED2
 62
    40
370
     5
100
AcDbLine
 10
4304.635838693024
 20
3377.123723027998
 30
0.0
 11
3951.835838693024
 21
3377.123723027998
 31
0.0
  0
LINE
  5
244
330
1F
100
AcDbEntity
  8
戸当り
  6
Continuous
 62
    40
370
     5
100
AcDbLine
 10
3951.835838693024
 20
3387.923723027998
 30
0.0
 11
3879.835838693023
 21
3387.923723027998
 31
0.0
  0
LINE
  5
245
330
1F
100
AcDbEntity
  8
戸当り
  6
Continuous
 62
    40
370
     5
100
AcDbLine
 10
4671.835838693024
 20
3344.723723027999
 30
0.0
 11
4671.835838693024
 21
3387.923723027998
 31
0.0
  0
LINE
  5
246
330
1F
100
AcDbEntity
  8
戸当り
  6
Continuous
 62
    40
370
     5
100
AcDbLine
 10
4304.635838693024
 20
3377.123723027998
 30
0.0
 11
4671.835838693024
 21
3377.123723027998
 31
0.0
  0
LINE
  5
247
330
1F
100
AcDbEntity
  8
戸当り
  6
Continuous
 62
    40
370
     5
100
AcDbLine
 10
4671.835838693024
 20
3344.723723027999
 30
0.0
 11
4743.835838693023
 21
3344.723723027999
 31
0.0
  0
LINE
  5
248
330
1F
100
AcDbEntity
  8
戸当り
  6
Continuous
 62
    40
370
     5
100
AcDbLine
 10
4671.835838693024
 20
3387.923723027998
 30
0.0
 11
4743.835838693023
 21
3387.923723027998
 31
0.0
  0
LINE
  5
249
330
1F
100
AcDbEntity
  8
戸当り
  6
Continuous
 62
    92
370
     5
100
AcDbLine
 10
4495.435838693024
 20
3305.123723027998
 30
0.0
 11
4495.435838693024
 21
3449.123723027998
 31
0.0
  0
LINE
  5
24A
330
1F
100
AcDbEntity
  8
戸当り
  6
Continuous
 62
    40
370
     5
100
AcDbLine
 10
5216.635838693025
 20
3344.723723027999
 30
0.0
 11
5216.635838693025
 21
3366.323723027999
 31
0.0
  0
LINE
  5
24B
330
1F
100
AcDbEntity
  8
戸当り
  6
Continuous
 62
    40
370
     5
100
AcDbLine
 10
5655.835838693025
 20
3344.723723027999
 30
0.0
 11
5216.635838693025
 21
3344.723723027999
 31
0.0
  0
LINE
  5
24C
330
1F
100
AcDbEntity
  8
戸当り
  6
Continuous
 62
    40
370
     5
100
AcDbLine
 10
5583.835838693025
 20
3366.323723027999
 30
0.0
 11
5216.635838693025
 21
3366.323723027999
 31
0.0
  0
LINE
  5
24D
330
1F
100
AcDbEntity
  8
戸当り
  6
Continuous
 62
    40
370
     5
100
AcDbLine
 10
5583.835838693025
 20
3366.323723027999
 30
0.0
 11
5583.835838693025
 21
3387.923723027998
 31
0.0
  0
LINE
  5
24E
330
1F
100
AcDbEntity
  8
戸当り
  6
JWW_DASHED2
 62
    40
370
     5
100
AcDbLine
 10
5231.035838693026
 20
3377.123723027998
 30
0.0
 11
5583.835838693025
 21
3377.123723027998
 31
0.0
  0
LINE
  5
24F
330
1F
100
AcDbEntity
  8
戸当り
  6
Continuous
 62
    40
370
     5
100
AcDbLine
 10
5583.835838693025
 20
3387.923723027998
 30
0.0
 11
5655.835838693025
 21
3387.923723027998
 31
0.0
  0
LINE
  5
250
330
1F
100
AcDbEntity
  8
戸当り
  6
Continuous
 62
    40
370
     5
100
AcDbLine
 10
4863.835838693023
 20
3344.723723027999
 30
0.0
 11
4863.835838693023
 21
3387.923723027998
 31
0.0
  0
LINE
  5
251
330
1F
100
AcDbEntity
  8
戸当り
  6
Continuous
 62
    40
370
     5
100
AcDbLine
 10
5231.035838693026
 20
3377.123723027998
 30
0.0
 11
4863.835838693023
 21
3377.123723027998
 31
0.0
  0
LINE
  5
252
330
1F
100
AcDbEntity
  8
戸当り
  6
Continuous
 62
    40
370
     5
100
AcDbLine
 10
4863.835838693023
 20
3344.723723027999
 30
0.0
 11
4791.835838693024
 21
3344.723723027999
 31
0.0
  0
LINE
  5
253
330
1F
100
AcDbEntity
  8
戸当り
  6
Continuous
 62
    40
370
     5
100
AcDbLine
 10
4863.835838693023
 20
3387.923723027998
 30
0.0
 11
4791.835838693024
 21
3387.923723027998
 31
0.0
  0
LINE
  5
254
330
1F
100
AcDbEntity
  8
戸当り
  6
Continuous
 62
    92
370
     5
100
AcDbLine
 10
5040.235838693025
 20
3305.123723027998
 30
0.0
 11
5040.235838693025
 21
3449.123723027998
 31
0.0
  0
ELLIPSE
  5
255
330
1F
100
AcDbEntity
  8
戸当り
  6
Continuous
 62
    92
370
     5
100
AcDbEllipse
 10
4420.036113825839
 20
2972.884428393055
 30
0.0
 11
-17.7763823922528
 21
100.8148742797557
 31
0.0
210
0.0
220
0.0
230
1.0
 40
0.4000000000000001
 41
1.850633272656679
 42
2.442876790075129
  0
ELLIPSE
  5
256
330
1F
100
AcDbEntity
  8
戸当り
  6
Continuous
 62
    92
370
     5
100
AcDbEllipse
 10
4420.036113825839
 20
2972.884428393055
 30
0.0
 11
-17.7763823922528
 21
100.8148742797557
 31
0.0
210
0.0
220
0.0
230
1.0
 40
0.4000000000000001
 41
3.840308517104466
 42
4.432552034522944
  0
ELLIPSE
  5
257
330
1F
100
AcDbEntity
  8
戸当り
  6
Continuous
 62
    92
370
     5
100
AcDbEllipse
 10
4419.616367775939
 20
2975.264926534712
 30
0.0
 11
-14.67024424252691
 21
83.19908946199426
 31
0.0
210
0.0
220
0.0
230
1.0
 40
0.5
 41
4.340591432030095
 42
8.225779182329084
  0
LINE
  5
258
330
1F
100
AcDbEntity
  8
戸当り
  6
Continuous
 62
    92
370
     5
100
AcDbLine
 10
4459.585997598602
 20
2900.267379069786
 30
0.0
 11
4407.707873509067
 21
2891.119866084259
 31
0.0
  0
LINE
  5
259
330
1F
100
AcDbEntity
  8
戸当り
  6
Continuous
 62
    92
370
     5
100
AcDbLine
 10
4461.773964637206
 20
2887.858801381832
 30
0.0
 11
4409.895840547671
 21
2878.711288396305
 31
0.0
  0
ELLIPSE
  5
25A
330
1F
100
AcDbEntity
  8
戸当り
  6
Continuous
 62
    92
370
     5
100
AcDbEllipse
 10
4435.834902592438
 20
2883.285044889069
 30
0.0
 11
-7.622927487939132
 21
43.23177007461331
 31
0.0
210
0.0
220
0.0
230
1.0
 40
0.6000000000000001
 41
1.570796326794897
 42
4.71238898038469
  0
ELLIPSE
  5
25B
330
1F
100
AcDbEntity
  8
戸当り
  6
Continuous
 62
    92
370
     5
100
AcDbEllipse
 10
4574.496882763717
 20
3008.935263882863
 30
0.0
 11
26.49533313827761
 21
98.88192943551533
 31
0.0
210
0.0
220
0.0
230
0.9999999999999999
 40
0.4
 41
1.850633272656679
 42
2.442876790075129
  0
ELLIPSE
  5
25C
330
1F
100
AcDbEntity
  8
戸当り
  6
Continuous
 62
    92
370
     5
100
AcDbEllipse
 10
4574.496882763717
 20
3008.935263882863
 30
0.0
 11
26.49533313827761
 21
98.88192943551533
 31
0.0
210
0.0
220
0.0
230
0.9999999999999999
 40
0.4
 41
3.840308517104466
 42
4.432552034522944
  0
ELLIPSE
  5
25D
330
1F
100
AcDbEntity
  8
戸当り
  6
Continuous
 62
    92
370
     5
100
AcDbEllipse
 10
4575.122505636819
 20
3011.270120231655
 30
0.0
 11
21.86569797210526
 21
81.6038957748525
 31
0.0
210
0.0
220
0.0
230
1.0
 40
0.5
 41
4.340591432030095
 42
8.225779182329084
  0
LINE
  5
25E
330
1F
100
AcDbEntity
  8
戸当り
  6
Continuous
 62
    92
370
     5
100
AcDbLine
 10
4579.651959245628
 20
2926.407363477468
 30
0.0
 11
4528.768505369234
 21
2940.041543851754
 31
0.0
  0
LINE
  5
25F
330
1F
100
AcDbEntity
  8
戸当り
  6
Continuous
 62
    92
370
     5
100
AcDbLine
 10
4576.390839277336
 20
2914.236698066226
 30
0.0
 11
4525.507385400943
 21
2927.870878440512
 31
0.0
  0
ELLIPSE
  5
260
330
1F
100
AcDbEntity
  8
戸当り
  6
Continuous
 62
    92
370
     5
100
AcDbEllipse
 10
4550.94911233914
 20
2921.053788253369
 30
0.0
 11
11.36181697857171
 21
42.40287823032828
 31
0.0
210
0.0
220
0.0
230
0.9999999999999999
 40
0.6
 41
1.570796326794897
 42
4.71238898038469
  0
ELLIPSE
  5
261
330
1F
100
AcDbEntity
  8
戸当り
  6
Continuous
 62
    92
370
     5
100
AcDbEllipse
 10
4964.836113825841
 20
2972.884428393055
 30
0.0
 11
-17.7763823922528
 21
100.8148742797557
 31
0.0
210
0.0
220
0.0
230
1.0
 40
0.4000000000000001
 41
1.850633272656679
 42
2.442876790075129
  0
ELLIPSE
  5
262
330
1F
100
AcDbEntity
  8
戸当り
  6
Continuous
 62
    92
370
     5
100
AcDbEllipse
 10
4964.836113825841
 20
2972.884428393055
 30
0.0
 11
-17.7763823922528
 21
100.8148742797557
 31
0.0
210
0.0
220
0.0
230
1.0
 40
0.4000000000000001
 41
3.840308517104466
 42
4.432552034522944
  0
ELLIPSE
  5
263
330
1F
100
AcDbEntity
  8
戸当り
  6
Continuous
 62
    92
370
     5
100
AcDbEllipse
 10
4964.41636777594
 20
2975.264926534712
 30
0.0
 11
-14.67024424252691
 21
83.19908946199426
 31
0.0
210
0.0
220
0.0
230
1.0
 40
0.5
 41
4.340591432030095
 42
8.225779182329084
  0
LINE
  5
264
330
1F
100
AcDbEntity
  8
戸当り
  6
Continuous
 62
    92
370
     5
100
AcDbLine
 10
5004.385997598602
 20
2900.267379069786
 30
0.0
 11
4952.507873509067
 21
2891.119866084259
 31
0.0
  0
LINE
  5
265
330
1F
100
AcDbEntity
  8
戸当り
  6
Continuous
 62
    92
370
     5
100
AcDbLine
 10
5006.573964637206
 20
2887.858801381832
 30
0.0
 11
4954.695840547671
 21
2878.711288396305
 31
0.0
  0
ELLIPSE
  5
266
330
1F
100
AcDbEntity
  8
戸当り
  6
Continuous
 62
    92
370
     5
100
AcDbEllipse
 10
4980.634902592438
 20
2883.285044889069
 30
0.0
 11
-7.622927487939132
 21
43.23177007461331
 31
0.0
210
0.0
220
0.0
230
1.0
 40
0.6000000000000001
 41
1.570796326794897
 42
4.71238898038469
  0
ELLIPSE
  5
267
330
1F
100
AcDbEntity
  8
戸当り
  6
Continuous
 62
    92
370
     5
100
AcDbEllipse
 10
5119.296882763718
 20
3008.935263882863
 30
0.0
 11
26.49533313827761
 21
98.88192943551533
 31
0.0
210
0.0
220
0.0
230
0.9999999999999999
 40
0.4
 41
1.850633272656679
 42
2.442876790075129
  0
ELLIPSE
  5
268
330
1F
100
AcDbEntity
  8
戸当り
  6
Continuous
 62
    92
370
     5
100
AcDbEllipse
 10
5119.296882763718
 20
3008.935263882863
 30
0.0
 11
26.49533313827761
 21
98.88192943551533
 31
0.0
210
0.0
220
0.0
230
0.9999999999999999
 40
0.4
 41
3.840308517104466
 42
4.432552034522944
  0
ELLIPSE
  5
269
330
1F
100
AcDbEntity
  8
戸当り
  6
Continuous
 62
    92
370
     5
100
AcDbEllipse
 10
5119.92250563682
 20
3011.270120231655
 30
0.0
 11
21.86569797210526
 21
81.6038957748525
 31
0.0
210
0.0
220
0.0
230
1.0
 40
0.5
 41
4.340591432030095
 42
8.225779182329084
  0
LINE
  5
26A
330
1F
100
AcDbEntity
  8
戸当り
  6
Continuous
 62
    92
370
     5
100
AcDbLine
 10
5124.451959245629
 20
2926.407363477468
 30
0.0
 11
5073.568505369235
 21
2940.041543851754
 31
0.0
  0
LINE
  5
26B
330
1F
100
AcDbEntity
  8
戸当り
  6
Continuous
 62
    92
370
     5
100
AcDbLine
 10
5121.190839277338
 20
2914.236698066226
 30
0.0
 11
5070.307385400944
 21
2927.870878440512
 31
0.0
  0
ELLIPSE
  5
26C
330
1F
100
AcDbEntity
  8
戸当り
  6
Continuous
 62
    92
370
     5
100
AcDbEllipse
 10
5095.749112339141
 20
2921.053788253369
 30
0.0
 11
11.36181697857171
 21
42.40287823032828
 31
0.0
210
0.0
220
0.0
230
0.9999999999999999
 40
0.6
 41
1.570796326794897
 42
4.71238898038469
  0
MTEXT
  5
26D
330
1F
100
AcDbEntity
  8
0-A_文字
  6
Continuous
 62
     7
370
     5
100
AcDbMText
 10
3855.835838693024
 20
3745.720181455871
 30
0.0
 40
91.44
 41
720.0
 46
0.0
 71
     7
 72
     1
  1
{\fＭＳ ゴシック|b0|i0|c128|p49;■引き手方向}
 73
     1
 44
1.0
  0
MTEXT
  5
26E
330
1F
100
AcDbEntity
  8
0-A_文字
  6
Continuous
 62
     7
370
     5
100
AcDbMText
 10
4109.335838693024
 20
3606.576431455872
 30
0.0
 40
77.15249999999999
 41
405.0
 46
0.0
 71
     7
 72
     1
  1
{\fＭＳ ゴシック|b0|i0|c128|p49;右引き手}
 73
     1
 44
1.0
  0
MTEXT
  5
26F
330
1F
100
AcDbEntity
  8
0-A_文字
  6
Continuous
 62
     7
370
     5
100
AcDbMText
 10
5021.335838693025
 20
3606.576431455872
 30
0.0
 40
77.15249999999999
 41
405.0
 46
0.0
 71
     7
 72
     1
  1
{\fＭＳ ゴシック|b0|i0|c128|p49;左引き手}
 73
     1
 44
1.0
  0
LINE
  5
270
330
1F
100
AcDbEntity
  8
0-A_文字
  6
Continuous
 62
     7
370
     5
100
AcDbLine
 10
5391.072796934866
 20
-3877.758620689654
 30
0.0
 11
5395.900383141763
 21
-3863.275862068965
 31
0.0
  0
MTEXT
  5
271
330
1F
100
AcDbEntity
  8
F-A_文字
  6
Continuous
 62
     7
370
     5
100
AcDbMText
 10
5096.167700144058
 20
-4147.857012699985
 30
0.0
 40
74.295
 41
97.5
 46
0.0
 71
     7
 72
     1
  1
{\fＭＳ ゴシック|b0|i0|c128|p49;01}
 73
     1
 44
1.0
  0
MTEXT
  5
272
330
1F
100
AcDbEntity
  8
0-A_文字
  6
Continuous
 62
    92
370
     5
100
AcDbMText
 10
-5558.74949532586
 20
3758.968610027299
 30
0.0
 40
147.9368571428572
 41
3397.5
 46
0.0
 71
     7
 72
     1
  1
{\fＭＳ ゴシック|b0|i0|c128|p49;片引き戸　上吊りタイプ　固定枠155巾}
 73
     1
 44
1.0
  0
LINE
  5
273
330
1F
100
AcDbEntity
  8
0-A_文字
  6
Continuous
 62
    92
370
     5
100
AcDbLine
 10
-5659.999495325861
 20
3730.00018145587
 30
0.0
 11
-2071.428571428571
 21
3730.00018145587
 31
0.0
  0
LINE
  5
274
330
1F
100
AcDbEntity
  8
0-A_文字
  6
Continuous
 62
    92
370
     5
100
AcDbLine
 10
-5659.999495325861
 20
4000.00018145587
 30
0.0
 11
-2071.428571428571
 21
4000.00018145587
 31
0.0
  0
LINE
  5
275
330
1F
100
AcDbEntity
  8
0-A_文字
  6
Continuous
 62
    92
370
     5
100
AcDbLine
 10
-2071.428571428571
 20
3730.00018145587
 30
0.0
 11
-2071.428571428571
 21
4000.00018145587
 31
0.0
  0
MTEXT
  5
276
330
1F
100
AcDbEntity
  8
F-A_文字
  6
Continuous
 62
     7
370
     0
100
AcDbMText
 10
-5080.081323642279
 20
-4045.24893607839
 30
0.0
 40
79.50199999999998
 41
2347.5
 46
0.0
 71
     7
 72
     1
  1
{\fＭＳ ゴシック|b0|i0|c128|p49;ドレタス　片引き戸　上吊りタイプ　固定枠155巾}
 73
     1
 44
1.0
  0
MTEXT
  5
277
330
1F
100
AcDbEntity
  8
0-A_文字
  6
Continuous
 62
     7
370
     5
100
AcDbMText
 10
-4247.717896424569
 20
354.3775129854489
 30
0.0
 40
100.584
 41
660.0
 46
0.0
 71
     7
 72
     1
  1
{\fＭＳ ゴシック|b0|i0|c128|p49;■縦断面図}
 73
     1
 44
1.0
  0
LINE
  5
278
330
1F
100
AcDbEntity
  8
0-C_ハッチ
  6
Continuous
 62
   120
370
     5
100
AcDbLine
 10
-3618.502757360302
 20
-330.0001979518569
 30
0.0
 11
-3441.502757360296
 21
-153.0001979518551
 31
0.0
  0
LINE
  5
279
330
1F
100
AcDbEntity
  8
0-C_ハッチ
  6
Continuous
 62
   120
370
     5
100
AcDbLine
 10
-3559.105787740648
 20
-330.0001979518569
 30
0.0
 11
-3470.117896424569
 21
-241.0123066357787
 31
0.0
  0
LINE
  5
27A
330
1F
100
AcDbEntity
  8
0-C_ハッチ
  6
Continuous
 62
   120
370
     5
100
AcDbLine
 10
-3677.899726979936
 20
-330.0001979518569
 30
0.0
 11
-3500.899726979941
 21
-153.0001979518551
 31
0.0
  0
LINE
  5
27B
330
1F
100
AcDbEntity
  8
0-C_ハッチ
  6
Continuous
 62
   120
370
     5
100
AcDbLine
 10
-3796.693666219305
 20
-330.0001979518723
 30
0.0
 11
-3619.693666219288
 21
-153.0001979518559
 31
0.0
  0
LINE
  5
27C
330
1F
100
AcDbEntity
  8
0-C_ハッチ
  6
Continuous
 62
   120
370
     5
100
AcDbLine
 10
-3560.296696599645
 20
-153.0001979518525
 30
0.0
 11
-3737.296696599646
 21
-330.0001979518612
 31
0.0
  0
LINE
  5
27D
330
1F
100
AcDbEntity
  8
0-4_枠
  6
Continuous
 62
    92
370
     5
100
AcDbLine
 10
-3470.11789642457
 20
-333.0001979518559
 30
0.0
 11
-3938.717896424567
 21
-333.0001979518559
 31
0.0
  0
LINE
  5
27E
330
1F
100
AcDbEntity
  8
0-4_枠
  6
Continuous
 62
    92
370
     5
100
AcDbLine
 10
-3470.11789642457
 20
-330.0001979518569
 30
0.0
 11
-3935.718331300059
 21
-330.0001979518569
 31
0.0
  0
LINE
  5
27F
330
1F
100
AcDbEntity
  8
0-B_寸法
  6
Continuous
 62
   120
370
     5
100
AcDbLine
 10
-3473.717896424579
 20
-1119.000324800429
 30
0.0
 11
-3293.717896424579
 21
-1119.000324800429
 31
0.0
  0
LINE
  5
280
330
1F
100
AcDbEntity
  8
0-7_金物
  6
Continuous
 62
     7
370
     5
100
AcDbLine
 10
-3401.717895871203
 20
-414.0001979518539
 30
0.0
 11
-3401.717895871203
 21
-382.8001976237919
 31
0.0
  0
LINE
  5
281
330
1F
100
AcDbEntity
  8
0-7_金物
  6
Continuous
 62
     7
370
     5
100
AcDbLine
 10
-3365.717895871203
 20
-382.8001976237923
 30
0.0
 11
-3365.717895871203
 21
-414.0001979518543
 31
0.0
  0
ARC
  5
282
330
1F
100
AcDbEntity
  8
0-7_金物
  6
Continuous
 62
     7
370
     5
100
AcDbCircle
 10
-3497.717895673584
 20
-443.4001972245838
 30
0.0
 40
3.599999976284835
100
AcDbArc
 50
180.0
 51
0.0
  0
LINE
  5
283
330
1F
100
AcDbEntity
  8
0-7_金物
  6
Continuous
 62
     7
370
     5
100
AcDbLine
 10
-3494.117895697299
 20
-341.400197896518
 30
0.0
 11
-3494.117895697298
 21
-443.4001972245838
 31
0.0
  0
ARC
  5
284
330
1F
100
AcDbEntity
  8
0-7_金物
  6
Continuous
 62
     7
370
     5
100
AcDbCircle
 10
-3492.917895705205
 20
-341.4001978965197
 30
0.0
 40
1.199999992095854
100
AcDbArc
 50
89.99999999993486
 51
179.9999999999349
  0
LINE
  5
285
330
1F
100
AcDbEntity
  8
0-7_金物
  6
Continuous
 62
     7
370
     5
100
AcDbLine
 10
-3467.717895871212
 20
-340.2001979044232
 30
0.0
 11
-3492.917895705203
 21
-340.2001979044232
 31
0.0
  0
LINE
  5
286
330
1F
100
AcDbEntity
  8
0-7_金物
  6
Continuous
 62
     7
370
     5
100
AcDbLine
 10
-3500.117895657774
 20
-333.0001979518542
 30
0.0
 11
-3467.717895871212
 21
-333.0001979518542
 31
0.0
  0
LINE
  5
287
330
1F
100
AcDbEntity
  8
0-7_金物
  6
Continuous
 62
     7
370
     5
100
AcDbLine
 10
-3467.717895871212
 20
-353.794791421993
 30
0.0
 11
-3467.717895871212
 21
-340.200197904424
 31
0.0
  0
ARC
  5
288
330
1F
100
AcDbEntity
  8
0-7_金物
  6
Continuous
 62
     7
370
     5
100
AcDbCircle
 10
-3455.717895950263
 20
-353.794791421993
 30
0.0
 40
11.99999992094837
100
AcDbArc
 50
179.9999999999987
 51
215.9505676196161
  0
ARC
  5
289
330
1F
100
AcDbEntity
  8
0-7_金物
  6
Continuous
 62
     7
370
     5
100
AcDbCircle
 10
-3435.317896084649
 20
-339.0001979123284
 30
0.0
 40
37.19999975494188
100
AcDbArc
 50
215.9505676196163
 51
293.8188413934565
  0
ARC
  5
28A
330
1F
100
AcDbEntity
  8
0-7_金物
  6
Continuous
 62
     7
370
     5
100
AcDbCircle
 10
-3422.717896167653
 20
-367.5427974657416
 30
0.0
 40
5.999999960474696
100
AcDbArc
 50
293.8188413934587
 51
0.0000000000009542
  0
LINE
  5
28B
330
1F
100
AcDbEntity
  8
0-7_金物
  6
Continuous
 62
     7
370
     5
100
AcDbLine
 10
-3416.717896207178
 20
-366.0001977344629
 30
0.0
 11
-3416.717896207178
 21
-367.5427974657407
 31
0.0
  0
ARC
  5
28C
330
1F
100
AcDbEntity
  8
0-7_金物
  6
Continuous
 62
     7
370
     5
100
AcDbCircle
 10
-3418.51789619532
 20
-366.0001977344629
 30
0.0
 40
1.799999988141737
100
AcDbArc
 50
359.9999999999994
 51
121.8907918018427
  0
ARC
  5
28D
330
1F
100
AcDbEntity
  8
0-7_金物
  6
Continuous
 62
     7
370
     5
100
AcDbCircle
 10
-3435.317896084648
 20
-339.0001979123284
 30
0.0
 40
29.99999980237392
100
AcDbArc
 50
213.9231120032609
 51
301.8907918018446
  0
ARC
  5
28E
330
1F
100
AcDbEntity
  8
0-7_金物
  6
Continuous
 62
     7
370
     5
100
AcDbCircle
 10
-3458.717895930498
 20
-354.7380502669805
 30
0.0
 40
1.799999988143631
100
AcDbArc
 50
179.9999999999944
 51
213.923112003254
  0
LINE
  5
28F
330
1F
100
AcDbEntity
  8
0-7_金物
  6
Continuous
 62
     7
370
     5
100
AcDbLine
 10
-3460.517895918642
 20
-270.0001983668696
 30
0.0
 11
-3460.517895918642
 21
-354.7380502669779
 31
0.0
  0
ARC
  5
290
330
1F
100
AcDbEntity
  8
0-7_金物
  6
Continuous
 62
     7
370
     5
100
AcDbCircle
 10
-3448.517895997692
 20
-270.0001983668696
 30
0.0
 40
11.99999992094899
100
AcDbArc
 50
90.0
 51
180.0
  0
LINE
  5
291
330
1F
100
AcDbEntity
  8
0-7_金物
  6
Continuous
 62
     7
370
     5
100
AcDbLine
 10
-3413.417896228916
 20
-258.000198445923
 30
0.0
 11
-3448.517895997692
 21
-258.000198445923
 31
0.0
  0
ARC
  5
292
330
1F
100
AcDbEntity
  8
0-7_金物
  6
Continuous
 62
     7
370
     5
100
AcDbCircle
 10
-3413.417896228916
 20
-256.2001984577799
 30
0.0
 40
1.799999988141394
100
AcDbArc
 50
269.9999999999891
 51
359.9999999999891
  0
LINE
  5
293
330
1F
100
AcDbEntity
  8
0-7_金物
  6
Continuous
 62
     7
370
     5
100
AcDbLine
 10
-3411.617896240774
 20
-247.8001985131144
 30
0.0
 11
-3411.617896240774
 21
-256.2001984577799
 31
0.0
  0
ARC
  5
294
330
1F
100
AcDbEntity
  8
0-7_金物
  6
Continuous
 62
     7
370
     5
100
AcDbCircle
 10
-3409.817896252631
 20
-247.8001985131144
 30
0.0
 40
1.799999988142416
100
AcDbArc
 50
89.99999999997829
 51
179.9999999999783
  0
LINE
  5
295
330
1F
100
AcDbEntity
  8
0-7_金物
  6
Continuous
 62
     7
370
     5
100
AcDbLine
 10
-3385.517896412709
 20
-246.000198524973
 30
0.0
 11
-3409.817896252631
 21
-246.000198524973
 31
0.0
  0
LINE
  5
296
330
1F
100
AcDbEntity
  8
0-7_金物
  6
Continuous
 62
     7
370
     5
100
AcDbLine
 10
-3383.717896424566
 20
-244.2001985368299
 30
0.0
 11
-3385.517896412709
 21
-246.000198524973
 31
0.0
  0
LINE
  5
297
330
1F
100
AcDbEntity
  8
0-7_金物
  6
Continuous
 62
     7
370
     5
100
AcDbLine
 10
-3381.917896436423
 20
-246.000198524973
 30
0.0
 11
-3383.717896424566
 21
-244.2001985368299
 31
0.0
  0
LINE
  5
298
330
1F
100
AcDbEntity
  8
0-7_金物
  6
Continuous
 62
     7
370
     5
100
AcDbLine
 10
-3357.617896596505
 20
-246.000198524973
 30
0.0
 11
-3381.917896436423
 21
-246.000198524973
 31
0.0
  0
ARC
  5
299
330
1F
100
AcDbEntity
  8
0-7_金物
  6
Continuous
 62
     7
370
     5
100
AcDbCircle
 10
-3357.617896596503
 20
-247.8001985131144
 30
0.0
 40
1.799999988142416
100
AcDbArc
 50
0.0000000000217168
 51
90.00000000002173
  0
LINE
  5
29A
330
1F
100
AcDbEntity
  8
0-7_金物
  6
Continuous
 62
     7
370
     5
100
AcDbLine
 10
-3355.817896608361
 20
-256.2001984577799
 30
0.0
 11
-3355.817896608361
 21
-247.8001985131144
 31
0.0
  0
ARC
  5
29B
330
1F
100
AcDbEntity
  8
0-7_金物
  6
Continuous
 62
     7
370
     5
100
AcDbCircle
 10
-3354.017896620218
 20
-256.2001984577799
 30
0.0
 40
1.799999988142076
100
AcDbArc
 50
180.0000000000326
 51
270.0000000000326
  0
LINE
  5
29C
330
1F
100
AcDbEntity
  8
0-7_金物
  6
Continuous
 62
     7
370
     5
100
AcDbLine
 10
-3318.917896851442
 20
-258.000198445923
 30
0.0
 11
-3354.017896620218
 21
-258.000198445923
 31
0.0
  0
ARC
  5
29D
330
1F
100
AcDbEntity
  8
0-7_金物
  6
Continuous
 62
     7
370
     5
100
AcDbCircle
 10
-3318.917896851442
 20
-270.0001983668696
 30
0.0
 40
11.99999992094899
100
AcDbArc
 50
0.0
 51
90.00000000000001
  0
LINE
  5
29E
330
1F
100
AcDbEntity
  8
0-7_金物
  6
Continuous
 62
     7
370
     5
100
AcDbLine
 10
-3306.917896930492
 20
-354.7380502669787
 30
0.0
 11
-3306.917896930492
 21
-270.0001983668704
 31
0.0
  0
ARC
  5
29F
330
1F
100
AcDbEntity
  8
0-7_金物
  6
Continuous
 62
     7
370
     5
100
AcDbCircle
 10
-3308.717896918638
 20
-354.738050266977
 30
0.0
 40
1.799999988144312
100
AcDbArc
 50
326.0768879966748
 51
359.9999999999343
  0
ARC
  5
2A0
330
1F
100
AcDbEntity
  8
0-7_金物
  6
Continuous
 62
     7
370
     5
100
AcDbCircle
 10
-3332.117896764486
 20
-339.0001979123284
 30
0.0
 40
29.99999980237201
100
AcDbArc
 50
238.1092081981562
 51
326.07688799674
  0
ARC
  5
2A1
330
1F
100
AcDbEntity
  8
0-7_金物
  6
Continuous
 62
     7
370
     5
100
AcDbCircle
 10
-3348.917896653816
 20
-366.0001977344646
 30
0.0
 40
1.799999988143101
100
AcDbArc
 50
58.10920819813321
 51
179.9999999999765
  0
LINE
  5
2A2
330
1F
100
AcDbEntity
  8
0-7_金物
  6
Continuous
 62
     7
370
     5
100
AcDbLine
 10
-3350.717896641959
 20
-367.5427974657416
 30
0.0
 11
-3350.717896641959
 21
-366.0001977344638
 31
0.0
  0
ARC
  5
2A3
330
1F
100
AcDbEntity
  8
0-7_金物
  6
Continuous
 62
     7
370
     5
100
AcDbCircle
 10
-3344.717896681481
 20
-367.5427974657416
 30
0.0
 40
5.999999960474696
100
AcDbArc
 50
179.9999999999991
 51
246.1811586065413
  0
ARC
  5
2A4
330
1F
100
AcDbEntity
  8
0-7_金物
  6
Continuous
 62
     7
370
     5
100
AcDbCircle
 10
-3332.117896764486
 20
-339.0001979123284
 30
0.0
 40
37.19999975494105
100
AcDbArc
 50
246.1811586065432
 51
324.0494323803861
  0
ARC
  5
2A5
330
1F
100
AcDbEntity
  8
0-7_金物
  6
Continuous
 62
     7
370
     5
100
AcDbCircle
 10
-3311.717896898869
 20
-353.794791421993
 30
0.0
 40
11.99999992094679
100
AcDbArc
 50
324.0494323803814
 51
359.9999999999989
  0
LINE
  5
2A6
330
1F
100
AcDbEntity
  8
0-7_金物
  6
Continuous
 62
     7
370
     5
100
AcDbLine
 10
-3299.717896977924
 20
-340.2001979044232
 30
0.0
 11
-3299.717896977924
 21
-353.7947914219922
 31
0.0
  0
LINE
  5
2A7
330
1F
100
AcDbEntity
  8
0-7_金物
  6
Continuous
 62
     7
370
     5
100
AcDbLine
 10
-3291.317897033259
 20
-340.2001979044232
 30
0.0
 11
-3299.717896977924
 21
-340.2001979044232
 31
0.0
  0
ARC
  5
2A8
330
1F
100
AcDbEntity
  8
0-7_金物
  6
Continuous
 62
     7
370
     5
100
AcDbCircle
 10
-3291.317897033259
 20
-336.6001979281387
 30
0.0
 40
3.599999976284494
100
AcDbArc
 50
270.0
 51
90.0
  0
LINE
  5
2A9
330
1F
100
AcDbEntity
  8
0-7_金物
  6
Continuous
 62
     7
370
     5
100
AcDbLine
 10
-3299.717896977924
 20
-333.0001979518542
 30
0.0
 11
-3291.317897033259
 21
-333.0001979518542
 31
0.0
  0
LINE
  5
2AA
330
1F
100
AcDbEntity
  8
0-7_金物
  6
Continuous
 62
     7
370
     5
100
AcDbLine
 10
-3299.717896977924
 20
-240.0001985644988
 30
0.0
 11
-3299.717896977924
 21
-333.0001979518551
 31
0.0
  0
ARC
  5
2AB
330
1F
100
AcDbEntity
  8
0-7_金物
  6
Continuous
 62
     7
370
     5
100
AcDbCircle
 10
-3302.717896958161
 20
-240.0001985644988
 30
0.0
 40
2.999999980237589
100
AcDbArc
 50
0.0
 51
90.0
  0
LINE
  5
2AC
330
1F
100
AcDbEntity
  8
0-7_金物
  6
Continuous
 62
     7
370
     5
100
AcDbLine
 10
-3303.917896950255
 20
-237.0001985842626
 30
0.0
 11
-3302.717896958161
 21
-237.0001985842626
 31
0.0
  0
ARC
  5
2AD
330
1F
100
AcDbEntity
  8
0-7_金物
  6
Continuous
 62
     7
370
     5
100
AcDbCircle
 10
-3303.917896950254
 20
-240.0001985644988
 30
0.0
 40
2.999999980236907
100
AcDbArc
 50
90.00000000001303
 51
180.000000000013
  0
LINE
  5
2AE
330
1F
100
AcDbEntity
  8
0-7_金物
  6
Continuous
 62
     7
370
     5
100
AcDbLine
 10
-3306.917896930492
 20
-246.000198524973
 30
0.0
 11
-3306.917896930492
 21
-240.000198564498
 31
0.0
  0
ARC
  5
2AF
330
1F
100
AcDbEntity
  8
0-7_金物
  6
Continuous
 62
     7
370
     5
100
AcDbCircle
 10
-3309.91789691073
 20
-246.000198524973
 30
0.0
 40
2.999999980237248
100
AcDbArc
 50
269.9999999999935
 51
359.9999999999935
  0
LINE
  5
2B0
330
1F
100
AcDbEntity
  8
0-7_金物
  6
Continuous
 62
     7
370
     5
100
AcDbLine
 10
-3343.817896687412
 20
-249.0001985052092
 30
0.0
 11
-3309.91789691073
 21
-249.0001985052092
 31
0.0
  0
ARC
  5
2B1
330
1F
100
AcDbEntity
  8
0-7_金物
  6
Continuous
 62
     7
370
     5
100
AcDbCircle
 10
-3343.817896687412
 20
-246.000198524973
 30
0.0
 40
2.999999980236565
100
AcDbArc
 50
179.9999999999935
 51
269.9999999999935
  0
LINE
  5
2B2
330
1F
100
AcDbEntity
  8
0-7_金物
  6
Continuous
 62
     7
370
     5
100
AcDbLine
 10
-3346.817896667648
 20
-240.0001985644988
 30
0.0
 11
-3346.817896667648
 21
-246.0001985249738
 31
0.0
  0
ARC
  5
2B3
330
1F
100
AcDbEntity
  8
0-7_金物
  6
Continuous
 62
     7
370
     5
100
AcDbCircle
 10
-3349.817896647888
 20
-240.0001985644988
 30
0.0
 40
2.999999980237589
100
AcDbArc
 50
0.0
 51
90.0
  0
LINE
  5
2B4
330
1F
100
AcDbEntity
  8
0-7_金物
  6
Continuous
 62
     7
370
     5
100
AcDbLine
 10
-3417.61789620125
 20
-237.0001985842626
 30
0.0
 11
-3349.817896647888
 21
-237.0001985842626
 31
0.0
  0
ARC
  5
2B5
330
1F
100
AcDbEntity
  8
0-7_金物
  6
Continuous
 62
     7
370
     5
100
AcDbCircle
 10
-3417.61789620125
 20
-240.0001985644988
 30
0.0
 40
2.999999980237589
100
AcDbArc
 50
89.99999999999997
 51
180.0
  0
LINE
  5
2B6
330
1F
100
AcDbEntity
  8
0-7_金物
  6
Continuous
 62
     7
370
     5
100
AcDbLine
 10
-3420.617896181486
 20
-246.000198524973
 30
0.0
 11
-3420.617896181486
 21
-240.000198564498
 31
0.0
  0
ARC
  5
2B7
330
1F
100
AcDbEntity
  8
0-7_金物
  6
Continuous
 62
     7
370
     5
100
AcDbCircle
 10
-3423.617896161722
 20
-246.000198524973
 30
0.0
 40
2.999999980236565
100
AcDbArc
 50
270.0000000000065
 51
0.0000000000065138
  0
LINE
  5
2B8
330
1F
100
AcDbEntity
  8
0-7_金物
  6
Continuous
 62
     7
370
     5
100
AcDbLine
 10
-3457.517895938405
 20
-249.0001985052092
 30
0.0
 11
-3423.617896161722
 21
-249.0001985052092
 31
0.0
  0
ARC
  5
2B9
330
1F
100
AcDbEntity
  8
0-7_金物
  6
Continuous
 62
     7
370
     5
100
AcDbCircle
 10
-3457.517895938405
 20
-246.000198524973
 30
0.0
 40
2.999999980237248
100
AcDbArc
 50
180.0000000000066
 51
270.0000000000065
  0
LINE
  5
2BA
330
1F
100
AcDbEntity
  8
0-7_金物
  6
Continuous
 62
     7
370
     5
100
AcDbLine
 10
-3460.517895918642
 20
-240.0001985644988
 30
0.0
 11
-3460.517895918642
 21
-246.0001985249738
 31
0.0
  0
ARC
  5
2BB
330
1F
100
AcDbEntity
  8
0-7_金物
  6
Continuous
 62
     7
370
     5
100
AcDbCircle
 10
-3463.517895898878
 20
-240.0001985644988
 30
0.0
 40
2.999999980236907
100
AcDbArc
 50
359.999999999987
 51
89.99999999998697
  0
LINE
  5
2BC
330
1F
100
AcDbEntity
  8
0-7_金物
  6
Continuous
 62
     7
370
     5
100
AcDbLine
 10
-3464.717895890973
 20
-237.0001985842626
 30
0.0
 11
-3463.517895898878
 21
-237.0001985842626
 31
0.0
  0
ARC
  5
2BD
330
1F
100
AcDbEntity
  8
0-7_金物
  6
Continuous
 62
     7
370
     5
100
AcDbCircle
 10
-3464.717895890973
 20
-240.0001985644988
 30
0.0
 40
2.999999980237589
100
AcDbArc
 50
89.99999999999997
 51
180.0
  0
LINE
  5
2BE
330
1F
100
AcDbEntity
  8
0-7_金物
  6
Continuous
 62
     7
370
     5
100
AcDbLine
 10
-3467.717895871212
 20
-333.0001979518542
 30
0.0
 11
-3467.717895871211
 21
-240.000198564498
 31
0.0
  0
LINE
  5
2BF
330
1F
100
AcDbEntity
  8
0-7_金物
  6
Continuous
 62
     7
370
     5
100
AcDbLine
 10
-3383.717896424566
 20
-375.000197675175
 30
0.0
 11
-3404.717896286225
 21
-375.000197675175
 31
0.0
  0
ARC
  5
2C0
330
1F
100
AcDbEntity
  8
0-7_金物
  6
Continuous
 62
     7
370
     5
100
AcDbCircle
 10
-3404.717896286225
 20
-369.0001977147008
 30
0.0
 40
5.999999960474506
100
AcDbArc
 50
180.0
 51
270.0
  0
ARC
  5
2C1
330
1F
100
AcDbEntity
  8
0-7_金物
  6
Continuous
 62
     7
370
     5
100
AcDbCircle
 10
-3422.717896167648
 20
-369.0001977147026
 30
0.0
 40
11.99999992094901
100
AcDbArc
 50
0.0
 51
63.25631604961301
  0
LINE
  5
2C2
330
1F
100
AcDbEntity
  8
0-7_金物
  6
Continuous
 62
     7
370
     5
100
AcDbLine
 10
-3417.317896203223
 20
-267.0001983866317
 30
0.0
 11
-3417.317896203223
 21
-315.0001980704317
 31
0.0
  0
ARC
  5
2C3
330
1F
100
AcDbEntity
  8
0-7_金物
  6
Continuous
 62
     7
370
     5
100
AcDbCircle
 10
-3435.317896084646
 20
-291.0001982285334
 30
0.0
 40
29.99999980237253
100
AcDbArc
 50
53.13010235415425
 51
126.8698976458457
  0
ARC
  5
2C4
330
1F
100
AcDbEntity
  8
0-7_金物
  6
Continuous
 62
     7
370
     5
100
AcDbCircle
 10
-3435.317896084646
 20
-339.0001979123284
 30
0.0
 40
29.99999980237253
100
AcDbArc
 50
233.1301023541541
 51
306.8698976458458
  0
LINE
  5
2C5
330
1F
100
AcDbEntity
  8
0-7_金物
  6
Continuous
 62
     7
370
     5
100
AcDbLine
 10
-3414.317896222985
 20
-292.2001982206248
 30
0.0
 11
-3415.51789621508
 21
-291.0001982285338
 31
0.0
  0
LINE
  5
2C6
330
1F
100
AcDbEntity
  8
0-7_金物
  6
Continuous
 62
     7
370
     5
100
AcDbLine
 10
-3414.317896222985
 20
-337.8001979202335
 30
0.0
 11
-3415.51789621508
 21
-339.0001979123275
 31
0.0
  0
LINE
  5
2C7
330
1F
100
AcDbEntity
  8
0-7_金物
  6
Continuous
 62
     7
370
     5
100
AcDbLine
 10
-3417.317896203223
 20
-300.0001981692438
 30
0.0
 11
-3414.317896222985
 21
-300.0001981692438
 31
0.0
  0
LINE
  5
2C8
330
1F
100
AcDbEntity
  8
0-7_金物
  6
Continuous
 62
     7
370
     5
100
AcDbLine
 10
-3417.317896203223
 20
-330.0001979716163
 30
0.0
 11
-3414.317896222985
 21
-330.0001979716163
 31
0.0
  0
LINE
  5
2C9
330
1F
100
AcDbEntity
  8
0-7_金物
  6
Continuous
 62
     7
370
     5
100
AcDbLine
 10
-3415.517896215084
 20
-300.0001981692438
 30
0.0
 11
-3414.317896222985
 21
-298.8001981771476
 31
0.0
  0
LINE
  5
2CA
330
1F
100
AcDbEntity
  8
0-7_金物
  6
Continuous
 62
     7
370
     5
100
AcDbLine
 10
-3414.317896222985
 20
-331.2001979637111
 30
0.0
 11
-3415.51789621508
 21
-330.0001979716159
 31
0.0
  0
LINE
  5
2CB
330
1F
100
AcDbEntity
  8
0-7_金物
  6
Continuous
 62
     7
370
     5
100
AcDbLine
 10
-3417.317896203227
 20
-291.0001982285334
 30
0.0
 11
-3415.51789621508
 21
-291.0001982285334
 31
0.0
  0
LINE
  5
2CC
330
1F
100
AcDbEntity
  8
0-7_金物
  6
Continuous
 62
     7
370
     5
100
AcDbLine
 10
-3417.317896203223
 20
-339.0001979123284
 30
0.0
 11
-3415.51789621508
 21
-339.0001979123284
 31
0.0
  0
LINE
  5
2CD
330
1F
100
AcDbEntity
  8
0-7_金物
  6
Continuous
 62
     7
370
     5
100
AcDbLine
 10
-3417.317896203223
 20
-315.00019807043
 30
0.0
 11
-3417.317896203223
 21
-363.0001977542267
 31
0.0
  0
LINE
  5
2CE
330
1F
100
AcDbEntity
  8
0-7_金物
  6
Continuous
 62
     7
370
     5
100
AcDbLine
 10
-3401.717896305991
 20
-375.000197675175
 30
0.0
 11
-3401.717896305991
 21
-376.8001976633168
 31
0.0
  0
LINE
  5
2CF
330
1F
100
AcDbEntity
  8
0-7_金物
  6
Continuous
 62
     7
370
     5
100
AcDbLine
 10
-3404.717896286227
 20
-282.0001982878196
 30
0.0
 11
-3383.717896424566
 21
-282.0001982878196
 31
0.0
  0
ARC
  5
2D0
330
1F
100
AcDbEntity
  8
0-7_金物
  6
Continuous
 62
     7
370
     5
100
AcDbCircle
 10
-3413.717896226941
 20
-342.0001978925663
 30
0.0
 40
2.999999980237253
100
AcDbArc
 50
0.0
 51
90.0
  0
ARC
  5
2D1
330
1F
100
AcDbEntity
  8
0-7_金物
  6
Continuous
 62
     7
370
     5
100
AcDbCircle
 10
-3413.717896226941
 20
-288.0001982482955
 30
0.0
 40
2.999999980237253
100
AcDbArc
 50
270.0
 51
0.0
  0
LINE
  5
2D2
330
1F
100
AcDbEntity
  8
0-7_金物
  6
Continuous
 62
     7
370
     5
100
AcDbLine
 10
-3453.31789596607
 20
-363.0001977542267
 30
0.0
 11
-3453.31789596607
 21
-267.0001983866334
 31
0.0
  0
LINE
  5
2D3
330
1F
100
AcDbEntity
  8
0-7_金物
  6
Continuous
 62
     7
370
     5
100
AcDbLine
 10
-3413.717896226941
 20
-291.0001982285334
 30
0.0
 11
-3414.317896222985
 21
-291.0001982285334
 31
0.0
  0
LINE
  5
2D4
330
1F
100
AcDbEntity
  8
0-7_金物
  6
Continuous
 62
     7
370
     5
100
AcDbLine
 10
-3413.717896226941
 20
-339.0001979123284
 30
0.0
 11
-3414.317896222985
 21
-339.0001979123284
 31
0.0
  0
LINE
  5
2D5
330
1F
100
AcDbEntity
  8
0-7_金物
  6
Continuous
 62
     7
370
     5
100
AcDbLine
 10
-3410.717896246701
 20
-351.0001978332784
 30
0.0
 11
-3410.717896246701
 21
-342.0001978925671
 31
0.0
  0
LINE
  5
2D6
330
1F
100
AcDbEntity
  8
0-7_金物
  6
Continuous
 62
     7
370
     5
100
AcDbLine
 10
-3404.717896286227
 20
-357.0001977937508
 30
0.0
 11
-3383.717896424566
 21
-357.0001977937508
 31
0.0
  0
ARC
  5
2D7
330
1F
100
AcDbEntity
  8
0-7_金物
  6
Continuous
 62
     7
370
     5
100
AcDbCircle
 10
-3404.717896286227
 20
-351.0001978332784
 30
0.0
 40
5.999999960474506
100
AcDbArc
 50
180.0
 51
270.0
  0
ARC
  5
2D8
330
1F
100
AcDbEntity
  8
0-7_金物
  6
Continuous
 62
     7
370
     5
100
AcDbCircle
 10
-3404.717896286227
 20
-288.0001982482955
 30
0.0
 40
5.999999960474506
100
AcDbArc
 50
90.0
 51
180.0
  0
LINE
  5
2D9
330
1F
100
AcDbEntity
  8
0-7_金物
  6
Continuous
 62
     7
370
     5
100
AcDbLine
 10
-3414.317896222985
 20
-291.0001982285334
 30
0.0
 11
-3414.317896222985
 21
-315.0001980704309
 31
0.0
  0
LINE
  5
2DA
330
1F
100
AcDbEntity
  8
0-7_金物
  6
Continuous
 62
     7
370
     5
100
AcDbLine
 10
-3414.317896222985
 20
-339.0001979123284
 30
0.0
 11
-3414.317896222985
 21
-315.0001980704309
 31
0.0
  0
LINE
  5
2DB
330
1F
100
AcDbEntity
  8
0-7_金物
  6
Continuous
 62
     7
370
     5
100
AcDbLine
 10
-3383.717896424566
 20
-375.000197675175
 30
0.0
 11
-3362.717896562905
 21
-375.000197675175
 31
0.0
  0
ARC
  5
2DC
330
1F
100
AcDbEntity
  8
0-7_金物
  6
Continuous
 62
     7
370
     5
100
AcDbCircle
 10
-3362.717896562905
 20
-369.0001977147008
 30
0.0
 40
5.999999960474506
100
AcDbArc
 50
270.0
 51
0.0
  0
ARC
  5
2DD
330
1F
100
AcDbEntity
  8
0-7_金物
  6
Continuous
 62
     7
370
     5
100
AcDbCircle
 10
-3344.717896681481
 20
-369.0001977147026
 30
0.0
 40
11.99999992094901
100
AcDbArc
 50
116.743683950387
 51
180.0
  0
LINE
  5
2DE
330
1F
100
AcDbEntity
  8
0-7_金物
  6
Continuous
 62
     7
370
     5
100
AcDbLine
 10
-3350.117896645907
 20
-267.0001983866317
 30
0.0
 11
-3350.117896645907
 21
-315.0001980704317
 31
0.0
  0
ARC
  5
2DF
330
1F
100
AcDbEntity
  8
0-7_金物
  6
Continuous
 62
     7
370
     5
100
AcDbCircle
 10
-3332.117896764485
 20
-291.0001982285334
 30
0.0
 40
29.99999980237253
100
AcDbArc
 50
53.13010235415425
 51
126.8698976458457
  0
ARC
  5
2E0
330
1F
100
AcDbEntity
  8
0-7_金物
  6
Continuous
 62
     7
370
     5
100
AcDbCircle
 10
-3332.117896764485
 20
-339.0001979123284
 30
0.0
 40
29.99999980237253
100
AcDbArc
 50
233.1301023541541
 51
306.8698976458458
  0
LINE
  5
2E1
330
1F
100
AcDbEntity
  8
0-7_金物
  6
Continuous
 62
     7
370
     5
100
AcDbLine
 10
-3353.117896626145
 20
-292.2001982206248
 30
0.0
 11
-3351.917896634051
 21
-291.0001982285338
 31
0.0
  0
LINE
  5
2E2
330
1F
100
AcDbEntity
  8
0-7_金物
  6
Continuous
 62
     7
370
     5
100
AcDbLine
 10
-3353.117896626145
 20
-337.8001979202335
 30
0.0
 11
-3351.917896634051
 21
-339.0001979123275
 31
0.0
  0
LINE
  5
2E3
330
1F
100
AcDbEntity
  8
0-7_金物
  6
Continuous
 62
     7
370
     5
100
AcDbLine
 10
-3350.117896645907
 20
-300.0001981692438
 30
0.0
 11
-3353.117896626145
 21
-300.0001981692438
 31
0.0
  0
LINE
  5
2E4
330
1F
100
AcDbEntity
  8
0-7_金物
  6
Continuous
 62
     7
370
     5
100
AcDbLine
 10
-3350.117896645907
 20
-330.0001979716163
 30
0.0
 11
-3353.117896626145
 21
-330.0001979716163
 31
0.0
  0
LINE
  5
2E5
330
1F
100
AcDbEntity
  8
0-7_金物
  6
Continuous
 62
     7
370
     5
100
AcDbLine
 10
-3351.917896634051
 20
-300.0001981692438
 30
0.0
 11
-3353.117896626145
 21
-298.8001981771476
 31
0.0
  0
LINE
  5
2E6
330
1F
100
AcDbEntity
  8
0-7_金物
  6
Continuous
 62
     7
370
     5
100
AcDbLine
 10
-3353.117896626145
 20
-331.2001979637111
 30
0.0
 11
-3351.917896634051
 21
-330.0001979716159
 31
0.0
  0
LINE
  5
2E7
330
1F
100
AcDbEntity
  8
0-7_金物
  6
Continuous
 62
     7
370
     5
100
AcDbLine
 10
-3350.117896645907
 20
-291.0001982285334
 30
0.0
 11
-3351.917896634051
 21
-291.0001982285334
 31
0.0
  0
LINE
  5
2E8
330
1F
100
AcDbEntity
  8
0-7_金物
  6
Continuous
 62
     7
370
     5
100
AcDbLine
 10
-3350.117896645907
 20
-339.0001979123284
 30
0.0
 11
-3351.917896634051
 21
-339.0001979123284
 31
0.0
  0
LINE
  5
2E9
330
1F
100
AcDbEntity
  8
0-7_金物
  6
Continuous
 62
     7
370
     5
100
AcDbLine
 10
-3350.117896645907
 20
-315.00019807043
 30
0.0
 11
-3350.117896645907
 21
-363.0001977542267
 31
0.0
  0
LINE
  5
2EA
330
1F
100
AcDbEntity
  8
0-7_金物
  6
Continuous
 62
     7
370
     5
100
AcDbLine
 10
-3365.717896543142
 20
-375.000197675175
 30
0.0
 11
-3365.717896543142
 21
-376.8001976633168
 31
0.0
  0
LINE
  5
2EB
330
1F
100
AcDbEntity
  8
0-7_金物
  6
Continuous
 62
     7
370
     5
100
AcDbLine
 10
-3362.717896562904
 20
-282.0001982878196
 30
0.0
 11
-3383.717896424566
 21
-282.0001982878196
 31
0.0
  0
ARC
  5
2EC
330
1F
100
AcDbEntity
  8
0-7_金物
  6
Continuous
 62
     7
370
     5
100
AcDbCircle
 10
-3353.717896622192
 20
-342.0001978925663
 30
0.0
 40
2.999999980237253
100
AcDbArc
 50
90.0
 51
180.0
  0
ARC
  5
2ED
330
1F
100
AcDbEntity
  8
0-7_金物
  6
Continuous
 62
     7
370
     5
100
AcDbCircle
 10
-3353.717896622192
 20
-288.0001982482955
 30
0.0
 40
2.999999980237253
100
AcDbArc
 50
180.0
 51
270.0
  0
LINE
  5
2EE
330
1F
100
AcDbEntity
  8
0-7_金物
  6
Continuous
 62
     7
370
     5
100
AcDbLine
 10
-3314.117896883059
 20
-363.0001977542267
 30
0.0
 11
-3314.117896883059
 21
-267.0001983866334
 31
0.0
  0
LINE
  5
2EF
330
1F
100
AcDbEntity
  8
0-7_金物
  6
Continuous
 62
     7
370
     5
100
AcDbLine
 10
-3353.717896622192
 20
-291.0001982285334
 30
0.0
 11
-3353.117896626145
 21
-291.0001982285334
 31
0.0
  0
LINE
  5
2F0
330
1F
100
AcDbEntity
  8
0-7_金物
  6
Continuous
 62
     7
370
     5
100
AcDbLine
 10
-3353.717896622192
 20
-339.0001979123284
 30
0.0
 11
-3353.117896626145
 21
-339.0001979123284
 31
0.0
  0
LINE
  5
2F1
330
1F
100
AcDbEntity
  8
0-7_金物
  6
Continuous
 62
     7
370
     5
100
AcDbLine
 10
-3356.717896602432
 20
-351.0001978332784
 30
0.0
 11
-3356.717896602432
 21
-342.0001978925671
 31
0.0
  0
LINE
  5
2F2
330
1F
100
AcDbEntity
  8
0-7_金物
  6
Continuous
 62
     7
370
     5
100
AcDbLine
 10
-3362.717896562904
 20
-357.0001977937508
 30
0.0
 11
-3383.717896424566
 21
-357.0001977937508
 31
0.0
  0
ARC
  5
2F3
330
1F
100
AcDbEntity
  8
0-7_金物
  6
Continuous
 62
     7
370
     5
100
AcDbCircle
 10
-3362.717896562904
 20
-351.0001978332784
 30
0.0
 40
5.999999960474506
100
AcDbArc
 50
270.0
 51
0.0
  0
ARC
  5
2F4
330
1F
100
AcDbEntity
  8
0-7_金物
  6
Continuous
 62
     7
370
     5
100
AcDbCircle
 10
-3362.717896562904
 20
-288.0001982482955
 30
0.0
 40
5.999999960474506
100
AcDbArc
 50
0.0
 51
90.0
  0
LINE
  5
2F5
330
1F
100
AcDbEntity
  8
0-7_金物
  6
Continuous
 62
     7
370
     5
100
AcDbLine
 10
-3353.117896626145
 20
-291.0001982285334
 30
0.0
 11
-3353.117896626145
 21
-315.0001980704309
 31
0.0
  0
LINE
  5
2F6
330
1F
100
AcDbEntity
  8
0-7_金物
  6
Continuous
 62
     7
370
     5
100
AcDbLine
 10
-3353.117896626145
 20
-339.0001979123284
 30
0.0
 11
-3353.117896626145
 21
-315.0001980704309
 31
0.0
  0
LINE
  5
2F7
330
1F
100
AcDbEntity
  8
0-7_金物
  6
Continuous
 62
     7
370
     5
100
AcDbLine
 10
-3407.717896266463
 20
-382.8001976237923
 30
0.0
 11
-3359.717896582668
 21
-382.8001976237923
 31
0.0
  0
LINE
  5
2F8
330
1F
100
AcDbEntity
  8
0-7_金物
  6
Continuous
 62
     7
370
     5
100
AcDbLine
 10
-3359.717896582668
 20
-376.8001976633164
 30
0.0
 11
-3359.717896582668
 21
-382.8001976237919
 31
0.0
  0
LINE
  5
2F9
330
1F
100
AcDbEntity
  8
0-7_金物
  6
Continuous
 62
     7
370
     5
100
AcDbLine
 10
-3359.717896582668
 20
-376.8001976633164
 30
0.0
 11
-3407.717896266463
 21
-376.8001976633164
 31
0.0
  0
LINE
  5
2FA
330
1F
100
AcDbEntity
  8
0-7_金物
  6
Continuous
 62
     7
370
     5
100
AcDbLine
 10
-3407.717896266463
 20
-376.8001976633164
 30
0.0
 11
-3407.717896266463
 21
-382.8001976237919
 31
0.0
  0
LINE
  5
2FB
330
1F
100
AcDbEntity
  8
0-7_金物
  6
Continuous
 62
     7
370
     5
100
AcDbLine
 10
-3430.857222336925
 20
-414.0001979518539
 30
0.0
 11
-3336.057222961426
 21
-414.0001979518539
 31
0.0
  0
ARC
  5
2FC
330
1F
100
AcDbEntity
  8
0-7_金物
  6
Continuous
 62
     7
370
     5
100
AcDbCircle
 10
-3383.713020940537
 20
-474.0001975566005
 30
0.0
 40
38.39999974703684
100
AcDbArc
 50
341.7900431357177
 51
12.17573410274985
  0
ARC
  5
2FD
330
1F
100
AcDbEntity
  8
0-7_金物
  6
Continuous
 62
     7
370
     5
100
AcDbCircle
 10
-3383.713020940537
 20
-474.0001975566005
 30
0.0
 40
38.39999974703684
100
AcDbArc
 50
167.8242658972536
 51
198.2099568642824
  0
ARC
  5
2FE
330
1F
100
AcDbEntity
  8
0-7_金物
  6
Continuous
 62
     7
370
     5
100
AcDbCircle
 10
-3383.713020940537
 20
-558.000197003243
 30
0.0
 40
38.39999974703684
100
AcDbArc
 50
167.8242658972536
 51
198.2099568642824
  0
ARC
  5
2FF
330
1F
100
AcDbEntity
  8
0-7_金物
  6
Continuous
 62
     7
370
     5
100
AcDbCircle
 10
-3383.713020940537
 20
-558.000197003243
 30
0.0
 40
38.39999974703684
100
AcDbArc
 50
341.7900431357177
 51
12.17573410274985
  0
ARC
  5
300
330
1F
100
AcDbEntity
  8
0-7_金物
  6
Continuous
 62
     7
370
     5
100
AcDbCircle
 10
-3383.713020940537
 20
-624.6001965645104
 30
0.0
 40
47.3999996877486
100
AcDbArc
 50
180.0
 51
0.0
  0
LINE
  5
301
330
1F
100
AcDbEntity
  8
0-7_金物
  6
Continuous
 62
     7
370
     5
100
AcDbLine
 10
-3336.313021252787
 20
-414.0001979518539
 30
0.0
 11
-3336.313021252787
 21
-623.4001965724168
 31
0.0
  0
LINE
  5
302
330
1F
100
AcDbEntity
  8
0-7_金物
  6
Continuous
 62
     7
370
     5
100
AcDbLine
 10
-3431.113020628286
 20
-414.0001979518539
 30
0.0
 11
-3431.113020628286
 21
-623.4001965724168
 31
0.0
  0
LINE
  5
303
330
1F
100
AcDbEntity
  8
0-7_金物
  6
Continuous
 62
     7
370
     5
100
AcDbLine
 10
-3345.3130211935
 20
-474.0001975566005
 30
0.0
 11
-3338.713021236978
 21
-474.0001975566005
 31
0.0
  0
LINE
  5
304
330
1F
100
AcDbEntity
  8
0-7_金物
  6
Continuous
 62
     7
370
     5
100
AcDbLine
 10
-3419.113020707337
 20
-429.0001978530418
 30
0.0
 11
-3348.313021173737
 21
-429.0001978530418
 31
0.0
  0
CIRCLE
  5
305
330
1F
100
AcDbEntity
  8
0-7_金物
  6
Continuous
 62
     7
370
     5
100
AcDbCircle
 10
-3383.713020940537
 20
-558.000197003243
 30
0.0
 40
29.99999980237253
  0
LINE
  5
306
330
1F
100
AcDbEntity
  8
0-7_金物
  6
Continuous
 62
     7
370
     5
100
AcDbLine
 10
-3425.11302066781
 20
-414.0001979518539
 30
0.0
 11
-3425.11302066781
 21
-423.0001978925673
 31
0.0
  0
LINE
  5
307
330
1F
100
AcDbEntity
  8
0-7_金物
  6
Continuous
 62
     7
370
     5
100
AcDbLine
 10
-3342.313021213262
 20
-414.0001979518539
 30
0.0
 11
-3342.313021213262
 21
-423.0001978925673
 31
0.0
  0
ARC
  5
308
330
1F
100
AcDbEntity
  8
0-7_金物
  6
Continuous
 62
     7
370
     5
100
AcDbCircle
 10
-3419.113020707337
 20
-423.0001978925677
 30
0.0
 40
5.999999960474506
100
AcDbArc
 50
180.0
 51
270.0
  0
ARC
  5
309
330
1F
100
AcDbEntity
  8
0-7_金物
  6
Continuous
 62
     7
370
     5
100
AcDbCircle
 10
-3348.313021173737
 20
-423.0001978925677
 30
0.0
 40
5.999999960474506
100
AcDbArc
 50
270.0
 51
0.0
  0
LINE
  5
30A
330
1F
100
AcDbEntity
  8
0-7_金物
  6
Continuous
 62
     7
370
     5
100
AcDbLine
 10
-3410.113020766625
 20
-594.0001967660905
 30
0.0
 11
-3357.313021114449
 21
-594.0001967660905
 31
0.0
  0
LINE
  5
30B
330
1F
100
AcDbEntity
  8
0-7_金物
  6
Continuous
 62
     7
370
     5
100
AcDbLine
 10
-3425.11302066781
 20
-623.4001965724165
 30
0.0
 11
-3425.11302066781
 21
-609.0001966672754
 31
0.0
  0
LINE
  5
30C
330
1F
100
AcDbEntity
  8
0-7_金物
  6
Continuous
 62
     7
370
     5
100
AcDbLine
 10
-3342.313021213262
 20
-623.4001965724165
 30
0.0
 11
-3342.313021213262
 21
-609.0001966672754
 31
0.0
  0
LINE
  5
30D
330
1F
100
AcDbEntity
  8
0-7_金物
  6
Continuous
 62
     7
370
     5
100
AcDbLine
 10
-3404.713020802198
 20
-659.0787613309451
 30
0.0
 11
-3404.713020802198
 21
-615.0001966277517
 31
0.0
  0
LINE
  5
30E
330
1F
100
AcDbEntity
  8
0-7_金物
  6
Continuous
 62
     7
370
     5
100
AcDbLine
 10
-3362.713021078875
 20
-659.0787613309451
 30
0.0
 11
-3362.713021078875
 21
-615.0001966277517
 31
0.0
  0
ARC
  5
30F
330
1F
100
AcDbEntity
  8
0-7_金物
  6
Continuous
 62
     7
370
     5
100
AcDbCircle
 10
-3357.313021114449
 20
-600.0001967265638
 30
0.0
 40
5.999999960474506
100
AcDbArc
 50
0.0
 51
90.0
  0
ARC
  5
310
330
1F
100
AcDbEntity
  8
0-7_金物
  6
Continuous
 62
     7
370
     5
100
AcDbCircle
 10
-3345.3130211935
 20
-600.0001967265638
 30
0.0
 40
5.999999960474506
100
AcDbArc
 50
180.0
 51
270.0
  0
ARC
  5
311
330
1F
100
AcDbEntity
  8
0-7_金物
  6
Continuous
 62
     7
370
     5
100
AcDbCircle
 10
-3345.3130211935
 20
-609.0001966672759
 30
0.0
 40
2.999999980237253
100
AcDbArc
 50
0.0
 51
90.0
  0
ARC
  5
312
330
1F
100
AcDbEntity
  8
0-7_金物
  6
Continuous
 62
     7
370
     5
100
AcDbCircle
 10
-3410.113020766625
 20
-600.0001967265638
 30
0.0
 40
5.999999960474506
100
AcDbArc
 50
90.0
 51
180.0
  0
ARC
  5
313
330
1F
100
AcDbEntity
  8
0-7_金物
  6
Continuous
 62
     7
370
     5
100
AcDbCircle
 10
-3422.113020687574
 20
-609.0001966672759
 30
0.0
 40
2.999999980237253
100
AcDbArc
 50
90.0
 51
180.0
  0
ARC
  5
314
330
1F
100
AcDbEntity
  8
0-7_金物
  6
Continuous
 62
     7
370
     5
100
AcDbCircle
 10
-3422.113020687574
 20
-600.0001967265638
 30
0.0
 40
5.999999960474506
100
AcDbArc
 50
270.0
 51
0.0
  0
LINE
  5
315
330
1F
100
AcDbEntity
  8
0-7_金物
  6
Continuous
 62
     7
370
     5
100
AcDbLine
 10
-3404.713020802198
 20
-615.0001966277509
 30
0.0
 11
-3362.713021078875
 21
-615.0001966277509
 31
0.0
  0
LINE
  5
316
330
1F
100
AcDbEntity
  8
0-7_金物
  6
Continuous
 62
     7
370
     5
100
AcDbLine
 10
-3404.713020802198
 20
-636.0001964894121
 30
0.0
 11
-3362.713021078875
 21
-636.0001964894121
 31
0.0
  0
LINE
  5
317
330
1F
100
AcDbEntity
  8
0-7_金物
  6
Continuous
 62
     7
370
     5
100
AcDbLine
 10
-3422.113020687574
 20
-606.0001966870396
 30
0.0
 11
-3345.3130211935
 21
-606.0001966870396
 31
0.0
  0
LINE
  5
318
330
1F
100
AcDbEntity
  8
0-7_金物
  6
Continuous
 62
     7
370
     5
100
AcDbLine
 10
-3401.882225536517
 20
-660.6001963273579
 30
0.0
 11
-3365.543816344554
 21
-660.6001963273579
 31
0.0
  0
LINE
  5
319
330
1F
100
AcDbEntity
  8
0-7_金物
  6
Continuous
 62
     7
370
     5
100
AcDbLine
 10
-3354.313021134213
 20
-501.0001973787351
 30
0.0
 11
-3342.313021213262
 21
-501.0001973787351
 31
0.0
  0
LINE
  5
31A
330
1F
100
AcDbEntity
  8
0-7_金物
  6
Continuous
 62
     7
370
     5
100
AcDbLine
 10
-3354.313021134213
 20
-516.0001972799214
 30
0.0
 11
-3342.313021213262
 21
-516.0001972799214
 31
0.0
  0
LINE
  5
31B
330
1F
100
AcDbEntity
  8
0-7_金物
  6
Continuous
 62
     7
370
     5
100
AcDbLine
 10
-3342.313021213262
 20
-501.0001973787351
 30
0.0
 11
-3342.313021213262
 21
-516.0001972799222
 31
0.0
  0
LINE
  5
31C
330
1F
100
AcDbEntity
  8
0-7_金物
  6
Continuous
 62
     7
370
     5
100
AcDbLine
 10
-3360.313021094685
 20
-507.0001973392093
 30
0.0
 11
-3360.313021094685
 21
-510.0001973194489
 31
0.0
  0
ARC
  5
31D
330
1F
100
AcDbEntity
  8
0-7_金物
  6
Continuous
 62
     7
370
     5
100
AcDbCircle
 10
-3354.313021134213
 20
-507.0001973392093
 30
0.0
 40
5.999999960474506
100
AcDbArc
 50
90.0
 51
180.0
  0
ARC
  5
31E
330
1F
100
AcDbEntity
  8
0-7_金物
  6
Continuous
 62
     7
370
     5
100
AcDbCircle
 10
-3354.313021134213
 20
-510.0001973194489
 30
0.0
 40
5.999999960474506
100
AcDbArc
 50
180.0
 51
270.0
  0
LINE
  5
31F
330
1F
100
AcDbEntity
  8
0-7_金物
  6
Continuous
 62
     7
370
     5
100
AcDbLine
 10
-3413.113020746861
 20
-501.0001973787351
 30
0.0
 11
-3425.11302066781
 21
-501.0001973787351
 31
0.0
  0
LINE
  5
320
330
1F
100
AcDbEntity
  8
0-7_金物
  6
Continuous
 62
     7
370
     5
100
AcDbLine
 10
-3413.113020746861
 20
-516.0001972799214
 30
0.0
 11
-3425.11302066781
 21
-516.0001972799214
 31
0.0
  0
ARC
  5
321
330
1F
100
AcDbEntity
  8
0-7_金物
  6
Continuous
 62
     7
370
     5
100
AcDbCircle
 10
-3413.113020746861
 20
-507.0001973392093
 30
0.0
 40
5.999999960474506
100
AcDbArc
 50
0.0
 51
90.0
  0
ARC
  5
322
330
1F
100
AcDbEntity
  8
0-7_金物
  6
Continuous
 62
     7
370
     5
100
AcDbCircle
 10
-3413.113020746861
 20
-510.0001973194489
 30
0.0
 40
5.999999960474506
100
AcDbArc
 50
270.0
 51
0.0
  0
LINE
  5
323
330
1F
100
AcDbEntity
  8
0-7_金物
  6
Continuous
 62
     7
370
     5
100
AcDbLine
 10
-3425.11302066781
 20
-501.0001973787351
 30
0.0
 11
-3425.11302066781
 21
-516.0001972799222
 31
0.0
  0
LINE
  5
324
330
1F
100
AcDbEntity
  8
0-7_金物
  6
Continuous
 62
     7
370
     5
100
AcDbLine
 10
-3407.113020786387
 20
-507.0001973392093
 30
0.0
 11
-3407.113020786387
 21
-510.0001973194489
 31
0.0
  0
LINE
  5
325
330
1F
100
AcDbEntity
  8
0-7_金物
  6
Continuous
 62
     7
370
     5
100
AcDbLine
 10
-3349.771895667172
 20
-462.0001976356522
 30
0.0
 11
-3338.713021236978
 21
-474.0001975566014
 31
0.0
  0
LINE
  5
326
330
1F
100
AcDbEntity
  8
0-7_金物
  6
Continuous
 62
     7
370
     5
100
AcDbLine
 10
-3417.654146213899
 20
-462.0001976356522
 30
0.0
 11
-3428.713020644096
 21
-474.0001975566014
 31
0.0
  0
LINE
  5
327
330
1F
100
AcDbEntity
  8
0-7_金物
  6
Continuous
 62
     7
370
     5
100
AcDbLine
 10
-3422.113020687574
 20
-474.0001975566005
 30
0.0
 11
-3428.713020644096
 21
-474.0001975566005
 31
0.0
  0
LINE
  5
328
330
1F
100
AcDbEntity
  8
0-7_金物
  6
Continuous
 62
     7
370
     5
100
AcDbLine
 10
-3417.654146213899
 20
-546.0001970822947
 30
0.0
 11
-3428.713020644096
 21
-558.000197003243
 31
0.0
  0
LINE
  5
329
330
1F
100
AcDbEntity
  8
0-7_金物
  6
Continuous
 62
     7
370
     5
100
AcDbLine
 10
-3422.113020687574
 20
-558.000197003243
 30
0.0
 11
-3428.713020644096
 21
-558.000197003243
 31
0.0
  0
LINE
  5
32A
330
1F
100
AcDbEntity
  8
0-7_金物
  6
Continuous
 62
     7
370
     5
100
AcDbLine
 10
-3345.3130211935
 20
-558.000197003243
 30
0.0
 11
-3338.713021236978
 21
-558.000197003243
 31
0.0
  0
LINE
  5
32B
330
1F
100
AcDbEntity
  8
0-7_金物
  6
Continuous
 62
     7
370
     5
100
AcDbLine
 10
-3349.771895667172
 20
-546.0001970822947
 30
0.0
 11
-3338.713021236978
 21
-558.000197003243
 31
0.0
  0
LINE
  5
32C
330
1F
100
AcDbEntity
  8
0-7_金物
  6
Continuous
 62
     7
370
     5
100
AcDbLine
 10
-3380.796838666193
 20
-459.3001976534393
 30
0.0
 11
-3386.629203214879
 21
-459.3001976534393
 31
0.0
  0
LINE
  5
32D
330
1F
100
AcDbEntity
  8
0-7_金物
  6
Continuous
 62
     7
370
     5
100
AcDbLine
 10
-3386.831361825026
 20
-470.8818566721092
 30
0.0
 11
-3386.629203214879
 21
-459.3001976534384
 31
0.0
  0
LINE
  5
32E
330
1F
100
AcDbEntity
  8
0-7_金物
  6
Continuous
 62
     7
370
     5
100
AcDbLine
 10
-3380.594680056047
 20
-470.8818566721092
 30
0.0
 11
-3380.796838666193
 21
-459.3001976534384
 31
0.0
  0
LINE
  5
32F
330
1F
100
AcDbEntity
  8
0-7_金物
  6
Continuous
 62
     7
370
     5
100
AcDbLine
 10
-3369.013021037374
 20
-476.916379830943
 30
0.0
 11
-3369.013021037374
 21
-471.0840152822581
 31
0.0
  0
LINE
  5
330
330
1F
100
AcDbEntity
  8
0-7_金物
  6
Continuous
 62
     7
370
     5
100
AcDbLine
 10
-3380.594680056047
 20
-470.8818566721092
 30
0.0
 11
-3369.013021037374
 21
-471.0840152822573
 31
0.0
  0
LINE
  5
331
330
1F
100
AcDbEntity
  8
0-7_金物
  6
Continuous
 62
     7
370
     5
100
AcDbLine
 10
-3380.594680056047
 20
-477.1185384410902
 30
0.0
 11
-3369.013021037374
 21
-476.9163798309426
 31
0.0
  0
LINE
  5
332
330
1F
100
AcDbEntity
  8
0-7_金物
  6
Continuous
 62
     7
370
     5
100
AcDbLine
 10
-3386.629203214879
 20
-488.7001974597635
 30
0.0
 11
-3380.796838666193
 21
-488.7001974597635
 31
0.0
  0
LINE
  5
333
330
1F
100
AcDbEntity
  8
0-7_金物
  6
Continuous
 62
     7
370
     5
100
AcDbLine
 10
-3380.594680056047
 20
-477.1185384410902
 30
0.0
 11
-3380.796838666193
 21
-488.7001974597631
 31
0.0
  0
LINE
  5
334
330
1F
100
AcDbEntity
  8
0-7_金物
  6
Continuous
 62
     7
370
     5
100
AcDbLine
 10
-3386.831361825026
 20
-477.1185384410902
 30
0.0
 11
-3386.629203214879
 21
-488.7001974597631
 31
0.0
  0
LINE
  5
335
330
1F
100
AcDbEntity
  8
0-7_金物
  6
Continuous
 62
     7
370
     5
100
AcDbLine
 10
-3398.413020843698
 20
-471.0840152822581
 30
0.0
 11
-3398.413020843698
 21
-476.916379830943
 31
0.0
  0
LINE
  5
336
330
1F
100
AcDbEntity
  8
0-7_金物
  6
Continuous
 62
     7
370
     5
100
AcDbLine
 10
-3386.831361825026
 20
-477.1185384410902
 30
0.0
 11
-3398.413020843698
 21
-476.9163798309426
 31
0.0
  0
LINE
  5
337
330
1F
100
AcDbEntity
  8
0-7_金物
  6
Continuous
 62
     7
370
     5
100
AcDbLine
 10
-3386.831361825026
 20
-470.8818566721092
 30
0.0
 11
-3398.413020843698
 21
-471.0840152822573
 31
0.0
  0
LINE
  5
338
330
1F
100
AcDbEntity
  8
0-7_金物
  6
Continuous
 62
     7
370
     5
100
AcDbLine
 10
-3380.796838666193
 20
-543.30019710008
 30
0.0
 11
-3386.629203214879
 21
-543.30019710008
 31
0.0
  0
LINE
  5
339
330
1F
100
AcDbEntity
  8
0-7_金物
  6
Continuous
 62
     7
370
     5
100
AcDbLine
 10
-3386.831361825026
 20
-554.8818561187517
 30
0.0
 11
-3386.629203214879
 21
-543.30019710008
 31
0.0
  0
LINE
  5
33A
330
1F
100
AcDbEntity
  8
0-7_金物
  6
Continuous
 62
     7
370
     5
100
AcDbLine
 10
-3380.594680056047
 20
-554.8818561187517
 30
0.0
 11
-3380.796838666193
 21
-543.30019710008
 31
0.0
  0
LINE
  5
33B
330
1F
100
AcDbEntity
  8
0-7_金物
  6
Continuous
 62
     7
370
     5
100
AcDbLine
 10
-3369.013021037374
 20
-560.916379277588
 30
0.0
 11
-3369.013021037374
 21
-555.084014728901
 31
0.0
  0
LINE
  5
33C
330
1F
100
AcDbEntity
  8
0-7_金物
  6
Continuous
 62
     7
370
     5
100
AcDbLine
 10
-3380.594680056047
 20
-554.8818561187517
 30
0.0
 11
-3369.013021037374
 21
-555.0840147289006
 31
0.0
  0
LINE
  5
33D
330
1F
100
AcDbEntity
  8
0-7_金物
  6
Continuous
 62
     7
370
     5
100
AcDbLine
 10
-3380.594680056047
 20
-561.1185378877335
 30
0.0
 11
-3369.013021037374
 21
-560.9163792775871
 31
0.0
  0
LINE
  5
33E
330
1F
100
AcDbEntity
  8
0-7_金物
  6
Continuous
 62
     7
370
     5
100
AcDbLine
 10
-3386.629203214879
 20
-572.700196906406
 30
0.0
 11
-3380.796838666193
 21
-572.700196906406
 31
0.0
  0
LINE
  5
33F
330
1F
100
AcDbEntity
  8
0-7_金物
  6
Continuous
 62
     7
370
     5
100
AcDbLine
 10
-3380.594680056047
 20
-561.1185378877335
 30
0.0
 11
-3380.796838666193
 21
-572.7001969064055
 31
0.0
  0
LINE
  5
340
330
1F
100
AcDbEntity
  8
0-7_金物
  6
Continuous
 62
     7
370
     5
100
AcDbLine
 10
-3386.831361825026
 20
-561.1185378877335
 30
0.0
 11
-3386.629203214879
 21
-572.7001969064055
 31
0.0
  0
LINE
  5
341
330
1F
100
AcDbEntity
  8
0-7_金物
  6
Continuous
 62
     7
370
     5
100
AcDbLine
 10
-3398.413020843698
 20
-555.0840147289006
 30
0.0
 11
-3398.413020843698
 21
-560.9163792775876
 31
0.0
  0
LINE
  5
342
330
1F
100
AcDbEntity
  8
0-7_金物
  6
Continuous
 62
     7
370
     5
100
AcDbLine
 10
-3386.831361825026
 20
-561.1185378877335
 30
0.0
 11
-3398.413020843698
 21
-560.9163792775871
 31
0.0
  0
LINE
  5
343
330
1F
100
AcDbEntity
  8
0-7_金物
  6
Continuous
 62
     7
370
     5
100
AcDbLine
 10
-3386.831361825026
 20
-554.8818561187517
 30
0.0
 11
-3398.413020843698
 21
-555.0840147289006
 31
0.0
  0
ARC
  5
344
330
1F
100
AcDbEntity
  8
0-7_金物
  6
Continuous
 62
     7
370
     5
100
AcDbCircle
 10
-3383.713020940537
 20
-623.4001965724165
 30
0.0
 40
41.39999972727429
100
AcDbArc
 50
180.0
 51
0.0
  0
CIRCLE
  5
345
330
1F
100
AcDbEntity
  8
0-7_金物
  6
Continuous
 62
     7
370
     5
100
AcDbCircle
 10
-3383.713020940537
 20
-474.0001975566005
 30
0.0
 40
29.99999980237253
  0
LINE
  5
346
330
1F
100
AcDbEntity
  8
0-B_寸法
  6
Continuous
 62
   120
370
     5
100
AcDbLine
 10
-3938.717896424567
 20
-868.8251942929558
 30
0.0
 11
-3056.717896424569
 21
-868.8251942929558
 31
0.0
  0
LWPOLYLINE
  5
347
330
1F
100
AcDbEntity
  8
0-B_寸法
  6
Continuous
 62
     7
370
     5
100
AcDbPolyline
 90
        4
 70
     1
 43
3.0
 10
-3937.217896424567
 20
-868.8251942929558
 42
0.4142135623731
 10
-3938.717896424567
 20
-867.3251942929556
 42
0.4142135623731
 10
-3940.217896424567
 20
-868.8251942929558
 42
0.4142135623731
 10
-3938.717896424567
 20
-870.3251942929558
 42
0.4142135623731
  0
LINE
  5
348
330
1F
100
AcDbEntity
  8
0-B_寸法
  6
Continuous
 62
   120
370
     5
100
AcDbLine
 10
-3938.717896424567
 20
-868.8251942929558
 30
0.0
 11
-3938.717896424567
 21
-724.4757610184784
 31
0.0
  0
LWPOLYLINE
  5
349
330
1F
100
AcDbEntity
  8
0-B_寸法
  6
Continuous
 62
     7
370
     5
100
AcDbPolyline
 90
        4
 70
     1
 43
3.0
 10
-3055.21789642457
 20
-868.8251942929558
 42
0.4142135623731
 10
-3056.71789642457
 20
-867.3251942929556
 42
0.4142135623731
 10
-3058.217896424569
 20
-868.8251942929558
 42
0.4142135623731
 10
-3056.71789642457
 20
-870.3251942929558
 42
0.4142135623731
  0
LINE
  5
34A
330
1F
100
AcDbEntity
  8
0-B_寸法
  6
Continuous
 62
   120
370
     5
100
AcDbLine
 10
-3056.717896424569
 20
-868.8251942929558
 30
0.0
 11
-3056.717896424569
 21
-745.4757610184741
 31
0.0
  0
LINE
  5
34B
330
1F
100
AcDbEntity
  8
0-4_枠
  6
Continuous
 62
   120
370
     5
100
AcDbLine
 10
-3938.717896424566
 20
-153.0001979518559
 30
0.0
 11
-3962.717896424571
 21
-153.0001979518559
 31
0.0
  0
LINE
  5
34C
330
1F
100
AcDbEntity
  8
0-4_枠
  6
Continuous
 62
   120
370
     5
100
AcDbLine
 10
-3056.717896424569
 20
-153.0001979518542
 30
0.0
 11
-3032.71789642457
 21
-153.0001979518542
 31
0.0
  0
LINE
  5
34D
330
1F
100
AcDbEntity
  8
0-4_枠
  6
Continuous
 62
   120
370
     5
100
AcDbLine
 10
-3032.71789642457
 20
-153.0001979518542
 30
0.0
 11
-3032.71789642457
 21
-1467.000300948677
 31
0.0
  0
LINE
  5
34E
330
1F
100
AcDbEntity
  8
0-4_枠
  6
Continuous
 62
   120
370
     5
100
AcDbLine
 10
-3962.717896424571
 20
-153.0001979518559
 30
0.0
 11
-3962.717896424572
 21
-1467.000300948678
 31
0.0
  0
LINE
  5
34F
330
1F
100
AcDbEntity
  8
0-2_柱
  6
Continuous
 62
     7
370
     5
100
AcDbLine
 10
-3182.71789642457
 20
8.999802048145114
 30
0.0
 11
-3812.71789642457
 21
-153.0001979518551
 31
0.0
  0
LINE
  5
350
330
1F
100
AcDbEntity
  8
0-2_柱
  6
Continuous
 62
     7
370
     5
100
AcDbLine
 10
-3812.71789642457
 20
8.999802048145114
 30
0.0
 11
-3812.71789642457
 21
-153.0001979518551
 31
0.0
  0
LINE
  5
351
330
1F
100
AcDbEntity
  8
0-2_柱
  6
Continuous
 62
     7
370
     5
100
AcDbLine
 10
-3182.71789642457
 20
8.999802048145114
 30
0.0
 11
-3812.71789642457
 21
8.999802048145114
 31
0.0
  0
LINE
  5
352
330
1F
100
AcDbEntity
  8
0-2_柱
  6
Continuous
 62
     7
370
     5
100
AcDbLine
 10
-3182.71789642457
 20
-153.0001979518559
 30
0.0
 11
-3182.71789642457
 21
8.99980204814426
 31
0.0
  0
LINE
  5
353
330
1F
100
AcDbEntity
  8
0-2_柱
  6
Continuous
 62
     7
370
     5
100
AcDbLine
 10
-3812.71789642457
 20
-153.0001979518559
 30
0.0
 11
-3182.71789642457
 21
-153.0001979518559
 31
0.0
  0
LINE
  5
354
330
1F
100
AcDbEntity
  8
0-C_ハッチ
  6
Continuous
 62
   120
370
     5
100
AcDbLine
 10
-3088.120939642242
 20
-156.0001979518549
 30
0.0
 11
-3262.120939642241
 21
-330.0001979518544
 31
0.0
  0
LINE
  5
355
330
1F
100
AcDbEntity
  8
0-C_ハッチ
  6
Continuous
 62
   120
370
     5
100
AcDbLine
 10
-3297.317896424569
 20
-305.8001851144772
 30
0.0
 11
-3146.717896424569
 21
-155.2001851144743
 31
0.0
  0
LINE
  5
356
330
1F
100
AcDbEntity
  8
0-C_ハッチ
  6
Continuous
 62
   120
370
     5
100
AcDbLine
 10
-3406.708818120947
 20
-237.0001979518545
 30
0.0
 11
-3322.708818120943
 21
-153.0001979518559
 31
0.0
  0
LINE
  5
357
330
1F
100
AcDbEntity
  8
0-C_ハッチ
  6
Continuous
 62
   120
370
     5
100
AcDbLine
 10
-3466.105787740645
 20
-237.0001979518563
 30
0.0
 11
-3382.105787740643
 21
-153.0001979518559
 31
0.0
  0
LINE
  5
358
330
1F
100
AcDbEntity
  8
0-C_ハッチ
  6
Continuous
 62
   120
370
     5
100
AcDbLine
 10
-3347.311848501294
 20
-237.0001979518563
 30
0.0
 11
-3263.311848501296
 21
-153.0001979518559
 31
0.0
  0
LINE
  5
359
330
1F
100
AcDbEntity
  8
0-C_ハッチ
  6
Continuous
 62
   120
370
     5
100
AcDbLine
 10
-3915.487605458648
 20
-330.0001979518672
 30
0.0
 11
-3738.487605458639
 21
-153.0001979518551
 31
0.0
  0
LINE
  5
35A
330
1F
100
AcDbEntity
  8
0-C_ハッチ
  6
Continuous
 62
   120
370
     5
100
AcDbLine
 10
-3856.090635838992
 20
-330.0001979518569
 30
0.0
 11
-3679.090635838989
 21
-153.0001979518551
 31
0.0
  0
LINE
  5
35B
330
1F
100
AcDbEntity
  8
0-C_ハッチ
  6
Continuous
 62
   120
370
     5
100
AcDbLine
 10
-3297.317896424569
 20
-246.4032154948299
 30
0.0
 11
-3203.914878881594
 21
-153.0001979518559
 31
0.0
  0
LINE
  5
35C
330
1F
100
AcDbEntity
  8
0-C_ハッチ
  6
Continuous
 62
   120
370
     5
100
AcDbLine
 10
-3935.718331300066
 20
-290.8339541736379
 30
0.0
 11
-3797.884575078287
 21
-153.0001979518551
 31
0.0
  0
LINE
  5
35D
330
1F
100
AcDbEntity
  8
0-C_ハッチ
  6
Continuous
 62
   120
370
     5
100
AcDbLine
 10
-3935.718331300051
 20
-231.436984553919
 30
0.0
 11
-3860.281544697988
 21
-156.000197951854
 31
0.0
  0
LINE
  5
35E
330
1F
100
AcDbEntity
  8
0-C_ハッチ
  6
Continuous
 62
   120
370
     5
100
AcDbLine
 10
-3935.718331300058
 20
-172.0400149342785
 30
0.0
 11
-3919.678514317631
 21
-156.000197951854
 31
0.0
  0
LINE
  5
35F
330
1F
100
AcDbEntity
  8
0-4_枠
  6
Continuous
 62
    92
370
     5
100
AcDbLine
 10
-3056.717896424569
 20
-153.0001979518559
 30
0.0
 11
-3938.717896424566
 21
-153.0001979518559
 31
0.0
  0
LINE
  5
360
330
1F
100
AcDbEntity
  8
0-4_枠
  6
Continuous
 62
    92
370
     5
100
AcDbLine
 10
-3848.717896424568
 20
-156.0001979518549
 30
0.0
 11
-3935.718331300058
 21
-156.0001979518549
 31
0.0
  0
LINE
  5
361
330
1F
100
AcDbEntity
  8
0-4_枠
  6
Continuous
 62
    92
370
     5
100
AcDbLine
 10
-3935.718331300059
 20
-330.0001979518569
 30
0.0
 11
-3935.718331300058
 21
-156.000197951854
 31
0.0
  0
LINE
  5
362
330
1F
100
AcDbEntity
  8
0-4_枠
  6
Continuous
 62
    92
370
     5
100
AcDbLine
 10
-3938.717896424567
 20
-333.0001979518559
 30
0.0
 11
-3938.717896424566
 21
-153.0001979518559
 31
0.0
  0
LINE
  5
363
330
1F
100
AcDbEntity
  8
0-4_枠
  6
Continuous
 62
    92
370
     5
100
AcDbLine
 10
-3146.717896424569
 20
-156.0001979518549
 30
0.0
 11
-3059.718056641851
 21
-156.0001979518549
 31
0.0
  0
LINE
  5
364
330
1F
100
AcDbEntity
  8
0-4_枠
  6
Continuous
 62
    92
370
     5
100
AcDbLine
 10
-3059.718056641851
 20
-330.0001979518569
 30
0.0
 11
-3059.718056641851
 21
-156.000197951854
 31
0.0
  0
LINE
  5
365
330
1F
100
AcDbEntity
  8
0-4_枠
  6
Continuous
 62
    92
370
     5
100
AcDbLine
 10
-3056.717896424569
 20
-333.0001979518559
 30
0.0
 11
-3056.717896424569
 21
-153.0001979518559
 31
0.0
  0
LINE
  5
366
330
1F
100
AcDbEntity
  8
0-4_枠
  6
Continuous
 62
    92
370
     5
100
AcDbLine
 10
-3146.717896424569
 20
-156.0001979518549
 30
0.0
 11
-3146.717896424569
 21
-153.0001979518559
 31
0.0
  0
LINE
  5
367
330
1F
100
AcDbEntity
  8
0-4_枠
  6
Continuous
 62
    92
370
     5
100
AcDbLine
 10
-3848.717896424568
 20
-153.0001979518559
 30
0.0
 11
-3848.717896424568
 21
-156.0001979518549
 31
0.0
  0
LINE
  5
368
330
1F
100
AcDbEntity
  8
0-C_ハッチ
  6
Continuous
 62
   120
370
     5
100
AcDbLine
 10
-3499.708818120948
 20
-330.0001979518569
 30
0.0
 11
-3470.11789642457
 21
-300.4092762554779
 31
0.0
  0
LINE
  5
369
330
1F
100
AcDbEntity
  8
0-4_枠
  6
Continuous
 62
    92
370
     5
100
AcDbLine
 10
-3297.317896424569
 20
-333.0001979518559
 30
0.0
 11
-3297.317896424569
 21
-237.0001979518563
 31
0.0
  0
LINE
  5
36A
330
1F
100
AcDbEntity
  8
0-4_枠
  6
Continuous
 62
    92
370
     5
100
AcDbLine
 10
-3297.317896424569
 20
-237.0001979518563
 30
0.0
 11
-3470.117896424569
 21
-237.0001979518563
 31
0.0
  0
LINE
  5
36B
330
1F
100
AcDbEntity
  8
0-4_枠
  6
Continuous
 62
    92
370
     5
100
AcDbLine
 10
-3470.11789642457
 20
-333.0001979518559
 30
0.0
 11
-3470.117896424569
 21
-237.0001979518563
 31
0.0
  0
LINE
  5
36C
330
1F
100
AcDbEntity
  8
0-4_枠
  6
Continuous
 62
    92
370
     5
100
AcDbLine
 10
-3056.717896424569
 20
-333.0001979518559
 30
0.0
 11
-3297.317896424569
 21
-333.0001979518559
 31
0.0
  0
LINE
  5
36D
330
1F
100
AcDbEntity
  8
0-4_枠
  6
Continuous
 62
    92
370
     5
100
AcDbLine
 10
-3059.718056641851
 20
-330.0001979518569
 30
0.0
 11
-3297.317896424569
 21
-330.0001979518569
 31
0.0
  0
LINE
  5
36E
330
1F
100
AcDbEntity
  8
0-C_ハッチ
  6
Continuous
 62
   120
370
     5
100
AcDbLine
 10
-3202.723970022605
 20
-330.0001979518638
 30
0.0
 11
-3059.718056641836
 21
-186.9942845710938
 31
0.0
  0
LINE
  5
36F
330
1F
100
AcDbEntity
  8
0-C_ハッチ
  6
Continuous
 62
   120
370
     5
100
AcDbLine
 10
-3143.327000402951
 20
-330.0001979518569
 30
0.0
 11
-3059.718056641848
 21
-246.3912541907538
 31
0.0
  0
LINE
  5
370
330
1F
100
AcDbEntity
  8
0-C_ハッチ
  6
Continuous
 62
   120
370
     5
100
AcDbLine
 10
-3083.930030783256
 20
-330.000197951862
 30
0.0
 11
-3059.71805664185
 21
-305.7882238104565
 31
0.0
  0
LINE
  5
371
330
1F
100
AcDbEntity
  8
0-C_ハッチ
  6
JWW_DASHED1
 62
   120
370
     5
100
AcDbLine
 10
-3107.717896424566
 20
-131.1039783279026
 30
0.0
 11
-3129.614116048516
 21
-153.0001979518576
 31
0.0
  0
LINE
  5
372
330
1F
100
AcDbEntity
  8
0-C_ハッチ
  6
JWW_DASHED1
 62
   120
370
     5
100
AcDbLine
 10
-3107.71789642457
 20
-88.67757145670765
 30
0.0
 11
-3172.04052291972
 21
-153.000197951861
 31
0.0
  0
LINE
  5
373
330
1F
100
AcDbEntity
  8
0-C_ハッチ
  6
JWW_DASHED1
 62
   120
370
     5
100
AcDbLine
 10
-3107.717896424571
 20
-46.25116458551105
 30
0.0
 11
-3182.717896424566
 21
-121.2511645855076
 31
0.0
  0
LINE
  5
374
330
1F
100
AcDbEntity
  8
0-C_ハッチ
  6
JWW_DASHED1
 62
   120
370
     5
100
AcDbLine
 10
-3107.717896424573
 20
-3.824757714314444
 30
0.0
 11
-3182.71789642457
 21
-78.82475771431103
 31
0.0
  0
LINE
  5
375
330
1F
100
AcDbEntity
  8
0-C_ハッチ
  6
JWW_DASHED1
 62
   120
370
     5
100
AcDbLine
 10
-3107.71789642457
 20
38.60164915683612
 30
0.0
 11
-3182.717896424563
 21
-36.39835084315706
 31
0.0
  0
LINE
  5
376
330
1F
100
AcDbEntity
  8
0-C_ハッチ
  6
JWW_DASHED1
 62
   120
370
     5
100
AcDbLine
 10
-3107.717896424571
 20
81.02805602803272
 30
0.0
 11
-3182.717896424566
 21
6.028056028037838
 31
0.0
  0
LINE
  5
377
330
1F
100
AcDbEntity
  8
0-C_ハッチ
  6
JWW_DASHED1
 62
   120
370
     5
100
AcDbLine
 10
-3107.71789642456
 20
123.4544628992447
 30
0.0
 11
-3182.717896424571
 21
48.45446289923444
 31
0.0
  0
LINE
  5
378
330
1F
100
AcDbEntity
  8
0-C_ハッチ
  6
JWW_DASHED1
 62
   120
370
     5
100
AcDbLine
 10
-3107.717896424566
 20
165.880869770443
 30
0.0
 11
-3182.717896424575
 21
90.88086977043105
 31
0.0
  0
LINE
  5
379
330
1F
100
AcDbEntity
  8
0-C_ハッチ
  6
JWW_DASHED1
 62
   120
370
     5
100
AcDbLine
 10
-3812.71789642457
 20
-131.1039783279026
 30
0.0
 11
-3834.61411604852
 21
-153.0001979518576
 31
0.0
  0
LINE
  5
37A
330
1F
100
AcDbEntity
  8
0-C_ハッチ
  6
JWW_DASHED1
 62
   120
370
     5
100
AcDbLine
 10
-3812.71789642457
 20
-88.67757145670765
 30
0.0
 11
-3877.04052291972
 21
-153.000197951861
 31
0.0
  0
LINE
  5
37B
330
1F
100
AcDbEntity
  8
0-C_ハッチ
  6
JWW_DASHED1
 62
   120
370
     5
100
AcDbLine
 10
-3812.717896424571
 20
-46.25116458551105
 30
0.0
 11
-3887.71789642457
 21
-121.2511645855076
 31
0.0
  0
LINE
  5
37C
330
1F
100
AcDbEntity
  8
0-C_ハッチ
  6
JWW_DASHED1
 62
   120
370
     5
100
AcDbLine
 10
-3812.717896424575
 20
-3.824757714314444
 30
0.0
 11
-3887.71789642457
 21
-78.82475771431103
 31
0.0
  0
LINE
  5
37D
330
1F
100
AcDbEntity
  8
0-C_ハッチ
  6
JWW_DASHED1
 62
   120
370
     5
100
AcDbLine
 10
-3812.71789642457
 20
38.60164915683612
 30
0.0
 11
-3887.717896424561
 21
-36.39835084315706
 31
0.0
  0
LINE
  5
37E
330
1F
100
AcDbEntity
  8
0-C_ハッチ
  6
JWW_DASHED1
 62
   120
370
     5
100
AcDbLine
 10
-3812.717896424571
 20
81.02805602803272
 30
0.0
 11
-3887.71789642457
 21
6.028056028037838
 31
0.0
  0
LINE
  5
37F
330
1F
100
AcDbEntity
  8
0-C_ハッチ
  6
JWW_DASHED1
 62
   120
370
     5
100
AcDbLine
 10
-3812.717896424561
 20
123.4544628992447
 30
0.0
 11
-3887.717896424571
 21
48.45446289923444
 31
0.0
  0
LINE
  5
380
330
1F
100
AcDbEntity
  8
0-C_ハッチ
  6
JWW_DASHED1
 62
   120
370
     5
100
AcDbLine
 10
-3812.71789642457
 20
165.880869770443
 30
0.0
 11
-3887.717896424575
 21
90.88086977043105
 31
0.0
  0
LWPOLYLINE
  5
381
330
1F
100
AcDbEntity
  8
0-B_寸法
  6
Continuous
 62
     7
370
     5
100
AcDbPolyline
 90
        4
 70
     1
 43
3.0
 10
-1957.21789642457
 20
-153.0001979518559
 42
0.4142135623731
 10
-1958.71789642457
 20
-151.5001979518559
 42
0.4142135623731
 10
-1960.21789642457
 20
-153.0001979518559
 42
0.4142135623731
 10
-1958.71789642457
 20
-154.5001979518559
 42
0.4142135623731
  0
LINE
  5
382
330
1F
100
AcDbEntity
  8
0-B_寸法
  6
Continuous
 62
   120
370
     5
100
AcDbLine
 10
-1958.71789642457
 20
-2853.000197672981
 30
0.0
 11
-1958.71789642457
 21
-153.0001979518558
 31
0.0
  0
LINE
  5
383
330
1F
100
AcDbEntity
  8
0-B_寸法
  6
Continuous
 62
   120
370
     5
100
AcDbLine
 10
-1958.71789642457
 20
-153.0001979518559
 30
0.0
 11
-2798.71789642457
 21
-153.0001979518555
 31
0.0
  0
LINE
  5
384
330
1F
100
AcDbEntity
  8
0-B_寸法
  6
Continuous
 62
   120
370
     5
100
AcDbLine
 10
-2168.71789642457
 20
-153.0001979518559
 30
0.0
 11
-2168.71789642457
 21
-2781.000609939156
 31
0.0
  0
LINE
  5
385
330
1F
100
AcDbEntity
  8
0-6_扉
  6
Continuous
 62
   200
370
     5
100
AcDbLine
 10
-3293.717896424578
 20
-414.0001979518539
 30
0.0
 11
-3473.717896424579
 21
-414.0001979518539
 31
0.0
  0
LINE
  5
386
330
1F
100
AcDbEntity
  8
0-6_扉
  6
Continuous
 62
   200
370
     5
100
AcDbLine
 10
-3293.717896424578
 20
-414.0001979518539
 30
0.0
 11
-3293.717896424579
 21
-1467.000300948677
 31
0.0
  0
LINE
  5
387
330
1F
100
AcDbEntity
  8
0-3_仕上げ
  6
Continuous
 62
    40
370
     5
100
AcDbLine
 10
-3887.71789642457
 20
-153.0001979518559
 30
0.0
 11
-3812.71789642457
 21
-153.0001979518559
 31
0.0
  0
LINE
  5
388
330
1F
100
AcDbEntity
  8
0-3_仕上げ
  6
Continuous
 62
    40
370
     5
100
AcDbLine
 10
-3182.71789642457
 20
-153.0001979518559
 30
0.0
 11
-3107.71789642457
 21
-153.0001979518559
 31
0.0
  0
LINE
  5
389
330
1F
100
AcDbEntity
  8
0-B_寸法
  6
Continuous
 62
   120
370
     5
100
AcDbLine
 10
-2588.71789642457
 20
-376.2001976672715
 30
0.0
 11
-2798.71789642457
 21
-376.2001976672715
 31
0.0
  0
LWPOLYLINE
  5
38A
330
1F
100
AcDbEntity
  8
0-B_寸法
  6
Continuous
 62
     7
370
     5
100
AcDbPolyline
 90
        4
 70
     1
 43
3.0
 10
-2587.21789642457
 20
-376.2001976672724
 42
0.4142135623731
 10
-2588.71789642457
 20
-374.7001976672724
 42
0.4142135623731
 10
-2590.21789642457
 20
-376.2001976672724
 42
0.4142135623731
 10
-2588.71789642457
 20
-377.7001976672724
 42
0.4142135623731
  0
LWPOLYLINE
  5
38B
330
1F
100
AcDbEntity
  8
0-B_寸法
  6
Continuous
 62
     7
370
     5
100
AcDbPolyline
 90
        4
 70
     1
 43
3.0
 10
-2587.21789642457
 20
-414.0001979518556
 42
0.4142135623731
 10
-2588.71789642457
 20
-412.5001979518556
 42
0.4142135623731
 10
-2590.21789642457
 20
-414.0001979518556
 42
0.4142135623731
 10
-2588.71789642457
 20
-415.5001979518556
 42
0.4142135623731
  0
LINE
  5
38C
330
1F
100
AcDbEntity
  8
0-B_寸法
  6
Continuous
 62
   120
370
     5
100
AcDbLine
 10
-2588.71789642457
 20
-414.0001979518556
 30
0.0
 11
-2588.71789642457
 21
-376.2001976672724
 31
0.0
  0
LINE
  5
38D
330
1F
100
AcDbEntity
  8
0-B_寸法
  6
Continuous
 62
   120
370
     5
100
AcDbLine
 10
-2378.71789642457
 20
-414.0001979518556
 30
0.0
 11
-2798.71789642457
 21
-414.0001979518556
 31
0.0
  0
LWPOLYLINE
  5
38E
330
1F
100
AcDbEntity
  8
0-B_寸法
  6
Continuous
 62
     7
370
     5
100
AcDbPolyline
 90
        4
 70
     1
 43
3.0
 10
-2377.21789642457
 20
-414.0001979518556
 42
0.4142135623731
 10
-2378.71789642457
 20
-412.5001979518556
 42
0.4142135623731
 10
-2380.21789642457
 20
-414.0001979518556
 42
0.4142135623731
 10
-2378.71789642457
 20
-415.5001979518556
 42
0.4142135623731
  0
LWPOLYLINE
  5
38F
330
1F
100
AcDbEntity
  8
0-B_寸法
  6
Continuous
 62
     7
370
     5
100
AcDbPolyline
 90
        4
 70
     1
 43
3.0
 10
-2377.21789642457
 20
-333.0001979518559
 42
0.4142135623731
 10
-2378.71789642457
 20
-331.5001979518559
 42
0.4142135623731
 10
-2380.21789642457
 20
-333.0001979518559
 42
0.4142135623731
 10
-2378.71789642457
 20
-334.5001979518559
 42
0.4142135623731
  0
LWPOLYLINE
  5
390
330
1F
100
AcDbEntity
  8
0-B_寸法
  6
Continuous
 62
     7
370
     5
100
AcDbPolyline
 90
        4
 70
     1
 43
3.0
 10
-2167.21789642457
 20
-333.0001979518559
 42
0.4142135623731
 10
-2168.71789642457
 20
-331.5001979518559
 42
0.4142135623731
 10
-2170.21789642457
 20
-333.0001979518559
 42
0.4142135623731
 10
-2168.71789642457
 20
-334.5001979518559
 42
0.4142135623731
  0
LWPOLYLINE
  5
391
330
1F
100
AcDbEntity
  8
0-B_寸法
  6
Continuous
 62
     7
370
     5
100
AcDbPolyline
 90
        4
 70
     1
 43
3.0
 10
-2167.21789642457
 20
-153.0001979518559
 42
0.4142135623731
 10
-2168.71789642457
 20
-151.5001979518559
 42
0.4142135623731
 10
-2170.21789642457
 20
-153.0001979518559
 42
0.4142135623731
 10
-2168.71789642457
 20
-154.5001979518559
 42
0.4142135623731
  0
LINE
  5
392
330
1F
100
AcDbEntity
  8
0-B_寸法
  6
Continuous
 62
   120
370
     5
100
AcDbLine
 10
-2168.71789642457
 20
-333.0001979518559
 30
0.0
 11
-2798.71789642457
 21
-333.0001979518555
 31
0.0
  0
LWPOLYLINE
  5
393
330
1F
100
AcDbEntity
  8
0-B_寸法
  6
Continuous
 62
     7
370
     5
100
AcDbPolyline
 90
        4
 70
     1
 43
3.0
 10
-3472.217896424579
 20
-1119.000324800429
 42
0.4142135623731
 10
-3473.717896424579
 20
-1117.500324800429
 42
0.4142135623731
 10
-3475.217896424579
 20
-1119.000324800429
 42
0.4142135623731
 10
-3473.717896424579
 20
-1120.500324800429
 42
0.4142135623731
  0
LWPOLYLINE
  5
394
330
1F
100
AcDbEntity
  8
0-B_寸法
  6
Continuous
 62
     7
370
     5
100
AcDbPolyline
 90
        4
 70
     1
 43
3.0
 10
-3292.217896424579
 20
-1119.000324800429
 42
0.4142135623731
 10
-3293.717896424579
 20
-1117.500324800429
 42
0.4142135623731
 10
-3295.217896424579
 20
-1119.000324800429
 42
0.4142135623731
 10
-3293.717896424579
 20
-1120.500324800429
 42
0.4142135623731
  0
LINE
  5
395
330
1F
100
AcDbEntity
  8
0-A_文字
  6
Continuous
 62
     7
370
     5
100
AcDbLine
 10
-4214.330792424159
 20
-2728.118906012915
 30
0.0
 11
-4184.330792424159
 21
-2780.080430239982
 31
0.0
  0
LINE
  5
396
330
1F
100
AcDbEntity
  8
0-A_文字
  6
Continuous
 62
     7
370
     5
100
AcDbLine
 10
-4214.330792424159
 20
-2728.118906012915
 30
0.0
 11
-4154.330792424159
 21
-2728.118906012915
 31
0.0
  0
LINE
  5
397
330
1F
100
AcDbEntity
  8
0-A_文字
  6
Continuous
 62
     7
370
     5
100
AcDbLine
 10
-4154.330792424159
 20
-2728.118906012915
 30
0.0
 11
-4184.330792424159
 21
-2780.080430239982
 31
0.0
  0
LINE
  5
398
330
1F
100
AcDbEntity
  8
0-0_補助線
  6
JWW_HOJO
 62
   120
370
     5
100
AcDbLine
 10
-3263.717896424579
 20
-2592.000403945504
 30
0.0
 11
-3731.717896424576
 21
-2592.000403945504
 31
0.0
  0
LINE
  5
399
330
1F
100
AcDbEntity
  8
0-3_仕上げ
  6
Continuous
 62
     7
370
     5
100
AcDbLine
 10
-4247.717896424572
 20
-2790.000403945502
 30
0.0
 11
-2798.71789642457
 21
-2790.000403945503
 31
0.0
  0
LINE
  5
39A
330
1F
100
AcDbEntity
  8
0-3_仕上げ
  6
Continuous
 62
     7
370
     5
100
AcDbLine
 10
-4247.717896424572
 20
-2799.000403945503
 30
0.0
 11
-2798.71789642457
 21
-2799.000403945503
 31
0.0
  0
LINE
  5
39B
330
1F
100
AcDbEntity
  8
0-3_仕上げ
  6
Continuous
 62
     7
370
     5
100
AcDbLine
 10
-4247.717896424572
 20
-2808.000403945502
 30
0.0
 11
-2798.71789642457
 21
-2808.000403945503
 31
0.0
  0
LINE
  5
39C
330
1F
100
AcDbEntity
  8
0-3_仕上げ
  6
Continuous
 62
     7
370
     5
100
AcDbLine
 10
-4247.717896424572
 20
-2817.000403945503
 30
0.0
 11
-2798.71789642457
 21
-2817.000403945503
 31
0.0
  0
LINE
  5
39D
330
1F
100
AcDbEntity
  8
0-3_仕上げ
  6
Continuous
 62
     7
370
     5
100
AcDbLine
 10
-4247.717896424572
 20
-2826.000403945503
 30
0.0
 11
-2798.71789642457
 21
-2826.000403945504
 31
0.0
  0
LINE
  5
39E
330
1F
100
AcDbEntity
  8
0-3_仕上げ
  6
Continuous
 62
     7
370
     5
100
AcDbLine
 10
-4247.717896424572
 20
-2835.000403945502
 30
0.0
 11
-2798.71789642457
 21
-2835.000403945503
 31
0.0
  0
LINE
  5
39F
330
1F
100
AcDbEntity
  8
0-3_仕上げ
  6
Continuous
 62
     7
370
     5
100
AcDbLine
 10
-4247.717896424572
 20
-2844.000403945503
 30
0.0
 11
-2798.71789642457
 21
-2844.000403945503
 31
0.0
  0
LINE
  5
3A0
330
1F
100
AcDbEntity
  8
0-3_仕上げ
  6
Continuous
 62
    40
370
     5
100
AcDbLine
 10
-4247.717896424572
 20
-2853.000403945503
 30
0.0
 11
-2798.71789642457
 21
-2853.000403945504
 31
0.0
  0
LINE
  5
3A1
330
1F
100
AcDbEntity
  8
0-3_仕上げ
  6
Continuous
 62
    40
370
     5
100
AcDbLine
 10
-4247.717896424572
 20
-2781.000403945503
 30
0.0
 11
-2798.71789642457
 21
-2781.000403945504
 31
0.0
  0
LINE
  5
3A2
330
1F
100
AcDbEntity
  8
0-0_補助線
  6
JWW_HOJO
 62
   120
370
     5
100
AcDbLine
 10
-3731.717896424576
 20
-2592.000403945504
 30
0.0
 11
-3731.717896424576
 21
-2853.00019767298
 31
0.0
  0
LINE
  5
3A3
330
1F
100
AcDbEntity
  8
0-0_補助線
  6
JWW_HOJO
 62
   120
370
     5
100
AcDbLine
 10
-3661.217896424557
 20
-2592.000403945504
 30
0.0
 11
-3661.217896424557
 21
-2853.00019767298
 31
0.0
  0
LINE
  5
3A4
330
1F
100
AcDbEntity
  8
0-0_補助線
  6
JWW_HOJO
 62
   120
370
     5
100
AcDbLine
 10
-3263.717896424579
 20
-2592.000403945504
 30
0.0
 11
-3263.717896424579
 21
-2853.00019767298
 31
0.0
  0
LINE
  5
3A5
330
1F
100
AcDbEntity
  8
0-6_扉
  6
Continuous
 62
   200
370
     5
100
AcDbLine
 10
-3473.717896424579
 20
-1587.000300948678
 30
0.0
 11
-3473.717896424579
 21
-2730.000403945506
 31
0.0
  0
LINE
  5
3A6
330
1F
100
AcDbEntity
  8
0-6_扉
  6
Continuous
 62
   200
370
     5
100
AcDbLine
 10
-3293.717896424579
 20
-1587.000300948678
 30
0.0
 11
-3293.717896424579
 21
-2730.000403945506
 31
0.0
  0
LWPOLYLINE
  5
3A7
330
1F
100
AcDbEntity
  8
0-B_寸法
  6
Continuous
 62
     7
370
     5
100
AcDbPolyline
 90
        4
 70
     1
 43
3.0
 10
-2377.21789642457
 20
-2781.000609939156
 42
0.4142135623731
 10
-2378.71789642457
 20
-2779.500609939156
 42
0.4142135623731
 10
-2380.21789642457
 20
-2781.000609939156
 42
0.4142135623731
 10
-2378.71789642457
 20
-2782.500609939156
 42
0.4142135623731
  0
LWPOLYLINE
  5
3A8
330
1F
100
AcDbEntity
  8
0-B_寸法
  6
Continuous
 62
     7
370
     5
100
AcDbPolyline
 90
        4
 70
     1
 43
3.0
 10
-2377.21789642457
 20
-2730.000609939157
 42
0.4142135623731
 10
-2378.71789642457
 20
-2728.500609939157
 42
0.4142135623731
 10
-2380.21789642457
 20
-2730.000609939157
 42
0.4142135623731
 10
-2378.71789642457
 20
-2731.500609939157
 42
0.4142135623731
  0
LINE
  5
3A9
330
1F
100
AcDbEntity
  8
0-B_寸法
  6
Continuous
 62
   120
370
     5
100
AcDbLine
 10
-2378.71789642457
 20
-2730.000609939157
 30
0.0
 11
-2798.71789642457
 21
-2730.000609939157
 31
0.0
  0
LWPOLYLINE
  5
3AA
330
1F
100
AcDbEntity
  8
0-B_寸法
  6
Continuous
 62
     7
370
     5
100
AcDbPolyline
 90
        4
 70
     1
 43
3.0
 10
-2167.21789642457
 20
-2781.000609939156
 42
0.4142135623731
 10
-2168.71789642457
 20
-2779.500609939156
 42
0.4142135623731
 10
-2170.21789642457
 20
-2781.000609939156
 42
0.4142135623731
 10
-2168.71789642457
 20
-2782.500609939156
 42
0.4142135623731
  0
LINE
  5
3AB
330
1F
100
AcDbEntity
  8
0-1_通り芯
  6
JWW_CENTER1
 62
   120
370
     5
100
AcDbLine
 10
-4262.062658936336
 20
-2853.00019795185
 30
0.0
 11
-1844.717896424572
 21
-2853.00019795185
 31
0.0
  0
LWPOLYLINE
  5
3AC
330
1F
100
AcDbEntity
  8
0-B_寸法
  6
Continuous
 62
     7
370
     5
100
AcDbPolyline
 90
        4
 70
     1
 43
3.0
 10
-2167.21789642457
 20
-2781.000403945504
 42
0.4142135623731
 10
-2168.71789642457
 20
-2779.500403945504
 42
0.4142135623731
 10
-2170.21789642457
 20
-2781.000403945504
 42
0.4142135623731
 10
-2168.71789642457
 20
-2782.500403945504
 42
0.4142135623731
  0
LINE
  5
3AD
330
1F
100
AcDbEntity
  8
0-B_寸法
  6
Continuous
 62
   120
370
     5
100
AcDbLine
 10
-1958.71789642457
 20
-2853.000197672981
 30
0.0
 11
-2798.71789642457
 21
-2853.000197672981
 31
0.0
  0
LWPOLYLINE
  5
3AE
330
1F
100
AcDbEntity
  8
0-B_寸法
  6
Continuous
 62
     7
370
     5
100
AcDbPolyline
 90
        4
 70
     1
 43
3.0
 10
-1957.21789642457
 20
-2781.000609939156
 42
0.4142135623731
 10
-1958.71789642457
 20
-2779.500609939156
 42
0.4142135623731
 10
-1960.21789642457
 20
-2781.000609939156
 42
0.4142135623731
 10
-1958.71789642457
 20
-2782.500609939156
 42
0.4142135623731
  0
LWPOLYLINE
  5
3AF
330
1F
100
AcDbEntity
  8
0-B_寸法
  6
Continuous
 62
     7
370
     5
100
AcDbPolyline
 90
        4
 70
     1
 43
3.0
 10
-1957.21789642457
 20
-2853.000197672981
 42
0.4142135623731
 10
-1958.71789642457
 20
-2851.500197672981
 42
0.4142135623731
 10
-1960.21789642457
 20
-2853.000197672981
 42
0.4142135623731
 10
-1958.71789642457
 20
-2854.500197672981
 42
0.4142135623731
  0
LINE
  5
3B0
330
1F
100
AcDbEntity
  8
0-B_寸法
  6
Continuous
 62
   120
370
     5
100
AcDbLine
 10
-1958.71789642457
 20
-2781.000403945504
 30
0.0
 11
-2798.71789642457
 21
-2781.000403945504
 31
0.0
  0
LINE
  5
3B1
330
1F
100
AcDbEntity
  8
0-0_補助線
  6
JWW_HOJO
 62
   120
370
     5
100
AcDbLine
 10
-4247.717896424572
 20
-2853.00019767298
 30
0.0
 11
-1958.71789642457
 21
-2853.00019767298
 31
0.0
  0
LINE
  5
3B2
330
1F
100
AcDbEntity
  8
0-4_枠
  6
Continuous
 62
   120
370
     5
100
AcDbLine
 10
-3962.717896424572
 20
-1587.000300948678
 30
0.0
 11
-3962.717896424572
 21
-2781.000403945504
 31
0.0
  0
LINE
  5
3B3
330
1F
100
AcDbEntity
  8
0-4_枠
  6
Continuous
 62
   120
370
     5
100
AcDbLine
 10
-3032.71789642457
 20
-1587.000300948678
 30
0.0
 11
-3032.71789642457
 21
-2781.000403945504
 31
0.0
  0
LINE
  5
3B4
330
1F
100
AcDbEntity
  8
0-B_寸法
  6
Continuous
 62
   120
370
     5
100
AcDbLine
 10
-3113.717896424579
 20
-2730.000403945505
 30
0.0
 11
-3113.717896424579
 21
-2622.000403945505
 31
0.0
  0
LWPOLYLINE
  5
3B5
330
1F
100
AcDbEntity
  8
0-B_寸法
  6
Continuous
 62
     7
370
     5
100
AcDbPolyline
 90
        4
 70
     1
 43
3.0
 10
-3112.217896424579
 20
-2730.000403945506
 42
0.4142135623731
 10
-3113.717896424579
 20
-2728.500403945506
 42
0.4142135623731
 10
-3115.217896424579
 20
-2730.000403945506
 42
0.4142135623731
 10
-3113.717896424579
 20
-2731.500403945505
 42
0.4142135623731
  0
LWPOLYLINE
  5
3B6
330
1F
100
AcDbEntity
  8
0-B_寸法
  6
Continuous
 62
     7
370
     5
100
AcDbPolyline
 90
        4
 70
     1
 43
3.0
 10
-3112.217896424579
 20
-2622.000403945506
 42
0.4142135623731
 10
-3113.717896424579
 20
-2620.500403945506
 42
0.4142135623731
 10
-3115.217896424579
 20
-2622.000403945506
 42
0.4142135623731
 10
-3113.717896424579
 20
-2623.500403945506
 42
0.4142135623731
  0
LINE
  5
3B7
330
1F
100
AcDbEntity
  8
0-B_寸法
  6
Continuous
 62
   120
370
     5
100
AcDbLine
 10
-3113.717896424579
 20
-2730.000403945505
 30
0.0
 11
-3233.717896424579
 21
-2730.000403945505
 31
0.0
  0
LINE
  5
3B8
330
1F
100
AcDbEntity
  8
0-B_寸法
  6
Continuous
 62
   120
370
     5
100
AcDbLine
 10
-3113.717896424579
 20
-2622.000403945505
 30
0.0
 11
-3233.717896424579
 21
-2622.000403945505
 31
0.0
  0
LINE
  5
3B9
330
1F
100
AcDbEntity
  8
0-0_補助線
  6
JWW_HOJO
 62
   120
370
     5
100
AcDbLine
 10
-2906.717896424569
 20
-1467.000300948678
 30
0.0
 11
-4088.717896424567
 21
-1467.000300948677
 31
0.0
  0
LINE
  5
3BA
330
1F
100
AcDbEntity
  8
0-0_補助線
  6
JWW_HOJO
 62
   120
370
     5
100
AcDbLine
 10
-2906.71789642457
 20
-1587.000300948678
 30
0.0
 11
-4088.717896424567
 21
-1587.000300948677
 31
0.0
  0
LINE
  5
3BB
330
1F
100
AcDbEntity
  8
0-B_寸法
  6
Continuous
 62
   120
370
     5
100
AcDbLine
 10
-3688.21789642459
 20
-2781.000403945505
 30
0.0
 11
-3568.21789642459
 21
-2781.000403945505
 31
0.0
  0
LWPOLYLINE
  5
3BC
330
1F
100
AcDbEntity
  8
0-B_寸法
  6
Continuous
 62
     7
370
     5
100
AcDbPolyline
 90
        4
 70
     1
 43
3.0
 10
-3686.71789642459
 20
-2781.000403945505
 42
0.4142135623731
 10
-3688.21789642459
 20
-2779.500403945505
 42
0.4142135623731
 10
-3689.71789642459
 20
-2781.000403945505
 42
0.4142135623731
 10
-3688.21789642459
 20
-2782.500403945505
 42
0.4142135623731
  0
LINE
  5
3BD
330
1F
100
AcDbEntity
  8
0-C_ハッチ
  6
Continuous
 62
   120
370
     5
100
AcDbLine
 10
-3389.755570433157
 20
-2780.755824531719
 30
0.0
 11
-3374.957898897962
 21
-2765.958152996521
 31
0.0
  0
LINE
  5
3BE
330
1F
100
AcDbEntity
  8
0-C_ハッチ
  6
Continuous
 62
   120
370
     5
100
AcDbLine
 10
-3415.455993969691
 20
-2781.000403945494
 30
0.0
 11
-3397.456591056967
 21
-2763.001001032774
 31
0.0
  0
LINE
  5
3BF
330
1F
100
AcDbEntity
  8
0-C_ハッチ
  6
Continuous
 62
   120
370
     5
100
AcDbLine
 10
-3392.717896424584
 20
-2758.262306400387
 30
0.0
 11
-3374.71789642457
 21
-2740.262306400377
 31
0.0
  0
LINE
  5
3C0
330
1F
100
AcDbEntity
  8
0-C_ハッチ
  6
Continuous
 62
   120
370
     5
100
AcDbLine
 10
-3440.911838092393
 20
-2781.000403945503
 30
0.0
 11
-3422.912435179679
 21
-2763.001001032784
 31
0.0
  0
LINE
  5
3C1
330
1F
100
AcDbEntity
  8
0-C_ハッチ
  6
Continuous
 62
   120
370
     5
100
AcDbLine
 10
-3392.717896424574
 20
-2732.806462277682
 30
0.0
 11
-3374.717896424567
 21
-2714.806462277676
 31
0.0
  0
LINE
  5
3C2
330
1F
100
AcDbEntity
  8
0-C_ハッチ
  6
Continuous
 62
   120
370
     5
100
AcDbLine
 10
-3466.367682215095
 20
-2781.000403945507
 30
0.0
 11
-3448.368279302385
 21
-2763.001001032795
 31
0.0
  0
LINE
  5
3C3
330
1F
100
AcDbEntity
  8
0-C_ハッチ
  6
Continuous
 62
   120
370
     5
100
AcDbLine
 10
-3392.717896424564
 20
-2707.350618154975
 30
0.0
 11
-3374.71789642456
 21
-2689.35061815497
 31
0.0
  0
LINE
  5
3C4
330
1F
100
AcDbEntity
  8
0-C_ハッチ
  6
Continuous
 62
   120
370
     5
100
AcDbLine
 10
-3392.71789642457
 20
-2681.894774032231
 30
0.0
 11
-3374.717896424563
 21
-2663.894774032221
 31
0.0
  0
LINE
  5
3C5
330
1F
100
AcDbEntity
  8
0-C_ハッチ
  6
Continuous
 62
   120
370
     5
100
AcDbLine
 10
-3482.717896424579
 20
-2771.894774032236
 30
0.0
 11
-3473.82412342512
 21
-2763.001001032777
 31
0.0
  0
LINE
  5
3C6
330
1F
100
AcDbEntity
  8
0-7_金物
  6
Continuous
 62
     7
370
     5
100
AcDbLine
 10
-3403.217896424578
 20
-2730.000403945505
 30
0.0
 11
-3403.217896424578
 21
-2622.000403945505
 31
0.0
  0
LINE
  5
3C7
330
1F
100
AcDbEntity
  8
0-7_金物
  6
Continuous
 62
     7
370
     5
100
AcDbLine
 10
-3421.217896424579
 20
-2730.000403945505
 30
0.0
 11
-3403.217896424578
 21
-2730.000403945505
 31
0.0
  0
LINE
  5
3C8
330
1F
100
AcDbEntity
  8
0-7_金物
  6
Continuous
 62
     7
370
     5
100
AcDbLine
 10
-3421.217896424579
 20
-2736.000403945504
 30
0.0
 11
-3421.217896424579
 21
-2730.000403945505
 31
0.0
  0
LINE
  5
3C9
330
1F
100
AcDbEntity
  8
0-7_金物
  6
Continuous
 62
     7
370
     5
100
AcDbLine
 10
-3397.217896424577
 20
-2736.000403945504
 30
0.0
 11
-3397.217896424577
 21
-2628.000403945505
 31
0.0
  0
LINE
  5
3CA
330
1F
100
AcDbEntity
  8
0-7_金物
  6
Continuous
 62
     7
370
     5
100
AcDbLine
 10
-3397.217896424577
 20
-2736.000403945504
 30
0.0
 11
-3421.217896424579
 21
-2736.000403945504
 31
0.0
  0
LINE
  5
3CB
330
1F
100
AcDbEntity
  8
0-7_金物
  6
Continuous
 62
     7
370
     5
100
AcDbLine
 10
-3364.217896424578
 20
-2622.000403945505
 30
0.0
 11
-3364.217896424578
 21
-2730.000403945505
 31
0.0
  0
LINE
  5
3CC
330
1F
100
AcDbEntity
  8
0-7_金物
  6
Continuous
 62
     7
370
     5
100
AcDbLine
 10
-3370.217896424579
 20
-2628.000403945505
 30
0.0
 11
-3370.217896424579
 21
-2736.000403945504
 31
0.0
  0
LINE
  5
3CD
330
1F
100
AcDbEntity
  8
0-7_金物
  6
Continuous
 62
     7
370
     5
100
AcDbLine
 10
-3403.217896424578
 20
-2622.000403945505
 30
0.0
 11
-3364.217896424578
 21
-2622.000403945505
 31
0.0
  0
LINE
  5
3CE
330
1F
100
AcDbEntity
  8
0-7_金物
  6
Continuous
 62
     7
370
     5
100
AcDbLine
 10
-3370.217896424579
 20
-2628.000403945505
 30
0.0
 11
-3397.217896424577
 21
-2628.000403945505
 31
0.0
  0
LINE
  5
3CF
330
1F
100
AcDbEntity
  8
0-7_金物
  6
Continuous
 62
     7
370
     5
100
AcDbLine
 10
-3370.217896424579
 20
-2736.000403945504
 30
0.0
 11
-3346.217896424579
 21
-2736.000403945504
 31
0.0
  0
LINE
  5
3D0
330
1F
100
AcDbEntity
  8
0-7_金物
  6
Continuous
 62
     7
370
     5
100
AcDbLine
 10
-3346.217896424579
 20
-2730.000403945505
 30
0.0
 11
-3346.217896424579
 21
-2736.000403945504
 31
0.0
  0
LINE
  5
3D1
330
1F
100
AcDbEntity
  8
0-7_金物
  6
Continuous
 62
     7
370
     5
100
AcDbLine
 10
-3364.217896424578
 20
-2730.000403945505
 30
0.0
 11
-3346.217896424579
 21
-2730.000403945505
 31
0.0
  0
LINE
  5
3D2
330
1F
100
AcDbEntity
  8
0-7_金物
  6
Continuous
 62
    92
370
     5
100
AcDbLine
 10
-3482.717896424579
 20
-2763.000403945504
 30
0.0
 11
-3482.717896424579
 21
-2781.000403945504
 31
0.0
  0
LINE
  5
3D3
330
1F
100
AcDbEntity
  8
0-7_金物
  6
Continuous
 62
    92
370
     5
100
AcDbLine
 10
-3482.717896424579
 20
-2763.000403945504
 30
0.0
 11
-3392.71789642457
 21
-2763.000403945504
 31
0.0
  0
LINE
  5
3D4
330
1F
100
AcDbEntity
  8
0-7_金物
  6
Continuous
 62
    92
370
     5
100
AcDbLine
 10
-3392.71789642457
 20
-2661.000403945504
 30
0.0
 11
-3374.71789642457
 21
-2661.000403945504
 31
0.0
  0
LINE
  5
3D5
330
1F
100
AcDbEntity
  8
0-7_金物
  6
Continuous
 62
    92
370
     5
100
AcDbLine
 10
-3392.71789642457
 20
-2661.000403945504
 30
0.0
 11
-3392.71789642457
 21
-2763.000403945504
 31
0.0
  0
LINE
  5
3D6
330
1F
100
AcDbEntity
  8
0-7_金物
  6
Continuous
 62
    92
370
     5
100
AcDbLine
 10
-3392.71789642457
 20
-2781.000403945504
 30
0.0
 11
-3482.717896424579
 21
-2781.000403945504
 31
0.0
  0
LINE
  5
3D7
330
1F
100
AcDbEntity
  8
0-7_金物
  6
Continuous
 62
    92
370
     5
100
AcDbLine
 10
-3374.71789642457
 20
-2763.000403945504
 30
0.0
 11
-3374.71789642457
 21
-2661.000403945504
 31
0.0
  0
ARC
  5
3D8
330
1F
100
AcDbEntity
  8
0-7_金物
  6
Continuous
 62
    92
370
     5
100
AcDbCircle
 10
-3392.71789642457
 20
-2763.000403945504
 30
0.0
 40
18.0
100
AcDbArc
 50
270.0
 51
0.0
  0
LINE
  5
3D9
330
1F
100
AcDbEntity
  8
0-6_扉
  6
Continuous
 62
   200
370
     5
100
AcDbLine
 10
-3364.217896424578
 20
-2622.000403945505
 30
0.0
 11
-3364.217896424578
 21
-2730.000403945505
 31
0.0
  0
LINE
  5
3DA
330
1F
100
AcDbEntity
  8
0-6_扉
  6
Continuous
 62
   200
370
     5
100
AcDbLine
 10
-3403.21789642458
 20
-2622.000403945505
 30
0.0
 11
-3403.21789642458
 21
-2730.000403945505
 31
0.0
  0
LINE
  5
3DB
330
1F
100
AcDbEntity
  8
0-6_扉
  6
Continuous
 62
   200
370
     5
100
AcDbLine
 10
-3364.217896424578
 20
-2622.000403945505
 30
0.0
 11
-3403.21789642458
 21
-2622.000403945505
 31
0.0
  0
LINE
  5
3DC
330
1F
100
AcDbEntity
  8
0-6_扉
  6
Continuous
 62
   200
370
     5
100
AcDbLine
 10
-3403.21789642458
 20
-2730.000403945505
 30
0.0
 11
-3473.717896424579
 21
-2730.000403945505
 31
0.0
  0
LINE
  5
3DD
330
1F
100
AcDbEntity
  8
0-6_扉
  6
Continuous
 62
   200
370
     5
100
AcDbLine
 10
-3293.717896424579
 20
-2730.000403945505
 30
0.0
 11
-3364.217896424578
 21
-2730.000403945505
 31
0.0
  0
LWPOLYLINE
  5
3DE
330
1F
100
AcDbEntity
  8
0-B_寸法
  6
Continuous
 62
     7
370
     5
100
AcDbPolyline
 90
        4
 70
     1
 43
3.0
 10
-3368.717896424569
 20
-2532.000403945505
 42
0.4142135623731
 10
-3370.217896424569
 20
-2530.500403945505
 42
0.4142135623731
 10
-3371.717896424569
 20
-2532.000403945505
 42
0.4142135623731
 10
-3370.217896424569
 20
-2533.500403945505
 42
0.4142135623731
  0
LINE
  5
3DF
330
1F
100
AcDbEntity
  8
0-B_寸法
  6
Continuous
 62
   120
370
     5
100
AcDbLine
 10
-3370.217896424569
 20
-2532.000403945504
 30
0.0
 11
-3370.217896424569
 21
-2592.000403945504
 31
0.0
  0
LWPOLYLINE
  5
3E0
330
1F
100
AcDbEntity
  8
0-B_寸法
  6
Continuous
 62
     7
370
     5
100
AcDbPolyline
 90
        4
 70
     1
 43
3.0
 10
-3395.717896424568
 20
-2532.000403945505
 42
0.4142135623731
 10
-3397.217896424568
 20
-2530.500403945505
 42
0.4142135623731
 10
-3398.717896424568
 20
-2532.000403945505
 42
0.4142135623731
 10
-3397.217896424568
 20
-2533.500403945505
 42
0.4142135623731
  0
LINE
  5
3E1
330
1F
100
AcDbEntity
  8
0-B_寸法
  6
Continuous
 62
   120
370
     5
100
AcDbLine
 10
-3397.217896424568
 20
-2532.000403945504
 30
0.0
 11
-3397.217896424568
 21
-2592.000403945504
 31
0.0
  0
LINE
  5
3E2
330
1F
100
AcDbEntity
  8
0-B_寸法
  6
Continuous
 62
   120
370
     5
100
AcDbLine
 10
-3397.217896424568
 20
-2532.000403945504
 30
0.0
 11
-3370.217896424569
 21
-2532.000403945504
 31
0.0
  0
LINE
  5
3E3
330
1F
100
AcDbEntity
  8
0-B_寸法
  6
Continuous
 62
   120
370
     5
100
AcDbLine
 10
-3688.21789642459
 20
-2661.000403945505
 30
0.0
 11
-3568.21789642459
 21
-2661.000403945505
 31
0.0
  0
LWPOLYLINE
  5
3E4
330
1F
100
AcDbEntity
  8
0-B_寸法
  6
Continuous
 62
     7
370
     5
100
AcDbPolyline
 90
        4
 70
     1
 43
3.0
 10
-3686.71789642459
 20
-2661.000403945505
 42
0.4142135623731
 10
-3688.21789642459
 20
-2659.500403945505
 42
0.4142135623731
 10
-3689.71789642459
 20
-2661.000403945505
 42
0.4142135623731
 10
-3688.21789642459
 20
-2662.500403945505
 42
0.4142135623731
  0
LINE
  5
3E5
330
1F
100
AcDbEntity
  8
0-B_寸法
  6
Continuous
 62
   120
370
     5
100
AcDbLine
 10
-3688.21789642459
 20
-2781.000403945505
 30
0.0
 11
-3688.21789642459
 21
-2661.000403945505
 31
0.0
  0
LINE
  5
3E6
330
1F
100
AcDbEntity
  8
0-0_補助線
  6
JWW_HOJO
 62
   120
370
     5
100
AcDbLine
 10
-4247.717896424571
 20
194.9998020481422
 30
0.0
 11
-4247.717896424572
 21
-2853.00019767298
 31
0.0
  0
LINE
  5
3E7
330
1F
100
AcDbEntity
  8
0-0_補助線
  6
JWW_HOJO
 62
   120
370
     5
100
AcDbLine
 10
-1958.71789642457
 20
194.9998020481414
 30
0.0
 11
-1958.71789642457
 21
-2853.000197672981
 31
0.0
  0
LINE
  5
3E8
330
1F
100
AcDbEntity
  8
0-C_ハッチ
  6
JWW_DASHED1
 62
   120
370
     5
100
AcDbLine
 10
-3121.025371018066
 20
194.9998020481414
 30
0.0
 11
-3182.717896424561
 21
133.307276641643
 31
0.0
  0
LINE
  5
3E9
330
1F
100
AcDbEntity
  8
0-C_ハッチ
  6
JWW_DASHED1
 62
   120
370
     5
100
AcDbLine
 10
-3826.025371018066
 20
194.9998020481414
 30
0.0
 11
-3887.717896424561
 21
133.307276641643
 31
0.0
  0
LINE
  5
3EA
330
1F
100
AcDbEntity
  8
0-0_補助線
  6
JWW_HOJO
 62
   120
370
     5
100
AcDbLine
 10
-2168.71789642457
 20
194.9998020481414
 30
0.0
 11
-2168.71789642457
 21
-2853.000197672981
 31
0.0
  0
LINE
  5
3EB
330
1F
100
AcDbEntity
  8
0-0_補助線
  6
JWW_HOJO
 62
   120
370
     5
100
AcDbLine
 10
-2378.71789642457
 20
194.9998020481414
 30
0.0
 11
-2378.71789642457
 21
-2853.000197672981
 31
0.0
  0
LINE
  5
3EC
330
1F
100
AcDbEntity
  8
0-0_補助線
  6
JWW_HOJO
 62
   120
370
     5
100
AcDbLine
 10
-2588.71789642457
 20
194.9998020481414
 30
0.0
 11
-2588.71789642457
 21
-2853.000197672981
 31
0.0
  0
LINE
  5
3ED
330
1F
100
AcDbEntity
  8
0-C_ハッチ
  6
JWW_DASHED1
 62
   120
370
     5
100
AcDbLine
 10
-3163.451777889265
 20
194.9998020481414
 30
0.0
 11
-3182.717896424561
 21
175.733683512843
 31
0.0
  0
LINE
  5
3EE
330
1F
100
AcDbEntity
  8
0-C_ハッチ
  6
JWW_DASHED1
 62
   120
370
     5
100
AcDbLine
 10
-3868.451777889265
 20
194.9998020481414
 30
0.0
 11
-3887.717896424561
 21
175.733683512843
 31
0.0
  0
LINE
  5
3EF
330
1F
100
AcDbEntity
  8
0-0_補助線
  6
JWW_HOJO
 62
   120
370
     5
100
AcDbLine
 10
-3611.717896424575
 20
194.9998020481414
 30
0.0
 11
-3611.717896424576
 21
-2853.000197672981
 31
0.0
  0
LINE
  5
3F0
330
1F
100
AcDbEntity
  8
0-0_補助線
  6
JWW_HOJO
 62
   120
370
     5
100
AcDbLine
 10
-2798.71789642457
 20
194.9998020481414
 30
0.0
 11
-2798.71789642457
 21
-2853.000197672981
 31
0.0
  0
LINE
  5
3F1
330
1F
100
AcDbEntity
  8
0-3_仕上げ
  6
Continuous
 62
    40
370
     5
100
AcDbLine
 10
-3887.71789642457
 20
194.9998020481414
 30
0.0
 11
-3887.71789642457
 21
-153.0001979518559
 31
0.0
  0
LINE
  5
3F2
330
1F
100
AcDbEntity
  8
0-3_仕上げ
  6
Continuous
 62
    40
370
     5
100
AcDbLine
 10
-3812.71789642457
 20
194.9998020481414
 30
0.0
 11
-3812.71789642457
 21
-153.0001979518559
 31
0.0
  0
LINE
  5
3F3
330
1F
100
AcDbEntity
  8
0-3_仕上げ
  6
Continuous
 62
    40
370
     5
100
AcDbLine
 10
-3182.71789642457
 20
194.9998020481414
 30
0.0
 11
-3182.71789642457
 21
-153.0001979518559
 31
0.0
  0
LINE
  5
3F4
330
1F
100
AcDbEntity
  8
0-3_仕上げ
  6
Continuous
 62
    40
370
     5
100
AcDbLine
 10
-3107.71789642457
 20
194.9998020481414
 30
0.0
 11
-3107.71789642457
 21
-153.0001979518559
 31
0.0
  0
LINE
  5
3F5
330
1F
100
AcDbEntity
  8
0-0_補助線
  6
JWW_HOJO
 62
   120
370
     5
100
AcDbLine
 10
-4247.717896424571
 20
194.9998020481422
 30
0.0
 11
-1958.71789642457
 21
194.9998020481414
 31
0.0
  0
MTEXT
  5
3F6
330
1F
100
AcDbEntity
  8
0-B_寸法
  6
Continuous
 62
     7
370
   211
100
AcDbMText
 10
-2183.71789642457
 20
-317.280197951855
 30
0.0
 40
91.44
 41
120.0
 46
0.0
 71
     7
 72
     1
  1
{\fＭＳ ゴシック|b0|i0|c128|p49;30}
 11
6.123031769111886E-17
 21
1.0
 31
0.0
 73
     1
 44
1.0
  0
MTEXT
  5
3F7
330
1F
100
AcDbEntity
  8
0-B_寸法
  6
Continuous
 62
     7
370
   211
100
AcDbMText
 10
-2603.71789642457
 20
-626.2801979518529
 30
0.0
 40
91.44
 41
180.0
 46
0.0
 71
     7
 72
     1
  1
{\fＭＳ ゴシック|b0|i0|c128|p49;6.3}
 11
6.123031769111886E-17
 21
1.0
 31
0.0
 73
     1
 44
1.0
  0
MTEXT
  5
3F8
330
1F
100
AcDbEntity
  8
0-B_寸法
  6
Continuous
 62
     7
370
     0
100
AcDbMText
 10
-2390.717896424571
 20
-686.2801979518545
 30
0.0
 40
91.44
 41
240.0
 46
0.0
 71
     7
 72
     1
  1
{\fＭＳ ゴシック|b0|i0|c128|p49;13.5}
 11
6.123031769111886E-17
 21
1.0
 31
0.0
 73
     1
 44
1.0
  0
MTEXT
  5
3F9
330
1F
100
AcDbEntity
  8
0-B_寸法
  6
Continuous
 62
     7
370
   211
100
AcDbMText
 10
-3443.717896424577
 20
-1118.280324800429
 30
0.0
 40
91.44
 41
120.0
 46
0.0
 71
     7
 72
     1
  1
{\fＭＳ ゴシック|b0|i0|c128|p49;30}
 73
     1
 44
1.0
  0
MTEXT
  5
3FA
330
1F
100
AcDbEntity
  8
0-B_寸法
  6
Continuous
 62
     7
370
   211
100
AcDbMText
 10
-3461.71789642457
 20
-2523.900403945504
 30
0.0
 40
76.19999999999999
 41
150.0
 46
0.0
 71
     7
 72
     1
  1
{\fＭＳ ゴシック|b0|i0|c128|p49;4.5}
 73
     1
 44
1.0
  0
MTEXT
  5
3FB
330
1F
100
AcDbEntity
  8
0-B_寸法
  6
Continuous
 62
     7
370
     0
100
AcDbMText
 10
-2390.717896424571
 20
-2726.280609939157
 30
0.0
 40
91.44
 41
180.0
 46
0.0
 71
     7
 72
     1
  1
{\fＭＳ ゴシック|b0|i0|c128|p49;8.5}
 11
6.123031769111886E-17
 21
1.0
 31
0.0
 73
     1
 44
1.0
  0
MTEXT
  5
3FC
330
1F
100
AcDbEntity
  8
0-B_寸法
  6
Continuous
 62
     7
370
   211
100
AcDbMText
 10
-3128.717896424579
 20
-2750.280403945505
 30
0.0
 40
91.44
 41
120.0
 46
0.0
 71
     7
 72
     1
  1
{\fＭＳ ゴシック|b0|i0|c128|p49;18}
 11
6.123031769111886E-17
 21
1.0
 31
0.0
 73
     1
 44
1.0
  0
MTEXT
  5
3FD
330
1F
100
AcDbEntity
  8
0-B_寸法
  6
Continuous
 62
     7
370
   211
100
AcDbMText
 10
-1973.71789642457
 20
-2774.422903945504
 30
0.0
 40
97.15499999999999
 41
127.5
 46
0.0
 71
     7
 72
     1
  1
{\fＭＳ ゴシック|b0|i0|c128|p49;12}
 11
6.123031769111886E-17
 21
1.0
 31
0.0
 73
     1
 44
1.0
  0
LINE
  5
3FE
330
1F
100
AcDbEntity
  8
0-B_寸法
  6
Continuous
 62
   120
370
     5
100
AcDbLine
 10
-2378.71789642457
 20
-333.0001979518559
 30
0.0
 11
-2378.71789642457
 21
-2781.000609939156
 31
0.0
  0
MTEXT
  5
3FF
330
1F
100
AcDbEntity
  8
0-B_寸法
  6
Continuous
 62
     7
370
   211
100
AcDbMText
 10
-3703.21789642459
 20
-2784.520740899819
 30
0.0
 40
91.44
 41
120.0
 46
0.0
 71
     7
 72
     1
  1
{\fＭＳ ゴシック|b0|i0|c128|p49;20}
 11
6.123031769111886E-17
 21
1.0
 31
0.0
 73
     1
 44
1.0
  0
MTEXT
  5
400
330
1F
100
AcDbEntity
  8
0-A_文字
  6
Continuous
 62
     7
370
     0
100
AcDbMText
 10
-3063.083624603929
 20
-3255.294428852343
 30
0.0
 40
78.97090909090909
 41
1140.0
 46
0.0
 71
     7
 72
     1
  1
{\fＭＳ ゴシック|b0|i0|c128|p49;※(　)内寸法はハイドア}
 73
     1
 44
1.0
  0
MTEXT
  5
401
330
1F
100
AcDbEntity
  8
0-B_寸法
  6
Continuous
 62
     7
370
     0
100
AcDbMText
 10
-2393.71789642457
 20
-2096.280506942329
 30
0.0
 40
91.43999999999996
 41
1140.0
 46
0.0
 71
     7
 72
     1
  1
{\fＭＳ ゴシック|b0|i0|c128|p49;ＤＨ＝1,983 (2,183)}
 11
6.123031769111886E-17
 21
1.0
 31
0.0
 73
     1
 44
1.0
  0
MTEXT
  5
402
330
1F
100
AcDbEntity
  8
0-B_寸法
  6
Continuous
 62
     7
370
   211
100
AcDbMText
 10
-2183.71789642457
 20
-2096.280506942329
 30
0.0
 40
91.43999999999996
 41
1140.0
 46
0.0
 71
     7
 72
     1
  1
{\fＭＳ ゴシック|b0|i0|c128|p49;枠内＝2,005 (2,205)}
 11
6.123031769111886E-17
 21
1.0
 31
0.0
 73
     1
 44
1.0
  0
MTEXT
  5
403
330
1F
100
AcDbEntity
  8
0-B_寸法
  6
Continuous
 62
     7
370
   211
100
AcDbMText
 10
-1973.71789642457
 20
-2173.366090422363
 30
0.0
 40
102.2684210526315
 41
1275.0
 46
0.0
 71
     7
 72
     1
  1
{\fＭＳ ゴシック|b0|i0|c128|p49;枠外＝2,035 (2,235)}
 11
6.123031769111886E-17
 21
1.0
 31
0.0
 73
     1
 44
1.0
  0
LINE
  5
404
330
1F
100
AcDbEntity
  8
F-0_補助線
  6
JWW_HOJO
 62
     7
370
     5
100
AcDbLine
 10
1109.918584083287
 20
-3795.000003092998
 30
0.0
 11
1109.918584083287
 21
-4195.000008247994
 31
0.0
  0
LINE
  5
405
330
1F
100
AcDbEntity
  8
F-0_補助線
  6
JWW_HOJO
 62
     7
370
     5
100
AcDbLine
 10
4889.917891251784
 20
-3795.000003092998
 30
0.0
 11
4889.917891251784
 21
-4195.000008247994
 31
0.0
  0
MTEXT
  5
406
330
1F
100
AcDbEntity
  8
F-0_補助線
  6
Continuous
 62
     7
370
     0
100
AcDbMText
 10
1109.918584083287
 20
-3945.948259655243
 30
0.0
 40
78.105
 41
615.0
 46
0.0
 71
     7
 72
     1
  1
{\fＭＳ ゴシック|b0|i0|c128|p49;建具納まり図}
 73
     1
 44
1.0
  0
MTEXT
  5
407
330
1F
100
AcDbEntity
  8
F-0_補助線
  6
Continuous
 62
     7
370
     0
100
AcDbMText
 10
509.9185840832865
 20
-3945.709576962234
 30
0.0
 40
78.58125
 41
412.5
 46
0.0
 71
     7
 72
     1
  1
{\fＭＳ ゴシック|b0|i0|c128|p49;DOORETUS}
 73
     1
 44
1.0
  0
LINE
  5
408
330
1F
100
AcDbEntity
  8
0-A_文字
  6
Continuous
 62
   120
370
     5
100
AcDbLine
 10
3098.95245174208
 20
-2721.043923200712
 30
0.0
 11
3866.878660338179
 21
-2721.043923200712
 31
0.0
  0
LINE
  5
409
330
1F
100
AcDbEntity
  8
0-A_文字
  6
Continuous
 62
   120
370
     5
100
AcDbLine
 10
2971.609135047683
 20
-2909.246932575984
 30
0.0
 11
3098.95245174208
 21
-2721.043923200712
 31
0.0
  0
LINE
  5
40A
330
1F
100
AcDbEntity
  8
0-6_扉
  6
Continuous
 62
     7
370
     5
100
AcDbLine
 10
2415.921017697702
 20
-948.4288827037401
 30
0.0
 11
2621.681932544132
 21
-1067.225002279029
 31
0.0
  0
LINE
  5
40B
330
1F
100
AcDbEntity
  8
0-6_扉
  6
Continuous
 62
     7
370
     5
100
AcDbLine
 10
2843.913365793519
 20
-1195.530380087959
 30
0.0
 11
2934.005789326183
 21
-1247.545265066488
 31
0.0
  0
LINE
  5
40C
330
1F
100
AcDbEntity
  8
0-6_扉
  6
Continuous
 62
    40
370
     5
100
AcDbLine
 10
3139.725190018363
 20
-576.628247056304
 30
0.0
 11
3139.725190018363
 21
-1251.360703393873
 31
0.0
  0
LINE
  5
40D
330
1F
100
AcDbEntity
  8
0-6_扉
  6
Continuous
 62
    40
370
     5
100
AcDbLine
 10
3166.241694312858
 20
-576.628247056304
 30
0.0
 11
3166.241694312858
 21
-1442.863970895612
 31
0.0
  0
LINE
  5
40E
330
1F
100
AcDbEntity
  8
0-6_扉
  6
Continuous
 62
    40
370
     5
100
AcDbLine
 10
3267.004410631939
 20
-576.628247056304
 30
0.0
 11
3267.004410631939
 21
-1531.657974071501
 31
0.0
  0
LINE
  5
40F
330
1F
100
AcDbEntity
  8
0-6_扉
  6
Continuous
 62
    40
370
     5
100
AcDbLine
 10
3362.463826092131
 20
-576.628247056304
 30
0.0
 11
3362.463826092131
 21
-1586.771493284127
 31
0.0
  0
LINE
  5
410
330
1F
100
AcDbEntity
  8
0-6_扉
  6
Continuous
 62
    40
370
     5
100
AcDbLine
 10
3935.220318853232
 20
-576.628247056304
 30
0.0
 11
3935.220318853232
 21
-1256.090378008399
 31
0.0
  0
LINE
  5
411
330
1F
100
AcDbEntity
  8
0-6_扉
  6
Continuous
 62
    40
370
     5
100
AcDbLine
 10
3044.265774558184
 20
-576.628247056304
 30
0.0
 11
3044.265774558184
 21
-1403.059762575389
 31
0.0
  0
LINE
  5
412
330
1F
100
AcDbEntity
  8
0-6_扉
  6
Continuous
 62
    40
370
     5
100
AcDbLine
 10
3139.725190018363
 20
-1458.173281788007
 30
0.0
 11
3135.598976738372
 21
-1455.79101144007
 31
0.0
  0
LINE
  5
413
330
1F
100
AcDbEntity
  8
0-6_扉
  6
Continuous
 62
    40
370
     5
100
AcDbLine
 10
3131.252012868791
 20
-1453.281290679811
 30
0.0
 11
3044.265774558184
 21
-1403.059762575389
 31
0.0
  0
LINE
  5
414
330
1F
100
AcDbEntity
  8
0-6_扉
  6
Continuous
 62
    40
370
     5
100
AcDbLine
 10
3139.725190018363
 20
-1398.766631000495
 30
0.0
 11
3139.725190018363
 21
-1458.173281788007
 31
0.0
  0
LINE
  5
415
330
1F
100
AcDbEntity
  8
0-6_扉
  6
Continuous
 62
     7
370
     5
100
AcDbLine
 10
2950.541337461528
 20
-1257.092068233628
 30
0.0
 11
3044.265774558184
 21
-1311.203897221028
 31
0.0
  0
LINE
  5
416
330
1F
100
AcDbEntity
  8
0-B_寸法
  6
JWW_CENTER1
 62
   120
370
     5
100
AcDbLine
 10
3276.697751472129
 20
-1636.288559553321
 30
0.0
 11
3453.078843345234
 21
-1738.122230426218
 31
0.0
  0
LINE
  5
417
330
1F
100
AcDbEntity
  8
0-B_寸法
  6
JWW_CENTER1
 62
   120
370
     5
100
AcDbLine
 10
3229.881316604419
 20
-1479.60632395677
 30
0.0
 11
2818.455429603004
 21
-1717.143170568618
 31
0.0
  0
LINE
  5
418
330
1F
100
AcDbEntity
  8
0-B_寸法
  6
Continuous
 62
   120
370
     5
100
AcDbLine
 10
2705.75154976515
 20
-1782.212772092895
 30
0.0
 11
2805.613527223934
 21
-1724.557432525259
 31
0.0
  0
LWPOLYLINE
  5
419
330
1F
100
AcDbEntity
  8
0-B_寸法
  6
Continuous
 62
     7
370
     5
100
AcDbPolyline
 90
        4
 70
     1
 43
3.0
 10
2707.25154976515
 20
-1782.212772092895
 42
0.4142135623731
 10
2705.75154976515
 20
-1780.712772092895
 42
0.4142135623731
 10
2704.25154976515
 20
-1782.212772092895
 42
0.4142135623731
 10
2705.75154976515
 20
-1783.712772092895
 42
0.4142135623731
  0
LINE
  5
41A
330
1F
100
AcDbEntity
  8
0-B_寸法
  6
Continuous
 62
   120
370
     5
100
AcDbLine
 10
2705.75154976515
 20
-1782.212772092895
 30
0.0
 11
2864.850644726734
 21
-1874.06867739679
 31
0.0
  0
ELLIPSE
  5
41B
330
1F
100
AcDbEntity
  8
0-7_金物
  6
Continuous
 62
     7
370
     5
100
AcDbEllipse
 10
2895.388906319105
 20
-1350.123066565259
 30
0.0
 11
3.839167031409308
 21
6.442887280167158
 31
0.0
210
0.0
220
0.0
230
0.9999999999999998
 40
0.6634139481689362
 41
6.22960553505472
 42
7.015003698451609
  0
ELLIPSE
  5
41C
330
1F
100
AcDbEntity
  8
0-7_金物
  6
Continuous
 62
     7
370
     5
100
AcDbEllipse
 10
2901.134239642497
 20
-1562.053900465583
 30
0.0
 11
23.03500218845609
 21
38.65732368100281
 31
0.0
210
0.0
220
0.0
230
1.0
 40
0.6634139481689381
 41
2.302614718066926
 42
3.088012881464371
  0
LINE
  5
41D
330
1F
100
AcDbEntity
  8
0-7_金物
  6
Continuous
 62
     7
370
     5
100
AcDbLine
 10
3016.836009386074
 20
-1669.96904351659
 30
0.0
 11
3016.836009386074
 21
-1416.656612909642
 31
0.0
  0
LINE
  5
41E
330
1F
100
AcDbEntity
  8
0-7_金物
  6
Continuous
 62
     7
370
     5
100
AcDbLine
 10
2982.36400944572
 20
-1431.119334127589
 30
0.0
 11
2866.662239702143
 21
-1362.175334246882
 31
0.0
  0
LINE
  5
41F
330
1F
100
AcDbEntity
  8
0-7_金物
  6
Continuous
 62
     7
370
     5
100
AcDbLine
 10
2982.559776931408
 20
-1429.356120904756
 30
0.0
 11
2866.858007187832
 21
-1360.412121024047
 31
0.0
  0
LINE
  5
420
330
1F
100
AcDbEntity
  8
0-7_金物
  6
Continuous
 62
     7
370
     5
100
AcDbLine
 10
2983.133738157845
 20
-1427.548799324173
 30
0.0
 11
2867.431968414269
 21
-1358.604799443464
 31
0.0
  0
LINE
  5
421
330
1F
100
AcDbEntity
  8
0-7_金物
  6
Continuous
 62
     7
370
     5
100
AcDbLine
 10
2984.046778615965
 20
-1425.820535364817
 30
0.0
 11
2868.345008872388
 21
-1356.876535484109
 31
0.0
  0
LINE
  5
422
330
1F
100
AcDbEntity
  8
0-7_金物
  6
Continuous
 62
     7
370
     5
100
AcDbLine
 10
2985.236676107418
 20
-1424.289107359427
 30
0.0
 11
2869.534906363838
 21
-1355.345107478719
 31
0.0
  0
LINE
  5
423
330
1F
100
AcDbEntity
  8
0-7_金物
  6
Continuous
 62
     7
370
     5
100
AcDbLine
 10
2986.622341084556
 20
-1423.058879595767
 30
0.0
 11
2870.920571340979
 21
-1354.114879715059
 31
0.0
  0
LINE
  5
424
330
1F
100
AcDbEntity
  8
0-7_金物
  6
Continuous
 62
     7
370
     5
100
AcDbLine
 10
2988.109342769112
 20
-1422.213690062881
 30
0.0
 11
2872.407573025535
 21
-1353.269690182173
 31
0.0
  0
ELLIPSE
  5
425
330
1F
100
AcDbEntity
  8
0-7_金物
  6
Continuous
 62
     7
370
     5
100
AcDbEllipse
 10
2872.407573025535
 20
-1359.764880710557
 30
0.0
 11
3.839167031409303
 21
6.442887280167151
 31
0.0
210
0.0
220
0.0
230
0.9999999999999999
 40
0.6634139481689377
 41
0.7318183912720223
 42
2.302614718066919
  0
ELLIPSE
  5
426
330
1F
100
AcDbEntity
  8
0-7_金物
  6
Continuous
 62
     7
370
     5
100
AcDbEllipse
 10
2988.109342769112
 20
-1428.708880591265
 30
0.0
 11
3.839167031409386
 21
6.442887280167133
 31
0.0
210
0.0
220
0.0
230
1.0
 40
0.6634139481689393
 41
0.7318183912720424
 42
2.302614718066939
  0
LINE
  5
427
330
1F
100
AcDbEntity
  8
0-7_金物
  6
Continuous
 62
     7
370
     5
100
AcDbLine
 10
2982.36400944572
 20
-1645.460621564238
 30
0.0
 11
2866.662239702143
 21
-1576.51662168353
 31
0.0
  0
LINE
  5
428
330
1F
100
AcDbEntity
  8
0-7_金物
  6
Continuous
 62
     7
370
     5
100
AcDbLine
 10
2982.36400944572
 20
-1431.119334127589
 30
0.0
 11
2982.36400944572
 21
-1645.460621564238
 31
0.0
  0
LINE
  5
429
330
1F
100
AcDbEntity
  8
0-7_金物
  6
Continuous
 62
     7
370
     5
100
AcDbLine
 10
2866.662239702143
 20
-1362.175334246882
 30
0.0
 11
2866.662239702143
 21
-1576.51662168353
 31
0.0
  0
LINE
  5
42A
330
1F
100
AcDbEntity
  8
0-7_金物
  6
Continuous
 62
     7
370
     5
100
AcDbLine
 10
3011.090676062681
 20
-1412.571875917583
 30
0.0
 11
2895.388906319105
 21
-1343.627876036876
 31
0.0
  0
LINE
  5
42B
330
1F
100
AcDbEntity
  8
0-7_金物
  6
Continuous
 62
     7
370
     5
100
AcDbLine
 10
2988.109342769112
 20
-1422.213690062881
 30
0.0
 11
3011.090676062681
 21
-1412.571875917583
 31
0.0
  0
LINE
  5
42C
330
1F
100
AcDbEntity
  8
0-7_金物
  6
Continuous
 62
     7
370
     5
100
AcDbLine
 10
2872.407573025535
 20
-1353.269690182173
 30
0.0
 11
2895.388906319105
 21
-1343.627876036876
 31
0.0
  0
LINE
  5
42D
330
1F
100
AcDbEntity
  8
0-7_金物
  6
Continuous
 62
     7
370
     5
100
AcDbLine
 10
3012.577677747238
 20
-1412.169322885397
 30
0.0
 11
2896.875908003662
 21
-1343.22532300469
 31
0.0
  0
LINE
  5
42E
330
1F
100
AcDbEntity
  8
0-7_金物
  6
Continuous
 62
     7
370
     5
100
AcDbLine
 10
3013.963342724379
 20
-1412.236839677804
 30
0.0
 11
2898.261572980799
 21
-1343.292839797096
 31
0.0
  0
LINE
  5
42F
330
1F
100
AcDbEntity
  8
0-7_金物
  6
Continuous
 62
     7
370
     5
100
AcDbLine
 10
3015.153240215828
 20
-1412.769825136978
 30
0.0
 11
2899.451470472252
 21
-1343.82582525627
 31
0.0
  0
ELLIPSE
  5
430
330
1F
100
AcDbEntity
  8
0-7_金物
  6
Continuous
 62
     7
370
     5
100
AcDbEllipse
 10
3011.090676062681
 20
-1419.067066445966
 30
0.0
 11
3.839167031409386
 21
6.442887280167132
 31
0.0
210
0.0
220
0.0
230
1.0
 40
0.6634139481689387
 41
5.444207371656721
 42
7.015003698451618
  0
LINE
  5
431
330
1F
100
AcDbEntity
  8
0-7_金物
  6
Continuous
 62
     7
370
     5
100
AcDbLine
 10
2992.460624467187
 20
-1668.781348200223
 30
0.0
 11
2876.758854723611
 21
-1599.837348319514
 31
0.0
  0
LINE
  5
432
330
1F
100
AcDbEntity
  8
0-7_金物
  6
Continuous
 62
     7
370
     5
100
AcDbLine
 10
2986.982381718472
 20
-1663.008555914035
 30
0.0
 11
2871.280611974896
 21
-1594.064556033327
 31
0.0
  0
ELLIPSE
  5
433
330
1F
100
AcDbEntity
  8
0-7_金物
  6
Continuous
 62
     7
370
     5
100
AcDbEllipse
 10
3016.836009386074
 20
-1630.997900346291
 30
0.0
 11
23.03500218845613
 21
38.65732368100281
 31
0.0
210
0.0
220
0.0
230
0.9999999999999998
 40
0.6634139481689386
 41
2.302614718066926
 42
3.873411044861822
  0
LINE
  5
434
330
1F
100
AcDbEntity
  8
0-7_金物
  6
Continuous
 62
     7
370
     5
100
AcDbLine
 10
2983.538614359851
 20
-1655.054290351015
 30
0.0
 11
2867.836844616274
 21
-1586.110290470307
 31
0.0
  0
LINE
  5
435
330
1F
100
AcDbEntity
  8
0-7_金物
  6
Continuous
 62
     7
370
     5
100
AcDbLine
 10
3096.38552226956
 20
-1715.896976193775
 30
0.0
 11
3016.836009386074
 21
-1669.96904351659
 31
0.0
  0
ELLIPSE
  5
436
330
1F
100
AcDbEntity
  8
0-7_金物
  6
Continuous
 62
     7
370
     5
100
AcDbEllipse
 10
3117.598725705157
 20
-1654.659732624196
 30
0.0
 11
29.99999999999995
 21
6.661338147750928E-14
 31
0.0
210
0.0
220
0.0
230
1.0
 40
0.5773502691896261
 41
2.356194490192344
 42
2.780225529683081
  0
ELLIPSE
  5
437
330
1F
100
AcDbEntity
  8
0-7_金物
  6
Continuous
 62
     7
370
     5
100
AcDbEllipse
 10
3149.418530858553
 20
-1636.288559553321
 30
0.0
 11
30.00000000000003
 21
7.993605777301137E-14
 31
0.0
210
0.0
220
0.0
230
1.0
 40
0.5773502691896266
 41
0.2617993877991396
 42
2.356194490192344
  0
LINE
  5
438
330
1F
100
AcDbEntity
  8
0-7_金物
  6
Continuous
 62
     7
370
     5
100
AcDbLine
 10
3160.02513257635
 20
-1642.412283910279
 30
0.0
 11
3191.844937729743
 21
-1624.041110839406
 31
0.0
  0
LINE
  5
439
330
1F
100
AcDbEntity
  8
0-7_金物
  6
Continuous
 62
     7
370
     5
100
AcDbLine
 10
3075.172318833963
 20
-1593.422489054616
 30
0.0
 11
3106.99212398736
 21
-1575.051315983743
 31
0.0
  0
LINE
  5
43A
330
1F
100
AcDbEntity
  8
0-7_金物
  6
Continuous
 62
     7
370
     5
100
AcDbLine
 10
3255.484548036533
 20
-1587.298764697658
 30
0.0
 11
3016.836009386074
 21
-1449.514966666105
 31
0.0
  0
LINE
  5
43B
330
1F
100
AcDbEntity
  8
0-7_金物
  6
Continuous
 62
     7
370
     5
100
AcDbLine
 10
2820.613877606807
 20
-1495.442899343289
 30
0.0
 11
2866.662239702143
 21
-1468.856865091805
 31
0.0
  0
ELLIPSE
  5
43C
330
1F
100
AcDbEntity
  8
0-7_金物
  6
Continuous
 62
     7
370
     5
100
AcDbEllipse
 10
2958.499699938184
 20
-1526.061521128079
 30
0.0
 11
60.00000000000006
 21
0.0
 31
0.0
210
0.0
220
0.0
230
1.0
 40
0.5773502691896251
 41
6.047146014440955
 42
6.519224599918218
  0
ELLIPSE
  5
43D
330
1F
100
AcDbEntity
  8
0-7_金物
  6
Continuous
 62
     7
370
     5
100
AcDbEllipse
 10
2958.499699938184
 20
-1489.319174986331
 30
0.0
 11
60.00000000000006
 21
0.0
 31
0.0
210
0.0
220
0.0
230
1.0
 40
0.5773502691896251
 41
6.047146014440955
 42
6.519224599918218
  0
LINE
  5
43E
330
1F
100
AcDbEntity
  8
0-7_金物
  6
Continuous
 62
     7
370
     5
100
AcDbLine
 10
2866.662239702143
 20
-1546.523831022605
 30
0.0
 11
2820.613877606807
 21
-1519.937796771121
 31
0.0
  0
LINE
  5
43F
330
1F
100
AcDbEntity
  8
0-7_金物
  6
Continuous
 62
     7
370
     5
100
AcDbLine
 10
3096.38552226956
 20
-1679.154630052028
 30
0.0
 11
3016.836009386074
 21
-1633.226697374843
 31
0.0
  0
LINE
  5
440
330
1F
100
AcDbEntity
  8
0-7_金物
  6
Continuous
 62
     7
370
     5
100
AcDbLine
 10
2867.284216666792
 20
-1583.625275732322
 30
0.0
 11
2820.613877606807
 21
-1556.680142912869
 31
0.0
  0
ELLIPSE
  5
441
330
1F
100
AcDbEntity
  8
0-7_金物
  6
Continuous
 62
     7
370
     5
100
AcDbEllipse
 10
3234.271344600936
 20
-1636.288559553321
 30
0.0
 11
-30.00000000000001
 21
3.673819061467133E-15
 31
0.0
210
0.0
220
0.0
230
1.0
 40
0.5773502691896252
 41
2.356194490192344
 42
3.141592653589793
  0
ELLIPSE
  5
442
330
1F
100
AcDbEntity
  8
0-7_金物
  6
Continuous
 62
     7
370
     5
100
AcDbEllipse
 10
2841.827081042404
 20
-1544.432694198952
 30
0.0
 11
-30.00000000000001
 21
-1.699649535696902E-14
 31
0.0
210
0.0
220
0.0
230
1.0
 40
0.5773502691896268
 41
0.0
 42
0.7853981633974476
  0
LINE
  5
443
330
1F
100
AcDbEntity
  8
0-7_金物
  6
Continuous
 62
     7
370
     5
100
AcDbLine
 10
3128.205327422957
 20
-1624.041110839406
 30
0.0
 11
3096.38552226956
 21
-1642.412283910279
 31
0.0
  0
ELLIPSE
  5
444
330
1F
100
AcDbEntity
  8
0-7_金物
  6
Continuous
 62
     7
370
     5
100
AcDbEllipse
 10
3117.598725705157
 20
-1617.917386482448
 30
0.0
 11
59.99999999999998
 21
0.0
 31
0.0
210
0.0
220
0.0
230
1.0
 40
0.5773502691896258
 41
2.356194490192344
 42
5.497787143782136
  0
LINE
  5
445
330
1F
100
AcDbEntity
  8
0-7_金物
  6
Continuous
 62
     7
370
     5
100
AcDbLine
 10
3018.499699938184
 20
-1489.319174986331
 30
0.0
 11
3018.499699938184
 21
-1526.061521128079
 31
0.0
  0
ELLIPSE
  5
446
330
1F
100
AcDbEntity
  8
0-7_金物
  6
Continuous
 62
     7
370
     5
100
AcDbEllipse
 10
3149.418530858553
 20
-1599.546213411574
 30
0.0
 11
60.00000000000004
 21
0.0
 31
0.0
210
0.0
220
0.0
230
1.0
 40
0.5773502691896252
 41
5.497787143782138
 42
8.63937979737193
  0
LINE
  5
447
330
1F
100
AcDbEntity
  8
0-7_金物
  6
Continuous
 62
     7
370
     5
100
AcDbLine
 10
3138.811929140753
 20
-1679.154630052028
 30
0.0
 11
3138.811929140753
 21
-1715.896976193775
 31
0.0
  0
LINE
  5
448
330
1F
100
AcDbEntity
  8
0-7_金物
  6
Continuous
 62
     7
370
     5
100
AcDbLine
 10
3255.484548036533
 20
-1611.79366212549
 30
0.0
 11
3255.484548036533
 21
-1648.536008267237
 31
0.0
  0
LINE
  5
449
330
1F
100
AcDbEntity
  8
0-7_金物
  6
Continuous
 62
     7
370
     5
100
AcDbLine
 10
3255.484548036533
 20
-1611.79366212549
 30
0.0
 11
3138.811929140753
 21
-1679.154630052028
 31
0.0
  0
LINE
  5
44A
330
1F
100
AcDbEntity
  8
0-7_金物
  6
Continuous
 62
     7
370
     5
100
AcDbLine
 10
3255.484548036533
 20
-1648.536008267237
 30
0.0
 11
3138.811929140753
 21
-1715.896976193775
 31
0.0
  0
LINE
  5
44B
330
1F
100
AcDbEntity
  8
0-7_金物
  6
Continuous
 62
     7
370
     5
100
AcDbLine
 10
3264.271344600936
 20
-1599.546213411574
 30
0.0
 11
3264.271344600936
 21
-1636.288559553321
 31
0.0
  0
LINE
  5
44C
330
1F
100
AcDbEntity
  8
0-7_金物
  6
Continuous
 62
     7
370
     5
100
AcDbLine
 10
3263.249119389609
 20
-1604.029090772415
 30
0.0
 11
3263.249119389609
 21
-1640.771436914162
 31
0.0
  0
LINE
  5
44D
330
1F
100
AcDbEntity
  8
0-7_金物
  6
Continuous
 62
     7
370
     5
100
AcDbLine
 10
3260.252106714469
 20
-1608.206467449419
 30
0.0
 11
3260.252106714469
 21
-1644.948813591166
 31
0.0
  0
ELLIPSE
  5
44E
330
1F
100
AcDbEntity
  8
0-7_金物
  6
Continuous
 62
     7
370
     5
100
AcDbEllipse
 10
3234.271344600936
 20
-1599.546213411574
 30
0.0
 11
-30.00000000000001
 21
3.673819061467133E-15
 31
0.0
210
0.0
220
0.0
230
1.0
 40
0.5773502691896252
 41
2.356194490192344
 42
3.92699081698724
  0
LINE
  5
44F
330
1F
100
AcDbEntity
  8
0-7_金物
  6
Continuous
 62
     7
370
     5
100
AcDbLine
 10
3132.598725705157
 20
-1681.907181338112
 30
0.0
 11
3132.598725705157
 21
-1718.649527479859
 31
0.0
  0
LINE
  5
450
330
1F
100
AcDbEntity
  8
0-7_金物
  6
Continuous
 62
     7
370
     5
100
AcDbLine
 10
3125.363297058233
 20
-1683.637507412868
 30
0.0
 11
3125.363297058233
 21
-1720.379853554615
 31
0.0
  0
LINE
  5
451
330
1F
100
AcDbEntity
  8
0-7_金物
  6
Continuous
 62
     7
370
     5
100
AcDbLine
 10
3117.598725705157
 20
-1684.227689413801
 30
0.0
 11
3117.598725705157
 21
-1720.970035555548
 31
0.0
  0
LINE
  5
452
330
1F
100
AcDbEntity
  8
0-7_金物
  6
Continuous
 62
     7
370
     5
100
AcDbLine
 10
3109.83415435208
 20
-1683.637507412868
 30
0.0
 11
3109.83415435208
 21
-1720.379853554615
 31
0.0
  0
LINE
  5
453
330
1F
100
AcDbEntity
  8
0-7_金物
  6
Continuous
 62
     7
370
     5
100
AcDbLine
 10
3102.598725705157
 20
-1681.907181338112
 30
0.0
 11
3102.598725705157
 21
-1718.649527479859
 31
0.0
  0
LINE
  5
454
330
1F
100
AcDbEntity
  8
0-7_金物
  6
Continuous
 62
     7
370
     5
100
AcDbLine
 10
3096.38552226956
 20
-1679.154630052028
 30
0.0
 11
3096.38552226956
 21
-1715.896976193775
 31
0.0
  0
ELLIPSE
  5
455
330
1F
100
AcDbEntity
  8
0-7_金物
  6
Continuous
 62
     7
370
     5
100
AcDbEllipse
 10
3117.598725705157
 20
-1703.649527479859
 30
0.0
 11
-29.99999999999994
 21
-4.364184794797269E-14
 31
0.0
210
0.0
220
0.0
230
1.0
 40
0.5773502691896277
 41
0.7853981633974488
 42
2.356194490192345
  0
ELLIPSE
  5
456
330
1F
100
AcDbEntity
  8
0-7_金物
  6
Continuous
 62
     7
370
     5
100
AcDbEllipse
 10
3117.598725705157
 20
-1666.907181338112
 30
0.0
 11
-29.99999999999994
 21
-4.364184794797269E-14
 31
0.0
210
0.0
220
0.0
230
1.0
 40
0.5773502691896277
 41
0.7853981633974482
 42
2.356194490192345
  0
LINE
  5
457
330
1F
100
AcDbEntity
  8
0-7_金物
  6
Continuous
 62
     7
370
     5
100
AcDbLine
 10
2820.613877606807
 20
-1519.937796771121
 30
0.0
 11
2820.613877606807
 21
-1556.680142912869
 31
0.0
  0
LINE
  5
458
330
1F
100
AcDbEntity
  8
0-7_金物
  6
Continuous
 62
     7
370
     5
100
AcDbLine
 10
2815.846318928871
 20
-1516.35060209505
 30
0.0
 11
2815.846318928871
 21
-1553.092948236797
 31
0.0
  0
LINE
  5
459
330
1F
100
AcDbEntity
  8
0-7_金物
  6
Continuous
 62
     7
370
     5
100
AcDbLine
 10
2812.849306253731
 20
-1512.173225418045
 30
0.0
 11
2812.849306253731
 21
-1548.915571559793
 31
0.0
  0
LINE
  5
45A
330
1F
100
AcDbEntity
  8
0-7_金物
  6
Continuous
 62
     7
370
     5
100
AcDbLine
 10
2811.827081042404
 20
-1507.690348057205
 30
0.0
 11
2811.827081042404
 21
-1544.432694198952
 31
0.0
  0
ELLIPSE
  5
45B
330
1F
100
AcDbEntity
  8
0-7_金物
  6
Continuous
 62
     7
370
     5
100
AcDbEllipse
 10
2841.827081042404
 20
-1507.690348057205
 30
0.0
 11
-30.00000000000005
 21
3.673819061467138E-15
 31
0.0
210
0.0
220
0.0
230
1.0
 40
0.5773502691896267
 41
5.497787143782136
 42
7.068583470577034
  0
LINE
  5
45C
330
1F
100
AcDbEntity
  8
0-7_金物
  6
Continuous
 62
     7
370
     5
100
AcDbLine
 10
2943.073267264886
 20
-1369.819041777787
 30
0.0
 11
2955.555572671666
 21
-1181.404568652898
 31
0.0
  0
LINE
  5
45D
330
1F
100
AcDbEntity
  8
0-7_金物
  6
Continuous
 62
     7
370
     5
100
AcDbLine
 10
2942.066587409257
 20
-1369.219184610519
 30
0.0
 11
2929.624022051308
 21
-1181.404568652898
 31
0.0
  0
LINE
  5
45E
330
1F
100
AcDbEntity
  8
0-7_金物
  6
Continuous
 62
     7
370
     5
100
AcDbLine
 10
2939.488123350486
 20
-1151.815109841897
 30
0.0
 11
2939.488123350486
 21
-1142.718854322897
 31
0.0
  0
LINE
  5
45F
330
1F
100
AcDbEntity
  8
0-7_金物
  6
Continuous
 62
     7
370
     5
100
AcDbLine
 10
2939.488123350486
 20
-1167.114713382897
 30
0.0
 11
2939.488123350486
 21
-1158.018457863898
 31
0.0
  0
LINE
  5
460
330
1F
100
AcDbEntity
  8
0-7_金物
  6
Continuous
 62
     7
370
     5
100
AcDbLine
 10
2945.691471372488
 20
-1151.815109841897
 30
0.0
 11
2945.691471372488
 21
-1142.718854322897
 31
0.0
  0
LINE
  5
461
330
1F
100
AcDbEntity
  8
0-7_金物
  6
Continuous
 62
     7
370
     5
100
AcDbLine
 10
2945.691471372488
 20
-1167.114713382897
 30
0.0
 11
2945.691471372488
 21
-1158.018457863898
 31
0.0
  0
LINE
  5
462
330
1F
100
AcDbEntity
  8
0-7_金物
  6
Continuous
 62
     7
370
     5
100
AcDbLine
 10
2945.691471372488
 20
-1158.018457863898
 30
0.0
 11
2965.869394617488
 21
-1158.018457863898
 31
0.0
  0
LINE
  5
463
330
1F
100
AcDbEntity
  8
0-7_金物
  6
Continuous
 62
     7
370
     5
100
AcDbLine
 10
2919.310200104361
 20
-1158.018457863898
 30
0.0
 11
2939.488123350486
 21
-1158.018457863898
 31
0.0
  0
LINE
  5
464
330
1F
100
AcDbEntity
  8
0-7_金物
  6
Continuous
 62
     7
370
     5
100
AcDbLine
 10
2945.691471372488
 20
-1151.815109841897
 30
0.0
 11
2965.869394617488
 21
-1151.815109841897
 31
0.0
  0
LINE
  5
465
330
1F
100
AcDbEntity
  8
0-7_金物
  6
Continuous
 62
     7
370
     5
100
AcDbLine
 10
2919.310200104361
 20
-1151.815109841897
 30
0.0
 11
2939.488123350486
 21
-1151.815109841897
 31
0.0
  0
LINE
  5
466
330
1F
100
AcDbEntity
  8
0-7_金物
  6
Continuous
 62
     7
370
     5
100
AcDbLine
 10
2939.488123350486
 20
-1142.718854322897
 30
0.0
 11
2945.691471372488
 21
-1142.718854322897
 31
0.0
  0
LINE
  5
467
330
1F
100
AcDbEntity
  8
0-7_金物
  6
Continuous
 62
     7
370
     5
100
AcDbLine
 10
2939.488123350486
 20
-1167.114713382897
 30
0.0
 11
2945.691471372488
 21
-1167.114713382897
 31
0.0
  0
LINE
  5
468
330
1F
100
AcDbEntity
  8
0-7_金物
  6
Continuous
 62
     7
370
     5
100
AcDbLine
 10
2965.869394617488
 20
-1158.018457863898
 30
0.0
 11
2965.869394617488
 21
-1151.815109841897
 31
0.0
  0
LINE
  5
469
330
1F
100
AcDbEntity
  8
0-7_金物
  6
Continuous
 62
     7
370
     5
100
AcDbLine
 10
2919.310200104361
 20
-1151.815109841897
 30
0.0
 11
2919.310200104361
 21
-1158.018457863898
 31
0.0
  0
LINE
  5
46A
330
1F
100
AcDbEntity
  8
0-7_金物
  6
Continuous
 62
     7
370
     5
100
AcDbLine
 10
2944.574915992308
 20
-1347.152367267299
 30
0.0
 11
2940.748203975947
 21
-1349.318812694549
 31
0.0
  0
LINE
  5
46B
330
1F
100
AcDbEntity
  8
0-7_金物
  6
Continuous
 62
     7
370
     5
100
AcDbLine
 10
2945.22209075752
 20
-1337.383571485291
 30
0.0
 11
2940.147820327134
 21
-1340.256306596676
 31
0.0
  0
LINE
  5
46C
330
1F
100
AcDbEntity
  8
0-7_金物
  6
Continuous
 62
     7
370
     5
100
AcDbLine
 10
2945.869265522736
 20
-1327.614775703283
 30
0.0
 11
2939.547436678316
 21
-1331.1938004988
 31
0.0
  0
LINE
  5
46D
330
1F
100
AcDbEntity
  8
0-7_金物
  6
Continuous
 62
     7
370
     5
100
AcDbLine
 10
2946.516440287951
 20
-1317.845979921274
 30
0.0
 11
2938.947053029499
 21
-1322.131294400926
 31
0.0
  0
LINE
  5
46E
330
1F
100
AcDbEntity
  8
0-7_金物
  6
Continuous
 62
     7
370
     5
100
AcDbLine
 10
2947.163615053163
 20
-1308.077184139267
 30
0.0
 11
2938.346669380685
 21
-1313.068788303053
 31
0.0
  0
LINE
  5
46F
330
1F
100
AcDbEntity
  8
0-7_金物
  6
Continuous
 62
     7
370
     5
100
AcDbLine
 10
2947.810789818378
 20
-1298.30838835726
 30
0.0
 11
2937.746285731868
 21
-1304.006282205177
 31
0.0
  0
LINE
  5
470
330
1F
100
AcDbEntity
  8
0-7_金物
  6
Continuous
 62
     7
370
     5
100
AcDbLine
 10
2948.45796458359
 20
-1288.539592575252
 30
0.0
 11
2937.14590208305
 21
-1294.943776107303
 31
0.0
  0
LINE
  5
471
330
1F
100
AcDbEntity
  8
0-7_金物
  6
Continuous
 62
     7
370
     5
100
AcDbLine
 10
2949.105139348806
 20
-1278.770796793244
 30
0.0
 11
2936.545518434236
 21
-1285.881270009429
 31
0.0
  0
LINE
  5
472
330
1F
100
AcDbEntity
  8
0-7_金物
  6
Continuous
 62
     7
370
     5
100
AcDbLine
 10
2949.752314114017
 20
-1269.002001011236
 30
0.0
 11
2935.945134785419
 21
-1276.818763911553
 31
0.0
  0
LINE
  5
473
330
1F
100
AcDbEntity
  8
0-7_金物
  6
Continuous
 62
     7
370
     5
100
AcDbLine
 10
2950.399488879233
 20
-1259.233205229229
 30
0.0
 11
2935.344751136605
 21
-1267.75625781368
 31
0.0
  0
LINE
  5
474
330
1F
100
AcDbEntity
  8
0-7_金物
  6
Continuous
 62
     7
370
     5
100
AcDbLine
 10
2951.046663644445
 20
-1249.464409447219
 30
0.0
 11
2934.744367487788
 21
-1258.693751715805
 31
0.0
  0
LINE
  5
475
330
1F
100
AcDbEntity
  8
0-7_金物
  6
Continuous
 62
     7
370
     5
100
AcDbLine
 10
2951.69383840966
 20
-1239.695613665212
 30
0.0
 11
2934.143983838971
 21
-1249.63124561793
 31
0.0
  0
LINE
  5
476
330
1F
100
AcDbEntity
  8
0-7_金物
  6
Continuous
 62
     7
370
     5
100
AcDbLine
 10
2952.341013174876
 20
-1229.926817883205
 30
0.0
 11
2933.543600190156
 21
-1240.568739520056
 31
0.0
  0
LINE
  5
477
330
1F
100
AcDbEntity
  8
0-7_金物
  6
Continuous
 62
     7
370
     5
100
AcDbLine
 10
2952.988187940087
 20
-1220.158022101197
 30
0.0
 11
2932.943216541339
 21
-1231.506233422183
 31
0.0
  0
LINE
  5
478
330
1F
100
AcDbEntity
  8
0-7_金物
  6
Continuous
 62
     7
370
     5
100
AcDbLine
 10
2953.635362705303
 20
-1210.38922631919
 30
0.0
 11
2932.342832892522
 21
-1222.443727324307
 31
0.0
  0
LINE
  5
479
330
1F
100
AcDbEntity
  8
0-7_金物
  6
Continuous
 62
     7
370
     5
100
AcDbLine
 10
2954.282537470515
 20
-1200.62043053718
 30
0.0
 11
2931.742449243708
 21
-1213.381221226432
 31
0.0
  0
LINE
  5
47A
330
1F
100
AcDbEntity
  8
0-7_金物
  6
Continuous
 62
     7
370
     5
100
AcDbLine
 10
2943.927741227093
 20
-1356.921163049307
 30
0.0
 11
2941.348587624765
 21
-1358.381318792424
 31
0.0
  0
LINE
  5
47B
330
1F
100
AcDbEntity
  8
0-7_金物
  6
Continuous
 62
     7
370
     5
100
AcDbLine
 10
2954.92971223573
 20
-1190.851634755174
 30
0.0
 11
2931.14206559489
 21
-1204.318715128558
 31
0.0
  0
LINE
  5
47C
330
1F
100
AcDbEntity
  8
0-7_金物
  6
Continuous
 62
     7
370
     5
100
AcDbLine
 10
2966.500840049305
 20
-1162.446809452397
 30
0.0
 11
2955.555572671666
 21
-1181.404568652898
 31
0.0
  0
LINE
  5
47D
330
1F
100
AcDbEntity
  8
0-7_金物
  6
Continuous
 62
     7
370
     5
100
AcDbLine
 10
2918.678754673666
 20
-1162.446809452397
 30
0.0
 11
2929.624022051308
 21
-1181.404568652898
 31
0.0
  0
ELLIPSE
  5
47E
330
1F
100
AcDbEntity
  8
0-7_金物
  6
Continuous
 62
     7
370
     5
100
AcDbEllipse
 10
2942.589797361487
 20
-1154.916783852897
 30
0.0
 11
28.25850499469571
 21
0.0
 31
0.0
210
0.0
220
0.0
230
1.0
 40
0.5
 41
0.0
 42
6.283185307179586
  0
LINE
  5
47F
330
1F
100
AcDbEntity
  8
0-7_金物
  6
Continuous
 62
     7
370
     5
100
AcDbLine
 10
3130.406954270856
 20
-1262.04214826714
 30
0.0
 11
3130.406954270856
 21
-1252.94589274814
 31
0.0
  0
LINE
  5
480
330
1F
100
AcDbEntity
  8
0-7_金物
  6
Continuous
 62
     7
370
     5
100
AcDbLine
 10
3130.406954270856
 20
-1277.341751808139
 30
0.0
 11
3130.406954270856
 21
-1268.24549628914
 31
0.0
  0
LINE
  5
481
330
1F
100
AcDbEntity
  8
0-7_金物
  6
Continuous
 62
     7
370
     5
100
AcDbLine
 10
3136.610302292854
 20
-1262.04214826714
 30
0.0
 11
3136.610302292854
 21
-1252.94589274814
 31
0.0
  0
LINE
  5
482
330
1F
100
AcDbEntity
  8
0-7_金物
  6
Continuous
 62
     7
370
     5
100
AcDbLine
 10
3136.610302292854
 20
-1277.341751808139
 30
0.0
 11
3136.610302292854
 21
-1268.24549628914
 31
0.0
  0
LINE
  5
483
330
1F
100
AcDbEntity
  8
0-7_金物
  6
Continuous
 62
     7
370
     5
100
AcDbLine
 10
3136.610302292854
 20
-1268.24549628914
 30
0.0
 11
3156.788225537854
 21
-1268.24549628914
 31
0.0
  0
LINE
  5
484
330
1F
100
AcDbEntity
  8
0-7_金物
  6
Continuous
 62
     7
370
     5
100
AcDbLine
 10
3110.22903102473
 20
-1268.24549628914
 30
0.0
 11
3130.406954270856
 21
-1268.24549628914
 31
0.0
  0
LINE
  5
485
330
1F
100
AcDbEntity
  8
0-7_金物
  6
Continuous
 62
     7
370
     5
100
AcDbLine
 10
3136.610302292854
 20
-1262.04214826714
 30
0.0
 11
3156.788225537854
 21
-1262.04214826714
 31
0.0
  0
LINE
  5
486
330
1F
100
AcDbEntity
  8
0-7_金物
  6
Continuous
 62
     7
370
     5
100
AcDbLine
 10
3110.22903102473
 20
-1262.04214826714
 30
0.0
 11
3130.406954270856
 21
-1262.04214826714
 31
0.0
  0
LINE
  5
487
330
1F
100
AcDbEntity
  8
0-7_金物
  6
Continuous
 62
     7
370
     5
100
AcDbLine
 10
3130.406954270856
 20
-1252.94589274814
 30
0.0
 11
3136.610302292854
 21
-1252.94589274814
 31
0.0
  0
LINE
  5
488
330
1F
100
AcDbEntity
  8
0-7_金物
  6
Continuous
 62
     7
370
     5
100
AcDbLine
 10
3130.406954270856
 20
-1277.341751808139
 30
0.0
 11
3136.610302292854
 21
-1277.341751808139
 31
0.0
  0
LINE
  5
489
330
1F
100
AcDbEntity
  8
0-7_金物
  6
Continuous
 62
     7
370
     5
100
AcDbLine
 10
3156.788225537854
 20
-1268.24549628914
 30
0.0
 11
3156.788225537854
 21
-1262.04214826714
 31
0.0
  0
LINE
  5
48A
330
1F
100
AcDbEntity
  8
0-7_金物
  6
Continuous
 62
     7
370
     5
100
AcDbLine
 10
3110.22903102473
 20
-1262.04214826714
 30
0.0
 11
3110.22903102473
 21
-1268.24549628914
 31
0.0
  0
LINE
  5
48B
330
1F
100
AcDbEntity
  8
0-7_金物
  6
Continuous
 62
     7
370
     5
100
AcDbLine
 10
3135.493746912674
 20
-1457.379405692542
 30
0.0
 11
3131.667034896317
 21
-1459.545851119792
 31
0.0
  0
LINE
  5
48C
330
1F
100
AcDbEntity
  8
0-7_金物
  6
Continuous
 62
     7
370
     5
100
AcDbLine
 10
3136.140921677889
 20
-1447.610609910534
 30
0.0
 11
3131.0666512475
 21
-1450.483345021919
 31
0.0
  0
LINE
  5
48D
330
1F
100
AcDbEntity
  8
0-7_金物
  6
Continuous
 62
     7
370
     5
100
AcDbLine
 10
3136.788096443101
 20
-1437.841814128526
 30
0.0
 11
3130.466267598682
 21
-1441.420838924043
 31
0.0
  0
LINE
  5
48E
330
1F
100
AcDbEntity
  8
0-7_金物
  6
Continuous
 62
     7
370
     5
100
AcDbLine
 10
3137.435271208317
 20
-1428.073018346517
 30
0.0
 11
3129.865883949868
 21
-1432.358332826169
 31
0.0
  0
LINE
  5
48F
330
1F
100
AcDbEntity
  8
0-7_金物
  6
Continuous
 62
     7
370
     5
100
AcDbLine
 10
3138.082445973532
 20
-1418.30422256451
 30
0.0
 11
3129.265500301051
 21
-1423.295826728296
 31
0.0
  0
LINE
  5
490
330
1F
100
AcDbEntity
  8
0-7_金物
  6
Continuous
 62
     7
370
     5
100
AcDbLine
 10
3138.729620738744
 20
-1408.535426782503
 30
0.0
 11
3128.665116652237
 21
-1414.23332063042
 31
0.0
  0
LINE
  5
491
330
1F
100
AcDbEntity
  8
0-7_金物
  6
Continuous
 62
     7
370
     5
100
AcDbLine
 10
3139.376795503959
 20
-1398.766631000495
 30
0.0
 11
3128.06473300342
 21
-1405.170814532546
 31
0.0
  0
LINE
  5
492
330
1F
100
AcDbEntity
  8
0-7_金物
  6
Continuous
 62
     7
370
     5
100
AcDbLine
 10
3140.023970269172
 20
-1388.997835218487
 30
0.0
 11
3127.464349354602
 21
-1396.108308434671
 31
0.0
  0
LINE
  5
493
330
1F
100
AcDbEntity
  8
0-7_金物
  6
Continuous
 62
     7
370
     5
100
AcDbLine
 10
3140.671145034387
 20
-1379.229039436479
 30
0.0
 11
3126.863965705788
 21
-1387.045802336796
 31
0.0
  0
LINE
  5
494
330
1F
100
AcDbEntity
  8
0-7_金物
  6
Continuous
 62
     7
370
     5
100
AcDbLine
 10
3141.318319799599
 20
-1369.460243654472
 30
0.0
 11
3126.263582056971
 21
-1377.983296238923
 31
0.0
  0
LINE
  5
495
330
1F
100
AcDbEntity
  8
0-7_金物
  6
Continuous
 62
     7
370
     5
100
AcDbLine
 10
3141.965494564814
 20
-1359.691447872462
 30
0.0
 11
3125.663198408154
 21
-1368.920790141048
 31
0.0
  0
LINE
  5
496
330
1F
100
AcDbEntity
  8
0-7_金物
  6
Continuous
 62
     7
370
     5
100
AcDbLine
 10
3142.612669330026
 20
-1349.922652090455
 30
0.0
 11
3125.06281475934
 21
-1359.858284043173
 31
0.0
  0
LINE
  5
497
330
1F
100
AcDbEntity
  8
0-7_金物
  6
Continuous
 62
     7
370
     5
100
AcDbLine
 10
3143.259844095242
 20
-1340.153856308448
 30
0.0
 11
3124.462431110523
 21
-1350.795777945299
 31
0.0
  0
LINE
  5
498
330
1F
100
AcDbEntity
  8
0-7_金物
  6
Continuous
 62
     7
370
     5
100
AcDbLine
 10
3143.907018860457
 20
-1330.38506052644
 30
0.0
 11
3123.862047461708
 21
-1341.733271847425
 31
0.0
  0
LINE
  5
499
330
1F
100
AcDbEntity
  8
0-7_金物
  6
Continuous
 62
     7
370
     5
100
AcDbLine
 10
3144.554193625669
 20
-1320.616264744433
 30
0.0
 11
3123.261663812891
 21
-1332.67076574955
 31
0.0
  0
LINE
  5
49A
330
1F
100
AcDbEntity
  8
0-7_金物
  6
Continuous
 62
     7
370
     5
100
AcDbLine
 10
3145.201368390884
 20
-1310.847468962424
 30
0.0
 11
3122.661280164074
 21
-1323.608259651675
 31
0.0
  0
LINE
  5
49B
330
1F
100
AcDbEntity
  8
0-7_金物
  6
Continuous
 62
     7
370
     5
100
AcDbLine
 10
3134.846572147462
 20
-1467.14820147455
 30
0.0
 11
3132.267418545131
 21
-1468.608357217667
 31
0.0
  0
LINE
  5
49C
330
1F
100
AcDbEntity
  8
0-7_金物
  6
Continuous
 62
     7
370
     5
100
AcDbLine
 10
3145.848543156096
 20
-1301.078673180417
 30
0.0
 11
3122.06089651526
 21
-1314.545753553801
 31
0.0
  0
LINE
  5
49D
330
1F
100
AcDbEntity
  8
0-7_金物
  6
Continuous
 62
     7
370
     5
100
AcDbLine
 10
3133.508628281853
 20
-1487.34382882814
 30
0.0
 11
3146.474403592032
 21
-1291.631607078141
 31
0.0
  0
LINE
  5
49E
330
1F
100
AcDbEntity
  8
0-7_金物
  6
Continuous
 62
     7
370
     5
100
AcDbLine
 10
3157.419670969674
 20
-1272.67384787764
 30
0.0
 11
3146.474403592032
 21
-1291.631607078141
 31
0.0
  0
LINE
  5
49F
330
1F
100
AcDbEntity
  8
0-7_金物
  6
Continuous
 62
     7
370
     5
100
AcDbLine
 10
3133.508628281853
 20
-1487.34382882814
 30
0.0
 11
3120.542852971675
 21
-1291.631607078141
 31
0.0
  0
LINE
  5
4A0
330
1F
100
AcDbEntity
  8
0-7_金物
  6
Continuous
 62
     7
370
     5
100
AcDbLine
 10
3109.597585594036
 20
-1272.67384787764
 30
0.0
 11
3120.542852971675
 21
-1291.631607078141
 31
0.0
  0
ELLIPSE
  5
4A1
330
1F
100
AcDbEntity
  8
0-7_金物
  6
Continuous
 62
     7
370
     5
100
AcDbEllipse
 10
3133.508628281853
 20
-1265.14382227814
 30
0.0
 11
28.25850499469571
 21
0.0
 31
0.0
210
0.0
220
0.0
230
1.0
 40
0.5
 41
0.0
 42
6.283185307179586
  0
LINE
  5
4A2
330
1F
100
AcDbEntity
  8
0-0_補助線
  6
JWW_HOJO
 62
   120
370
     5
100
AcDbLine
 10
3191.844937729743
 20
-1611.79366212549
 30
0.0
 11
3075.172318833963
 21
-1679.154630052028
 31
0.0
  0
LINE
  5
4A3
330
1F
100
AcDbEntity
  8
0-0_補助線
  6
JWW_HOJO
 62
   120
370
     5
100
AcDbLine
 10
3091.08222141066
 20
-1620.979248660927
 30
0.0
 11
3175.935035153047
 21
-1669.96904351659
 31
0.0
  0
LINE
  5
4A4
330
1F
100
AcDbEntity
  8
0-0_補助線
  6
JWW_HOJO
 62
   120
370
     5
100
AcDbLine
 10
3187.254647107465
 20
-1626.691316365838
 30
0.0
 11
3209.418530858553
 21
-1599.546213411574
 31
0.0
  0
LINE
  5
4A5
330
1F
100
AcDbEntity
  8
0-0_補助線
  6
JWW_HOJO
 62
   120
370
     5
100
AcDbLine
 10
3207.374080435895
 20
-1608.511968133254
 30
0.0
 11
3196.21951863654
 21
-1621.223140799963
 31
0.0
  0
LINE
  5
4A6
330
1F
100
AcDbEntity
  8
0-0_補助線
  6
JWW_HOJO
 62
   120
370
     5
100
AcDbLine
 10
3082.244931031656
 20
-1645.90612947068
 30
0.0
 11
3059.643176127815
 21
-1608.951631760768
 31
0.0
  0
LINE
  5
4A7
330
1F
100
AcDbEntity
  8
0-0_補助線
  6
JWW_HOJO
 62
   120
370
     5
100
AcDbLine
 10
3057.598725705157
 20
-1617.917386482448
 30
0.0
 11
3076.652783060703
 21
-1643.23819334793
 31
0.0
  0
LINE
  5
4A8
330
1F
100
AcDbEntity
  8
0-0_補助線
  6
JWW_HOJO
 62
   120
370
     5
100
AcDbLine
 10
3018.499699938184
 20
-1489.319174986331
 30
0.0
 11
3016.836009386074
 21
-1491.356771457609
 31
0.0
  0
LINE
  5
4A9
330
1F
100
AcDbEntity
  8
0-0_補助線
  6
JWW_HOJO
 62
   120
370
     5
100
AcDbLine
 10
3075.172318833963
 20
-1593.422489054616
 30
0.0
 11
3096.38552226956
 21
-1642.412283910279
 31
0.0
  0
LINE
  5
4AA
330
1F
100
AcDbEntity
  8
0-0_補助線
  6
JWW_HOJO
 62
   120
370
     5
100
AcDbLine
 10
3207.374080435895
 20
-1590.580458689893
 30
0.0
 11
3178.396305647223
 21
-1631.805682192481
 31
0.0
  0
LINE
  5
4AB
330
1F
100
AcDbEntity
  8
0-0_補助線
  6
JWW_HOJO
 62
   120
370
     5
100
AcDbLine
 10
3175.399292972086
 20
-1627.628305515478
 30
0.0
 11
3201.380055085619
 21
-1582.225705335886
 31
0.0
  0
LINE
  5
4AC
330
1F
100
AcDbEntity
  8
0-0_補助線
  6
JWW_HOJO
 62
   120
370
     5
100
AcDbLine
 10
3191.844937729743
 20
-1575.051315983743
 30
0.0
 11
3170.631734294147
 21
-1624.041110839406
 31
0.0
  0
LINE
  5
4AD
330
1F
100
AcDbEntity
  8
0-0_補助線
  6
JWW_HOJO
 62
   120
370
     5
100
AcDbLine
 10
3164.418530858553
 20
-1621.288559553321
 30
0.0
 11
3179.418530858553
 21
-1569.546213411574
 31
0.0
  0
LINE
  5
4AE
330
1F
100
AcDbEntity
  8
0-0_補助線
  6
JWW_HOJO
 62
   120
370
     5
100
AcDbLine
 10
3164.947673564702
 20
-1566.085561262061
 30
0.0
 11
3157.183102211626
 21
-1619.558233478565
 31
0.0
  0
LINE
  5
4AF
330
1F
100
AcDbEntity
  8
0-0_補助線
  6
JWW_HOJO
 62
   120
370
     5
100
AcDbLine
 10
3149.418530858553
 20
-1618.968051477633
 30
0.0
 11
3149.418530858553
 21
-1564.905197260196
 31
0.0
  0
LINE
  5
4B0
330
1F
100
AcDbEntity
  8
0-0_補助線
  6
JWW_HOJO
 62
   120
370
     5
100
AcDbLine
 10
3133.889388152401
 20
-1566.085561262061
 30
0.0
 11
3141.653959505477
 21
-1619.558233478565
 31
0.0
  0
LINE
  5
4B1
330
1F
100
AcDbEntity
  8
0-0_補助線
  6
JWW_HOJO
 62
   120
370
     5
100
AcDbLine
 10
3134.418530858553
 20
-1621.288559553321
 30
0.0
 11
3119.418530858553
 21
-1569.546213411574
 31
0.0
  0
LINE
  5
4B2
330
1F
100
AcDbEntity
  8
0-0_補助線
  6
JWW_HOJO
 62
   120
370
     5
100
AcDbLine
 10
3106.99212398736
 20
-1575.051315983743
 30
0.0
 11
3128.205327422957
 21
-1624.041110839406
 31
0.0
  0
LINE
  5
4B3
330
1F
100
AcDbEntity
  8
0-B_寸法
  6
Continuous
 62
   120
370
     5
100
AcDbLine
 10
2927.595204020172
 20
-1837.843089198539
 30
0.0
 11
2864.850644726734
 21
-1874.068677396791
 31
0.0
  0
LINE
  5
4B4
330
1F
100
AcDbEntity
  8
0-B_寸法
  6
JWW_CENTER1
 62
   120
370
     5
100
AcDbLine
 10
3362.463826092131
 20
-1586.771493284127
 30
0.0
 11
2945.675954973762
 21
-1827.404082869289
 31
0.0
  0
LWPOLYLINE
  5
4B5
330
1F
100
AcDbEntity
  8
0-B_寸法
  6
Continuous
 62
     7
370
     5
100
AcDbPolyline
 90
        4
 70
     1
 43
3.0
 10
2866.350644726734
 20
-1874.068677396791
 42
0.4142135623731
 10
2864.850644726734
 20
-1872.568677396791
 42
0.4142135623731
 10
2863.350644726734
 20
-1874.068677396791
 42
0.4142135623731
 10
2864.850644726734
 20
-1875.568677396791
 42
0.4142135623731
  0
LINE
  5
4B6
330
1F
100
AcDbEntity
  8
0-B_寸法
  6
Continuous
 62
   120
370
     5
100
AcDbLine
 10
3453.078843345234
 20
-1738.122230426218
 30
0.0
 11
3504.922284132132
 21
-1768.05405492025
 31
0.0
  0
LINE
  5
4B7
330
1F
100
AcDbEntity
  8
0-B_寸法
  6
Continuous
 62
   120
370
     5
100
AcDbLine
 10
3590.688358741893
 20
-1718.536988656967
 30
0.0
 11
3504.922284132132
 21
-1768.054054920249
 31
0.0
  0
LWPOLYLINE
  5
4B8
330
1F
100
AcDbEntity
  8
0-B_寸法
  6
Continuous
 62
     7
370
     5
100
AcDbPolyline
 90
        4
 70
     1
 43
3.0
 10
3506.422284132132
 20
-1768.05405492025
 42
0.4142135623731
 10
3504.922284132132
 20
-1766.55405492025
 42
0.4142135623731
 10
3503.422284132132
 20
-1768.05405492025
 42
0.4142135623731
 10
3504.922284132132
 20
-1769.55405492025
 42
0.4142135623731
  0
LINE
  5
4B9
330
1F
100
AcDbEntity
  8
0-B_寸法
  6
Continuous
 62
   120
370
     5
100
AcDbLine
 10
3590.688358731656
 20
-1718.536988639232
 30
0.0
 11
3536.862118406661
 21
-1687.460394298131
 31
0.0
  0
LWPOLYLINE
  5
4BA
330
1F
100
AcDbEntity
  8
0-B_寸法
  6
Continuous
 62
     7
370
     5
100
AcDbPolyline
 90
        4
 70
     1
 43
3.0
 10
3592.188358731656
 20
-1718.536988639232
 42
0.4142135623731
 10
3590.688358731656
 20
-1717.036988639232
 42
0.4142135623731
 10
3589.188358731656
 20
-1718.536988639232
 42
0.4142135623731
 10
3590.688358731656
 20
-1720.036988639232
 42
0.4142135623731
  0
LINE
  5
4BB
330
1F
100
AcDbEntity
  8
0-B_寸法
  6
JWW_CENTER1
 62
   120
370
     5
100
AcDbLine
 10
3362.463826092131
 20
-1586.771493284127
 30
0.0
 11
3525.099920183702
 21
-1680.669485987844
 31
0.0
  0
LINE
  5
4BC
330
1F
100
AcDbEntity
  8
0-6_扉
  6
Continuous
 62
    40
370
     5
100
AcDbLine
 10
3166.241694312858
 20
-1442.863970895612
 30
0.0
 11
3139.725190018363
 21
-1458.173281788007
 31
0.0
  0
LINE
  5
4BD
330
1F
100
AcDbEntity
  8
0-6_扉
  6
Continuous
 62
    40
370
     5
100
AcDbLine
 10
3267.004410631939
 20
-1531.657974071501
 30
0.0
 11
3362.463826092131
 21
-1586.771493284127
 31
0.0
  0
LINE
  5
4BE
330
1F
100
AcDbEntity
  8
0-6_扉
  6
Continuous
 62
    40
370
     5
100
AcDbLine
 10
3362.463826092131
 20
-1586.771493284127
 30
0.0
 11
3935.220318853232
 21
-1256.090378008399
 31
0.0
  0
LINE
  5
4BF
330
1F
100
AcDbEntity
  8
0-7_金物
  6
Continuous
 62
     7
370
     5
100
AcDbLine
 10
2144.467020447968
 20
-2263.274608983777
 30
0.0
 11
4153.618434757453
 21
-2263.274608983777
 31
0.0
  0
LWPOLYLINE
  5
4C0
330
1F
100
AcDbEntity
  8
1-B_寸法
  6
Continuous
 62
     7
370
     5
100
AcDbPolyline
 90
        4
 70
     1
 43
3.0
 10
3120.665823330659
 20
-3450.771559770651
 42
0.4142135623731
 10
3119.165823330659
 20
-3449.271559770651
 42
0.4142135623731
 10
3117.665823330659
 20
-3450.771559770651
 42
0.4142135623731
 10
3119.165823330659
 20
-3452.271559770651
 42
0.4142135623731
  0
LINE
  5
4C1
330
1F
100
AcDbEntity
  8
1-B_寸法
  6
Continuous
 62
   120
370
     5
100
AcDbLine
 10
3119.165823330659
 20
-3450.771559770651
 30
0.0
 11
3119.165823330659
 21
-3330.675423701137
 31
0.0
  0
LINE
  5
4C2
330
1F
100
AcDbEntity
  8
0-7_金物
  6
Continuous
 62
     7
370
     5
100
AcDbLine
 10
4153.618434757453
 20
-2263.274608983777
 30
0.0
 11
4153.618434757453
 21
-3523.98470865014
 31
0.0
  0
LINE
  5
4C3
330
1F
100
AcDbEntity
  8
0-7_金物
  6
Continuous
 62
     7
370
     5
100
AcDbLine
 10
2144.467020447968
 20
-3523.98470865014
 30
0.0
 11
2144.467020447968
 21
-2263.274608983777
 31
0.0
  0
LINE
  5
4C4
330
1F
100
AcDbEntity
  8
1-B_寸法
  6
Continuous
 62
   120
370
     5
100
AcDbLine
 10
3119.165823330659
 20
-3450.771559770651
 30
0.0
 11
2834.896397412289
 21
-3450.771559770651
 31
0.0
  0
LINE
  5
4C5
330
1F
100
AcDbEntity
  8
1-B_寸法
  6
Continuous
 62
   120
370
     5
100
AcDbLine
 10
3044.165823330659
 20
-3330.675423701137
 30
0.0
 11
3044.165823330659
 21
-3450.771559770651
 31
0.0
  0
LWPOLYLINE
  5
4C6
330
1F
100
AcDbEntity
  8
1-B_寸法
  6
Continuous
 62
     7
370
     5
100
AcDbPolyline
 90
        4
 70
     1
 43
3.0
 10
3045.665823330659
 20
-3450.771559770651
 42
0.4142135623731
 10
3044.165823330659
 20
-3449.271559770651
 42
0.4142135623731
 10
3042.665823330659
 20
-3450.771559770651
 42
0.4142135623731
 10
3044.165823330659
 20
-3452.271559770651
 42
0.4142135623731
  0
LINE
  5
4C7
330
1F
100
AcDbEntity
  8
0-7_金物
  6
Continuous
 62
     7
370
     5
100
AcDbLine
 10
4153.618434757453
 20
-3523.98470865014
 30
0.0
 11
2144.467020447968
 21
-3523.98470865014
 31
0.0
  0
LWPOLYLINE
  5
4C8
330
1F
100
AcDbEntity
  8
1-B_寸法
  6
Continuous
 62
     7
370
     5
100
AcDbPolyline
 90
        4
 70
     1
 43
3.0
 10
2623.368626037994
 20
-3255.675423701137
 42
0.4142135623731
 10
2621.868626037994
 20
-3254.175423701137
 42
0.4142135623731
 10
2620.368626037994
 20
-3255.675423701137
 42
0.4142135623731
 10
2621.868626037994
 20
-3257.175423701137
 42
0.4142135623731
  0
LINE
  5
4C9
330
1F
100
AcDbEntity
  8
1-B_寸法
  6
Continuous
 62
   120
370
     5
100
AcDbLine
 10
2621.868626037994
 20
-3255.675423701137
 30
0.0
 11
2718.941507414138
 21
-3255.675423701137
 31
0.0
  0
ARC
  5
4CA
330
1F
100
AcDbEntity
  8
1-7_金物
  6
Continuous
 62
     7
370
     5
100
AcDbCircle
 10
2781.665823330659
 20
-2948.175423701137
 30
0.0
 40
7.5
100
AcDbArc
 50
90.0
 51
180.0
  0
LINE
  5
4CB
330
1F
100
AcDbEntity
  8
1-7_金物
  6
Continuous
 62
     7
370
     5
100
AcDbLine
 10
2774.165823330659
 20
-3113.175423701137
 30
0.0
 11
2774.165823330659
 21
-2948.175423701137
 31
0.0
  0
ARC
  5
4CC
330
1F
100
AcDbEntity
  8
1-7_金物
  6
Continuous
 62
     7
370
     5
100
AcDbCircle
 10
2781.665823330659
 20
-3113.175423701137
 30
0.0
 40
7.5
100
AcDbArc
 50
180.0
 51
270.0
  0
LINE
  5
4CD
330
1F
100
AcDbEntity
  8
1-7_金物
  6
Continuous
 62
     7
370
     5
100
AcDbLine
 10
2811.665823330659
 20
-3120.675423701137
 30
0.0
 11
2781.665823330659
 21
-3120.675423701137
 31
0.0
  0
ARC
  5
4CE
330
1F
100
AcDbEntity
  8
1-7_金物
  6
Continuous
 62
     7
370
     5
100
AcDbCircle
 10
2811.665823330659
 20
-3113.175423701137
 30
0.0
 40
7.5
100
AcDbArc
 50
270.0
 51
0.0
  0
LINE
  5
4CF
330
1F
100
AcDbEntity
  8
1-7_金物
  6
Continuous
 62
     7
370
     5
100
AcDbLine
 10
2811.665823330659
 20
-2940.675423701137
 30
0.0
 11
2781.665823330659
 21
-2940.675423701137
 31
0.0
  0
ARC
  5
4D0
330
1F
100
AcDbEntity
  8
1-7_金物
  6
Continuous
 62
     7
370
     5
100
AcDbCircle
 10
2811.665823330659
 20
-2948.175423701137
 30
0.0
 40
7.5
100
AcDbArc
 50
0.0
 51
90.0
  0
ARC
  5
4D1
330
1F
100
AcDbEntity
  8
1-7_金物
  6
Continuous
 62
     7
370
     5
100
AcDbCircle
 10
2849.165823330659
 20
-2835.675423701137
 30
0.0
 40
30.0
100
AcDbArc
 50
90.0
 51
180.0
  0
LINE
  5
4D2
330
1F
100
AcDbEntity
  8
1-7_金物
  6
Continuous
 62
     7
370
     5
100
AcDbLine
 10
2819.165823330659
 20
-3225.675423701137
 30
0.0
 11
2819.165823330659
 21
-2835.675423701137
 31
0.0
  0
ARC
  5
4D3
330
1F
100
AcDbEntity
  8
1-7_金物
  6
Continuous
 62
     7
370
     5
100
AcDbCircle
 10
2849.165823330659
 20
-3225.675423701137
 30
0.0
 40
30.0
100
AcDbArc
 50
180.0
 51
270.0
  0
ARC
  5
4D4
330
1F
100
AcDbEntity
  8
1-7_金物
  6
Continuous
 62
     7
370
     5
100
AcDbCircle
 10
3014.165823330659
 20
-2835.675423701137
 30
0.0
 40
30.0
100
AcDbArc
 50
0.0
 51
90.0
  0
LINE
  5
4D5
330
1F
100
AcDbEntity
  8
1-7_金物
  6
Continuous
 62
     7
370
     5
100
AcDbLine
 10
3044.165823330659
 20
-3225.675423701137
 30
0.0
 11
3044.165823330659
 21
-2835.675423701137
 31
0.0
  0
ARC
  5
4D6
330
1F
100
AcDbEntity
  8
1-7_金物
  6
Continuous
 62
     7
370
     5
100
AcDbCircle
 10
3014.165823330659
 20
-3225.675423701137
 30
0.0
 40
30.0
100
AcDbArc
 50
270.0
 51
0.0
  0
LINE
  5
4D7
330
1F
100
AcDbEntity
  8
1-7_金物
  6
Continuous
 62
     7
370
     5
100
AcDbLine
 10
3014.165823330659
 20
-3255.675423701137
 30
0.0
 11
2849.165823330659
 21
-3255.675423701137
 31
0.0
  0
LINE
  5
4D8
330
1F
100
AcDbEntity
  8
1-7_金物
  6
Continuous
 62
     7
370
     5
100
AcDbLine
 10
2849.165823330659
 20
-2805.675423701137
 30
0.0
 11
3014.165823330659
 21
-2805.675423701137
 31
0.0
  0
ARC
  5
4D9
330
1F
100
AcDbEntity
  8
1-7_金物
  6
Continuous
 62
     7
370
     5
100
AcDbCircle
 10
2954.165823330659
 20
-3165.675423701137
 30
0.0
 40
60.0
100
AcDbArc
 50
270.0
 51
90.0
  0
ARC
  5
4DA
330
1F
100
AcDbEntity
  8
1-7_金物
  6
Continuous
 62
     7
370
     5
100
AcDbCircle
 10
2954.165823330659
 20
-2895.675423701137
 30
0.0
 40
60.0
100
AcDbArc
 50
270.0
 51
90.0
  0
ARC
  5
4DB
330
1F
100
AcDbEntity
  8
1-7_金物
  6
Continuous
 62
     7
370
     5
100
AcDbCircle
 10
2954.165823330659
 20
-2895.675423701137
 30
0.0
 40
30.0
100
AcDbArc
 50
270.0
 51
90.0
  0
ARC
  5
4DC
330
1F
100
AcDbEntity
  8
1-7_金物
  6
Continuous
 62
     7
370
     5
100
AcDbCircle
 10
2954.165823330659
 20
-3165.675423701137
 30
0.0
 40
30.0
100
AcDbArc
 50
270.0
 51
90.0
  0
ARC
  5
4DD
330
1F
100
AcDbEntity
  8
1-7_金物
  6
Continuous
 62
     7
370
     5
100
AcDbCircle
 10
2909.165823330659
 20
-2895.675423701137
 30
0.0
 40
60.0
100
AcDbArc
 50
90.0
 51
270.0
  0
ARC
  5
4DE
330
1F
100
AcDbEntity
  8
1-7_金物
  6
Continuous
 62
     7
370
     5
100
AcDbCircle
 10
2909.165823330659
 20
-2895.675423701137
 30
0.0
 40
30.0
100
AcDbArc
 50
90.0
 51
270.0
  0
ARC
  5
4DF
330
1F
100
AcDbEntity
  8
1-7_金物
  6
Continuous
 62
     7
370
     5
100
AcDbCircle
 10
2909.165823330659
 20
-3165.675423701137
 30
0.0
 40
60.0
100
AcDbArc
 50
90.0
 51
270.0
  0
ARC
  5
4E0
330
1F
100
AcDbEntity
  8
1-7_金物
  6
Continuous
 62
     7
370
     5
100
AcDbCircle
 10
2909.165823330659
 20
-3165.675423701137
 30
0.0
 40
30.0
100
AcDbArc
 50
90.0
 51
270.0
  0
LINE
  5
4E1
330
1F
100
AcDbEntity
  8
1-7_金物
  6
Continuous
 62
     7
370
     5
100
AcDbLine
 10
2909.165823330659
 20
-2925.675423701137
 30
0.0
 11
2954.165823330659
 21
-2925.675423701137
 31
0.0
  0
LINE
  5
4E2
330
1F
100
AcDbEntity
  8
1-7_金物
  6
Continuous
 62
     7
370
     5
100
AcDbLine
 10
2954.165823330659
 20
-2865.675423701137
 30
0.0
 11
2909.165823330659
 21
-2865.675423701137
 31
0.0
  0
LINE
  5
4E3
330
1F
100
AcDbEntity
  8
1-7_金物
  6
Continuous
 62
     7
370
     5
100
AcDbLine
 10
2954.165823330659
 20
-2835.675423701137
 30
0.0
 11
2909.165823330659
 21
-2835.675423701137
 31
0.0
  0
LINE
  5
4E4
330
1F
100
AcDbEntity
  8
1-7_金物
  6
Continuous
 62
     7
370
     5
100
AcDbLine
 10
2954.165823330659
 20
-2955.675423701137
 30
0.0
 11
2909.165823330659
 21
-2955.675423701137
 31
0.0
  0
LINE
  5
4E5
330
1F
100
AcDbEntity
  8
1-7_金物
  6
Continuous
 62
     7
370
     5
100
AcDbLine
 10
2909.165823330659
 20
-3225.675423701137
 30
0.0
 11
2954.165823330659
 21
-3225.675423701137
 31
0.0
  0
LINE
  5
4E6
330
1F
100
AcDbEntity
  8
1-7_金物
  6
Continuous
 62
     7
370
     5
100
AcDbLine
 10
2909.165823330659
 20
-3195.675423701137
 30
0.0
 11
2954.165823330659
 21
-3195.675423701137
 31
0.0
  0
LINE
  5
4E7
330
1F
100
AcDbEntity
  8
1-7_金物
  6
Continuous
 62
     7
370
     5
100
AcDbLine
 10
2954.165823330659
 20
-3135.675423701137
 30
0.0
 11
2909.165823330659
 21
-3135.675423701137
 31
0.0
  0
LINE
  5
4E8
330
1F
100
AcDbEntity
  8
1-7_金物
  6
Continuous
 62
     7
370
     5
100
AcDbLine
 10
2909.165823330659
 20
-3105.675423701137
 30
0.0
 11
2954.165823330659
 21
-3105.675423701137
 31
0.0
  0
LWPOLYLINE
  5
4E9
330
1F
100
AcDbEntity
  8
1-B_寸法
  6
Continuous
 62
     7
370
     5
100
AcDbPolyline
 90
        4
 70
     1
 43
3.0
 10
2623.368626037994
 20
-2805.675423701137
 42
0.4142135623731
 10
2621.868626037994
 20
-2804.175423701137
 42
0.4142135623731
 10
2620.368626037994
 20
-2805.675423701137
 42
0.4142135623731
 10
2621.868626037994
 20
-2807.175423701137
 42
0.4142135623731
  0
LINE
  5
4EA
330
1F
100
AcDbEntity
  8
1-B_寸法
  6
Continuous
 62
   120
370
     5
100
AcDbLine
 10
2621.868626037994
 20
-2805.675423701137
 30
0.0
 11
2718.941507414138
 21
-2805.675423701137
 31
0.0
  0
LINE
  5
4EB
330
1F
100
AcDbEntity
  8
1-B_寸法
  6
Continuous
 62
   120
370
     5
100
AcDbLine
 10
2621.868626037994
 20
-3255.675423701137
 30
0.0
 11
2621.868626037994
 21
-2805.675423701137
 31
0.0
  0
LWPOLYLINE
  5
4EC
330
1F
100
AcDbEntity
  8
1-B_寸法
  6
Continuous
 62
     7
370
     5
100
AcDbPolyline
 90
        4
 70
     1
 43
3.0
 10
3045.665823330659
 20
-2508.028182171124
 42
0.4142135623731
 10
3044.165823330659
 20
-2506.528182171124
 42
0.4142135623731
 10
3042.665823330659
 20
-2508.028182171124
 42
0.4142135623731
 10
3044.165823330659
 20
-2509.528182171124
 42
0.4142135623731
  0
LINE
  5
4ED
330
1F
100
AcDbEntity
  8
1-B_寸法
  6
Continuous
 62
   120
370
     5
100
AcDbLine
 10
3044.165823330659
 20
-2508.028182171124
 30
0.0
 11
3044.165823330659
 21
-2610.675423701137
 31
0.0
  0
LINE
  5
4EE
330
1F
100
AcDbEntity
  8
1-B_寸法
  6
Continuous
 62
   120
370
     5
100
AcDbLine
 10
2774.165823330659
 20
-2508.028182171124
 30
0.0
 11
3044.165823330659
 21
-2508.028182171124
 31
0.0
  0
LWPOLYLINE
  5
4EF
330
1F
100
AcDbEntity
  8
1-B_寸法
  6
Continuous
 62
     7
370
     5
100
AcDbPolyline
 90
        4
 70
     1
 43
3.0
 10
2775.665823330659
 20
-2508.028182171124
 42
0.4142135623731
 10
2774.165823330659
 20
-2506.528182171124
 42
0.4142135623731
 10
2772.665823330659
 20
-2508.028182171124
 42
0.4142135623731
 10
2774.165823330659
 20
-2509.528182171124
 42
0.4142135623731
  0
LINE
  5
4F0
330
1F
100
AcDbEntity
  8
1-B_寸法
  6
Continuous
 62
   120
370
     5
100
AcDbLine
 10
2774.165823330659
 20
-2508.028182171124
 30
0.0
 11
2774.165823330659
 21
-2610.675423701137
 31
0.0
  0
LWPOLYLINE
  5
4F1
330
1F
100
AcDbEntity
  8
1-B_寸法
  6
Continuous
 62
     7
370
     5
100
AcDbPolyline
 90
        4
 70
     1
 43
3.0
 10
2775.665823330659
 20
-2610.675423701137
 42
0.4142135623731
 10
2774.165823330659
 20
-2609.175423701137
 42
0.4142135623731
 10
2772.665823330659
 20
-2610.675423701137
 42
0.4142135623731
 10
2774.165823330659
 20
-2612.175423701137
 42
0.4142135623731
  0
LWPOLYLINE
  5
4F2
330
1F
100
AcDbEntity
  8
1-B_寸法
  6
Continuous
 62
     7
370
     5
100
AcDbPolyline
 90
        4
 70
     1
 43
3.0
 10
2820.665823330659
 20
-2610.675423701137
 42
0.4142135623731
 10
2819.165823330659
 20
-2609.175423701137
 42
0.4142135623731
 10
2817.665823330659
 20
-2610.675423701137
 42
0.4142135623731
 10
2819.165823330659
 20
-2612.175423701137
 42
0.4142135623731
  0
LINE
  5
4F3
330
1F
100
AcDbEntity
  8
1-B_寸法
  6
Continuous
 62
   120
370
     5
100
AcDbLine
 10
2774.165823330659
 20
-2610.675423701137
 30
0.0
 11
2774.165823330659
 21
-2730.675423701137
 31
0.0
  0
LINE
  5
4F4
330
1F
100
AcDbEntity
  8
1-B_寸法
  6
Continuous
 62
   120
370
     5
100
AcDbLine
 10
2819.165823330659
 20
-2610.675423701137
 30
0.0
 11
2819.165823330659
 21
-2730.675423701137
 31
0.0
  0
LINE
  5
4F5
330
1F
100
AcDbEntity
  8
1-B_寸法
  6
Continuous
 62
   120
370
     5
100
AcDbLine
 10
2819.165823330659
 20
-2610.675423701137
 30
0.0
 11
3044.165823330659
 21
-2610.675423701137
 31
0.0
  0
LWPOLYLINE
  5
4F6
330
1F
100
AcDbEntity
  8
1-B_寸法
  6
Continuous
 62
     7
370
     5
100
AcDbPolyline
 90
        4
 70
     1
 43
3.0
 10
3045.665823330659
 20
-2610.675423701137
 42
0.4142135623731
 10
3044.165823330659
 20
-2609.175423701137
 42
0.4142135623731
 10
3042.665823330659
 20
-2610.675423701137
 42
0.4142135623731
 10
3044.165823330659
 20
-2612.175423701137
 42
0.4142135623731
  0
LINE
  5
4F7
330
1F
100
AcDbEntity
  8
1-B_寸法
  6
Continuous
 62
   120
370
     5
100
AcDbLine
 10
3044.165823330659
 20
-2610.675423701137
 30
0.0
 11
3044.165823330659
 21
-2730.675423701137
 31
0.0
  0
LINE
  5
4F8
330
1F
100
AcDbEntity
  8
1-B_寸法
  6
Continuous
 62
   120
370
     5
100
AcDbLine
 10
2704.775887645076
 20
-2610.675423701137
 30
0.0
 11
2819.165823330659
 21
-2610.675423701137
 31
0.0
  0
LINE
  5
4F9
330
1F
100
AcDbEntity
  8
1-4_枠
  6
JWW_CENTER1
 62
   120
370
     5
100
AcDbLine
 10
2931.665823330659
 20
-2805.675423701137
 30
0.0
 11
2931.665823330659
 21
-3255.675423701137
 31
0.0
  0
LINE
  5
4FA
330
1F
100
AcDbEntity
  8
0-6_扉
  6
Continuous
 62
    40
370
     5
100
AcDbLine
 10
3267.004410631939
 20
-1501.039352286711
 30
0.0
 11
3166.241694312858
 21
-1442.863970895612
 31
0.0
  0
LINE
  5
4FB
330
1F
100
AcDbEntity
  8
1-4_枠
  6
JWW_CENTER1
 62
   120
370
     5
100
AcDbLine
 10
3914.165823330659
 20
-3030.675423701137
 30
0.0
 11
3659.704659980325
 21
-3030.675423701137
 31
0.0
  0
LINE
  5
4FC
330
1F
100
AcDbEntity
  8
1-4_枠
  6
JWW_CENTER1
 62
   120
370
     5
100
AcDbLine
 10
3356.377604110896
 20
-3030.675423701137
 30
0.0
 11
2718.941507414138
 21
-3030.675423701137
 31
0.0
  0
LINE
  5
4FD
330
1F
100
AcDbEntity
  8
0-A_文字
  6
Continuous
 62
    92
370
     5
100
AcDbLine
 10
2031.28210357543
 20
8.999802048145114
 30
0.0
 11
4267.554982111204
 21
8.999802048145114
 31
0.0
  0
LINE
  5
4FE
330
1F
100
AcDbEntity
  8
0-A_文字
  6
Continuous
 62
    92
370
     5
100
AcDbLine
 10
2031.28210357543
 20
-171.0001979518549
 30
0.0
 11
4267.554982111204
 21
-171.0001979518549
 31
0.0
  0
MTEXT
  5
4FF
330
1F
100
AcDbEntity
  8
0-A_文字
  6
Continuous
 62
     7
370
     5
100
AcDbMText
 10
2249.418542843317
 20
-155.2801979518549
 30
0.0
 40
91.43999999999996
 41
1800.0
 46
0.0
 71
     7
 72
     1
  1
{\fＭＳ ゴシック|b0|i0|c128|p49;振れ止め金具(床付け用)取り付け}
 73
     1
 44
1.0
  0
MTEXT
  5
500
330
1F
100
AcDbEntity
  8
0-A_文字
  6
Continuous
 62
     7
370
     5
100
AcDbMText
 10
2144.735489997387
 20
-358.4650800606188
 30
0.0
 40
68.58
 41
1080.0
 46
0.0
 71
     7
 72
     1
  1
{\fＭＳ ゴシック|b0|i0|c128|p49;振れ止め金具(床付け用)を}
 73
     1
 44
1.0
  0
MTEXT
  5
501
330
1F
100
AcDbEntity
  8
0-A_文字
  6
Continuous
 62
     7
370
     5
100
AcDbMText
 10
2144.735489997387
 20
-463.6819117621714
 30
0.0
 40
68.58
 41
1260.0
 46
0.0
 71
     7
 72
     1
  1
{\fＭＳ ゴシック|b0|i0|c128|p49;下記のように床へ取り付けます}
 73
     1
 44
1.0
  0
MTEXT
  5
502
330
1F
100
AcDbEntity
  8
0-A_文字
  6
Continuous
 62
     7
370
     5
100
AcDbMText
 10
2673.389199628095
 20
-855.9655349098804
 30
0.0
 40
68.58
 41
180.0
 46
0.0
 71
     7
 72
     1
  1
{\fＭＳ ゴシック|b0|i0|c128|p49;小壁}
 73
     1
 44
1.0
  0
MTEXT
  5
503
330
1F
100
AcDbEntity
  8
0-A_文字
  6
Continuous
 62
     7
370
     5
100
AcDbMText
 10
3513.842072472681
 20
-1044.651059036337
 30
0.0
 40
68.57999999999998
 41
270.0
 46
0.0
 71
     7
 72
     1
  1
{\fＭＳ ゴシック|b0|i0|c128|p49;中方立}
 73
     1
 44
1.0
  0
MTEXT
  5
504
330
1F
100
AcDbEntity
  8
0-A_文字
  6
Continuous
 62
     7
370
     5
100
AcDbMText
 10
2219.117602810697
 20
-2402.844841928869
 30
0.0
 40
68.57999999999998
 41
270.0
 46
0.0
 71
     7
 72
     1
  1
{\fＭＳ ゴシック|b0|i0|c128|p49;平面図}
 73
     1
 44
1.0
  0
MTEXT
  5
505
330
1F
100
AcDbEntity
  8
0-A_文字
  6
Continuous
 62
     7
370
     5
100
AcDbMText
 10
3561.665823330659
 20
-2447.434382330832
 30
0.0
 40
68.58
 41
180.0
 46
0.0
 71
     7
 72
     1
  1
{\fＭＳ ゴシック|b0|i0|c128|p49;小壁}
 73
     1
 44
1.0
  0
MTEXT
  5
506
330
1F
100
AcDbEntity
  8
0-A_文字
  6
Continuous
 62
     7
370
     5
100
AcDbMText
 10
3381.665823330659
 20
-3086.385423701137
 30
0.0
 40
68.57999999999998
 41
270.0
 46
0.0
 71
     7
 72
     1
  1
{\fＭＳ ゴシック|b0|i0|c128|p49;中方立}
 73
     1
 44
1.0
  0
MTEXT
  5
507
330
1F
100
AcDbEntity
  8
0-B_寸法
  6
Continuous
 62
     7
370
     5
100
AcDbMText
 10
2413.07135515091
 20
-1192.715119461839
 30
0.0
 40
68.58
 41
450.0
 46
0.0
 71
     7
 72
     1
  1
{\fＭＳ ゴシック|b0|i0|c128|p49;ビス(同梱)}
 73
     1
 44
1.0
  0
MTEXT
  5
508
330
1F
100
AcDbEntity
  8
0-B_寸法
  6
Continuous
 62
     7
370
   211
100
AcDbMText
 10
3601.315018978526
 20
-1886.231405304215
 30
0.0
 40
91.44
 41
60.0
 46
0.0
 71
     7
 72
     1
  1
{\fＭＳ ゴシック|b0|i0|c128|p49;5}
 73
     1
 44
1.0
  0
MTEXT
  5
509
330
1F
100
AcDbEntity
  8
0-B_寸法
  6
Continuous
 62
     7
370
   211
100
AcDbMText
 10
2504.850644726734
 20
-2043.509396712632
 30
0.0
 40
91.44
 41
720.0
 46
0.0
 71
     7
 72
     1
  1
{\fＭＳ ゴシック|b0|i0|c128|p49;15(中方立芯)}
 73
     1
 44
1.0
  0
MTEXT
  5
50A
330
1F
100
AcDbEntity
  8
0-B_寸法
  6
Continuous
 62
     7
370
     5
100
AcDbMText
 10
3469.254891513244
 20
-2136.815648464767
 30
0.0
 40
68.58000000000001
 41
765.0
 46
0.0
 71
     7
 72
     1
  1
{\fＭＳ ゴシック|b0|i0|c128|p49;※図は左引き(L)の}
 73
     1
 44
1.0
  0
MTEXT
  5
50B
330
1F
100
AcDbEntity
  8
0-B_寸法
  6
Continuous
 62
     7
370
     5
100
AcDbMText
 10
3469.254891513244
 20
-2248.301918819975
 30
0.0
 40
68.58
 41
540.0
 46
0.0
 71
     7
 72
     1
  1
{\fＭＳ ゴシック|b0|i0|c128|p49;　場合です。}
 73
     1
 44
1.0
  0
MTEXT
  5
50C
330
1F
100
AcDbEntity
  8
1-A_文字
  6
Continuous
 62
     7
370
     5
100
AcDbMText
 10
3095.378383022593
 20
-2722.759439645263
 30
0.0
 40
68.58
 41
810.0
 46
0.0
 71
     7
 72
     1
  1
{\fＭＳ ゴシック|b0|i0|c128|p49;振れ止め金具(床用)}
 73
     1
 44
1.0
  0
MTEXT
  5
50D
330
1F
100
AcDbEntity
  8
1-B_寸法
  6
Continuous
 62
     7
370
   211
100
AcDbMText
 10
2849.165823330659
 20
-2507.308182171124
 30
0.0
 40
91.44
 41
120.0
 46
0.0
 71
     7
 72
     1
  1
{\fＭＳ ゴシック|b0|i0|c128|p49;18}
 73
     1
 44
1.0
  0
MTEXT
  5
50E
330
1F
100
AcDbEntity
  8
1-B_寸法
  6
Continuous
 62
     7
370
   211
100
AcDbMText
 10
2704.775887645076
 20
-2759.955423701138
 30
0.0
 40
91.44
 41
60.0
 46
0.0
 71
     7
 72
     1
  1
{\fＭＳ ゴシック|b0|i0|c128|p49;3}
 73
     1
 44
1.0
  0
MTEXT
  5
50F
330
1F
100
AcDbEntity
  8
1-B_寸法
  6
Continuous
 62
     7
370
   211
100
AcDbMText
 10
2882.915823330659
 20
-2759.955423701138
 30
0.0
 40
91.44
 41
120.0
 46
0.0
 71
     7
 72
     1
  1
{\fＭＳ ゴシック|b0|i0|c128|p49;15}
 73
     1
 44
1.0
  0
MTEXT
  5
510
330
1F
100
AcDbEntity
  8
1-B_寸法
  6
Continuous
 62
     7
370
   211
100
AcDbMText
 10
2606.868626037994
 20
-3104.955423701138
 30
0.0
 40
91.44
 41
120.0
 46
0.0
 71
     7
 72
     1
  1
{\fＭＳ ゴシック|b0|i0|c128|p49;30}
 11
6.123031769111886E-17
 21
1.0
 31
0.0
 73
     1
 44
1.0
  0
MTEXT
  5
511
330
1F
100
AcDbEntity
  8
1-B_寸法
  6
Continuous
 62
     7
370
   211
100
AcDbMText
 10
2906.356926160673
 20
-3456.72099959317
 30
0.0
 40
91.44
 41
60.0
 46
0.0
 71
     7
 72
     1
  1
{\fＭＳ ゴシック|b0|i0|c128|p49;5}
 73
     1
 44
1.0
  0
LINE
  5
512
330
1F
100
AcDbEntity
  8
1-4_枠
  6
Continuous
 62
    92
370
     5
100
AcDbLine
 10
3119.165823330659
 20
-3120.675423701124
 30
0.0
 11
3119.165823330659
 21
-3255.675423701137
 31
0.0
  0
LINE
  5
513
330
1F
100
AcDbEntity
  8
1-4_枠
  6
Continuous
 62
    92
370
     5
100
AcDbLine
 10
3119.165823330659
 20
-2940.675423701117
 30
0.0
 11
3119.165823330659
 21
-2805.675423701126
 31
0.0
  0
LINE
  5
514
330
1F
100
AcDbEntity
  8
1-4_枠
  6
Continuous
 62
    92
370
     5
100
AcDbLine
 10
3156.665823330659
 20
-3120.675423701124
 30
0.0
 11
3119.165823330659
 21
-3120.675423701124
 31
0.0
  0
LINE
  5
515
330
1F
100
AcDbEntity
  8
1-4_枠
  6
Continuous
 62
    92
370
     5
100
AcDbLine
 10
3156.665823330659
 20
-3120.675423701124
 30
0.0
 11
3156.665823330659
 21
-2940.675423701117
 31
0.0
  0
LINE
  5
516
330
1F
100
AcDbEntity
  8
1-4_枠
  6
Continuous
 62
    92
370
     5
100
AcDbLine
 10
3156.665823330659
 20
-2940.675423701117
 30
0.0
 11
3119.165823330659
 21
-2940.675423701117
 31
0.0
  0
LINE
  5
517
330
1F
100
AcDbEntity
  8
1-3_仕上げ
  6
Continuous
 62
    40
370
     5
100
AcDbLine
 10
3231.667369442927
 20
-2805.675423701126
 30
0.0
 11
3231.667369442927
 21
-2301.977273196817
 31
0.0
  0
LINE
  5
518
330
1F
100
AcDbEntity
  8
1-4_枠
  6
Continuous
 62
    92
370
     5
100
AcDbLine
 10
3914.165823330659
 20
-2805.675423701126
 30
0.0
 11
3119.165823330659
 21
-2805.675423701126
 31
0.0
  0
LINE
  5
519
330
1F
100
AcDbEntity
  8
1-4_枠
  6
Continuous
 62
    92
370
     5
100
AcDbLine
 10
3914.165823330659
 20
-3255.675423701137
 30
0.0
 11
3119.165823330659
 21
-3255.675423701137
 31
0.0
  0
LINE
  5
51A
330
1F
100
AcDbEntity
  8
1-A_文字
  6
Continuous
 62
     7
370
     5
100
AcDbLine
 10
225.5797196029172
 20
-2269.386272718383
 30
0.0
 11
31.8286980372514
 21
-2604.972886088488
 31
0.0
  0
LINE
  5
51B
330
1F
100
AcDbEntity
  8
1-A_文字
  6
Continuous
 62
     7
370
     5
100
AcDbLine
 10
31.8286980372514
 20
-2604.972886088488
 30
0.0
 11
-43.1713019627486
 21
-2604.972886088488
 31
0.0
  0
LINE
  5
51C
330
1F
100
AcDbEntity
  8
1-6_扉
  6
JWW_DASHED2
 62
     7
370
     5
100
AcDbLine
 10
490.0299435031039
 20
-2161.155803330812
 30
0.0
 11
666.2821035754297
 21
-2161.155803330812
 31
0.0
  0
ARC
  5
51D
330
1F
100
AcDbEntity
  8
1-7_金物
  6
Continuous
 62
    92
370
     5
100
AcDbCircle
 10
418.7842636477478
 20
-2243.655803330813
 30
0.0
 40
45.0
100
AcDbArc
 50
270.0
 51
0.0
  0
LINE
  5
51E
330
1F
100
AcDbEntity
  8
1-7_金物
  6
Continuous
 62
    92
370
     5
100
AcDbLine
 10
463.784263647747
 20
-2243.655803330813
 30
0.0
 11
463.784263647747
 21
-1988.655803330813
 31
0.0
  0
LINE
  5
51F
330
1F
100
AcDbEntity
  8
1-7_金物
  6
Continuous
 62
    92
370
     5
100
AcDbLine
 10
418.7842636477478
 20
-2288.655803330813
 30
0.0
 11
193.7842636477239
 21
-2288.655803330813
 31
0.0
  0
LINE
  5
520
330
1F
100
AcDbEntity
  8
1-7_金物
  6
Continuous
 62
    92
370
     5
100
AcDbLine
 10
418.7842636477478
 20
-1988.655803330813
 30
0.0
 11
418.7842636477478
 21
-2243.655803330813
 31
0.0
  0
LINE
  5
521
330
1F
100
AcDbEntity
  8
1-7_金物
  6
Continuous
 62
    92
370
     5
100
AcDbLine
 10
418.7842636477478
 20
-1988.655803330813
 30
0.0
 11
463.784263647747
 21
-1988.655803330813
 31
0.0
  0
LINE
  5
522
330
1F
100
AcDbEntity
  8
1-7_金物
  6
Continuous
 62
    92
370
     5
100
AcDbLine
 10
193.7842636477239
 20
-2243.655803330813
 30
0.0
 11
418.7842636477478
 21
-2243.655803330813
 31
0.0
  0
LINE
  5
523
330
1F
100
AcDbEntity
  8
1-7_金物
  6
Continuous
 62
    92
370
     5
100
AcDbLine
 10
193.7842636477239
 20
-2243.655803330813
 30
0.0
 11
193.7842636477239
 21
-2288.655803330813
 31
0.0
  0
LINE
  5
524
330
1F
100
AcDbEntity
  8
1-7_金物
  6
Continuous
 62
     7
370
     5
100
AcDbLine
 10
490.0342636477274
 20
-2161.155803330816
 30
0.0
 11
535.0342636477249
 21
-2161.155803330816
 31
0.0
  0
LINE
  5
525
330
1F
100
AcDbEntity
  8
1-7_金物
  6
Continuous
 62
     7
370
     5
100
AcDbLine
 10
535.0342636477249
 20
-2161.155803330816
 30
0.0
 11
535.0342636477249
 21
-2176.155803330813
 31
0.0
  0
LINE
  5
526
330
1F
100
AcDbEntity
  8
1-7_金物
  6
Continuous
 62
     7
370
     5
100
AcDbLine
 10
475.0342636477239
 20
-2176.155803330813
 30
0.0
 11
535.0342636477249
 21
-2176.155803330813
 31
0.0
  0
LINE
  5
527
330
1F
100
AcDbEntity
  8
1-7_金物
  6
Continuous
 62
     7
370
     5
100
AcDbLine
 10
475.0342636477239
 20
-1906.155803330815
 30
0.0
 11
407.5342636477299
 21
-1906.155803330815
 31
0.0
  0
LINE
  5
528
330
1F
100
AcDbEntity
  8
1-7_金物
  6
Continuous
 62
     7
370
     5
100
AcDbLine
 10
392.5342636477265
 20
-1891.155803330816
 30
0.0
 11
490.0342636477274
 21
-1891.155803330816
 31
0.0
  0
LINE
  5
529
330
1F
100
AcDbEntity
  8
1-7_金物
  6
Continuous
 62
     7
370
     5
100
AcDbLine
 10
475.0342636477239
 20
-1906.155803330815
 30
0.0
 11
475.0342636477239
 21
-2176.155803330813
 31
0.0
  0
LINE
  5
52A
330
1F
100
AcDbEntity
  8
1-7_金物
  6
Continuous
 62
     7
370
     5
100
AcDbLine
 10
490.0342636477274
 20
-1891.155803330816
 30
0.0
 11
490.0342636477274
 21
-2161.155803330816
 31
0.0
  0
LINE
  5
52B
330
1F
100
AcDbEntity
  8
1-7_金物
  6
Continuous
 62
     7
370
     5
100
AcDbLine
 10
407.5342636477299
 20
-2176.155803330813
 30
0.0
 11
347.5342636477248
 21
-2176.155803330813
 31
0.0
  0
LINE
  5
52C
330
1F
100
AcDbEntity
  8
1-7_金物
  6
Continuous
 62
     7
370
     5
100
AcDbLine
 10
407.5342636477299
 20
-2176.155803330813
 30
0.0
 11
407.5342636477299
 21
-1906.155803330815
 31
0.0
  0
LINE
  5
52D
330
1F
100
AcDbEntity
  8
1-7_金物
  6
Continuous
 62
     7
370
     5
100
AcDbLine
 10
347.5342636477248
 20
-2176.155803330813
 30
0.0
 11
347.5342636477248
 21
-2161.155803330816
 31
0.0
  0
LINE
  5
52E
330
1F
100
AcDbEntity
  8
1-7_金物
  6
Continuous
 62
     7
370
     5
100
AcDbLine
 10
347.5342636477248
 20
-2161.155803330816
 30
0.0
 11
392.5342636477265
 21
-2161.155803330816
 31
0.0
  0
LINE
  5
52F
330
1F
100
AcDbEntity
  8
1-7_金物
  6
Continuous
 62
     7
370
     5
100
AcDbLine
 10
392.5342636477265
 20
-2161.155803330816
 30
0.0
 11
392.5342636477265
 21
-1891.155803330816
 31
0.0
  0
LINE
  5
530
330
1F
100
AcDbEntity
  8
1-7_金物
  6
Continuous
 62
   120
370
     5
100
AcDbLine
 10
193.7842636477239
 20
-2265.891728547643
 30
0.0
 11
216.018696146372
 21
-2243.657296048995
 31
0.0
  0
LINE
  5
531
330
1F
100
AcDbEntity
  8
1-7_金物
  6
Continuous
 62
   120
370
     5
100
AcDbLine
 10
418.7842636477453
 20
-2040.89172854763
 30
0.0
 11
463.784263647764
 21
-1995.891728547607
 31
0.0
  0
LINE
  5
532
330
1F
100
AcDbEntity
  8
1-7_金物
  6
Continuous
 62
   120
370
     5
100
AcDbLine
 10
418.7842636477623
 20
-2104.531338854491
 30
0.0
 11
463.7842636477725
 21
-2059.531338854478
 31
0.0
  0
LINE
  5
533
330
1F
100
AcDbEntity
  8
1-7_金物
  6
Continuous
 62
   120
370
     5
100
AcDbLine
 10
234.6597991714358
 20
-2288.655803330819
 30
0.0
 11
279.6583064532112
 21
-2243.65729604904
 31
0.0
  0
LINE
  5
534
330
1F
100
AcDbEntity
  8
1-7_金物
  6
Continuous
 62
   120
370
     5
100
AcDbLine
 10
418.7842636477367
 20
-2168.170949161257
 30
0.0
 11
463.7842636477555
 21
-2123.170949161243
 31
0.0
  0
LINE
  5
535
330
1F
100
AcDbEntity
  8
1-7_金物
  6
Continuous
 62
   120
370
     5
100
AcDbLine
 10
298.2994094781898
 20
-2288.655803330811
 30
0.0
 11
343.2979167599737
 21
-2243.657296049014
 31
0.0
  0
LINE
  5
536
330
1F
100
AcDbEntity
  8
1-7_金物
  6
Continuous
 62
   120
370
     5
100
AcDbLine
 10
418.7842636477112
 20
-2231.81055946802
 30
0.0
 11
463.784263647747
 21
-2186.810559467997
 31
0.0
  0
LINE
  5
537
330
1F
100
AcDbEntity
  8
1-7_金物
  6
Continuous
 62
   120
370
     5
100
AcDbLine
 10
361.9390197849438
 20
-2288.655803330789
 30
0.0
 11
406.9375270667533
 21
-2243.657296048988
 31
0.0
  0
LINE
  5
538
330
1F
100
AcDbEntity
  8
1-7_金物
  6
Continuous
 62
   120
370
     5
100
AcDbLine
 10
426.1900786262797
 20
-2288.04435479635
 30
0.0
 11
463.1842574642658
 21
-2251.050175958356
 31
0.0
  0
LINE
  5
539
330
1F
100
AcDbEntity
  8
1-6_扉
  6
JWW_DASHED2
 62
     7
370
     5
100
AcDbLine
 10
392.527869261458
 20
-2161.155803330812
 30
0.0
 11
216.2821035754297
 21
-2161.155803330812
 31
0.0
  0
LINE
  5
53A
330
1F
100
AcDbEntity
  8
1-6_扉
  6
JWW_DASHED2
 62
     7
370
     5
100
AcDbLine
 10
490.0321035754254
 20
-1891.155803330812
 30
0.0
 11
392.5299864184421
 21
-1891.155803330812
 31
0.0
  0
LINE
  5
53B
330
1F
100
AcDbEntity
  8
1-6_扉
  6
JWW_DASHED2
 62
     7
370
     5
100
AcDbLine
 10
490.0321035754254
 20
-1891.155803330812
 30
0.0
 11
490.0321035754254
 21
-2161.155803330812
 31
0.0
  0
LINE
  5
53C
330
1F
100
AcDbEntity
  8
1-6_扉
  6
JWW_DASHED2
 62
     7
370
     5
100
AcDbLine
 10
392.5299864184421
 20
-2161.155803330812
 30
0.0
 11
392.5299864184421
 21
-1891.155803330812
 31
0.0
  0
LINE
  5
53D
330
1F
100
AcDbEntity
  8
1-4_枠
  6
Continuous
 62
    92
370
     5
100
AcDbLine
 10
118.782103575428
 20
-483.9103996822757
 30
0.0
 11
118.782103575428
 21
-2288.655803330813
 31
0.0
  0
LINE
  5
53E
330
1F
100
AcDbEntity
  8
1-B_寸法
  6
Continuous
 62
   120
370
     5
100
AcDbLine
 10
-1006.217896424572
 20
-696.4888920769255
 30
0.0
 11
1318.782103575428
 21
-696.4888920769255
 31
0.0
  0
LINE
  5
53F
330
1F
100
AcDbEntity
  8
0-A_文字
  6
Continuous
 62
    92
370
     5
100
AcDbLine
 10
-1478.71789642457
 20
-2811.000403945506
 30
0.0
 11
-1478.71789642457
 21
8.999802048145114
 31
0.0
  0
LWPOLYLINE
  5
540
330
1F
100
AcDbEntity
  8
1-B_寸法
  6
Continuous
 62
     7
370
     5
100
AcDbPolyline
 90
        4
 70
     1
 43
3.0
 10
-1004.717896424572
 20
-696.4888920769255
 42
0.4142135623731
 10
-1006.217896424572
 20
-694.9888920769255
 42
0.4142135623731
 10
-1007.717896424572
 20
-696.4888920769255
 42
0.4142135623731
 10
-1006.217896424572
 20
-697.9888920769255
 42
0.4142135623731
  0
LINE
  5
541
330
1F
100
AcDbEntity
  8
1-1_通り芯
  6
JWW_CENTER1
 62
   120
370
     5
100
AcDbLine
 10
156.282103575428
 20
-455.1136554613467
 30
0.0
 11
156.282103575428
 21
-2602.737142997798
 31
0.0
  0
LINE
  5
542
330
1F
100
AcDbEntity
  8
1-0_補助線
  6
JWW_HOJO
 62
   120
370
     5
100
AcDbLine
 10
565.0321035754058
 20
-1816.155803330814
 30
0.0
 11
565.0321035754058
 21
-2468.655287649505
 31
0.0
  0
LINE
  5
543
330
1F
100
AcDbEntity
  8
1-0_補助線
  6
JWW_HOJO
 62
   120
370
     5
100
AcDbLine
 10
741.2821035754075
 20
-1816.155803330814
 30
0.0
 11
741.2821035754075
 21
-2468.655287649505
 31
0.0
  0
LINE
  5
544
330
1F
100
AcDbEntity
  8
1-6_扉
  6
JWW_DASHED2
 62
     7
370
     5
100
AcDbLine
 10
216.2821035754075
 20
-483.9103996822757
 30
0.0
 11
216.2821035754075
 21
-2161.155803330816
 31
0.0
  0
LINE
  5
545
330
1F
100
AcDbEntity
  8
1-0_補助線
  6
JWW_HOJO
 62
   120
370
     5
100
AcDbLine
 10
441.2821035754331
 20
-483.9103996822757
 30
0.0
 11
441.2821035754331
 21
-2468.655803330811
 31
0.0
  0
LINE
  5
546
330
1F
100
AcDbEntity
  8
1-3_仕上げ
  6
Continuous
 62
    40
370
     5
100
AcDbLine
 10
-1199.75560205601
 20
-2288.655803330813
 30
0.0
 11
1503.208444578703
 21
-2288.655803330813
 31
0.0
  0
LINE
  5
547
330
1F
100
AcDbEntity
  8
1-3_仕上げ
  6
Continuous
 62
    40
370
     5
100
AcDbLine
 10
-1199.75560205601
 20
-2468.655803330811
 30
0.0
 11
1503.208444578703
 21
-2468.655803330811
 31
0.0
  0
LINE
  5
548
330
1F
100
AcDbEntity
  8
0-A_文字
  6
Continuous
 62
    92
370
     5
100
AcDbLine
 10
-1478.71789642457
 20
-171.0001979518549
 30
0.0
 11
1791.28210357543
 21
-171.0001979518549
 31
0.0
  0
LINE
  5
549
330
1F
100
AcDbEntity
  8
0-A_文字
  6
Continuous
 62
    92
370
     5
100
AcDbLine
 10
-1478.71789642457
 20
8.999802048145114
 30
0.0
 11
1791.28210357543
 21
8.999802048145114
 31
0.0
  0
LINE
  5
54A
330
1F
100
AcDbEntity
  8
0-A_文字
  6
Continuous
 62
    92
370
     5
100
AcDbLine
 10
-1478.71789642457
 20
-2811.000403945506
 30
0.0
 11
1791.28210357543
 21
-2811.000403945506
 31
0.0
  0
LINE
  5
54B
330
1F
100
AcDbEntity
  8
0-A_文字
  6
Continuous
 62
    92
370
     5
100
AcDbLine
 10
1791.28210357543
 20
8.999802048145114
 30
0.0
 11
1791.28210357543
 21
-2811.000403945506
 31
0.0
  0
LINE
  5
54C
330
1F
100
AcDbEntity
  8
1-4_枠
  6
Continuous
 62
    92
370
     5
100
AcDbLine
 10
1318.782103575428
 20
-483.9103996822757
 30
0.0
 11
1318.782103575428
 21
-2288.655803330813
 31
0.0
  0
LWPOLYLINE
  5
54D
330
1F
100
AcDbEntity
  8
1-B_寸法
  6
Continuous
 62
     7
370
     5
100
AcDbPolyline
 90
        4
 70
     1
 43
3.0
 10
1320.282103575428
 20
-696.4888920769255
 42
0.4142135623731
 10
1318.782103575428
 20
-694.9888920769255
 42
0.4142135623731
 10
1317.282103575428
 20
-696.4888920769255
 42
0.4142135623731
 10
1318.782103575428
 20
-697.9888920769255
 42
0.4142135623731
  0
LINE
  5
54E
330
1F
100
AcDbEntity
  8
1-4_枠
  6
Continuous
 62
    92
370
     5
100
AcDbLine
 10
-1006.217896424572
 20
-483.9103996822757
 30
0.0
 11
-1006.217896424572
 21
-2288.655803330813
 31
0.0
  0
LINE
  5
54F
330
1F
100
AcDbEntity
  8
1-B_寸法
  6
Continuous
 62
   120
370
     5
100
AcDbLine
 10
891.2821035754075
 20
-2288.655803330817
 30
0.0
 11
891.2821035754075
 21
-2243.655803330817
 31
0.0
  0
LWPOLYLINE
  5
550
330
1F
100
AcDbEntity
  8
1-B_寸法
  6
Continuous
 62
     7
370
     5
100
AcDbPolyline
 90
        4
 70
     1
 43
3.0
 10
892.7821035754075
 20
-2288.655803330817
 42
0.4142135623731
 10
891.2821035754075
 20
-2287.155803330817
 42
0.4142135623731
 10
889.7821035754075
 20
-2288.655803330817
 42
0.4142135623731
 10
891.2821035754075
 20
-2290.155803330817
 42
0.4142135623731
  0
LWPOLYLINE
  5
551
330
1F
100
AcDbEntity
  8
1-B_寸法
  6
Continuous
 62
     7
370
     5
100
AcDbPolyline
 90
        4
 70
     1
 43
3.0
 10
892.7821035754075
 20
-2243.655803330817
 42
0.4142135623731
 10
891.2821035754075
 20
-2242.155803330817
 42
0.4142135623731
 10
889.7821035754075
 20
-2243.655803330817
 42
0.4142135623731
 10
891.2821035754075
 20
-2245.155803330817
 42
0.4142135623731
  0
LINE
  5
552
330
1F
100
AcDbEntity
  8
1-B_寸法
  6
Continuous
 62
   120
370
     5
100
AcDbLine
 10
1041.282103575408
 20
-2288.655803330817
 30
0.0
 11
741.2821035754075
 21
-2288.655803330817
 31
0.0
  0
LINE
  5
553
330
1F
100
AcDbEntity
  8
1-B_寸法
  6
Continuous
 62
   120
370
     5
100
AcDbLine
 10
891.2821035754075
 20
-2243.655803330817
 30
0.0
 11
741.2821035754075
 21
-2243.655803330817
 31
0.0
  0
LWPOLYLINE
  5
554
330
1F
100
AcDbEntity
  8
1-B_寸法
  6
Continuous
 62
     7
370
     5
100
AcDbPolyline
 90
        4
 70
     1
 43
3.0
 10
892.7821035754075
 20
-2161.155803330816
 42
0.4142135623731
 10
891.2821035754075
 20
-2159.655803330817
 42
0.4142135623731
 10
889.7821035754075
 20
-2161.155803330816
 42
0.4142135623731
 10
891.2821035754075
 20
-2162.655803330816
 42
0.4142135623731
  0
LINE
  5
555
330
1F
100
AcDbEntity
  8
1-B_寸法
  6
Continuous
 62
   120
370
     5
100
AcDbLine
 10
1041.282103575408
 20
-2161.155803330816
 30
0.0
 11
741.2821035754075
 21
-2161.155803330816
 31
0.0
  0
LINE
  5
556
330
1F
100
AcDbEntity
  8
1-B_寸法
  6
Continuous
 62
   120
370
     5
100
AcDbLine
 10
1041.282103575408
 20
-2468.655803330816
 30
0.0
 11
1041.282103575408
 21
-2288.655803330817
 31
0.0
  0
LWPOLYLINE
  5
557
330
1F
100
AcDbEntity
  8
1-B_寸法
  6
Continuous
 62
     7
370
     5
100
AcDbPolyline
 90
        4
 70
     1
 43
3.0
 10
1042.782103575408
 20
-2468.655803330816
 42
0.4142135623731
 10
1041.282103575408
 20
-2467.155803330817
 42
0.4142135623731
 10
1039.782103575408
 20
-2468.655803330816
 42
0.4142135623731
 10
1041.282103575408
 20
-2470.155803330816
 42
0.4142135623731
  0
LWPOLYLINE
  5
558
330
1F
100
AcDbEntity
  8
1-B_寸法
  6
Continuous
 62
     7
370
     5
100
AcDbPolyline
 90
        4
 70
     1
 43
3.0
 10
1042.782103575408
 20
-2288.655803330817
 42
0.4142135623731
 10
1041.282103575408
 20
-2287.155803330817
 42
0.4142135623731
 10
1039.782103575408
 20
-2288.655803330817
 42
0.4142135623731
 10
1041.282103575408
 20
-2290.155803330817
 42
0.4142135623731
  0
LINE
  5
559
330
1F
100
AcDbEntity
  8
1-B_寸法
  6
Continuous
 62
   120
370
     5
100
AcDbLine
 10
1041.282103575408
 20
-2468.655803330816
 30
0.0
 11
741.2821035754075
 21
-2468.655803330816
 31
0.0
  0
LWPOLYLINE
  5
55A
330
1F
100
AcDbEntity
  8
1-B_寸法
  6
Continuous
 62
     7
370
     5
100
AcDbPolyline
 90
        4
 70
     1
 43
3.0
 10
1042.782103575408
 20
-2161.155803330816
 42
0.4142135623731
 10
1041.282103575408
 20
-2159.655803330817
 42
0.4142135623731
 10
1039.782103575408
 20
-2161.155803330816
 42
0.4142135623731
 10
1041.282103575408
 20
-2162.655803330816
 42
0.4142135623731
  0
LINE
  5
55B
330
1F
100
AcDbEntity
  8
1-B_寸法
  6
Continuous
 62
   120
370
     5
100
AcDbLine
 10
891.2821035754075
 20
-2243.655803330817
 30
0.0
 11
891.2821035754075
 21
-1970.096364289634
 31
0.0
  0
LINE
  5
55C
330
1F
100
AcDbEntity
  8
1-B_寸法
  6
Continuous
 62
   120
370
     5
100
AcDbLine
 10
1041.282103575408
 20
-2288.655803330817
 30
0.0
 11
1041.282103575408
 21
-1970.096364289634
 31
0.0
  0
LINE
  5
55D
330
1F
100
AcDbEntity
  8
1-6_扉
  6
JWW_DASHED2
 62
     7
370
     5
100
AcDbLine
 10
666.2821035754075
 20
-483.9103996822757
 30
0.0
 11
666.2821035754075
 21
-2161.155803330816
 31
0.0
  0
LINE
  5
55E
330
1F
100
AcDbEntity
  8
1-0_補助線
  6
JWW_HOJO
 62
   120
370
     5
100
AcDbLine
 10
741.2821035754075
 20
-1816.155803330814
 30
0.0
 11
40.03210357536318
 21
-1816.155803330814
 31
0.0
  0
LINE
  5
55F
330
1F
100
AcDbEntity
  8
1-0_補助線
  6
JWW_HOJO
 62
   120
370
     5
100
AcDbLine
 10
40.03210357536318
 20
-1816.155803330814
 30
0.0
 11
40.03210357536318
 21
-2468.655287649505
 31
0.0
  0
LINE
  5
560
330
1F
100
AcDbEntity
  8
1-0_補助線
  6
JWW_HOJO
 62
   120
370
     5
100
AcDbLine
 10
216.2821035754075
 20
-1816.155803330814
 30
0.0
 11
216.2821035754075
 21
-2468.655287649505
 31
0.0
  0
LINE
  5
561
330
1F
100
AcDbEntity
  8
1-B_寸法
  6
Continuous
 62
   120
370
     5
100
AcDbLine
 10
-1006.217896424572
 20
-876.4888920769255
 30
0.0
 11
118.782103575428
 21
-876.4888920769255
 31
0.0
  0
LWPOLYLINE
  5
562
330
1F
100
AcDbEntity
  8
1-B_寸法
  6
Continuous
 62
     7
370
     5
100
AcDbPolyline
 90
        4
 70
     1
 43
3.0
 10
-1004.717896424572
 20
-876.4888920769255
 42
0.4142135623731
 10
-1006.217896424572
 20
-874.9888920769255
 42
0.4142135623731
 10
-1007.717896424572
 20
-876.4888920769255
 42
0.4142135623731
 10
-1006.217896424572
 20
-877.9888920769255
 42
0.4142135623731
  0
LWPOLYLINE
  5
563
330
1F
100
AcDbEntity
  8
1-B_寸法
  6
Continuous
 62
     7
370
     5
100
AcDbPolyline
 90
        4
 70
     1
 43
3.0
 10
120.282103575428
 20
-876.4888920769255
 42
0.4142135623731
 10
118.782103575428
 20
-874.9888920769255
 42
0.4142135623731
 10
117.282103575428
 20
-876.4888920769255
 42
0.4142135623731
 10
118.782103575428
 20
-877.9888920769255
 42
0.4142135623731
  0
LINE
  5
564
330
1F
100
AcDbEntity
  8
1-B_寸法
  6
Continuous
 62
   120
370
     5
100
AcDbLine
 10
-1006.217896424572
 20
-876.4888920769255
 30
0.0
 11
-1006.217896424572
 21
-1026.488892076925
 31
0.0
  0
LINE
  5
565
330
1F
100
AcDbEntity
  8
1-B_寸法
  6
Continuous
 62
   120
370
     5
100
AcDbLine
 10
118.782103575428
 20
-876.4888920769255
 30
0.0
 11
118.782103575428
 21
-1026.488892076925
 31
0.0
  0
LINE
  5
566
330
1F
100
AcDbEntity
  8
1-B_寸法
  6
Continuous
 62
   120
370
     5
100
AcDbLine
 10
118.782103575428
 20
-876.4888920769255
 30
0.0
 11
216.2821035754075
 21
-876.4888920769255
 31
0.0
  0
LWPOLYLINE
  5
567
330
1F
100
AcDbEntity
  8
1-B_寸法
  6
Continuous
 62
     7
370
     5
100
AcDbPolyline
 90
        4
 70
     1
 43
3.0
 10
217.7821035754075
 20
-876.4888920769255
 42
0.4142135623731
 10
216.2821035754075
 20
-874.9888920769255
 42
0.4142135623731
 10
214.7821035754075
 20
-876.4888920769255
 42
0.4142135623731
 10
216.2821035754075
 20
-877.9888920769255
 42
0.4142135623731
  0
LINE
  5
568
330
1F
100
AcDbEntity
  8
1-B_寸法
  6
Continuous
 62
   120
370
     5
100
AcDbLine
 10
216.2821035754075
 20
-876.4888920769255
 30
0.0
 11
216.2821035754075
 21
-1026.488892076925
 31
0.0
  0
LINE
  5
569
330
1F
100
AcDbEntity
  8
1-B_寸法
  6
Continuous
 62
   120
370
     5
100
AcDbLine
 10
118.782103575428
 20
-1666.155803330812
 30
0.0
 11
118.782103575428
 21
-1816.155803330812
 31
0.0
  0
LWPOLYLINE
  5
56A
330
1F
100
AcDbEntity
  8
1-B_寸法
  6
Continuous
 62
     7
370
     5
100
AcDbPolyline
 90
        4
 70
     1
 43
3.0
 10
120.282103575428
 20
-1666.155803330812
 42
0.4142135623731
 10
118.782103575428
 20
-1664.655803330812
 42
0.4142135623731
 10
117.282103575428
 20
-1666.155803330812
 42
0.4142135623731
 10
118.782103575428
 20
-1667.655803330812
 42
0.4142135623731
  0
LINE
  5
56B
330
1F
100
AcDbEntity
  8
1-B_寸法
  6
Continuous
 62
   120
370
     5
100
AcDbLine
 10
193.7842636477239
 20
-1666.155803330812
 30
0.0
 11
118.782103575428
 21
-1666.155803330812
 31
0.0
  0
LINE
  5
56C
330
1F
100
AcDbEntity
  8
1-B_寸法
  6
Continuous
 62
   120
370
     5
100
AcDbLine
 10
193.7842636477239
 20
-1666.155803330812
 30
0.0
 11
193.7842636477239
 21
-1816.155803330812
 31
0.0
  0
LINE
  5
56D
330
1F
100
AcDbEntity
  8
1-B_寸法
  6
Continuous
 62
   120
370
     5
100
AcDbLine
 10
463.7842636477478
 20
-1666.155803330812
 30
0.0
 11
463.7842636477478
 21
-1816.155803330812
 31
0.0
  0
LWPOLYLINE
  5
56E
330
1F
100
AcDbEntity
  8
1-B_寸法
  6
Continuous
 62
     7
370
     5
100
AcDbPolyline
 90
        4
 70
     1
 43
3.0
 10
195.2842636477239
 20
-1666.155803330812
 42
0.4142135623731
 10
193.7842636477239
 20
-1664.655803330812
 42
0.4142135623731
 10
192.2842636477239
 20
-1666.155803330812
 42
0.4142135623731
 10
193.7842636477239
 20
-1667.655803330812
 42
0.4142135623731
  0
LWPOLYLINE
  5
56F
330
1F
100
AcDbEntity
  8
1-B_寸法
  6
Continuous
 62
     7
370
     5
100
AcDbPolyline
 90
        4
 70
     1
 43
3.0
 10
465.2842636477478
 20
-1666.155803330812
 42
0.4142135623731
 10
463.7842636477478
 20
-1664.655803330812
 42
0.4142135623731
 10
462.2842636477478
 20
-1666.155803330812
 42
0.4142135623731
 10
463.7842636477478
 20
-1667.655803330812
 42
0.4142135623731
  0
LINE
  5
570
330
1F
100
AcDbEntity
  8
1-B_寸法
  6
Continuous
 62
   120
370
     5
100
AcDbLine
 10
463.7842636477478
 20
-1666.155803330812
 30
0.0
 11
193.7842636477239
 21
-1666.155803330812
 31
0.0
  0
LWPOLYLINE
  5
571
330
1F
100
AcDbEntity
  8
1-B_寸法
  6
Continuous
 62
     7
370
     5
100
AcDbPolyline
 90
        4
 70
     1
 43
3.0
 10
-51.64593303029483
 20
-2288.655803330813
 42
0.4142135623731
 10
-53.14593303029483
 20
-2287.155803330813
 42
0.4142135623731
 10
-54.64593303029483
 20
-2288.655803330813
 42
0.4142135623731
 10
-53.14593303029483
 20
-2290.155803330813
 42
0.4142135623731
  0
LINE
  5
572
330
1F
100
AcDbEntity
  8
1-B_寸法
  6
Continuous
 62
   120
370
     5
100
AcDbLine
 10
-53.14593303029483
 20
-2288.655803330813
 30
0.0
 11
40.03210357536318
 21
-2288.655803330813
 31
0.0
  0
LINE
  5
573
330
1F
100
AcDbEntity
  8
1-B_寸法
  6
Continuous
 62
   120
370
     5
100
AcDbLine
 10
-53.14593303029483
 20
-2288.655803330813
 30
0.0
 11
-53.14593303029483
 21
-1988.655803330813
 31
0.0
  0
LWPOLYLINE
  5
574
330
1F
100
AcDbEntity
  8
1-B_寸法
  6
Continuous
 62
     7
370
     5
100
AcDbPolyline
 90
        4
 70
     1
 43
3.0
 10
-51.64593303029483
 20
-1988.655803330813
 42
0.4142135623731
 10
-53.14593303029483
 20
-1987.155803330813
 42
0.4142135623731
 10
-54.64593303029483
 20
-1988.655803330813
 42
0.4142135623731
 10
-53.14593303029483
 20
-1990.155803330813
 42
0.4142135623731
  0
LINE
  5
575
330
1F
100
AcDbEntity
  8
1-B_寸法
  6
Continuous
 62
   120
370
     5
100
AcDbLine
 10
-53.14593303029483
 20
-1988.655803330813
 30
0.0
 11
40.03210357536318
 21
-1988.655803330813
 31
0.0
  0
LINE
  5
576
330
1F
100
AcDbEntity
  8
1-B_寸法
  6
Continuous
 62
   120
370
     5
100
AcDbLine
 10
-211.6429595909653
 20
-2161.155803330812
 30
0.0
 11
-211.6429595909653
 21
-1891.155803330813
 31
0.0
  0
LWPOLYLINE
  5
577
330
1F
100
AcDbEntity
  8
1-B_寸法
  6
Continuous
 62
     7
370
     5
100
AcDbPolyline
 90
        4
 70
     1
 43
3.0
 10
-210.1429595909653
 20
-2161.155803330812
 42
0.4142135623731
 10
-211.6429595909653
 20
-2159.655803330812
 42
0.4142135623731
 10
-213.1429595909653
 20
-2161.155803330812
 42
0.4142135623731
 10
-211.6429595909653
 20
-2162.655803330812
 42
0.4142135623731
  0
LWPOLYLINE
  5
578
330
1F
100
AcDbEntity
  8
1-B_寸法
  6
Continuous
 62
     7
370
     5
100
AcDbPolyline
 90
        4
 70
     1
 43
3.0
 10
-210.1429595909653
 20
-1891.155803330813
 42
0.4142135623731
 10
-211.6429595909653
 20
-1889.655803330813
 42
0.4142135623731
 10
-213.1429595909653
 20
-1891.155803330813
 42
0.4142135623731
 10
-211.6429595909653
 20
-1892.655803330813
 42
0.4142135623731
  0
LINE
  5
579
330
1F
100
AcDbEntity
  8
1-B_寸法
  6
Continuous
 62
   120
370
     5
100
AcDbLine
 10
-211.6429595909653
 20
-1891.155803330813
 30
0.0
 11
40.03210357536318
 21
-1891.155803330813
 31
0.0
  0
LINE
  5
57A
330
1F
100
AcDbEntity
  8
1-B_寸法
  6
Continuous
 62
   120
370
     5
100
AcDbLine
 10
-211.6429595909653
 20
-2161.155803330812
 30
0.0
 11
-68.96409103855547
 21
-2161.155803330812
 31
0.0
  0
MTEXT
  5
57B
330
1F
100
AcDbEntity
  8
0-A_文字
  6
Continuous
 62
     7
370
     5
100
AcDbMText
 10
-773.717896424572
 20
-155.2801979518549
 30
0.0
 40
91.44000000000001
 41
1860.0
 46
0.0
 71
     7
 72
     1
  1
{\fＭＳ ゴシック|b0|i0|c128|p49;振れ止め金具取り付け位置　S=1/2}
 73
     1
 44
1.0
  0
MTEXT
  5
57C
330
1F
100
AcDbEntity
  8
1-A_文字
  6
Continuous
 62
     7
370
     5
100
AcDbMText
 10
-83.71789642457202
 20
-469.3936554613467
 30
0.0
 40
91.44
 41
480.0
 46
0.0
 71
     7
 72
     1
  1
{\fＭＳ ゴシック|b0|i0|c128|p49;センター}
 73
     1
 44
1.0
  0
MTEXT
  5
57D
330
1F
100
AcDbEntity
  8
1-A_文字
  6
Continuous
 62
     7
370
     5
100
AcDbMText
 10
-503.717896424572
 20
-1118.348831483477
 30
0.0
 40
91.44
 41
360.0
 46
0.0
 71
     7
 72
     1
  1
{\f@ＭＳ ゴシック|b0|i0|c128|p49;中方立}
 11
-1.836909530733566E-16
 21
-1.0
 31
0.0
 73
     1
 44
1.0
  0
MTEXT
  5
57E
330
1F
100
AcDbEntity
  8
1-A_文字
  6
Continuous
 62
     7
370
     5
100
AcDbMText
 10
396.282103575428
 20
-1118.348831483477
 30
0.0
 40
91.44
 41
360.0
 46
0.0
 71
     7
 72
     1
  1
{\f@ＭＳ ゴシック|b0|i0|c128|p49;引き戸}
 11
-1.836909530733566E-16
 21
-1.0
 31
0.0
 73
     1
 44
1.0
  0
MTEXT
  5
57F
330
1F
100
AcDbEntity
  8
1-A_文字
  6
Continuous
 62
     7
370
     5
100
AcDbMText
 10
-1006.217896424572
 20
-2452.935803330812
 30
0.0
 40
91.44
 41
480.0
 46
0.0
 71
     7
 72
     1
  1
{\fＭＳ ゴシック|b0|i0|c128|p49;フロアー}
 73
     1
 44
1.0
  0
MTEXT
  5
580
330
1F
100
AcDbEntity
  8
1-A_文字
  6
Continuous
 62
     7
370
     5
100
AcDbMText
 10
-763.1713019627487
 20
-2679.252886088489
 30
0.0
 40
91.44
 41
720.0
 46
0.0
 71
     7
 72
     1
  1
{\fＭＳ ゴシック|b0|i0|c128|p49;振れ止め金具}
 73
     1
 44
1.0
  0
MTEXT
  5
581
330
1F
100
AcDbEntity
  8
1-B_寸法
  6
Continuous
 62
     7
370
   211
100
AcDbMText
 10
58.78210357542457
 20
-691.9588920769255
 30
0.0
 40
99.06
 41
195.0
 46
0.0
 71
     7
 72
     1
  1
{\fＭＳ ゴシック|b0|i0|c128|p49;155}
 73
     1
 44
1.0
  0
MTEXT
  5
582
330
1F
100
AcDbEntity
  8
1-B_寸法
  6
Continuous
 62
     7
370
   211
100
AcDbMText
 10
-507.467896424572
 20
-872.9113920769255
 30
0.0
 40
97.15499999999999
 41
127.5
 46
0.0
 71
     7
 72
     1
  1
{\fＭＳ ゴシック|b0|i0|c128|p49;75}
 73
     1
 44
1.0
  0
MTEXT
  5
583
330
1F
100
AcDbEntity
  8
1-B_寸法
  6
Continuous
 62
     7
370
   211
100
AcDbMText
 10
258.4020874442203
 20
-871.9588920769255
 30
0.0
 40
99.06
 41
195.0
 46
0.0
 71
     7
 72
     1
  1
{\fＭＳ ゴシック|b0|i0|c128|p49;6.5}
 73
     1
 44
1.0
  0
MTEXT
  5
584
330
1F
100
AcDbEntity
  8
1-B_寸法
  6
Continuous
 62
     7
370
   211
100
AcDbMText
 10
126.283183611576
 20
-1665.435803330812
 30
0.0
 40
91.44
 41
60.0
 46
0.0
 71
     7
 72
     1
  1
{\fＭＳ ゴシック|b0|i0|c128|p49;5}
 73
     1
 44
1.0
  0
MTEXT
  5
585
330
1F
100
AcDbEntity
  8
1-B_寸法
  6
Continuous
 62
     7
370
   211
100
AcDbMText
 10
265.0342636477359
 20
-1662.578303330812
 30
0.0
 40
97.15499999999999
 41
127.5
 46
0.0
 71
     7
 72
     1
  1
{\fＭＳ ゴシック|b0|i0|c128|p49;18}
 73
     1
 44
1.0
  0
MTEXT
  5
586
330
1F
100
AcDbEntity
  8
1-B_寸法
  6
Continuous
 62
     7
370
   211
100
AcDbMText
 10
-226.6429595909653
 20
-2100.435803330813
 30
0.0
 40
91.44
 41
120.0
 46
0.0
 71
     7
 72
     1
  1
{\fＭＳ ゴシック|b0|i0|c128|p49;18}
 11
6.123031769111886E-17
 21
1.0
 31
0.0
 73
     1
 44
1.0
  0
MTEXT
  5
587
330
1F
100
AcDbEntity
  8
1-B_寸法
  6
Continuous
 62
     7
370
   211
100
AcDbMText
 10
-68.14593303029483
 20
-2155.336866719225
 30
0.0
 40
91.44
 41
120.0
 46
0.0
 71
     7
 72
     1
  1
{\fＭＳ ゴシック|b0|i0|c128|p49;20}
 11
6.123031769111886E-17
 21
1.0
 31
0.0
 73
     1
 44
1.0
  0
MTEXT
  5
588
330
1F
100
AcDbEntity
  8
1-B_寸法
  6
Continuous
 62
     7
370
   211
100
AcDbMText
 10
1026.282103575408
 20
-2162.224921595788
 30
0.0
 40
91.44
 41
180.0
 46
0.0
 71
     7
 72
     1
  1
{\fＭＳ ゴシック|b0|i0|c128|p49;8.5}
 11
6.123031769111886E-17
 21
1.0
 31
0.0
 73
     1
 44
1.0
  0
MTEXT
  5
589
330
1F
100
AcDbEntity
  8
1-B_寸法
  6
Continuous
 62
     7
370
   211
100
AcDbMText
 10
876.2821035754075
 20
-2164.376364289635
 30
0.0
 40
91.44
 41
180.0
 46
0.0
 71
     7
 72
     1
  1
{\fＭＳ ゴシック|b0|i0|c128|p49;5.5}
 11
6.123031769111886E-17
 21
1.0
 31
0.0
 73
     1
 44
1.0
  0
MTEXT
  5
58A
330
1F
100
AcDbEntity
  8
1-B_寸法
  6
Continuous
 62
     7
370
   211
100
AcDbMText
 10
876.2821035754075
 20
-2310.435803330817
 30
0.0
 40
91.44
 41
60.0
 46
0.0
 71
     7
 72
     1
  1
{\fＭＳ ゴシック|b0|i0|c128|p49;3}
 11
6.123031769111886E-17
 21
1.0
 31
0.0
 73
     1
 44
1.0
  0
MTEXT
  5
58B
330
1F
100
AcDbEntity
  8
1-B_寸法
  6
Continuous
 62
     7
370
   211
100
AcDbMText
 10
1026.282103575408
 20
-2452.935803330817
 30
0.0
 40
91.44
 41
120.0
 46
0.0
 71
     7
 72
     1
  1
{\fＭＳ ゴシック|b0|i0|c128|p49;12}
 11
6.123031769111886E-17
 21
1.0
 31
0.0
 73
     1
 44
1.0
  0
LINE
  5
58C
330
1F
100
AcDbEntity
  8
0-A_文字
  6
Continuous
 62
    92
370
     5
100
AcDbLine
 10
4267.554982111204
 20
-3615.800350305688
 30
0.0
 11
4267.554982111204
 21
8.999802048145114
 31
0.0
  0
LINE
  5
58D
330
1F
100
AcDbEntity
  8
0-A_文字
  6
Continuous
 62
    92
370
     5
100
AcDbLine
 10
2031.28210357543
 20
-3615.800350305688
 30
0.0
 11
2031.28210357543
 21
8.999802048145114
 31
0.0
  0
LINE
  5
58E
330
1F
100
AcDbEntity
  8
0-A_文字
  6
Continuous
 62
    92
370
     5
100
AcDbLine
 10
2031.28210357543
 20
-3615.800350305688
 30
0.0
 11
4267.554982111204
 21
-3615.800350305688
 31
0.0
  0
LINE
  5
58F
330
1F
100
AcDbEntity
  8
0-7_金物
  6
Continuous
 62
     7
370
     5
100
AcDbLine
 10
-3501.317895649869
 20
-443.4001972245838
 30
0.0
 11
-3501.317895649869
 21
-333.0001979518559
 31
0.0
  0
LWPOLYLINE
  5
590
330
1F
100
AcDbEntity
  8
0-B_寸法
  6
Continuous
 62
     7
370
     5
100
AcDbPolyline
 90
        4
 70
     1
 43
3.0
 10
-1093.926837887563
 20
2438.999633789062
 42
0.4142135623731
 10
-1095.426837887563
 20
2440.499633789062
 42
0.4142135623731
 10
-1096.926837887563
 20
2438.999633789062
 42
0.4142135623731
 10
-1095.426837887563
 20
2437.499633789062
 42
0.4142135623731
  0
LWPOLYLINE
  5
591
330
1F
100
AcDbEntity
  8
0-B_寸法
  6
Continuous
 62
     7
370
     5
100
AcDbPolyline
 90
        4
 70
     1
 43
3.0
 10
-1093.926837887563
 20
2552.999683277028
 42
0.4142135623731
 10
-1095.426837887563
 20
2554.499683277028
 42
0.4142135623731
 10
-1096.926837887563
 20
2552.999683277028
 42
0.4142135623731
 10
-1095.426837887563
 20
2551.499683277028
 42
0.4142135623731
  0
LWPOLYLINE
  5
592
330
1F
100
AcDbEntity
  8
0-B_寸法
  6
Continuous
 62
     7
370
     5
100
AcDbPolyline
 90
        4
 70
     1
 43
3.0
 10
-3382.217896424567
 20
-1419.000324800429
 42
0.4142135623731
 10
-3383.717896424566
 20
-1417.500324800429
 42
0.4142135623731
 10
-3385.217896424566
 20
-1419.000324800429
 42
0.4142135623731
 10
-3383.717896424566
 20
-1420.500324800429
 42
0.4142135623731
  0
LWPOLYLINE
  5
593
330
1F
100
AcDbEntity
  8
0-B_寸法
  6
Continuous
 62
     7
370
     5
100
AcDbPolyline
 90
        4
 70
     1
 43
3.0
 10
-3496.21785736084
 20
-1419.000324800429
 42
0.4142135623731
 10
-3497.71785736084
 20
-1417.500324800429
 42
0.4142135623731
 10
-3499.21785736084
 20
-1419.000324800429
 42
0.4142135623731
 10
-3497.71785736084
 20
-1420.500324800429
 42
0.4142135623731
  0
MTEXT
  5
594
330
1F
100
AcDbEntity
  8
F-A_文字
  6
Continuous
 62
     7
370
     0
100
AcDbMText
 10
4889.917891251784
 20
-3945.570773120548
 30
0.0
 40
78.86699999999999
 41
517.5
 46
0.0
 71
     7
 72
     1
  1
{\fＭＳ ゴシック|b0|i0|c128|p49;2022.04.01}
 73
     1
 44
1.0
  0
LINE
  5
595
330
1F
100
AcDbEntity
  8
0-1_通り芯
  6
JWW_CENTER1
 62
   120
370
     5
100
AcDbLine
 10
-3497.71789642457
 20
194.9998020481414
 30
0.0
 11
-3497.71789642457
 21
-3016.490004164931
 31
0.0
  0
LINE
  5
596
330
1F
100
AcDbEntity
  8
0-1_通り芯
  6
JWW_CENTER1
 62
   120
370
     5
100
AcDbLine
 10
-3383.717896424566
 20
-237.0001979518563
 30
0.0
 11
-3383.717896424567
 21
-2781.000403945504
 31
0.0
  0
LINE
  5
597
330
1F
100
AcDbEntity
  8
0-1_通り芯
  6
JWW_CENTER1
 62
   120
370
     5
100
AcDbLine
 10
1753.833698921174
 20
2552.999683277028
 30
0.0
 11
-1769.956827167385
 21
2552.999683277028
 31
0.0
  0
LINE
  5
598
330
1F
100
AcDbEntity
  8
0-6_扉
  6
Continuous
 62
   200
370
     5
100
AcDbLine
 10
-1721.95682757364
 20
2463.000301721933
 30
0.0
 11
-880.0091405047033
 21
2463.000301721933
 31
0.0
  0
MTEXT
  5
599
330
1F
100
AcDbEntity
  8
0-B_寸法
  6
Continuous
 62
     7
370
     0
100
AcDbMText
 10
-1410.426837887565
 20
2230.501058054289
 30
0.0
 40
91.44
 41
180.0
 46
0.0
 71
     7
 72
     1
  1
{\fＭＳ ゴシック|b0|i0|c128|p49;155}
 11
6.123031769111886E-17
 21
1.0
 31
0.0
 73
     1
 44
1.0
  0
MTEXT
  5
59A
330
1F
100
AcDbEntity
  8
0-B_寸法
  6
Continuous
 62
     7
370
   211
100
AcDbMText
 10
-1110.426837887563
 20
2288.827158533045
 30
0.0
 40
97.15499999999999
 41
127.5
 46
0.0
 71
     7
 72
     1
  1
{\fＭＳ ゴシック|b0|i0|c128|p49;19}
 11
6.123031769111886E-17
 21
1.0
 31
0.0
 73
     1
 44
1.0
  0
LINE
  5
59B
330
1F
100
AcDbEntity
  8
0-B_寸法
  6
Continuous
 62
   120
370
     5
100
AcDbLine
 10
-1095.426837887563
 20
2306.999633789062
 30
0.0
 11
-1095.426837887563
 21
2552.999683277028
 31
0.0
  0
LINE
  5
59C
330
1F
100
AcDbEntity
  8
0-6_扉
  6
Continuous
 62
   200
370
     5
100
AcDbLine
 10
-760.0091405047033
 20
2463.000301721933
 30
0.0
 11
81.9385465642327
 21
2463.000301721933
 31
0.0
  0
LINE
  5
59D
330
1F
100
AcDbEntity
  8
0-B_寸法
  6
Continuous
 62
   120
370
     5
100
AcDbLine
 10
-341.9081774094153
 20
2463.000301721933
 30
0.0
 11
-191.6304262085066
 21
2463.000301721933
 31
0.0
  0
LINE
  5
59E
330
1F
100
AcDbEntity
  8
0-B_寸法
  6
Continuous
 62
   120
370
     5
100
AcDbLine
 10
-341.9081774094153
 20
2424.000301721935
 30
0.0
 11
-191.6304262085066
 21
2424.000301721935
 31
0.0
  0
LINE
  5
59F
330
1F
100
AcDbEntity
  8
0-6_扉
  6
JWW_DASHED1
 62
    40
370
     5
100
AcDbLine
 10
944.8861222852472
 20
2643.00015325804
 30
0.0
 11
1705.833698006263
 21
2643.00015325804
 31
0.0
  0
LINE
  5
5A0
330
1F
100
AcDbEntity
  8
0-6_扉
  6
Continuous
 62
   200
370
     5
100
AcDbLine
 10
-3473.717896424579
 20
-414.0001979518539
 30
0.0
 11
-3473.717896424579
 21
-1467.000300948678
 31
0.0
  0
MTEXT
  5
5A1
330
1F
100
AcDbEntity
  8
0-B_寸法
  6
Continuous
 62
     7
370
     0
100
AcDbMText
 10
-3692.381850402139
 20
-868.1051942929557
 30
0.0
 40
91.44
 41
180.0
 46
0.0
 71
     7
 72
     1
  1
{\fＭＳ ゴシック|b0|i0|c128|p49;147}
 73
     1
 44
1.0
  0
MTEXT
  5
5A2
330
1F
100
AcDbEntity
  8
0-B_寸法
  6
Continuous
 62
     7
370
   211
100
AcDbMText
 10
-3636.467876892703
 20
-1415.422824800429
 30
0.0
 40
97.15499999999999
 41
127.5
 46
0.0
 71
     7
 72
     1
  1
{\fＭＳ ゴシック|b0|i0|c128|p49;19}
 73
     1
 44
1.0
  0
LINE
  5
5A3
330
1F
100
AcDbEntity
  8
0-B_寸法
  6
Continuous
 62
   120
370
     5
100
AcDbLine
 10
-3383.717896424566
 20
-1419.000324800429
 30
0.0
 11
-3629.71785736084
 21
-1419.000324800429
 31
0.0
  0
MTEXT
  5
5A4
330
1F
100
AcDbEntity
  8
0-B_寸法
  6
Continuous
 62
     7
370
     0
100
AcDbMText
 10
1436.487196728457
 20
2448.719683277027
 30
0.0
 40
91.44
 41
180.0
 46
0.0
 71
     7
 72
     1
  1
{\fＭＳ ゴシック|b0|i0|c128|p49;100}
 11
6.123031769111886E-17
 21
1.0
 31
0.0
 73
     1
 44
1.0
  0
ENDSEC
  0
SECTION
  2
OBJECTS
  0
DICTIONARY
  5
C
330
0
100
AcDbDictionary
281
     1
  3
ACAD_GROUP
350
D
  3
ACAD_LAYOUT
350
1A
  3
ACAD_MATERIAL
350
3B
  3
ACAD_MLEADERSTYLE
350
5A6
  3
ACAD_MLINESTYLE
350
17
  3
ACAD_PLOTSETTINGS
350
19
  3
ACAD_PLOTSTYLENAME
350
E
  3
ACAD_TABLESTYLE
350
5A5
  3
ACAD_VISUALSTYLE
350
2A
  0
DICTIONARY
  5
D
102
{ACAD_REACTORS
330
C
102
}
330
C
100
AcDbDictionary
281
     1
  0
DICTIONARY
  5
1A
102
{ACAD_REACTORS
330
C
102
}
330
C
100
AcDbDictionary
281
     1
  3
Layout1
350
1E
  3
Layout2
350
26
  3
Model
350
22
  0
DICTIONARY
  5
3B
102
{ACAD_REACTORS
330
C
102
}
330
C
100
AcDbDictionary
281
     1
  3
ByBlock
350
3D
  3
ByLayer
350
3C
  3
Global
350
3E
  0
DICTIONARY
  5
5A6
102
{ACAD_REACTORS
330
C
102
}
330
C
100
AcDbDictionary
281
     1
  0
DICTIONARY
  5
17
102
{ACAD_REACTORS
330
C
102
}
330
C
100
AcDbDictionary
281
     1
  3
Standard
350
18
  0
DICTIONARY
  5
19
102
{ACAD_REACTORS
330
C
102
}
330
C
100
AcDbDictionary
281
     1
  0
ACDBDICTIONARYWDFLT
  5
E
102
{ACAD_REACTORS
330
C
102
}
330
C
100
AcDbDictionary
281
     1
  3
Normal
350
F
100
AcDbDictionaryWithDefault
340
F
  0
DICTIONARY
  5
5A5
102
{ACAD_REACTORS
330
C
102
}
330
C
100
AcDbDictionary
281
     1
  0
DICTIONARY
  5
2A
102
{ACAD_REACTORS
330
C
102
}
330
C
100
AcDbDictionary
281
     1
  3
2dWireframe
350
2F
  3
3D Hidden
350
31
  3
3dWireframe
350
30
  3
Basic
350
32
  3
Brighten
350
36
  3
ColorChange
350
3A
  3
Conceptual
350
34
  3
Dim
350
35
  3
Facepattern
350
39
  3
Flat
350
2B
  3
FlatWithEdges
350
2C
  3
Gouraud
350
2D
  3
GouraudWithEdges
350
2E
  3
Linepattern
350
38
  3
Realistic
350
33
  3
Thicken
350
37
  0
LAYOUT
  5
1E
102
{ACAD_REACTORS
330
1A
102
}
330
1A
100
AcDbPlotSettings
  1

  2
none_device
  4

  6

 40
0.0
 41
0.0
 42
0.0
 43
0.0
 44
0.0
 45
0.0
 46
0.0
 47
0.0
 48
0.0
 49
0.0
140
0.0
141
0.0
142
1.0
143
1.0
 70
   688
 72
     0
 73
     0
 74
     5
  7

 75
    16
 76
     0
 77
     5
 78
   300
147
1.0
148
0.0
149
0.0
100
AcDbLayout
  1
Layout1
 70
     1
 71
     1
 10
0.0
 20
0.0
 11
420.0
 21
297.0
 12
0.0
 22
0.0
 32
0.0
 14
1.000000000000000E+20
 24
1.000000000000000E+20
 34
1.000000000000000E+20
 15
-1.000000000000000E+20
 25
-1.000000000000000E+20
 35
-1.000000000000000E+20
146
0.0
 13
0.0
 23
0.0
 33
0.0
 16
1.0
 26
0.0
 36
0.0
 17
0.0
 27
1.0
 37
0.0
 76
     0
330
1B
  0
LAYOUT
  5
26
102
{ACAD_REACTORS
330
1A
102
}
330
1A
100
AcDbPlotSettings
  1

  2
none_device
  4

  6

 40
0.0
 41
0.0
 42
0.0
 43
0.0
 44
0.0
 45
0.0
 46
0.0
 47
0.0
 48
0.0
 49
0.0
140
0.0
141
0.0
142
1.0
143
1.0
 70
   688
 72
     0
 73
     0
 74
     5
  7

 75
    16
 76
     0
 77
     5
 78
   300
147
1.0
148
0.0
149
0.0
100
AcDbLayout
  1
Layout2
 70
     1
 71
     2
 10
0.0
 20
0.0
 11
0.0
 21
0.0
 12
0.0
 22
0.0
 32
0.0
 14
0.0
 24
0.0
 34
0.0
 15
0.0
 25
0.0
 35
0.0
146
0.0
 13
0.0
 23
0.0
 33
0.0
 16
1.0
 26
0.0
 36
0.0
 17
0.0
 27
1.0
 37
0.0
 76
     0
330
23
  0
LAYOUT
  5
22
102
{ACAD_REACTORS
330
1A
102
}
330
1A
100
AcDbPlotSettings
  1

  2
none_device
  4

  6

 40
0.0
 41
0.0
 42
0.0
 43
0.0
 44
0.0
 45
0.0
 46
0.0
 47
0.0
 48
0.0
 49
0.0
140
0.0
141
0.0
142
1.0
143
1.0
 70
  1712
 72
     0
 73
     0
 74
     0
  7

 75
     0
 76
     0
 77
     5
 78
   300
147
1.0
148
0.0
149
0.0
100
AcDbLayout
  1
Model
 70
     1
 71
     0
 10
-8910.0
 20
-6300.0
 11
8910.0
 21
6300.0
 12
0.0
 22
0.0
 32
0.0
 14
-8910.0
 24
-6300.0
 34
0.0
 15
8910.0
 25
6300.0
 35
0.0
146
0.0
 13
0.0
 23
0.0
 33
0.0
 16
1.0
 26
0.0
 36
0.0
 17
0.0
 27
1.0
 37
0.0
 76
     0
330
1F
331
29
  0
MATERIAL
  5
3D
102
{ACAD_REACTORS
330
3B
102
}
330
3B
100
AcDbMaterial
  1
ByBlock
 72
     1
 94
      127
  0
MATERIAL
  5
3C
102
{ACAD_REACTORS
330
3B
102
}
330
3B
100
AcDbMaterial
  1
ByLayer
 72
     1
 94
      127
  0
MATERIAL
  5
3E
102
{ACAD_REACTORS
330
3B
102
}
330
3B
100
AcDbMaterial
  1
Global
 72
     1
 94
      127
  0
MLINESTYLE
  5
18
102
{ACAD_REACTORS
330
17
102
}
330
17
100
AcDbMlineStyle
  2
Standard
 70
     0
  3

 62
   256
 51
90.0
 52
90.0
 71
     2
 49
0.5
 62
   256
  6
BYLAYER
 49
-0.5
 62
   256
  6
BYLAYER
  0
ACDBPLACEHOLDER
  5
F
102
{ACAD_REACTORS
330
E
102
}
330
E
  0
VISUALSTYLE
  5
2F
102
{ACAD_REACTORS
330
2A
102
}
330
2A
100
AcDbVisualStyle
  2
2dWireframe
 70
     4
177
     2
291
     0
 71
     0
176
     1
 72
     2
176
     1
 73
     0
176
     1
 90
        0
176
     1
 40
-0.6
176
     1
 41
-30.0
176
     1
 62
     5
 63
     7
421
 16777215
176
     1
 74
     1
176
     1
 91
        4
176
     1
 64
     7
176
     1
 65
   257
176
     1
 75
     1
176
     1
175
     1
176
     1
 42
1.0
176
     1
 92
        0
176
     1
 66
   257
176
     1
 43
1.0
176
     1
 76
     1
176
     1
 77
     6
176
     1
 78
     2
176
     1
 67
     7
176
     1
 79
     5
176
     1
170
     0
176
     1
171
     0
176
     1
290
     0
176
     1
 93
        1
176
     1
 44
0.0
176
     1
173
     0
176
     1
  0
VISUALSTYLE
  5
31
102
{ACAD_REACTORS
330
2A
102
}
330
2A
100
AcDbVisualStyle
  2
3D Hidden
 70
     6
177
     2
291
     0
 71
     1
176
     1
 72
     2
176
     1
 73
     2
176
     1
 90
        0
176
     1
 40
-0.6
176
     1
 41
-30.0
176
     1
 62
     5
 63
     7
421
 16777215
176
     1
 74
     2
176
     1
 91
        2
176
     1
 64
     7
176
     1
 65
   257
176
     1
 75
     2
176
     1
175
     1
176
     1
 42
40.0
176
     1
 92
        0
176
     1
 66
   257
176
     1
 43
1.0
176
     1
 76
     1
176
     1
 77
     6
176
     1
 78
     2
176
     1
 67
     7
176
     1
 79
     3
176
     1
170
     0
176
     1
171
     0
176
     1
290
     0
176
     1
 93
        1
176
     1
 44
0.0
176
     1
173
     0
176
     1
  0
VISUALSTYLE
  5
30
102
{ACAD_REACTORS
330
2A
102
}
330
2A
100
AcDbVisualStyle
  2
3dWireframe
 70
     5
177
     2
291
     0
 71
     0
176
     1
 72
     2
176
     1
 73
     0
176
     1
 90
        0
176
     1
 40
-0.6
176
     1
 41
-30.0
176
     1
 62
     5
 63
     7
421
 16777215
176
     1
 74
     1
176
     1
 91
        4
176
     1
 64
     7
176
     1
 65
   257
176
     1
 75
     1
176
     1
175
     1
176
     1
 42
1.0
176
     1
 92
        0
176
     1
 66
   257
176
     1
 43
1.0
176
     1
 76
     1
176
     1
 77
     6
176
     1
 78
     2
176
     1
 67
     7
176
     1
 79
     5
176
     1
170
     0
176
     1
171
     0
176
     1
290
     0
176
     1
 93
        1
176
     1
 44
0.0
176
     1
173
     0
176
     1
  0
VISUALSTYLE
  5
32
102
{ACAD_REACTORS
330
2A
102
}
330
2A
100
AcDbVisualStyle
  2
Basic
 70
     7
177
     2
291
     1
 71
     1
176
     1
 72
     0
176
     1
 73
     1
176
     1
 90
        0
176
     1
 40
-0.6
176
     1
 41
-30.0
176
     1
 62
     5
 63
     7
421
 16777215
176
     1
 74
     0
176
     1
 91
        4
176
     1
 64
     7
176
     1
 65
   257
176
     1
 75
     1
176
     1
175
     1
176
     1
 42
1.0
176
     1
 92
        8
176
     1
 66
     7
176
     1
 43
1.0
176
     1
 76
     1
176
     1
 77
     6
176
     1
 78
     2
176
     1
 67
     7
176
     1
 79
     5
176
     1
170
     0
176
     1
171
     0
176
     1
290
     0
176
     1
 93
        1
176
     1
 44
0.0
176
     1
173
     0
176
     1
  0
VISUALSTYLE
  5
36
102
{ACAD_REACTORS
330
2A
102
}
330
2A
100
AcDbVisualStyle
  2
Brighten
 70
    12
177
     2
291
     1
 71
     2
176
     1
 72
     2
176
     1
 73
     0
176
     1
 90
        0
176
     1
 40
-0.6
176
     1
 41
-30.0
176
     1
 62
     5
 63
     7
421
 16777215
176
     1
 74
     1
176
     1
 91
        4
176
     1
 64
     7
176
     1
 65
   257
176
     1
 75
     1
176
     1
175
     1
176
     1
 42
1.0
176
     1
 92
        8
176
     1
 66
     7
176
     1
 43
1.0
176
     1
 76
     1
176
     1
 77
     6
176
     1
 78
     2
176
     1
 67
     7
176
     1
 79
     5
176
     1
170
     0
176
     1
171
     0
176
     1
290
     0
176
     1
 93
        1
176
     1
 44
50.0
176
     1
173
     0
176
     1
  0
VISUALSTYLE
  5
3A
102
{ACAD_REACTORS
330
2A
102
}
330
2A
100
AcDbVisualStyle
  2
ColorChange
 70
    16
177
     2
291
     1
 71
     2
176
     1
 72
     2
176
     1
 73
     3
176
     1
 90
        0
176
     1
 40
-0.6
176
     1
 41
-30.0
176
     1
 62
     5
 63
     8
421
  8421504
176
     1
 74
     1
176
     1
 91
        4
176
     1
 64
     7
176
     1
 65
   257
176
     1
 75
     1
176
     1
175
     1
176
     1
 42
1.0
176
     1
 92
        8
176
     1
 66
     8
424
  8421504
176
     1
 43
1.0
176
     1
 76
     1
176
     1
 77
     6
176
     1
 78
     2
176
     1
 67
     7
176
     1
 79
     5
176
     1
170
     0
176
     1
171
     0
176
     1
290
     0
176
     1
 93
        1
176
     1
 44
0.0
176
     1
173
     0
176
     1
  0
VISUALSTYLE
  5
34
102
{ACAD_REACTORS
330
2A
102
}
330
2A
100
AcDbVisualStyle
  2
Conceptual
 70
     9
177
     2
291
     0
 71
     3
176
     1
 72
     2
176
     1
 73
     0
176
     1
 90
        0
176
     1
 40
-0.6
176
     1
 41
-30.0
176
     1
 62
     5
 63
     7
421
 16777215
176
     1
 74
     2
176
     1
 91
        2
176
     1
 64
     7
176
     1
 65
   257
176
     1
 75
     1
176
     1
175
     1
176
     1
 42
40.0
176
     1
 92
        8
176
     1
 66
     7
176
     1
 43
1.0
176
     1
 76
     1
176
     1
 77
     6
176
     1
 78
     2
176
     1
 67
     7
176
     1
 79
     3
176
     1
170
     0
176
     1
171
     0
176
     1
290
     0
176
     1
 93
        1
176
     1
 44
0.0
176
     1
173
     0
176
     1
  0
VISUALSTYLE
  5
35
102
{ACAD_REACTORS
330
2A
102
}
330
2A
100
AcDbVisualStyle
  2
Dim
 70
    11
177
     2
291
     1
 71
     2
176
     1
 72
     2
176
     1
 73
     0
176
     1
 90
        0
176
     1
 40
-0.6
176
     1
 41
-30.0
176
     1
 62
     5
 63
     7
421
 16777215
176
     1
 74
     1
176
     1
 91
        4
176
     1
 64
     7
176
     1
 65
   257
176
     1
 75
     1
176
     1
175
     1
176
     1
 42
1.0
176
     1
 92
        8
176
     1
 66
     7
176
     1
 43
1.0
176
     1
 76
     1
176
     1
 77
     6
176
     1
 78
     2
176
     1
 67
     7
176
     1
 79
     5
176
     1
170
     0
176
     1
171
     0
176
     1
290
     0
176
     1
 93
        1
176
     1
 44
-50.0
176
     1
173
     0
176
     1
  0
VISUALSTYLE
  5
39
102
{ACAD_REACTORS
330
2A
102
}
330
2A
100
AcDbVisualStyle
  2
Facepattern
 70
    15
177
     2
291
     1
 71
     2
176
     1
 72
     2
176
     1
 73
     0
176
     1
 90
        0
176
     1
 40
-0.6
176
     1
 41
-30.0
176
     1
 62
     5
 63
     7
421
 16777215
176
     1
 74
     1
176
     1
 91
        4
176
     1
 64
     7
176
     1
 65
   257
176
     1
 75
     1
176
     1
175
     1
176
     1
 42
1.0
176
     1
 92
        8
176
     1
 66
     7
176
     1
 43
1.0
176
     1
 76
     1
176
     1
 77
     6
176
     1
 78
     2
176
     1
 67
     7
176
     1
 79
     5
176
     1
170
     0
176
     1
171
     0
176
     1
290
     0
176
     1
 93
        1
176
     1
 44
0.0
176
     1
173
     0
176
     1
  0
VISUALSTYLE
  5
2B
102
{ACAD_REACTORS
330
2A
102
}
330
2A
100
AcDbVisualStyle
  2
Flat
 70
     0
177
     2
291
     1
 71
     2
176
     1
 72
     1
176
     1
 73
     1
176
     1
 90
        2
176
     1
 40
-0.6
176
     1
 41
30.0
176
     1
 62
     5
 63
     7
421
 16777215
176
     1
 74
     0
176
     1
 91
        4
176
     1
 64
     7
176
     1
 65
   257
176
     1
 75
     1
176
     1
175
     1
176
     1
 42
1.0
176
     1
 92
        8
176
     1
 66
     7
176
     1
 43
1.0
176
     1
 76
     1
176
     1
 77
     6
176
     1
 78
     2
176
     1
 67
     7
176
     1
 79
     5
176
     1
170
     0
176
     1
171
     0
176
     1
290
     0
176
     1
 93
       13
176
     1
 44
0.0
176
     1
173
     0
176
     1
  0
VISUALSTYLE
  5
2C
102
{ACAD_REACTORS
330
2A
102
}
330
2A
100
AcDbVisualStyle
  2
FlatWithEdges
 70
     1
177
     2
291
     1
 71
     2
176
     1
 72
     1
176
     1
 73
     1
176
     1
 90
        2
176
     1
 40
-0.6
176
     1
 41
30.0
176
     1
 62
     5
 63
     7
421
 16777215
176
     1
 74
     1
176
     1
 91
        4
176
     1
 64
     7
176
     1
 65
   257
176
     1
 75
     1
176
     1
175
     1
176
     1
 42
1.0
176
     1
 92
        0
176
     1
 66
   257
176
     1
 43
1.0
176
     1
 76
     1
176
     1
 77
     6
176
     1
 78
     2
176
     1
 67
     7
176
     1
 79
     5
176
     1
170
     0
176
     1
171
     0
176
     1
290
     0
176
     1
 93
       13
176
     1
 44
0.0
176
     1
173
     0
176
     1
  0
VISUALSTYLE
  5
2D
102
{ACAD_REACTORS
330
2A
102
}
330
2A
100
AcDbVisualStyle
  2
Gouraud
 70
     2
177
     2
291
     1
 71
     2
176
     1
 72
     2
176
     1
 73
     1
176
     1
 90
        2
176
     1
 40
-0.6
176
     1
 41
30.0
176
     1
 62
     5
 63
     7
421
 16777215
176
     1
 74
     0
176
     1
 91
        4
176
     1
 64
     7
176
     1
 65
   257
176
     1
 75
     1
176
     1
175
     1
176
     1
 42
1.0
176
     1
 92
        0
176
     1
 66
     7
176
     1
 43
1.0
176
     1
 76
     1
176
     1
 77
     6
176
     1
 78
     2
176
     1
 67
     7
176
     1
 79
     5
176
     1
170
     0
176
     1
171
     0
176
     1
290
     0
176
     1
 93
       13
176
     1
 44
0.0
176
     1
173
     0
176
     1
  0
VISUALSTYLE
  5
2E
102
{ACAD_REACTORS
330
2A
102
}
330
2A
100
AcDbVisualStyle
  2
GouraudWithEdges
 70
     3
177
     2
291
     1
 71
     2
176
     1
 72
     2
176
     1
 73
     1
176
     1
 90
        2
176
     1
 40
-0.6
176
     1
 41
30.0
176
     1
 62
     5
 63
     7
421
 16777215
176
     1
 74
     1
176
     1
 91
        4
176
     1
 64
     7
176
     1
 65
   257
176
     1
 75
     1
176
     1
175
     1
176
     1
 42
1.0
176
     1
 92
        0
176
     1
 66
   257
176
     1
 43
1.0
176
     1
 76
     1
176
     1
 77
     6
176
     1
 78
     2
176
     1
 67
     7
176
     1
 79
     5
176
     1
170
     0
176
     1
171
     0
176
     1
290
     0
176
     1
 93
       13
176
     1
 44
0.0
176
     1
173
     0
176
     1
  0
VISUALSTYLE
  5
38
102
{ACAD_REACTORS
330
2A
102
}
330
2A
100
AcDbVisualStyle
  2
Linepattern
 70
    14
177
     2
291
     1
 71
     2
176
     1
 72
     2
176
     1
 73
     0
176
     1
 90
        0
176
     1
 40
-0.6
176
     1
 41
-30.0
176
     1
 62
     5
 63
     7
421
 16777215
176
     1
 74
     1
176
     1
 91
        4
176
     1
 64
     7
176
     1
 65
   257
176
     1
 75
     7
176
     1
175
     7
176
     1
 42
1.0
176
     1
 92
        8
176
     1
 66
     7
176
     1
 43
1.0
176
     1
 76
     1
176
     1
 77
     6
176
     1
 78
     2
176
     1
 67
     7
176
     1
 79
     5
176
     1
170
     0
176
     1
171
     0
176
     1
290
     0
176
     1
 93
        1
176
     1
 44
0.0
176
     1
173
     0
176
     1
  0
VISUALSTYLE
  5
33
102
{ACAD_REACTORS
330
2A
102
}
330
2A
100
AcDbVisualStyle
  2
Realistic
 70
     8
177
     2
291
     0
 71
     2
176
     1
 72
     2
176
     1
 73
     0
176
     1
 90
        0
176
     1
 40
-0.6
176
     1
 41
-30.0
176
     1
 62
     5
 63
     7
421
 16777215
176
     1
 74
     1
176
     1
 91
        0
176
     1
 64
     7
176
     1
 65
   257
176
     1
 75
     1
176
     1
175
     1
176
     1
 42
1.0
176
     1
 92
        8
176
     1
 66
     8
424
  7895160
176
     1
 43
1.0
176
     1
 76
     1
176
     1
 77
     6
176
     1
 78
     2
176
     1
 67
     7
176
     1
 79
     5
176
     1
170
     0
176
     1
171
     0
176
     1
290
     0
176
     1
 93
       13
176
     1
 44
0.0
176
     1
173
     0
176
     1
  0
VISUALSTYLE
  5
37
102
{ACAD_REACTORS
330
2A
102
}
330
2A
100
AcDbVisualStyle
  2
Thicken
 70
    13
177
     2
291
     1
 71
     2
176
     1
 72
     2
176
     1
 73
     0
176
     1
 90
        0
176
     1
 40
-0.6
176
     1
 41
-30.0
176
     1
 62
     5
 63
     7
421
 16777215
176
     1
 74
     1
176
     1
 91
        4
176
     1
 64
     7
176
     1
 65
   257
176
     1
 75
     1
176
     1
175
     1
176
     1
 42
1.0
176
     1
 92
       12
176
     1
 66
     7
176
     1
 43
1.0
176
     1
 76
     1
176
     1
 77
     6
176
     1
 78
     2
176
     1
 67
     7
176
     1
 79
     5
176
     1
170
     0
176
     1
171
     0
176
     1
290
     0
176
     1
 93
        1
176
     1
 44
0.0
176
     1
173
     0
176
     1
  0
ENDSEC
  0
EOF
