  0
SECTION
  2
HEADER
  9
$ACADVER
  1
AC1024
  9
$ACADMAINTVER
 70
     6
  9
$DWGCODEPAGE
  3
ANSI_932
  9
$INSBASE
 10
0.0
 20
0.0
 30
0.0
  9
$EXTMIN
 10
-8910.0
 20
-6300.0
 30
0.0
  9
$EXTMAX
 10
8910.0
 20
6300.0
 30
0.0
  9
$LIMMIN
 10
-8910.0
 20
-6300.0
  9
$LIMMAX
 10
8910.0
 20
6300.0
  9
$ORTHOMODE
 70
     0
  9
$REGENMODE
 70
     1
  9
$FILLMODE
 70
     1
  9
$QTEXTMODE
 70
     0
  9
$MIRRTEXT
 70
     1
  9
$LTSCALE
 40
30.0
  9
$ATTMODE
 70
     1
  9
$TEXTSIZE
 40
2.5
  9
$TRACEWID
 40
1.0
  9
$TEXTSTYLE
  7
Standard
  9
$CLAYER
  8
0
  9
$CELTYPE
  6
ByLayer
  9
$CECOLOR
 62
   256
  9
$CELTSCALE
 40
1.0
  9
$DISPSILH
 70
     0
  9
$DIMSCALE
 40
1.0
  9
$DIMASZ
 40
2.5
  9
$DIMEXO
 40
0.625
  9
$DIMDLI
 40
3.75
  9
$DIMRND
 40
0.0
  9
$DIMDLE
 40
0.0
  9
$DIMEXE
 40
1.25
  9
$DIMTP
 40
0.0
  9
$DIMTM
 40
0.0
  9
$DIMTXT
 40
2.5
  9
$DIMCEN
 40
2.5
  9
$DIMTSZ
 40
0.0
  9
$DIMTOL
 70
     0
  9
$DIMLIM
 70
     0
  9
$DIMTIH
 70
     0
  9
$DIMTOH
 70
     0
  9
$DIMSE1
 70
     0
  9
$DIMSE2
 70
     0
  9
$DIMTAD
 70
     1
  9
$DIMZIN
 70
     8
  9
$DIMBLK
  1

  9
$DIMASO
 70
     1
  9
$DIMSHO
 70
     1
  9
$DIMPOST
  1

  9
$DIMAPOST
  1

  9
$DIMALT
 70
     0
  9
$DIMALTD
 70
     3
  9
$DIMALTF
 40
0.03937007874016
  9
$DIMLFAC
 40
1.0
  9
$DIMTOFL
 70
     1
  9
$DIMTVP
 40
0.0
  9
$DIMTIX
 70
     0
  9
$DIMSOXD
 70
     0
  9
$DIMSAH
 70
     0
  9
$DIMBLK1
  1

  9
$DIMBLK2
  1

  9
$DIMSTYLE
  2
ISO-25
  9
$DIMCLRD
 70
     0
  9
$DIMCLRE
 70
     0
  9
$DIMCLRT
 70
     0
  9
$DIMTFAC
 40
1.0
  9
$DIMGAP
 40
0.625
  9
$DIMJUST
 70
     0
  9
$DIMSD1
 70
     0
  9
$DIMSD2
 70
     0
  9
$DIMTOLJ
 70
     0
  9
$DIMTZIN
 70
     8
  9
$DIMALTZ
 70
     0
  9
$DIMALTTZ
 70
     0
  9
$DIMUPT
 70
     0
  9
$DIMDEC
 70
     2
  9
$DIMTDEC
 70
     2
  9
$DIMALTU
 70
     2
  9
$DIMALTTD
 70
     3
  9
$DIMTXSTY
  7
Standard
  9
$DIMAUNIT
 70
     0
  9
$DIMADEC
 70
     0
  9
$DIMALTRND
 40
0.0
  9
$DIMAZIN
 70
     0
  9
$DIMDSEP
 70
    44
  9
$DIMATFIT
 70
     3
  9
$DIMFRAC
 70
     0
  9
$DIMLDRBLK
  1

  9
$DIMLUNIT
 70
     2
  9
$DIMLWD
 70
    -2
  9
$DIMLWE
 70
    -2
  9
$DIMTMOVE
 70
     0
  9
$DIMFXL
 40
1.0
  9
$DIMFXLON
 70
     0
  9
$DIMJOGANG
 40
0.7853981633974483
  9
$DIMTFILL
 70
     0
  9
$DIMTFILLCLR
 70
     0
  9
$DIMARCSYM
 70
     0
  9
$DIMLTYPE
  6

  9
$DIMLTEX1
  6

  9
$DIMLTEX2
  6

  9
$DIMTXTDIRECTION
 70
     0
  9
$LUNITS
 70
     2
  9
$LUPREC
 70
     4
  9
$SKETCHINC
 40
1.0
  9
$FILLETRAD
 40
10.0
  9
$AUNITS
 70
     0
  9
$AUPREC
 70
     0
  9
$MENU
  1
.
  9
$ELEVATION
 40
0.0
  9
$PELEVATION
 40
0.0
  9
$THICKNESS
 40
0.0
  9
$LIMCHECK
 70
     0
  9
$CHAMFERA
 40
10.0
  9
$CHAMFERB
 40
10.0
  9
$CHAMFERC
 40
20.0
  9
$CHAMFERD
 40
0.0
  9
$SKPOLY
 70
     0
  9
$TDCREATE
 40
2459720.71978838
  9
$TDUCREATE
 40
2459720.34478838
  9
$TDUPDATE
 40
2459720.719788391
  9
$TDUUPDATE
 40
2459720.344788391
  9
$TDINDWG
 40
0.0000000116
  9
$TDUSRTIMER
 40
0.0000000116
  9
$USRTIMER
 70
     1
  9
$ANGBASE
 50
0.0
  9
$ANGDIR
 70
     0
  9
$PDMODE
 70
     0
  9
$PDSIZE
 40
0.0
  9
$PLINEWID
 40
0.0
  9
$SPLFRAME
 70
     0
  9
$SPLINETYPE
 70
     6
  9
$SPLINESEGS
 70
     8
  9
$HANDSEED
  5
57D
  9
$SURFTAB1
 70
     6
  9
$SURFTAB2
 70
     6
  9
$SURFTYPE
 70
     6
  9
$SURFU
 70
     6
  9
$SURFV
 70
     6
  9
$UCSBASE
  2

  9
$UCSNAME
  2

  9
$UCSORG
 10
0.0
 20
0.0
 30
0.0
  9
$UCSXDIR
 10
1.0
 20
0.0
 30
0.0
  9
$UCSYDIR
 10
0.0
 20
1.0
 30
0.0
  9
$UCSORTHOREF
  2

  9
$UCSORTHOVIEW
 70
     0
  9
$UCSORGTOP
 10
0.0
 20
0.0
 30
0.0
  9
$UCSORGBOTTOM
 10
0.0
 20
0.0
 30
0.0
  9
$UCSORGLEFT
 10
0.0
 20
0.0
 30
0.0
  9
$UCSORGRIGHT
 10
0.0
 20
0.0
 30
0.0
  9
$UCSORGFRONT
 10
0.0
 20
0.0
 30
0.0
  9
$UCSORGBACK
 10
0.0
 20
0.0
 30
0.0
  9
$PUCSBASE
  2

  9
$PUCSNAME
  2

  9
$PUCSORG
 10
0.0
 20
0.0
 30
0.0
  9
$PUCSXDIR
 10
1.0
 20
0.0
 30
0.0
  9
$PUCSYDIR
 10
0.0
 20
1.0
 30
0.0
  9
$PUCSORTHOREF
  2

  9
$PUCSORTHOVIEW
 70
     0
  9
$PUCSORGTOP
 10
0.0
 20
0.0
 30
0.0
  9
$PUCSORGBOTTOM
 10
0.0
 20
0.0
 30
0.0
  9
$PUCSORGLEFT
 10
0.0
 20
0.0
 30
0.0
  9
$PUCSORGRIGHT
 10
0.0
 20
0.0
 30
0.0
  9
$PUCSORGFRONT
 10
0.0
 20
0.0
 30
0.0
  9
$PUCSORGBACK
 10
0.0
 20
0.0
 30
0.0
  9
$USERI1
 70
     0
  9
$USERI2
 70
     0
  9
$USERI3
 70
     0
  9
$USERI4
 70
     0
  9
$USERI5
 70
     0
  9
$USERR1
 40
0.0
  9
$USERR2
 40
0.0
  9
$USERR3
 40
0.0
  9
$USERR4
 40
0.0
  9
$USERR5
 40
0.0
  9
$WORLDVIEW
 70
     1
  9
$SHADEDGE
 70
     3
  9
$SHADEDIF
 70
    70
  9
$TILEMODE
 70
     1
  9
$MAXACTVP
 70
    64
  9
$PINSBASE
 10
0.0
 20
0.0
 30
0.0
  9
$PLIMCHECK
 70
     0
  9
$PEXTMIN
 10
1.000000000000000E+20
 20
1.000000000000000E+20
 30
1.000000000000000E+20
  9
$PEXTMAX
 10
-1.000000000000000E+20
 20
-1.000000000000000E+20
 30
-1.000000000000000E+20
  9
$PLIMMIN
 10
0.0
 20
0.0
  9
$PLIMMAX
 10
420.0
 20
297.0
  9
$UNITMODE
 70
     0
  9
$VISRETAIN
 70
     1
  9
$PLINEGEN
 70
     0
  9
$PSLTSCALE
 70
     1
  9
$TREEDEPTH
 70
  3020
  9
$CMLSTYLE
  2
Standard
  9
$CMLJUST
 70
     0
  9
$CMLSCALE
 40
20.0
  9
$PROXYGRAPHICS
 70
     1
  9
$MEASUREMENT
 70
     1
  9
$CELWEIGHT
370
    -1
  9
$ENDCAPS
280
     0
  9
$JOINSTYLE
280
     0
  9
$LWDISPLAY
290
     0
  9
$INSUNITS
 70
     4
  9
$HYPERLINKBASE
  1

  9
$STYLESHEET
  1

  9
$XEDIT
290
     1
  9
$CEPSNTYPE
380
     0
  9
$PSTYLEMODE
290
     1
  9
$FINGERPRINTGUID
  2
{4BA4049A-6B91-4435-BBA7-E16FFCA26E50}
  9
$VERSIONGUID
  2
{FAEB1C32-E019-11D5-929B-00C0DF256EC4}
  9
$EXTNAMES
290
     1
  9
$PSVPSCALE
 40
0.0
  9
$OLESTARTUP
290
     0
  9
$SORTENTS
280
   127
  9
$INDEXCTL
280
     0
  9
$HIDETEXT
280
     1
  9
$XCLIPFRAME
280
     2
  9
$HALOGAP
280
     0
  9
$OBSCOLOR
 70
   257
  9
$OBSLTYPE
280
     0
  9
$INTERSECTIONDISPLAY
280
     0
  9
$INTERSECTIONCOLOR
 70
   257
  9
$DIMASSOC
280
     2
  9
$PROJECTNAME
  1

  9
$CAMERADISPLAY
290
     0
  9
$LENSLENGTH
 40
50.0
  9
$CAMERAHEIGHT
 40
0.0
  9
$STEPSPERSEC
 40
2.0
  9
$STEPSIZE
 40
6.0
  9
$3DDWFPREC
 40
2.0
  9
$PSOLWIDTH
 40
5.0
  9
$PSOLHEIGHT
 40
80.0
  9
$LOFTANG1
 40
1.570796326794897
  9
$LOFTANG2
 40
1.570796326794897
  9
$LOFTMAG1
 40
0.0
  9
$LOFTMAG2
 40
0.0
  9
$LOFTPARAM
 70
     7
  9
$LOFTNORMALS
280
     1
  9
$LATITUDE
 40
37.795
  9
$LONGITUDE
 40
-122.394
  9
$NORTHDIRECTION
 40
0.0
  9
$TIMEZONE
 70
 -8000
  9
$LIGHTGLYPHDISPLAY
280
     1
  9
$TILEMODELIGHTSYNCH
280
     1
  9
$SOLIDHIST
280
     1
  9
$SHOWHIST
280
     1
  9
$DWFFRAME
280
     2
  9
$DGNFRAME
280
     2
  9
$REALWORLDSCALE
290
     1
  9
$INTERFERECOLOR
 62
   256
  9
$CSHADOW
280
     0
  9
$SHADOWPLANELOCATION
 40
0.0
  0
ENDSEC
  0
SECTION
  2
CLASSES
  0
CLASS
  1
ACDBDICTIONARYWDFLT
  2
AcDbDictionaryWithDefault
  3
ObjectDBX Classes
 90
        0
 91
        4
280
     0
281
     0
  0
CLASS
  1
VISUALSTYLE
  2
AcDbVisualStyle
  3
ObjectDBX Classes
 90
     4095
 91
        4
280
     0
281
     0
  0
CLASS
  1
MATERIAL
  2
AcDbMaterial
  3
ObjectDBX Classes
 90
     1153
 91
        4
280
     0
281
     0
  0
ENDSEC
  0
SECTION
  2
TABLES
  0
TABLE
  2
VPORT
  5
8
330
0
100
AcDbSymbolTable
 70
     1
  0
VPORT
  5
29
330
8
100
AcDbSymbolTableRecord
100
AcDbViewportTableRecord
  2
*Active
 70
     0
 10
0.0
 20
0.0
 11
1.0
 21
1.0
 12
0.0
 22
0.0
 13
0.0
 23
0.0
 14
10.0
 24
10.0
 15
10.0
 25
10.0
 16
0.0
 26
0.0
 36
1.0
 17
0.0
 27
0.0
 37
0.0
 40
13860.0
 41
1.414285714285714
 42
50.0
 43
0.0
 44
0.0
 50
0.0
 51
0.0
 71
     0
 72
 10000
 73
     1
 74
     3
 75
     0
 76
     0
 77
     0
 78
     0
281
     0
 65
     1
110
0.0
120
0.0
130
0.0
111
1.0
121
0.0
131
0.0
112
0.0
122
1.0
132
0.0
 79
     0
146
0.0
 60
     3
 61
     5
292
     1
282
     1
141
0.0
142
0.0
 63
   250
  0
ENDTAB
  0
TABLE
  2
LTYPE
  5
5
330
0
100
AcDbSymbolTable
 70
     5
  0
LTYPE
  5
14
330
5
100
AcDbSymbolTableRecord
100
AcDbLinetypeTableRecord
  2
ByBlock
 70
     0
  3

 72
    65
 73
     0
 40
0.0
  0
LTYPE
  5
15
330
5
100
AcDbSymbolTableRecord
100
AcDbLinetypeTableRecord
  2
ByLayer
 70
     0
  3

 72
    65
 73
     0
 40
0.0
  0
LTYPE
  5
16
330
5
100
AcDbSymbolTableRecord
100
AcDbLinetypeTableRecord
  2
Continuous
 70
     0
  3
Solid line
 72
    65
 73
     0
 40
0.0
  0
LTYPE
  5
3F
330
5
100
AcDbSymbolTableRecord
100
AcDbLinetypeTableRecord
  2
JWW_HOJO
 70
     0
  3
  -   -   -   -   -   -   -   - 
 72
    65
 73
     2
 40
1.693333333333333
 49
-1.27
 74
     0
 49
0.4233333333333333
 74
     0
  0
LTYPE
  5
40
330
5
100
AcDbSymbolTableRecord
100
AcDbLinetypeTableRecord
  2
JWW_CENTER1
 70
     0
  3
-----  --  ----------  --  -----
 72
    65
 73
     4
 40
6.773333333333333
 49
4.233333333333333
 74
     0
 49
-0.8466666666666667
 74
     0
 49
0.8466666666666667
 74
     0
 49
-0.8466666666666667
 74
     0
  0
LTYPE
  5
41
330
5
100
AcDbSymbolTableRecord
100
AcDbLinetypeTableRecord
  2
JWW_DASHED1
 70
     0
  3
-  --  --  --  --  --  --  --  -
 72
    65
 73
     2
 40
1.693333333333333
 49
0.8466666666666667
 74
     0
 49
-0.8466666666666667
 74
     0
  0
LTYPE
  5
42
330
5
100
AcDbSymbolTableRecord
100
AcDbLinetypeTableRecord
  2
JWW_DASHED2
 70
     0
  3
--    ----    ----    ----    --
 72
    65
 73
     2
 40
3.386666666666667
 49
1.693333333333333
 74
     0
 49
-1.693333333333333
 74
     0
  0
ENDTAB
  0
TABLE
  2
LAYER
  5
2
330
0
100
AcDbSymbolTable
 70
    23
  0
LAYER
  5
10
330
2
100
AcDbSymbolTableRecord
100
AcDbLayerTableRecord
  2
0
 70
     0
 62
     7
  6
Continuous
370
    -3
390
F
347
3E
  0
LAYER
  5
43
330
2
100
AcDbSymbolTableRecord
100
AcDbLayerTableRecord
  2
F-0_補助線
 70
     0
 62
     7
  6
Continuous
370
    -3
390
F
347
3E
  0
LAYER
  5
44
330
2
100
AcDbSymbolTableRecord
100
AcDbLayerTableRecord
  2
F-1_枠
 70
     0
 62
     7
  6
Continuous
370
    -3
390
F
347
3E
  0
LAYER
  5
45
330
2
100
AcDbSymbolTableRecord
100
AcDbLayerTableRecord
  2
F-A_文字
 70
     0
 62
     7
  6
Continuous
370
    -3
390
F
347
3E
  0
LAYER
  5
46
330
2
100
AcDbSymbolTableRecord
100
AcDbLayerTableRecord
  2
0-A_文字
 70
     0
 62
     7
  6
Continuous
370
    -3
390
F
347
3E
  0
LAYER
  5
47
330
2
100
AcDbSymbolTableRecord
100
AcDbLayerTableRecord
  2
0-0_補助線
 70
     0
 62
     7
  6
Continuous
370
    -3
390
F
347
3E
  0
LAYER
  5
48
330
2
100
AcDbSymbolTableRecord
100
AcDbLayerTableRecord
  2
0-3_仕上げ
 70
     0
 62
     7
  6
Continuous
370
    -3
390
F
347
3E
  0
LAYER
  5
49
330
2
100
AcDbSymbolTableRecord
100
AcDbLayerTableRecord
  2
0-B_寸法
 70
     0
 62
     7
  6
Continuous
370
    -3
390
F
347
3E
  0
LAYER
  5
4A
330
2
100
AcDbSymbolTableRecord
100
AcDbLayerTableRecord
  2
0-4_枠
 70
     0
 62
     7
  6
Continuous
370
    -3
390
F
347
3E
  0
LAYER
  5
4B
330
2
100
AcDbSymbolTableRecord
100
AcDbLayerTableRecord
  2
0-1_通り芯
 70
     0
 62
     7
  6
Continuous
370
    -3
390
F
347
3E
  0
LAYER
  5
4C
330
2
100
AcDbSymbolTableRecord
100
AcDbLayerTableRecord
  2
0-6_扉
 70
     0
 62
     7
  6
Continuous
370
    -3
390
F
347
3E
  0
LAYER
  5
4D
330
2
100
AcDbSymbolTableRecord
100
AcDbLayerTableRecord
  2
0-C_ハッチ
 70
     0
 62
     7
  6
Continuous
370
    -3
390
F
347
3E
  0
LAYER
  5
4E
330
2
100
AcDbSymbolTableRecord
100
AcDbLayerTableRecord
  2
0-2_柱
 70
     0
 62
     7
  6
Continuous
370
    -3
390
F
347
3E
  0
LAYER
  5
4F
330
2
100
AcDbSymbolTableRecord
100
AcDbLayerTableRecord
  2
0-7_金物
 70
     0
 62
     7
  6
Continuous
370
    -3
390
F
347
3E
  0
LAYER
  5
50
330
2
100
AcDbSymbolTableRecord
100
AcDbLayerTableRecord
  2
戸当り
 70
     0
 62
     7
  6
Continuous
370
    -3
390
F
347
3E
  0
LAYER
  5
51
330
2
100
AcDbSymbolTableRecord
100
AcDbLayerTableRecord
  2
1-1_通り芯
 70
     0
 62
     7
  6
Continuous
370
    -3
390
F
347
3E
  0
LAYER
  5
52
330
2
100
AcDbSymbolTableRecord
100
AcDbLayerTableRecord
  2
1-3_仕上げ
 70
     0
 62
     7
  6
Continuous
370
    -3
390
F
347
3E
  0
LAYER
  5
53
330
2
100
AcDbSymbolTableRecord
100
AcDbLayerTableRecord
  2
1-0_補助線
 70
     0
 62
     7
  6
Continuous
370
    -3
390
F
347
3E
  0
LAYER
  5
54
330
2
100
AcDbSymbolTableRecord
100
AcDbLayerTableRecord
  2
1-6_扉
 70
     0
 62
     7
  6
Continuous
370
    -3
390
F
347
3E
  0
LAYER
  5
55
330
2
100
AcDbSymbolTableRecord
100
AcDbLayerTableRecord
  2
1-4_枠
 70
     0
 62
     7
  6
Continuous
370
    -3
390
F
347
3E
  0
LAYER
  5
56
330
2
100
AcDbSymbolTableRecord
100
AcDbLayerTableRecord
  2
1-B_寸法
 70
     0
 62
     7
  6
Continuous
370
    -3
390
F
347
3E
  0
LAYER
  5
57
330
2
100
AcDbSymbolTableRecord
100
AcDbLayerTableRecord
  2
1-A_文字
 70
     0
 62
     7
  6
Continuous
370
    -3
390
F
347
3E
  0
LAYER
  5
58
330
2
100
AcDbSymbolTableRecord
100
AcDbLayerTableRecord
  2
1-7_金物
 70
     0
 62
     7
  6
Continuous
370
    -3
390
F
347
3E
  0
ENDTAB
  0
TABLE
  2
STYLE
  5
3
330
0
100
AcDbSymbolTable
 70
     1
  0
STYLE
  5
11
330
3
100
AcDbSymbolTableRecord
100
AcDbTextStyleTableRecord
  2
Standard
 70
     0
 40
0.0
 41
1.0
 50
0.0
 71
     0
 42
2.5
  3
txt
  4

  0
ENDTAB
  0
TABLE
  2
VIEW
  5
6
330
0
100
AcDbSymbolTable
 70
     0
  0
ENDTAB
  0
TABLE
  2
UCS
  5
7
330
0
100
AcDbSymbolTable
 70
     0
  0
ENDTAB
  0
TABLE
  2
APPID
  5
9
330
0
100
AcDbSymbolTable
 70
     1
  0
APPID
  5
12
330
9
100
AcDbSymbolTableRecord
100
AcDbRegAppTableRecord
  2
ACAD
 70
     0
  0
ENDTAB
  0
TABLE
  2
DIMSTYLE
  5
A
330
0
100
AcDbSymbolTable
 70
     1
100
AcDbDimStyleTable
  0
DIMSTYLE
105
27
330
A
100
AcDbSymbolTableRecord
100
AcDbDimStyleTableRecord
  2
ISO-25
 70
     0
 41
2.5
 42
0.625
 43
3.75
 44
1.25
 73
     0
 74
     0
 77
     1
 78
     8
140
2.5
141
2.5
143
0.03937007874016
147
0.625
171
     3
172
     1
178
     0
271
     2
272
     2
274
     3
278
    44
283
     0
284
     8
340
11
  0
ENDTAB
  0
TABLE
  2
BLOCK_RECORD
  5
1
330
0
100
AcDbSymbolTable
 70
     1
  0
BLOCK_RECORD
  5
1F
330
1
100
AcDbSymbolTableRecord
100
AcDbBlockTableRecord
  2
*Model_Space
340
22
 70
     0
280
     1
281
     0
  0
BLOCK_RECORD
  5
1B
330
1
100
AcDbSymbolTableRecord
100
AcDbBlockTableRecord
  2
*Paper_Space
340
1E
 70
     0
280
     1
281
     0
  0
BLOCK_RECORD
  5
23
330
1
100
AcDbSymbolTableRecord
100
AcDbBlockTableRecord
  2
*Paper_Space0
340
26
 70
     0
280
     1
281
     0
  0
ENDTAB
  0
ENDSEC
  0
SECTION
  2
BLOCKS
  0
BLOCK
  5
20
330
1F
100
AcDbEntity
  8
0
100
AcDbBlockBegin
  2
*Model_Space
 70
     0
 10
0.0
 20
0.0
 30
0.0
  3
*Model_Space
  1

  0
ENDBLK
  5
21
330
1F
100
AcDbEntity
  8
0
100
AcDbBlockEnd
  0
BLOCK
  5
1C
330
1B
100
AcDbEntity
 67
     1
  8
0
100
AcDbBlockBegin
  2
*Paper_Space
 70
     0
 10
0.0
 20
0.0
 30
0.0
  3
*Paper_Space
  1

  0
ENDBLK
  5
1D
330
1B
100
AcDbEntity
 67
     1
  8
0
100
AcDbBlockEnd
  0
BLOCK
  5
24
330
23
100
AcDbEntity
  8
0
100
AcDbBlockBegin
  2
*Paper_Space0
 70
     0
 10
0.0
 20
0.0
 30
0.0
  3
*Paper_Space0
  1

  0
ENDBLK
  5
25
330
23
100
AcDbEntity
  8
0
100
AcDbBlockEnd
  0
ENDSEC
  0
SECTION
  2
ENTITIES
  0
LINE
  5
59
330
1F
100
AcDbEntity
  8
F-0_補助線
  6
JWW_HOJO
 62
   120
370
     5
100
AcDbLine
 10
-6140.081333436773
 20
-4455.0
 30
0.0
 11
-6140.081333436773
 21
4424.999604096284
 31
0.0
  0
LINE
  5
5A
330
1F
100
AcDbEntity
  8
F-0_補助線
  6
JWW_HOJO
 62
   120
370
     5
100
AcDbLine
 10
-6140.081333436773
 20
4424.999604096284
 30
0.0
 11
6159.917676803936
 21
4424.999604096284
 31
0.0
  0
LINE
  5
5B
330
1F
100
AcDbEntity
  8
F-0_補助線
  6
JWW_HOJO
 62
   120
370
     5
100
AcDbLine
 10
6159.917676803936
 20
4424.999604096284
 30
0.0
 11
6159.917676803936
 21
-4455.0
 31
0.0
  0
LINE
  5
5C
330
1F
100
AcDbEntity
  8
F-0_補助線
  6
JWW_HOJO
 62
   120
370
     5
100
AcDbLine
 10
6159.917676803936
 20
-4455.0
 30
0.0
 11
-6140.081333436773
 21
-4455.0
 31
0.0
  0
LINE
  5
5D
330
1F
100
AcDbEntity
  8
F-0_補助線
  6
JWW_HOJO
 62
     7
370
     9
100
AcDbLine
 10
509.9185840832865
 20
-3795.000003092998
 30
0.0
 11
509.9185840832865
 21
-4195.000008247994
 31
0.0
  0
LINE
  5
5E
330
1F
100
AcDbEntity
  8
F-1_枠
  6
Continuous
 62
   200
370
    20
100
AcDbLine
 10
5859.917429364114
 20
4174.999769056166
 30
0.0
 11
5859.917429364114
 21
-4205.000164959882
 31
0.0
  0
LINE
  5
5F
330
1F
100
AcDbEntity
  8
F-1_枠
  6
Continuous
 62
   200
370
    20
100
AcDbLine
 10
-5840.081317971782
 20
4174.999769056166
 30
0.0
 11
-5840.081317971782
 21
-4205.000164959882
 31
0.0
  0
LINE
  5
60
330
1F
100
AcDbEntity
  8
F-1_枠
  6
Continuous
 62
   200
370
    20
100
AcDbLine
 10
5859.917429364114
 20
-4205.000002577498
 30
0.0
 11
-5840.081085996952
 21
-4205.000002577498
 31
0.0
  0
LINE
  5
61
330
1F
100
AcDbEntity
  8
F-1_枠
  6
Continuous
 62
   200
370
    20
100
AcDbLine
 10
-5830.081323642279
 20
4174.999769056166
 30
0.0
 11
-5830.081323642279
 21
-4205.000164959882
 31
0.0
  0
LINE
  5
62
330
1F
100
AcDbEntity
  8
F-1_枠
  6
Continuous
 62
   200
370
    20
100
AcDbLine
 10
-5835.081309208291
 20
4174.999769056166
 30
0.0
 11
-5835.081309208291
 21
-4205.000164959882
 31
0.0
  0
LINE
  5
63
330
1F
100
AcDbEntity
  8
F-1_枠
  6
Continuous
 62
   200
370
    20
100
AcDbLine
 10
5854.917165428304
 20
4174.999769056166
 30
0.0
 11
5854.917165428304
 21
-4205.000164959882
 31
0.0
  0
LINE
  5
64
330
1F
100
AcDbEntity
  8
F-1_枠
  6
Continuous
 62
   200
370
    20
100
AcDbLine
 10
5849.917643811961
 20
4174.999769056166
 30
0.0
 11
5849.917643811961
 21
-4205.000164959882
 31
0.0
  0
LINE
  5
65
330
1F
100
AcDbEntity
  8
F-1_枠
  6
Continuous
 62
   200
370
    20
100
AcDbLine
 10
5859.917429364114
 20
-4199.999993814004
 30
0.0
 11
-5840.081085996952
 21
-4199.999993814004
 31
0.0
  0
LINE
  5
66
330
1F
100
AcDbEntity
  8
F-1_枠
  6
Continuous
 62
   200
370
    20
100
AcDbLine
 10
5859.917429364114
 20
-4195.000008247994
 30
0.0
 11
-5840.081085996952
 21
-4195.000008247994
 31
0.0
  0
LINE
  5
67
330
1F
100
AcDbEntity
  8
F-1_枠
  6
Continuous
 62
   200
370
    20
100
AcDbLine
 10
4349.917891251784
 20
-3795.000003092998
 30
0.0
 11
4349.917891251784
 21
-4195.000008247994
 31
0.0
  0
LINE
  5
68
330
1F
100
AcDbEntity
  8
F-1_枠
  6
Continuous
 62
   200
370
    20
100
AcDbLine
 10
2849.917396372139
 20
-3795.000003092998
 30
0.0
 11
2849.917396372139
 21
-4195.000008247994
 31
0.0
  0
LINE
  5
69
330
1F
100
AcDbEntity
  8
F-1_枠
  6
Continuous
 62
   200
370
    20
100
AcDbLine
 10
9.918542843316231
 20
-3795.000003092998
 30
0.0
 11
9.918542843316231
 21
-4195.000008247994
 31
0.0
  0
LINE
  5
6A
330
1F
100
AcDbEntity
  8
F-1_枠
  6
Continuous
 62
   200
370
    20
100
AcDbLine
 10
9.918542843316231
 20
-3994.999936078046
 30
0.0
 11
5849.917643811961
 21
-3995.005364289155
 31
0.0
  0
LINE
  5
6B
330
1F
100
AcDbEntity
  8
F-1_枠
  6
Continuous
 62
   200
370
    20
100
AcDbLine
 10
-5840.081085996952
 20
4174.999769056166
 30
0.0
 11
5859.917429364114
 21
4174.999769056166
 31
0.0
  0
LINE
  5
6C
330
1F
100
AcDbEntity
  8
F-1_枠
  6
Continuous
 62
   200
370
    20
100
AcDbLine
 10
-5840.081085996952
 20
4164.999983504013
 30
0.0
 11
5859.917429364114
 21
4164.999983504013
 31
0.0
  0
LINE
  5
6D
330
1F
100
AcDbEntity
  8
F-1_枠
  6
Continuous
 62
   200
370
    20
100
AcDbLine
 10
-5840.081085996952
 20
4169.999505120355
 30
0.0
 11
5859.917429364114
 21
4169.999505120355
 31
0.0
  0
LINE
  5
6E
330
1F
100
AcDbEntity
  8
F-0_補助線
  6
JWW_HOJO
 62
     7
370
     9
100
AcDbLine
 10
-5830.081323642279
 20
-3994.99993607839
 30
0.0
 11
9.918542843316231
 21
-3994.99993607839
 31
0.0
  0
LINE
  5
6F
330
1F
100
AcDbEntity
  8
F-0_補助線
  6
JWW_HOJO
 62
     7
370
     9
100
AcDbLine
 10
-5830.081323642279
 20
-3904.99993607839
 30
0.0
 11
9.918542843316231
 21
-3904.99993607839
 31
0.0
  0
LINE
  5
70
330
1F
100
AcDbEntity
  8
F-0_補助線
  6
JWW_HOJO
 62
     7
370
     9
100
AcDbLine
 10
-5830.081323642279
 20
-4084.99993607839
 30
0.0
 11
9.918542843316231
 21
-4084.99993607839
 31
0.0
  0
LINE
  5
71
330
1F
100
AcDbEntity
  8
F-0_補助線
  6
JWW_HOJO
 62
     7
370
     9
100
AcDbLine
 10
9.918408067688347
 20
-4139.999739777983
 30
0.0
 11
5849.917509036332
 21
-4140.005167989091
 31
0.0
  0
LINE
  5
72
330
1F
100
AcDbEntity
  8
F-0_補助線
  6
JWW_HOJO
 62
     7
370
     9
100
AcDbLine
 10
9.918491721639953
 20
-4049.999739778022
 30
0.0
 11
5849.917592690284
 21
-4050.005167989131
 31
0.0
  0
LINE
  5
73
330
1F
100
AcDbEntity
  8
F-0_補助線
  6
JWW_HOJO
 62
     7
370
     9
100
AcDbLine
 10
9.918593965360003
 20
-3939.99973721807
 30
0.0
 11
5849.917694934004
 21
-3940.005165429179
 31
0.0
  0
LINE
  5
74
330
1F
100
AcDbEntity
  8
F-0_補助線
  6
JWW_HOJO
 62
     7
370
     9
100
AcDbLine
 10
9.918677619311609
 20
-3849.999737218109
 30
0.0
 11
5849.917778587956
 21
-3850.005165429218
 31
0.0
  0
LINE
  5
75
330
1F
100
AcDbEntity
  8
F-0_補助線
  6
JWW_HOJO
 62
     7
370
     9
100
AcDbLine
 10
2939.917396372139
 20
-3795.000003092998
 30
0.0
 11
2939.917396372139
 21
-4195.000008247994
 31
0.0
  0
LINE
  5
76
330
1F
100
AcDbEntity
  8
F-0_補助線
  6
JWW_HOJO
 62
     7
370
     9
100
AcDbLine
 10
99.91854284331623
 20
-3795.000003092998
 30
0.0
 11
99.91854284331623
 21
-4195.000008247994
 31
0.0
  0
LINE
  5
77
330
1F
100
AcDbEntity
  8
F-0_補助線
  6
JWW_HOJO
 62
     7
370
     9
100
AcDbLine
 10
4439.917891251784
 20
-3795.000003092998
 30
0.0
 11
4439.917891251784
 21
-4195.000008247994
 31
0.0
  0
LINE
  5
78
330
1F
100
AcDbEntity
  8
F-1_枠
  6
Continuous
 62
   200
370
    20
100
AcDbLine
 10
5859.917429364114
 20
-3795.000003092998
 30
0.0
 11
-5840.081085996952
 21
-3795.000003092998
 31
0.0
  0
LINE
  5
79
330
1F
100
AcDbEntity
  8
F-1_枠
  6
Continuous
 62
   200
370
    20
100
AcDbLine
 10
5859.917429364114
 20
-3790.000017526987
 30
0.0
 11
-5840.081085996952
 21
-3790.000017526987
 31
0.0
  0
LINE
  5
7A
330
1F
100
AcDbEntity
  8
F-0_補助線
  6
JWW_HOJO
 62
     7
370
     9
100
AcDbLine
 10
-5087.628710189611
 20
-3795.000003092999
 30
0.0
 11
-5087.628710189611
 21
-4205.000164959882
 31
0.0
  0
LINE
  5
7B
330
1F
100
AcDbEntity
  8
F-0_補助線
  6
JWW_HOJO
 62
     7
370
     9
100
AcDbLine
 10
-50.08145715668377
 20
-3795.000003092998
 30
0.0
 11
-50.08145715668377
 21
-4195.000008247994
 31
0.0
  0
MTEXT
  5
7C
330
1F
100
AcDbEntity
  8
F-A_文字
  6
Continuous
 62
     7
370
     0
100
AcDbMText
 10
99.91854284331623
 20
-3887.139820871936
 30
0.0
 40
45.72
 41
180.0
 46
0.0
 71
     7
 72
     1
  1
{\fＭＳ ゴシック|b0|i0|c128|p49;図面名}
 73
     1
 44
1.0
  0
MTEXT
  5
7D
330
1F
100
AcDbEntity
  8
F-A_文字
  6
Continuous
 62
     7
370
     0
100
AcDbMText
 10
2939.917396372139
 20
-3887.142460617774
 30
0.0
 40
45.72
 41
300.0
 46
0.0
 71
     7
 72
     1
  1
{\fＭＳ ゴシック|b0|i0|c128|p49;ＳＣＡＬＥ}
 73
     1
 44
1.0
  0
MTEXT
  5
7E
330
1F
100
AcDbEntity
  8
F-A_文字
  6
Continuous
 62
     7
370
     0
100
AcDbMText
 10
4439.917891251784
 20
-3887.143854850754
 30
0.0
 40
45.72
 41
240.0
 46
0.0
 71
     7
 72
     1
  1
{\fＭＳ ゴシック|b0|i0|c128|p49;ＤＡＴＥ}
 73
     1
 44
1.0
  0
MTEXT
  5
7F
330
1F
100
AcDbEntity
  8
F-A_文字
  6
Continuous
 62
     7
370
     0
100
AcDbMText
 10
3569.917643811961
 20
-3946.903115907308
 30
0.0
 40
76.19999999999999
 41
150.0
 46
0.0
 71
     7
 72
     1
  1
{\fＭＳ ゴシック|b0|i0|c128|p49;1/5}
 73
     1
 44
1.0
  0
MTEXT
  5
80
330
1F
100
AcDbEntity
  8
F-A_文字
  6
Continuous
 62
     7
370
     0
100
AcDbMText
 10
2939.917396372139
 20
-4087.14246317786
 30
0.0
 40
45.72
 41
240.0
 46
0.0
 71
     7
 72
     1
  1
{\fＭＳ ゴシック|b0|i0|c128|p49;ＦＩＬＥ}
 73
     1
 44
1.0
  0
MTEXT
  5
81
330
1F
100
AcDbEntity
  8
F-A_文字
  6
Continuous
 62
     7
370
     0
100
AcDbMText
 10
4439.917891251784
 20
-4087.143857410839
 30
0.0
 40
45.72
 41
180.0
 46
0.0
 71
     7
 72
     1
  1
{\fＭＳ ゴシック|b0|i0|c128|p49;ＮＯ．}
 73
     1
 44
1.0
  0
MTEXT
  5
82
330
1F
100
AcDbEntity
  8
F-A_文字
  6
Continuous
 62
     7
370
     0
100
AcDbMText
 10
1394.917396372138
 20
-4096.140669266149
 30
0.0
 40
45.72
 41
120.0
 46
0.0
 71
     7
 72
     1
  1
{\fＭＳ ゴシック|b0|i0|c128|p49;株式}
 73
     1
 44
1.0
  0
MTEXT
  5
83
330
1F
100
AcDbEntity
  8
F-A_文字
  6
Continuous
 62
     7
370
     0
100
AcDbMText
 10
1604.917396372138
 20
-4164.281754523929
 30
0.0
 40
101.44125
 41
1065.0
 46
0.0
 71
     7
 72
     1
  1
{\fＭＳ ゴシック|b0|i0|c128|p49;ウッドワン・・・}
 73
     1
 44
1.0
  0
MTEXT
  5
84
330
1F
100
AcDbEntity
  8
F-A_文字
  6
Continuous
 62
     7
370
     0
100
AcDbMText
 10
1394.917396372138
 20
-4168.140669266187
 30
0.0
 40
45.72
 41
120.0
 46
0.0
 71
     7
 72
     1
  1
{\fＭＳ ゴシック|b0|i0|c128|p49;会社}
 73
     1
 44
1.0
  0
MTEXT
  5
85
330
1F
100
AcDbEntity
  8
F-A_文字
  6
Continuous
 62
     7
370
     0
100
AcDbMText
 10
5768.321977672939
 20
-4314.841419020919
 30
0.0
 40
68.58
 41
90.0
 46
0.0
 71
     7
 72
     1
  1
{\fＭＳ ゴシック|b0|i0|c128|p49;）}
 73
     1
 44
1.0
  0
MTEXT
  5
86
330
1F
100
AcDbEntity
  8
F-A_文字
  6
Continuous
 62
     7
370
     0
100
AcDbMText
 10
5350.114617405298
 20
-4316.235443869856
 30
0.0
 40
68.58
 41
45.0
 46
0.0
 71
     7
 72
     1
  1
{\fＭＳ ゴシック|b0|i0|c128|p49;,}
 73
     1
 44
1.0
  0
MTEXT
  5
87
330
1F
100
AcDbEntity
  8
F-A_文字
  6
Continuous
 62
     7
370
     0
100
AcDbMText
 10
5083.855928478601
 20
-4314.771967288282
 30
0.0
 40
74.295
 41
97.5
 46
0.0
 71
     7
 72
     1
  1
{\fＭＳ ゴシック|b0|i0|c128|p49;$y}
 73
     1
 44
1.0
  0
MTEXT
  5
88
330
1F
100
AcDbEntity
  8
F-A_文字
  6
Continuous
 62
     7
370
     0
100
AcDbMText
 10
5238.592649517422
 20
-4314.771967288282
 30
0.0
 40
74.295
 41
97.5
 46
0.0
 71
     7
 72
     1
  1
{\fＭＳ ゴシック|b0|i0|c128|p49;$m}
 73
     1
 44
1.0
  0
MTEXT
  5
89
330
1F
100
AcDbEntity
  8
F-A_文字
  6
Continuous
 62
     7
370
     0
100
AcDbMText
 10
5393.32938200033
 20
-4314.771967288282
 30
0.0
 40
74.295
 41
97.5
 46
0.0
 71
     7
 72
     1
  1
{\fＭＳ ゴシック|b0|i0|c128|p49;$d}
 73
     1
 44
1.0
  0
MTEXT
  5
8A
330
1F
100
AcDbEntity
  8
F-A_文字
  6
Continuous
 62
     7
370
     0
100
AcDbMText
 10
5548.066114483239
 20
-4314.771967288282
 30
0.0
 40
74.295
 41
195.0
 46
0.0
 71
     7
 72
     1
  1
{\fＭＳ ゴシック|b0|i0|c128|p49;印刷}
 73
     1
 44
1.0
  0
MTEXT
  5
8B
330
1F
100
AcDbEntity
  8
F-A_文字
  6
Continuous
 62
     7
370
     0
100
AcDbMText
 10
4943.952040816226
 20
-4319.023493567732
 30
0.0
 40
68.58
 41
90.0
 46
0.0
 71
     7
 72
     1
  1
{\fＭＳ ゴシック|b0|i0|c128|p49;（}
 73
     1
 44
1.0
  0
MTEXT
  5
8C
330
1F
100
AcDbEntity
  8
F-A_文字
  6
Continuous
 62
     7
370
     0
100
AcDbMText
 10
5191.195810375571
 20
-4319.023493567732
 30
0.0
 40
68.58
 41
45.0
 46
0.0
 71
     7
 72
     1
  1
{\fＭＳ ゴシック|b0|i0|c128|p49;,}
 73
     1
 44
1.0
  0
LINE
  5
8D
330
1F
100
AcDbEntity
  8
0-A_文字
  6
Continuous
 62
    92
370
    13
100
AcDbLine
 10
-5659.999495325861
 20
3730.00018145587
 30
0.0
 11
-5659.999495325861
 21
4000.00018145587
 31
0.0
  0
LINE
  5
8E
330
1F
100
AcDbEntity
  8
0-A_文字
  6
JWW_HOJO
 62
   120
370
     5
100
AcDbLine
 10
-6140.081333436773
 20
2438.999683277028
 30
0.0
 11
6159.917676803938
 21
2438.999683277028
 31
0.0
  0
LINE
  5
8F
330
1F
100
AcDbEntity
  8
0-A_文字
  6
JWW_HOJO
 62
   120
370
     5
100
AcDbLine
 10
-6140.081333436773
 20
194.9998020481414
 30
0.0
 11
6159.917676803938
 21
194.9998020481414
 31
0.0
  0
LINE
  5
90
330
1F
100
AcDbEntity
  8
0-A_文字
  6
JWW_HOJO
 62
   120
370
     5
100
AcDbLine
 10
-5659.999495325861
 20
4424.999604096284
 30
0.0
 11
-5659.999495325861
 21
-4455.000000000002
 31
0.0
  0
LINE
  5
91
330
1F
100
AcDbEntity
  8
0-A_文字
  6
JWW_HOJO
 62
   120
370
     5
100
AcDbLine
 10
-6140.081333436773
 20
-3159.000197951857
 30
0.0
 11
6159.917676803938
 21
-3159.000197951857
 31
0.0
  0
LINE
  5
92
330
1F
100
AcDbEntity
  8
0-A_文字
  6
JWW_HOJO
 62
   120
370
     5
100
AcDbLine
 10
-6140.081333436773
 20
3730.000181455871
 30
0.0
 11
6159.917676803938
 21
3730.000181455871
 31
0.0
  0
LINE
  5
93
330
1F
100
AcDbEntity
  8
0-A_文字
  6
JWW_HOJO
 62
   120
370
     5
100
AcDbLine
 10
-6140.081333436773
 20
4000.000181455871
 30
0.0
 11
6159.917676803938
 21
4000.000181455871
 31
0.0
  0
LINE
  5
94
330
1F
100
AcDbEntity
  8
0-A_文字
  6
JWW_HOJO
 62
   120
370
     5
100
AcDbLine
 10
9.91817168358267
 20
-4455.000000000002
 30
0.0
 11
9.91817168358267
 21
4424.999604096284
 31
0.0
  0
LINE
  5
95
330
1F
100
AcDbEntity
  8
0-A_文字
  6
JWW_HOJO
 62
   120
370
     5
100
AcDbLine
 10
5679.835838693025
 20
4424.999604096284
 30
0.0
 11
5679.835838693025
 21
-4455.000000000002
 31
0.0
  0
LINE
  5
96
330
1F
100
AcDbEntity
  8
0-0_補助線
  6
JWW_HOJO
 62
   120
370
     5
100
AcDbLine
 10
-2480.081457156684
 20
2957.999138909419
 30
0.0
 11
2499.918542843316
 21
2957.999138909419
 31
0.0
  0
LINE
  5
97
330
1F
100
AcDbEntity
  8
0-3_仕上げ
  6
Continuous
 62
    40
370
    15
100
AcDbLine
 10
-2480.081457156684
 20
2168.999683277021
 30
0.0
 11
-1880.081457156684
 21
2168.999683277021
 31
0.0
  0
LINE
  5
98
330
1F
100
AcDbEntity
  8
0-3_仕上げ
  6
Continuous
 62
    40
370
    15
100
AcDbLine
 10
-2480.081457156684
 20
2243.999683277021
 30
0.0
 11
-1880.081457156684
 21
2243.999683277021
 31
0.0
  0
LINE
  5
99
330
1F
100
AcDbEntity
  8
0-3_仕上げ
  6
Continuous
 62
    40
370
    15
100
AcDbLine
 10
-2480.081457156684
 20
2633.999683277015
 30
0.0
 11
-1880.081457156684
 21
2633.999683277015
 31
0.0
  0
LINE
  5
9A
330
1F
100
AcDbEntity
  8
0-3_仕上げ
  6
Continuous
 62
    40
370
    15
100
AcDbLine
 10
-2480.081457156684
 20
2708.999683277015
 30
0.0
 11
-1880.081457156684
 21
2708.999683277015
 31
0.0
  0
LWPOLYLINE
  5
9B
330
1F
100
AcDbEntity
  8
0-B_寸法
  6
Continuous
 62
     7
370
     9
100
AcDbPolyline
 90
        4
 70
     1
 43
3.0
 10
-1390.051615934505
 20
2099.999683277028
 42
0.4142135623731
 10
-1391.551615934505
 20
2101.499683277028
 42
0.4142135623731
 10
-1393.051615934505
 20
2099.999683277028
 42
0.4142135623731
 10
-1391.551615934505
 20
2098.499683277028
 42
0.4142135623731
  0
LINE
  5
9C
330
1F
100
AcDbEntity
  8
0-B_寸法
  6
Continuous
 62
   120
370
     5
100
AcDbLine
 10
-1391.551615934505
 20
2099.999683277028
 30
0.0
 11
-1598.683754758102
 21
2099.999683277028
 31
0.0
  0
LWPOLYLINE
  5
9D
330
1F
100
AcDbEntity
  8
0-B_寸法
  6
Continuous
 62
     7
370
     9
100
AcDbPolyline
 90
        4
 70
     1
 43
3.0
 10
-1390.051615934501
 20
2777.999683277028
 42
0.4142135623731
 10
-1391.551615934501
 20
2779.499683277028
 42
0.4142135623731
 10
-1393.051615934501
 20
2777.999683277028
 42
0.4142135623731
 10
-1391.551615934501
 20
2776.499683277028
 42
0.4142135623731
  0
LINE
  5
9E
330
1F
100
AcDbEntity
  8
0-B_寸法
  6
Continuous
 62
   120
370
     5
100
AcDbLine
 10
-1391.551615934501
 20
2777.999683277028
 30
0.0
 11
-1598.683754758102
 21
2777.999683277028
 31
0.0
  0
LINE
  5
9F
330
1F
100
AcDbEntity
  8
0-B_寸法
  6
Continuous
 62
   120
370
     5
100
AcDbLine
 10
-1391.551615934505
 20
2099.999683277028
 30
0.0
 11
-1391.551615934501
 21
2777.999683277028
 31
0.0
  0
LINE
  5
A0
330
1F
100
AcDbEntity
  8
0-4_枠
  6
Continuous
 62
    92
370
    13
100
AcDbLine
 10
1728.403972681448
 20
2777.999683277028
 30
0.0
 11
1719.91869130721
 21
2769.514401902789
 31
0.0
  0
LINE
  5
A1
330
1F
100
AcDbEntity
  8
0-4_枠
  6
Continuous
 62
    92
370
    13
100
AcDbLine
 10
1722.918256431723
 20
2768.271326340182
 30
0.0
 11
1729.646453151282
 21
2774.999523059741
 31
0.0
  0
LINE
  5
A2
330
1F
100
AcDbEntity
  8
0-4_枠
  6
Continuous
 62
    92
370
    13
100
AcDbLine
 10
1896.918691307211
 20
2687.999683277028
 30
0.0
 11
1896.918691307211
 21
2774.999523059741
 31
0.0
  0
LINE
  5
A3
330
1F
100
AcDbEntity
  8
0-4_枠
  6
Continuous
 62
    92
370
    13
100
AcDbLine
 10
1729.646453151282
 20
2774.999523059741
 30
0.0
 11
1896.918691307211
 21
2774.999523059741
 31
0.0
  0
LINE
  5
A4
330
1F
100
AcDbEntity
  8
0-4_枠
  6
Continuous
 62
    92
370
    13
100
AcDbLine
 10
1728.403972681448
 20
2777.999683277028
 30
0.0
 11
1899.91869130721
 21
2777.999683277028
 31
0.0
  0
LINE
  5
A5
330
1F
100
AcDbEntity
  8
0-4_枠
  6
Continuous
 62
    92
370
    13
100
AcDbLine
 10
1896.918691307211
 20
2687.999683277028
 30
0.0
 11
1899.91869130721
 21
2687.999683277028
 31
0.0
  0
LINE
  5
A6
330
1F
100
AcDbEntity
  8
0-3_仕上げ
  6
Continuous
 62
    40
370
    15
100
AcDbLine
 10
2499.918542843316
 20
2708.999683277034
 30
0.0
 11
1899.919433626678
 21
2708.999683277034
 31
0.0
  0
LINE
  5
A7
330
1F
100
AcDbEntity
  8
0-3_仕上げ
  6
Continuous
 62
    40
370
    15
100
AcDbLine
 10
2499.918542843316
 20
2633.999683277034
 30
0.0
 11
1899.919433626678
 21
2633.999683277034
 31
0.0
  0
LINE
  5
A8
330
1F
100
AcDbEntity
  8
0-1_通り芯
  6
JWW_CENTER1
 62
   120
370
     5
100
AcDbLine
 10
-2480.081457156684
 20
2438.999683277028
 30
0.0
 11
2499.918542843316
 21
2438.999683277028
 31
0.0
  0
LINE
  5
A9
330
1F
100
AcDbEntity
  8
0-B_寸法
  6
Continuous
 62
   120
370
     5
100
AcDbLine
 10
-255.3091892222473
 20
2099.999683277028
 30
0.0
 11
-101.4626879444391
 21
2099.999683277028
 31
0.0
  0
LWPOLYLINE
  5
AA
330
1F
100
AcDbEntity
  8
0-B_寸法
  6
Continuous
 62
     7
370
     9
100
AcDbPolyline
 90
        4
 70
     1
 43
3.0
 10
-253.8091892222473
 20
2099.999683277028
 42
0.4142135623731
 10
-255.3091892222473
 20
2101.499683277028
 42
0.4142135623731
 10
-256.8091892222473
 20
2099.999683277028
 42
0.4142135623731
 10
-255.3091892222473
 20
2098.499683277028
 42
0.4142135623731
  0
LINE
  5
AB
330
1F
100
AcDbEntity
  8
0-B_寸法
  6
Continuous
 62
   120
370
     5
100
AcDbLine
 10
-255.3091892222473
 20
2423.999683277028
 30
0.0
 11
-101.4626879444391
 21
2423.999683277028
 31
0.0
  0
LWPOLYLINE
  5
AC
330
1F
100
AcDbEntity
  8
0-B_寸法
  6
Continuous
 62
     7
370
     9
100
AcDbPolyline
 90
        4
 70
     1
 43
3.0
 10
-253.8091892222473
 20
2423.999683277028
 42
0.4142135623731
 10
-255.3091892222473
 20
2425.499683277027
 42
0.4142135623731
 10
-256.8091892222473
 20
2423.999683277028
 42
0.4142135623731
 10
-255.3091892222473
 20
2422.499683277028
 42
0.4142135623731
  0
LINE
  5
AD
330
1F
100
AcDbEntity
  8
0-B_寸法
  6
Continuous
 62
   120
370
     5
100
AcDbLine
 10
-255.3091892222473
 20
2423.999683277028
 30
0.0
 11
-255.3091892222473
 21
2099.999683277028
 31
0.0
  0
LINE
  5
AE
330
1F
100
AcDbEntity
  8
0-4_枠
  6
Continuous
 62
    92
370
    13
100
AcDbLine
 10
105.9185428433155
 20
2333.999683277028
 30
0.0
 11
108.9185428433153
 21
2333.999683277028
 31
0.0
  0
LINE
  5
AF
330
1F
100
AcDbEntity
  8
0-4_枠
  6
Continuous
 62
    92
370
    13
100
AcDbLine
 10
105.9185428433155
 20
2333.999683277028
 30
0.0
 11
105.9185428433155
 21
2420.999683277028
 31
0.0
  0
LINE
  5
B0
330
1F
100
AcDbEntity
  8
0-4_枠
  6
Continuous
 62
    92
370
    13
100
AcDbLine
 10
108.9185428433153
 20
2423.999683277028
 30
0.0
 11
-71.0814571566847
 21
2423.999683277028
 31
0.0
  0
LINE
  5
B1
330
1F
100
AcDbEntity
  8
0-4_枠
  6
Continuous
 62
    92
370
    13
100
AcDbLine
 10
105.9185428433155
 20
2420.999683277028
 30
0.0
 11
-68.08145715668317
 21
2420.999683277028
 31
0.0
  0
LINE
  5
B2
330
1F
100
AcDbEntity
  8
0-4_枠
  6
Continuous
 62
    92
370
    13
100
AcDbLine
 10
105.9185428433155
 20
2189.999683277028
 30
0.0
 11
108.9185428433153
 21
2189.999683277028
 31
0.0
  0
LINE
  5
B3
330
1F
100
AcDbEntity
  8
0-4_枠
  6
Continuous
 62
    92
370
    13
100
AcDbLine
 10
108.9185428433153
 20
2423.999683277028
 30
0.0
 11
108.9185428433153
 21
2099.999683277028
 31
0.0
  0
LINE
  5
B4
330
1F
100
AcDbEntity
  8
0-4_枠
  6
Continuous
 62
    92
370
    13
100
AcDbLine
 10
105.9185428433155
 20
2189.999683277028
 30
0.0
 11
105.9185428433155
 21
2102.999683277028
 31
0.0
  0
LINE
  5
B5
330
1F
100
AcDbEntity
  8
0-3_仕上げ
  6
Continuous
 62
    40
370
    15
100
AcDbLine
 10
2499.918542843316
 20
2168.99968327704
 30
0.0
 11
983.418617075264
 21
2168.99968327704
 31
0.0
  0
LINE
  5
B6
330
1F
100
AcDbEntity
  8
0-3_仕上げ
  6
Continuous
 62
    40
370
    15
100
AcDbLine
 10
863.418617075264
 20
2168.99968327704
 30
0.0
 11
108.9185428433153
 21
2168.99968327704
 31
0.0
  0
LINE
  5
B7
330
1F
100
AcDbEntity
  8
0-3_仕上げ
  6
Continuous
 62
    40
370
    15
100
AcDbLine
 10
2499.918542843316
 20
2243.99968327704
 30
0.0
 11
983.418617075264
 21
2243.99968327704
 31
0.0
  0
LINE
  5
B8
330
1F
100
AcDbEntity
  8
0-3_仕上げ
  6
Continuous
 62
    40
370
    15
100
AcDbLine
 10
863.418617075264
 20
2243.99968327704
 30
0.0
 11
108.9185428433153
 21
2243.99968327704
 31
0.0
  0
LINE
  5
B9
330
1F
100
AcDbEntity
  8
0-B_寸法
  6
Continuous
 62
   120
370
     5
100
AcDbLine
 10
-105.0314380213391
 20
2462.999683277028
 30
0.0
 11
-255.3091892222473
 21
2462.999683277028
 31
0.0
  0
LWPOLYLINE
  5
BA
330
1F
100
AcDbEntity
  8
0-B_寸法
  6
Continuous
 62
     7
370
     9
100
AcDbPolyline
 90
        4
 70
     1
 43
3.0
 10
-253.8091892222473
 20
2462.999683277028
 42
0.4142135623731
 10
-255.3091892222473
 20
2464.499683277028
 42
0.4142135623731
 10
-256.8091892222473
 20
2462.999683277028
 42
0.4142135623731
 10
-255.3091892222473
 20
2461.499683277028
 42
0.4142135623731
  0
LINE
  5
BB
330
1F
100
AcDbEntity
  8
0-B_寸法
  6
Continuous
 62
   120
370
     5
100
AcDbLine
 10
-105.0314380213391
 20
2642.999683277028
 30
0.0
 11
-255.3091892222473
 21
2642.999683277028
 31
0.0
  0
LWPOLYLINE
  5
BC
330
1F
100
AcDbEntity
  8
0-B_寸法
  6
Continuous
 62
     7
370
     9
100
AcDbPolyline
 90
        4
 70
     1
 43
3.0
 10
-253.8091892222473
 20
2642.999683277028
 42
0.4142135623731
 10
-255.3091892222473
 20
2644.499683277028
 42
0.4142135623731
 10
-256.8091892222473
 20
2642.999683277028
 42
0.4142135623731
 10
-255.3091892222473
 20
2641.499683277028
 42
0.4142135623731
  0
LINE
  5
BD
330
1F
100
AcDbEntity
  8
0-B_寸法
  6
Continuous
 62
   120
370
     5
100
AcDbLine
 10
-255.3091892222473
 20
2642.999683277028
 30
0.0
 11
-255.3091892222473
 21
2462.999683277028
 31
0.0
  0
LINE
  5
BE
330
1F
100
AcDbEntity
  8
0-0_補助線
  6
JWW_HOJO
 62
   120
370
     5
100
AcDbLine
 10
863.418617075264
 20
2957.999138909419
 30
0.0
 11
863.418617075264
 21
1899.999683277027
 31
0.0
  0
LINE
  5
BF
330
1F
100
AcDbEntity
  8
0-0_補助線
  6
JWW_HOJO
 62
   120
370
     5
100
AcDbLine
 10
983.418617075264
 20
2957.999138909419
 30
0.0
 11
983.418617075264
 21
1899.999683277027
 31
0.0
  0
LINE
  5
C0
330
1F
100
AcDbEntity
  8
0-0_補助線
  6
JWW_HOJO
 62
   120
370
     5
100
AcDbLine
 10
-954.5814571566843
 20
2957.999138909419
 30
0.0
 11
-954.5814571566843
 21
1899.999683277027
 31
0.0
  0
LINE
  5
C1
330
1F
100
AcDbEntity
  8
0-0_補助線
  6
JWW_HOJO
 62
   120
370
     5
100
AcDbLine
 10
-834.5814571566841
 20
2957.999138909419
 30
0.0
 11
-834.5814571566841
 21
1899.999683277027
 31
0.0
  0
LINE
  5
C2
330
1F
100
AcDbEntity
  8
0-B_寸法
  6
Continuous
 62
   120
370
     5
100
AcDbLine
 10
-1700.081457156684
 20
1509.999683277027
 30
0.0
 11
-71.0814571566847
 21
1509.999683277027
 31
0.0
  0
LWPOLYLINE
  5
C3
330
1F
100
AcDbEntity
  8
0-B_寸法
  6
Continuous
 62
     7
370
     9
100
AcDbPolyline
 90
        4
 70
     1
 43
3.0
 10
-1698.581457156684
 20
1509.999683277027
 42
0.4142135623731
 10
-1700.081457156684
 20
1511.499683277027
 42
0.4142135623731
 10
-1701.581457156684
 20
1509.999683277027
 42
0.4142135623731
 10
-1700.081457156684
 20
1508.499683277027
 42
0.4142135623731
  0
LWPOLYLINE
  5
C4
330
1F
100
AcDbEntity
  8
0-B_寸法
  6
Continuous
 62
     7
370
     9
100
AcDbPolyline
 90
        4
 70
     1
 43
3.0
 10
-69.5814571566847
 20
1509.999683277027
 42
0.4142135623731
 10
-71.0814571566847
 20
1511.499683277027
 42
0.4142135623731
 10
-72.5814571566847
 20
1509.999683277027
 42
0.4142135623731
 10
-71.0814571566847
 20
1508.499683277027
 42
0.4142135623731
  0
LINE
  5
C5
330
1F
100
AcDbEntity
  8
0-B_寸法
  6
Continuous
 62
   120
370
     5
100
AcDbLine
 10
-1700.081457156684
 20
1509.999683277027
 30
0.0
 11
-1700.081457156684
 21
1899.999683277027
 31
0.0
  0
LINE
  5
C6
330
1F
100
AcDbEntity
  8
0-B_寸法
  6
Continuous
 62
   120
370
     5
100
AcDbLine
 10
-71.0814571566847
 20
1509.999683277027
 30
0.0
 11
-71.0814571566847
 21
1899.999683277027
 31
0.0
  0
LINE
  5
C7
330
1F
100
AcDbEntity
  8
0-B_寸法
  6
Continuous
 62
   120
370
     5
100
AcDbLine
 10
-71.0814571566847
 20
1509.999683277027
 30
0.0
 11
108.9185428433153
 21
1509.999683277027
 31
0.0
  0
LWPOLYLINE
  5
C8
330
1F
100
AcDbEntity
  8
0-B_寸法
  6
Continuous
 62
     7
370
     9
100
AcDbPolyline
 90
        4
 70
     1
 43
3.0
 10
110.4185428433153
 20
1509.999683277027
 42
0.4142135623731
 10
108.9185428433153
 20
1511.499683277027
 42
0.4142135623731
 10
107.4185428433153
 20
1509.999683277027
 42
0.4142135623731
 10
108.9185428433153
 20
1508.499683277027
 42
0.4142135623731
  0
LINE
  5
C9
330
1F
100
AcDbEntity
  8
0-B_寸法
  6
Continuous
 62
   120
370
     5
100
AcDbLine
 10
108.9185428433153
 20
1509.999683277027
 30
0.0
 11
108.9185428433153
 21
1899.999683277027
 31
0.0
  0
LINE
  5
CA
330
1F
100
AcDbEntity
  8
0-B_寸法
  6
Continuous
 62
   120
370
     5
100
AcDbLine
 10
108.9185428433153
 20
1509.999683277027
 30
0.0
 11
1719.91869130721
 21
1509.999683277027
 31
0.0
  0
LWPOLYLINE
  5
CB
330
1F
100
AcDbEntity
  8
0-B_寸法
  6
Continuous
 62
     7
370
     9
100
AcDbPolyline
 90
        4
 70
     1
 43
3.0
 10
1721.41869130721
 20
1509.999683277027
 42
0.4142135623731
 10
1719.91869130721
 20
1511.499683277027
 42
0.4142135623731
 10
1718.418691307211
 20
1509.999683277027
 42
0.4142135623731
 10
1719.91869130721
 20
1508.499683277027
 42
0.4142135623731
  0
LINE
  5
CC
330
1F
100
AcDbEntity
  8
0-B_寸法
  6
Continuous
 62
   120
370
     5
100
AcDbLine
 10
1719.91869130721
 20
1299.999683277027
 30
0.0
 11
1719.91869130721
 21
1899.999683277027
 31
0.0
  0
LINE
  5
CD
330
1F
100
AcDbEntity
  8
0-B_寸法
  6
Continuous
 62
   120
370
     5
100
AcDbLine
 10
1899.91869130721
 20
1089.999683277027
 30
0.0
 11
1899.91869130721
 21
1899.999683277027
 31
0.0
  0
LINE
  5
CE
330
1F
100
AcDbEntity
  8
0-6_扉
  6
Continuous
 62
   120
370
     5
100
AcDbLine
 10
1899.91869130721
 20
1089.999683277027
 30
0.0
 11
1899.91869130721
 21
1899.999683277027
 31
0.0
  0
LWPOLYLINE
  5
CF
330
1F
100
AcDbEntity
  8
0-B_寸法
  6
Continuous
 62
     7
370
     9
100
AcDbPolyline
 90
        4
 70
     1
 43
3.0
 10
1721.41869130721
 20
1299.999683277027
 42
0.4142135623731
 10
1719.91869130721
 20
1301.499683277027
 42
0.4142135623731
 10
1718.418691307211
 20
1299.999683277027
 42
0.4142135623731
 10
1719.91869130721
 20
1298.499683277027
 42
0.4142135623731
  0
LINE
  5
D0
330
1F
100
AcDbEntity
  8
0-B_寸法
  6
Continuous
 62
   120
370
     5
100
AcDbLine
 10
-1880.081457156684
 20
1299.999683277027
 30
0.0
 11
1899.91869130721
 21
1299.999683277027
 31
0.0
  0
LWPOLYLINE
  5
D1
330
1F
100
AcDbEntity
  8
0-B_寸法
  6
Continuous
 62
     7
370
     9
100
AcDbPolyline
 90
        4
 70
     1
 43
3.0
 10
1901.41869130721
 20
1299.999683277027
 42
0.4142135623731
 10
1899.91869130721
 20
1301.499683277027
 42
0.4142135623731
 10
1898.418691307211
 20
1299.999683277027
 42
0.4142135623731
 10
1899.91869130721
 20
1298.499683277027
 42
0.4142135623731
  0
LWPOLYLINE
  5
D2
330
1F
100
AcDbEntity
  8
0-B_寸法
  6
Continuous
 62
     7
370
     9
100
AcDbPolyline
 90
        4
 70
     1
 43
3.0
 10
-1878.581457156684
 20
1299.999683277027
 42
0.4142135623731
 10
-1880.081457156684
 20
1301.499683277027
 42
0.4142135623731
 10
-1881.581457156684
 20
1299.999683277027
 42
0.4142135623731
 10
-1880.081457156684
 20
1298.499683277027
 42
0.4142135623731
  0
LWPOLYLINE
  5
D3
330
1F
100
AcDbEntity
  8
0-B_寸法
  6
Continuous
 62
     7
370
     9
100
AcDbPolyline
 90
        4
 70
     1
 43
3.0
 10
-1698.581605620578
 20
1299.999683277027
 42
0.4142135623731
 10
-1700.081605620578
 20
1301.499683277027
 42
0.4142135623731
 10
-1701.581605620578
 20
1299.999683277027
 42
0.4142135623731
 10
-1700.081605620578
 20
1298.499683277027
 42
0.4142135623731
  0
LINE
  5
D4
330
1F
100
AcDbEntity
  8
0-B_寸法
  6
Continuous
 62
   120
370
     5
100
AcDbLine
 10
-1880.081457156684
 20
1089.999683277027
 30
0.0
 11
1899.91869130721
 21
1089.999683277027
 31
0.0
  0
LWPOLYLINE
  5
D5
330
1F
100
AcDbEntity
  8
0-B_寸法
  6
Continuous
 62
     7
370
     9
100
AcDbPolyline
 90
        4
 70
     1
 43
3.0
 10
1901.41869130721
 20
1089.999683277027
 42
0.4142135623731
 10
1899.91869130721
 20
1091.499683277027
 42
0.4142135623731
 10
1898.418691307211
 20
1089.999683277027
 42
0.4142135623731
 10
1899.91869130721
 20
1088.499683277027
 42
0.4142135623731
  0
LWPOLYLINE
  5
D6
330
1F
100
AcDbEntity
  8
0-B_寸法
  6
Continuous
 62
     7
370
     9
100
AcDbPolyline
 90
        4
 70
     1
 43
3.0
 10
-1878.581457156684
 20
1089.999683277027
 42
0.4142135623731
 10
-1880.081457156684
 20
1091.499683277027
 42
0.4142135623731
 10
-1881.581457156684
 20
1089.999683277027
 42
0.4142135623731
 10
-1880.081457156684
 20
1088.499683277027
 42
0.4142135623731
  0
LINE
  5
D7
330
1F
100
AcDbEntity
  8
0-B_寸法
  6
Continuous
 62
   120
370
     5
100
AcDbLine
 10
-1880.081457156684
 20
1089.999683277027
 30
0.0
 11
-1880.081457156684
 21
1899.999683277027
 31
0.0
  0
LINE
  5
D8
330
1F
100
AcDbEntity
  8
0-B_寸法
  6
Continuous
 62
   120
370
     5
100
AcDbLine
 10
-1700.081605620578
 20
1299.999683277027
 30
0.0
 11
-1700.081605620578
 21
1899.999683277027
 31
0.0
  0
LWPOLYLINE
  5
D9
330
1F
100
AcDbEntity
  8
0-6_扉
  6
Continuous
 62
     7
370
     9
100
AcDbPolyline
 90
        4
 70
     1
 43
3.0
 10
1901.41869130721
 20
1089.999683277027
 42
0.4142135623731
 10
1899.91869130721
 20
1091.499683277027
 42
0.4142135623731
 10
1898.418691307211
 20
1089.999683277027
 42
0.4142135623731
 10
1899.91869130721
 20
1088.499683277027
 42
0.4142135623731
  0
LWPOLYLINE
  5
DA
330
1F
100
AcDbEntity
  8
0-6_扉
  6
Continuous
 62
     7
370
     9
100
AcDbPolyline
 90
        4
 70
     1
 43
3.0
 10
-1878.581457156684
 20
1089.999683277027
 42
0.4142135623731
 10
-1880.081457156684
 20
1091.499683277027
 42
0.4142135623731
 10
-1881.581457156684
 20
1089.999683277027
 42
0.4142135623731
 10
-1880.081457156684
 20
1088.499683277027
 42
0.4142135623731
  0
LINE
  5
DB
330
1F
100
AcDbEntity
  8
0-6_扉
  6
Continuous
 62
   120
370
     5
100
AcDbLine
 10
-1880.081457156684
 20
1089.999683277027
 30
0.0
 11
-1880.081457156684
 21
1899.999683277027
 31
0.0
  0
LINE
  5
DC
330
1F
100
AcDbEntity
  8
0-C_ハッチ
  6
JWW_DASHED1
 62
   120
370
     5
100
AcDbLine
 10
-2434.9593991064
 20
2708.999683277027
 30
0.0
 11
-2480.081457156684
 21
2663.877625226739
 31
0.0
  0
LINE
  5
DD
330
1F
100
AcDbEntity
  8
0-C_ハッチ
  6
JWW_DASHED1
 62
   120
370
     5
100
AcDbLine
 10
-2392.53299223519
 20
2708.999683277036
 30
0.0
 11
-2467.5329922352
 21
2633.999683277027
 31
0.0
  0
LINE
  5
DE
330
1F
100
AcDbEntity
  8
0-C_ハッチ
  6
JWW_DASHED1
 62
   120
370
     5
100
AcDbLine
 10
-2350.106585363992
 20
2708.999683277032
 30
0.0
 11
-2425.106585363987
 21
2633.999683277038
 31
0.0
  0
LINE
  5
DF
330
1F
100
AcDbEntity
  8
0-C_ハッチ
  6
JWW_DASHED1
 62
   120
370
     5
100
AcDbLine
 10
-2307.680178492797
 20
2708.999683277028
 30
0.0
 11
-2382.680178492792
 21
2633.999683277033
 31
0.0
  0
LINE
  5
E0
330
1F
100
AcDbEntity
  8
0-C_ハッチ
  6
JWW_DASHED1
 62
   120
370
     5
100
AcDbLine
 10
-2265.253771621592
 20
2708.999683277029
 30
0.0
 11
-2340.253771621592
 21
2633.999683277033
 31
0.0
  0
LINE
  5
E1
330
1F
100
AcDbEntity
  8
0-C_ハッチ
  6
JWW_DASHED1
 62
   120
370
     5
100
AcDbLine
 10
-2222.827364750458
 20
2708.999683277021
 30
0.0
 11
-2297.827364750455
 21
2633.999683277027
 31
0.0
  0
LINE
  5
E2
330
1F
100
AcDbEntity
  8
0-C_ハッチ
  6
JWW_DASHED1
 62
   120
370
     5
100
AcDbLine
 10
-2180.40095787926
 20
2708.999683277018
 30
0.0
 11
-2255.400957879258
 21
2633.999683277022
 31
0.0
  0
LINE
  5
E3
330
1F
100
AcDbEntity
  8
0-C_ハッチ
  6
JWW_DASHED1
 62
   120
370
     5
100
AcDbLine
 10
-2137.974551008047
 20
2708.999683277031
 30
0.0
 11
-2212.97455100806
 21
2633.99968327702
 31
0.0
  0
LINE
  5
E4
330
1F
100
AcDbEntity
  8
0-C_ハッチ
  6
JWW_DASHED1
 62
   120
370
     5
100
AcDbLine
 10
-2095.548144136855
 20
2708.999683277028
 30
0.0
 11
-2170.54814413686
 21
2633.999683277015
 31
0.0
  0
LINE
  5
E5
330
1F
100
AcDbEntity
  8
0-C_ハッチ
  6
JWW_DASHED1
 62
   120
370
     5
100
AcDbLine
 10
-2053.121737265652
 20
2708.999683277029
 30
0.0
 11
-2128.12173726566
 21
2633.99968327702
 31
0.0
  0
LINE
  5
E6
330
1F
100
AcDbEntity
  8
0-C_ハッチ
  6
JWW_DASHED1
 62
   120
370
     5
100
AcDbLine
 10
-2010.695330394455
 20
2708.999683277025
 30
0.0
 11
-2085.695330394447
 21
2633.999683277031
 31
0.0
  0
LINE
  5
E7
330
1F
100
AcDbEntity
  8
0-C_ハッチ
  6
JWW_DASHED1
 62
   120
370
     5
100
AcDbLine
 10
-1968.26892352326
 20
2708.99968327702
 30
0.0
 11
-2043.268923523255
 21
2633.999683277027
 31
0.0
  0
LINE
  5
E8
330
1F
100
AcDbEntity
  8
0-C_ハッチ
  6
JWW_DASHED1
 62
   120
370
     5
100
AcDbLine
 10
-2433.268923523246
 20
2243.999683277031
 30
0.0
 11
-2480.081457156696
 21
2197.187149643583
 31
0.0
  0
LINE
  5
E9
330
1F
100
AcDbEntity
  8
0-C_ハッチ
  6
JWW_DASHED1
 62
   120
370
     5
100
AcDbLine
 10
-1925.842516652109
 20
2708.999683277027
 30
0.0
 11
-2000.842516652101
 21
2633.999683277029
 31
0.0
  0
LINE
  5
EA
330
1F
100
AcDbEntity
  8
0-C_ハッチ
  6
JWW_DASHED1
 62
   120
370
     5
100
AcDbLine
 10
-2390.842516652109
 20
2243.999683277025
 30
0.0
 11
-2465.842516652106
 21
2168.999683277028
 31
0.0
  0
LINE
  5
EB
330
1F
100
AcDbEntity
  8
0-C_ハッチ
  6
JWW_DASHED1
 62
   120
370
     5
100
AcDbLine
 10
-1883.416109780913
 20
2708.999683277022
 30
0.0
 11
-1958.416109780909
 21
2633.999683277027
 31
0.0
  0
LINE
  5
EC
330
1F
100
AcDbEntity
  8
0-C_ハッチ
  6
JWW_DASHED1
 62
   120
370
     5
100
AcDbLine
 10
-2348.416109780913
 20
2243.999683277021
 30
0.0
 11
-2423.416109780909
 21
2168.999683277027
 31
0.0
  0
LINE
  5
ED
330
1F
100
AcDbEntity
  8
0-C_ハッチ
  6
JWW_DASHED1
 62
   120
370
     5
100
AcDbLine
 10
-1880.081457156684
 20
2669.907929030046
 30
0.0
 11
-1915.989702909713
 21
2633.999683277024
 31
0.0
  0
LINE
  5
EE
330
1F
100
AcDbEntity
  8
0-C_ハッチ
  6
JWW_DASHED1
 62
   120
370
     5
100
AcDbLine
 10
-2305.989702909715
 20
2243.999683277018
 30
0.0
 11
-2380.989702909713
 21
2168.999683277022
 31
0.0
  0
LINE
  5
EF
330
1F
100
AcDbEntity
  8
0-C_ハッチ
  6
JWW_DASHED1
 62
   120
370
     5
100
AcDbLine
 10
-2263.563296038501
 20
2243.999683277031
 30
0.0
 11
-2338.563296038515
 21
2168.99968327702
 31
0.0
  0
LINE
  5
F0
330
1F
100
AcDbEntity
  8
0-C_ハッチ
  6
JWW_DASHED1
 62
   120
370
     5
100
AcDbLine
 10
-2221.136889167306
 20
2243.999683277028
 30
0.0
 11
-2296.136889167315
 21
2168.999683277015
 31
0.0
  0
LINE
  5
F1
330
1F
100
AcDbEntity
  8
0-C_ハッチ
  6
JWW_DASHED1
 62
   120
370
     5
100
AcDbLine
 10
-2178.710482296101
 20
2243.999683277033
 30
0.0
 11
-2253.710482296113
 21
2168.999683277022
 31
0.0
  0
LINE
  5
F2
330
1F
100
AcDbEntity
  8
0-C_ハッチ
  6
JWW_DASHED1
 62
   120
370
     5
100
AcDbLine
 10
-2136.284075424906
 20
2243.999683277028
 30
0.0
 11
-2211.284075424901
 21
2168.999683277033
 31
0.0
  0
LINE
  5
F3
330
1F
100
AcDbEntity
  8
0-C_ハッチ
  6
JWW_DASHED1
 62
   120
370
     5
100
AcDbLine
 10
-2093.857668553701
 20
2243.999683277033
 30
0.0
 11
-2168.857668553699
 21
2168.999683277038
 31
0.0
  0
LINE
  5
F4
330
1F
100
AcDbEntity
  8
0-C_ハッチ
  6
JWW_DASHED1
 62
   120
370
     5
100
AcDbLine
 10
-2051.431261682564
 20
2243.999683277027
 30
0.0
 11
-2126.431261682555
 21
2168.999683277031
 31
0.0
  0
LINE
  5
F5
330
1F
100
AcDbEntity
  8
0-C_ハッチ
  6
JWW_DASHED1
 62
   120
370
     5
100
AcDbLine
 10
-2009.004854811367
 20
2243.999683277022
 30
0.0
 11
-2084.004854811364
 21
2168.999683277027
 31
0.0
  0
LINE
  5
F6
330
1F
100
AcDbEntity
  8
0-C_ハッチ
  6
JWW_DASHED1
 62
   120
370
     5
100
AcDbLine
 10
-1966.578447940169
 20
2243.99968327702
 30
0.0
 11
-2041.578447940167
 21
2168.999683277024
 31
0.0
  0
LINE
  5
F7
330
1F
100
AcDbEntity
  8
0-C_ハッチ
  6
JWW_DASHED1
 62
   120
370
     5
100
AcDbLine
 10
-1924.152041068955
 20
2243.999683277033
 30
0.0
 11
-1999.152041068969
 21
2168.999683277021
 31
0.0
  0
LINE
  5
F8
330
1F
100
AcDbEntity
  8
0-C_ハッチ
  6
JWW_DASHED1
 62
   120
370
     5
100
AcDbLine
 10
-1881.725634197755
 20
2243.999683277029
 30
0.0
 11
-1956.725634197769
 21
2168.99968327702
 31
0.0
  0
LINE
  5
F9
330
1F
100
AcDbEntity
  8
0-C_ハッチ
  6
JWW_DASHED1
 62
   120
370
     5
100
AcDbLine
 10
-1880.081457156689
 20
2203.217453446899
 30
0.0
 11
-1914.299227326555
 21
2168.999683277031
 31
0.0
  0
LINE
  5
FA
330
1F
100
AcDbEntity
  8
0-C_ハッチ
  6
JWW_DASHED1
 62
   120
370
     5
100
AcDbLine
 10
1913.4381133513
 20
2708.999683277034
 30
0.0
 11
1899.919433626678
 21
2695.481003552413
 31
0.0
  0
LINE
  5
FB
330
1F
100
AcDbEntity
  8
0-C_ハッチ
  6
JWW_DASHED1
 62
   120
370
     5
100
AcDbLine
 10
1955.864520222496
 20
2708.999683277031
 30
0.0
 11
1899.919433626678
 21
2653.054596681215
 31
0.0
  0
LINE
  5
FC
330
1F
100
AcDbEntity
  8
0-C_ハッチ
  6
JWW_DASHED1
 62
   120
370
     5
100
AcDbLine
 10
1998.290927093694
 20
2708.999683277029
 30
0.0
 11
1923.290927093696
 21
2633.999683277033
 31
0.0
  0
LINE
  5
FD
330
1F
100
AcDbEntity
  8
0-C_ハッチ
  6
JWW_DASHED1
 62
   120
370
     5
100
AcDbLine
 10
2040.717333964907
 20
2708.999683277041
 30
0.0
 11
1965.717333964894
 21
2633.999683277029
 31
0.0
  0
LINE
  5
FE
330
1F
100
AcDbEntity
  8
0-C_ハッチ
  6
JWW_DASHED1
 62
   120
370
     5
100
AcDbLine
 10
2083.143740836055
 20
2708.999683277044
 30
0.0
 11
2008.14374083606
 21
2633.999683277049
 31
0.0
  0
LINE
  5
FF
330
1F
100
AcDbEntity
  8
0-C_ハッチ
  6
JWW_DASHED1
 62
   120
370
     5
100
AcDbLine
 10
2125.57014770725
 20
2708.99968327704
 30
0.0
 11
2050.570147707255
 21
2633.999683277047
 31
0.0
  0
LINE
  5
100
330
1F
100
AcDbEntity
  8
0-C_ハッチ
  6
JWW_DASHED1
 62
   120
370
     5
100
AcDbLine
 10
2167.996554578447
 20
2708.999683277036
 30
0.0
 11
2092.996554578453
 21
2633.999683277041
 31
0.0
  0
LINE
  5
101
330
1F
100
AcDbEntity
  8
0-C_ハッチ
  6
JWW_DASHED1
 62
   120
370
     5
100
AcDbLine
 10
2210.422961449642
 20
2708.999683277031
 30
0.0
 11
2135.422961449647
 21
2633.999683277038
 31
0.0
  0
LINE
  5
102
330
1F
100
AcDbEntity
  8
0-C_ハッチ
  6
JWW_DASHED1
 62
   120
370
     5
100
AcDbLine
 10
2252.849368320847
 20
2708.999683277038
 30
0.0
 11
2177.84936832085
 21
2633.99968327704
 31
0.0
  0
LINE
  5
103
330
1F
100
AcDbEntity
  8
0-C_ハッチ
  6
JWW_DASHED1
 62
   120
370
     5
100
AcDbLine
 10
2295.275775192044
 20
2708.999683277033
 30
0.0
 11
2220.275775192047
 21
2633.999683277038
 31
0.0
  0
LINE
  5
104
330
1F
100
AcDbEntity
  8
0-C_ハッチ
  6
JWW_DASHED1
 62
   120
370
     5
100
AcDbLine
 10
2337.70218206324
 20
2708.999683277031
 30
0.0
 11
2262.702182063244
 21
2633.999683277034
 31
0.0
  0
LINE
  5
105
330
1F
100
AcDbEntity
  8
0-C_ハッチ
  6
JWW_DASHED1
 62
   120
370
     5
100
AcDbLine
 10
2380.128588934454
 20
2708.999683277043
 30
0.0
 11
2305.128588934442
 21
2633.999683277031
 31
0.0
  0
LINE
  5
106
330
1F
100
AcDbEntity
  8
0-C_ハッチ
  6
JWW_DASHED1
 62
   120
370
     5
100
AcDbLine
 10
2422.554995805594
 20
2708.999683277038
 30
0.0
 11
2347.554995805599
 21
2633.999683277043
 31
0.0
  0
LINE
  5
107
330
1F
100
AcDbEntity
  8
0-C_ハッチ
  6
JWW_DASHED1
 62
   120
370
     5
100
AcDbLine
 10
2464.981402676789
 20
2708.999683277033
 30
0.0
 11
2389.981402676794
 21
2633.99968327704
 31
0.0
  0
LINE
  5
108
330
1F
100
AcDbEntity
  8
0-C_ハッチ
  6
JWW_DASHED1
 62
   120
370
     5
100
AcDbLine
 10
2499.919285162791
 20
2701.511158891833
 30
0.0
 11
2432.407809547992
 21
2633.999683277034
 31
0.0
  0
LINE
  5
109
330
1F
100
AcDbEntity
  8
0-C_ハッチ
  6
JWW_DASHED1
 62
   120
370
     5
100
AcDbLine
 10
2499.919285162791
 20
2659.084752020635
 30
0.0
 11
2474.834216419185
 21
2633.999683277031
 31
0.0
  0
LINE
  5
10A
330
1F
100
AcDbEntity
  8
0-C_ハッチ
  6
JWW_DASHED1
 62
   120
370
     5
100
AcDbLine
 10
142.257640359521
 20
2243.999683277052
 30
0.0
 11
108.9185428433017
 21
2210.660585760833
 31
0.0
  0
LINE
  5
10B
330
1F
100
AcDbEntity
  8
0-C_ハッチ
  6
JWW_DASHED1
 62
   120
370
     5
100
AcDbLine
 10
184.684047230718
 20
2243.999683277049
 30
0.0
 11
109.6840472307223
 21
2168.999683277054
 31
0.0
  0
LINE
  5
10C
330
1F
100
AcDbEntity
  8
0-C_ハッチ
  6
JWW_DASHED1
 62
   120
370
     5
100
AcDbLine
 10
227.1104541019142
 20
2243.999683277045
 30
0.0
 11
152.1104541019189
 21
2168.999683277049
 31
0.0
  0
LINE
  5
10D
330
1F
100
AcDbEntity
  8
0-C_ハッチ
  6
JWW_DASHED1
 62
   120
370
     5
100
AcDbLine
 10
269.5368609731121
 20
2243.999683277043
 30
0.0
 11
194.5368609731155
 21
2168.999683277047
 31
0.0
  0
LINE
  5
10E
330
1F
100
AcDbEntity
  8
0-C_ハッチ
  6
JWW_DASHED1
 62
   120
370
     5
100
AcDbLine
 10
311.9632678443074
 20
2243.99968327704
 30
0.0
 11
236.9632678443121
 21
2168.999683277043
 31
0.0
  0
LINE
  5
10F
330
1F
100
AcDbEntity
  8
0-C_ハッチ
  6
JWW_DASHED1
 62
   120
370
     5
100
AcDbLine
 10
354.3896747155053
 20
2243.999683277036
 30
0.0
 11
279.3896747155087
 21
2168.99968327704
 31
0.0
  0
LINE
  5
110
330
1F
100
AcDbEntity
  8
0-C_ハッチ
  6
JWW_DASHED1
 62
   120
370
     5
100
AcDbLine
 10
396.8160815867163
 20
2243.999683277048
 30
0.0
 11
321.8160815867053
 21
2168.999683277038
 31
0.0
  0
LINE
  5
111
330
1F
100
AcDbEntity
  8
0-C_ハッチ
  6
JWW_DASHED1
 62
   120
370
     5
100
AcDbLine
 10
439.2424884578644
 20
2243.999683277049
 30
0.0
 11
364.2424884578542
 21
2168.99968327704
 31
0.0
  0
LINE
  5
112
330
1F
100
AcDbEntity
  8
0-C_ハッチ
  6
JWW_DASHED1
 62
   120
370
     5
100
AcDbLine
 10
481.6688953290597
 20
2243.999683277045
 30
0.0
 11
406.6688953290644
 21
2168.999683277051
 31
0.0
  0
LINE
  5
113
330
1F
100
AcDbEntity
  8
0-C_ハッチ
  6
JWW_DASHED1
 62
   120
370
     5
100
AcDbLine
 10
524.0953022002644
 20
2243.999683277049
 30
0.0
 11
449.0953022002678
 21
2168.999683277054
 31
0.0
  0
LINE
  5
114
330
1F
100
AcDbEntity
  8
0-C_ハッチ
  6
JWW_DASHED1
 62
   120
370
     5
100
AcDbLine
 10
566.521709071461
 20
2243.999683277047
 30
0.0
 11
491.5217090714644
 21
2168.999683277051
 31
0.0
  0
LINE
  5
115
330
1F
100
AcDbEntity
  8
0-C_ハッチ
  6
JWW_DASHED1
 62
   120
370
     5
100
AcDbLine
 10
608.9481159426576
 20
2243.999683277043
 30
0.0
 11
533.948115942661
 21
2168.999683277047
 31
0.0
  0
LINE
  5
116
330
1F
100
AcDbEntity
  8
0-C_ハッチ
  6
JWW_DASHED1
 62
   120
370
     5
100
AcDbLine
 10
651.3745228138542
 20
2243.99968327704
 30
0.0
 11
576.3745228138577
 21
2168.999683277044
 31
0.0
  0
LINE
  5
117
330
1F
100
AcDbEntity
  8
0-C_ハッチ
  6
JWW_DASHED1
 62
   120
370
     5
100
AcDbLine
 10
693.8009296850508
 20
2243.999683277036
 30
0.0
 11
618.8009296850543
 21
2168.99968327704
 31
0.0
  0
LINE
  5
118
330
1F
100
AcDbEntity
  8
0-C_ハッチ
  6
JWW_DASHED1
 62
   120
370
     5
100
AcDbLine
 10
736.2273365562636
 20
2243.999683277049
 30
0.0
 11
661.2273365562509
 21
2168.999683277038
 31
0.0
  0
LINE
  5
119
330
1F
100
AcDbEntity
  8
0-C_ハッチ
  6
JWW_DASHED1
 62
   120
370
     5
100
AcDbLine
 10
778.6537434274031
 20
2243.999683277043
 30
0.0
 11
703.653743427409
 21
2168.999683277048
 31
0.0
  0
LINE
  5
11A
330
1F
100
AcDbEntity
  8
0-C_ハッチ
  6
JWW_DASHED1
 62
   120
370
     5
100
AcDbLine
 10
821.0801502985985
 20
2243.999683277038
 30
0.0
 11
746.0801502986031
 21
2168.999683277044
 31
0.0
  0
LINE
  5
11B
330
1F
100
AcDbEntity
  8
0-C_ハッチ
  6
JWW_DASHED1
 62
   120
370
     5
100
AcDbLine
 10
863.4186170752535
 20
2243.911743182493
 30
0.0
 11
788.5065571698142
 21
2168.999683277055
 31
0.0
  0
LINE
  5
11C
330
1F
100
AcDbEntity
  8
0-C_ハッチ
  6
JWW_DASHED1
 62
   120
370
     5
100
AcDbLine
 10
863.4186170752547
 20
2201.485336311295
 30
0.0
 11
830.93296404101
 21
2168.999683277051
 31
0.0
  0
LINE
  5
11D
330
1F
100
AcDbEntity
  8
0-C_ハッチ
  6
JWW_DASHED1
 62
   120
370
     5
100
AcDbLine
 10
998.6277723830376
 20
2243.999683277041
 30
0.0
 11
983.4186170752662
 21
2228.790527969269
 31
0.0
  0
LINE
  5
11E
330
1F
100
AcDbEntity
  8
0-C_ハッチ
  6
JWW_DASHED1
 62
   120
370
     5
100
AcDbLine
 10
1041.05417925419
 20
2243.999683277048
 30
0.0
 11
983.4186170752525
 21
2186.36412109811
 31
0.0
  0
LINE
  5
11F
330
1F
100
AcDbEntity
  8
0-C_ハッチ
  6
JWW_DASHED1
 62
   120
370
     5
100
AcDbLine
 10
1083.480586125387
 20
2243.999683277044
 30
0.0
 11
1008.480586125392
 21
2168.999683277049
 31
0.0
  0
LINE
  5
120
330
1F
100
AcDbEntity
  8
0-C_ハッチ
  6
JWW_DASHED1
 62
   120
370
     5
100
AcDbLine
 10
1125.906992996584
 20
2243.999683277041
 30
0.0
 11
1050.906992996588
 21
2168.999683277047
 31
0.0
  0
LINE
  5
121
330
1F
100
AcDbEntity
  8
0-C_ハッチ
  6
JWW_DASHED1
 62
   120
370
     5
100
AcDbLine
 10
1168.33339986778
 20
2243.999683277038
 30
0.0
 11
1093.333399867784
 21
2168.999683277043
 31
0.0
  0
LINE
  5
122
330
1F
100
AcDbEntity
  8
0-C_ハッチ
  6
JWW_DASHED1
 62
   120
370
     5
100
AcDbLine
 10
1210.759806738978
 20
2243.999683277034
 30
0.0
 11
1135.759806738981
 21
2168.99968327704
 31
0.0
  0
LINE
  5
123
330
1F
100
AcDbEntity
  8
0-C_ハッチ
  6
JWW_DASHED1
 62
   120
370
     5
100
AcDbLine
 10
1253.186213610173
 20
2243.999683277031
 30
0.0
 11
1178.186213610178
 21
2168.999683277034
 31
0.0
  0
LINE
  5
124
330
1F
100
AcDbEntity
  8
0-C_ハッチ
  6
JWW_DASHED1
 62
   120
370
     5
100
AcDbLine
 10
1295.612620481386
 20
2243.999683277043
 30
0.0
 11
1220.612620481373
 21
2168.999683277031
 31
0.0
  0
LINE
  5
125
330
1F
100
AcDbEntity
  8
0-C_ハッチ
  6
JWW_DASHED1
 62
   120
370
     5
100
AcDbLine
 10
1338.039027352539
 20
2243.999683277052
 30
0.0
 11
1263.039027352544
 21
2168.999683277055
 31
0.0
  0
LINE
  5
126
330
1F
100
AcDbEntity
  8
0-C_ハッチ
  6
JWW_DASHED1
 62
   120
370
     5
100
AcDbLine
 10
1380.465434223734
 20
2243.999683277048
 30
0.0
 11
1305.465434223739
 21
2168.999683277052
 31
0.0
  0
LINE
  5
127
330
1F
100
AcDbEntity
  8
0-C_ハッチ
  6
JWW_DASHED1
 62
   120
370
     5
100
AcDbLine
 10
1422.89184109493
 20
2243.999683277044
 30
0.0
 11
1347.891841094937
 21
2168.999683277048
 31
0.0
  0
LINE
  5
128
330
1F
100
AcDbEntity
  8
0-C_ハッチ
  6
JWW_DASHED1
 62
   120
370
     5
100
AcDbLine
 10
1465.318247966127
 20
2243.999683277041
 30
0.0
 11
1390.318247966133
 21
2168.999683277044
 31
0.0
  0
LINE
  5
129
330
1F
100
AcDbEntity
  8
0-C_ハッチ
  6
JWW_DASHED1
 62
   120
370
     5
100
AcDbLine
 10
1507.744654837324
 20
2243.999683277038
 30
0.0
 11
1432.74465483733
 21
2168.999683277041
 31
0.0
  0
LINE
  5
12A
330
1F
100
AcDbEntity
  8
0-C_ハッチ
  6
JWW_DASHED1
 62
   120
370
     5
100
AcDbLine
 10
1550.17106170852
 20
2243.999683277034
 30
0.0
 11
1475.171061708526
 21
2168.999683277038
 31
0.0
  0
LINE
  5
12B
330
1F
100
AcDbEntity
  8
0-C_ハッチ
  6
JWW_DASHED1
 62
   120
370
     5
100
AcDbLine
 10
1592.597468579717
 20
2243.999683277031
 30
0.0
 11
1517.597468579724
 21
2168.999683277034
 31
0.0
  0
LINE
  5
12C
330
1F
100
AcDbEntity
  8
0-C_ハッチ
  6
JWW_DASHED1
 62
   120
370
     5
100
AcDbLine
 10
1635.023875450931
 20
2243.999683277043
 30
0.0
 11
1560.023875450919
 21
2168.999683277031
 31
0.0
  0
LINE
  5
12D
330
1F
100
AcDbEntity
  8
0-C_ハッチ
  6
JWW_DASHED1
 62
   120
370
     5
100
AcDbLine
 10
1677.450282322083
 20
2243.999683277051
 30
0.0
 11
1602.450282322088
 21
2168.999683277055
 31
0.0
  0
LINE
  5
12E
330
1F
100
AcDbEntity
  8
0-C_ハッチ
  6
JWW_DASHED1
 62
   120
370
     5
100
AcDbLine
 10
1719.876689193279
 20
2243.999683277047
 30
0.0
 11
1644.876689193285
 21
2168.999683277052
 31
0.0
  0
LINE
  5
12F
330
1F
100
AcDbEntity
  8
0-C_ハッチ
  6
JWW_DASHED1
 62
   120
370
     5
100
AcDbLine
 10
1762.303096064476
 20
2243.999683277044
 30
0.0
 11
1687.303096064481
 21
2168.999683277048
 31
0.0
  0
LINE
  5
130
330
1F
100
AcDbEntity
  8
0-C_ハッチ
  6
JWW_DASHED1
 62
   120
370
     5
100
AcDbLine
 10
1804.729502935673
 20
2243.99968327704
 30
0.0
 11
1729.729502935679
 21
2168.999683277044
 31
0.0
  0
LINE
  5
131
330
1F
100
AcDbEntity
  8
0-C_ハッチ
  6
JWW_DASHED1
 62
   120
370
     5
100
AcDbLine
 10
1847.155909806869
 20
2243.999683277036
 30
0.0
 11
1772.155909806873
 21
2168.999683277041
 31
0.0
  0
LINE
  5
132
330
1F
100
AcDbEntity
  8
0-C_ハッチ
  6
JWW_DASHED1
 62
   120
370
     5
100
AcDbLine
 10
1889.582316678066
 20
2243.999683277033
 30
0.0
 11
1814.582316678069
 21
2168.999683277038
 31
0.0
  0
LINE
  5
133
330
1F
100
AcDbEntity
  8
0-C_ハッチ
  6
JWW_DASHED1
 62
   120
370
     5
100
AcDbLine
 10
1932.008723549279
 20
2243.999683277044
 30
0.0
 11
1857.008723549266
 21
2168.999683277034
 31
0.0
  0
LINE
  5
134
330
1F
100
AcDbEntity
  8
0-C_ハッチ
  6
JWW_DASHED1
 62
   120
370
     5
100
AcDbLine
 10
1974.435130420432
 20
2243.999683277054
 30
0.0
 11
1899.435130420422
 21
2168.999683277041
 31
0.0
  0
LINE
  5
135
330
1F
100
AcDbEntity
  8
0-C_ハッチ
  6
JWW_DASHED1
 62
   120
370
     5
100
AcDbLine
 10
2016.861537291628
 20
2243.999683277049
 30
0.0
 11
1941.861537291632
 21
2168.999683277055
 31
0.0
  0
LINE
  5
136
330
1F
100
AcDbEntity
  8
0-C_ハッチ
  6
JWW_DASHED1
 62
   120
370
     5
100
AcDbLine
 10
2059.287944162824
 20
2243.999683277047
 30
0.0
 11
1984.287944162828
 21
2168.999683277052
 31
0.0
  0
LINE
  5
137
330
1F
100
AcDbEntity
  8
0-C_ハッチ
  6
JWW_DASHED1
 62
   120
370
     5
100
AcDbLine
 10
2101.714351034022
 20
2243.999683277043
 30
0.0
 11
2026.714351034025
 21
2168.999683277047
 31
0.0
  0
LINE
  5
138
330
1F
100
AcDbEntity
  8
0-C_ハッチ
  6
JWW_DASHED1
 62
   120
370
     5
100
AcDbLine
 10
2144.140757905218
 20
2243.99968327704
 30
0.0
 11
2069.140757905222
 21
2168.999683277044
 31
0.0
  0
LINE
  5
139
330
1F
100
AcDbEntity
  8
0-C_ハッチ
  6
JWW_DASHED1
 62
   120
370
     5
100
AcDbLine
 10
2186.567164776415
 20
2243.999683277036
 30
0.0
 11
2111.567164776418
 21
2168.99968327704
 31
0.0
  0
LINE
  5
13A
330
1F
100
AcDbEntity
  8
0-C_ハッチ
  6
JWW_DASHED1
 62
   120
370
     5
100
AcDbLine
 10
2228.99357164761
 20
2243.999683277033
 30
0.0
 11
2153.993571647615
 21
2168.999683277038
 31
0.0
  0
LINE
  5
13B
330
1F
100
AcDbEntity
  8
0-C_ハッチ
  6
JWW_DASHED1
 62
   120
370
     5
100
AcDbLine
 10
2271.419978518824
 20
2243.999683277044
 30
0.0
 11
2196.419978518811
 21
2168.999683277033
 31
0.0
  0
LINE
  5
13C
330
1F
100
AcDbEntity
  8
0-C_ハッチ
  6
JWW_DASHED1
 62
   120
370
     5
100
AcDbLine
 10
2313.846385389976
 20
2243.999683277054
 30
0.0
 11
2238.846385389981
 21
2168.999683277058
 31
0.0
  0
LINE
  5
13D
330
1F
100
AcDbEntity
  8
0-C_ハッチ
  6
JWW_DASHED1
 62
   120
370
     5
100
AcDbLine
 10
2356.272792261174
 20
2243.999683277049
 30
0.0
 11
2281.272792261177
 21
2168.999683277054
 31
0.0
  0
LINE
  5
13E
330
1F
100
AcDbEntity
  8
0-C_ハッチ
  6
JWW_DASHED1
 62
   120
370
     5
100
AcDbLine
 10
2398.699199132369
 20
2243.999683277047
 30
0.0
 11
2323.699199132374
 21
2168.999683277049
 31
0.0
  0
LINE
  5
13F
330
1F
100
AcDbEntity
  8
0-C_ハッチ
  6
JWW_DASHED1
 62
   120
370
     5
100
AcDbLine
 10
2441.125606003567
 20
2243.999683277043
 30
0.0
 11
2366.12560600357
 21
2168.999683277047
 31
0.0
  0
LINE
  5
140
330
1F
100
AcDbEntity
  8
0-C_ハッチ
  6
JWW_DASHED1
 62
   120
370
     5
100
AcDbLine
 10
2483.552012874763
 20
2243.999683277038
 30
0.0
 11
2408.552012874767
 21
2168.999683277043
 31
0.0
  0
LINE
  5
141
330
1F
100
AcDbEntity
  8
0-C_ハッチ
  6
JWW_DASHED1
 62
   120
370
     5
100
AcDbLine
 10
2499.918542843319
 20
2217.939806374397
 30
0.0
 11
2450.978419745963
 21
2168.99968327704
 31
0.0
  0
LINE
  5
142
330
1F
100
AcDbEntity
  8
0-C_ハッチ
  6
JWW_DASHED1
 62
   120
370
     5
100
AcDbLine
 10
2499.918542843322
 20
2175.513399503197
 30
0.0
 11
2493.40482661716
 21
2168.999683277036
 31
0.0
  0
LINE
  5
143
330
1F
100
AcDbEntity
  8
0-2_柱
  6
Continuous
 62
    92
370
    13
100
AcDbLine
 10
1899.91869130721
 20
2243.999683277028
 30
0.0
 11
1899.91869130721
 21
2633.999683277034
 31
0.0
  0
LINE
  5
144
330
1F
100
AcDbEntity
  8
0-2_柱
  6
Continuous
 62
    92
370
    13
100
AcDbLine
 10
2169.918691307211
 20
2243.999683277028
 30
0.0
 11
2169.918691307211
 21
2633.999683277034
 31
0.0
  0
LINE
  5
145
330
1F
100
AcDbEntity
  8
0-2_柱
  6
Continuous
 62
     7
370
     9
100
AcDbLine
 10
1899.91869130721
 20
2243.999683277028
 30
0.0
 11
2169.918691307211
 21
2633.999683277034
 31
0.0
  0
LINE
  5
146
330
1F
100
AcDbEntity
  8
0-2_柱
  6
Continuous
 62
     7
370
     9
100
AcDbLine
 10
-1880.081457156684
 20
2633.999683277015
 30
0.0
 11
-2150.081457156684
 21
2243.999683277021
 31
0.0
  0
LINE
  5
147
330
1F
100
AcDbEntity
  8
0-2_柱
  6
Continuous
 62
    92
370
    13
100
AcDbLine
 10
-1880.081457156684
 20
2633.999683277028
 30
0.0
 11
-1880.081457156684
 21
2243.999683277021
 31
0.0
  0
LINE
  5
148
330
1F
100
AcDbEntity
  8
0-2_柱
  6
Continuous
 62
    92
370
    13
100
AcDbLine
 10
-2150.081457156684
 20
2633.999683277028
 30
0.0
 11
-2150.081457156684
 21
2243.999683277021
 31
0.0
  0
LINE
  5
149
330
1F
100
AcDbEntity
  8
0-4_枠
  6
Continuous
 62
    92
370
    13
100
AcDbLine
 10
-1700.081457156684
 20
2769.514401902789
 30
0.0
 11
-1708.566738530927
 21
2777.999683277028
 31
0.0
  0
LINE
  5
14A
330
1F
100
AcDbEntity
  8
0-4_枠
  6
Continuous
 62
    92
370
    13
100
AcDbLine
 10
-1709.809219000759
 20
2774.999523059741
 30
0.0
 11
-1703.081022281197
 21
2768.271326340182
 31
0.0
  0
LINE
  5
14B
330
1F
100
AcDbEntity
  8
0-4_枠
  6
Continuous
 62
    92
370
    13
100
AcDbLine
 10
-1708.566738530927
 20
2777.999683277028
 30
0.0
 11
-1880.081457156684
 21
2777.999683277028
 31
0.0
  0
LINE
  5
14C
330
1F
100
AcDbEntity
  8
0-4_枠
  6
Continuous
 62
    92
370
    13
100
AcDbLine
 10
-1709.809219000759
 20
2774.999523059741
 30
0.0
 11
-1877.081457156687
 21
2774.999523059741
 31
0.0
  0
LINE
  5
14D
330
1F
100
AcDbEntity
  8
0-4_枠
  6
Continuous
 62
    92
370
    13
100
AcDbLine
 10
-1708.566738530927
 20
2099.999683277029
 30
0.0
 11
-1700.081457156684
 21
2108.484964651266
 31
0.0
  0
LINE
  5
14E
330
1F
100
AcDbEntity
  8
0-4_枠
  6
Continuous
 62
    92
370
    13
100
AcDbLine
 10
-1703.081022281197
 20
2111.484529775777
 30
0.0
 11
-1711.566303655434
 21
2102.99924840154
 31
0.0
  0
LINE
  5
14F
330
1F
100
AcDbEntity
  8
0-4_枠
  6
Continuous
 62
    92
370
    13
100
AcDbLine
 10
-1877.081457156687
 20
2687.999683277028
 30
0.0
 11
-1880.081457156684
 21
2687.999683277028
 31
0.0
  0
LINE
  5
150
330
1F
100
AcDbEntity
  8
0-4_枠
  6
Continuous
 62
    92
370
    13
100
AcDbLine
 10
-1877.081457156687
 20
2189.999683277028
 30
0.0
 11
-1880.081457156684
 21
2189.999683277028
 31
0.0
  0
LINE
  5
151
330
1F
100
AcDbEntity
  8
0-4_枠
  6
Continuous
 62
    92
370
    13
100
AcDbLine
 10
-1708.566738530927
 20
2099.999683277029
 30
0.0
 11
-1880.081457156684
 21
2099.999683277029
 31
0.0
  0
LINE
  5
152
330
1F
100
AcDbEntity
  8
0-4_枠
  6
Continuous
 62
    92
370
    13
100
AcDbLine
 10
-1711.566303655434
 20
2102.99924840154
 30
0.0
 11
-1877.081457156687
 21
2102.99924840154
 31
0.0
  0
LINE
  5
153
330
1F
100
AcDbEntity
  8
0-4_枠
  6
Continuous
 62
    92
370
    13
100
AcDbLine
 10
-1877.081457156687
 20
2189.999683277028
 30
0.0
 11
-1877.081457156687
 21
2102.99924840154
 31
0.0
  0
LINE
  5
154
330
1F
100
AcDbEntity
  8
0-4_枠
  6
Continuous
 62
    92
370
    13
100
AcDbLine
 10
-1877.081457156687
 20
2687.999683277028
 30
0.0
 11
-1877.081457156687
 21
2774.999523059741
 31
0.0
  0
LINE
  5
155
330
1F
100
AcDbEntity
  8
0-4_枠
  6
Continuous
 62
    92
370
    13
100
AcDbLine
 10
-1880.081457156684
 20
2099.999683277029
 30
0.0
 11
-1880.081457156684
 21
2777.999683277028
 31
0.0
  0
LINE
  5
156
330
1F
100
AcDbEntity
  8
0-C_ハッチ
  6
Continuous
 62
   120
370
     5
100
AcDbLine
 10
-1751.824689111837
 20
2102.999248401533
 30
0.0
 11
-1703.081022281204
 21
2151.742915232166
 31
0.0
  0
LINE
  5
157
330
1F
100
AcDbEntity
  8
0-C_ハッチ
  6
Continuous
 62
   120
370
     5
100
AcDbLine
 10
-1811.221658731528
 20
2102.999248401545
 30
0.0
 11
-1703.081022281204
 21
2211.139884851871
 31
0.0
  0
LINE
  5
158
330
1F
100
AcDbEntity
  8
0-C_ハッチ
  6
Continuous
 62
   120
370
     5
100
AcDbLine
 10
-1870.618628351172
 20
2102.999248401547
 30
0.0
 11
-1703.081022281197
 21
2270.536854471522
 31
0.0
  0
LINE
  5
159
330
1F
100
AcDbEntity
  8
0-C_ハッチ
  6
Continuous
 62
   120
370
     5
100
AcDbLine
 10
-1877.081457156689
 20
2155.933389215732
 30
0.0
 11
-1703.081022281204
 21
2329.933824091218
 31
0.0
  0
LINE
  5
15A
330
1F
100
AcDbEntity
  8
0-C_ハッチ
  6
Continuous
 62
   120
370
     5
100
AcDbLine
 10
-1880.081457156679
 20
2212.330358835388
 30
0.0
 11
-1703.08102228119
 21
2389.330793710878
 31
0.0
  0
LINE
  5
15B
330
1F
100
AcDbEntity
  8
0-C_ハッチ
  6
Continuous
 62
   120
370
     5
100
AcDbLine
 10
-1880.081457156686
 20
2331.124298074731
 30
0.0
 11
-1739.081457156674
 21
2472.124298074742
 31
0.0
  0
LINE
  5
15C
330
1F
100
AcDbEntity
  8
0-C_ハッチ
  6
Continuous
 62
   120
370
     5
100
AcDbLine
 10
-1880.081457156676
 20
2390.521267694389
 30
0.0
 11
-1739.081457156695
 21
2531.521267694369
 31
0.0
  0
LINE
  5
15D
330
1F
100
AcDbEntity
  8
0-C_ハッチ
  6
Continuous
 62
   120
370
     5
100
AcDbLine
 10
-1880.081457156693
 20
2449.918237314075
 30
0.0
 11
-1739.081457156681
 21
2590.918237314086
 31
0.0
  0
LINE
  5
15E
330
1F
100
AcDbEntity
  8
0-C_ハッチ
  6
Continuous
 62
   120
370
     5
100
AcDbLine
 10
-1880.081457156679
 20
2509.315206933733
 30
0.0
 11
-1739.081457156702
 21
2650.315206933712
 31
0.0
  0
LINE
  5
15F
330
1F
100
AcDbEntity
  8
0-C_ハッチ
  6
Continuous
 62
   120
370
     5
100
AcDbLine
 10
-1880.081457156698
 20
2568.712176553419
 30
0.0
 11
-1703.081022281211
 21
2745.712611428905
 31
0.0
  0
LINE
  5
160
330
1F
100
AcDbEntity
  8
0-C_ハッチ
  6
Continuous
 62
   120
370
     5
100
AcDbLine
 10
-1880.081457156686
 20
2628.109146173077
 30
0.0
 11
-1733.191080270035
 21
2774.999523059727
 31
0.0
  0
LINE
  5
161
330
1F
100
AcDbEntity
  8
0-C_ハッチ
  6
Continuous
 62
   120
370
     5
100
AcDbLine
 10
-1880.081457156676
 20
2687.506115792735
 30
0.0
 11
-1879.587889672389
 21
2687.999683277023
 31
0.0
  0
LINE
  5
162
330
1F
100
AcDbEntity
  8
0-C_ハッチ
  6
Continuous
 62
   120
370
     5
100
AcDbLine
 10
-1877.081457156695
 20
2690.506115792714
 30
0.0
 11
-1792.58804988966
 21
2774.999523059751
 31
0.0
  0
LINE
  5
163
330
1F
100
AcDbEntity
  8
0-C_ハッチ
  6
Continuous
 62
   120
370
     5
100
AcDbLine
 10
-1877.081457156687
 20
2749.903085412426
 30
0.0
 11
-1851.985019509372
 21
2774.999523059739
 31
0.0
  0
LINE
  5
164
330
1F
100
AcDbEntity
  8
0-4_枠
  6
Continuous
 62
    92
370
    13
100
AcDbLine
 10
-1700.081457156684
 20
2769.514401902789
 30
0.0
 11
-1700.081457156684
 21
2675.999683277028
 31
0.0
  0
LINE
  5
165
330
1F
100
AcDbEntity
  8
0-4_枠
  6
Continuous
 62
    92
370
    13
100
AcDbLine
 10
-1703.081022281197
 20
2768.271326340182
 30
0.0
 11
-1703.081022281197
 21
2678.999683277028
 31
0.0
  0
LINE
  5
166
330
1F
100
AcDbEntity
  8
0-4_枠
  6
Continuous
 62
    92
370
    13
100
AcDbLine
 10
-1736.081457156684
 20
2675.999683277028
 30
0.0
 11
-1700.081457156684
 21
2675.999683277028
 31
0.0
  0
LINE
  5
167
330
1F
100
AcDbEntity
  8
0-4_枠
  6
Continuous
 62
    92
370
    13
100
AcDbLine
 10
-1739.081457156683
 20
2678.999683277028
 30
0.0
 11
-1703.081022281197
 21
2678.999683277028
 31
0.0
  0
LINE
  5
168
330
1F
100
AcDbEntity
  8
0-4_枠
  6
Continuous
 62
    92
370
    13
100
AcDbLine
 10
-1700.081457156684
 20
2108.484964651266
 30
0.0
 11
-1700.081457156684
 21
2429.999683277028
 31
0.0
  0
LINE
  5
169
330
1F
100
AcDbEntity
  8
0-4_枠
  6
Continuous
 62
    92
370
    13
100
AcDbLine
 10
-1703.081022281197
 20
2111.484529775777
 30
0.0
 11
-1703.081022281197
 21
2426.999683277028
 31
0.0
  0
LINE
  5
16A
330
1F
100
AcDbEntity
  8
0-4_枠
  6
Continuous
 62
    92
370
    13
100
AcDbLine
 10
-1736.081457156684
 20
2429.999683277028
 30
0.0
 11
-1700.081457156684
 21
2429.999683277028
 31
0.0
  0
LINE
  5
16B
330
1F
100
AcDbEntity
  8
0-4_枠
  6
Continuous
 62
    92
370
    13
100
AcDbLine
 10
-1739.081457156683
 20
2426.999683277028
 30
0.0
 11
-1703.081022281197
 21
2426.999683277028
 31
0.0
  0
LINE
  5
16C
330
1F
100
AcDbEntity
  8
0-4_枠
  6
Continuous
 62
    92
370
    13
100
AcDbLine
 10
-1736.081457156684
 20
2429.999683277028
 30
0.0
 11
-1736.081457156684
 21
2675.999683277028
 31
0.0
  0
LINE
  5
16D
330
1F
100
AcDbEntity
  8
0-4_枠
  6
Continuous
 62
    92
370
    13
100
AcDbLine
 10
-1739.081457156683
 20
2426.999683277028
 30
0.0
 11
-1739.081457156683
 21
2678.999683277028
 31
0.0
  0
ARC
  5
16E
330
1F
100
AcDbEntity
  8
0-7_金物
  6
Continuous
 62
     7
370
     9
100
AcDbCircle
 10
-1900.788800914225
 20
2552.999683310524
 30
0.0
 40
188.167407989502
100
AcDbArc
 50
346.1637114550782
 51
13.83631887695315
  0
LINE
  5
16F
330
1F
100
AcDbEntity
  8
0-7_金物
  6
Continuous
 62
     7
370
     9
100
AcDbLine
 10
-1736.081457137238
 20
2567.999683053597
 30
0.0
 11
-1766.081456601478
 21
2567.999683291341
 31
0.0
  0
LINE
  5
170
330
1F
100
AcDbEntity
  8
0-7_金物
  6
Continuous
 62
     7
370
     9
100
AcDbLine
 10
-1766.081456839561
 20
2537.999683712553
 30
0.0
 11
-1766.081456601478
 21
2567.999683291341
 31
0.0
  0
LINE
  5
171
330
1F
100
AcDbEntity
  8
0-7_金物
  6
Continuous
 62
     7
370
     9
100
AcDbLine
 10
-1736.08145714622
 20
2537.999683474124
 30
0.0
 11
-1766.081456839561
 21
2537.999683712553
 31
0.0
  0
LINE
  5
172
330
1F
100
AcDbEntity
  8
0-7_金物
  6
Continuous
 62
     7
370
     9
100
AcDbLine
 10
-1718.081456465985
 20
2597.99968220138
 30
0.0
 11
-1736.081457126774
 21
2597.999684063584
 31
0.0
  0
LINE
  5
173
330
1F
100
AcDbEntity
  8
0-7_金物
  6
Continuous
 62
     7
370
     9
100
AcDbLine
 10
-1736.081457156684
 20
2507.999682464137
 30
0.0
 11
-1736.081457126774
 21
2597.999684063584
 31
0.0
  0
LINE
  5
174
330
1F
100
AcDbEntity
  8
0-7_金物
  6
Continuous
 62
     7
370
     9
100
AcDbLine
 10
-1718.081457180238
 20
2507.999683465015
 30
0.0
 11
-1736.081457156684
 21
2507.999682464137
 31
0.0
  0
LINE
  5
175
330
1F
100
AcDbEntity
  8
0-C_ハッチ
  6
Continuous
 62
   120
370
     5
100
AcDbLine
 10
-1710.396980813386
 20
2678.999683277028
 30
0.0
 11
-1703.081022281204
 21
2686.315641809209
 31
0.0
  0
LINE
  5
176
330
1F
100
AcDbEntity
  8
0-C_ハッチ
  6
Continuous
 62
   120
370
     5
100
AcDbLine
 10
-1880.081457156686
 20
2271.727328455029
 30
0.0
 11
-1724.809102334689
 21
2426.999683277028
 31
0.0
  0
LINE
  5
177
330
1F
100
AcDbEntity
  8
0-4_枠
  6
Continuous
 62
    92
370
    13
100
AcDbLine
 10
1722.918256431723
 20
2768.271326340182
 30
0.0
 11
1722.918256431723
 21
2678.999683277029
 31
0.0
  0
LINE
  5
178
330
1F
100
AcDbEntity
  8
0-4_枠
  6
Continuous
 62
    92
370
    13
100
AcDbLine
 10
1719.91869130721
 20
2769.514401902789
 30
0.0
 11
1719.91869130721
 21
2675.999683277028
 31
0.0
  0
LINE
  5
179
330
1F
100
AcDbEntity
  8
0-4_枠
  6
Continuous
 62
    92
370
    13
100
AcDbLine
 10
1719.91869130721
 20
2675.999683277028
 30
0.0
 11
1755.918691307211
 21
2675.999683277028
 31
0.0
  0
LINE
  5
17A
330
1F
100
AcDbEntity
  8
0-4_枠
  6
Continuous
 62
    92
370
    13
100
AcDbLine
 10
1722.918256431723
 20
2678.999683277029
 30
0.0
 11
1758.918691307209
 21
2678.999683277029
 31
0.0
  0
LINE
  5
17B
330
1F
100
AcDbEntity
  8
0-4_枠
  6
Continuous
 62
    92
370
    13
100
AcDbLine
 10
1755.918691307211
 20
2429.999683277028
 30
0.0
 11
1719.91869130721
 21
2429.999683277028
 31
0.0
  0
LINE
  5
17C
330
1F
100
AcDbEntity
  8
0-4_枠
  6
Continuous
 62
    92
370
    13
100
AcDbLine
 10
1758.918691307209
 20
2426.999683277026
 30
0.0
 11
1722.918256431723
 21
2426.999683277026
 31
0.0
  0
LINE
  5
17D
330
1F
100
AcDbEntity
  8
0-4_枠
  6
Continuous
 62
    92
370
    13
100
AcDbLine
 10
1755.918691307211
 20
2675.999683277028
 30
0.0
 11
1755.918691307211
 21
2429.999683277028
 31
0.0
  0
LINE
  5
17E
330
1F
100
AcDbEntity
  8
0-4_枠
  6
Continuous
 62
    92
370
    13
100
AcDbLine
 10
1758.918691307209
 20
2678.999683277029
 30
0.0
 11
1758.918691307209
 21
2426.999683277026
 31
0.0
  0
LINE
  5
17F
330
1F
100
AcDbEntity
  8
0-4_枠
  6
Continuous
 62
    92
370
    13
100
AcDbLine
 10
1899.91869130721
 20
2303.999683277028
 30
0.0
 11
1899.91869130721
 21
2777.999683277028
 31
0.0
  0
LINE
  5
180
330
1F
100
AcDbEntity
  8
0-4_枠
  6
Continuous
 62
    92
370
    13
100
AcDbLine
 10
1899.91869130721
 20
2303.999683277028
 30
0.0
 11
1719.91869130721
 21
2303.999683277028
 31
0.0
  0
LINE
  5
181
330
1F
100
AcDbEntity
  8
0-4_枠
  6
Continuous
 62
    92
370
    13
100
AcDbLine
 10
1722.918256431723
 20
2303.999683277028
 30
0.0
 11
1722.918256431723
 21
2426.999683277026
 31
0.0
  0
LINE
  5
182
330
1F
100
AcDbEntity
  8
0-4_枠
  6
Continuous
 62
    92
370
    13
100
AcDbLine
 10
1719.91869130721
 20
2303.999683277028
 30
0.0
 11
1719.91869130721
 21
2429.999683277028
 31
0.0
  0
LINE
  5
183
330
1F
100
AcDbEntity
  8
0-7_金物
  6
Continuous
 62
     7
370
     9
100
AcDbLine
 10
1737.918691360675
 20
2507.999683240096
 30
0.0
 11
1755.918691337121
 21
2507.999682239219
 31
0.0
  0
LINE
  5
184
330
1F
100
AcDbEntity
  8
0-7_金物
  6
Continuous
 62
     7
370
     9
100
AcDbLine
 10
1755.918691337121
 20
2507.999682239219
 30
0.0
 11
1755.918691307211
 21
2597.999683838666
 31
0.0
  0
LINE
  5
185
330
1F
100
AcDbEntity
  8
0-7_金物
  6
Continuous
 62
     7
370
     9
100
AcDbLine
 10
1737.918690646417
 20
2597.999681976461
 30
0.0
 11
1755.918691307211
 21
2597.999683838666
 31
0.0
  0
LINE
  5
186
330
1F
100
AcDbEntity
  8
0-7_金物
  6
Continuous
 62
     7
370
     9
100
AcDbLine
 10
1755.918691326657
 20
2537.999683249206
 30
0.0
 11
1785.918691019998
 21
2537.999683487634
 31
0.0
  0
LINE
  5
187
330
1F
100
AcDbEntity
  8
0-7_金物
  6
Continuous
 62
     7
370
     9
100
AcDbLine
 10
1785.918691019998
 20
2537.999683487634
 30
0.0
 11
1785.91869078191
 21
2567.999683066423
 31
0.0
  0
LINE
  5
188
330
1F
100
AcDbEntity
  8
0-7_金物
  6
Continuous
 62
     7
370
     9
100
AcDbLine
 10
1755.918691317675
 20
2567.999682828679
 30
0.0
 11
1785.91869078191
 21
2567.999683066423
 31
0.0
  0
ARC
  5
189
330
1F
100
AcDbEntity
  8
0-7_金物
  6
Continuous
 62
     7
370
     9
100
AcDbCircle
 10
1920.626035094662
 20
2552.999683085606
 30
0.0
 40
188.167407989502
100
AcDbArc
 50
166.1636811230468
 51
193.8362885449218
  0
LINE
  5
18A
330
1F
100
AcDbEntity
  8
0-4_枠
  6
Continuous
 62
    92
370
    13
100
AcDbLine
 10
-62.59617578244615
 20
2099.999683277028
 30
0.0
 11
108.9185428433153
 21
2099.999683277028
 31
0.0
  0
LINE
  5
18B
330
1F
100
AcDbEntity
  8
0-4_枠
  6
Continuous
 62
    92
370
    13
100
AcDbLine
 10
-71.0814571566847
 20
2108.484964651266
 30
0.0
 11
-71.0814571566847
 21
2423.999683277028
 31
0.0
  0
LINE
  5
18C
330
1F
100
AcDbEntity
  8
0-4_枠
  6
Continuous
 62
    92
370
    13
100
AcDbLine
 10
-62.59617578244615
 20
2099.999683277028
 30
0.0
 11
-71.0814571566847
 21
2108.484964651266
 31
0.0
  0
LINE
  5
18D
330
1F
100
AcDbEntity
  8
0-4_枠
  6
Continuous
 62
    92
370
    13
100
AcDbLine
 10
-68.08145715668317
 20
2420.999683277028
 30
0.0
 11
-68.08145715668317
 21
2109.727605338384
 31
0.0
  0
LINE
  5
18E
330
1F
100
AcDbEntity
  8
0-4_枠
  6
Continuous
 62
    92
370
    13
100
AcDbLine
 10
-61.35353509532649
 20
2102.999683277028
 30
0.0
 11
-68.08145715668317
 21
2109.727605338384
 31
0.0
  0
LINE
  5
18F
330
1F
100
AcDbEntity
  8
0-4_枠
  6
Continuous
 62
    92
370
    13
100
AcDbLine
 10
105.9185428433155
 20
2102.999683277028
 30
0.0
 11
-61.35353509532649
 21
2102.999683277028
 31
0.0
  0
LINE
  5
190
330
1F
100
AcDbEntity
  8
0-C_ハッチ
  6
Continuous
 62
   120
370
     5
100
AcDbLine
 10
105.9185428433248
 20
2152.18217010828
 30
0.0
 11
56.73605601206319
 21
2102.999683277018
 31
0.0
  0
LINE
  5
191
330
1F
100
AcDbEntity
  8
0-C_ハッチ
  6
Continuous
 62
   120
370
     5
100
AcDbLine
 10
-41.04273132562099
 20
2420.999683277025
 30
0.0
 11
-68.08145715668317
 21
2393.960957445966
 31
0.0
  0
LINE
  5
192
330
1F
100
AcDbEntity
  8
0-C_ハッチ
  6
Continuous
 62
   120
370
     5
100
AcDbLine
 10
105.9185428433223
 20
2389.770048586974
 30
0.0
 11
-68.08145715668317
 21
2215.77004858697
 31
0.0
  0
LINE
  5
193
330
1F
100
AcDbEntity
  8
0-C_ハッチ
  6
Continuous
 62
   120
370
     5
100
AcDbLine
 10
18.3542382940216
 20
2420.999683277023
 30
0.0
 11
-68.08145715668317
 21
2334.563987826319
 31
0.0
  0
LINE
  5
194
330
1F
100
AcDbEntity
  8
0-C_ハッチ
  6
Continuous
 62
   120
370
     5
100
AcDbLine
 10
77.751207913726
 20
2420.999683277027
 30
0.0
 11
-68.08145715668317
 21
2275.167018206617
 31
0.0
  0
LINE
  5
195
330
1F
100
AcDbEntity
  8
0-C_ハッチ
  6
Continuous
 62
   120
370
     5
100
AcDbLine
 10
108.9185428433153
 20
2333.373078967267
 30
0.0
 11
-68.08145715668317
 21
2156.373078967268
 31
0.0
  0
LINE
  5
196
330
1F
100
AcDbEntity
  8
0-C_ハッチ
  6
Continuous
 62
   120
370
     5
100
AcDbLine
 10
108.9185428433153
 20
2214.579139727916
 30
0.0
 11
-2.660913607577697
 21
2102.999683277023
 31
0.0
  0
LINE
  5
197
330
1F
100
AcDbEntity
  8
0-6_扉
  6
Continuous
 62
   120
370
     5
100
AcDbLine
 10
-255.3091892222473
 20
2462.999731672593
 30
0.0
 11
-255.3091892222473
 21
2423.999731672593
 31
0.0
  0
LWPOLYLINE
  5
198
330
1F
100
AcDbEntity
  8
0-6_扉
  6
Continuous
 62
     7
370
     9
100
AcDbPolyline
 90
        4
 70
     1
 43
3.0
 10
-253.8091892222473
 20
2423.999731672593
 42
0.4142135623731
 10
-255.3091892222473
 20
2425.499731672593
 42
0.4142135623731
 10
-256.8091892222473
 20
2423.999731672593
 42
0.4142135623731
 10
-255.3091892222473
 20
2422.499731672593
 42
0.4142135623731
  0
LINE
  5
199
330
1F
100
AcDbEntity
  8
0-C_ハッチ
  6
JWW_DASHED1
 62
   120
370
     5
100
AcDbLine
 10
1719.918691307195
 20
2339.219373403739
 30
0.0
 11
1684.699001180496
 21
2303.999683277038
 31
0.0
  0
LINE
  5
19A
330
1F
100
AcDbEntity
  8
0-C_ハッチ
  6
JWW_DASHED1
 62
   120
370
     5
100
AcDbLine
 10
1717.272841749115
 20
2378.999930716859
 30
0.0
 11
1642.272594309282
 21
2303.999683277027
 31
0.0
  0
LINE
  5
19B
330
1F
100
AcDbEntity
  8
0-C_ハッチ
  6
JWW_DASHED1
 62
   120
370
     5
100
AcDbLine
 10
1674.846434877902
 20
2378.999930716845
 30
0.0
 11
1599.846187438085
 21
2303.999683277029
 31
0.0
  0
LINE
  5
19C
330
1F
100
AcDbEntity
  8
0-C_ハッチ
  6
JWW_DASHED1
 62
   120
370
     5
100
AcDbLine
 10
1632.420028006749
 20
2378.999930716838
 30
0.0
 11
1557.419780566935
 21
2303.999683277024
 31
0.0
  0
LINE
  5
19D
330
1F
100
AcDbEntity
  8
0-C_ハッチ
  6
JWW_DASHED1
 62
   120
370
     5
100
AcDbLine
 10
1589.993621135554
 20
2378.999930716842
 30
0.0
 11
1514.993373695739
 21
2303.999683277028
 31
0.0
  0
LINE
  5
19E
330
1F
100
AcDbEntity
  8
0-C_ハッチ
  6
JWW_DASHED1
 62
   120
370
     5
100
AcDbLine
 10
1547.567214264354
 20
2378.999930716842
 30
0.0
 11
1472.566966824537
 21
2303.999683277027
 31
0.0
  0
LINE
  5
19F
330
1F
100
AcDbEntity
  8
0-C_ハッチ
  6
JWW_DASHED1
 62
   120
370
     5
100
AcDbLine
 10
1505.140807393156
 20
2378.999930716845
 30
0.0
 11
1430.14055995334
 21
2303.999683277029
 31
0.0
  0
LINE
  5
1A0
330
1F
100
AcDbEntity
  8
0-C_ハッチ
  6
JWW_DASHED1
 62
   120
370
     5
100
AcDbLine
 10
1462.71440052196
 20
2378.999930716847
 30
0.0
 11
1387.714153082144
 21
2303.999683277032
 31
0.0
  0
LINE
  5
1A1
330
1F
100
AcDbEntity
  8
0-C_ハッチ
  6
JWW_DASHED1
 62
   120
370
     5
100
AcDbLine
 10
1420.287993650763
 20
2378.999930716852
 30
0.0
 11
1345.287746210946
 21
2303.999683277034
 31
0.0
  0
LINE
  5
1A2
330
1F
100
AcDbEntity
  8
0-C_ハッチ
  6
JWW_DASHED1
 62
   120
370
     5
100
AcDbLine
 10
1377.861586779565
 20
2378.999930716854
 30
0.0
 11
1302.861339339733
 21
2303.999683277022
 31
0.0
  0
LINE
  5
1A3
330
1F
100
AcDbEntity
  8
0-C_ハッチ
  6
JWW_DASHED1
 62
   120
370
     5
100
AcDbLine
 10
1335.435179908353
 20
2378.99993071684
 30
0.0
 11
1260.434932468537
 21
2303.999683277025
 31
0.0
  0
LINE
  5
1A4
330
1F
100
AcDbEntity
  8
0-C_ハッチ
  6
JWW_DASHED1
 62
   120
370
     5
100
AcDbLine
 10
1293.008773037208
 20
2378.999930716842
 30
0.0
 11
1218.008525597392
 21
2303.999683277028
 31
0.0
  0
LINE
  5
1A5
330
1F
100
AcDbEntity
  8
0-C_ハッチ
  6
JWW_DASHED1
 62
   120
370
     5
100
AcDbLine
 10
1250.582366166012
 20
2378.999930716846
 30
0.0
 11
1175.582118726196
 21
2303.999683277031
 31
0.0
  0
LINE
  5
1A6
330
1F
100
AcDbEntity
  8
0-C_ハッチ
  6
JWW_DASHED1
 62
   120
370
     5
100
AcDbLine
 10
1208.155959294804
 20
2378.999930716839
 30
0.0
 11
1133.155711854987
 21
2303.999683277022
 31
0.0
  0
LINE
  5
1A7
330
1F
100
AcDbEntity
  8
0-C_ハッチ
  6
JWW_DASHED1
 62
   120
370
     5
100
AcDbLine
 10
1165.729552423608
 20
2378.999930716842
 30
0.0
 11
1090.729304983791
 21
2303.999683277025
 31
0.0
  0
LINE
  5
1A8
330
1F
100
AcDbEntity
  8
0-C_ハッチ
  6
JWW_DASHED1
 62
   120
370
     5
100
AcDbLine
 10
1123.303145552411
 20
2378.999930716845
 30
0.0
 11
1048.302898112594
 21
2303.999683277028
 31
0.0
  0
LINE
  5
1A9
330
1F
100
AcDbEntity
  8
0-C_ハッチ
  6
JWW_DASHED1
 62
   120
370
     5
100
AcDbLine
 10
1080.876738681213
 20
2378.999930716847
 30
0.0
 11
1005.87649124138
 21
2303.999683277015
 31
0.0
  0
LINE
  5
1AA
330
1F
100
AcDbEntity
  8
0-C_ハッチ
  6
JWW_DASHED1
 62
   120
370
     5
100
AcDbLine
 10
1038.450331810001
 20
2378.999930716834
 30
0.0
 11
983.4186170752683
 21
2323.968215982101
 31
0.0
  0
LINE
  5
1AB
330
1F
100
AcDbEntity
  8
0-C_ハッチ
  6
JWW_DASHED1
 62
   120
370
     5
100
AcDbLine
 10
996.0239249388621
 20
2378.99993071684
 30
0.0
 11
983.418617075264
 21
2366.394622853243
 31
0.0
  0
LINE
  5
1AC
330
1F
100
AcDbEntity
  8
0-3_仕上げ
  6
Continuous
 62
    40
370
    15
100
AcDbLine
 10
1719.91869130721
 20
2303.999683277028
 30
0.0
 11
983.418617075264
 21
2303.999683277028
 31
0.0
  0
LINE
  5
1AD
330
1F
100
AcDbEntity
  8
0-3_仕上げ
  6
Continuous
 62
    40
370
    15
100
AcDbLine
 10
863.418617075264
 20
2303.999683277028
 30
0.0
 11
108.9185428433153
 21
2303.999683277028
 31
0.0
  0
LINE
  5
1AE
330
1F
100
AcDbEntity
  8
0-3_仕上げ
  6
Continuous
 62
    40
370
    15
100
AcDbLine
 10
108.9185428433153
 20
2378.999930716852
 30
0.0
 11
863.418617075264
 21
2378.999930716852
 31
0.0
  0
LINE
  5
1AF
330
1F
100
AcDbEntity
  8
0-C_ハッチ
  6
JWW_DASHED1
 62
   120
370
     5
100
AcDbLine
 10
113.5519138988194
 20
2378.999930716847
 30
0.0
 11
108.9185428433187
 21
2374.366559661348
 31
0.0
  0
LINE
  5
1B0
330
1F
100
AcDbEntity
  8
0-C_ハッチ
  6
JWW_DASHED1
 62
   120
370
     5
100
AcDbLine
 10
155.978320770016
 20
2378.999930716845
 30
0.0
 11
108.9185428433187
 21
2331.940152790148
 31
0.0
  0
LINE
  5
1B1
330
1F
100
AcDbEntity
  8
0-C_ハッチ
  6
JWW_DASHED1
 62
   120
370
     5
100
AcDbLine
 10
198.4047276412126
 20
2378.999930716842
 30
0.0
 11
123.4044802013968
 21
2303.999683277027
 31
0.0
  0
LINE
  5
1B2
330
1F
100
AcDbEntity
  8
0-C_ハッチ
  6
JWW_DASHED1
 62
   120
370
     5
100
AcDbLine
 10
240.8311345124092
 20
2378.999930716838
 30
0.0
 11
165.8308870725942
 21
2303.999683277022
 31
0.0
  0
LINE
  5
1B3
330
1F
100
AcDbEntity
  8
0-C_ハッチ
  6
JWW_DASHED1
 62
   120
370
     5
100
AcDbLine
 10
283.2575413835751
 20
2378.999930716859
 30
0.0
 11
208.2572939437452
 21
2303.999683277028
 31
0.0
  0
LINE
  5
1B4
330
1F
100
AcDbEntity
  8
0-C_ハッチ
  6
JWW_DASHED1
 62
   120
370
     5
100
AcDbLine
 10
325.6839482547751
 20
2378.999930716859
 30
0.0
 11
250.6837008149601
 21
2303.999683277043
 31
0.0
  0
LINE
  5
1B5
330
1F
100
AcDbEntity
  8
0-C_ハッチ
  6
JWW_DASHED1
 62
   120
370
     5
100
AcDbLine
 10
368.1103551259718
 20
2378.999930716854
 30
0.0
 11
293.1101076861568
 21
2303.99968327704
 31
0.0
  0
LINE
  5
1B6
330
1F
100
AcDbEntity
  8
0-C_ハッチ
  6
JWW_DASHED1
 62
   120
370
     5
100
AcDbLine
 10
410.5367619971684
 20
2378.999930716852
 30
0.0
 11
335.5365145573534
 21
2303.999683277036
 31
0.0
  0
LINE
  5
1B7
330
1F
100
AcDbEntity
  8
0-C_ハッチ
  6
JWW_DASHED1
 62
   120
370
     5
100
AcDbLine
 10
452.963168868365
 20
2378.999930716849
 30
0.0
 11
377.96292142855
 21
2303.999683277033
 31
0.0
  0
LINE
  5
1B8
330
1F
100
AcDbEntity
  8
0-C_ハッチ
  6
JWW_DASHED1
 62
   120
370
     5
100
AcDbLine
 10
495.3895757395616
 20
2378.999930716845
 30
0.0
 11
420.3893282997466
 21
2303.999683277029
 31
0.0
  0
LINE
  5
1B9
330
1F
100
AcDbEntity
  8
0-C_ハッチ
  6
JWW_DASHED1
 62
   120
370
     5
100
AcDbLine
 10
537.8159826107582
 20
2378.999930716842
 30
0.0
 11
462.8157351709432
 21
2303.999683277027
 31
0.0
  0
LINE
  5
1BA
330
1F
100
AcDbEntity
  8
0-C_ハッチ
  6
JWW_DASHED1
 62
   120
370
     5
100
AcDbLine
 10
580.2423894819024
 20
2378.99993071684
 30
0.0
 11
505.2421420420886
 21
2303.999683277027
 31
0.0
  0
LINE
  5
1BB
330
1F
100
AcDbEntity
  8
0-C_ハッチ
  6
JWW_DASHED1
 62
   120
370
     5
100
AcDbLine
 10
622.6687963531139
 20
2378.999930716852
 30
0.0
 11
547.668548913284
 21
2303.999683277021
 31
0.0
  0
LINE
  5
1BC
330
1F
100
AcDbEntity
  8
0-C_ハッチ
  6
JWW_DASHED1
 62
   120
370
     5
100
AcDbLine
 10
665.0952032243207
 20
2378.999930716859
 30
0.0
 11
590.0949557845057
 21
2303.999683277043
 31
0.0
  0
LINE
  5
1BD
330
1F
100
AcDbEntity
  8
0-C_ハッチ
  6
JWW_DASHED1
 62
   120
370
     5
100
AcDbLine
 10
707.5216100955173
 20
2378.999930716856
 30
0.0
 11
632.5213626557023
 21
2303.99968327704
 31
0.0
  0
LINE
  5
1BE
330
1F
100
AcDbEntity
  8
0-C_ハッチ
  6
JWW_DASHED1
 62
   120
370
     5
100
AcDbLine
 10
749.9480169667139
 20
2378.999930716852
 30
0.0
 11
674.9477695268989
 21
2303.999683277036
 31
0.0
  0
LINE
  5
1BF
330
1F
100
AcDbEntity
  8
0-C_ハッチ
  6
JWW_DASHED1
 62
   120
370
     5
100
AcDbLine
 10
792.3744238379105
 20
2378.999930716849
 30
0.0
 11
717.3741763980955
 21
2303.999683277033
 31
0.0
  0
LINE
  5
1C0
330
1F
100
AcDbEntity
  8
0-C_ハッチ
  6
JWW_DASHED1
 62
   120
370
     5
100
AcDbLine
 10
834.8008307091071
 20
2378.999930716845
 30
0.0
 11
759.8005832692921
 21
2303.999683277029
 31
0.0
  0
LINE
  5
1C1
330
1F
100
AcDbEntity
  8
0-C_ハッチ
  6
JWW_DASHED1
 62
   120
370
     5
100
AcDbLine
 10
863.4186170752718
 20
2365.19131021181
 30
0.0
 11
802.2269901404887
 21
2303.999683277027
 31
0.0
  0
LINE
  5
1C2
330
1F
100
AcDbEntity
  8
0-C_ハッチ
  6
JWW_DASHED1
 62
   120
370
     5
100
AcDbLine
 10
863.4186170752752
 20
2322.764903340666
 30
0.0
 11
844.6533970116274
 21
2303.99968327702
 31
0.0
  0
LINE
  5
1C3
330
1F
100
AcDbEntity
  8
0-3_仕上げ
  6
Continuous
 62
    40
370
    15
100
AcDbLine
 10
983.418617075264
 20
2378.999930716852
 30
0.0
 11
1719.91869130721
 21
2378.999930716852
 31
0.0
  0
LINE
  5
1C4
330
1F
100
AcDbEntity
  8
0-C_ハッチ
  6
Continuous
 62
   120
370
     5
100
AcDbLine
 10
1730.284532990709
 20
2774.999523059739
 30
0.0
 11
1722.918691307214
 21
2767.633681376243
 31
0.0
  0
LINE
  5
1C5
330
1F
100
AcDbEntity
  8
0-C_ハッチ
  6
Continuous
 62
   120
370
     5
100
AcDbLine
 10
1789.681502610355
 20
2774.999523059737
 30
0.0
 11
1722.918691307221
 21
2708.236711756601
 31
0.0
  0
LINE
  5
1C6
330
1F
100
AcDbEntity
  8
0-C_ハッチ
  6
Continuous
 62
   120
370
     5
100
AcDbLine
 10
1899.91869130721
 20
2350.663985179613
 30
0.0
 11
1853.254389404625
 21
2303.999683277028
 31
0.0
  0
LINE
  5
1C7
330
1F
100
AcDbEntity
  8
0-C_ハッチ
  6
Continuous
 62
   120
370
     5
100
AcDbLine
 10
1899.91869130721
 20
2469.457924418895
 30
0.0
 11
1734.460450165342
 21
2303.999683277028
 31
0.0
  0
LINE
  5
1C8
330
1F
100
AcDbEntity
  8
0-C_ハッチ
  6
Continuous
 62
   120
370
     5
100
AcDbLine
 10
1899.91869130721
 20
2410.06095479925
 30
0.0
 11
1793.857419784988
 21
2303.999683277028
 31
0.0
  0
LINE
  5
1C9
330
1F
100
AcDbEntity
  8
0-C_ハッチ
  6
Continuous
 62
   120
370
     5
100
AcDbLine
 10
1849.078472230002
 20
2774.999523059737
 30
0.0
 11
1753.078632447295
 21
2678.999683277029
 31
0.0
  0
LINE
  5
1CA
330
1F
100
AcDbEntity
  8
0-C_ハッチ
  6
Continuous
 62
   120
370
     5
100
AcDbLine
 10
1896.919126182701
 20
2763.443207392733
 30
0.0
 11
1758.918691307209
 21
2625.442772517241
 31
0.0
  0
LINE
  5
1CB
330
1F
100
AcDbEntity
  8
0-C_ハッチ
  6
Continuous
 62
   120
370
     5
100
AcDbLine
 10
1899.91869130721
 20
2647.648833277894
 30
0.0
 11
1758.918691307209
 21
2506.648833277892
 31
0.0
  0
LINE
  5
1CC
330
1F
100
AcDbEntity
  8
0-C_ハッチ
  6
Continuous
 62
   120
370
     5
100
AcDbLine
 10
1896.919126182692
 20
2704.046237773078
 30
0.0
 11
1758.918691307209
 21
2566.045802897594
 31
0.0
  0
LINE
  5
1CD
330
1F
100
AcDbEntity
  8
0-C_ハッチ
  6
Continuous
 62
   120
370
     5
100
AcDbLine
 10
1899.91869130721
 20
2588.251863658244
 30
0.0
 11
1758.918691307209
 21
2447.251863658245
 31
0.0
  0
LINE
  5
1CE
330
1F
100
AcDbEntity
  8
0-C_ハッチ
  6
Continuous
 62
   120
370
     5
100
AcDbLine
 10
1738.666510925991
 20
2426.999683277026
 30
0.0
 11
1722.918256431723
 21
2411.251428782759
 31
0.0
  0
LINE
  5
1CF
330
1F
100
AcDbEntity
  8
0-C_ハッチ
  6
Continuous
 62
   120
370
     5
100
AcDbLine
 10
1899.91869130721
 20
2528.8548940386
 30
0.0
 11
1722.918256431723
 21
2351.854459163112
 31
0.0
  0
LINE
  5
1D0
330
1F
100
AcDbEntity
  8
0-C_ハッチ
  6
Continuous
 62
   120
370
     5
100
AcDbLine
 10
108.9185428433153
 20
2273.97610934762
 30
0.0
 11
-61.70570916130131
 21
2103.351857343002
 31
0.0
  0
LINE
  5
1D1
330
1F
100
AcDbEntity
  8
0-0_補助線
  6
JWW_HOJO
 62
   120
370
     5
100
AcDbLine
 10
2499.918542843316
 20
2957.999138909419
 30
0.0
 11
2499.918542843316
 21
1089.999683277027
 31
0.0
  0
LINE
  5
1D2
330
1F
100
AcDbEntity
  8
0-B_寸法
  6
Continuous
 62
   120
370
     5
100
AcDbLine
 10
1482.342693853379
 20
2303.999683277028
 30
0.0
 11
1629.91869130721
 21
2303.999683277028
 31
0.0
  0
LINE
  5
1D3
330
1F
100
AcDbEntity
  8
0-B_寸法
  6
Continuous
 62
   120
370
     5
100
AcDbLine
 10
1482.342693853379
 20
2303.999683277034
 30
0.0
 11
1482.342693853379
 21
2777.999683277023
 31
0.0
  0
LWPOLYLINE
  5
1D4
330
1F
100
AcDbEntity
  8
0-B_寸法
  6
Continuous
 62
     7
370
     9
100
AcDbPolyline
 90
        4
 70
     1
 43
3.0
 10
1483.842693853379
 20
2303.999683277034
 42
0.4142135623731
 10
1482.342693853379
 20
2305.499683277034
 42
0.4142135623731
 10
1480.842693853379
 20
2303.999683277034
 42
0.4142135623731
 10
1482.342693853379
 20
2302.499683277034
 42
0.4142135623731
  0
LWPOLYLINE
  5
1D5
330
1F
100
AcDbEntity
  8
0-B_寸法
  6
Continuous
 62
     7
370
     9
100
AcDbPolyline
 90
        4
 70
     1
 43
3.0
 10
1483.842693853379
 20
2777.999683277023
 42
0.4142135623731
 10
1482.342693853379
 20
2779.499683277023
 42
0.4142135623731
 10
1480.842693853379
 20
2777.999683277023
 42
0.4142135623731
 10
1482.342693853379
 20
2776.499683277023
 42
0.4142135623731
  0
LINE
  5
1D6
330
1F
100
AcDbEntity
  8
0-B_寸法
  6
Continuous
 62
   120
370
     5
100
AcDbLine
 10
1482.342693853379
 20
2777.999683277023
 30
0.0
 11
1629.91869130721
 21
2777.999683277023
 31
0.0
  0
LINE
  5
1D7
330
1F
100
AcDbEntity
  8
0-6_扉
  6
Continuous
 62
   200
370
    20
100
AcDbLine
 10
-1718.081457156685
 20
2462.999683277028
 30
0.0
 11
-1718.081457156685
 21
2642.999683277028
 31
0.0
  0
LINE
  5
1D8
330
1F
100
AcDbEntity
  8
0-6_扉
  6
JWW_DASHED2
 62
    40
370
    15
100
AcDbLine
 10
1737.918691307211
 20
2462.999683277028
 30
0.0
 11
1737.918691307211
 21
2642.999683277028
 31
0.0
  0
LINE
  5
1D9
330
1F
100
AcDbEntity
  8
0-6_扉
  6
Continuous
 62
   200
370
    20
100
AcDbLine
 10
108.9185428433153
 20
2462.999683277028
 30
0.0
 11
108.9185428433153
 21
2642.999683277028
 31
0.0
  0
LINE
  5
1DA
330
1F
100
AcDbEntity
  8
0-6_扉
  6
JWW_DASHED2
 62
    40
370
    15
100
AcDbLine
 10
-71.0814571566847
 20
2462.999683277028
 30
0.0
 11
-71.0814571566847
 21
2642.999683277028
 31
0.0
  0
LINE
  5
1DB
330
1F
100
AcDbEntity
  8
0-6_扉
  6
JWW_DASHED2
 62
    40
370
    15
100
AcDbLine
 10
108.9185428433153
 20
2462.999683277028
 30
0.0
 11
863.418617075264
 21
2462.999683277028
 31
0.0
  0
LINE
  5
1DC
330
1F
100
AcDbEntity
  8
0-6_扉
  6
JWW_DASHED2
 62
    40
370
    15
100
AcDbLine
 10
983.418617075264
 20
2462.999683277028
 30
0.0
 11
1737.918691307211
 21
2462.999683277028
 31
0.0
  0
LINE
  5
1DD
330
1F
100
AcDbEntity
  8
0-6_扉
  6
JWW_DASHED2
 62
    40
370
    15
100
AcDbLine
 10
108.9185428433153
 20
2642.999683277028
 30
0.0
 11
863.418617075264
 21
2642.999683277028
 31
0.0
  0
LINE
  5
1DE
330
1F
100
AcDbEntity
  8
0-6_扉
  6
JWW_DASHED2
 62
    40
370
    15
100
AcDbLine
 10
983.418617075264
 20
2642.999683277028
 30
0.0
 11
1737.918691307211
 21
2642.999683277028
 31
0.0
  0
LINE
  5
1DF
330
1F
100
AcDbEntity
  8
0-6_扉
  6
Continuous
 62
   200
370
    20
100
AcDbLine
 10
-1718.081457156685
 20
2462.999683277028
 30
0.0
 11
-954.5814571566843
 21
2462.999683277028
 31
0.0
  0
LINE
  5
1E0
330
1F
100
AcDbEntity
  8
0-6_扉
  6
Continuous
 62
   200
370
    20
100
AcDbLine
 10
-834.5814571566841
 20
2462.999683277028
 30
0.0
 11
108.9185428433153
 21
2462.999683277028
 31
0.0
  0
LINE
  5
1E1
330
1F
100
AcDbEntity
  8
0-6_扉
  6
Continuous
 62
   200
370
    20
100
AcDbLine
 10
-1718.081457156685
 20
2642.999683277028
 30
0.0
 11
-954.5814571566843
 21
2642.999683277028
 31
0.0
  0
LINE
  5
1E2
330
1F
100
AcDbEntity
  8
0-6_扉
  6
Continuous
 62
   200
370
    20
100
AcDbLine
 10
-834.5814571566841
 20
2642.999683277028
 30
0.0
 11
108.9185428433153
 21
2642.999683277028
 31
0.0
  0
LWPOLYLINE
  5
1E3
330
1F
100
AcDbEntity
  8
0-6_扉
  6
Continuous
 62
     7
370
     9
100
AcDbPolyline
 90
        4
 70
     1
 43
3.0
 10
-253.8091892222473
 20
2462.999683277028
 42
0.4142135623731
 10
-255.3091892222473
 20
2464.499683277028
 42
0.4142135623731
 10
-256.8091892222473
 20
2462.999683277028
 42
0.4142135623731
 10
-255.3091892222473
 20
2461.499683277028
 42
0.4142135623731
  0
LINE
  5
1E4
330
1F
100
AcDbEntity
  8
0-2_柱
  6
Continuous
 62
    92
370
    13
100
AcDbLine
 10
1719.91869130721
 20
2243.999683277039
 30
0.0
 11
1719.91869130721
 21
2303.999683277028
 31
0.0
  0
LINE
  5
1E5
330
1F
100
AcDbEntity
  8
0-2_柱
  6
Continuous
 62
     7
370
     9
100
AcDbLine
 10
1719.91869130721
 20
2243.999683277039
 30
0.0
 11
1899.91869130721
 21
2303.999683277028
 31
0.0
  0
LINE
  5
1E6
330
1F
100
AcDbEntity
  8
0-2_柱
  6
Continuous
 62
    92
370
    13
100
AcDbLine
 10
288.9185428433153
 20
2303.999683277028
 30
0.0
 11
288.9185428433153
 21
2243.99968327704
 31
0.0
  0
LINE
  5
1E7
330
1F
100
AcDbEntity
  8
0-2_柱
  6
Continuous
 62
     7
370
     9
100
AcDbLine
 10
108.9185428433153
 20
2243.99968327704
 30
0.0
 11
288.9185428433153
 21
2303.999683277028
 31
0.0
  0
MTEXT
  5
1E8
330
1F
100
AcDbEntity
  8
0-6_扉
  6
Continuous
 62
     7
370
   211
100
AcDbMText
 10
-110.021119914344
 20
2339.219731672593
 30
0.0
 40
91.44
 41
180.0
 46
0.0
 71
     7
 72
     1
  1
{\fＭＳ ゴシック|b0|i0|c128|p49;6.5}
 11
6.123031769111886E-17
 21
1.0
 31
0.0
 73
     1
 44
1.0
  0
MTEXT
  5
1E9
330
1F
100
AcDbEntity
  8
0-A_文字
  6
Continuous
 62
     7
370
     9
100
AcDbMText
 10
1314.367804555758
 20
929.9072115561269
 30
0.0
 40
78.58125
 41
825.0
 46
0.0
 71
     7
 72
     1
  1
{\fＭＳ ゴシック|b0|i0|c128|p49;※図示：左引き手}
 73
     1
 44
1.0
  0
MTEXT
  5
1EA
330
1F
100
AcDbEntity
  8
0-B_寸法
  6
Continuous
 62
     7
370
   211
100
AcDbMText
 10
-1373.551615934501
 20
2763.108111848457
 30
0.0
 40
102.2168571428572
 41
2347.5
 46
0.0
 71
     7
 72
     1
  1
{\fＭＳ ゴシック|b0|i0|c128|p49;ＤＷ＝900（810）<713>［650］〔583〕}
 73
     1
 44
1.0
  0
MTEXT
  5
1EB
330
1F
100
AcDbEntity
  8
0-B_寸法
  6
Continuous
 62
     7
370
     0
100
AcDbMText
 10
-270.3092387102105
 20
2478.719683277027
 30
0.0
 40
91.44
 41
120.0
 46
0.0
 71
     7
 72
     1
  1
{\fＭＳ ゴシック|b0|i0|c128|p49;30}
 11
6.123031769111886E-17
 21
1.0
 31
0.0
 73
     1
 44
1.0
  0
MTEXT
  5
1EC
330
1F
100
AcDbEntity
  8
0-B_寸法
  6
Continuous
 62
     7
370
     0
100
AcDbMText
 10
-261.9319587462654
 20
2187.719683277028
 30
0.0
 40
91.44
 41
120.0
 46
0.0
 71
     7
 72
     1
  1
{\fＭＳ ゴシック|b0|i0|c128|p49;54}
 11
6.123031769111886E-17
 21
1.0
 31
0.0
 73
     1
 44
1.0
  0
MTEXT
  5
1ED
330
1F
100
AcDbEntity
  8
0-B_寸法
  6
Continuous
 62
     7
370
   211
100
AcDbMText
 10
-1668.635643948631
 20
1507.172441897717
 30
0.0
 40
84.3455172413793
 41
1605.0
 46
0.0
 71
     7
 72
     1
  1
{\fＭＳ ゴシック|b0|i0|c128|p49;867（777）<680>［617］〔550〕}
 73
     1
 44
1.0
  0
MTEXT
  5
1EE
330
1F
100
AcDbEntity
  8
0-B_寸法
  6
Continuous
 62
     7
370
   211
100
AcDbMText
 10
-44.83145715668471
 20
1513.577183277027
 30
0.0
 40
97.15499999999999
 41
127.5
 46
0.0
 71
     7
 72
     1
  1
{\fＭＳ ゴシック|b0|i0|c128|p49;30}
 73
     1
 44
1.0
  0
MTEXT
  5
1EF
330
1F
100
AcDbEntity
  8
0-B_寸法
  6
Continuous
 62
     7
370
   211
100
AcDbMText
 10
144.4191863385753
 20
1507.172441897717
 30
0.0
 40
84.3455172413793
 41
1605.0
 46
0.0
 71
     7
 72
     1
  1
{\fＭＳ ゴシック|b0|i0|c128|p49;867（777）<680>［617］〔550〕}
 73
     1
 44
1.0
  0
MTEXT
  5
1F0
330
1F
100
AcDbEntity
  8
0-B_寸法
  6
Continuous
 62
     7
370
     0
100
AcDbMText
 10
-1340.081457156683
 20
1303.18337432266
 30
0.0
 40
91.44000000000001
 41
2700.0
 46
0.0
 71
     7
 72
     1
  1
{\fＭＳ ゴシック|b0|i0|c128|p49;枠内＝1,764（1,584）<1,390>［1,264］〔1,130〕}
 73
     1
 44
1.0
  0
MTEXT
  5
1F1
330
1F
100
AcDbEntity
  8
0-B_寸法
  6
Continuous
 62
     7
370
     0
100
AcDbMText
 10
-1850.081531388631
 20
1300.719732764993
 30
0.0
 40
91.44
 41
120.0
 46
0.0
 71
     7
 72
     1
  1
{\fＭＳ ゴシック|b0|i0|c128|p49;30}
 73
     1
 44
1.0
  0
MTEXT
  5
1F2
330
1F
100
AcDbEntity
  8
0-B_寸法
  6
Continuous
 62
     7
370
     0
100
AcDbMText
 10
1749.919359394732
 20
1300.719732764993
 30
0.0
 40
91.44
 41
120.0
 46
0.0
 71
     7
 72
     1
  1
{\fＭＳ ゴシック|b0|i0|c128|p49;30}
 73
     1
 44
1.0
  0
MTEXT
  5
1F3
330
1F
100
AcDbEntity
  8
0-B_寸法
  6
Continuous
 62
     7
370
     0
100
AcDbMText
 10
-1340.081457156683
 20
1084.466280697266
 30
0.0
 40
91.44000000000001
 41
2700.0
 46
0.0
 71
     7
 72
     1
  1
{\fＭＳ ゴシック|b0|i0|c128|p49;枠外＝1,824（1,644）<1,450>［1,324］〔1,190〕}
 73
     1
 44
1.0
  0
MTEXT
  5
1F4
330
1F
100
AcDbEntity
  8
0-A_文字
  6
Continuous
 62
     7
370
     9
100
AcDbMText
 10
-2480.081457156684
 20
3063.719138909419
 30
0.0
 40
91.44
 41
600.0
 46
0.0
 71
     7
 72
     1
  1
{\fＭＳ ゴシック|b0|i0|c128|p49;■横断面図}
 73
     1
 44
1.0
  0
LINE
  5
1F5
330
1F
100
AcDbEntity
  8
0-0_補助線
  6
JWW_HOJO
 62
   120
370
     5
100
AcDbLine
 10
-2480.081457156684
 20
2957.999138909419
 30
0.0
 11
2499.918542843316
 21
2957.999138909419
 31
0.0
  0
LINE
  5
1F6
330
1F
100
AcDbEntity
  8
0-0_補助線
  6
JWW_HOJO
 62
   120
370
     5
100
AcDbLine
 10
-2480.081457156684
 20
1899.999683277027
 30
0.0
 11
2499.918542843316
 21
1899.999683277027
 31
0.0
  0
LINE
  5
1F7
330
1F
100
AcDbEntity
  8
0-0_補助線
  6
JWW_HOJO
 62
   120
370
     5
100
AcDbLine
 10
-2480.081457156684
 20
1509.999683277027
 30
0.0
 11
2499.918542843316
 21
1509.999683277027
 31
0.0
  0
LINE
  5
1F8
330
1F
100
AcDbEntity
  8
0-0_補助線
  6
JWW_HOJO
 62
   120
370
     5
100
AcDbLine
 10
-2480.081457156684
 20
1299.999683277027
 30
0.0
 11
2499.918542843316
 21
1299.999683277027
 31
0.0
  0
LINE
  5
1F9
330
1F
100
AcDbEntity
  8
0-0_補助線
  6
JWW_HOJO
 62
   120
370
     5
100
AcDbLine
 10
-2480.081457156684
 20
2957.999138909419
 30
0.0
 11
-2480.081457156684
 21
1089.999683277027
 31
0.0
  0
LINE
  5
1FA
330
1F
100
AcDbEntity
  8
0-0_補助線
  6
JWW_HOJO
 62
   120
370
     5
100
AcDbLine
 10
-2480.081457156684
 20
1089.999683277027
 30
0.0
 11
2499.918542843316
 21
1089.999683277027
 31
0.0
  0
MTEXT
  5
1FB
330
1F
100
AcDbEntity
  8
0-A_文字
  6
Continuous
 62
     7
370
     9
100
AcDbMText
 10
1314.367804555758
 20
720.4210602403374
 30
0.0
 40
79.60894736842103
 41
2977.5
 46
0.0
 71
     7
 72
     1
  1
{\fＭＳ ゴシック|b0|i0|c128|p49;　ご使用ください。ただし、有効開口は102ミリ狭くなります。}
 73
     1
 44
1.0
  0
MTEXT
  5
1FC
330
1F
100
AcDbEntity
  8
0-A_文字
  6
Continuous
 62
     7
370
     9
100
AcDbMText
 10
1314.367804555758
 20
825.4174794132698
 30
0.0
 40
79.60178571428573
 41
2925.0
 46
0.0
 71
     7
 72
     1
  1
{\fＭＳ ゴシック|b0|i0|c128|p49;※大型サムターン表示錠使用時は、引戸引き残しストッパーを}
 73
     1
 44
1.0
  0
LINE
  5
1FD
330
1F
100
AcDbEntity
  8
0-A_文字
  6
Continuous
 62
    92
370
    13
100
AcDbLine
 10
5679.835838693025
 20
3730.000181455871
 30
0.0
 11
3855.835838693024
 21
3730.000181455871
 31
0.0
  0
LINE
  5
1FE
330
1F
100
AcDbEntity
  8
0-A_文字
  6
Continuous
 62
    92
370
    13
100
AcDbLine
 10
3855.835838693024
 20
3586.000181455871
 30
0.0
 11
5679.835838693025
 21
3586.000181455871
 31
0.0
  0
LINE
  5
1FF
330
1F
100
AcDbEntity
  8
0-A_文字
  6
Continuous
 62
    92
370
    13
100
AcDbLine
 10
5679.835838693025
 20
2764.000181455871
 30
0.0
 11
3855.835838693024
 21
2764.000181455871
 31
0.0
  0
LINE
  5
200
330
1F
100
AcDbEntity
  8
0-0_補助線
  6
JWW_HOJO
 62
   120
370
     5
100
AcDbLine
 10
4311.835838693025
 20
3730.000181455871
 30
0.0
 11
4311.835838693025
 21
2764.000181455871
 31
0.0
  0
LINE
  5
201
330
1F
100
AcDbEntity
  8
0-0_補助線
  6
JWW_HOJO
 62
   120
370
     5
100
AcDbLine
 10
5223.835838693025
 20
3730.000181455871
 30
0.0
 11
5223.835838693025
 21
2764.000181455871
 31
0.0
  0
LINE
  5
202
330
1F
100
AcDbEntity
  8
0-0_補助線
  6
JWW_HOJO
 62
   120
370
     5
100
AcDbLine
 10
3879.835838693023
 20
3730.000181455871
 30
0.0
 11
3879.835838693023
 21
2764.000181455871
 31
0.0
  0
LINE
  5
203
330
1F
100
AcDbEntity
  8
0-0_補助線
  6
JWW_HOJO
 62
   120
370
     5
100
AcDbLine
 10
4743.835838693023
 20
3730.000181455871
 30
0.0
 11
4743.835838693023
 21
2764.000181455871
 31
0.0
  0
LINE
  5
204
330
1F
100
AcDbEntity
  8
0-0_補助線
  6
JWW_HOJO
 62
   120
370
     5
100
AcDbLine
 10
4791.835838693025
 20
3730.000181455871
 30
0.0
 11
4791.835838693025
 21
2764.000181455871
 31
0.0
  0
LINE
  5
205
330
1F
100
AcDbEntity
  8
0-0_補助線
  6
JWW_HOJO
 62
   120
370
     5
100
AcDbLine
 10
5655.835838693025
 20
3730.000181455871
 30
0.0
 11
5655.835838693025
 21
2764.000181455871
 31
0.0
  0
LINE
  5
206
330
1F
100
AcDbEntity
  8
0-A_文字
  6
Continuous
 62
    92
370
    13
100
AcDbLine
 10
3855.835838693024
 20
3730.000181455871
 30
0.0
 11
3855.835838693024
 21
2764.000181455871
 31
0.0
  0
LINE
  5
207
330
1F
100
AcDbEntity
  8
0-A_文字
  6
Continuous
 62
    92
370
    13
100
AcDbLine
 10
4767.835838693024
 20
3730.000181455871
 30
0.0
 11
4767.835838693024
 21
2764.000181455871
 31
0.0
  0
LINE
  5
208
330
1F
100
AcDbEntity
  8
0-A_文字
  6
Continuous
 62
    92
370
    13
100
AcDbLine
 10
5679.835838693025
 20
3730.000181455871
 30
0.0
 11
5679.835838693025
 21
2764.000181455871
 31
0.0
  0
LINE
  5
209
330
1F
100
AcDbEntity
  8
戸当り
  6
Continuous
 62
    40
370
    15
100
AcDbLine
 10
4319.035838693026
 20
3344.723723027997
 30
0.0
 11
4319.035838693026
 21
3366.323723027998
 31
0.0
  0
LINE
  5
20A
330
1F
100
AcDbEntity
  8
戸当り
  6
Continuous
 62
    40
370
    15
100
AcDbLine
 10
3879.835838693023
 20
3344.723723027997
 30
0.0
 11
4319.035838693026
 21
3344.723723027997
 31
0.0
  0
LINE
  5
20B
330
1F
100
AcDbEntity
  8
戸当り
  6
Continuous
 62
    40
370
    15
100
AcDbLine
 10
3951.835838693024
 20
3366.323723027998
 30
0.0
 11
4319.035838693026
 21
3366.323723027998
 31
0.0
  0
LINE
  5
20C
330
1F
100
AcDbEntity
  8
戸当り
  6
Continuous
 62
    40
370
    15
100
AcDbLine
 10
3951.835838693024
 20
3366.323723027998
 30
0.0
 11
3951.835838693024
 21
3387.923723027997
 31
0.0
  0
LINE
  5
20D
330
1F
100
AcDbEntity
  8
戸当り
  6
JWW_DASHED2
 62
    40
370
    15
100
AcDbLine
 10
4304.635838693025
 20
3377.123723027998
 30
0.0
 11
3951.835838693024
 21
3377.123723027998
 31
0.0
  0
LINE
  5
20E
330
1F
100
AcDbEntity
  8
戸当り
  6
Continuous
 62
    40
370
    15
100
AcDbLine
 10
3951.835838693024
 20
3387.923723027997
 30
0.0
 11
3879.835838693023
 21
3387.923723027997
 31
0.0
  0
LINE
  5
20F
330
1F
100
AcDbEntity
  8
戸当り
  6
Continuous
 62
    40
370
    15
100
AcDbLine
 10
4671.835838693025
 20
3344.723723027997
 30
0.0
 11
4671.835838693025
 21
3387.923723027997
 31
0.0
  0
LINE
  5
210
330
1F
100
AcDbEntity
  8
戸当り
  6
Continuous
 62
    40
370
    15
100
AcDbLine
 10
4304.635838693025
 20
3377.123723027998
 30
0.0
 11
4671.835838693025
 21
3377.123723027998
 31
0.0
  0
LINE
  5
211
330
1F
100
AcDbEntity
  8
戸当り
  6
Continuous
 62
    40
370
    15
100
AcDbLine
 10
4671.835838693025
 20
3344.723723027997
 30
0.0
 11
4743.835838693023
 21
3344.723723027997
 31
0.0
  0
LINE
  5
212
330
1F
100
AcDbEntity
  8
戸当り
  6
Continuous
 62
    40
370
    15
100
AcDbLine
 10
4671.835838693025
 20
3387.923723027997
 30
0.0
 11
4743.835838693023
 21
3387.923723027997
 31
0.0
  0
LINE
  5
213
330
1F
100
AcDbEntity
  8
戸当り
  6
Continuous
 62
    92
370
    13
100
AcDbLine
 10
4495.435838693024
 20
3305.123723027998
 30
0.0
 11
4495.435838693024
 21
3449.123723027998
 31
0.0
  0
LINE
  5
214
330
1F
100
AcDbEntity
  8
戸当り
  6
Continuous
 62
    40
370
    15
100
AcDbLine
 10
5216.635838693025
 20
3344.723723027997
 30
0.0
 11
5216.635838693025
 21
3366.323723027998
 31
0.0
  0
LINE
  5
215
330
1F
100
AcDbEntity
  8
戸当り
  6
Continuous
 62
    40
370
    15
100
AcDbLine
 10
5655.835838693025
 20
3344.723723027997
 30
0.0
 11
5216.635838693025
 21
3344.723723027997
 31
0.0
  0
LINE
  5
216
330
1F
100
AcDbEntity
  8
戸当り
  6
Continuous
 62
    40
370
    15
100
AcDbLine
 10
5583.835838693025
 20
3366.323723027998
 30
0.0
 11
5216.635838693025
 21
3366.323723027998
 31
0.0
  0
LINE
  5
217
330
1F
100
AcDbEntity
  8
戸当り
  6
Continuous
 62
    40
370
    15
100
AcDbLine
 10
5583.835838693025
 20
3366.323723027998
 30
0.0
 11
5583.835838693025
 21
3387.923723027997
 31
0.0
  0
LINE
  5
218
330
1F
100
AcDbEntity
  8
戸当り
  6
JWW_DASHED2
 62
    40
370
    15
100
AcDbLine
 10
5231.035838693026
 20
3377.123723027998
 30
0.0
 11
5583.835838693025
 21
3377.123723027998
 31
0.0
  0
LINE
  5
219
330
1F
100
AcDbEntity
  8
戸当り
  6
Continuous
 62
    40
370
    15
100
AcDbLine
 10
5583.835838693025
 20
3387.923723027997
 30
0.0
 11
5655.835838693025
 21
3387.923723027997
 31
0.0
  0
LINE
  5
21A
330
1F
100
AcDbEntity
  8
戸当り
  6
Continuous
 62
    40
370
    15
100
AcDbLine
 10
4863.835838693023
 20
3344.723723027997
 30
0.0
 11
4863.835838693023
 21
3387.923723027997
 31
0.0
  0
LINE
  5
21B
330
1F
100
AcDbEntity
  8
戸当り
  6
Continuous
 62
    40
370
    15
100
AcDbLine
 10
5231.035838693026
 20
3377.123723027998
 30
0.0
 11
4863.835838693023
 21
3377.123723027998
 31
0.0
  0
LINE
  5
21C
330
1F
100
AcDbEntity
  8
戸当り
  6
Continuous
 62
    40
370
    15
100
AcDbLine
 10
4863.835838693023
 20
3344.723723027997
 30
0.0
 11
4791.835838693025
 21
3344.723723027997
 31
0.0
  0
LINE
  5
21D
330
1F
100
AcDbEntity
  8
戸当り
  6
Continuous
 62
    40
370
    15
100
AcDbLine
 10
4863.835838693023
 20
3387.923723027997
 30
0.0
 11
4791.835838693025
 21
3387.923723027997
 31
0.0
  0
LINE
  5
21E
330
1F
100
AcDbEntity
  8
戸当り
  6
Continuous
 62
    92
370
    13
100
AcDbLine
 10
5040.235838693025
 20
3305.123723027998
 30
0.0
 11
5040.235838693025
 21
3449.123723027998
 31
0.0
  0
ELLIPSE
  5
21F
330
1F
100
AcDbEntity
  8
戸当り
  6
Continuous
 62
    92
370
    13
100
AcDbEllipse
 10
4420.036113825839
 20
2972.884428393055
 30
0.0
 11
-17.7763823922528
 21
100.8148742797557
 31
0.0
210
0.0
220
0.0
230
1.0
 40
0.4000000000000001
 41
1.850633272656679
 42
2.442876790075129
  0
ELLIPSE
  5
220
330
1F
100
AcDbEntity
  8
戸当り
  6
Continuous
 62
    92
370
    13
100
AcDbEllipse
 10
4420.036113825839
 20
2972.884428393055
 30
0.0
 11
-17.7763823922528
 21
100.8148742797557
 31
0.0
210
0.0
220
0.0
230
1.0
 40
0.4000000000000001
 41
3.840308517104466
 42
4.432552034522944
  0
ELLIPSE
  5
221
330
1F
100
AcDbEntity
  8
戸当り
  6
Continuous
 62
    92
370
    13
100
AcDbEllipse
 10
4419.616367775939
 20
2975.264926534711
 30
0.0
 11
-14.67024424252691
 21
83.19908946199426
 31
0.0
210
0.0
220
0.0
230
1.0
 40
0.5
 41
4.340591432030095
 42
8.225779182329084
  0
LINE
  5
222
330
1F
100
AcDbEntity
  8
戸当り
  6
Continuous
 62
    92
370
    13
100
AcDbLine
 10
4459.585997598602
 20
2900.267379069786
 30
0.0
 11
4407.707873509066
 21
2891.119866084258
 31
0.0
  0
LINE
  5
223
330
1F
100
AcDbEntity
  8
戸当り
  6
Continuous
 62
    92
370
    13
100
AcDbLine
 10
4461.773964637206
 20
2887.858801381832
 30
0.0
 11
4409.89584054767
 21
2878.711288396305
 31
0.0
  0
ELLIPSE
  5
224
330
1F
100
AcDbEntity
  8
戸当り
  6
Continuous
 62
    92
370
    13
100
AcDbEllipse
 10
4435.834902592437
 20
2883.285044889068
 30
0.0
 11
-7.622927487939132
 21
43.23177007461331
 31
0.0
210
0.0
220
0.0
230
1.0
 40
0.6000000000000001
 41
1.570796326794897
 42
4.71238898038469
  0
ELLIPSE
  5
225
330
1F
100
AcDbEntity
  8
戸当り
  6
Continuous
 62
    92
370
    13
100
AcDbEllipse
 10
4574.496882763717
 20
3008.935263882862
 30
0.0
 11
26.49533313827761
 21
98.88192943551533
 31
0.0
210
0.0
220
0.0
230
0.9999999999999999
 40
0.4
 41
1.850633272656679
 42
2.442876790075129
  0
ELLIPSE
  5
226
330
1F
100
AcDbEntity
  8
戸当り
  6
Continuous
 62
    92
370
    13
100
AcDbEllipse
 10
4574.496882763717
 20
3008.935263882862
 30
0.0
 11
26.49533313827761
 21
98.88192943551533
 31
0.0
210
0.0
220
0.0
230
0.9999999999999999
 40
0.4
 41
3.840308517104466
 42
4.432552034522944
  0
ELLIPSE
  5
227
330
1F
100
AcDbEntity
  8
戸当り
  6
Continuous
 62
    92
370
    13
100
AcDbEllipse
 10
4575.122505636819
 20
3011.270120231654
 30
0.0
 11
21.86569797210526
 21
81.6038957748525
 31
0.0
210
0.0
220
0.0
230
1.0
 40
0.5
 41
4.340591432030095
 42
8.225779182329084
  0
LINE
  5
228
330
1F
100
AcDbEntity
  8
戸当り
  6
Continuous
 62
    92
370
    13
100
AcDbLine
 10
4579.651959245627
 20
2926.407363477468
 30
0.0
 11
4528.768505369233
 21
2940.041543851754
 31
0.0
  0
LINE
  5
229
330
1F
100
AcDbEntity
  8
戸当り
  6
Continuous
 62
    92
370
    13
100
AcDbLine
 10
4576.390839277336
 20
2914.236698066226
 30
0.0
 11
4525.507385400942
 21
2927.870878440512
 31
0.0
  0
ELLIPSE
  5
22A
330
1F
100
AcDbEntity
  8
戸当り
  6
Continuous
 62
    92
370
    13
100
AcDbEllipse
 10
4550.949112339139
 20
2921.053788253369
 30
0.0
 11
11.36181697857171
 21
42.40287823032828
 31
0.0
210
0.0
220
0.0
230
0.9999999999999999
 40
0.6
 41
1.570796326794897
 42
4.71238898038469
  0
ELLIPSE
  5
22B
330
1F
100
AcDbEntity
  8
戸当り
  6
Continuous
 62
    92
370
    13
100
AcDbEllipse
 10
4964.836113825841
 20
2972.884428393055
 30
0.0
 11
-17.7763823922528
 21
100.8148742797557
 31
0.0
210
0.0
220
0.0
230
1.0
 40
0.4000000000000001
 41
1.850633272656679
 42
2.442876790075129
  0
ELLIPSE
  5
22C
330
1F
100
AcDbEntity
  8
戸当り
  6
Continuous
 62
    92
370
    13
100
AcDbEllipse
 10
4964.836113825841
 20
2972.884428393055
 30
0.0
 11
-17.7763823922528
 21
100.8148742797557
 31
0.0
210
0.0
220
0.0
230
1.0
 40
0.4000000000000001
 41
3.840308517104466
 42
4.432552034522944
  0
ELLIPSE
  5
22D
330
1F
100
AcDbEntity
  8
戸当り
  6
Continuous
 62
    92
370
    13
100
AcDbEllipse
 10
4964.41636777594
 20
2975.264926534711
 30
0.0
 11
-14.67024424252691
 21
83.19908946199426
 31
0.0
210
0.0
220
0.0
230
1.0
 40
0.5
 41
4.340591432030095
 42
8.225779182329084
  0
LINE
  5
22E
330
1F
100
AcDbEntity
  8
戸当り
  6
Continuous
 62
    92
370
    13
100
AcDbLine
 10
5004.385997598603
 20
2900.267379069786
 30
0.0
 11
4952.507873509066
 21
2891.119866084258
 31
0.0
  0
LINE
  5
22F
330
1F
100
AcDbEntity
  8
戸当り
  6
Continuous
 62
    92
370
    13
100
AcDbLine
 10
5006.573964637207
 20
2887.858801381832
 30
0.0
 11
4954.69584054767
 21
2878.711288396305
 31
0.0
  0
ELLIPSE
  5
230
330
1F
100
AcDbEntity
  8
戸当り
  6
Continuous
 62
    92
370
    13
100
AcDbEllipse
 10
4980.634902592437
 20
2883.285044889068
 30
0.0
 11
-7.622927487939132
 21
43.23177007461331
 31
0.0
210
0.0
220
0.0
230
1.0
 40
0.6000000000000001
 41
1.570796326794897
 42
4.71238898038469
  0
ELLIPSE
  5
231
330
1F
100
AcDbEntity
  8
戸当り
  6
Continuous
 62
    92
370
    13
100
AcDbEllipse
 10
5119.296882763718
 20
3008.935263882862
 30
0.0
 11
26.49533313827761
 21
98.88192943551533
 31
0.0
210
0.0
220
0.0
230
0.9999999999999999
 40
0.4
 41
1.850633272656679
 42
2.442876790075129
  0
ELLIPSE
  5
232
330
1F
100
AcDbEntity
  8
戸当り
  6
Continuous
 62
    92
370
    13
100
AcDbEllipse
 10
5119.296882763718
 20
3008.935263882862
 30
0.0
 11
26.49533313827761
 21
98.88192943551533
 31
0.0
210
0.0
220
0.0
230
0.9999999999999999
 40
0.4
 41
3.840308517104466
 42
4.432552034522944
  0
ELLIPSE
  5
233
330
1F
100
AcDbEntity
  8
戸当り
  6
Continuous
 62
    92
370
    13
100
AcDbEllipse
 10
5119.92250563682
 20
3011.270120231654
 30
0.0
 11
21.86569797210526
 21
81.6038957748525
 31
0.0
210
0.0
220
0.0
230
1.0
 40
0.5
 41
4.340591432030095
 42
8.225779182329084
  0
LINE
  5
234
330
1F
100
AcDbEntity
  8
戸当り
  6
Continuous
 62
    92
370
    13
100
AcDbLine
 10
5124.451959245628
 20
2926.407363477468
 30
0.0
 11
5073.568505369234
 21
2940.041543851754
 31
0.0
  0
LINE
  5
235
330
1F
100
AcDbEntity
  8
戸当り
  6
Continuous
 62
    92
370
    13
100
AcDbLine
 10
5121.190839277337
 20
2914.236698066226
 30
0.0
 11
5070.307385400943
 21
2927.870878440512
 31
0.0
  0
ELLIPSE
  5
236
330
1F
100
AcDbEntity
  8
戸当り
  6
Continuous
 62
    92
370
    13
100
AcDbEllipse
 10
5095.749112339141
 20
2921.053788253369
 30
0.0
 11
11.36181697857171
 21
42.40287823032828
 31
0.0
210
0.0
220
0.0
230
0.9999999999999999
 40
0.6
 41
1.570796326794897
 42
4.71238898038469
  0
MTEXT
  5
237
330
1F
100
AcDbEntity
  8
0-A_文字
  6
Continuous
 62
     7
370
     9
100
AcDbMText
 10
3855.835838693023
 20
3745.720181455871
 30
0.0
 40
91.44
 41
720.0
 46
0.0
 71
     7
 72
     1
  1
{\fＭＳ ゴシック|b0|i0|c128|p49;■引き手方向}
 73
     1
 44
1.0
  0
MTEXT
  5
238
330
1F
100
AcDbEntity
  8
0-A_文字
  6
Continuous
 62
     7
370
     9
100
AcDbMText
 10
4109.335838693022
 20
3606.576431455872
 30
0.0
 40
77.15249999999999
 41
405.0
 46
0.0
 71
     7
 72
     1
  1
{\fＭＳ ゴシック|b0|i0|c128|p49;右引き手}
 73
     1
 44
1.0
  0
MTEXT
  5
239
330
1F
100
AcDbEntity
  8
0-A_文字
  6
Continuous
 62
     7
370
     9
100
AcDbMText
 10
5021.335838693025
 20
3606.576431455872
 30
0.0
 40
77.15249999999999
 41
405.0
 46
0.0
 71
     7
 72
     1
  1
{\fＭＳ ゴシック|b0|i0|c128|p49;左引き手}
 73
     1
 44
1.0
  0
MTEXT
  5
23A
330
1F
100
AcDbEntity
  8
F-A_文字
  6
Continuous
 62
     7
370
     9
100
AcDbMText
 10
5096.167700144058
 20
-4147.857012699985
 30
0.0
 40
74.295
 41
97.5
 46
0.0
 71
     7
 72
     1
  1
{\fＭＳ ゴシック|b0|i0|c128|p49;01}
 73
     1
 44
1.0
  0
MTEXT
  5
23B
330
1F
100
AcDbEntity
  8
0-A_文字
  6
Continuous
 62
    92
370
    13
100
AcDbMText
 10
-5558.749495325861
 20
3758.968610027299
 30
0.0
 40
147.9368571428572
 41
3397.5
 46
0.0
 71
     7
 72
     1
  1
{\fＭＳ ゴシック|b0|i0|c128|p49;片引き戸　上吊りタイプ　固定枠113巾}
 73
     1
 44
1.0
  0
LINE
  5
23C
330
1F
100
AcDbEntity
  8
0-A_文字
  6
Continuous
 62
    92
370
    13
100
AcDbLine
 10
-5659.999495325861
 20
3730.00018145587
 30
0.0
 11
-2078.571428571428
 21
3730.00018145587
 31
0.0
  0
LINE
  5
23D
330
1F
100
AcDbEntity
  8
0-A_文字
  6
Continuous
 62
    92
370
    13
100
AcDbLine
 10
-5659.999495325861
 20
4000.00018145587
 30
0.0
 11
-2078.571428571428
 21
4000.00018145587
 31
0.0
  0
LINE
  5
23E
330
1F
100
AcDbEntity
  8
0-A_文字
  6
Continuous
 62
    92
370
    13
100
AcDbLine
 10
-2078.571428571428
 20
3730.00018145587
 30
0.0
 11
-2078.571428571428
 21
4000.00018145587
 31
0.0
  0
LINE
  5
23F
330
1F
100
AcDbEntity
  8
0-B_寸法
  6
Continuous
 62
   120
370
     5
100
AcDbLine
 10
-3454.217895871216
 20
-2622.000404213942
 30
0.0
 11
-3574.217895871216
 21
-2622.000404213942
 31
0.0
  0
LINE
  5
240
330
1F
100
AcDbEntity
  8
0-B_寸法
  6
Continuous
 62
   120
370
     5
100
AcDbLine
 10
-3454.217895871216
 20
-2730.000404213942
 30
0.0
 11
-3574.217895871216
 21
-2730.000404213942
 31
0.0
  0
LWPOLYLINE
  5
241
330
1F
100
AcDbEntity
  8
0-B_寸法
  6
Continuous
 62
     7
370
     9
100
AcDbPolyline
 90
        4
 70
     1
 43
3.0
 10
-3452.717895871216
 20
-2622.000404213942
 42
0.4142135623731
 10
-3454.217895871216
 20
-2620.500404213942
 42
0.4142135623731
 10
-3455.717895871216
 20
-2622.000404213942
 42
0.4142135623731
 10
-3454.217895871216
 20
-2623.500404213942
 42
0.4142135623731
  0
LWPOLYLINE
  5
242
330
1F
100
AcDbEntity
  8
0-B_寸法
  6
Continuous
 62
     7
370
     9
100
AcDbPolyline
 90
        4
 70
     1
 43
3.0
 10
-3452.717895871216
 20
-2730.000404213942
 42
0.4142135623731
 10
-3454.217895871216
 20
-2728.500404213942
 42
0.4142135623731
 10
-3455.717895871216
 20
-2730.000404213942
 42
0.4142135623731
 10
-3454.217895871216
 20
-2731.500404213941
 42
0.4142135623731
  0
LINE
  5
243
330
1F
100
AcDbEntity
  8
0-B_寸法
  6
Continuous
 62
   120
370
     5
100
AcDbLine
 10
-3454.217895871216
 20
-2730.000404213942
 30
0.0
 11
-3454.217895871216
 21
-2622.000404213942
 31
0.0
  0
LINE
  5
244
330
1F
100
AcDbEntity
  8
0-0_補助線
  6
JWW_HOJO
 62
   120
370
     5
100
AcDbLine
 10
-3604.217895871216
 20
-2592.000404213941
 30
0.0
 11
-3604.217895871216
 21
-2856.000591679352
 31
0.0
  0
LINE
  5
245
330
1F
100
AcDbEntity
  8
0-B_寸法
  6
Continuous
 62
   120
370
     5
100
AcDbLine
 10
-3737.717895871206
 20
-2532.000404213941
 30
0.0
 11
-3710.717895871206
 21
-2532.000404213941
 31
0.0
  0
LINE
  5
246
330
1F
100
AcDbEntity
  8
0-B_寸法
  6
Continuous
 62
   120
370
     5
100
AcDbLine
 10
-3737.717895871206
 20
-2532.000404213941
 30
0.0
 11
-3737.717895871206
 21
-2592.000404213941
 31
0.0
  0
LWPOLYLINE
  5
247
330
1F
100
AcDbEntity
  8
0-B_寸法
  6
Continuous
 62
     7
370
     9
100
AcDbPolyline
 90
        4
 70
     1
 43
3.0
 10
-3736.217895871206
 20
-2532.000404213941
 42
0.4142135623731
 10
-3737.717895871206
 20
-2530.500404213941
 42
0.4142135623731
 10
-3739.217895871206
 20
-2532.000404213941
 42
0.4142135623731
 10
-3737.717895871206
 20
-2533.500404213941
 42
0.4142135623731
  0
LINE
  5
248
330
1F
100
AcDbEntity
  8
0-B_寸法
  6
Continuous
 62
   120
370
     5
100
AcDbLine
 10
-3710.717895871206
 20
-2532.000404213941
 30
0.0
 11
-3710.717895871206
 21
-2592.000404213941
 31
0.0
  0
LWPOLYLINE
  5
249
330
1F
100
AcDbEntity
  8
0-B_寸法
  6
Continuous
 62
     7
370
     9
100
AcDbPolyline
 90
        4
 70
     1
 43
3.0
 10
-3709.217895871206
 20
-2532.000404213941
 42
0.4142135623731
 10
-3710.717895871206
 20
-2530.500404213941
 42
0.4142135623731
 10
-3712.217895871206
 20
-2532.000404213941
 42
0.4142135623731
 10
-3710.717895871206
 20
-2533.500404213941
 42
0.4142135623731
  0
LINE
  5
24A
330
1F
100
AcDbEntity
  8
0-0_補助線
  6
JWW_HOJO
 62
   120
370
     5
100
AcDbLine
 10
-3674.717895871217
 20
-2592.000404213941
 30
0.0
 11
-3674.717895871217
 21
-2856.000591679352
 31
0.0
  0
LINE
  5
24B
330
1F
100
AcDbEntity
  8
0-6_扉
  6
Continuous
 62
   200
370
    20
100
AcDbLine
 10
-3634.217895871216
 20
-2730.000404213942
 30
0.0
 11
-3704.717895871215
 21
-2730.000404213942
 31
0.0
  0
LINE
  5
24C
330
1F
100
AcDbEntity
  8
0-6_扉
  6
Continuous
 62
   200
370
    20
100
AcDbLine
 10
-3743.717895871217
 20
-2730.000404213942
 30
0.0
 11
-3814.217895871216
 21
-2730.000404213942
 31
0.0
  0
LINE
  5
24D
330
1F
100
AcDbEntity
  8
0-6_扉
  6
Continuous
 62
   200
370
    20
100
AcDbLine
 10
-3704.717895871215
 20
-2622.000404213942
 30
0.0
 11
-3743.717895871217
 21
-2622.000404213942
 31
0.0
  0
LINE
  5
24E
330
1F
100
AcDbEntity
  8
0-6_扉
  6
Continuous
 62
   200
370
    20
100
AcDbLine
 10
-3743.717895871217
 20
-2622.000404213942
 30
0.0
 11
-3743.717895871217
 21
-2730.000404213942
 31
0.0
  0
LINE
  5
24F
330
1F
100
AcDbEntity
  8
0-6_扉
  6
Continuous
 62
   200
370
    20
100
AcDbLine
 10
-3704.717895871215
 20
-2622.000404213942
 30
0.0
 11
-3704.717895871215
 21
-2730.000404213942
 31
0.0
  0
ARC
  5
250
330
1F
100
AcDbEntity
  8
0-7_金物
  6
Continuous
 62
    92
370
    13
100
AcDbCircle
 10
-3733.217895871208
 20
-2763.00040421394
 30
0.0
 40
18.0
100
AcDbArc
 50
270.0
 51
0.0
  0
LINE
  5
251
330
1F
100
AcDbEntity
  8
0-7_金物
  6
Continuous
 62
    92
370
    13
100
AcDbLine
 10
-3715.217895871207
 20
-2763.00040421394
 30
0.0
 11
-3715.217895871207
 21
-2661.00040421394
 31
0.0
  0
LINE
  5
252
330
1F
100
AcDbEntity
  8
0-7_金物
  6
Continuous
 62
    92
370
    13
100
AcDbLine
 10
-3733.217895871208
 20
-2781.00040421394
 30
0.0
 11
-3823.217895871217
 21
-2781.00040421394
 31
0.0
  0
LINE
  5
253
330
1F
100
AcDbEntity
  8
0-7_金物
  6
Continuous
 62
    92
370
    13
100
AcDbLine
 10
-3733.217895871208
 20
-2661.00040421394
 30
0.0
 11
-3733.217895871208
 21
-2763.00040421394
 31
0.0
  0
LINE
  5
254
330
1F
100
AcDbEntity
  8
0-7_金物
  6
Continuous
 62
    92
370
    13
100
AcDbLine
 10
-3733.217895871208
 20
-2661.00040421394
 30
0.0
 11
-3715.217895871207
 21
-2661.00040421394
 31
0.0
  0
LINE
  5
255
330
1F
100
AcDbEntity
  8
0-7_金物
  6
Continuous
 62
    92
370
    13
100
AcDbLine
 10
-3823.217895871217
 20
-2763.00040421394
 30
0.0
 11
-3733.217895871208
 21
-2763.00040421394
 31
0.0
  0
LINE
  5
256
330
1F
100
AcDbEntity
  8
0-7_金物
  6
Continuous
 62
    92
370
    13
100
AcDbLine
 10
-3823.217895871217
 20
-2763.00040421394
 30
0.0
 11
-3823.217895871217
 21
-2781.00040421394
 31
0.0
  0
LINE
  5
257
330
1F
100
AcDbEntity
  8
0-7_金物
  6
Continuous
 62
     7
370
     9
100
AcDbLine
 10
-3704.717895871215
 20
-2730.000404213942
 30
0.0
 11
-3686.717895871216
 21
-2730.000404213942
 31
0.0
  0
LINE
  5
258
330
1F
100
AcDbEntity
  8
0-7_金物
  6
Continuous
 62
     7
370
     9
100
AcDbLine
 10
-3686.717895871216
 20
-2730.000404213942
 30
0.0
 11
-3686.717895871216
 21
-2736.00040421394
 31
0.0
  0
LINE
  5
259
330
1F
100
AcDbEntity
  8
0-7_金物
  6
Continuous
 62
     7
370
     9
100
AcDbLine
 10
-3710.717895871217
 20
-2736.00040421394
 30
0.0
 11
-3686.717895871216
 21
-2736.00040421394
 31
0.0
  0
LINE
  5
25A
330
1F
100
AcDbEntity
  8
0-7_金物
  6
Continuous
 62
     7
370
     9
100
AcDbLine
 10
-3710.717895871217
 20
-2628.000404213941
 30
0.0
 11
-3737.717895871214
 21
-2628.000404213941
 31
0.0
  0
LINE
  5
25B
330
1F
100
AcDbEntity
  8
0-7_金物
  6
Continuous
 62
     7
370
     9
100
AcDbLine
 10
-3743.717895871215
 20
-2622.000404213942
 30
0.0
 11
-3704.717895871215
 21
-2622.000404213942
 31
0.0
  0
LINE
  5
25C
330
1F
100
AcDbEntity
  8
0-7_金物
  6
Continuous
 62
     7
370
     9
100
AcDbLine
 10
-3710.717895871217
 20
-2628.000404213941
 30
0.0
 11
-3710.717895871217
 21
-2736.00040421394
 31
0.0
  0
LINE
  5
25D
330
1F
100
AcDbEntity
  8
0-7_金物
  6
Continuous
 62
     7
370
     9
100
AcDbLine
 10
-3704.717895871215
 20
-2622.000404213942
 30
0.0
 11
-3704.717895871215
 21
-2730.000404213942
 31
0.0
  0
LINE
  5
25E
330
1F
100
AcDbEntity
  8
0-7_金物
  6
Continuous
 62
     7
370
     9
100
AcDbLine
 10
-3737.717895871214
 20
-2736.00040421394
 30
0.0
 11
-3761.717895871216
 21
-2736.00040421394
 31
0.0
  0
LINE
  5
25F
330
1F
100
AcDbEntity
  8
0-7_金物
  6
Continuous
 62
     7
370
     9
100
AcDbLine
 10
-3737.717895871214
 20
-2736.00040421394
 30
0.0
 11
-3737.717895871214
 21
-2628.000404213941
 31
0.0
  0
LINE
  5
260
330
1F
100
AcDbEntity
  8
0-7_金物
  6
Continuous
 62
     7
370
     9
100
AcDbLine
 10
-3761.717895871216
 20
-2736.00040421394
 30
0.0
 11
-3761.717895871216
 21
-2730.000404213942
 31
0.0
  0
LINE
  5
261
330
1F
100
AcDbEntity
  8
0-7_金物
  6
Continuous
 62
     7
370
     9
100
AcDbLine
 10
-3761.717895871216
 20
-2730.000404213942
 30
0.0
 11
-3743.717895871215
 21
-2730.000404213942
 31
0.0
  0
LINE
  5
262
330
1F
100
AcDbEntity
  8
0-7_金物
  6
Continuous
 62
     7
370
     9
100
AcDbLine
 10
-3743.717895871215
 20
-2730.000404213942
 30
0.0
 11
-3743.717895871215
 21
-2622.000404213942
 31
0.0
  0
LINE
  5
263
330
1F
100
AcDbEntity
  8
0-C_ハッチ
  6
Continuous
 62
   120
370
     5
100
AcDbLine
 10
-3823.217895871217
 20
-2771.894774300672
 30
0.0
 11
-3814.324122871757
 21
-2763.001001301213
 31
0.0
  0
LINE
  5
264
330
1F
100
AcDbEntity
  8
0-C_ハッチ
  6
Continuous
 62
   120
370
     5
100
AcDbLine
 10
-3733.217895871208
 20
-2681.894774300667
 30
0.0
 11
-3715.2178958712
 21
-2663.894774300658
 31
0.0
  0
LINE
  5
265
330
1F
100
AcDbEntity
  8
0-C_ハッチ
  6
Continuous
 62
   120
370
     5
100
AcDbLine
 10
-3733.217895871201
 20
-2707.350618423412
 30
0.0
 11
-3715.217895871197
 21
-2689.350618423407
 31
0.0
  0
LINE
  5
266
330
1F
100
AcDbEntity
  8
0-C_ハッチ
  6
Continuous
 62
   120
370
     5
100
AcDbLine
 10
-3806.867681661732
 20
-2781.000404213943
 30
0.0
 11
-3788.868278749022
 21
-2763.001001301231
 31
0.0
  0
LINE
  5
267
330
1F
100
AcDbEntity
  8
0-C_ハッチ
  6
Continuous
 62
   120
370
     5
100
AcDbLine
 10
-3733.217895871211
 20
-2732.806462546118
 30
0.0
 11
-3715.217895871204
 21
-2714.806462546112
 31
0.0
  0
LINE
  5
268
330
1F
100
AcDbEntity
  8
0-C_ハッチ
  6
Continuous
 62
   120
370
     5
100
AcDbLine
 10
-3781.41183753903
 20
-2781.000404213939
 30
0.0
 11
-3763.412434626317
 21
-2763.001001301221
 31
0.0
  0
LINE
  5
269
330
1F
100
AcDbEntity
  8
0-C_ハッチ
  6
Continuous
 62
   120
370
     5
100
AcDbLine
 10
-3733.217895871222
 20
-2758.262306668823
 30
0.0
 11
-3715.217895871207
 21
-2740.262306668814
 31
0.0
  0
LINE
  5
26A
330
1F
100
AcDbEntity
  8
0-C_ハッチ
  6
Continuous
 62
   120
370
     5
100
AcDbLine
 10
-3755.955993416329
 20
-2781.000404213931
 30
0.0
 11
-3737.956590503605
 21
-2763.001001301211
 31
0.0
  0
LINE
  5
26B
330
1F
100
AcDbEntity
  8
0-C_ハッチ
  6
Continuous
 62
   120
370
     5
100
AcDbLine
 10
-3730.255569879794
 20
-2780.755824800155
 30
0.0
 11
-3715.457898344599
 21
-2765.958153264957
 31
0.0
  0
LINE
  5
26C
330
1F
100
AcDbEntity
  8
0-A_文字
  6
Continuous
 62
     7
370
     9
100
AcDbLine
 10
-4494.830792424159
 20
-2728.118906281353
 30
0.0
 11
-4464.830792424159
 21
-2780.080430508419
 31
0.0
  0
LINE
  5
26D
330
1F
100
AcDbEntity
  8
0-A_文字
  6
Continuous
 62
     7
370
     9
100
AcDbLine
 10
-4494.830792424159
 20
-2728.118906281353
 30
0.0
 11
-4434.830792424159
 21
-2728.118906281353
 31
0.0
  0
LINE
  5
26E
330
1F
100
AcDbEntity
  8
0-A_文字
  6
Continuous
 62
     7
370
     9
100
AcDbLine
 10
-4434.830792424159
 20
-2728.118906281353
 30
0.0
 11
-4464.830792424155
 21
-2780.080430508419
 31
0.0
  0
LINE
  5
26F
330
1F
100
AcDbEntity
  8
0-0_補助線
  6
JWW_HOJO
 62
   120
370
     5
100
AcDbLine
 10
-4528.217896424572
 20
-2853.000197951857
 30
0.0
 11
-4528.217896424572
 21
194.9998020481414
 31
0.0
  0
LWPOLYLINE
  5
270
330
1F
100
AcDbEntity
  8
0-B_寸法
  6
Continuous
 62
     7
370
     9
100
AcDbPolyline
 90
        4
 70
     1
 43
3.0
 10
-3632.717895871216
 20
-1119.00032480045
 42
0.4142135623731
 10
-3634.217895871216
 20
-1117.500324800451
 42
0.4142135623731
 10
-3635.717895871216
 20
-1119.00032480045
 42
0.4142135623731
 10
-3634.217895871216
 20
-1120.50032480045
 42
0.4142135623731
  0
LWPOLYLINE
  5
271
330
1F
100
AcDbEntity
  8
0-B_寸法
  6
Continuous
 62
     7
370
     9
100
AcDbPolyline
 90
        4
 70
     1
 43
3.0
 10
-3812.717895871216
 20
-1119.00032480045
 42
0.4142135623731
 10
-3814.217895871216
 20
-1117.500324800451
 42
0.4142135623731
 10
-3815.717895871216
 20
-1119.00032480045
 42
0.4142135623731
 10
-3814.217895871216
 20
-1120.50032480045
 42
0.4142135623731
  0
LINE
  5
272
330
1F
100
AcDbEntity
  8
0-1_通り芯
  6
JWW_CENTER1
 62
   120
370
     5
100
AcDbLine
 10
-4528.217896424572
 20
-2853.000198220287
 30
0.0
 11
-2194.217896424569
 21
-2853.000197951857
 31
0.0
  0
LINE
  5
273
330
1F
100
AcDbEntity
  8
0-0_補助線
  6
JWW_HOJO
 62
   120
370
     5
100
AcDbLine
 10
-3148.21789642457
 20
-2853.000197951857
 30
0.0
 11
-3148.21789642457
 21
194.9998020481414
 31
0.0
  0
LINE
  5
274
330
1F
100
AcDbEntity
  8
0-0_補助線
  6
JWW_HOJO
 62
   120
370
     5
100
AcDbLine
 10
-2938.21789642457
 20
-2853.000197951855
 30
0.0
 11
-2938.21789642457
 21
194.9998020481414
 31
0.0
  0
LINE
  5
275
330
1F
100
AcDbEntity
  8
0-0_補助線
  6
JWW_HOJO
 62
   120
370
     5
100
AcDbLine
 10
-2728.21789642457
 20
-2853.000198220289
 30
0.0
 11
-2728.21789642457
 21
194.9998020481414
 31
0.0
  0
LINE
  5
276
330
1F
100
AcDbEntity
  8
0-0_補助線
  6
JWW_HOJO
 62
   120
370
     5
100
AcDbLine
 10
-2518.21789642457
 20
-2853.000197951855
 30
0.0
 11
-2518.21789642457
 21
194.9998020481414
 31
0.0
  0
LINE
  5
277
330
1F
100
AcDbEntity
  8
0-0_補助線
  6
JWW_HOJO
 62
   120
370
     5
100
AcDbLine
 10
-2308.21789642457
 20
-2853.000197951855
 30
0.0
 11
-2308.21789642457
 21
194.9998020481414
 31
0.0
  0
LINE
  5
278
330
1F
100
AcDbEntity
  8
0-1_通り芯
  6
JWW_CENTER1
 62
   120
370
     5
100
AcDbLine
 10
-4528.217896424572
 20
-153.0001979518806
 30
0.0
 11
-2194.217896424569
 21
-153.0001979518806
 31
0.0
  0
LINE
  5
279
330
1F
100
AcDbEntity
  8
0-0_補助線
  6
JWW_HOJO
 62
   120
370
     5
100
AcDbLine
 10
-4528.217896424572
 20
194.9998020481414
 30
0.0
 11
-2308.21789642457
 21
194.9998020481414
 31
0.0
  0
LINE
  5
27A
330
1F
100
AcDbEntity
  8
0-0_補助線
  6
JWW_HOJO
 62
   120
370
     5
100
AcDbLine
 10
-2308.21789642457
 20
-2853.000197951857
 30
0.0
 11
-4528.217896424572
 21
-2853.000197951857
 31
0.0
  0
LINE
  5
27B
330
1F
100
AcDbEntity
  8
0-3_仕上げ
  6
Continuous
 62
    40
370
    15
100
AcDbLine
 10
-3148.21789642457
 20
-2853.000404213941
 30
0.0
 11
-4528.217896424572
 21
-2853.000404213941
 31
0.0
  0
LINE
  5
27C
330
1F
100
AcDbEntity
  8
0-3_仕上げ
  6
Continuous
 62
    40
370
    15
100
AcDbLine
 10
-3148.21789642457
 20
-2781.00040421394
 30
0.0
 11
-4528.217896424572
 21
-2781.00040421394
 31
0.0
  0
LINE
  5
27D
330
1F
100
AcDbEntity
  8
0-3_仕上げ
  6
Continuous
 62
     7
370
     9
100
AcDbLine
 10
-3148.21789642457
 20
-2817.000404213939
 30
0.0
 11
-4528.217896424572
 21
-2817.000404213939
 31
0.0
  0
LINE
  5
27E
330
1F
100
AcDbEntity
  8
0-3_仕上げ
  6
Continuous
 62
     7
370
     9
100
AcDbLine
 10
-3148.21789642457
 20
-2835.000404213942
 30
0.0
 11
-4528.217896424572
 21
-2835.000404213942
 31
0.0
  0
LINE
  5
27F
330
1F
100
AcDbEntity
  8
0-3_仕上げ
  6
Continuous
 62
     7
370
     9
100
AcDbLine
 10
-3148.21789642457
 20
-2826.00040421394
 30
0.0
 11
-4528.217896424572
 21
-2826.00040421394
 31
0.0
  0
LINE
  5
280
330
1F
100
AcDbEntity
  8
0-3_仕上げ
  6
Continuous
 62
     7
370
     9
100
AcDbLine
 10
-3148.21789642457
 20
-2808.000404213939
 30
0.0
 11
-4528.217896424572
 21
-2808.000404213939
 31
0.0
  0
LINE
  5
281
330
1F
100
AcDbEntity
  8
0-3_仕上げ
  6
Continuous
 62
     7
370
     9
100
AcDbLine
 10
-3148.21789642457
 20
-2799.00040421394
 30
0.0
 11
-4528.217896424572
 21
-2799.00040421394
 31
0.0
  0
LINE
  5
282
330
1F
100
AcDbEntity
  8
0-3_仕上げ
  6
Continuous
 62
     7
370
     9
100
AcDbLine
 10
-3148.21789642457
 20
-2790.000404213942
 30
0.0
 11
-4528.217896424572
 21
-2790.000404213942
 31
0.0
  0
LINE
  5
283
330
1F
100
AcDbEntity
  8
0-3_仕上げ
  6
Continuous
 62
     7
370
     9
100
AcDbLine
 10
-3148.21789642457
 20
-2844.00040421394
 30
0.0
 11
-4528.217896424572
 21
-2844.00040421394
 31
0.0
  0
LINE
  5
284
330
1F
100
AcDbEntity
  8
0-C_ハッチ
  6
JWW_DASHED1
 62
   120
370
     5
100
AcDbLine
 10
-4108.217896424572
 20
-64.50337710116528
 30
0.0
 11
-4033.217896424575
 21
10.4966228988313
 31
0.0
  0
LINE
  5
285
330
1F
100
AcDbEntity
  8
0-C_ハッチ
  6
JWW_DASHED1
 62
   120
370
     5
100
AcDbLine
 10
-4108.217896424551
 20
105.2022503836565
 30
0.0
 11
-4033.217896424554
 21
180.2022503836514
 31
0.0
  0
LINE
  5
286
330
1F
100
AcDbEntity
  8
0-C_ハッチ
  6
JWW_DASHED1
 62
   120
370
     5
100
AcDbLine
 10
-4108.217896424565
 20
62.77584351244286
 30
0.0
 11
-4033.217896424551
 21
137.7758435124565
 31
0.0
  0
LINE
  5
287
330
1F
100
AcDbEntity
  8
0-C_ハッチ
  6
JWW_DASHED1
 62
   120
370
     5
100
AcDbLine
 10
-4108.217896424565
 20
20.34943664124285
 30
0.0
 11
-4033.217896424554
 21
95.34943664125137
 31
0.0
  0
LINE
  5
288
330
1F
100
AcDbEntity
  8
0-C_ハッチ
  6
JWW_DASHED1
 62
   120
370
     5
100
AcDbLine
 10
-4108.217896424562
 20
-22.07697022995504
 30
0.0
 11
-4033.217896424566
 21
52.92302977003814
 31
0.0
  0
LINE
  5
289
330
1F
100
AcDbEntity
  8
0-C_ハッチ
  6
JWW_DASHED1
 62
   120
370
     5
100
AcDbLine
 10
-3643.217896424568
 20
88.95333357335176
 30
0.0
 11
-3568.217896424555
 21
163.9533335733654
 31
0.0
  0
LINE
  5
28A
330
1F
100
AcDbEntity
  8
0-C_ハッチ
  6
JWW_DASHED1
 62
   120
370
     5
100
AcDbLine
 10
-3643.21789642457
 20
46.52692670215174
 30
0.0
 11
-3568.217896424561
 21
121.5269267021603
 31
0.0
  0
LINE
  5
28B
330
1F
100
AcDbEntity
  8
0-C_ハッチ
  6
JWW_DASHED1
 62
   120
370
     5
100
AcDbLine
 10
-3643.217896424579
 20
4.100519830940215
 30
0.0
 11
-3568.21789642458
 21
79.10051983093808
 31
0.0
  0
LINE
  5
28C
330
1F
100
AcDbEntity
  8
0-C_ハッチ
  6
JWW_DASHED1
 62
   120
370
     5
100
AcDbLine
 10
-3643.217896424575
 20
-38.32588704025639
 30
0.0
 11
-3568.217896424579
 21
36.6741129597402
 31
0.0
  0
LINE
  5
28D
330
1F
100
AcDbEntity
  8
0-C_ハッチ
  6
JWW_DASHED1
 62
   120
370
     5
100
AcDbLine
 10
-4108.217896424559
 20
-106.9297839723517
 30
0.0
 11
-4033.217896424561
 21
-31.92978397235507
 31
0.0
  0
LINE
  5
28E
330
1F
100
AcDbEntity
  8
0-C_ハッチ
  6
JWW_DASHED1
 62
   120
370
     5
100
AcDbLine
 10
-3643.217896424563
 20
-80.75229391144276
 30
0.0
 11
-3568.217896424577
 21
-5.752293911456405
 31
0.0
  0
LINE
  5
28F
330
1F
100
AcDbEntity
  8
0-C_ハッチ
  6
JWW_DASHED1
 62
   120
370
     5
100
AcDbLine
 10
-3643.217896424563
 20
-123.1787007825882
 30
0.0
 11
-3568.21789642457
 21
-48.17870078259375
 31
0.0
  0
LINE
  5
290
330
1F
100
AcDbEntity
  8
0-C_ハッチ
  6
JWW_DASHED1
 62
   120
370
     5
100
AcDbLine
 10
-3630.612986722655
 20
-153.0001979518806
 30
0.0
 11
-3568.217896424567
 21
-90.60510765379163
 31
0.0
  0
LINE
  5
291
330
1F
100
AcDbEntity
  8
0-C_ハッチ
  6
JWW_DASHED1
 62
   120
370
     5
100
AcDbLine
 10
-3588.186579851462
 20
-153.0001979518806
 30
0.0
 11
-3568.217896424563
 21
-133.0315145249801
 31
0.0
  0
LINE
  5
292
330
1F
100
AcDbEntity
  8
0-C_ハッチ
  6
JWW_DASHED1
 62
   120
370
     5
100
AcDbLine
 10
-4108.217896424545
 20
-149.356190843538
 30
0.0
 11
-4033.217896424548
 21
-74.35619084354357
 31
0.0
  0
LINE
  5
293
330
1F
100
AcDbEntity
  8
0-C_ハッチ
  6
JWW_DASHED1
 62
   120
370
     5
100
AcDbLine
 10
-4069.435496661685
 20
-153.0001979518806
 30
0.0
 11
-4033.217896424534
 21
-116.7825977147299
 31
0.0
  0
LINE
  5
294
330
1F
100
AcDbEntity
  8
0-2_柱
  6
Continuous
 62
    92
370
    13
100
AcDbLine
 10
-4033.21789642457
 20
-153.0001979518806
 30
0.0
 11
-3643.217896424563
 21
-153.0001979518806
 31
0.0
  0
LINE
  5
295
330
1F
100
AcDbEntity
  8
0-2_柱
  6
Continuous
 62
    92
370
    13
100
AcDbLine
 10
-4033.21789642457
 20
116.9998020481194
 30
0.0
 11
-3643.217896424563
 21
116.9998020481194
 31
0.0
  0
LINE
  5
296
330
1F
100
AcDbEntity
  8
0-2_柱
  6
Continuous
 62
     7
370
     9
100
AcDbLine
 10
-4033.217896424558
 20
-153.0001979518806
 30
0.0
 11
-3643.217896424563
 21
116.9998020481194
 31
0.0
  0
LINE
  5
297
330
1F
100
AcDbEntity
  8
0-3_仕上げ
  6
Continuous
 62
    40
370
    15
100
AcDbLine
 10
-4108.217896424559
 20
194.9998020481414
 30
0.0
 11
-4108.217896424559
 21
-153.0001979518806
 31
0.0
  0
LINE
  5
298
330
1F
100
AcDbEntity
  8
0-3_仕上げ
  6
Continuous
 62
    40
370
    15
100
AcDbLine
 10
-3568.217896424563
 20
194.9998020481414
 30
0.0
 11
-3568.217896424563
 21
-153.0001979518806
 31
0.0
  0
LINE
  5
299
330
1F
100
AcDbEntity
  8
0-C_ハッチ
  6
JWW_DASHED1
 62
   120
370
     5
100
AcDbLine
 10
-4108.217896424555
 20
147.6286572548514
 30
0.0
 11
-4060.846751631266
 21
194.9998020481414
 31
0.0
  0
LINE
  5
29A
330
1F
100
AcDbEntity
  8
0-C_ハッチ
  6
JWW_DASHED1
 62
   120
370
     5
100
AcDbLine
 10
-3643.217896424556
 20
173.8061473157654
 30
0.0
 11
-3622.02424169218
 21
194.9998020481414
 31
0.0
  0
LINE
  5
29B
330
1F
100
AcDbEntity
  8
0-C_ハッチ
  6
JWW_DASHED1
 62
   120
370
     5
100
AcDbLine
 10
-3643.217896424555
 20
131.3797404445654
 30
0.0
 11
-3579.597834820978
 21
194.9998020481414
 31
0.0
  0
LINE
  5
29C
330
1F
100
AcDbEntity
  8
0-3_仕上げ
  6
Continuous
 62
    40
370
    15
100
AcDbLine
 10
-4033.217896424558
 20
194.9998020481414
 30
0.0
 11
-4033.217896424558
 21
-153.0001979518806
 31
0.0
  0
LINE
  5
29D
330
1F
100
AcDbEntity
  8
0-3_仕上げ
  6
Continuous
 62
    40
370
    15
100
AcDbLine
 10
-3643.217896424563
 20
194.9998020481414
 30
0.0
 11
-3643.217896424563
 21
-153.0001979518806
 31
0.0
  0
LINE
  5
29E
330
1F
100
AcDbEntity
  8
0-4_枠
  6
Continuous
 62
    92
370
    13
100
AcDbLine
 10
-3810.617896424568
 20
-333.0001979518806
 30
0.0
 11
-3810.617896424568
 21
-237.0001979518818
 31
0.0
  0
LINE
  5
29F
330
1F
100
AcDbEntity
  8
0-4_枠
  6
Continuous
 62
    92
370
    13
100
AcDbLine
 10
-3637.817896424568
 20
-237.0001979518818
 30
0.0
 11
-3810.617896424568
 21
-237.0001979518818
 31
0.0
  0
LINE
  5
2A0
330
1F
100
AcDbEntity
  8
0-4_枠
  6
Continuous
 62
    92
370
    13
100
AcDbLine
 10
-3637.817896424568
 20
-333.0001979518806
 30
0.0
 11
-3637.817896424568
 21
-237.0001979518818
 31
0.0
  0
LINE
  5
2A1
330
1F
100
AcDbEntity
  8
0-C_ハッチ
  6
Continuous
 62
   120
370
     5
100
AcDbLine
 10
-3687.8118485013
 20
-237.0001979518818
 30
0.0
 11
-3603.811848501299
 21
-153.0001979518806
 31
0.0
  0
LINE
  5
2A2
330
1F
100
AcDbEntity
  8
0-C_ハッチ
  6
Continuous
 62
   120
370
     5
100
AcDbLine
 10
-3806.605787740649
 20
-237.0001979518818
 30
0.0
 11
-3722.605787740643
 21
-153.0001979518806
 31
0.0
  0
LINE
  5
2A3
330
1F
100
AcDbEntity
  8
0-C_ハッチ
  6
Continuous
 62
   120
370
     5
100
AcDbLine
 10
-3747.208818120947
 20
-237.0001979518818
 30
0.0
 11
-3663.208818120941
 21
-153.0001979518806
 31
0.0
  0
LINE
  5
2A4
330
1F
100
AcDbEntity
  8
0-4_枠
  6
Continuous
 62
    92
370
    13
100
AcDbLine
 10
-4153.21789642457
 20
-333.0001979518806
 30
0.0
 11
-4153.21789642457
 21
-153.0001979518806
 31
0.0
  0
LINE
  5
2A5
330
1F
100
AcDbEntity
  8
0-4_枠
  6
Continuous
 62
    92
370
    13
100
AcDbLine
 10
-4150.218331300061
 20
-330.0001979518834
 30
0.0
 11
-4150.218331300061
 21
-156.0001979518805
 31
0.0
  0
LINE
  5
2A6
330
1F
100
AcDbEntity
  8
0-4_枠
  6
Continuous
 62
   120
370
     5
100
AcDbLine
 10
-4177.217896424572
 20
-153.0001979518806
 30
0.0
 11
-4153.21789642457
 21
-153.0001979518806
 31
0.0
  0
LINE
  5
2A7
330
1F
100
AcDbEntity
  8
0-4_枠
  6
Continuous
 62
   120
370
     5
100
AcDbLine
 10
-4177.217896424572
 20
-1599.000197951875
 30
0.0
 11
-4177.217896424572
 21
-2781.00040421394
 31
0.0
  0
LINE
  5
2A8
330
1F
100
AcDbEntity
  8
0-4_枠
  6
Continuous
 62
   120
370
     5
100
AcDbLine
 10
-4177.217896424572
 20
-153.0001979518806
 30
0.0
 11
-4177.217896424572
 21
-1479.000197951875
 31
0.0
  0
LINE
  5
2A9
330
1F
100
AcDbEntity
  8
0-4_枠
  6
Continuous
 62
    92
370
    13
100
AcDbLine
 10
-3526.218056641856
 20
-330.0001979518834
 30
0.0
 11
-3637.817896424568
 21
-330.0001979518834
 31
0.0
  0
LINE
  5
2AA
330
1F
100
AcDbEntity
  8
0-4_枠
  6
Continuous
 62
    92
370
    13
100
AcDbLine
 10
-3523.21789642457
 20
-333.0001979518806
 30
0.0
 11
-3637.817896424568
 21
-333.0001979518806
 31
0.0
  0
LINE
  5
2AB
330
1F
100
AcDbEntity
  8
0-4_枠
  6
Continuous
 62
    92
370
    13
100
AcDbLine
 10
-3523.21789642457
 20
-333.0001979518806
 30
0.0
 11
-3523.21789642457
 21
-153.0001979518806
 31
0.0
  0
LINE
  5
2AC
330
1F
100
AcDbEntity
  8
0-4_枠
  6
Continuous
 62
    92
370
    13
100
AcDbLine
 10
-3526.218056641856
 20
-330.0001979518834
 30
0.0
 11
-3526.218056641856
 21
-156.0001979518805
 31
0.0
  0
LINE
  5
2AD
330
1F
100
AcDbEntity
  8
0-4_枠
  6
Continuous
 62
   120
370
     5
100
AcDbLine
 10
-3499.217896424571
 20
-153.0001979518806
 30
0.0
 11
-3523.21789642457
 21
-153.0001979518806
 31
0.0
  0
LINE
  5
2AE
330
1F
100
AcDbEntity
  8
0-4_枠
  6
Continuous
 62
   120
370
     5
100
AcDbLine
 10
-3499.217896424571
 20
-2781.00040421394
 30
0.0
 11
-3499.217896424571
 21
-1599.000197951875
 31
0.0
  0
LINE
  5
2AF
330
1F
100
AcDbEntity
  8
0-4_枠
  6
Continuous
 62
   120
370
     5
100
AcDbLine
 10
-3499.217896424571
 20
-1479.000197951875
 30
0.0
 11
-3499.217896424571
 21
-153.0001979518806
 31
0.0
  0
LINE
  5
2B0
330
1F
100
AcDbEntity
  8
0-4_枠
  6
Continuous
 62
    92
370
    13
100
AcDbLine
 10
-3523.21789642457
 20
-153.0001979518806
 30
0.0
 11
-4153.21789642457
 21
-153.0001979518806
 31
0.0
  0
LINE
  5
2B1
330
1F
100
AcDbEntity
  8
0-4_枠
  6
Continuous
 62
    92
370
    13
100
AcDbLine
 10
-4093.21789642457
 20
-156.0001979518805
 30
0.0
 11
-4150.218331300061
 21
-156.0001979518805
 31
0.0
  0
LINE
  5
2B2
330
1F
100
AcDbEntity
  8
0-4_枠
  6
Continuous
 62
    92
370
    13
100
AcDbLine
 10
-4093.21789642457
 20
-156.0001979518805
 30
0.0
 11
-4093.21789642457
 21
-153.0001979518806
 31
0.0
  0
LINE
  5
2B3
330
1F
100
AcDbEntity
  8
0-4_枠
  6
Continuous
 62
    92
370
    13
100
AcDbLine
 10
-3583.21789642457
 20
-156.0001979518805
 30
0.0
 11
-3583.21789642457
 21
-153.0001979518806
 31
0.0
  0
LINE
  5
2B4
330
1F
100
AcDbEntity
  8
0-4_枠
  6
Continuous
 62
    92
370
    13
100
AcDbLine
 10
-3583.21789642457
 20
-156.0001979518805
 30
0.0
 11
-3526.218056641856
 21
-156.0001979518805
 31
0.0
  0
LINE
  5
2B5
330
1F
100
AcDbEntity
  8
0-C_ハッチ
  6
Continuous
 62
   120
370
     5
100
AcDbLine
 10
-4150.218331300061
 20
-164.8339541736527
 30
0.0
 11
-4141.384575078288
 21
-156.0001979518805
 31
0.0
  0
LINE
  5
2B6
330
1F
100
AcDbEntity
  8
0-C_ハッチ
  6
Continuous
 62
   120
370
     5
100
AcDbLine
 10
-4150.218331300061
 20
-283.6278934129498
 30
0.0
 11
-4019.590635838988
 21
-153.0001979518806
 31
0.0
  0
LINE
  5
2B7
330
1F
100
AcDbEntity
  8
0-C_ハッチ
  6
Continuous
 62
   120
370
     5
100
AcDbLine
 10
-4150.218331300061
 20
-224.2309237933
 30
0.0
 11
-4078.987605458642
 21
-153.0001979518806
 31
0.0
  0
LINE
  5
2B8
330
1F
100
AcDbEntity
  8
0-C_ハッチ
  6
Continuous
 62
   120
370
     5
100
AcDbLine
 10
-3637.817896424568
 20
-305.8001851145036
 30
0.0
 11
-3526.218056641856
 21
-194.2003453317878
 31
0.0
  0
LINE
  5
2B9
330
1F
100
AcDbEntity
  8
0-C_ハッチ
  6
Continuous
 62
   120
370
     5
100
AcDbLine
 10
-3543.223970022605
 20
-330.0001979518902
 30
0.0
 11
-3526.218056641856
 21
-312.9942845711412
 31
0.0
  0
LINE
  5
2BA
330
1F
100
AcDbEntity
  8
0-C_ハッチ
  6
Continuous
 62
   120
370
     5
100
AcDbLine
 10
-3526.218056641856
 20
-253.5973149514965
 30
0.0
 11
-3602.620939642239
 21
-330.0001979518791
 31
0.0
  0
LINE
  5
2BB
330
1F
100
AcDbEntity
  8
0-C_ハッチ
  6
Continuous
 62
   120
370
     5
100
AcDbLine
 10
-3637.817896424568
 20
-246.4032154948563
 30
0.0
 11
-3547.414878881596
 21
-156.0001979518805
 31
0.0
  0
LINE
  5
2BC
330
1F
100
AcDbEntity
  8
0-B_寸法
  6
Continuous
 62
   120
370
     5
100
AcDbLine
 10
-4153.21789642457
 20
-868.8251942929787
 30
0.0
 11
-4153.21789642457
 21
-724.4757610185004
 31
0.0
  0
LWPOLYLINE
  5
2BD
330
1F
100
AcDbEntity
  8
0-B_寸法
  6
Continuous
 62
     7
370
     9
100
AcDbPolyline
 90
        4
 70
     1
 43
3.0
 10
-4151.71789642457
 20
-868.8251942929787
 42
0.4142135623731
 10
-4153.21789642457
 20
-867.3251942929787
 42
0.4142135623731
 10
-4154.71789642457
 20
-868.8251942929787
 42
0.4142135623731
 10
-4153.21789642457
 20
-870.3251942929787
 42
0.4142135623731
  0
LINE
  5
2BE
330
1F
100
AcDbEntity
  8
0-B_寸法
  6
Continuous
 62
   120
370
     5
100
AcDbLine
 10
-3523.21789642457
 20
-868.8251942929787
 30
0.0
 11
-3523.21789642457
 21
-745.475761018495
 31
0.0
  0
LWPOLYLINE
  5
2BF
330
1F
100
AcDbEntity
  8
0-B_寸法
  6
Continuous
 62
     7
370
     9
100
AcDbPolyline
 90
        4
 70
     1
 43
3.0
 10
-3521.71789642457
 20
-868.8251942929787
 42
0.4142135623731
 10
-3523.21789642457
 20
-867.3251942929787
 42
0.4142135623731
 10
-3524.71789642457
 20
-868.8251942929787
 42
0.4142135623731
 10
-3523.21789642457
 20
-870.3251942929787
 42
0.4142135623731
  0
LINE
  5
2C0
330
1F
100
AcDbEntity
  8
0-B_寸法
  6
Continuous
 62
   120
370
     5
100
AcDbLine
 10
-4153.21789642457
 20
-868.8251942929787
 30
0.0
 11
-3523.21789642457
 21
-868.8251942929787
 31
0.0
  0
LINE
  5
2C1
330
1F
100
AcDbEntity
  8
0-0_補助線
  6
JWW_HOJO
 62
   120
370
     5
100
AcDbLine
 10
-4303.217896424576
 20
-1479.000197951875
 30
0.0
 11
-3373.217896424572
 21
-1479.000197951875
 31
0.0
  0
LINE
  5
2C2
330
1F
100
AcDbEntity
  8
0-0_補助線
  6
JWW_HOJO
 62
   120
370
     5
100
AcDbLine
 10
-4303.217896424576
 20
-1599.000197951875
 30
0.0
 11
-3373.217896424572
 21
-1599.000197951875
 31
0.0
  0
CIRCLE
  5
2C3
330
1F
100
AcDbEntity
  8
0-7_金物
  6
Continuous
 62
     7
370
     9
100
AcDbCircle
 10
-3724.213020387185
 20
-474.0001969242202
 30
0.0
 40
29.99999980237253
  0
ARC
  5
2C4
330
1F
100
AcDbEntity
  8
0-7_金物
  6
Continuous
 62
     7
370
     9
100
AcDbCircle
 10
-3724.213020387185
 20
-623.400195940036
 30
0.0
 40
41.39999972727429
100
AcDbArc
 50
180.0
 51
0.0
  0
LINE
  5
2C5
330
1F
100
AcDbEntity
  8
0-7_金物
  6
Continuous
 62
     7
370
     9
100
AcDbLine
 10
-3727.331361271675
 20
-554.8818554863717
 30
0.0
 11
-3738.913020290346
 21
-555.0840140965203
 31
0.0
  0
LINE
  5
2C6
330
1F
100
AcDbEntity
  8
0-7_金物
  6
Continuous
 62
     7
370
     9
100
AcDbLine
 10
-3727.331361271675
 20
-561.1185372553531
 30
0.0
 11
-3738.913020290346
 21
-560.9163786452073
 31
0.0
  0
LINE
  5
2C7
330
1F
100
AcDbEntity
  8
0-7_金物
  6
Continuous
 62
     7
370
     9
100
AcDbLine
 10
-3738.913020290346
 20
-555.0840140965203
 30
0.0
 11
-3738.913020290346
 21
-560.9163786452073
 31
0.0
  0
LINE
  5
2C8
330
1F
100
AcDbEntity
  8
0-7_金物
  6
Continuous
 62
     7
370
     9
100
AcDbLine
 10
-3727.331361271675
 20
-561.1185372553531
 30
0.0
 11
-3727.129202661527
 21
-572.7001962740256
 31
0.0
  0
LINE
  5
2C9
330
1F
100
AcDbEntity
  8
0-7_金物
  6
Continuous
 62
     7
370
     9
100
AcDbLine
 10
-3721.094679502694
 20
-561.1185372553531
 30
0.0
 11
-3721.296838112841
 21
-572.7001962740256
 31
0.0
  0
LINE
  5
2CA
330
1F
100
AcDbEntity
  8
0-7_金物
  6
Continuous
 62
     7
370
     9
100
AcDbLine
 10
-3727.129202661527
 20
-572.7001962740256
 30
0.0
 11
-3721.296838112841
 21
-572.7001962740256
 31
0.0
  0
LINE
  5
2CB
330
1F
100
AcDbEntity
  8
0-7_金物
  6
Continuous
 62
     7
370
     9
100
AcDbLine
 10
-3721.094679502694
 20
-561.1185372553531
 30
0.0
 11
-3709.513020484022
 21
-560.9163786452073
 31
0.0
  0
LINE
  5
2CC
330
1F
100
AcDbEntity
  8
0-7_金物
  6
Continuous
 62
     7
370
     9
100
AcDbLine
 10
-3721.094679502694
 20
-554.8818554863717
 30
0.0
 11
-3709.513020484022
 21
-555.0840140965203
 31
0.0
  0
LINE
  5
2CD
330
1F
100
AcDbEntity
  8
0-7_金物
  6
Continuous
 62
     7
370
     9
100
AcDbLine
 10
-3709.513020484022
 20
-560.9163786452073
 30
0.0
 11
-3709.513020484022
 21
-555.0840140965203
 31
0.0
  0
LINE
  5
2CE
330
1F
100
AcDbEntity
  8
0-7_金物
  6
Continuous
 62
     7
370
     9
100
AcDbLine
 10
-3721.094679502694
 20
-554.8818554863717
 30
0.0
 11
-3721.296838112841
 21
-543.3001964676997
 31
0.0
  0
LINE
  5
2CF
330
1F
100
AcDbEntity
  8
0-7_金物
  6
Continuous
 62
     7
370
     9
100
AcDbLine
 10
-3727.331361271675
 20
-554.8818554863717
 30
0.0
 11
-3727.129202661527
 21
-543.3001964676997
 31
0.0
  0
LINE
  5
2D0
330
1F
100
AcDbEntity
  8
0-7_金物
  6
Continuous
 62
     7
370
     9
100
AcDbLine
 10
-3721.296838112841
 20
-543.3001964676997
 30
0.0
 11
-3727.129202661527
 21
-543.3001964676997
 31
0.0
  0
LINE
  5
2D1
330
1F
100
AcDbEntity
  8
0-7_金物
  6
Continuous
 62
     7
370
     9
100
AcDbLine
 10
-3727.331361271675
 20
-470.8818560397289
 30
0.0
 11
-3738.913020290346
 21
-471.0840146498774
 31
0.0
  0
LINE
  5
2D2
330
1F
100
AcDbEntity
  8
0-7_金物
  6
Continuous
 62
     7
370
     9
100
AcDbLine
 10
-3727.331361271675
 20
-477.1185378087102
 30
0.0
 11
-3738.913020290346
 21
-476.9163791985622
 31
0.0
  0
LINE
  5
2D3
330
1F
100
AcDbEntity
  8
0-7_金物
  6
Continuous
 62
     7
370
     9
100
AcDbLine
 10
-3738.913020290346
 20
-471.0840146498774
 30
0.0
 11
-3738.913020290346
 21
-476.9163791985622
 31
0.0
  0
LINE
  5
2D4
330
1F
100
AcDbEntity
  8
0-7_金物
  6
Continuous
 62
     7
370
     9
100
AcDbLine
 10
-3727.331361271675
 20
-477.1185378087102
 30
0.0
 11
-3727.129202661527
 21
-488.7001968273827
 31
0.0
  0
LINE
  5
2D5
330
1F
100
AcDbEntity
  8
0-7_金物
  6
Continuous
 62
     7
370
     9
100
AcDbLine
 10
-3721.094679502694
 20
-477.1185378087102
 30
0.0
 11
-3721.296838112841
 21
-488.7001968273827
 31
0.0
  0
LINE
  5
2D6
330
1F
100
AcDbEntity
  8
0-7_金物
  6
Continuous
 62
     7
370
     9
100
AcDbLine
 10
-3727.129202661527
 20
-488.7001968273827
 30
0.0
 11
-3721.296838112841
 21
-488.7001968273827
 31
0.0
  0
LINE
  5
2D7
330
1F
100
AcDbEntity
  8
0-7_金物
  6
Continuous
 62
     7
370
     9
100
AcDbLine
 10
-3721.094679502694
 20
-477.1185378087102
 30
0.0
 11
-3709.513020484022
 21
-476.9163791985622
 31
0.0
  0
LINE
  5
2D8
330
1F
100
AcDbEntity
  8
0-7_金物
  6
Continuous
 62
     7
370
     9
100
AcDbLine
 10
-3721.094679502694
 20
-470.8818560397289
 30
0.0
 11
-3709.513020484022
 21
-471.0840146498774
 31
0.0
  0
LINE
  5
2D9
330
1F
100
AcDbEntity
  8
0-7_金物
  6
Continuous
 62
     7
370
     9
100
AcDbLine
 10
-3709.513020484022
 20
-476.9163791985622
 30
0.0
 11
-3709.513020484022
 21
-471.0840146498774
 31
0.0
  0
LINE
  5
2DA
330
1F
100
AcDbEntity
  8
0-7_金物
  6
Continuous
 62
     7
370
     9
100
AcDbLine
 10
-3721.094679502694
 20
-470.8818560397289
 30
0.0
 11
-3721.296838112841
 21
-459.3001970210581
 31
0.0
  0
LINE
  5
2DB
330
1F
100
AcDbEntity
  8
0-7_金物
  6
Continuous
 62
     7
370
     9
100
AcDbLine
 10
-3727.331361271675
 20
-470.8818560397289
 30
0.0
 11
-3727.129202661527
 21
-459.3001970210581
 31
0.0
  0
LINE
  5
2DC
330
1F
100
AcDbEntity
  8
0-7_金物
  6
Continuous
 62
     7
370
     9
100
AcDbLine
 10
-3721.296838112841
 20
-459.3001970210581
 30
0.0
 11
-3727.129202661527
 21
-459.3001970210581
 31
0.0
  0
LINE
  5
2DD
330
1F
100
AcDbEntity
  8
0-7_金物
  6
Continuous
 62
     7
370
     9
100
AcDbLine
 10
-3690.27189511382
 20
-546.0001964499144
 30
0.0
 11
-3679.213020683626
 21
-558.000196370863
 31
0.0
  0
LINE
  5
2DE
330
1F
100
AcDbEntity
  8
0-7_金物
  6
Continuous
 62
     7
370
     9
100
AcDbLine
 10
-3685.813020640149
 20
-558.000196370863
 30
0.0
 11
-3679.213020683626
 21
-558.000196370863
 31
0.0
  0
LINE
  5
2DF
330
1F
100
AcDbEntity
  8
0-7_金物
  6
Continuous
 62
     7
370
     9
100
AcDbLine
 10
-3762.613020134221
 20
-558.000196370863
 30
0.0
 11
-3769.213020090744
 21
-558.000196370863
 31
0.0
  0
LINE
  5
2E0
330
1F
100
AcDbEntity
  8
0-7_金物
  6
Continuous
 62
     7
370
     9
100
AcDbLine
 10
-3758.154145660547
 20
-546.0001964499144
 30
0.0
 11
-3769.213020090744
 21
-558.000196370863
 31
0.0
  0
LINE
  5
2E1
330
1F
100
AcDbEntity
  8
0-7_金物
  6
Continuous
 62
     7
370
     9
100
AcDbLine
 10
-3762.613020134221
 20
-474.0001969242202
 30
0.0
 11
-3769.213020090744
 21
-474.0001969242202
 31
0.0
  0
LINE
  5
2E2
330
1F
100
AcDbEntity
  8
0-7_金物
  6
Continuous
 62
     7
370
     9
100
AcDbLine
 10
-3758.154145660547
 20
-462.0001970032715
 30
0.0
 11
-3769.213020090744
 21
-474.0001969242202
 31
0.0
  0
LINE
  5
2E3
330
1F
100
AcDbEntity
  8
0-7_金物
  6
Continuous
 62
     7
370
     9
100
AcDbLine
 10
-3690.27189511382
 20
-462.0001970032715
 30
0.0
 11
-3679.213020683626
 21
-474.0001969242202
 31
0.0
  0
LINE
  5
2E4
330
1F
100
AcDbEntity
  8
0-7_金物
  6
Continuous
 62
     7
370
     9
100
AcDbLine
 10
-3747.613020233035
 20
-507.0001967068285
 30
0.0
 11
-3747.613020233035
 21
-510.0001966870681
 31
0.0
  0
LINE
  5
2E5
330
1F
100
AcDbEntity
  8
0-7_金物
  6
Continuous
 62
     7
370
     9
100
AcDbLine
 10
-3765.613020114457
 20
-501.0001967463543
 30
0.0
 11
-3765.613020114457
 21
-516.000196647541
 31
0.0
  0
ARC
  5
2E6
330
1F
100
AcDbEntity
  8
0-7_金物
  6
Continuous
 62
     7
370
     9
100
AcDbCircle
 10
-3753.613020193509
 20
-510.0001966870681
 30
0.0
 40
5.999999960474506
100
AcDbArc
 50
270.0
 51
0.0
  0
ARC
  5
2E7
330
1F
100
AcDbEntity
  8
0-7_金物
  6
Continuous
 62
     7
370
     9
100
AcDbCircle
 10
-3753.613020193509
 20
-507.0001967068285
 30
0.0
 40
5.999999960474506
100
AcDbArc
 50
0.0
 51
90.0
  0
LINE
  5
2E8
330
1F
100
AcDbEntity
  8
0-7_金物
  6
Continuous
 62
     7
370
     9
100
AcDbLine
 10
-3753.613020193509
 20
-516.000196647541
 30
0.0
 11
-3765.613020114457
 21
-516.000196647541
 31
0.0
  0
LINE
  5
2E9
330
1F
100
AcDbEntity
  8
0-7_金物
  6
Continuous
 62
     7
370
     9
100
AcDbLine
 10
-3753.613020193509
 20
-501.0001967463543
 30
0.0
 11
-3765.613020114457
 21
-501.0001967463543
 31
0.0
  0
ARC
  5
2EA
330
1F
100
AcDbEntity
  8
0-7_金物
  6
Continuous
 62
     7
370
     9
100
AcDbCircle
 10
-3694.813020580859
 20
-510.0001966870681
 30
0.0
 40
5.999999960474506
100
AcDbArc
 50
180.0
 51
270.0
  0
ARC
  5
2EB
330
1F
100
AcDbEntity
  8
0-7_金物
  6
Continuous
 62
     7
370
     9
100
AcDbCircle
 10
-3694.813020580859
 20
-507.0001967068285
 30
0.0
 40
5.999999960474506
100
AcDbArc
 50
90.0
 51
180.0
  0
LINE
  5
2EC
330
1F
100
AcDbEntity
  8
0-7_金物
  6
Continuous
 62
     7
370
     9
100
AcDbLine
 10
-3700.813020541333
 20
-507.0001967068285
 30
0.0
 11
-3700.813020541333
 21
-510.0001966870681
 31
0.0
  0
LINE
  5
2ED
330
1F
100
AcDbEntity
  8
0-7_金物
  6
Continuous
 62
     7
370
     9
100
AcDbLine
 10
-3682.813020659911
 20
-501.0001967463543
 30
0.0
 11
-3682.813020659911
 21
-516.000196647541
 31
0.0
  0
LINE
  5
2EE
330
1F
100
AcDbEntity
  8
0-7_金物
  6
Continuous
 62
     7
370
     9
100
AcDbLine
 10
-3694.813020580859
 20
-516.000196647541
 30
0.0
 11
-3682.813020659911
 21
-516.000196647541
 31
0.0
  0
LINE
  5
2EF
330
1F
100
AcDbEntity
  8
0-7_金物
  6
Continuous
 62
     7
370
     9
100
AcDbLine
 10
-3694.813020580859
 20
-501.0001967463543
 30
0.0
 11
-3682.813020659911
 21
-501.0001967463543
 31
0.0
  0
LINE
  5
2F0
330
1F
100
AcDbEntity
  8
0-7_金物
  6
Continuous
 62
     7
370
     9
100
AcDbLine
 10
-3742.382224983165
 20
-660.6001956949775
 30
0.0
 11
-3706.043815791202
 21
-660.6001956949775
 31
0.0
  0
LINE
  5
2F1
330
1F
100
AcDbEntity
  8
0-7_金物
  6
Continuous
 62
     7
370
     9
100
AcDbLine
 10
-3762.613020134221
 20
-606.0001960546593
 30
0.0
 11
-3685.813020640149
 21
-606.0001960546593
 31
0.0
  0
LINE
  5
2F2
330
1F
100
AcDbEntity
  8
0-7_金物
  6
Continuous
 62
     7
370
     9
100
AcDbLine
 10
-3745.213020248846
 20
-636.0001958570322
 30
0.0
 11
-3703.213020525523
 21
-636.0001958570322
 31
0.0
  0
LINE
  5
2F3
330
1F
100
AcDbEntity
  8
0-7_金物
  6
Continuous
 62
     7
370
     9
100
AcDbLine
 10
-3745.213020248846
 20
-615.0001959953705
 30
0.0
 11
-3703.213020525523
 21
-615.0001959953705
 31
0.0
  0
ARC
  5
2F4
330
1F
100
AcDbEntity
  8
0-7_金物
  6
Continuous
 62
     7
370
     9
100
AcDbCircle
 10
-3762.613020134221
 20
-600.0001960941838
 30
0.0
 40
5.999999960474506
100
AcDbArc
 50
270.0
 51
0.0
  0
ARC
  5
2F5
330
1F
100
AcDbEntity
  8
0-7_金物
  6
Continuous
 62
     7
370
     9
100
AcDbCircle
 10
-3762.613020134221
 20
-609.0001960348956
 30
0.0
 40
2.999999980237253
100
AcDbArc
 50
90.0
 51
180.0
  0
ARC
  5
2F6
330
1F
100
AcDbEntity
  8
0-7_金物
  6
Continuous
 62
     7
370
     9
100
AcDbCircle
 10
-3750.613020213273
 20
-600.0001960941838
 30
0.0
 40
5.999999960474506
100
AcDbArc
 50
90.0
 51
180.0
  0
ARC
  5
2F7
330
1F
100
AcDbEntity
  8
0-7_金物
  6
Continuous
 62
     7
370
     9
100
AcDbCircle
 10
-3685.813020640149
 20
-609.0001960348956
 30
0.0
 40
2.999999980237253
100
AcDbArc
 50
0.0
 51
90.0
  0
ARC
  5
2F8
330
1F
100
AcDbEntity
  8
0-7_金物
  6
Continuous
 62
     7
370
     9
100
AcDbCircle
 10
-3685.813020640149
 20
-600.0001960941838
 30
0.0
 40
5.999999960474506
100
AcDbArc
 50
180.0
 51
270.0
  0
ARC
  5
2F9
330
1F
100
AcDbEntity
  8
0-7_金物
  6
Continuous
 62
     7
370
     9
100
AcDbCircle
 10
-3697.813020561097
 20
-600.0001960941838
 30
0.0
 40
5.999999960474506
100
AcDbArc
 50
0.0
 51
90.0
  0
LINE
  5
2FA
330
1F
100
AcDbEntity
  8
0-7_金物
  6
Continuous
 62
     7
370
     9
100
AcDbLine
 10
-3703.213020525523
 20
-659.0787606985643
 30
0.0
 11
-3703.213020525523
 21
-615.0001959953705
 31
0.0
  0
LINE
  5
2FB
330
1F
100
AcDbEntity
  8
0-7_金物
  6
Continuous
 62
     7
370
     9
100
AcDbLine
 10
-3745.213020248846
 20
-659.0787606985643
 30
0.0
 11
-3745.213020248846
 21
-615.0001959953705
 31
0.0
  0
LINE
  5
2FC
330
1F
100
AcDbEntity
  8
0-7_金物
  6
Continuous
 62
     7
370
     9
100
AcDbLine
 10
-3682.813020659911
 20
-623.400195940036
 30
0.0
 11
-3682.813020659911
 21
-609.0001960348956
 31
0.0
  0
LINE
  5
2FD
330
1F
100
AcDbEntity
  8
0-7_金物
  6
Continuous
 62
     7
370
     9
100
AcDbLine
 10
-3765.613020114457
 20
-623.400195940036
 30
0.0
 11
-3765.613020114457
 21
-609.0001960348956
 31
0.0
  0
LINE
  5
2FE
330
1F
100
AcDbEntity
  8
0-7_金物
  6
Continuous
 62
     7
370
     9
100
AcDbLine
 10
-3750.613020213273
 20
-594.0001961337101
 30
0.0
 11
-3697.813020561097
 21
-594.0001961337101
 31
0.0
  0
ARC
  5
2FF
330
1F
100
AcDbEntity
  8
0-7_金物
  6
Continuous
 62
     7
370
     9
100
AcDbCircle
 10
-3688.813020620385
 20
-423.0001972601869
 30
0.0
 40
5.999999960474506
100
AcDbArc
 50
270.0
 51
0.0
  0
ARC
  5
300
330
1F
100
AcDbEntity
  8
0-7_金物
  6
Continuous
 62
     7
370
     9
100
AcDbCircle
 10
-3759.613020153984
 20
-423.0001972601869
 30
0.0
 40
5.999999960474506
100
AcDbArc
 50
180.0
 51
270.0
  0
LINE
  5
301
330
1F
100
AcDbEntity
  8
0-7_金物
  6
Continuous
 62
     7
370
     9
100
AcDbLine
 10
-3682.813020659911
 20
-414.000197319474
 30
0.0
 11
-3682.813020659911
 21
-423.0001972601869
 31
0.0
  0
LINE
  5
302
330
1F
100
AcDbEntity
  8
0-7_金物
  6
Continuous
 62
     7
370
     9
100
AcDbLine
 10
-3765.613020114457
 20
-414.000197319474
 30
0.0
 11
-3765.613020114457
 21
-423.0001972601869
 31
0.0
  0
CIRCLE
  5
303
330
1F
100
AcDbEntity
  8
0-7_金物
  6
Continuous
 62
     7
370
     9
100
AcDbCircle
 10
-3724.213020387185
 20
-558.000196370863
 30
0.0
 40
29.99999980237253
  0
LINE
  5
304
330
1F
100
AcDbEntity
  8
0-7_金物
  6
Continuous
 62
     7
370
     9
100
AcDbLine
 10
-3759.613020153984
 20
-429.0001972206607
 30
0.0
 11
-3688.813020620385
 21
-429.0001972206607
 31
0.0
  0
LINE
  5
305
330
1F
100
AcDbEntity
  8
0-7_金物
  6
Continuous
 62
     7
370
     9
100
AcDbLine
 10
-3685.813020640149
 20
-474.0001969242202
 30
0.0
 11
-3679.213020683626
 21
-474.0001969242202
 31
0.0
  0
LINE
  5
306
330
1F
100
AcDbEntity
  8
0-7_金物
  6
Continuous
 62
     7
370
     9
100
AcDbLine
 10
-3771.613020074934
 20
-414.000197319474
 30
0.0
 11
-3771.613020074934
 21
-623.400195940036
 31
0.0
  0
LINE
  5
307
330
1F
100
AcDbEntity
  8
0-7_金物
  6
Continuous
 62
     7
370
     9
100
AcDbLine
 10
-3676.813020699435
 20
-414.000197319474
 30
0.0
 11
-3676.813020699435
 21
-623.400195940036
 31
0.0
  0
ARC
  5
308
330
1F
100
AcDbEntity
  8
0-7_金物
  6
Continuous
 62
     7
370
     9
100
AcDbCircle
 10
-3724.213020387185
 20
-624.6001959321304
 30
0.0
 40
47.3999996877486
100
AcDbArc
 50
180.0
 51
0.0
  0
ARC
  5
309
330
1F
100
AcDbEntity
  8
0-7_金物
  6
Continuous
 62
     7
370
     9
100
AcDbCircle
 10
-3724.213020387185
 20
-558.000196370863
 30
0.0
 40
38.39999974703684
100
AcDbArc
 50
341.7900431357177
 51
12.17573410274985
  0
ARC
  5
30A
330
1F
100
AcDbEntity
  8
0-7_金物
  6
Continuous
 62
     7
370
     9
100
AcDbCircle
 10
-3724.213020387185
 20
-558.000196370863
 30
0.0
 40
38.39999974703684
100
AcDbArc
 50
167.8242658972536
 51
198.2099568642824
  0
ARC
  5
30B
330
1F
100
AcDbEntity
  8
0-7_金物
  6
Continuous
 62
     7
370
     9
100
AcDbCircle
 10
-3724.213020387185
 20
-474.0001969242202
 30
0.0
 40
38.39999974703684
100
AcDbArc
 50
167.8242658972536
 51
198.2099568642824
  0
ARC
  5
30C
330
1F
100
AcDbEntity
  8
0-7_金物
  6
Continuous
 62
     7
370
     9
100
AcDbCircle
 10
-3724.213020387185
 20
-474.0001969242202
 30
0.0
 40
38.39999974703684
100
AcDbArc
 50
341.7900431357177
 51
12.17573410274985
  0
LINE
  5
30D
330
1F
100
AcDbEntity
  8
0-7_金物
  6
Continuous
 62
     7
370
     9
100
AcDbLine
 10
-3771.357221783573
 20
-414.000197319474
 30
0.0
 11
-3676.557222408074
 21
-414.000197319474
 31
0.0
  0
LINE
  5
30E
330
1F
100
AcDbEntity
  8
0-7_金物
  6
Continuous
 62
     7
370
     9
100
AcDbLine
 10
-3748.217895713111
 20
-376.8001970309365
 30
0.0
 11
-3748.217895713111
 21
-382.8001969914115
 31
0.0
  0
LINE
  5
30F
330
1F
100
AcDbEntity
  8
0-7_金物
  6
Continuous
 62
     7
370
     9
100
AcDbLine
 10
-3700.217896029316
 20
-376.8001970309365
 30
0.0
 11
-3748.217895713111
 21
-376.8001970309365
 31
0.0
  0
LINE
  5
310
330
1F
100
AcDbEntity
  8
0-7_金物
  6
Continuous
 62
     7
370
     9
100
AcDbLine
 10
-3700.217896029316
 20
-376.8001970309365
 30
0.0
 11
-3700.217896029316
 21
-382.8001969914115
 31
0.0
  0
LINE
  5
311
330
1F
100
AcDbEntity
  8
0-7_金物
  6
Continuous
 62
     7
370
     9
100
AcDbLine
 10
-3748.217895713111
 20
-382.8001969914115
 30
0.0
 11
-3700.217896029316
 21
-382.8001969914115
 31
0.0
  0
LINE
  5
312
330
1F
100
AcDbEntity
  8
0-7_金物
  6
Continuous
 62
     7
370
     9
100
AcDbLine
 10
-3693.617896072793
 20
-339.0001972799485
 30
0.0
 11
-3693.617896072793
 21
-315.0001974380497
 31
0.0
  0
LINE
  5
313
330
1F
100
AcDbEntity
  8
0-7_金物
  6
Continuous
 62
     7
370
     9
100
AcDbLine
 10
-3693.617896072793
 20
-291.000197596153
 30
0.0
 11
-3693.617896072793
 21
-315.000197438051
 31
0.0
  0
ARC
  5
314
330
1F
100
AcDbEntity
  8
0-7_金物
  6
Continuous
 62
     7
370
     9
100
AcDbCircle
 10
-3703.217896009552
 20
-288.0001976159156
 30
0.0
 40
5.999999960474506
100
AcDbArc
 50
0.0
 51
90.0
  0
ARC
  5
315
330
1F
100
AcDbEntity
  8
0-7_金物
  6
Continuous
 62
     7
370
     9
100
AcDbCircle
 10
-3703.217896009552
 20
-351.0001972008976
 30
0.0
 40
5.999999960474506
100
AcDbArc
 50
270.0
 51
0.0
  0
LINE
  5
316
330
1F
100
AcDbEntity
  8
0-7_金物
  6
Continuous
 62
     7
370
     9
100
AcDbLine
 10
-3703.217896009552
 20
-357.0001971613701
 30
0.0
 11
-3724.217895871214
 21
-357.0001971613701
 31
0.0
  0
LINE
  5
317
330
1F
100
AcDbEntity
  8
0-7_金物
  6
Continuous
 62
     7
370
     9
100
AcDbLine
 10
-3697.217896049078
 20
-351.0001972008976
 30
0.0
 11
-3697.217896049078
 21
-342.0001972601859
 31
0.0
  0
LINE
  5
318
330
1F
100
AcDbEntity
  8
0-7_金物
  6
Continuous
 62
     7
370
     9
100
AcDbLine
 10
-3694.21789606884
 20
-339.0001972799485
 30
0.0
 11
-3693.617896072793
 21
-339.0001972799485
 31
0.0
  0
LINE
  5
319
330
1F
100
AcDbEntity
  8
0-7_金物
  6
Continuous
 62
     7
370
     9
100
AcDbLine
 10
-3694.21789606884
 20
-291.000197596153
 30
0.0
 11
-3693.617896072793
 21
-291.000197596153
 31
0.0
  0
LINE
  5
31A
330
1F
100
AcDbEntity
  8
0-7_金物
  6
Continuous
 62
     7
370
     9
100
AcDbLine
 10
-3654.617896329707
 20
-363.0001971218463
 30
0.0
 11
-3654.617896329707
 21
-267.000197754253
 31
0.0
  0
ARC
  5
31B
330
1F
100
AcDbEntity
  8
0-7_金物
  6
Continuous
 62
     7
370
     9
100
AcDbCircle
 10
-3694.21789606884
 20
-288.0001976159156
 30
0.0
 40
2.999999980237253
100
AcDbArc
 50
180.0
 51
270.0
  0
ARC
  5
31C
330
1F
100
AcDbEntity
  8
0-7_金物
  6
Continuous
 62
     7
370
     9
100
AcDbCircle
 10
-3694.21789606884
 20
-342.0001972601859
 30
0.0
 40
2.999999980237253
100
AcDbArc
 50
90.0
 51
180.0
  0
LINE
  5
31D
330
1F
100
AcDbEntity
  8
0-7_金物
  6
Continuous
 62
     7
370
     9
100
AcDbLine
 10
-3703.217896009552
 20
-282.0001976554397
 30
0.0
 11
-3724.217895871214
 21
-282.0001976554397
 31
0.0
  0
LINE
  5
31E
330
1F
100
AcDbEntity
  8
0-7_金物
  6
Continuous
 62
     7
370
     9
100
AcDbLine
 10
-3706.21789598979
 20
-375.0001970427942
 30
0.0
 11
-3706.21789598979
 21
-376.8001970309365
 31
0.0
  0
LINE
  5
31F
330
1F
100
AcDbEntity
  8
0-7_金物
  6
Continuous
 62
     7
370
     9
100
AcDbLine
 10
-3690.617896092556
 20
-315.0001974380497
 30
0.0
 11
-3690.617896092556
 21
-363.0001971218463
 31
0.0
  0
LINE
  5
320
330
1F
100
AcDbEntity
  8
0-7_金物
  6
Continuous
 62
     7
370
     9
100
AcDbLine
 10
-3690.617896092556
 20
-339.0001972799485
 30
0.0
 11
-3692.417896080699
 21
-339.0001972799485
 31
0.0
  0
LINE
  5
321
330
1F
100
AcDbEntity
  8
0-7_金物
  6
Continuous
 62
     7
370
     9
100
AcDbLine
 10
-3690.617896092556
 20
-291.000197596153
 30
0.0
 11
-3692.417896080699
 21
-291.000197596153
 31
0.0
  0
LINE
  5
322
330
1F
100
AcDbEntity
  8
0-7_金物
  6
Continuous
 62
     7
370
     9
100
AcDbLine
 10
-3693.617896072792
 20
-331.2001973313307
 30
0.0
 11
-3692.417896080699
 21
-330.0001973392364
 31
0.0
  0
LINE
  5
323
330
1F
100
AcDbEntity
  8
0-7_金物
  6
Continuous
 62
     7
370
     9
100
AcDbLine
 10
-3692.417896080699
 20
-300.000197536863
 30
0.0
 11
-3693.617896072792
 21
-298.8001975447673
 31
0.0
  0
LINE
  5
324
330
1F
100
AcDbEntity
  8
0-7_金物
  6
Continuous
 62
     7
370
     9
100
AcDbLine
 10
-3690.617896092556
 20
-330.0001973392364
 30
0.0
 11
-3693.617896072793
 21
-330.0001973392364
 31
0.0
  0
LINE
  5
325
330
1F
100
AcDbEntity
  8
0-7_金物
  6
Continuous
 62
     7
370
     9
100
AcDbLine
 10
-3690.617896092556
 20
-300.000197536863
 30
0.0
 11
-3693.617896072792
 21
-300.000197536863
 31
0.0
  0
LINE
  5
326
330
1F
100
AcDbEntity
  8
0-7_金物
  6
Continuous
 62
     7
370
     9
100
AcDbLine
 10
-3693.617896072792
 20
-337.8001972878532
 30
0.0
 11
-3692.417896080699
 21
-339.0001972799485
 31
0.0
  0
LINE
  5
327
330
1F
100
AcDbEntity
  8
0-7_金物
  6
Continuous
 62
     7
370
     9
100
AcDbLine
 10
-3693.617896072792
 20
-292.2001975882449
 30
0.0
 11
-3692.417896080699
 21
-291.000197596153
 31
0.0
  0
ARC
  5
328
330
1F
100
AcDbEntity
  8
0-7_金物
  6
Continuous
 62
     7
370
     9
100
AcDbCircle
 10
-3672.617896211132
 20
-339.0001972799485
 30
0.0
 40
29.99999980237253
100
AcDbArc
 50
233.1301023541541
 51
306.8698976458458
  0
ARC
  5
329
330
1F
100
AcDbEntity
  8
0-7_金物
  6
Continuous
 62
     7
370
     9
100
AcDbCircle
 10
-3672.617896211132
 20
-291.000197596153
 30
0.0
 40
29.99999980237253
100
AcDbArc
 50
53.13010235415425
 51
126.8698976458457
  0
LINE
  5
32A
330
1F
100
AcDbEntity
  8
0-7_金物
  6
Continuous
 62
     7
370
     9
100
AcDbLine
 10
-3690.617896092556
 20
-267.0001977542518
 30
0.0
 11
-3690.617896092556
 21
-315.000197438051
 31
0.0
  0
ARC
  5
32B
330
1F
100
AcDbEntity
  8
0-7_金物
  6
Continuous
 62
     7
370
     9
100
AcDbCircle
 10
-3685.21789612813
 20
-369.0001970823218
 30
0.0
 40
11.99999992094901
100
AcDbArc
 50
116.743683950387
 51
180.0
  0
ARC
  5
32C
330
1F
100
AcDbEntity
  8
0-7_金物
  6
Continuous
 62
     7
370
     9
100
AcDbCircle
 10
-3703.217896009554
 20
-369.0001970823209
 30
0.0
 40
5.999999960474506
100
AcDbArc
 50
270.0
 51
0.0
  0
LINE
  5
32D
330
1F
100
AcDbEntity
  8
0-7_金物
  6
Continuous
 62
     7
370
     9
100
AcDbLine
 10
-3724.217895871214
 20
-375.0001970427942
 30
0.0
 11
-3703.217896009554
 21
-375.0001970427942
 31
0.0
  0
LINE
  5
32E
330
1F
100
AcDbEntity
  8
0-7_金物
  6
Continuous
 62
     7
370
     9
100
AcDbLine
 10
-3754.817895669633
 20
-339.0001972799485
 30
0.0
 11
-3754.817895669633
 21
-315.0001974380497
 31
0.0
  0
LINE
  5
32F
330
1F
100
AcDbEntity
  8
0-7_金物
  6
Continuous
 62
     7
370
     9
100
AcDbLine
 10
-3754.817895669633
 20
-291.000197596153
 30
0.0
 11
-3754.817895669633
 21
-315.000197438051
 31
0.0
  0
ARC
  5
330
330
1F
100
AcDbEntity
  8
0-7_金物
  6
Continuous
 62
     7
370
     9
100
AcDbCircle
 10
-3745.217895732875
 20
-288.0001976159156
 30
0.0
 40
5.999999960474506
100
AcDbArc
 50
90.0
 51
180.0
  0
ARC
  5
331
330
1F
100
AcDbEntity
  8
0-7_金物
  6
Continuous
 62
     7
370
     9
100
AcDbCircle
 10
-3745.217895732875
 20
-351.0001972008976
 30
0.0
 40
5.999999960474506
100
AcDbArc
 50
180.0
 51
270.0
  0
LINE
  5
332
330
1F
100
AcDbEntity
  8
0-7_金物
  6
Continuous
 62
     7
370
     9
100
AcDbLine
 10
-3745.217895732875
 20
-357.0001971613701
 30
0.0
 11
-3724.217895871214
 21
-357.0001971613701
 31
0.0
  0
LINE
  5
333
330
1F
100
AcDbEntity
  8
0-7_金物
  6
Continuous
 62
     7
370
     9
100
AcDbLine
 10
-3751.217895693349
 20
-351.0001972008976
 30
0.0
 11
-3751.217895693349
 21
-342.0001972601859
 31
0.0
  0
LINE
  5
334
330
1F
100
AcDbEntity
  8
0-7_金物
  6
Continuous
 62
     7
370
     9
100
AcDbLine
 10
-3754.217895673587
 20
-339.0001972799485
 30
0.0
 11
-3754.817895669633
 21
-339.0001972799485
 31
0.0
  0
LINE
  5
335
330
1F
100
AcDbEntity
  8
0-7_金物
  6
Continuous
 62
     7
370
     9
100
AcDbLine
 10
-3754.217895673587
 20
-291.000197596153
 30
0.0
 11
-3754.817895669633
 21
-291.000197596153
 31
0.0
  0
LINE
  5
336
330
1F
100
AcDbEntity
  8
0-7_金物
  6
Continuous
 62
     7
370
     9
100
AcDbLine
 10
-3793.817895412718
 20
-363.0001971218463
 30
0.0
 11
-3793.817895412718
 21
-267.000197754253
 31
0.0
  0
ARC
  5
337
330
1F
100
AcDbEntity
  8
0-7_金物
  6
Continuous
 62
     7
370
     9
100
AcDbCircle
 10
-3754.217895673587
 20
-288.0001976159156
 30
0.0
 40
2.999999980237253
100
AcDbArc
 50
270.0
 51
0.0
  0
ARC
  5
338
330
1F
100
AcDbEntity
  8
0-7_金物
  6
Continuous
 62
     7
370
     9
100
AcDbCircle
 10
-3754.217895673587
 20
-342.0001972601859
 30
0.0
 40
2.999999980237253
100
AcDbArc
 50
0.0
 51
90.0
  0
LINE
  5
339
330
1F
100
AcDbEntity
  8
0-7_金物
  6
Continuous
 62
     7
370
     9
100
AcDbLine
 10
-3745.217895732875
 20
-282.0001976554397
 30
0.0
 11
-3724.217895871214
 21
-282.0001976554397
 31
0.0
  0
LINE
  5
33A
330
1F
100
AcDbEntity
  8
0-7_金物
  6
Continuous
 62
     7
370
     9
100
AcDbLine
 10
-3742.217895752638
 20
-375.0001970427942
 30
0.0
 11
-3742.217895752638
 21
-376.8001970309365
 31
0.0
  0
LINE
  5
33B
330
1F
100
AcDbEntity
  8
0-7_金物
  6
Continuous
 62
     7
370
     9
100
AcDbLine
 10
-3757.817895649871
 20
-315.0001974380497
 30
0.0
 11
-3757.817895649871
 21
-363.0001971218463
 31
0.0
  0
LINE
  5
33C
330
1F
100
AcDbEntity
  8
0-7_金物
  6
Continuous
 62
     7
370
     9
100
AcDbLine
 10
-3757.817895649871
 20
-339.0001972799485
 30
0.0
 11
-3756.017895661728
 21
-339.0001972799485
 31
0.0
  0
LINE
  5
33D
330
1F
100
AcDbEntity
  8
0-7_金物
  6
Continuous
 62
     7
370
     9
100
AcDbLine
 10
-3757.817895649873
 20
-291.000197596153
 30
0.0
 11
-3756.017895661728
 21
-291.000197596153
 31
0.0
  0
LINE
  5
33E
330
1F
100
AcDbEntity
  8
0-7_金物
  6
Continuous
 62
     7
370
     9
100
AcDbLine
 10
-3754.817895669633
 20
-331.2001973313307
 30
0.0
 11
-3756.017895661728
 21
-330.0001973392364
 31
0.0
  0
LINE
  5
33F
330
1F
100
AcDbEntity
  8
0-7_金物
  6
Continuous
 62
     7
370
     9
100
AcDbLine
 10
-3756.01789566173
 20
-300.000197536863
 30
0.0
 11
-3754.817895669633
 21
-298.8001975447673
 31
0.0
  0
LINE
  5
340
330
1F
100
AcDbEntity
  8
0-7_金物
  6
Continuous
 62
     7
370
     9
100
AcDbLine
 10
-3757.817895649871
 20
-330.0001973392364
 30
0.0
 11
-3754.817895669633
 21
-330.0001973392364
 31
0.0
  0
LINE
  5
341
330
1F
100
AcDbEntity
  8
0-7_金物
  6
Continuous
 62
     7
370
     9
100
AcDbLine
 10
-3757.817895649871
 20
-300.000197536863
 30
0.0
 11
-3754.817895669633
 21
-300.000197536863
 31
0.0
  0
LINE
  5
342
330
1F
100
AcDbEntity
  8
0-7_金物
  6
Continuous
 62
     7
370
     9
100
AcDbLine
 10
-3754.817895669633
 20
-337.8001972878532
 30
0.0
 11
-3756.017895661728
 21
-339.0001972799485
 31
0.0
  0
LINE
  5
343
330
1F
100
AcDbEntity
  8
0-7_金物
  6
Continuous
 62
     7
370
     9
100
AcDbLine
 10
-3754.817895669633
 20
-292.2001975882449
 30
0.0
 11
-3756.017895661728
 21
-291.000197596153
 31
0.0
  0
ARC
  5
344
330
1F
100
AcDbEntity
  8
0-7_金物
  6
Continuous
 62
     7
370
     9
100
AcDbCircle
 10
-3775.817895531294
 20
-339.0001972799485
 30
0.0
 40
29.99999980237253
100
AcDbArc
 50
233.1301023541541
 51
306.8698976458458
  0
ARC
  5
345
330
1F
100
AcDbEntity
  8
0-7_金物
  6
Continuous
 62
     7
370
     9
100
AcDbCircle
 10
-3775.817895531294
 20
-291.000197596153
 30
0.0
 40
29.99999980237253
100
AcDbArc
 50
53.13010235415425
 51
126.8698976458457
  0
LINE
  5
346
330
1F
100
AcDbEntity
  8
0-7_金物
  6
Continuous
 62
     7
370
     9
100
AcDbLine
 10
-3757.817895649871
 20
-267.0001977542518
 30
0.0
 11
-3757.817895649871
 21
-315.000197438051
 31
0.0
  0
ARC
  5
347
330
1F
100
AcDbEntity
  8
0-7_金物
  6
Continuous
 62
     7
370
     9
100
AcDbCircle
 10
-3763.217895614296
 20
-369.0001970823218
 30
0.0
 40
11.99999992094901
100
AcDbArc
 50
0.0
 51
63.25631604961301
  0
ARC
  5
348
330
1F
100
AcDbEntity
  8
0-7_金物
  6
Continuous
 62
     7
370
     9
100
AcDbCircle
 10
-3745.217895732873
 20
-369.0001970823209
 30
0.0
 40
5.999999960474506
100
AcDbArc
 50
180.0
 51
270.0
  0
LINE
  5
349
330
1F
100
AcDbEntity
  8
0-7_金物
  6
Continuous
 62
     7
370
     9
100
AcDbLine
 10
-3724.217895871214
 20
-375.0001970427942
 30
0.0
 11
-3745.217895732873
 21
-375.0001970427942
 31
0.0
  0
LINE
  5
34A
330
1F
100
AcDbEntity
  8
0-7_金物
  6
Continuous
 62
     7
370
     9
100
AcDbLine
 10
-3808.21789531786
 20
-333.0001973194738
 30
0.0
 11
-3808.21789531786
 21
-240.0001979321189
 31
0.0
  0
ARC
  5
34B
330
1F
100
AcDbEntity
  8
0-7_金物
  6
Continuous
 62
     7
370
     9
100
AcDbCircle
 10
-3805.217895337621
 20
-240.0001979321189
 30
0.0
 40
2.999999980237589
100
AcDbArc
 50
89.99999999999997
 51
180.0
  0
LINE
  5
34C
330
1F
100
AcDbEntity
  8
0-7_金物
  6
Continuous
 62
     7
370
     9
100
AcDbLine
 10
-3805.217895337621
 20
-237.0001979518818
 30
0.0
 11
-3804.017895345527
 21
-237.0001979518818
 31
0.0
  0
ARC
  5
34D
330
1F
100
AcDbEntity
  8
0-7_金物
  6
Continuous
 62
     7
370
     9
100
AcDbCircle
 10
-3804.017895345527
 20
-240.0001979321181
 30
0.0
 40
2.999999980236907
100
AcDbArc
 50
359.999999999987
 51
89.99999999998697
  0
LINE
  5
34E
330
1F
100
AcDbEntity
  8
0-7_金物
  6
Continuous
 62
     7
370
     9
100
AcDbLine
 10
-3801.01789536529
 20
-240.0001979321189
 30
0.0
 11
-3801.01789536529
 21
-246.0001978925926
 31
0.0
  0
ARC
  5
34F
330
1F
100
AcDbEntity
  8
0-7_金物
  6
Continuous
 62
     7
370
     9
100
AcDbCircle
 10
-3798.017895385052
 20
-246.0001978925926
 30
0.0
 40
2.999999980237248
100
AcDbArc
 50
180.0000000000066
 51
270.0000000000065
  0
LINE
  5
350
330
1F
100
AcDbEntity
  8
0-7_金物
  6
Continuous
 62
     7
370
     9
100
AcDbLine
 10
-3798.017895385052
 20
-249.0001978728289
 30
0.0
 11
-3764.11789560837
 21
-249.0001978728289
 31
0.0
  0
ARC
  5
351
330
1F
100
AcDbEntity
  8
0-7_金物
  6
Continuous
 62
     7
370
     9
100
AcDbCircle
 10
-3764.11789560837
 20
-246.0001978925926
 30
0.0
 40
2.999999980236565
100
AcDbArc
 50
270.0000000000065
 51
0.0000000000065138
  0
LINE
  5
352
330
1F
100
AcDbEntity
  8
0-7_金物
  6
Continuous
 62
     7
370
     9
100
AcDbLine
 10
-3761.117895628134
 20
-246.0001978925926
 30
0.0
 11
-3761.117895628134
 21
-240.0001979321189
 31
0.0
  0
ARC
  5
353
330
1F
100
AcDbEntity
  8
0-7_金物
  6
Continuous
 62
     7
370
     9
100
AcDbCircle
 10
-3758.117895647898
 20
-240.0001979321189
 30
0.0
 40
2.999999980237589
100
AcDbArc
 50
89.99999999999997
 51
180.0
  0
LINE
  5
354
330
1F
100
AcDbEntity
  8
0-7_金物
  6
Continuous
 62
     7
370
     9
100
AcDbLine
 10
-3758.117895647898
 20
-237.0001979518818
 30
0.0
 11
-3690.317896094534
 21
-237.0001979518818
 31
0.0
  0
ARC
  5
355
330
1F
100
AcDbEntity
  8
0-7_金物
  6
Continuous
 62
     7
370
     9
100
AcDbCircle
 10
-3690.317896094534
 20
-240.0001979321189
 30
0.0
 40
2.999999980237589
100
AcDbArc
 50
0.0
 51
90.0
  0
LINE
  5
356
330
1F
100
AcDbEntity
  8
0-7_金物
  6
Continuous
 62
     7
370
     9
100
AcDbLine
 10
-3687.317896114296
 20
-240.0001979321189
 30
0.0
 11
-3687.317896114296
 21
-246.0001978925926
 31
0.0
  0
ARC
  5
357
330
1F
100
AcDbEntity
  8
0-7_金物
  6
Continuous
 62
     7
370
     9
100
AcDbCircle
 10
-3684.31789613406
 20
-246.0001978925926
 30
0.0
 40
2.999999980236565
100
AcDbArc
 50
179.9999999999935
 51
269.9999999999935
  0
LINE
  5
358
330
1F
100
AcDbEntity
  8
0-7_金物
  6
Continuous
 62
     7
370
     9
100
AcDbLine
 10
-3684.31789613406
 20
-249.0001978728289
 30
0.0
 11
-3650.417896357378
 21
-249.0001978728289
 31
0.0
  0
ARC
  5
359
330
1F
100
AcDbEntity
  8
0-7_金物
  6
Continuous
 62
     7
370
     9
100
AcDbCircle
 10
-3650.417896357378
 20
-246.0001978925926
 30
0.0
 40
2.999999980237248
100
AcDbArc
 50
269.9999999999935
 51
359.9999999999935
  0
LINE
  5
35A
330
1F
100
AcDbEntity
  8
0-7_金物
  6
Continuous
 62
     7
370
     9
100
AcDbLine
 10
-3647.41789637714
 20
-246.0001978925926
 30
0.0
 11
-3647.41789637714
 21
-240.0001979321189
 31
0.0
  0
ARC
  5
35B
330
1F
100
AcDbEntity
  8
0-7_金物
  6
Continuous
 62
     7
370
     9
100
AcDbCircle
 10
-3644.417896396902
 20
-240.0001979321181
 30
0.0
 40
2.999999980236907
100
AcDbArc
 50
90.00000000001303
 51
180.000000000013
  0
LINE
  5
35C
330
1F
100
AcDbEntity
  8
0-7_金物
  6
Continuous
 62
     7
370
     9
100
AcDbLine
 10
-3644.417896396904
 20
-237.0001979518818
 30
0.0
 11
-3643.217896404809
 21
-237.0001979518818
 31
0.0
  0
ARC
  5
35D
330
1F
100
AcDbEntity
  8
0-7_金物
  6
Continuous
 62
     7
370
     9
100
AcDbCircle
 10
-3643.217896404809
 20
-240.0001979321189
 30
0.0
 40
2.999999980237589
100
AcDbArc
 50
0.0
 51
90.0
  0
LINE
  5
35E
330
1F
100
AcDbEntity
  8
0-7_金物
  6
Continuous
 62
     7
370
     9
100
AcDbLine
 10
-3640.217896424573
 20
-240.0001979321189
 30
0.0
 11
-3640.217896424573
 21
-333.0001973194738
 31
0.0
  0
LINE
  5
35F
330
1F
100
AcDbEntity
  8
0-7_金物
  6
Continuous
 62
     7
370
     9
100
AcDbLine
 10
-3640.217896424573
 20
-333.0001973194738
 30
0.0
 11
-3631.817896479907
 21
-333.0001973194738
 31
0.0
  0
ARC
  5
360
330
1F
100
AcDbEntity
  8
0-7_金物
  6
Continuous
 62
     7
370
     9
100
AcDbCircle
 10
-3631.817896479907
 20
-336.6001972957588
 30
0.0
 40
3.599999976284494
100
AcDbArc
 50
270.0
 51
90.0
  0
LINE
  5
361
330
1F
100
AcDbEntity
  8
0-7_金物
  6
Continuous
 62
     7
370
     9
100
AcDbLine
 10
-3631.817896479907
 20
-340.2001972720428
 30
0.0
 11
-3640.217896424573
 21
-340.2001972720428
 31
0.0
  0
LINE
  5
362
330
1F
100
AcDbEntity
  8
0-7_金物
  6
Continuous
 62
     7
370
     9
100
AcDbLine
 10
-3640.217896424573
 20
-340.2001972720428
 30
0.0
 11
-3640.217896424573
 21
-353.7947907896123
 31
0.0
  0
ARC
  5
363
330
1F
100
AcDbEntity
  8
0-7_金物
  6
Continuous
 62
     7
370
     9
100
AcDbCircle
 10
-3652.217896345518
 20
-353.7947907896123
 30
0.0
 40
11.99999992094679
100
AcDbArc
 50
324.0494323803814
 51
359.9999999999989
  0
ARC
  5
364
330
1F
100
AcDbEntity
  8
0-7_金物
  6
Continuous
 62
     7
370
     9
100
AcDbCircle
 10
-3672.617896211135
 20
-339.0001972799485
 30
0.0
 40
37.19999975494105
100
AcDbArc
 50
246.1811586065432
 51
324.0494323803861
  0
ARC
  5
365
330
1F
100
AcDbEntity
  8
0-7_金物
  6
Continuous
 62
     7
370
     9
100
AcDbCircle
 10
-3685.21789612813
 20
-367.5427968333608
 30
0.0
 40
5.999999960474696
100
AcDbArc
 50
179.9999999999991
 51
246.1811586065413
  0
LINE
  5
366
330
1F
100
AcDbEntity
  8
0-7_金物
  6
Continuous
 62
     7
370
     9
100
AcDbLine
 10
-3691.217896088606
 20
-367.5427968333608
 30
0.0
 11
-3691.217896088606
 21
-366.0001971020826
 31
0.0
  0
ARC
  5
367
330
1F
100
AcDbEntity
  8
0-7_金物
  6
Continuous
 62
     7
370
     9
100
AcDbCircle
 10
-3689.417896100463
 20
-366.0001971020847
 30
0.0
 40
1.799999988143101
100
AcDbArc
 50
58.10920819813321
 51
179.9999999999765
  0
ARC
  5
368
330
1F
100
AcDbEntity
  8
0-7_金物
  6
Continuous
 62
     7
370
     9
100
AcDbCircle
 10
-3672.617896211135
 20
-339.0001972799485
 30
0.0
 40
29.99999980237201
100
AcDbArc
 50
238.1092081981562
 51
326.07688799674
  0
ARC
  5
369
330
1F
100
AcDbEntity
  8
0-7_金物
  6
Continuous
 62
     7
370
     9
100
AcDbCircle
 10
-3649.217896365285
 20
-354.7380496345963
 30
0.0
 40
1.799999988144312
100
AcDbArc
 50
326.0768879966748
 51
359.9999999999343
  0
LINE
  5
36A
330
1F
100
AcDbEntity
  8
0-7_金物
  6
Continuous
 62
     7
370
     9
100
AcDbLine
 10
-3647.41789637714
 20
-354.738049634598
 30
0.0
 11
-3647.41789637714
 21
-270.0001977344892
 31
0.0
  0
ARC
  5
36B
330
1F
100
AcDbEntity
  8
0-7_金物
  6
Continuous
 62
     7
370
     9
100
AcDbCircle
 10
-3659.41789629809
 20
-270.0001977344892
 30
0.0
 40
11.99999992094899
100
AcDbArc
 50
0.0
 51
90.00000000000001
  0
LINE
  5
36C
330
1F
100
AcDbEntity
  8
0-7_金物
  6
Continuous
 62
     7
370
     9
100
AcDbLine
 10
-3659.41789629809
 20
-258.0001978135422
 30
0.0
 11
-3694.517896066867
 21
-258.0001978135422
 31
0.0
  0
ARC
  5
36D
330
1F
100
AcDbEntity
  8
0-7_金物
  6
Continuous
 62
     7
370
     9
100
AcDbCircle
 10
-3694.517896066867
 20
-256.2001978253991
 30
0.0
 40
1.799999988142076
100
AcDbArc
 50
180.0000000000326
 51
270.0000000000326
  0
LINE
  5
36E
330
1F
100
AcDbEntity
  8
0-7_金物
  6
Continuous
 62
     7
370
     9
100
AcDbLine
 10
-3696.31789605501
 20
-256.2001978254
 30
0.0
 11
-3696.31789605501
 21
-247.8001978807345
 31
0.0
  0
ARC
  5
36F
330
1F
100
AcDbEntity
  8
0-7_金物
  6
Continuous
 62
     7
370
     9
100
AcDbCircle
 10
-3698.117896043151
 20
-247.8001978807345
 30
0.0
 40
1.799999988142416
100
AcDbArc
 50
0.0000000000217168
 51
90.00000000002173
  0
LINE
  5
370
330
1F
100
AcDbEntity
  8
0-7_金物
  6
Continuous
 62
     7
370
     9
100
AcDbLine
 10
-3698.117896043153
 20
-246.0001978925926
 30
0.0
 11
-3722.417895883071
 21
-246.0001978925926
 31
0.0
  0
LINE
  5
371
330
1F
100
AcDbEntity
  8
0-7_金物
  6
Continuous
 62
     7
370
     9
100
AcDbLine
 10
-3722.417895883071
 20
-246.0001978925926
 30
0.0
 11
-3724.217895871214
 21
-244.2001979044495
 31
0.0
  0
LINE
  5
372
330
1F
100
AcDbEntity
  8
0-7_金物
  6
Continuous
 62
     7
370
     9
100
AcDbLine
 10
-3724.217895871214
 20
-244.2001979044495
 30
0.0
 11
-3726.017895859357
 21
-246.0001978925926
 31
0.0
  0
LINE
  5
373
330
1F
100
AcDbEntity
  8
0-7_金物
  6
Continuous
 62
     7
370
     9
100
AcDbLine
 10
-3726.017895859357
 20
-246.0001978925926
 30
0.0
 11
-3750.317895699279
 21
-246.0001978925926
 31
0.0
  0
ARC
  5
374
330
1F
100
AcDbEntity
  8
0-7_金物
  6
Continuous
 62
     7
370
     9
100
AcDbCircle
 10
-3750.317895699279
 20
-247.8001978807345
 30
0.0
 40
1.799999988142416
100
AcDbArc
 50
89.99999999997829
 51
179.9999999999783
  0
LINE
  5
375
330
1F
100
AcDbEntity
  8
0-7_金物
  6
Continuous
 62
     7
370
     9
100
AcDbLine
 10
-3752.117895687422
 20
-247.8001978807345
 30
0.0
 11
-3752.117895687422
 21
-256.2001978254
 31
0.0
  0
ARC
  5
376
330
1F
100
AcDbEntity
  8
0-7_金物
  6
Continuous
 62
     7
370
     9
100
AcDbCircle
 10
-3753.917895675564
 20
-256.2001978254
 30
0.0
 40
1.799999988141394
100
AcDbArc
 50
269.9999999999891
 51
359.9999999999891
  0
LINE
  5
377
330
1F
100
AcDbEntity
  8
0-7_金物
  6
Continuous
 62
     7
370
     9
100
AcDbLine
 10
-3753.917895675564
 20
-258.0001978135422
 30
0.0
 11
-3789.01789544434
 21
-258.0001978135422
 31
0.0
  0
ARC
  5
378
330
1F
100
AcDbEntity
  8
0-7_金物
  6
Continuous
 62
     7
370
     9
100
AcDbCircle
 10
-3789.01789544434
 20
-270.0001977344892
 30
0.0
 40
11.99999992094899
100
AcDbArc
 50
90.0
 51
180.0
  0
LINE
  5
379
330
1F
100
AcDbEntity
  8
0-7_金物
  6
Continuous
 62
     7
370
     9
100
AcDbLine
 10
-3801.01789536529
 20
-270.0001977344892
 30
0.0
 11
-3801.01789536529
 21
-354.738049634598
 31
0.0
  0
ARC
  5
37A
330
1F
100
AcDbEntity
  8
0-7_金物
  6
Continuous
 62
     7
370
     9
100
AcDbCircle
 10
-3799.217895377145
 20
-354.7380496345997
 30
0.0
 40
1.799999988143631
100
AcDbArc
 50
179.9999999999944
 51
213.923112003254
  0
ARC
  5
37B
330
1F
100
AcDbEntity
  8
0-7_金物
  6
Continuous
 62
     7
370
     9
100
AcDbCircle
 10
-3775.817895531296
 20
-339.0001972799476
 30
0.0
 40
29.99999980237392
100
AcDbArc
 50
213.9231120032609
 51
301.8907918018446
  0
ARC
  5
37C
330
1F
100
AcDbEntity
  8
0-7_金物
  6
Continuous
 62
     7
370
     9
100
AcDbCircle
 10
-3759.017895641968
 20
-366.0001971020826
 30
0.0
 40
1.799999988141737
100
AcDbArc
 50
359.9999999999994
 51
121.8907918018427
  0
LINE
  5
37D
330
1F
100
AcDbEntity
  8
0-7_金物
  6
Continuous
 62
     7
370
     9
100
AcDbLine
 10
-3757.217895653826
 20
-366.0001971020826
 30
0.0
 11
-3757.217895653826
 21
-367.5427968333608
 31
0.0
  0
ARC
  5
37E
330
1F
100
AcDbEntity
  8
0-7_金物
  6
Continuous
 62
     7
370
     9
100
AcDbCircle
 10
-3763.217895614301
 20
-367.5427968333608
 30
0.0
 40
5.999999960474696
100
AcDbArc
 50
293.8188413934587
 51
0.0000000000009542
  0
ARC
  5
37F
330
1F
100
AcDbEntity
  8
0-7_金物
  6
Continuous
 62
     7
370
     9
100
AcDbCircle
 10
-3775.817895531297
 20
-339.0001972799476
 30
0.0
 40
37.19999975494188
100
AcDbArc
 50
215.9505676196163
 51
293.8188413934565
  0
ARC
  5
380
330
1F
100
AcDbEntity
  8
0-7_金物
  6
Continuous
 62
     7
370
     9
100
AcDbCircle
 10
-3796.217895396911
 20
-353.7947907896123
 30
0.0
 40
11.99999992094837
100
AcDbArc
 50
179.9999999999987
 51
215.9505676196161
  0
LINE
  5
381
330
1F
100
AcDbEntity
  8
0-7_金物
  6
Continuous
 62
     7
370
     9
100
AcDbLine
 10
-3808.21789531786
 20
-353.7947907896123
 30
0.0
 11
-3808.21789531786
 21
-340.2001972720428
 31
0.0
  0
LINE
  5
382
330
1F
100
AcDbEntity
  8
0-7_金物
  6
Continuous
 62
     7
370
     9
100
AcDbLine
 10
-3840.617895104421
 20
-333.0001973194738
 30
0.0
 11
-3808.21789531786
 21
-333.0001973194738
 31
0.0
  0
LINE
  5
383
330
1F
100
AcDbEntity
  8
0-7_金物
  6
Continuous
 62
     7
370
     9
100
AcDbLine
 10
-3808.21789531786
 20
-340.2001972720428
 30
0.0
 11
-3833.417895151851
 21
-340.2001972720428
 31
0.0
  0
ARC
  5
384
330
1F
100
AcDbEntity
  8
0-7_金物
  6
Continuous
 62
     7
370
     9
100
AcDbCircle
 10
-3840.617895104421
 20
-334.2001973115683
 30
0.0
 40
1.199999992094489
100
AcDbArc
 50
89.99999999999997
 51
180.0
  0
ARC
  5
385
330
1F
100
AcDbEntity
  8
0-7_金物
  6
Continuous
 62
     7
370
     9
100
AcDbCircle
 10
-3833.417895151852
 20
-341.4001972641394
 30
0.0
 40
1.199999992095854
100
AcDbArc
 50
89.99999999993486
 51
179.9999999999349
  0
LINE
  5
386
330
1F
100
AcDbEntity
  8
0-7_金物
  6
Continuous
 62
     7
370
     9
100
AcDbLine
 10
-3841.817895096516
 20
-443.4001965922039
 30
0.0
 11
-3841.817895096516
 21
-334.2001973115683
 31
0.0
  0
LINE
  5
387
330
1F
100
AcDbEntity
  8
0-7_金物
  6
Continuous
 62
     7
370
     9
100
AcDbLine
 10
-3834.617895143947
 20
-341.4001972641381
 30
0.0
 11
-3834.617895143946
 21
-443.4001965922039
 31
0.0
  0
ARC
  5
388
330
1F
100
AcDbEntity
  8
0-7_金物
  6
Continuous
 62
     7
370
     9
100
AcDbCircle
 10
-3838.217895120232
 20
-443.4001965922039
 30
0.0
 40
3.599999976284835
100
AcDbArc
 50
180.0
 51
0.0
  0
LINE
  5
389
330
1F
100
AcDbEntity
  8
0-7_金物
  6
Continuous
 62
     7
370
     9
100
AcDbLine
 10
-3706.217895317851
 20
-382.8001969914115
 30
0.0
 11
-3706.217895317851
 21
-414.000197319474
 31
0.0
  0
LINE
  5
38A
330
1F
100
AcDbEntity
  8
0-7_金物
  6
Continuous
 62
     7
370
     9
100
AcDbLine
 10
-3742.217895317851
 20
-414.000197319474
 30
0.0
 11
-3742.217895317851
 21
-382.8001969914115
 31
0.0
  0
LINE
  5
38B
330
1F
100
AcDbEntity
  8
0-6_扉
  6
Continuous
 62
   200
370
    20
100
AcDbLine
 10
-3634.217895871216
 20
-414.000197319474
 30
0.0
 11
-3814.217895871216
 21
-414.000197319474
 31
0.0
  0
LINE
  5
38C
330
1F
100
AcDbEntity
  8
0-6_扉
  6
Continuous
 62
   200
370
    20
100
AcDbLine
 10
-3634.217895871216
 20
-414.000197319474
 30
0.0
 11
-3634.217895871216
 21
-1479.000197951875
 31
0.0
  0
LINE
  5
38D
330
1F
100
AcDbEntity
  8
0-B_寸法
  6
Continuous
 62
   120
370
     5
100
AcDbLine
 10
-3814.217895871216
 20
-1119.00032480045
 30
0.0
 11
-3634.217895871216
 21
-1119.00032480045
 31
0.0
  0
LINE
  5
38E
330
1F
100
AcDbEntity
  8
0-4_枠
  6
Continuous
 62
    92
370
    13
100
AcDbLine
 10
-3810.617896424568
 20
-330.0001979518834
 30
0.0
 11
-4150.218331300061
 21
-330.0001979518834
 31
0.0
  0
LINE
  5
38F
330
1F
100
AcDbEntity
  8
0-4_枠
  6
Continuous
 62
    92
370
    13
100
AcDbLine
 10
-3810.617896424568
 20
-333.0001979518806
 30
0.0
 11
-4153.21789642457
 21
-333.0001979518806
 31
0.0
  0
LINE
  5
390
330
1F
100
AcDbEntity
  8
0-C_ハッチ
  6
Continuous
 62
   120
370
     5
100
AcDbLine
 10
-3900.796696599648
 20
-153.0001979518736
 30
0.0
 11
-4077.796696599648
 21
-330.0001979518859
 31
0.0
  0
LINE
  5
391
330
1F
100
AcDbEntity
  8
0-C_ハッチ
  6
Continuous
 62
   120
370
     5
100
AcDbLine
 10
-4137.193666219304
 20
-330.000197951897
 30
0.0
 11
-3960.193666219287
 21
-153.0001979518806
 31
0.0
  0
LINE
  5
392
330
1F
100
AcDbEntity
  8
0-C_ハッチ
  6
Continuous
 62
   120
370
     5
100
AcDbLine
 10
-4018.39972697993
 20
-330.0001979518834
 30
0.0
 11
-3841.399726979943
 21
-153.0001979518806
 31
0.0
  0
LINE
  5
393
330
1F
100
AcDbEntity
  8
0-C_ハッチ
  6
Continuous
 62
   120
370
     5
100
AcDbLine
 10
-3840.208818120949
 20
-330.0001979518834
 30
0.0
 11
-3810.617896424568
 21
-300.4092762555027
 31
0.0
  0
LINE
  5
394
330
1F
100
AcDbEntity
  8
0-C_ハッチ
  6
Continuous
 62
   120
370
     5
100
AcDbLine
 10
-3899.605787740657
 20
-330.0001979518834
 30
0.0
 11
-3810.617896424568
 21
-241.0123066358051
 31
0.0
  0
LINE
  5
395
330
1F
100
AcDbEntity
  8
0-C_ハッチ
  6
Continuous
 62
   120
370
     5
100
AcDbLine
 10
-3959.002757360297
 20
-330.0001979518834
 30
0.0
 11
-3782.002757360296
 21
-153.0001979518806
 31
0.0
  0
LINE
  5
396
330
1F
100
AcDbEntity
  8
0-B_寸法
  6
Continuous
 62
   120
370
     5
100
AcDbLine
 10
-2518.21789642457
 20
-2763.000404213941
 30
0.0
 11
-2518.21789642457
 21
-333.0004042139652
 31
0.0
  0
LINE
  5
397
330
1F
100
AcDbEntity
  8
0-B_寸法
  6
Continuous
 62
   120
370
     5
100
AcDbLine
 10
-2518.21789642457
 20
-2781.000404213941
 30
0.0
 11
-2518.21789642457
 21
-2763.000404213941
 31
0.0
  0
LWPOLYLINE
  5
398
330
1F
100
AcDbEntity
  8
0-B_寸法
  6
Continuous
 62
     7
370
     9
100
AcDbPolyline
 90
        4
 70
     1
 43
3.0
 10
-2726.71789642457
 20
-333.0004042139652
 42
0.4142135623731
 10
-2728.21789642457
 20
-331.5004042139652
 42
0.4142135623731
 10
-2729.71789642457
 20
-333.0004042139652
 42
0.4142135623731
 10
-2728.21789642457
 20
-334.5004042139652
 42
0.4142135623731
  0
LINE
  5
399
330
1F
100
AcDbEntity
  8
0-B_寸法
  6
Continuous
 62
   120
370
     5
100
AcDbLine
 10
-2518.21789642457
 20
-333.0004042139652
 30
0.0
 11
-3148.21789642457
 21
-333.0004042139652
 31
0.0
  0
LWPOLYLINE
  5
39A
330
1F
100
AcDbEntity
  8
0-B_寸法
  6
Continuous
 62
     7
370
     9
100
AcDbPolyline
 90
        4
 70
     1
 43
3.0
 10
-2516.71789642457
 20
-2781.000404213941
 42
0.4142135623731
 10
-2518.21789642457
 20
-2779.500404213941
 42
0.4142135623731
 10
-2519.71789642457
 20
-2781.000404213941
 42
0.4142135623731
 10
-2518.21789642457
 20
-2782.500404213941
 42
0.4142135623731
  0
LINE
  5
39B
330
1F
100
AcDbEntity
  8
0-B_寸法
  6
Continuous
 62
   120
370
     5
100
AcDbLine
 10
-2308.21789642457
 20
-2781.000404213941
 30
0.0
 11
-3148.21789642457
 21
-2781.000404213941
 31
0.0
  0
LWPOLYLINE
  5
39C
330
1F
100
AcDbEntity
  8
0-B_寸法
  6
Continuous
 62
     7
370
     9
100
AcDbPolyline
 90
        4
 70
     1
 43
3.0
 10
-2516.71789642457
 20
-333.0004042139652
 42
0.4142135623731
 10
-2518.21789642457
 20
-331.5004042139652
 42
0.4142135623731
 10
-2519.71789642457
 20
-333.0004042139652
 42
0.4142135623731
 10
-2518.21789642457
 20
-334.5004042139652
 42
0.4142135623731
  0
LINE
  5
39D
330
1F
100
AcDbEntity
  8
0-B_寸法
  6
Continuous
 62
   120
370
     5
100
AcDbLine
 10
-2518.21789642457
 20
-153.0004042139652
 30
0.0
 11
-2518.21789642457
 21
-333.0004042139652
 31
0.0
  0
LWPOLYLINE
  5
39E
330
1F
100
AcDbEntity
  8
0-B_寸法
  6
Continuous
 62
     7
370
     9
100
AcDbPolyline
 90
        4
 70
     1
 43
3.0
 10
-2516.71789642457
 20
-153.0004042139652
 42
0.4142135623731
 10
-2518.21789642457
 20
-151.5004042139652
 42
0.4142135623731
 10
-2519.71789642457
 20
-153.0004042139652
 42
0.4142135623731
 10
-2518.21789642457
 20
-154.5004042139652
 42
0.4142135623731
  0
LINE
  5
39F
330
1F
100
AcDbEntity
  8
0-B_寸法
  6
Continuous
 62
   120
370
     5
100
AcDbLine
 10
-2308.21789642457
 20
-153.0004042139652
 30
0.0
 11
-3148.21789642457
 21
-153.0004042139652
 31
0.0
  0
LINE
  5
3A0
330
1F
100
AcDbEntity
  8
0-B_寸法
  6
Continuous
 62
   120
370
     5
100
AcDbLine
 10
-2308.21789642457
 20
-2853.000404213941
 30
0.0
 11
-2308.21789642457
 21
-2781.000404213941
 31
0.0
  0
LWPOLYLINE
  5
3A1
330
1F
100
AcDbEntity
  8
0-B_寸法
  6
Continuous
 62
     7
370
     9
100
AcDbPolyline
 90
        4
 70
     1
 43
3.0
 10
-2306.71789642457
 20
-2853.000404213941
 42
0.4142135623731
 10
-2308.21789642457
 20
-2851.500404213941
 42
0.4142135623731
 10
-2309.71789642457
 20
-2853.000404213941
 42
0.4142135623731
 10
-2308.21789642457
 20
-2854.500404213941
 42
0.4142135623731
  0
LWPOLYLINE
  5
3A2
330
1F
100
AcDbEntity
  8
0-B_寸法
  6
Continuous
 62
     7
370
     9
100
AcDbPolyline
 90
        4
 70
     1
 43
3.0
 10
-2306.71789642457
 20
-2781.000404213941
 42
0.4142135623731
 10
-2308.21789642457
 20
-2779.500404213941
 42
0.4142135623731
 10
-2309.71789642457
 20
-2781.000404213941
 42
0.4142135623731
 10
-2308.21789642457
 20
-2782.500404213941
 42
0.4142135623731
  0
LINE
  5
3A3
330
1F
100
AcDbEntity
  8
0-B_寸法
  6
Continuous
 62
   120
370
     5
100
AcDbLine
 10
-2308.21789642457
 20
-2853.000404213941
 30
0.0
 11
-3148.21789642457
 21
-2853.000404213941
 31
0.0
  0
LINE
  5
3A4
330
1F
100
AcDbEntity
  8
0-B_寸法
  6
Continuous
 62
   120
370
     5
100
AcDbLine
 10
-2308.21789642457
 20
-2781.000404213941
 30
0.0
 11
-2308.21789642457
 21
-153.0004042139652
 31
0.0
  0
LWPOLYLINE
  5
3A5
330
1F
100
AcDbEntity
  8
0-B_寸法
  6
Continuous
 62
     7
370
     9
100
AcDbPolyline
 90
        4
 70
     1
 43
3.0
 10
-2306.71789642457
 20
-153.0004042139652
 42
0.4142135623731
 10
-2308.21789642457
 20
-151.5004042139652
 42
0.4142135623731
 10
-2309.71789642457
 20
-153.0004042139652
 42
0.4142135623731
 10
-2308.21789642457
 20
-154.5004042139652
 42
0.4142135623731
  0
LWPOLYLINE
  5
3A6
330
1F
100
AcDbEntity
  8
0-B_寸法
  6
Continuous
 62
     7
370
     9
100
AcDbPolyline
 90
        4
 70
     1
 43
3.0
 10
-2936.71789642457
 20
-376.2004039293817
 42
0.4142135623731
 10
-2938.21789642457
 20
-374.7004039293817
 42
0.4142135623731
 10
-2939.71789642457
 20
-376.2004039293817
 42
0.4142135623731
 10
-2938.21789642457
 20
-377.7004039293817
 42
0.4142135623731
  0
LINE
  5
3A7
330
1F
100
AcDbEntity
  8
0-B_寸法
  6
Continuous
 62
   120
370
     5
100
AcDbLine
 10
-2938.21789642457
 20
-376.2004039293817
 30
0.0
 11
-3148.21789642457
 21
-376.2004039293817
 31
0.0
  0
LINE
  5
3A8
330
1F
100
AcDbEntity
  8
0-B_寸法
  6
Continuous
 62
   120
370
     5
100
AcDbLine
 10
-2938.21789642457
 20
-376.2004039293817
 30
0.0
 11
-2938.21789642457
 21
-414.0004035815585
 31
0.0
  0
LWPOLYLINE
  5
3A9
330
1F
100
AcDbEntity
  8
0-B_寸法
  6
Continuous
 62
     7
370
     9
100
AcDbPolyline
 90
        4
 70
     1
 43
3.0
 10
-2936.71789642457
 20
-414.0004035815585
 42
0.4142135623731
 10
-2938.21789642457
 20
-412.5004035815585
 42
0.4142135623731
 10
-2939.71789642457
 20
-414.0004035815585
 42
0.4142135623731
 10
-2938.21789642457
 20
-415.5004035815585
 42
0.4142135623731
  0
LINE
  5
3AA
330
1F
100
AcDbEntity
  8
0-B_寸法
  6
Continuous
 62
   120
370
     5
100
AcDbLine
 10
-2728.21789642457
 20
-414.0004035815585
 30
0.0
 11
-3148.21789642457
 21
-414.0004035815585
 31
0.0
  0
LINE
  5
3AB
330
1F
100
AcDbEntity
  8
0-B_寸法
  6
Continuous
 62
   120
370
     5
100
AcDbLine
 10
-2728.21789642457
 20
-333.0004042139652
 30
0.0
 11
-2728.21789642457
 21
-414.0004035815585
 31
0.0
  0
LWPOLYLINE
  5
3AC
330
1F
100
AcDbEntity
  8
0-B_寸法
  6
Continuous
 62
     7
370
     9
100
AcDbPolyline
 90
        4
 70
     1
 43
3.0
 10
-2726.71789642457
 20
-414.0004035815585
 42
0.4142135623731
 10
-2728.21789642457
 20
-412.5004035815585
 42
0.4142135623731
 10
-2729.71789642457
 20
-414.0004035815585
 42
0.4142135623731
 10
-2728.21789642457
 20
-415.5004035815585
 42
0.4142135623731
  0
LINE
  5
3AD
330
1F
100
AcDbEntity
  8
0-B_寸法
  6
Continuous
 62
   120
370
     5
100
AcDbLine
 10
-2728.21789642457
 20
-414.0004035815585
 30
0.0
 11
-2728.21789642457
 21
-2730.000404213942
 31
0.0
  0
LINE
  5
3AE
330
1F
100
AcDbEntity
  8
0-B_寸法
  6
Continuous
 62
   120
370
     5
100
AcDbLine
 10
-2728.21789642457
 20
-2730.000404213942
 30
0.0
 11
-3148.21789642457
 21
-2730.000404213942
 31
0.0
  0
LWPOLYLINE
  5
3AF
330
1F
100
AcDbEntity
  8
0-B_寸法
  6
Continuous
 62
     7
370
     9
100
AcDbPolyline
 90
        4
 70
     1
 43
3.0
 10
-2726.71789642457
 20
-2730.000404213942
 42
0.4142135623731
 10
-2728.21789642457
 20
-2728.500404213942
 42
0.4142135623731
 10
-2729.71789642457
 20
-2730.000404213942
 42
0.4142135623731
 10
-2728.21789642457
 20
-2731.500404213941
 42
0.4142135623731
  0
LINE
  5
3B0
330
1F
100
AcDbEntity
  8
0-6_扉
  6
Continuous
 62
   200
370
    20
100
AcDbLine
 10
-3814.217895871216
 20
-1599.000197951875
 30
0.0
 11
-3814.217895871216
 21
-2730.000404213942
 31
0.0
  0
LINE
  5
3B1
330
1F
100
AcDbEntity
  8
0-6_扉
  6
Continuous
 62
   200
370
    20
100
AcDbLine
 10
-3634.217895871216
 20
-1599.000197951875
 30
0.0
 11
-3634.217895871216
 21
-2730.000404213942
 31
0.0
  0
LINE
  5
3B2
330
1F
100
AcDbEntity
  8
0-B_寸法
  6
Continuous
 62
   120
370
     5
100
AcDbLine
 10
-3964.217895871214
 20
-2781.000404213941
 30
0.0
 11
-3964.217895871214
 21
-2661.00040421394
 31
0.0
  0
LWPOLYLINE
  5
3B3
330
1F
100
AcDbEntity
  8
0-B_寸法
  6
Continuous
 62
     7
370
     9
100
AcDbPolyline
 90
        4
 70
     1
 43
3.0
 10
-3962.717895871214
 20
-2661.00040421394
 42
0.4142135623731
 10
-3964.217895871214
 20
-2659.50040421394
 42
0.4142135623731
 10
-3965.717895871214
 20
-2661.00040421394
 42
0.4142135623731
 10
-3964.217895871214
 20
-2662.50040421394
 42
0.4142135623731
  0
LINE
  5
3B4
330
1F
100
AcDbEntity
  8
0-B_寸法
  6
Continuous
 62
   120
370
     5
100
AcDbLine
 10
-3964.217895871214
 20
-2661.00040421394
 30
0.0
 11
-3844.217895871214
 21
-2661.00040421394
 31
0.0
  0
LINE
  5
3B5
330
1F
100
AcDbEntity
  8
0-0_補助線
  6
JWW_HOJO
 62
   120
370
     5
100
AcDbLine
 10
-3844.217895871214
 20
-2592.000404213941
 30
0.0
 11
-3844.217895871214
 21
-2856.000591679352
 31
0.0
  0
LINE
  5
3B6
330
1F
100
AcDbEntity
  8
0-0_補助線
  6
JWW_HOJO
 62
   120
370
     5
100
AcDbLine
 10
-3604.217895871216
 20
-2592.000404213941
 30
0.0
 11
-3844.217895871214
 21
-2592.000404213941
 31
0.0
  0
LWPOLYLINE
  5
3B7
330
1F
100
AcDbEntity
  8
0-B_寸法
  6
Continuous
 62
     7
370
     9
100
AcDbPolyline
 90
        4
 70
     1
 43
3.0
 10
-3962.717895871214
 20
-2781.000404213941
 42
0.4142135623731
 10
-3964.217895871214
 20
-2779.500404213941
 42
0.4142135623731
 10
-3965.717895871214
 20
-2781.000404213941
 42
0.4142135623731
 10
-3964.217895871214
 20
-2782.500404213941
 42
0.4142135623731
  0
LINE
  5
3B8
330
1F
100
AcDbEntity
  8
0-B_寸法
  6
Continuous
 62
   120
370
     5
100
AcDbLine
 10
-3964.217895871214
 20
-2781.000404213941
 30
0.0
 11
-3844.217895871214
 21
-2781.000404213941
 31
0.0
  0
LINE
  5
3B9
330
1F
100
AcDbEntity
  8
0-0_補助線
  6
JWW_HOJO
 62
   120
370
     5
100
AcDbLine
 10
-3773.717895871197
 20
-2592.000404213941
 30
0.0
 11
-3773.717895871197
 21
-2856.000591679352
 31
0.0
  0
LWPOLYLINE
  5
3BA
330
1F
100
AcDbEntity
  8
0-B_寸法
  6
Continuous
 62
     7
370
     9
100
AcDbPolyline
 90
        4
 70
     1
 43
3.0
 10
-2726.71789642457
 20
-2781.000404213941
 42
0.4142135623731
 10
-2728.21789642457
 20
-2779.500404213941
 42
0.4142135623731
 10
-2729.71789642457
 20
-2781.000404213941
 42
0.4142135623731
 10
-2728.21789642457
 20
-2782.500404213941
 42
0.4142135623731
  0
LINE
  5
3BB
330
1F
100
AcDbEntity
  8
0-B_寸法
  6
Continuous
 62
   120
370
     5
100
AcDbLine
 10
-2728.21789642457
 20
-2730.000404213942
 30
0.0
 11
-2728.21789642457
 21
-2781.000404213941
 31
0.0
  0
MTEXT
  5
3BC
330
1F
100
AcDbEntity
  8
0-B_寸法
  6
Continuous
 62
     7
370
   211
100
AcDbMText
 10
-2533.21789642457
 20
-318.1729042139652
 30
0.0
 40
97.15499999999999
 41
127.5
 46
0.0
 71
     7
 72
     1
  1
{\fＭＳ ゴシック|b0|i0|c128|p49;30}
 11
6.123031769111886E-17
 21
1.0
 31
0.0
 73
     1
 44
1.0
  0
MTEXT
  5
3BD
330
1F
100
AcDbEntity
  8
0-B_寸法
  6
Continuous
 62
     7
370
   211
100
AcDbMText
 10
-2953.21789642457
 20
-637.4704035815583
 30
0.0
 40
99.06
 41
195.0
 46
0.0
 71
     7
 72
     1
  1
{\fＭＳ ゴシック|b0|i0|c128|p49;6.3}
 11
6.123031769111886E-17
 21
1.0
 31
0.0
 73
     1
 44
1.0
  0
MTEXT
  5
3BE
330
1F
100
AcDbEntity
  8
0-B_寸法
  6
Continuous
 62
     7
370
   211
100
AcDbMText
 10
-2743.21789642457
 20
-704.4941535815583
 30
0.0
 40
100.0125
 41
262.5
 46
0.0
 71
     7
 72
     1
  1
{\fＭＳ ゴシック|b0|i0|c128|p49;13.5}
 11
6.123031769111886E-17
 21
1.0
 31
0.0
 73
     1
 44
1.0
  0
MTEXT
  5
3BF
330
1F
100
AcDbEntity
  8
0-B_寸法
  6
Continuous
 62
     7
370
   211
100
AcDbMText
 10
-3784.217895871216
 20
-1118.28032480045
 30
0.0
 40
91.44
 41
120.0
 46
0.0
 71
     7
 72
     1
  1
{\fＭＳ ゴシック|b0|i0|c128|p49;30}
 73
     1
 44
1.0
  0
MTEXT
  5
3C0
330
1F
100
AcDbEntity
  8
0-B_寸法
  6
Continuous
 62
     7
370
   211
100
AcDbMText
 10
-3802.217895871207
 20
-2523.900404213941
 30
0.0
 40
76.19999999999999
 41
150.0
 46
0.0
 71
     7
 72
     1
  1
{\fＭＳ ゴシック|b0|i0|c128|p49;4.5}
 73
     1
 44
1.0
  0
MTEXT
  5
3C1
330
1F
100
AcDbEntity
  8
0-B_寸法
  6
Continuous
 62
     7
370
   211
100
AcDbMText
 10
-2743.21789642457
 20
-2728.470404213941
 30
0.0
 40
99.06
 41
195.0
 46
0.0
 71
     7
 72
     1
  1
{\fＭＳ ゴシック|b0|i0|c128|p49;8.5}
 11
6.123031769111886E-17
 21
1.0
 31
0.0
 73
     1
 44
1.0
  0
MTEXT
  5
3C2
330
1F
100
AcDbEntity
  8
0-B_寸法
  6
Continuous
 62
     7
370
   211
100
AcDbMText
 10
-3469.217895871216
 20
-2750.280404213942
 30
0.0
 40
91.44
 41
120.0
 46
0.0
 71
     7
 72
     1
  1
{\fＭＳ ゴシック|b0|i0|c128|p49;18}
 11
6.123031769111886E-17
 21
1.0
 31
0.0
 73
     1
 44
1.0
  0
MTEXT
  5
3C3
330
1F
100
AcDbEntity
  8
0-B_寸法
  6
Continuous
 62
     7
370
   211
100
AcDbMText
 10
-3979.217895871214
 20
-2784.520741168255
 30
0.0
 40
91.44
 41
120.0
 46
0.0
 71
     7
 72
     1
  1
{\fＭＳ ゴシック|b0|i0|c128|p49;20}
 11
6.123031769111886E-17
 21
1.0
 31
0.0
 73
     1
 44
1.0
  0
MTEXT
  5
3C4
330
1F
100
AcDbEntity
  8
0-B_寸法
  6
Continuous
 62
     7
370
   211
100
AcDbMText
 10
-2323.21789642457
 20
-3003.922904213942
 30
0.0
 40
97.15499999999999
 41
127.5
 46
0.0
 71
     7
 72
     1
  1
{\fＭＳ ゴシック|b0|i0|c128|p49;12}
 11
6.123031769111886E-17
 21
1.0
 31
0.0
 73
     1
 44
1.0
  0
MTEXT
  5
3C5
330
1F
100
AcDbEntity
  8
0-A_文字
  6
Continuous
 62
     7
370
     9
100
AcDbMText
 10
-4530.38786086206
 20
341.6364576378726
 30
0.0
 40
91.44000000000014
 41
600.0000000000009
 46
0.0
 71
     7
 72
     1
  1
{\fＭＳ ゴシック|b0|i0|c128|p49;■縦断面図}
 73
     1
 44
1.0
  0
LINE
  5
3C6
330
1F
100
AcDbEntity
  8
1-1_通り芯
  6
JWW_CENTER1
 62
   120
370
     5
100
AcDbLine
 10
1367.066660198478
 20
-482.1136554613793
 30
0.0
 11
1367.066660198478
 21
-2629.737142997831
 31
0.0
  0
LINE
  5
3C7
330
1F
100
AcDbEntity
  8
1-3_仕上げ
  6
Continuous
 62
    40
370
    15
100
AcDbLine
 10
326.0289545670348
 20
-2315.655803330846
 30
0.0
 11
2398.993001201749
 21
-2315.655803330846
 31
0.0
  0
LINE
  5
3C8
330
1F
100
AcDbEntity
  8
0-A_文字
  6
Continuous
 62
    92
370
    13
100
AcDbLine
 10
47.06666019847589
 20
-2838.000403945538
 30
0.0
 11
47.06666019847589
 21
-18.00019795188703
 31
0.0
  0
LINE
  5
3C9
330
1F
100
AcDbEntity
  8
1-3_仕上げ
  6
Continuous
 62
    40
370
    15
100
AcDbLine
 10
326.0289545670348
 20
-2495.655803330844
 30
0.0
 11
2398.993001201749
 21
-2495.655803330844
 31
0.0
  0
LINE
  5
3CA
330
1F
100
AcDbEntity
  8
0-A_文字
  6
Continuous
 62
    92
370
    13
100
AcDbLine
 10
47.06666019847589
 20
-198.000197951887
 30
0.0
 11
2687.066660198476
 21
-198.000197951887
 31
0.0
  0
LINE
  5
3CB
330
1F
100
AcDbEntity
  8
0-A_文字
  6
Continuous
 62
    92
370
    13
100
AcDbLine
 10
47.06666019847589
 20
-18.00019795188703
 30
0.0
 11
2687.066660198476
 21
-18.00019795188703
 31
0.0
  0
LINE
  5
3CC
330
1F
100
AcDbEntity
  8
0-A_文字
  6
Continuous
 62
    92
370
    13
100
AcDbLine
 10
47.06666019847589
 20
-2838.000403945538
 30
0.0
 11
2687.066660198476
 21
-2838.000403945538
 31
0.0
  0
LINE
  5
3CD
330
1F
100
AcDbEntity
  8
0-A_文字
  6
Continuous
 62
    92
370
    13
100
AcDbLine
 10
2687.066660198476
 20
-18.00019795188703
 30
0.0
 11
2687.066660198476
 21
-2838.000403945538
 31
0.0
  0
LINE
  5
3CE
330
1F
100
AcDbEntity
  8
1-0_補助線
  6
JWW_HOJO
 62
   120
370
     5
100
AcDbLine
 10
1775.816660198455
 20
-1843.155803330847
 30
0.0
 11
1775.816660198455
 21
-2495.655287649538
 31
0.0
  0
LINE
  5
3CF
330
1F
100
AcDbEntity
  8
1-0_補助線
  6
JWW_HOJO
 62
   120
370
     5
100
AcDbLine
 10
1952.066660198457
 20
-1843.155803330847
 30
0.0
 11
1952.066660198457
 21
-2495.655287649538
 31
0.0
  0
LINE
  5
3D0
330
1F
100
AcDbEntity
  8
1-6_扉
  6
JWW_DASHED2
 62
     7
370
     9
100
AcDbLine
 10
1427.066660198457
 20
-510.9103996823083
 30
0.0
 11
1427.066660198457
 21
-2188.155803330849
 31
0.0
  0
LINE
  5
3D1
330
1F
100
AcDbEntity
  8
1-4_枠
  6
Continuous
 62
    92
370
    13
100
AcDbLine
 10
2214.566660198474
 20
-510.9103996823083
 30
0.0
 11
2214.566660198474
 21
-2315.655803330846
 31
0.0
  0
LINE
  5
3D2
330
1F
100
AcDbEntity
  8
1-B_寸法
  6
Continuous
 62
   120
370
     5
100
AcDbLine
 10
519.5666601984725
 20
-723.4888920769581
 30
0.0
 11
2214.566660198474
 21
-723.4888920769581
 31
0.0
  0
LWPOLYLINE
  5
3D3
330
1F
100
AcDbEntity
  8
1-B_寸法
  6
Continuous
 62
     7
370
     9
100
AcDbPolyline
 90
        4
 70
     1
 43
3.0
 10
521.0666601984725
 20
-723.4888920769581
 42
0.4142135623731
 10
519.5666601984725
 20
-721.988892076958
 42
0.4142135623731
 10
518.0666601984725
 20
-723.4888920769581
 42
0.4142135623731
 10
519.5666601984725
 20
-724.9888920769581
 42
0.4142135623731
  0
LWPOLYLINE
  5
3D4
330
1F
100
AcDbEntity
  8
1-B_寸法
  6
Continuous
 62
     7
370
     9
100
AcDbPolyline
 90
        4
 70
     1
 43
3.0
 10
2216.066660198474
 20
-723.4888920769581
 42
0.4142135623731
 10
2214.566660198474
 20
-721.988892076958
 42
0.4142135623731
 10
2213.066660198474
 20
-723.4888920769581
 42
0.4142135623731
 10
2214.566660198474
 20
-724.9888920769581
 42
0.4142135623731
  0
LINE
  5
3D5
330
1F
100
AcDbEntity
  8
1-6_扉
  6
JWW_DASHED2
 62
     7
370
     9
100
AcDbLine
 10
1877.066660198457
 20
-510.9103996823083
 30
0.0
 11
1877.066660198457
 21
-1982.096364289667
 31
0.0
  0
LINE
  5
3D6
330
1F
100
AcDbEntity
  8
1-0_補助線
  6
JWW_HOJO
 62
   120
370
     5
100
AcDbLine
 10
1652.066660198483
 20
-510.9103996823083
 30
0.0
 11
1652.066660198483
 21
-2495.655803330844
 31
0.0
  0
LWPOLYLINE
  5
3D7
330
1F
100
AcDbEntity
  8
1-B_寸法
  6
Continuous
 62
     7
370
     9
100
AcDbPolyline
 90
        4
 70
     1
 43
3.0
 10
1428.566660198457
 20
-903.4888920769581
 42
0.4142135623731
 10
1427.066660198457
 20
-901.988892076958
 42
0.4142135623731
 10
1425.566660198457
 20
-903.4888920769581
 42
0.4142135623731
 10
1427.066660198457
 20
-904.9888920769581
 42
0.4142135623731
  0
LWPOLYLINE
  5
3D8
330
1F
100
AcDbEntity
  8
1-B_寸法
  6
Continuous
 62
     7
370
     9
100
AcDbPolyline
 90
        4
 70
     1
 43
3.0
 10
1331.066660198472
 20
-903.4888920769581
 42
0.4142135623731
 10
1329.566660198472
 20
-901.988892076958
 42
0.4142135623731
 10
1328.066660198473
 20
-903.4888920769581
 42
0.4142135623731
 10
1329.566660198472
 20
-904.9888920769581
 42
0.4142135623731
  0
LINE
  5
3D9
330
1F
100
AcDbEntity
  8
1-B_寸法
  6
Continuous
 62
   120
370
     5
100
AcDbLine
 10
1427.066660198457
 20
-903.4888920769581
 30
0.0
 11
1427.066660198457
 21
-1053.488892076958
 31
0.0
  0
LINE
  5
3DA
330
1F
100
AcDbEntity
  8
1-B_寸法
  6
Continuous
 62
   120
370
     5
100
AcDbLine
 10
1329.566660198472
 20
-903.4888920769581
 30
0.0
 11
1329.566660198472
 21
-1053.488892076958
 31
0.0
  0
LINE
  5
3DB
330
1F
100
AcDbEntity
  8
1-B_寸法
  6
Continuous
 62
   120
370
     5
100
AcDbLine
 10
1329.566660198472
 20
-903.4888920769581
 30
0.0
 11
519.5666601984725
 21
-903.4888920769581
 31
0.0
  0
LWPOLYLINE
  5
3DC
330
1F
100
AcDbEntity
  8
1-B_寸法
  6
Continuous
 62
     7
370
     9
100
AcDbPolyline
 90
        4
 70
     1
 43
3.0
 10
521.0666601984725
 20
-903.4888920769581
 42
0.4142135623731
 10
519.5666601984725
 20
-901.988892076958
 42
0.4142135623731
 10
518.0666601984725
 20
-903.4888920769581
 42
0.4142135623731
 10
519.5666601984725
 20
-904.9888920769581
 42
0.4142135623731
  0
LINE
  5
3DD
330
1F
100
AcDbEntity
  8
1-B_寸法
  6
Continuous
 62
   120
370
     5
100
AcDbLine
 10
519.5666601984725
 20
-903.4888920769581
 30
0.0
 11
519.5666601984725
 21
-1053.488892076958
 31
0.0
  0
LINE
  5
3DE
330
1F
100
AcDbEntity
  8
1-B_寸法
  6
Continuous
 62
   120
370
     5
100
AcDbLine
 10
1667.066660198457
 20
-903.4888920769581
 30
0.0
 11
1329.566660198472
 21
-903.4888920769581
 31
0.0
  0
LINE
  5
3DF
330
1F
100
AcDbEntity
  8
1-0_補助線
  6
JWW_HOJO
 62
   120
370
     5
100
AcDbLine
 10
1952.066660198457
 20
-1843.155803330847
 30
0.0
 11
1078.316660198428
 21
-1843.155803330847
 31
0.0
  0
LINE
  5
3E0
330
1F
100
AcDbEntity
  8
1-0_補助線
  6
JWW_HOJO
 62
   120
370
     5
100
AcDbLine
 10
1078.316660198428
 20
-1843.155803330847
 30
0.0
 11
1078.316660198428
 21
-2495.655287649538
 31
0.0
  0
LINE
  5
3E1
330
1F
100
AcDbEntity
  8
1-0_補助線
  6
JWW_HOJO
 62
   120
370
     5
100
AcDbLine
 10
1254.566660198472
 20
-1843.155803330847
 30
0.0
 11
1254.566660198472
 21
-2495.655287649538
 31
0.0
  0
LINE
  5
3E2
330
1F
100
AcDbEntity
  8
1-4_枠
  6
Continuous
 62
    92
370
    13
100
AcDbLine
 10
519.5666601984725
 20
-510.9103996823083
 30
0.0
 11
519.5666601984725
 21
-2315.655803330846
 31
0.0
  0
LINE
  5
3E3
330
1F
100
AcDbEntity
  8
1-4_枠
  6
Continuous
 62
    92
370
    13
100
AcDbLine
 10
1329.566660198472
 20
-510.9103996823083
 30
0.0
 11
1329.566660198472
 21
-2315.655803330846
 31
0.0
  0
LWPOLYLINE
  5
3E4
330
1F
100
AcDbEntity
  8
1-B_寸法
  6
Continuous
 62
     7
370
     9
100
AcDbPolyline
 90
        4
 70
     1
 43
3.0
 10
1200.388623592797
 20
-2315.655803330849
 42
0.4142135623731
 10
1198.888623592797
 20
-2314.155803330849
 42
0.4142135623731
 10
1197.388623592798
 20
-2315.655803330849
 42
0.4142135623731
 10
1198.888623592797
 20
-2317.155803330849
 42
0.4142135623731
  0
LINE
  5
3E5
330
1F
100
AcDbEntity
  8
1-B_寸法
  6
Continuous
 62
   120
370
     5
100
AcDbLine
 10
1198.888623592797
 20
-2315.655803330849
 30
0.0
 11
1292.066660198455
 21
-2315.655803330849
 31
0.0
  0
LINE
  5
3E6
330
1F
100
AcDbEntity
  8
1-A_文字
  6
Continuous
 62
     7
370
     9
100
AcDbLine
 10
1242.613254660279
 20
-2631.972886088524
 30
0.0
 11
1167.613254660279
 21
-2631.972886088524
 31
0.0
  0
LINE
  5
3E7
330
1F
100
AcDbEntity
  8
1-A_文字
  6
Continuous
 62
     7
370
     9
100
AcDbLine
 10
1436.364276225945
 20
-2296.386272718419
 30
0.0
 11
1242.613254660279
 21
-2631.972886088524
 31
0.0
  0
LINE
  5
3E8
330
1F
100
AcDbEntity
  8
1-7_金物
  6
Continuous
 62
   120
370
     5
100
AcDbLine
 10
1636.974635249307
 20
-2315.044354796386
 30
0.0
 11
1673.968814087293
 21
-2278.050175958392
 31
0.0
  0
LINE
  5
3E9
330
1F
100
AcDbEntity
  8
1-7_金物
  6
Continuous
 62
   120
370
     5
100
AcDbLine
 10
1572.723576407971
 20
-2315.655803330825
 30
0.0
 11
1617.722083689781
 21
-2270.657296049024
 31
0.0
  0
LINE
  5
3EA
330
1F
100
AcDbEntity
  8
1-7_金物
  6
Continuous
 62
   120
370
     5
100
AcDbLine
 10
1629.568820270739
 20
-2258.810559468056
 30
0.0
 11
1674.568820270774
 21
-2213.810559468033
 31
0.0
  0
LINE
  5
3EB
330
1F
100
AcDbEntity
  8
1-7_金物
  6
Continuous
 62
   120
370
     5
100
AcDbLine
 10
1509.083966101217
 20
-2315.655803330847
 30
0.0
 11
1554.082473383001
 21
-2270.65729604905
 31
0.0
  0
LINE
  5
3EC
330
1F
100
AcDbEntity
  8
1-7_金物
  6
Continuous
 62
   120
370
     5
100
AcDbLine
 10
1629.568820270764
 20
-2195.170949161293
 30
0.0
 11
1674.568820270783
 21
-2150.170949161279
 31
0.0
  0
LINE
  5
3ED
330
1F
100
AcDbEntity
  8
1-7_金物
  6
Continuous
 62
   120
370
     5
100
AcDbLine
 10
1445.444355794463
 20
-2315.655803330855
 30
0.0
 11
1490.442863076239
 21
-2270.657296049076
 31
0.0
  0
LINE
  5
3EE
330
1F
100
AcDbEntity
  8
1-7_金物
  6
Continuous
 62
   120
370
     5
100
AcDbLine
 10
1629.56882027079
 20
-2131.531338854526
 30
0.0
 11
1674.5688202708
 21
-2086.531338854514
 31
0.0
  0
LINE
  5
3EF
330
1F
100
AcDbEntity
  8
1-7_金物
  6
Continuous
 62
   120
370
     5
100
AcDbLine
 10
1629.568820270773
 20
-2067.891728547666
 30
0.0
 11
1674.568820270792
 21
-2022.891728547643
 31
0.0
  0
LINE
  5
3F0
330
1F
100
AcDbEntity
  8
1-7_金物
  6
Continuous
 62
   120
370
     5
100
AcDbLine
 10
1404.568820270751
 20
-2292.891728547679
 30
0.0
 11
1426.803252769399
 21
-2270.657296049031
 31
0.0
  0
LINE
  5
3F1
330
1F
100
AcDbEntity
  8
1-7_金物
  6
Continuous
 62
    92
370
    13
100
AcDbLine
 10
1404.568820270751
 20
-2270.655803330849
 30
0.0
 11
1404.568820270751
 21
-2315.655803330849
 31
0.0
  0
LINE
  5
3F2
330
1F
100
AcDbEntity
  8
1-7_金物
  6
Continuous
 62
    92
370
    13
100
AcDbLine
 10
1404.568820270751
 20
-2270.655803330849
 30
0.0
 11
1629.568820270775
 21
-2270.655803330849
 31
0.0
  0
LINE
  5
3F3
330
1F
100
AcDbEntity
  8
1-7_金物
  6
Continuous
 62
    92
370
    13
100
AcDbLine
 10
1629.568820270775
 20
-2015.655803330849
 30
0.0
 11
1674.568820270774
 21
-2015.655803330849
 31
0.0
  0
LINE
  5
3F4
330
1F
100
AcDbEntity
  8
1-7_金物
  6
Continuous
 62
    92
370
    13
100
AcDbLine
 10
1629.568820270775
 20
-2015.655803330849
 30
0.0
 11
1629.568820270775
 21
-2270.655803330849
 31
0.0
  0
LINE
  5
3F5
330
1F
100
AcDbEntity
  8
1-7_金物
  6
Continuous
 62
    92
370
    13
100
AcDbLine
 10
1629.568820270775
 20
-2315.655803330849
 30
0.0
 11
1404.568820270751
 21
-2315.655803330849
 31
0.0
  0
LINE
  5
3F6
330
1F
100
AcDbEntity
  8
1-7_金物
  6
Continuous
 62
    92
370
    13
100
AcDbLine
 10
1674.568820270774
 20
-2270.655803330849
 30
0.0
 11
1674.568820270774
 21
-2015.655803330849
 31
0.0
  0
ARC
  5
3F7
330
1F
100
AcDbEntity
  8
1-7_金物
  6
Continuous
 62
    92
370
    13
100
AcDbCircle
 10
1629.568820270775
 20
-2270.655803330849
 30
0.0
 40
45.0
100
AcDbArc
 50
270.0
 51
0.0
  0
LINE
  5
3F8
330
1F
100
AcDbEntity
  8
1-B_寸法
  6
Continuous
 62
   120
370
     5
100
AcDbLine
 10
1198.888623592797
 20
-2315.655803330849
 30
0.0
 11
1198.888623592797
 21
-2015.655803330849
 31
0.0
  0
LWPOLYLINE
  5
3F9
330
1F
100
AcDbEntity
  8
1-B_寸法
  6
Continuous
 62
     7
370
     9
100
AcDbPolyline
 90
        4
 70
     1
 43
3.0
 10
1200.388623592797
 20
-2015.655803330849
 42
0.4142135623731
 10
1198.888623592797
 20
-2014.155803330849
 42
0.4142135623731
 10
1197.388623592798
 20
-2015.655803330849
 42
0.4142135623731
 10
1198.888623592797
 20
-2017.155803330849
 42
0.4142135623731
  0
LINE
  5
3FA
330
1F
100
AcDbEntity
  8
1-B_寸法
  6
Continuous
 62
   120
370
     5
100
AcDbLine
 10
1198.888623592797
 20
-2015.655803330849
 30
0.0
 11
1292.066660198455
 21
-2015.655803330849
 31
0.0
  0
LINE
  5
3FB
330
1F
100
AcDbEntity
  8
1-B_寸法
  6
Continuous
 62
   120
370
     5
100
AcDbLine
 10
1674.568820270775
 20
-1702.00469702709
 30
0.0
 11
1404.568820270751
 21
-1702.00469702709
 31
0.0
  0
LWPOLYLINE
  5
3FC
330
1F
100
AcDbEntity
  8
1-B_寸法
  6
Continuous
 62
     7
370
     9
100
AcDbPolyline
 90
        4
 70
     1
 43
3.0
 10
1676.068820270775
 20
-1702.00469702709
 42
0.4142135623731
 10
1674.568820270775
 20
-1700.50469702709
 42
0.4142135623731
 10
1673.068820270775
 20
-1702.00469702709
 42
0.4142135623731
 10
1674.568820270775
 20
-1703.50469702709
 42
0.4142135623731
  0
LWPOLYLINE
  5
3FD
330
1F
100
AcDbEntity
  8
1-B_寸法
  6
Continuous
 62
     7
370
     9
100
AcDbPolyline
 90
        4
 70
     1
 43
3.0
 10
1406.068820270751
 20
-1702.00469702709
 42
0.4142135623731
 10
1404.568820270751
 20
-1700.50469702709
 42
0.4142135623731
 10
1403.068820270752
 20
-1702.00469702709
 42
0.4142135623731
 10
1404.568820270751
 20
-1703.50469702709
 42
0.4142135623731
  0
LINE
  5
3FE
330
1F
100
AcDbEntity
  8
1-B_寸法
  6
Continuous
 62
   120
370
     5
100
AcDbLine
 10
1674.568820270775
 20
-1702.00469702709
 30
0.0
 11
1674.568820270775
 21
-1852.00469702709
 31
0.0
  0
LINE
  5
3FF
330
1F
100
AcDbEntity
  8
1-B_寸法
  6
Continuous
 62
   120
370
     5
100
AcDbLine
 10
1404.568820270751
 20
-1702.00469702709
 30
0.0
 11
1404.568820270751
 21
-1852.00469702709
 31
0.0
  0
LINE
  5
400
330
1F
100
AcDbEntity
  8
1-B_寸法
  6
Continuous
 62
   120
370
     5
100
AcDbLine
 10
1404.568820270751
 20
-1702.00469702709
 30
0.0
 11
1329.566660198455
 21
-1702.00469702709
 31
0.0
  0
LWPOLYLINE
  5
401
330
1F
100
AcDbEntity
  8
1-B_寸法
  6
Continuous
 62
     7
370
     9
100
AcDbPolyline
 90
        4
 70
     1
 43
3.0
 10
1331.066660198455
 20
-1702.00469702709
 42
0.4142135623731
 10
1329.566660198455
 20
-1700.50469702709
 42
0.4142135623731
 10
1328.066660198456
 20
-1702.00469702709
 42
0.4142135623731
 10
1329.566660198455
 20
-1703.50469702709
 42
0.4142135623731
  0
LINE
  5
402
330
1F
100
AcDbEntity
  8
1-B_寸法
  6
Continuous
 62
   120
370
     5
100
AcDbLine
 10
1329.566660198455
 20
-1702.00469702709
 30
0.0
 11
1329.566660198455
 21
-1852.00469702709
 31
0.0
  0
LINE
  5
403
330
1F
100
AcDbEntity
  8
1-6_扉
  6
JWW_DASHED2
 62
     7
370
     9
100
AcDbLine
 10
1603.31454304147
 20
-2188.155803330845
 30
0.0
 11
1603.31454304147
 21
-1918.155803330845
 31
0.0
  0
LINE
  5
404
330
1F
100
AcDbEntity
  8
1-6_扉
  6
JWW_DASHED2
 62
     7
370
     9
100
AcDbLine
 10
1700.816660198453
 20
-1918.155803330845
 30
0.0
 11
1700.816660198453
 21
-2188.155803330845
 31
0.0
  0
LINE
  5
405
330
1F
100
AcDbEntity
  8
1-6_扉
  6
JWW_DASHED2
 62
     7
370
     9
100
AcDbLine
 10
1700.816660198453
 20
-1918.155803330845
 30
0.0
 11
1603.31454304147
 21
-1918.155803330845
 31
0.0
  0
LINE
  5
406
330
1F
100
AcDbEntity
  8
1-7_金物
  6
Continuous
 62
     7
370
     9
100
AcDbLine
 10
1603.318820270754
 20
-2188.155803330849
 30
0.0
 11
1603.318820270754
 21
-1918.155803330849
 31
0.0
  0
LINE
  5
407
330
1F
100
AcDbEntity
  8
1-7_金物
  6
Continuous
 62
     7
370
     9
100
AcDbLine
 10
1558.318820270752
 20
-2188.155803330849
 30
0.0
 11
1603.318820270754
 21
-2188.155803330849
 31
0.0
  0
LINE
  5
408
330
1F
100
AcDbEntity
  8
1-7_金物
  6
Continuous
 62
     7
370
     9
100
AcDbLine
 10
1558.318820270752
 20
-2203.155803330846
 30
0.0
 11
1558.318820270752
 21
-2188.155803330849
 31
0.0
  0
LINE
  5
409
330
1F
100
AcDbEntity
  8
1-7_金物
  6
Continuous
 62
     7
370
     9
100
AcDbLine
 10
1618.318820270757
 20
-2203.155803330846
 30
0.0
 11
1618.318820270757
 21
-1933.155803330848
 31
0.0
  0
LINE
  5
40A
330
1F
100
AcDbEntity
  8
1-7_金物
  6
Continuous
 62
     7
370
     9
100
AcDbLine
 10
1618.318820270757
 20
-2203.155803330846
 30
0.0
 11
1558.318820270752
 21
-2203.155803330846
 31
0.0
  0
LINE
  5
40B
330
1F
100
AcDbEntity
  8
1-7_金物
  6
Continuous
 62
     7
370
     9
100
AcDbLine
 10
1700.818820270755
 20
-1918.155803330849
 30
0.0
 11
1700.818820270755
 21
-2188.155803330849
 31
0.0
  0
LINE
  5
40C
330
1F
100
AcDbEntity
  8
1-7_金物
  6
Continuous
 62
     7
370
     9
100
AcDbLine
 10
1685.818820270751
 20
-1933.155803330848
 30
0.0
 11
1685.818820270751
 21
-2203.155803330846
 31
0.0
  0
LINE
  5
40D
330
1F
100
AcDbEntity
  8
1-7_金物
  6
Continuous
 62
     7
370
     9
100
AcDbLine
 10
1603.318820270754
 20
-1918.155803330849
 30
0.0
 11
1700.818820270755
 21
-1918.155803330849
 31
0.0
  0
LINE
  5
40E
330
1F
100
AcDbEntity
  8
1-7_金物
  6
Continuous
 62
     7
370
     9
100
AcDbLine
 10
1685.818820270751
 20
-1933.155803330848
 30
0.0
 11
1618.318820270757
 21
-1933.155803330848
 31
0.0
  0
LINE
  5
40F
330
1F
100
AcDbEntity
  8
1-7_金物
  6
Continuous
 62
     7
370
     9
100
AcDbLine
 10
1685.818820270751
 20
-2203.155803330846
 30
0.0
 11
1745.818820270752
 21
-2203.155803330846
 31
0.0
  0
LINE
  5
410
330
1F
100
AcDbEntity
  8
1-7_金物
  6
Continuous
 62
     7
370
     9
100
AcDbLine
 10
1745.818820270752
 20
-2188.155803330849
 30
0.0
 11
1745.818820270752
 21
-2203.155803330846
 31
0.0
  0
LINE
  5
411
330
1F
100
AcDbEntity
  8
1-7_金物
  6
Continuous
 62
     7
370
     9
100
AcDbLine
 10
1700.818820270755
 20
-2188.155803330849
 30
0.0
 11
1745.818820270752
 21
-2188.155803330849
 31
0.0
  0
LINE
  5
412
330
1F
100
AcDbEntity
  8
1-6_扉
  6
JWW_DASHED2
 62
     7
370
     9
100
AcDbLine
 10
1820.818820270752
 20
-2188.155803330849
 30
0.0
 11
1700.818820270755
 21
-2188.155803330849
 31
0.0
  0
LINE
  5
413
330
1F
100
AcDbEntity
  8
1-6_扉
  6
JWW_DASHED2
 62
     7
370
     9
100
AcDbLine
 10
1603.31454304147
 20
-2188.155803330849
 30
0.0
 11
1427.066660198457
 21
-2188.155803330849
 31
0.0
  0
LINE
  5
414
330
1F
100
AcDbEntity
  8
1-B_寸法
  6
Continuous
 62
   120
370
     5
100
AcDbLine
 10
2120.818820270752
 20
-2315.655803330849
 30
0.0
 11
1820.818820270752
 21
-2315.655803330849
 31
0.0
  0
LINE
  5
415
330
1F
100
AcDbEntity
  8
1-B_寸法
  6
Continuous
 62
   120
370
     5
100
AcDbLine
 10
1820.818820270752
 20
-2270.655803330849
 30
0.0
 11
1970.818820270752
 21
-2270.655803330849
 31
0.0
  0
LINE
  5
416
330
1F
100
AcDbEntity
  8
1-B_寸法
  6
Continuous
 62
   120
370
     5
100
AcDbLine
 10
1970.818820270752
 20
-2270.655803330849
 30
0.0
 11
1970.818820270752
 21
-2315.655803330849
 31
0.0
  0
LINE
  5
417
330
1F
100
AcDbEntity
  8
1-B_寸法
  6
Continuous
 62
   120
370
     5
100
AcDbLine
 10
2120.818820270752
 20
-2315.655803330849
 30
0.0
 11
2120.818820270752
 21
-2495.655803330848
 31
0.0
  0
LINE
  5
418
330
1F
100
AcDbEntity
  8
1-B_寸法
  6
Continuous
 62
   120
370
     5
100
AcDbLine
 10
2120.818820270752
 20
-2495.655803330848
 30
0.0
 11
1820.818820270752
 21
-2495.655803330848
 31
0.0
  0
LWPOLYLINE
  5
419
330
1F
100
AcDbEntity
  8
1-B_寸法
  6
Continuous
 62
     7
370
     9
100
AcDbPolyline
 90
        4
 70
     1
 43
3.0
 10
1972.318820270752
 20
-2315.655803330849
 42
0.4142135623731
 10
1970.818820270752
 20
-2314.155803330849
 42
0.4142135623731
 10
1969.318820270752
 20
-2315.655803330849
 42
0.4142135623731
 10
1970.818820270752
 20
-2317.155803330849
 42
0.4142135623731
  0
LWPOLYLINE
  5
41A
330
1F
100
AcDbEntity
  8
1-B_寸法
  6
Continuous
 62
     7
370
     9
100
AcDbPolyline
 90
        4
 70
     1
 43
3.0
 10
1972.318820270752
 20
-2270.655803330849
 42
0.4142135623731
 10
1970.818820270752
 20
-2269.155803330849
 42
0.4142135623731
 10
1969.318820270752
 20
-2270.655803330849
 42
0.4142135623731
 10
1970.818820270752
 20
-2272.155803330849
 42
0.4142135623731
  0
LWPOLYLINE
  5
41B
330
1F
100
AcDbEntity
  8
1-B_寸法
  6
Continuous
 62
     7
370
     9
100
AcDbPolyline
 90
        4
 70
     1
 43
3.0
 10
2122.318820270752
 20
-2495.655803330848
 42
0.4142135623731
 10
2120.818820270752
 20
-2494.155803330848
 42
0.4142135623731
 10
2119.318820270752
 20
-2495.655803330848
 42
0.4142135623731
 10
2120.818820270752
 20
-2497.155803330848
 42
0.4142135623731
  0
LWPOLYLINE
  5
41C
330
1F
100
AcDbEntity
  8
1-B_寸法
  6
Continuous
 62
     7
370
     9
100
AcDbPolyline
 90
        4
 70
     1
 43
3.0
 10
2122.318820270752
 20
-2315.655803330849
 42
0.4142135623731
 10
2120.818820270752
 20
-2314.155803330849
 42
0.4142135623731
 10
2119.318820270752
 20
-2315.655803330849
 42
0.4142135623731
 10
2120.818820270752
 20
-2317.155803330849
 42
0.4142135623731
  0
LINE
  5
41D
330
1F
100
AcDbEntity
  8
1-B_寸法
  6
Continuous
 62
   120
370
     5
100
AcDbLine
 10
1820.818820270752
 20
-2188.155803330849
 30
0.0
 11
2120.818820270752
 21
-2188.155803330849
 31
0.0
  0
LINE
  5
41E
330
1F
100
AcDbEntity
  8
1-B_寸法
  6
Continuous
 62
   120
370
     5
100
AcDbLine
 10
1970.818820270752
 20
-2270.655803330849
 30
0.0
 11
1970.818820270752
 21
-1997.096364289667
 31
0.0
  0
LINE
  5
41F
330
1F
100
AcDbEntity
  8
1-B_寸法
  6
Continuous
 62
   120
370
     5
100
AcDbLine
 10
2120.818820270752
 20
-1997.096364289667
 30
0.0
 11
2120.818820270752
 21
-2315.655803330849
 31
0.0
  0
LWPOLYLINE
  5
420
330
1F
100
AcDbEntity
  8
1-B_寸法
  6
Continuous
 62
     7
370
     9
100
AcDbPolyline
 90
        4
 70
     1
 43
3.0
 10
1972.318820270752
 20
-2188.155803330849
 42
0.4142135623731
 10
1970.818820270752
 20
-2186.655803330849
 42
0.4142135623731
 10
1969.318820270752
 20
-2188.155803330849
 42
0.4142135623731
 10
1970.818820270752
 20
-2189.655803330849
 42
0.4142135623731
  0
LWPOLYLINE
  5
421
330
1F
100
AcDbEntity
  8
1-B_寸法
  6
Continuous
 62
     7
370
     9
100
AcDbPolyline
 90
        4
 70
     1
 43
3.0
 10
2122.318820270752
 20
-2188.155803330849
 42
0.4142135623731
 10
2120.818820270752
 20
-2186.655803330849
 42
0.4142135623731
 10
2119.318820270752
 20
-2188.155803330849
 42
0.4142135623731
 10
2120.818820270752
 20
-2189.655803330849
 42
0.4142135623731
  0
LINE
  5
422
330
1F
100
AcDbEntity
  8
1-B_寸法
  6
Continuous
 62
   120
370
     5
100
AcDbLine
 10
1040.391597032127
 20
-2188.155803330849
 30
0.0
 11
1183.070465584537
 21
-2188.155803330849
 31
0.0
  0
LINE
  5
423
330
1F
100
AcDbEntity
  8
1-B_寸法
  6
Continuous
 62
   120
370
     5
100
AcDbLine
 10
1040.391597032127
 20
-1918.15580333085
 30
0.0
 11
1292.066660198455
 21
-1918.15580333085
 31
0.0
  0
LWPOLYLINE
  5
424
330
1F
100
AcDbEntity
  8
1-B_寸法
  6
Continuous
 62
     7
370
     9
100
AcDbPolyline
 90
        4
 70
     1
 43
3.0
 10
1041.891597032127
 20
-1918.15580333085
 42
0.4142135623731
 10
1040.391597032127
 20
-1916.65580333085
 42
0.4142135623731
 10
1038.891597032127
 20
-1918.15580333085
 42
0.4142135623731
 10
1040.391597032127
 20
-1919.655803330849
 42
0.4142135623731
  0
LWPOLYLINE
  5
425
330
1F
100
AcDbEntity
  8
1-B_寸法
  6
Continuous
 62
     7
370
     9
100
AcDbPolyline
 90
        4
 70
     1
 43
3.0
 10
1041.891597032127
 20
-2188.155803330849
 42
0.4142135623731
 10
1040.391597032127
 20
-2186.655803330849
 42
0.4142135623731
 10
1038.891597032127
 20
-2188.155803330849
 42
0.4142135623731
 10
1040.391597032127
 20
-2189.655803330849
 42
0.4142135623731
  0
LINE
  5
426
330
1F
100
AcDbEntity
  8
1-B_寸法
  6
Continuous
 62
   120
370
     5
100
AcDbLine
 10
1040.391597032127
 20
-2188.155803330849
 30
0.0
 11
1040.391597032127
 21
-1918.15580333085
 31
0.0
  0
MTEXT
  5
427
330
1F
100
AcDbEntity
  8
0-A_文字
  6
Continuous
 62
     7
370
     9
100
AcDbMText
 10
437.066660198476
 20
-182.280197951887
 30
0.0
 40
91.44000000000001
 41
1860.0
 46
0.0
 71
     7
 72
     1
  1
{\fＭＳ ゴシック|b0|i0|c128|p49;振れ止め金具取り付け位置　S=1/2}
 73
     1
 44
1.0
  0
MTEXT
  5
428
330
1F
100
AcDbEntity
  8
1-A_文字
  6
Continuous
 62
     7
370
     9
100
AcDbMText
 10
1127.066660198478
 20
-496.3936554613792
 30
0.0
 40
91.44
 41
480.0
 46
0.0
 71
     7
 72
     1
  1
{\fＭＳ ゴシック|b0|i0|c128|p49;センター}
 73
     1
 44
1.0
  0
MTEXT
  5
429
330
1F
100
AcDbEntity
  8
1-A_文字
  6
Continuous
 62
     7
370
     9
100
AcDbMText
 10
864.5666601984725
 20
-1145.34883148351
 30
0.0
 40
91.44
 41
360.0
 46
0.0
 71
     7
 72
     1
  1
{\f@ＭＳ ゴシック|b0|i0|c128|p49;中方立}
 11
-1.836909530733566E-16
 21
-1.0
 31
0.0
 73
     1
 44
1.0
  0
MTEXT
  5
42A
330
1F
100
AcDbEntity
  8
1-A_文字
  6
Continuous
 62
     7
370
     9
100
AcDbMText
 10
1607.066660198478
 20
-1145.34883148351
 30
0.0
 40
91.44
 41
360.0
 46
0.0
 71
     7
 72
     1
  1
{\f@ＭＳ ゴシック|b0|i0|c128|p49;引き戸}
 11
-1.836909530733566E-16
 21
-1.0
 31
0.0
 73
     1
 44
1.0
  0
MTEXT
  5
42B
330
1F
100
AcDbEntity
  8
1-A_文字
  6
Continuous
 62
     7
370
     9
100
AcDbMText
 10
392.1061735245535
 20
-2479.935803330845
 30
0.0
 40
91.44
 41
480.0
 46
0.0
 71
     7
 72
     1
  1
{\fＭＳ ゴシック|b0|i0|c128|p49;フロアー}
 73
     1
 44
1.0
  0
MTEXT
  5
42C
330
1F
100
AcDbEntity
  8
1-A_文字
  6
Continuous
 62
     7
370
     9
100
AcDbMText
 10
447.6132546602788
 20
-2706.252886088525
 30
0.0
 40
91.44
 41
720.0
 46
0.0
 71
     7
 72
     1
  1
{\fＭＳ ゴシック|b0|i0|c128|p49;振れ止め金具}
 73
     1
 44
1.0
  0
MTEXT
  5
42D
330
1F
100
AcDbEntity
  8
1-B_寸法
  6
Continuous
 62
     7
370
   211
100
AcDbMText
 10
1269.566660198473
 20
-718.9588920769581
 30
0.0
 40
99.06
 41
195.0
 46
0.0
 71
     7
 72
     1
  1
{\fＭＳ ゴシック|b0|i0|c128|p49;113}
 73
     1
 44
1.0
  0
MTEXT
  5
42E
330
1F
100
AcDbEntity
  8
1-B_寸法
  6
Continuous
 62
     7
370
   211
100
AcDbMText
 10
860.8166601984725
 20
-899.9113920769581
 30
0.0
 40
97.15499999999999
 41
127.5
 46
0.0
 71
     7
 72
     1
  1
{\fＭＳ ゴシック|b0|i0|c128|p49;54}
 73
     1
 44
1.0
  0
MTEXT
  5
42F
330
1F
100
AcDbEntity
  8
1-B_寸法
  6
Continuous
 62
     7
370
   211
100
AcDbMText
 10
1472.066660198457
 20
-898.9588920769581
 30
0.0
 40
99.06
 41
195.0
 46
0.0
 71
     7
 72
     1
  1
{\fＭＳ ゴシック|b0|i0|c128|p49;6.5}
 73
     1
 44
1.0
  0
MTEXT
  5
430
330
1F
100
AcDbEntity
  8
1-B_寸法
  6
Continuous
 62
     7
370
   211
100
AcDbMText
 10
1337.067740234603
 20
-1701.28469702709
 30
0.0
 40
91.44
 41
60.0
 46
0.0
 71
     7
 72
     1
  1
{\fＭＳ ゴシック|b0|i0|c128|p49;5}
 73
     1
 44
1.0
  0
MTEXT
  5
431
330
1F
100
AcDbEntity
  8
1-B_寸法
  6
Continuous
 62
     7
370
   211
100
AcDbMText
 10
1475.818820270763
 20
-1698.42719702709
 30
0.0
 40
97.15499999999999
 41
127.5
 46
0.0
 71
     7
 72
     1
  1
{\fＭＳ ゴシック|b0|i0|c128|p49;18}
 73
     1
 44
1.0
  0
MTEXT
  5
432
330
1F
100
AcDbEntity
  8
1-B_寸法
  6
Continuous
 62
     7
370
   211
100
AcDbMText
 10
1025.391597032127
 20
-2127.435803330849
 30
0.0
 40
91.44
 41
120.0
 46
0.0
 71
     7
 72
     1
  1
{\fＭＳ ゴシック|b0|i0|c128|p49;18}
 11
6.123031769111886E-17
 21
1.0
 31
0.0
 73
     1
 44
1.0
  0
MTEXT
  5
433
330
1F
100
AcDbEntity
  8
1-B_寸法
  6
Continuous
 62
     7
370
   211
100
AcDbMText
 10
1183.888623592797
 20
-2182.336866719261
 30
0.0
 40
91.44
 41
120.0
 46
0.0
 71
     7
 72
     1
  1
{\fＭＳ ゴシック|b0|i0|c128|p49;20}
 11
6.123031769111886E-17
 21
1.0
 31
0.0
 73
     1
 44
1.0
  0
MTEXT
  5
434
330
1F
100
AcDbEntity
  8
1-B_寸法
  6
Continuous
 62
     7
370
   211
100
AcDbMText
 10
2105.818820270752
 20
-2189.22492159582
 30
0.0
 40
91.44
 41
180.0
 46
0.0
 71
     7
 72
     1
  1
{\fＭＳ ゴシック|b0|i0|c128|p49;8.5}
 11
6.123031769111886E-17
 21
1.0
 31
0.0
 73
     1
 44
1.0
  0
MTEXT
  5
435
330
1F
100
AcDbEntity
  8
1-B_寸法
  6
Continuous
 62
     7
370
   211
100
AcDbMText
 10
1955.818820270752
 20
-2191.376364289667
 30
0.0
 40
91.44
 41
180.0
 46
0.0
 71
     7
 72
     1
  1
{\fＭＳ ゴシック|b0|i0|c128|p49;5.5}
 11
6.123031769111886E-17
 21
1.0
 31
0.0
 73
     1
 44
1.0
  0
MTEXT
  5
436
330
1F
100
AcDbEntity
  8
1-B_寸法
  6
Continuous
 62
     7
370
   211
100
AcDbMText
 10
1955.818820270752
 20
-2337.435803330849
 30
0.0
 40
91.44
 41
60.0
 46
0.0
 71
     7
 72
     1
  1
{\fＭＳ ゴシック|b0|i0|c128|p49;3}
 11
6.123031769111886E-17
 21
1.0
 31
0.0
 73
     1
 44
1.0
  0
MTEXT
  5
437
330
1F
100
AcDbEntity
  8
1-B_寸法
  6
Continuous
 62
     7
370
   211
100
AcDbMText
 10
2105.818820270752
 20
-2479.935803330848
 30
0.0
 40
91.44
 41
120.0
 46
0.0
 71
     7
 72
     1
  1
{\fＭＳ ゴシック|b0|i0|c128|p49;12}
 11
6.123031769111886E-17
 21
1.0
 31
0.0
 73
     1
 44
1.0
  0
MTEXT
  5
438
330
1F
100
AcDbEntity
  8
0-0_補助線
  6
Continuous
 62
     7
370
     9
100
AcDbMText
 10
-828.379181199225
 20
-362.280197951887
 30
0.0
 40
91.44
 41
600.0
 46
0.0
 71
     7
 72
     1
  1
{\fＭＳ ゴシック|b0|i0|c128|p49;［小壁側］}
 73
     1
 44
1.0
  0
MTEXT
  5
439
330
1F
100
AcDbEntity
  8
0-0_補助線
  6
Continuous
 62
     7
370
     9
100
AcDbMText
 10
-1625.775063973694
 20
-362.280197951887
 30
0.0
 40
91.44
 41
600.0
 46
0.0
 71
     7
 72
     1
  1
{\fＭＳ ゴシック|b0|i0|c128|p49;［戸先側］}
 73
     1
 44
1.0
  0
LINE
  5
43A
330
1F
100
AcDbEntity
  8
0-0_補助線
  6
Continuous
 62
    92
370
    13
100
AcDbLine
 10
-1893.774318743954
 20
-18.00019795188703
 30
0.0
 11
-1893.774318743954
 21
-1737.041754831474
 31
0.0
  0
LINE
  5
43B
330
1F
100
AcDbEntity
  8
0-0_補助線
  6
Continuous
 62
    92
370
    13
100
AcDbLine
 10
-258.3976859970174
 20
-723.0591829293716
 30
0.0
 11
-258.3976859970174
 21
-1227.152606137023
 31
0.0
  0
LINE
  5
43C
330
1F
100
AcDbEntity
  8
0-0_補助線
  6
Continuous
 62
   120
370
     5
100
AcDbLine
 10
-1659.190774370195
 20
-523.2508715534531
 30
0.0
 11
-981.1907743701955
 21
-523.2508715534531
 31
0.0
  0
LWPOLYLINE
  5
43D
330
1F
100
AcDbEntity
  8
0-0_補助線
  6
Continuous
 62
     7
370
     9
100
AcDbPolyline
 90
        4
 70
     1
 43
3.0
 10
-1657.690774370195
 20
-523.2508715534531
 42
0.4142135623731
 10
-1659.190774370195
 20
-521.7508715534531
 42
0.4142135623731
 10
-1660.690774370195
 20
-523.2508715534531
 42
0.4142135623731
 10
-1659.190774370195
 20
-524.7508715534531
 42
0.4142135623731
  0
LWPOLYLINE
  5
43E
330
1F
100
AcDbEntity
  8
0-0_補助線
  6
Continuous
 62
     7
370
     9
100
AcDbPolyline
 90
        4
 70
     1
 43
3.0
 10
-979.6907743701955
 20
-523.2508715534531
 42
0.4142135623731
 10
-981.1907743701955
 20
-521.7508715534531
 42
0.4142135623731
 10
-982.6907743701954
 20
-523.2508715534531
 42
0.4142135623731
 10
-981.1907743701955
 20
-524.7508715534531
 42
0.4142135623731
  0
LINE
  5
43F
330
1F
100
AcDbEntity
  8
0-0_補助線
  6
Continuous
 62
   120
370
     5
100
AcDbLine
 10
-1659.190774370195
 20
-523.2508715534531
 30
0.0
 11
-1659.190774370195
 21
-674.8126770485983
 31
0.0
  0
LINE
  5
440
330
1F
100
AcDbEntity
  8
0-0_補助線
  6
Continuous
 62
   120
370
     5
100
AcDbLine
 10
-981.1907743701955
 20
-523.2508715534531
 30
0.0
 11
-981.1907743701955
 21
-674.8126770485983
 31
0.0
  0
MTEXT
  5
441
330
1F
100
AcDbEntity
  8
0-0_補助線
  6
Continuous
 62
     7
370
   211
100
AcDbMText
 10
-1417.690774370195
 20
-518.7208715534531
 30
0.0
 40
99.06
 41
195.0
 46
0.0
 71
     7
 72
     1
  1
{\fＭＳ ゴシック|b0|i0|c128|p49;113}
 73
     1
 44
1.0
  0
LWPOLYLINE
  5
442
330
1F
100
AcDbEntity
  8
0-0_補助線
  6
Continuous
 62
     7
370
     9
100
AcDbPolyline
 90
        4
 70
     1
 43
3.0
 10
-730.8976859970176
 20
-523.2508715534531
 42
0.4142135623731
 10
-732.3976859970176
 20
-521.7508715534531
 42
0.4142135623731
 10
-733.8976859970177
 20
-523.2508715534531
 42
0.4142135623731
 10
-732.3976859970176
 20
-524.7508715534531
 42
0.4142135623731
  0
LINE
  5
443
330
1F
100
AcDbEntity
  8
0-0_補助線
  6
Continuous
 62
   120
370
     5
100
AcDbLine
 10
-732.3976859970176
 20
-523.2508715534531
 30
0.0
 11
-732.3976859970176
 21
-674.8126770485983
 31
0.0
  0
LINE
  5
444
330
1F
100
AcDbEntity
  8
0-0_補助線
  6
Continuous
 62
   120
370
     5
100
AcDbLine
 10
-732.3976859970176
 20
-523.2508715534531
 30
0.0
 11
-258.3976859970174
 21
-523.2508715534531
 31
0.0
  0
LWPOLYLINE
  5
445
330
1F
100
AcDbEntity
  8
0-0_補助線
  6
Continuous
 62
     7
370
     9
100
AcDbPolyline
 90
        4
 70
     1
 43
3.0
 10
-256.8976859970173
 20
-523.2508715534531
 42
0.4142135623731
 10
-258.3976859970174
 20
-521.7508715534531
 42
0.4142135623731
 10
-259.8976859970174
 20
-523.2508715534531
 42
0.4142135623731
 10
-258.3976859970174
 20
-524.7508715534531
 42
0.4142135623731
  0
LINE
  5
446
330
1F
100
AcDbEntity
  8
0-0_補助線
  6
Continuous
 62
   120
370
     5
100
AcDbLine
 10
-258.3976859970174
 20
-523.2508715534531
 30
0.0
 11
-258.3976859970174
 21
-674.8126770485983
 31
0.0
  0
MTEXT
  5
447
330
1F
100
AcDbEntity
  8
0-0_補助線
  6
Continuous
 62
     7
370
   211
100
AcDbMText
 10
-559.1476859970177
 20
-519.6733715534531
 30
0.0
 40
97.15499999999999
 41
127.5
 46
0.0
 71
     7
 72
     1
  1
{\fＭＳ ゴシック|b0|i0|c128|p49;79}
 73
     1
 44
1.0
  0
MTEXT
  5
448
330
1F
100
AcDbEntity
  8
0-0_補助線
  6
Continuous
 62
     7
370
     0
100
AcDbMText
 10
-1443.774318743954
 20
-182.280197951887
 30
0.0
 40
91.44
 41
840.0
 46
0.0
 71
     7
 72
     1
  1
{\fＭＳ ゴシック|b0|i0|c128|p49;竪枠下端形状図}
 73
     1
 44
1.0
  0
LINE
  5
449
330
1F
100
AcDbEntity
  8
0-0_補助線
  6
Continuous
 62
    92
370
    13
100
AcDbLine
 10
-153.7743187439551
 20
-1737.041754831474
 30
0.0
 11
-1893.774318743954
 21
-1737.041754831474
 31
0.0
  0
LINE
  5
44A
330
1F
100
AcDbEntity
  8
0-0_補助線
  6
Continuous
 62
    92
370
    13
100
AcDbLine
 10
-1893.774318743954
 20
-198.000197951887
 30
0.0
 11
-153.7743187439551
 21
-198.000197951887
 31
0.0
  0
LINE
  5
44B
330
1F
100
AcDbEntity
  8
0-0_補助線
  6
Continuous
 62
    92
370
    13
100
AcDbLine
 10
-153.7743187439551
 20
-18.00019795188703
 30
0.0
 11
-153.7743187439551
 21
-1737.041754831474
 31
0.0
  0
LINE
  5
44C
330
1F
100
AcDbEntity
  8
0-0_補助線
  6
Continuous
 62
    92
370
    13
100
AcDbLine
 10
-1893.774318743954
 20
-18.00019795188703
 30
0.0
 11
-153.7743187439551
 21
-18.00019795188703
 31
0.0
  0
LINE
  5
44D
330
1F
100
AcDbEntity
  8
0-0_補助線
  6
Continuous
 62
    92
370
    13
100
AcDbLine
 10
-1659.190774370195
 20
-723.0591829293716
 30
0.0
 11
-1659.190774370195
 21
-1227.152606137023
 31
0.0
  0
LINE
  5
44E
330
1F
100
AcDbEntity
  8
0-0_補助線
  6
Continuous
 62
    92
370
    13
100
AcDbLine
 10
-1659.190774370195
 20
-1227.152606137023
 30
0.0
 11
-981.1907743701955
 21
-1227.152606137023
 31
0.0
  0
LINE
  5
44F
330
1F
100
AcDbEntity
  8
0-0_補助線
  6
Continuous
 62
    92
370
    13
100
AcDbLine
 10
-981.1907743701955
 20
-723.0591829293716
 30
0.0
 11
-981.1907743701955
 21
-1227.152606137023
 31
0.0
  0
LINE
  5
450
330
1F
100
AcDbEntity
  8
0-0_補助線
  6
Continuous
 62
    92
370
    13
100
AcDbLine
 10
-732.3976859970176
 20
-723.0591829293716
 30
0.0
 11
-732.3976859970176
 21
-1227.152606137023
 31
0.0
  0
LINE
  5
451
330
1F
100
AcDbEntity
  8
0-0_補助線
  6
Continuous
 62
    92
370
    13
100
AcDbLine
 10
-732.3976859970176
 20
-1227.152606137023
 30
0.0
 11
-258.3976859970174
 21
-1227.152606137023
 31
0.0
  0
LINE
  5
452
330
1F
100
AcDbEntity
  8
1-4_枠
  6
JWW_CENTER1
 62
   120
370
     5
100
AcDbLine
 10
3827.450379953706
 20
-2832.675423701169
 30
0.0
 11
3827.450379953706
 21
-3282.675423701169
 31
0.0
  0
LINE
  5
453
330
1F
100
AcDbEntity
  8
1-B_寸法
  6
Continuous
 62
   120
370
     5
100
AcDbLine
 10
3600.560444268123
 20
-2637.675423701169
 30
0.0
 11
3714.950379953706
 21
-2637.675423701169
 31
0.0
  0
LINE
  5
454
330
1F
100
AcDbEntity
  8
1-B_寸法
  6
Continuous
 62
   120
370
     5
100
AcDbLine
 10
3939.950379953706
 20
-2637.675423701169
 30
0.0
 11
3939.950379953706
 21
-2757.675423701169
 31
0.0
  0
LWPOLYLINE
  5
455
330
1F
100
AcDbEntity
  8
1-B_寸法
  6
Continuous
 62
     7
370
     9
100
AcDbPolyline
 90
        4
 70
     1
 43
3.0
 10
3941.450379953706
 20
-2637.675423701169
 42
0.4142135623731
 10
3939.950379953706
 20
-2636.175423701169
 42
0.4142135623731
 10
3938.450379953705
 20
-2637.675423701169
 42
0.4142135623731
 10
3939.950379953706
 20
-2639.175423701169
 42
0.4142135623731
  0
LINE
  5
456
330
1F
100
AcDbEntity
  8
1-B_寸法
  6
Continuous
 62
   120
370
     5
100
AcDbLine
 10
3714.950379953706
 20
-2637.675423701169
 30
0.0
 11
3939.950379953706
 21
-2637.675423701169
 31
0.0
  0
LINE
  5
457
330
1F
100
AcDbEntity
  8
1-B_寸法
  6
Continuous
 62
   120
370
     5
100
AcDbLine
 10
3714.950379953706
 20
-2637.675423701169
 30
0.0
 11
3714.950379953706
 21
-2757.675423701169
 31
0.0
  0
LINE
  5
458
330
1F
100
AcDbEntity
  8
1-B_寸法
  6
Continuous
 62
   120
370
     5
100
AcDbLine
 10
3669.950379953706
 20
-2637.675423701169
 30
0.0
 11
3669.950379953706
 21
-2757.675423701169
 31
0.0
  0
LWPOLYLINE
  5
459
330
1F
100
AcDbEntity
  8
1-B_寸法
  6
Continuous
 62
     7
370
     9
100
AcDbPolyline
 90
        4
 70
     1
 43
3.0
 10
3716.450379953706
 20
-2637.675423701169
 42
0.4142135623731
 10
3714.950379953706
 20
-2636.175423701169
 42
0.4142135623731
 10
3713.450379953706
 20
-2637.675423701169
 42
0.4142135623731
 10
3714.950379953706
 20
-2639.175423701169
 42
0.4142135623731
  0
LWPOLYLINE
  5
45A
330
1F
100
AcDbEntity
  8
1-B_寸法
  6
Continuous
 62
     7
370
     9
100
AcDbPolyline
 90
        4
 70
     1
 43
3.0
 10
3671.450379953706
 20
-2637.675423701169
 42
0.4142135623731
 10
3669.950379953706
 20
-2636.175423701169
 42
0.4142135623731
 10
3668.450379953706
 20
-2637.675423701169
 42
0.4142135623731
 10
3669.950379953706
 20
-2639.175423701169
 42
0.4142135623731
  0
LINE
  5
45B
330
1F
100
AcDbEntity
  8
1-B_寸法
  6
Continuous
 62
   120
370
     5
100
AcDbLine
 10
3669.950379953706
 20
-2535.028182171156
 30
0.0
 11
3669.950379953706
 21
-2637.675423701169
 31
0.0
  0
LWPOLYLINE
  5
45C
330
1F
100
AcDbEntity
  8
1-B_寸法
  6
Continuous
 62
     7
370
     9
100
AcDbPolyline
 90
        4
 70
     1
 43
3.0
 10
3671.450379953706
 20
-2535.028182171156
 42
0.4142135623731
 10
3669.950379953706
 20
-2533.528182171156
 42
0.4142135623731
 10
3668.450379953706
 20
-2535.028182171156
 42
0.4142135623731
 10
3669.950379953706
 20
-2536.528182171156
 42
0.4142135623731
  0
LINE
  5
45D
330
1F
100
AcDbEntity
  8
1-B_寸法
  6
Continuous
 62
   120
370
     5
100
AcDbLine
 10
3669.950379953706
 20
-2535.028182171156
 30
0.0
 11
3939.950379953706
 21
-2535.028182171156
 31
0.0
  0
LINE
  5
45E
330
1F
100
AcDbEntity
  8
1-B_寸法
  6
Continuous
 62
   120
370
     5
100
AcDbLine
 10
3939.950379953706
 20
-2535.028182171156
 30
0.0
 11
3939.950379953706
 21
-2637.675423701169
 31
0.0
  0
LWPOLYLINE
  5
45F
330
1F
100
AcDbEntity
  8
1-B_寸法
  6
Continuous
 62
     7
370
     9
100
AcDbPolyline
 90
        4
 70
     1
 43
3.0
 10
3941.450379953706
 20
-2535.028182171156
 42
0.4142135623731
 10
3939.950379953706
 20
-2533.528182171156
 42
0.4142135623731
 10
3938.450379953705
 20
-2535.028182171156
 42
0.4142135623731
 10
3939.950379953706
 20
-2536.528182171156
 42
0.4142135623731
  0
LINE
  5
460
330
1F
100
AcDbEntity
  8
1-B_寸法
  6
Continuous
 62
   120
370
     5
100
AcDbLine
 10
3517.653182661041
 20
-3282.675423701169
 30
0.0
 11
3517.653182661041
 21
-2832.675423701169
 31
0.0
  0
LINE
  5
461
330
1F
100
AcDbEntity
  8
1-B_寸法
  6
Continuous
 62
   120
370
     5
100
AcDbLine
 10
3517.653182661041
 20
-2832.675423701169
 30
0.0
 11
3614.726064037185
 21
-2832.675423701169
 31
0.0
  0
LWPOLYLINE
  5
462
330
1F
100
AcDbEntity
  8
1-B_寸法
  6
Continuous
 62
     7
370
     9
100
AcDbPolyline
 90
        4
 70
     1
 43
3.0
 10
3519.15318266104
 20
-2832.675423701169
 42
0.4142135623731
 10
3517.653182661041
 20
-2831.175423701169
 42
0.4142135623731
 10
3516.153182661041
 20
-2832.675423701169
 42
0.4142135623731
 10
3517.653182661041
 20
-2834.175423701169
 42
0.4142135623731
  0
LINE
  5
463
330
1F
100
AcDbEntity
  8
1-7_金物
  6
Continuous
 62
     7
370
     9
100
AcDbLine
 10
3804.950379953706
 20
-3132.675423701169
 30
0.0
 11
3849.950379953706
 21
-3132.675423701169
 31
0.0
  0
LINE
  5
464
330
1F
100
AcDbEntity
  8
1-7_金物
  6
Continuous
 62
     7
370
     9
100
AcDbLine
 10
3849.950379953706
 20
-3162.675423701169
 30
0.0
 11
3804.950379953706
 21
-3162.675423701169
 31
0.0
  0
LINE
  5
465
330
1F
100
AcDbEntity
  8
1-7_金物
  6
Continuous
 62
     7
370
     9
100
AcDbLine
 10
3804.950379953706
 20
-3222.675423701169
 30
0.0
 11
3849.950379953706
 21
-3222.675423701169
 31
0.0
  0
LINE
  5
466
330
1F
100
AcDbEntity
  8
1-7_金物
  6
Continuous
 62
     7
370
     9
100
AcDbLine
 10
3804.950379953706
 20
-3252.675423701169
 30
0.0
 11
3849.950379953706
 21
-3252.675423701169
 31
0.0
  0
LINE
  5
467
330
1F
100
AcDbEntity
  8
1-7_金物
  6
Continuous
 62
     7
370
     9
100
AcDbLine
 10
3849.950379953706
 20
-2982.675423701169
 30
0.0
 11
3804.950379953706
 21
-2982.675423701169
 31
0.0
  0
LINE
  5
468
330
1F
100
AcDbEntity
  8
1-7_金物
  6
Continuous
 62
     7
370
     9
100
AcDbLine
 10
3849.950379953706
 20
-2862.675423701169
 30
0.0
 11
3804.950379953706
 21
-2862.675423701169
 31
0.0
  0
LINE
  5
469
330
1F
100
AcDbEntity
  8
1-7_金物
  6
Continuous
 62
     7
370
     9
100
AcDbLine
 10
3849.950379953706
 20
-2892.675423701169
 30
0.0
 11
3804.950379953706
 21
-2892.675423701169
 31
0.0
  0
LINE
  5
46A
330
1F
100
AcDbEntity
  8
1-7_金物
  6
Continuous
 62
     7
370
     9
100
AcDbLine
 10
3804.950379953706
 20
-2952.675423701169
 30
0.0
 11
3849.950379953706
 21
-2952.675423701169
 31
0.0
  0
ARC
  5
46B
330
1F
100
AcDbEntity
  8
1-7_金物
  6
Continuous
 62
     7
370
     9
100
AcDbCircle
 10
3804.950379953706
 20
-3192.675423701169
 30
0.0
 40
30.0
100
AcDbArc
 50
90.0
 51
270.0
  0
ARC
  5
46C
330
1F
100
AcDbEntity
  8
1-7_金物
  6
Continuous
 62
     7
370
     9
100
AcDbCircle
 10
3804.950379953706
 20
-3192.675423701169
 30
0.0
 40
60.0
100
AcDbArc
 50
90.0
 51
270.0
  0
ARC
  5
46D
330
1F
100
AcDbEntity
  8
1-7_金物
  6
Continuous
 62
     7
370
     9
100
AcDbCircle
 10
3804.950379953706
 20
-2922.675423701169
 30
0.0
 40
30.0
100
AcDbArc
 50
90.0
 51
270.0
  0
ARC
  5
46E
330
1F
100
AcDbEntity
  8
1-7_金物
  6
Continuous
 62
     7
370
     9
100
AcDbCircle
 10
3804.950379953706
 20
-2922.675423701169
 30
0.0
 40
60.0
100
AcDbArc
 50
90.0
 51
270.0
  0
ARC
  5
46F
330
1F
100
AcDbEntity
  8
1-7_金物
  6
Continuous
 62
     7
370
     9
100
AcDbCircle
 10
3849.950379953706
 20
-3192.675423701169
 30
0.0
 40
30.0
100
AcDbArc
 50
270.0
 51
90.0
  0
ARC
  5
470
330
1F
100
AcDbEntity
  8
1-7_金物
  6
Continuous
 62
     7
370
     9
100
AcDbCircle
 10
3849.950379953706
 20
-2922.675423701169
 30
0.0
 40
30.0
100
AcDbArc
 50
270.0
 51
90.0
  0
ARC
  5
471
330
1F
100
AcDbEntity
  8
1-7_金物
  6
Continuous
 62
     7
370
     9
100
AcDbCircle
 10
3849.950379953706
 20
-2922.675423701169
 30
0.0
 40
60.0
100
AcDbArc
 50
270.0
 51
90.0
  0
ARC
  5
472
330
1F
100
AcDbEntity
  8
1-7_金物
  6
Continuous
 62
     7
370
     9
100
AcDbCircle
 10
3849.950379953706
 20
-3192.675423701169
 30
0.0
 40
60.0
100
AcDbArc
 50
270.0
 51
90.0
  0
LINE
  5
473
330
1F
100
AcDbEntity
  8
1-7_金物
  6
Continuous
 62
     7
370
     9
100
AcDbLine
 10
3744.950379953706
 20
-2832.675423701169
 30
0.0
 11
3909.950379953706
 21
-2832.675423701169
 31
0.0
  0
LINE
  5
474
330
1F
100
AcDbEntity
  8
1-7_金物
  6
Continuous
 62
     7
370
     9
100
AcDbLine
 10
3909.950379953706
 20
-3282.675423701169
 30
0.0
 11
3744.950379953706
 21
-3282.675423701169
 31
0.0
  0
ARC
  5
475
330
1F
100
AcDbEntity
  8
1-7_金物
  6
Continuous
 62
     7
370
     9
100
AcDbCircle
 10
3909.950379953706
 20
-3252.675423701169
 30
0.0
 40
30.0
100
AcDbArc
 50
270.0
 51
0.0
  0
LINE
  5
476
330
1F
100
AcDbEntity
  8
1-7_金物
  6
Continuous
 62
     7
370
     9
100
AcDbLine
 10
3939.950379953706
 20
-3252.675423701169
 30
0.0
 11
3939.950379953706
 21
-2862.675423701169
 31
0.0
  0
ARC
  5
477
330
1F
100
AcDbEntity
  8
1-7_金物
  6
Continuous
 62
     7
370
     9
100
AcDbCircle
 10
3909.950379953706
 20
-2862.675423701169
 30
0.0
 40
30.0
100
AcDbArc
 50
0.0
 51
90.0
  0
ARC
  5
478
330
1F
100
AcDbEntity
  8
1-7_金物
  6
Continuous
 62
     7
370
     9
100
AcDbCircle
 10
3744.950379953706
 20
-3252.675423701169
 30
0.0
 40
30.0
100
AcDbArc
 50
180.0
 51
270.0
  0
LINE
  5
479
330
1F
100
AcDbEntity
  8
1-7_金物
  6
Continuous
 62
     7
370
     9
100
AcDbLine
 10
3714.950379953706
 20
-3252.675423701169
 30
0.0
 11
3714.950379953706
 21
-2862.675423701169
 31
0.0
  0
ARC
  5
47A
330
1F
100
AcDbEntity
  8
1-7_金物
  6
Continuous
 62
     7
370
     9
100
AcDbCircle
 10
3744.950379953706
 20
-2862.675423701169
 30
0.0
 40
30.0
100
AcDbArc
 50
90.0
 51
180.0
  0
ARC
  5
47B
330
1F
100
AcDbEntity
  8
1-7_金物
  6
Continuous
 62
     7
370
     9
100
AcDbCircle
 10
3707.450379953706
 20
-2975.175423701169
 30
0.0
 40
7.5
100
AcDbArc
 50
0.0
 51
90.0
  0
LINE
  5
47C
330
1F
100
AcDbEntity
  8
1-7_金物
  6
Continuous
 62
     7
370
     9
100
AcDbLine
 10
3707.450379953706
 20
-2967.675423701169
 30
0.0
 11
3677.450379953706
 21
-2967.675423701169
 31
0.0
  0
ARC
  5
47D
330
1F
100
AcDbEntity
  8
1-7_金物
  6
Continuous
 62
     7
370
     9
100
AcDbCircle
 10
3707.450379953706
 20
-3140.175423701169
 30
0.0
 40
7.5
100
AcDbArc
 50
270.0
 51
0.0
  0
LINE
  5
47E
330
1F
100
AcDbEntity
  8
1-7_金物
  6
Continuous
 62
     7
370
     9
100
AcDbLine
 10
3707.450379953706
 20
-3147.675423701169
 30
0.0
 11
3677.450379953706
 21
-3147.675423701169
 31
0.0
  0
ARC
  5
47F
330
1F
100
AcDbEntity
  8
1-7_金物
  6
Continuous
 62
     7
370
     9
100
AcDbCircle
 10
3677.450379953706
 20
-3140.175423701169
 30
0.0
 40
7.5
100
AcDbArc
 50
180.0
 51
270.0
  0
LINE
  5
480
330
1F
100
AcDbEntity
  8
1-7_金物
  6
Continuous
 62
     7
370
     9
100
AcDbLine
 10
3669.950379953706
 20
-3140.175423701169
 30
0.0
 11
3669.950379953706
 21
-2975.175423701169
 31
0.0
  0
ARC
  5
481
330
1F
100
AcDbEntity
  8
1-7_金物
  6
Continuous
 62
     7
370
     9
100
AcDbCircle
 10
3677.450379953706
 20
-2975.175423701169
 30
0.0
 40
7.5
100
AcDbArc
 50
90.0
 51
180.0
  0
LINE
  5
482
330
1F
100
AcDbEntity
  8
1-B_寸法
  6
Continuous
 62
   120
370
     5
100
AcDbLine
 10
3517.653182661041
 20
-3282.675423701169
 30
0.0
 11
3614.726064037185
 21
-3282.675423701169
 31
0.0
  0
LWPOLYLINE
  5
483
330
1F
100
AcDbEntity
  8
1-B_寸法
  6
Continuous
 62
     7
370
     9
100
AcDbPolyline
 90
        4
 70
     1
 43
3.0
 10
3519.15318266104
 20
-3282.675423701169
 42
0.4142135623731
 10
3517.653182661041
 20
-3281.175423701169
 42
0.4142135623731
 10
3516.153182661041
 20
-3282.675423701169
 42
0.4142135623731
 10
3517.653182661041
 20
-3284.175423701169
 42
0.4142135623731
  0
LWPOLYLINE
  5
484
330
1F
100
AcDbEntity
  8
1-B_寸法
  6
Continuous
 62
     7
370
     9
100
AcDbPolyline
 90
        4
 70
     1
 43
3.0
 10
3941.450379953706
 20
-3477.771559770683
 42
0.4142135623731
 10
3939.950379953706
 20
-3476.271559770683
 42
0.4142135623731
 10
3938.450379953705
 20
-3477.771559770683
 42
0.4142135623731
 10
3939.950379953706
 20
-3479.271559770683
 42
0.4142135623731
  0
LINE
  5
485
330
1F
100
AcDbEntity
  8
1-B_寸法
  6
Continuous
 62
   120
370
     5
100
AcDbLine
 10
3939.950379953706
 20
-3357.675423701169
 30
0.0
 11
3939.950379953706
 21
-3477.771559770683
 31
0.0
  0
LINE
  5
486
330
1F
100
AcDbEntity
  8
0-A_文字
  6
Continuous
 62
   120
370
     5
100
AcDbLine
 10
3867.393691670729
 20
-2936.246932576017
 30
0.0
 11
3994.737008365126
 21
-2748.043923200744
 31
0.0
  0
MTEXT
  5
487
330
1F
100
AcDbEntity
  8
1-A_文字
  6
Continuous
 62
     7
370
     9
100
AcDbMText
 10
3991.162939645639
 20
-2749.759439645296
 30
0.0
 40
68.58
 41
810.0
 46
0.0
 71
     7
 72
     1
  1
{\fＭＳ ゴシック|b0|i0|c128|p49;振れ止め金具(床用)}
 73
     1
 44
1.0
  0
MTEXT
  5
488
330
1F
100
AcDbEntity
  8
1-B_寸法
  6
Continuous
 62
     7
370
   211
100
AcDbMText
 10
3744.950379953706
 20
-2534.308182171156
 30
0.0
 40
91.44
 41
120.0
 46
0.0
 71
     7
 72
     1
  1
{\fＭＳ ゴシック|b0|i0|c128|p49;18}
 73
     1
 44
1.0
  0
MTEXT
  5
489
330
1F
100
AcDbEntity
  8
1-B_寸法
  6
Continuous
 62
     7
370
   211
100
AcDbMText
 10
3600.560444268123
 20
-2786.955423701169
 30
0.0
 40
91.44
 41
60.0
 46
0.0
 71
     7
 72
     1
  1
{\fＭＳ ゴシック|b0|i0|c128|p49;3}
 73
     1
 44
1.0
  0
MTEXT
  5
48A
330
1F
100
AcDbEntity
  8
1-B_寸法
  6
Continuous
 62
     7
370
   211
100
AcDbMText
 10
3778.700379953706
 20
-2786.955423701169
 30
0.0
 40
91.44
 41
120.0
 46
0.0
 71
     7
 72
     1
  1
{\fＭＳ ゴシック|b0|i0|c128|p49;15}
 73
     1
 44
1.0
  0
MTEXT
  5
48B
330
1F
100
AcDbEntity
  8
1-B_寸法
  6
Continuous
 62
     7
370
   211
100
AcDbMText
 10
3502.653182661041
 20
-3131.955423701169
 30
0.0
 40
91.44
 41
120.0
 46
0.0
 71
     7
 72
     1
  1
{\fＭＳ ゴシック|b0|i0|c128|p49;30}
 11
6.123031769111886E-17
 21
1.0
 31
0.0
 73
     1
 44
1.0
  0
LINE
  5
48C
330
1F
100
AcDbEntity
  8
0-A_文字
  6
Continuous
 62
    92
370
    13
100
AcDbLine
 10
2927.066660198476
 20
-198.000197951887
 30
0.0
 11
5163.339538734251
 21
-198.000197951887
 31
0.0
  0
LINE
  5
48D
330
1F
100
AcDbEntity
  8
0-A_文字
  6
Continuous
 62
    92
370
    13
100
AcDbLine
 10
2927.066660198476
 20
-18.00019795188703
 30
0.0
 11
5163.339538734251
 21
-18.00019795188703
 31
0.0
  0
LINE
  5
48E
330
1F
100
AcDbEntity
  8
0-7_金物
  6
Continuous
 62
     7
370
     9
100
AcDbLine
 10
5049.402991380498
 20
-3550.984708650172
 30
0.0
 11
3040.251577071014
 21
-3550.984708650172
 31
0.0
  0
LINE
  5
48F
330
1F
100
AcDbEntity
  8
0-7_金物
  6
Continuous
 62
     7
370
     9
100
AcDbLine
 10
3040.251577071014
 20
-3550.984708650172
 30
0.0
 11
3040.251577071014
 21
-2290.27460898381
 31
0.0
  0
LINE
  5
490
330
1F
100
AcDbEntity
  8
0-7_金物
  6
Continuous
 62
     7
370
     9
100
AcDbLine
 10
5049.402991380498
 20
-2290.27460898381
 30
0.0
 11
5049.402991380498
 21
-3550.984708650172
 31
0.0
  0
LINE
  5
491
330
1F
100
AcDbEntity
  8
0-7_金物
  6
Continuous
 62
     7
370
     9
100
AcDbLine
 10
3040.251577071014
 20
-2290.27460898381
 30
0.0
 11
5049.402991380498
 21
-2290.27460898381
 31
0.0
  0
LINE
  5
492
330
1F
100
AcDbEntity
  8
0-6_扉
  6
Continuous
 62
    40
370
    15
100
AcDbLine
 10
4258.248382715176
 20
-1613.771493284159
 30
0.0
 11
4831.004875476277
 21
-1283.090378008431
 31
0.0
  0
LINE
  5
493
330
1F
100
AcDbEntity
  8
0-B_寸法
  6
JWW_CENTER1
 62
   120
370
     5
100
AcDbLine
 10
4258.248382715176
 20
-1613.771493284159
 30
0.0
 11
4420.884476806748
 21
-1707.669485987876
 31
0.0
  0
LWPOLYLINE
  5
494
330
1F
100
AcDbEntity
  8
0-B_寸法
  6
Continuous
 62
     7
370
     9
100
AcDbPolyline
 90
        4
 70
     1
 43
3.0
 10
4487.972915354702
 20
-1745.536988639264
 42
0.4142135623731
 10
4486.472915354701
 20
-1744.036988639264
 42
0.4142135623731
 10
4484.972915354701
 20
-1745.536988639264
 42
0.4142135623731
 10
4486.472915354701
 20
-1747.036988639264
 42
0.4142135623731
  0
LINE
  5
495
330
1F
100
AcDbEntity
  8
0-B_寸法
  6
Continuous
 62
   120
370
     5
100
AcDbLine
 10
4486.472915354701
 20
-1745.536988639264
 30
0.0
 11
4432.646675029708
 21
-1714.460394298163
 31
0.0
  0
LWPOLYLINE
  5
496
330
1F
100
AcDbEntity
  8
0-B_寸法
  6
Continuous
 62
     7
370
     9
100
AcDbPolyline
 90
        4
 70
     1
 43
3.0
 10
4402.206840755178
 20
-1795.054054920282
 42
0.4142135623731
 10
4400.706840755178
 20
-1793.554054920283
 42
0.4142135623731
 10
4399.206840755177
 20
-1795.054054920282
 42
0.4142135623731
 10
4400.706840755178
 20
-1796.554054920282
 42
0.4142135623731
  0
LINE
  5
497
330
1F
100
AcDbEntity
  8
0-B_寸法
  6
Continuous
 62
   120
370
     5
100
AcDbLine
 10
4486.472915364939
 20
-1745.536988656999
 30
0.0
 11
4400.706840755178
 21
-1795.054054920281
 31
0.0
  0
LINE
  5
498
330
1F
100
AcDbEntity
  8
0-B_寸法
  6
Continuous
 62
   120
370
     5
100
AcDbLine
 10
4348.863399968281
 20
-1765.12223042625
 30
0.0
 11
4400.706840755178
 21
-1795.054054920282
 31
0.0
  0
LWPOLYLINE
  5
499
330
1F
100
AcDbEntity
  8
0-B_寸法
  6
Continuous
 62
     7
370
     9
100
AcDbPolyline
 90
        4
 70
     1
 43
3.0
 10
3762.13520134978
 20
-1901.068677396823
 42
0.4142135623731
 10
3760.63520134978
 20
-1899.568677396823
 42
0.4142135623731
 10
3759.13520134978
 20
-1901.068677396823
 42
0.4142135623731
 10
3760.63520134978
 20
-1902.568677396823
 42
0.4142135623731
  0
LINE
  5
49A
330
1F
100
AcDbEntity
  8
0-B_寸法
  6
JWW_CENTER1
 62
   120
370
     5
100
AcDbLine
 10
4258.248382715176
 20
-1613.771493284159
 30
0.0
 11
3841.460511596807
 21
-1854.404082869321
 31
0.0
  0
LINE
  5
49B
330
1F
100
AcDbEntity
  8
0-B_寸法
  6
Continuous
 62
   120
370
     5
100
AcDbLine
 10
3823.379760643219
 20
-1864.843089198572
 30
0.0
 11
3760.63520134978
 21
-1901.068677396823
 31
0.0
  0
LINE
  5
49C
330
1F
100
AcDbEntity
  8
0-0_補助線
  6
JWW_HOJO
 62
   120
370
     5
100
AcDbLine
 10
4002.776680610405
 20
-1602.051315983775
 30
0.0
 11
4023.989884046002
 21
-1651.041110839438
 31
0.0
  0
LINE
  5
49D
330
1F
100
AcDbEntity
  8
0-0_補助線
  6
JWW_HOJO
 62
   120
370
     5
100
AcDbLine
 10
4030.203087481599
 20
-1648.288559553353
 30
0.0
 11
4015.203087481599
 21
-1596.546213411606
 31
0.0
  0
LINE
  5
49E
330
1F
100
AcDbEntity
  8
0-0_補助線
  6
JWW_HOJO
 62
   120
370
     5
100
AcDbLine
 10
4029.673944775446
 20
-1593.085561262094
 30
0.0
 11
4037.438516128523
 21
-1646.558233478597
 31
0.0
  0
LINE
  5
49F
330
1F
100
AcDbEntity
  8
0-0_補助線
  6
JWW_HOJO
 62
   120
370
     5
100
AcDbLine
 10
4045.203087481599
 20
-1645.968051477665
 30
0.0
 11
4045.203087481599
 21
-1591.905197260229
 31
0.0
  0
LINE
  5
4A0
330
1F
100
AcDbEntity
  8
0-0_補助線
  6
JWW_HOJO
 62
   120
370
     5
100
AcDbLine
 10
4060.73223018775
 20
-1593.085561262094
 30
0.0
 11
4052.967658834673
 21
-1646.558233478597
 31
0.0
  0
LINE
  5
4A1
330
1F
100
AcDbEntity
  8
0-0_補助線
  6
JWW_HOJO
 62
   120
370
     5
100
AcDbLine
 10
4060.203087481599
 20
-1648.288559553353
 30
0.0
 11
4075.203087481599
 21
-1596.546213411606
 31
0.0
  0
LINE
  5
4A2
330
1F
100
AcDbEntity
  8
0-0_補助線
  6
JWW_HOJO
 62
   120
370
     5
100
AcDbLine
 10
4087.629494352791
 20
-1602.051315983775
 30
0.0
 11
4066.416290917194
 21
-1651.041110839438
 31
0.0
  0
LINE
  5
4A3
330
1F
100
AcDbEntity
  8
0-0_補助線
  6
JWW_HOJO
 62
   120
370
     5
100
AcDbLine
 10
4071.183849595132
 20
-1654.62830551551
 30
0.0
 11
4097.164611708664
 21
-1609.225705335918
 31
0.0
  0
LINE
  5
4A4
330
1F
100
AcDbEntity
  8
0-0_補助線
  6
JWW_HOJO
 62
   120
370
     5
100
AcDbLine
 10
4103.158637058943
 20
-1617.580458689925
 30
0.0
 11
4074.18086227027
 21
-1658.805682192513
 31
0.0
  0
LINE
  5
4A5
330
1F
100
AcDbEntity
  8
0-0_補助線
  6
JWW_HOJO
 62
   120
370
     5
100
AcDbLine
 10
3970.956875457011
 20
-1620.422489054648
 30
0.0
 11
3992.170078892607
 21
-1669.412283910312
 31
0.0
  0
LINE
  5
4A6
330
1F
100
AcDbEntity
  8
0-0_補助線
  6
JWW_HOJO
 62
   120
370
     5
100
AcDbLine
 10
3914.284256561231
 20
-1516.319174986363
 30
0.0
 11
3912.620566009121
 21
-1518.356771457641
 31
0.0
  0
LINE
  5
4A7
330
1F
100
AcDbEntity
  8
0-0_補助線
  6
JWW_HOJO
 62
   120
370
     5
100
AcDbLine
 10
3953.383282328204
 20
-1644.91738648248
 30
0.0
 11
3972.43733968375
 21
-1670.238193347962
 31
0.0
  0
LINE
  5
4A8
330
1F
100
AcDbEntity
  8
0-0_補助線
  6
JWW_HOJO
 62
   120
370
     5
100
AcDbLine
 10
3978.029487654702
 20
-1672.906129470712
 30
0.0
 11
3955.42773275086
 21
-1635.9516317608
 31
0.0
  0
LINE
  5
4A9
330
1F
100
AcDbEntity
  8
0-0_補助線
  6
JWW_HOJO
 62
   120
370
     5
100
AcDbLine
 10
4103.158637058943
 20
-1635.511968133286
 30
0.0
 11
4092.004075259587
 21
-1648.223140799995
 31
0.0
  0
LINE
  5
4AA
330
1F
100
AcDbEntity
  8
0-0_補助線
  6
JWW_HOJO
 62
   120
370
     5
100
AcDbLine
 10
4083.03920373051
 20
-1653.691316365871
 30
0.0
 11
4105.203087481599
 21
-1626.546213411606
 31
0.0
  0
LINE
  5
4AB
330
1F
100
AcDbEntity
  8
0-0_補助線
  6
JWW_HOJO
 62
   120
370
     5
100
AcDbLine
 10
3986.866778033707
 20
-1647.979248660959
 30
0.0
 11
4071.719591776094
 21
-1696.969043516623
 31
0.0
  0
LINE
  5
4AC
330
1F
100
AcDbEntity
  8
0-0_補助線
  6
JWW_HOJO
 62
   120
370
     5
100
AcDbLine
 10
4087.629494352791
 20
-1638.793662125522
 30
0.0
 11
3970.956875457011
 21
-1706.15463005206
 31
0.0
  0
ELLIPSE
  5
4AD
330
1F
100
AcDbEntity
  8
0-7_金物
  6
Continuous
 62
     7
370
     9
100
AcDbEllipse
 10
4029.2931849049
 20
-1292.143822278173
 30
0.0
 11
28.25850499469571
 21
0.0
 31
0.0
210
0.0
220
0.0
230
1.0
 40
0.5
 41
0.0
 42
6.283185307179586
  0
LINE
  5
4AE
330
1F
100
AcDbEntity
  8
0-7_金物
  6
Continuous
 62
     7
370
     9
100
AcDbLine
 10
4005.382142217081
 20
-1299.673847877673
 30
0.0
 11
4016.327409594722
 21
-1318.631607078173
 31
0.0
  0
LINE
  5
4AF
330
1F
100
AcDbEntity
  8
0-7_金物
  6
Continuous
 62
     7
370
     9
100
AcDbLine
 10
4029.2931849049
 20
-1514.343828828172
 30
0.0
 11
4016.327409594722
 21
-1318.631607078173
 31
0.0
  0
LINE
  5
4B0
330
1F
100
AcDbEntity
  8
0-7_金物
  6
Continuous
 62
     7
370
     9
100
AcDbLine
 10
4053.20422759272
 20
-1299.673847877673
 30
0.0
 11
4042.258960215079
 21
-1318.631607078173
 31
0.0
  0
LINE
  5
4B1
330
1F
100
AcDbEntity
  8
0-7_金物
  6
Continuous
 62
     7
370
     9
100
AcDbLine
 10
4029.2931849049
 20
-1514.343828828172
 30
0.0
 11
4042.258960215079
 21
-1318.631607078173
 31
0.0
  0
LINE
  5
4B2
330
1F
100
AcDbEntity
  8
0-7_金物
  6
Continuous
 62
     7
370
     9
100
AcDbLine
 10
4041.633099779144
 20
-1328.078673180449
 30
0.0
 11
4017.845453138306
 21
-1341.545753553833
 31
0.0
  0
LINE
  5
4B3
330
1F
100
AcDbEntity
  8
0-7_金物
  6
Continuous
 62
     7
370
     9
100
AcDbLine
 10
4030.631128770508
 20
-1494.148201474582
 30
0.0
 11
4028.051975168178
 21
-1495.608357217699
 31
0.0
  0
LINE
  5
4B4
330
1F
100
AcDbEntity
  8
0-7_金物
  6
Continuous
 62
     7
370
     9
100
AcDbLine
 10
4040.98592501393
 20
-1337.847468962456
 30
0.0
 11
4018.445836787121
 21
-1350.608259651707
 31
0.0
  0
LINE
  5
4B5
330
1F
100
AcDbEntity
  8
0-7_金物
  6
Continuous
 62
     7
370
     9
100
AcDbLine
 10
4040.338750248716
 20
-1347.616264744465
 30
0.0
 11
4019.046220435937
 21
-1359.670765749582
 31
0.0
  0
LINE
  5
4B6
330
1F
100
AcDbEntity
  8
0-7_金物
  6
Continuous
 62
     7
370
     9
100
AcDbLine
 10
4039.691575483503
 20
-1357.385060526472
 30
0.0
 11
4019.646604084754
 21
-1368.733271847457
 31
0.0
  0
LINE
  5
4B7
330
1F
100
AcDbEntity
  8
0-7_金物
  6
Continuous
 62
     7
370
     9
100
AcDbLine
 10
4039.044400718289
 20
-1367.15385630848
 30
0.0
 11
4020.24698773357
 21
-1377.79577794533
 31
0.0
  0
LINE
  5
4B8
330
1F
100
AcDbEntity
  8
0-7_金物
  6
Continuous
 62
     7
370
     9
100
AcDbLine
 10
4038.397225953074
 20
-1376.922652090487
 30
0.0
 11
4020.847371382386
 21
-1386.858284043205
 31
0.0
  0
LINE
  5
4B9
330
1F
100
AcDbEntity
  8
0-7_金物
  6
Continuous
 62
     7
370
     9
100
AcDbLine
 10
4037.75005118786
 20
-1386.691447872495
 30
0.0
 11
4021.447755031201
 21
-1395.92079014108
 31
0.0
  0
LINE
  5
4BA
330
1F
100
AcDbEntity
  8
0-7_金物
  6
Continuous
 62
     7
370
     9
100
AcDbLine
 10
4037.102876422646
 20
-1396.460243654504
 30
0.0
 11
4022.048138680018
 21
-1404.983296238955
 31
0.0
  0
LINE
  5
4BB
330
1F
100
AcDbEntity
  8
0-7_金物
  6
Continuous
 62
     7
370
     9
100
AcDbLine
 10
4036.455701657433
 20
-1406.229039436511
 30
0.0
 11
4022.648522328834
 21
-1414.045802336828
 31
0.0
  0
LINE
  5
4BC
330
1F
100
AcDbEntity
  8
0-7_金物
  6
Continuous
 62
     7
370
     9
100
AcDbLine
 10
4035.808526892219
 20
-1415.997835218518
 30
0.0
 11
4023.24890597765
 21
-1423.108308434703
 31
0.0
  0
LINE
  5
4BD
330
1F
100
AcDbEntity
  8
0-7_金物
  6
Continuous
 62
     7
370
     9
100
AcDbLine
 10
4035.161352127006
 20
-1425.766631000527
 30
0.0
 11
4023.849289626465
 21
-1432.170814532578
 31
0.0
  0
LINE
  5
4BE
330
1F
100
AcDbEntity
  8
0-7_金物
  6
Continuous
 62
     7
370
     9
100
AcDbLine
 10
4034.514177361792
 20
-1435.535426782535
 30
0.0
 11
4024.449673275283
 21
-1441.233320630452
 31
0.0
  0
LINE
  5
4BF
330
1F
100
AcDbEntity
  8
0-7_金物
  6
Continuous
 62
     7
370
     9
100
AcDbLine
 10
4033.867002596578
 20
-1445.304222564542
 30
0.0
 11
4025.050056924098
 21
-1450.295826728328
 31
0.0
  0
LINE
  5
4C0
330
1F
100
AcDbEntity
  8
0-7_金物
  6
Continuous
 62
     7
370
     9
100
AcDbLine
 10
4033.219827831364
 20
-1455.07301834655
 30
0.0
 11
4025.650440572914
 21
-1459.358332826201
 31
0.0
  0
LINE
  5
4C1
330
1F
100
AcDbEntity
  8
0-7_金物
  6
Continuous
 62
     7
370
     9
100
AcDbLine
 10
4032.572653066149
 20
-1464.841814128558
 30
0.0
 11
4026.25082422173
 21
-1468.420838924075
 31
0.0
  0
LINE
  5
4C2
330
1F
100
AcDbEntity
  8
0-7_金物
  6
Continuous
 62
     7
370
     9
100
AcDbLine
 10
4031.925478300936
 20
-1474.610609910566
 30
0.0
 11
4026.851207870547
 21
-1477.483345021951
 31
0.0
  0
LINE
  5
4C3
330
1F
100
AcDbEntity
  8
0-7_金物
  6
Continuous
 62
     7
370
     9
100
AcDbLine
 10
4031.278303535722
 20
-1484.379405692573
 30
0.0
 11
4027.451591519362
 21
-1486.545851119824
 31
0.0
  0
LINE
  5
4C4
330
1F
100
AcDbEntity
  8
0-7_金物
  6
Continuous
 62
     7
370
     9
100
AcDbLine
 10
4006.013587647776
 20
-1289.042148267172
 30
0.0
 11
4006.013587647776
 21
-1295.245496289172
 31
0.0
  0
LINE
  5
4C5
330
1F
100
AcDbEntity
  8
0-7_金物
  6
Continuous
 62
     7
370
     9
100
AcDbLine
 10
4052.572782160901
 20
-1295.245496289172
 30
0.0
 11
4052.572782160901
 21
-1289.042148267172
 31
0.0
  0
LINE
  5
4C6
330
1F
100
AcDbEntity
  8
0-7_金物
  6
Continuous
 62
     7
370
     9
100
AcDbLine
 10
4026.191510893901
 20
-1304.341751808172
 30
0.0
 11
4032.394858915902
 21
-1304.341751808172
 31
0.0
  0
LINE
  5
4C7
330
1F
100
AcDbEntity
  8
0-7_金物
  6
Continuous
 62
     7
370
     9
100
AcDbLine
 10
4026.191510893901
 20
-1279.945892748172
 30
0.0
 11
4032.394858915902
 21
-1279.945892748172
 31
0.0
  0
LINE
  5
4C8
330
1F
100
AcDbEntity
  8
0-7_金物
  6
Continuous
 62
     7
370
     9
100
AcDbLine
 10
4006.013587647776
 20
-1289.042148267172
 30
0.0
 11
4026.191510893901
 21
-1289.042148267172
 31
0.0
  0
LINE
  5
4C9
330
1F
100
AcDbEntity
  8
0-7_金物
  6
Continuous
 62
     7
370
     9
100
AcDbLine
 10
4032.394858915902
 20
-1289.042148267172
 30
0.0
 11
4052.572782160901
 21
-1289.042148267172
 31
0.0
  0
LINE
  5
4CA
330
1F
100
AcDbEntity
  8
0-7_金物
  6
Continuous
 62
     7
370
     9
100
AcDbLine
 10
4006.013587647776
 20
-1295.245496289172
 30
0.0
 11
4026.191510893901
 21
-1295.245496289172
 31
0.0
  0
LINE
  5
4CB
330
1F
100
AcDbEntity
  8
0-7_金物
  6
Continuous
 62
     7
370
     9
100
AcDbLine
 10
4032.394858915902
 20
-1295.245496289172
 30
0.0
 11
4052.572782160901
 21
-1295.245496289172
 31
0.0
  0
LINE
  5
4CC
330
1F
100
AcDbEntity
  8
0-7_金物
  6
Continuous
 62
     7
370
     9
100
AcDbLine
 10
4032.394858915902
 20
-1304.341751808172
 30
0.0
 11
4032.394858915902
 21
-1295.245496289172
 31
0.0
  0
LINE
  5
4CD
330
1F
100
AcDbEntity
  8
0-7_金物
  6
Continuous
 62
     7
370
     9
100
AcDbLine
 10
4032.394858915902
 20
-1289.042148267172
 30
0.0
 11
4032.394858915902
 21
-1279.945892748172
 31
0.0
  0
LINE
  5
4CE
330
1F
100
AcDbEntity
  8
0-7_金物
  6
Continuous
 62
     7
370
     9
100
AcDbLine
 10
4026.191510893901
 20
-1304.341751808172
 30
0.0
 11
4026.191510893901
 21
-1295.245496289172
 31
0.0
  0
LINE
  5
4CF
330
1F
100
AcDbEntity
  8
0-7_金物
  6
Continuous
 62
     7
370
     9
100
AcDbLine
 10
4026.191510893901
 20
-1289.042148267172
 30
0.0
 11
4026.191510893901
 21
-1279.945892748172
 31
0.0
  0
ELLIPSE
  5
4D0
330
1F
100
AcDbEntity
  8
0-7_金物
  6
Continuous
 62
     7
370
     9
100
AcDbEllipse
 10
3838.374353984533
 20
-1181.91678385293
 30
0.0
 11
28.25850499469571
 21
0.0
 31
0.0
210
0.0
220
0.0
230
1.0
 40
0.5
 41
0.0
 42
6.283185307179586
  0
LINE
  5
4D1
330
1F
100
AcDbEntity
  8
0-7_金物
  6
Continuous
 62
     7
370
     9
100
AcDbLine
 10
3814.463311296713
 20
-1189.44680945243
 30
0.0
 11
3825.408578674354
 21
-1208.40456865293
 31
0.0
  0
LINE
  5
4D2
330
1F
100
AcDbEntity
  8
0-7_金物
  6
Continuous
 62
     7
370
     9
100
AcDbLine
 10
3862.285396672352
 20
-1189.44680945243
 30
0.0
 11
3851.340129294712
 21
-1208.40456865293
 31
0.0
  0
LINE
  5
4D3
330
1F
100
AcDbEntity
  8
0-7_金物
  6
Continuous
 62
     7
370
     9
100
AcDbLine
 10
3850.714268858776
 20
-1217.851634755207
 30
0.0
 11
3826.926622217938
 21
-1231.31871512859
 31
0.0
  0
LINE
  5
4D4
330
1F
100
AcDbEntity
  8
0-7_金物
  6
Continuous
 62
     7
370
     9
100
AcDbLine
 10
3839.71229785014
 20
-1383.92116304934
 30
0.0
 11
3837.13314424781
 21
-1385.381318792455
 31
0.0
  0
LINE
  5
4D5
330
1F
100
AcDbEntity
  8
0-7_金物
  6
Continuous
 62
     7
370
     9
100
AcDbLine
 10
3850.067094093562
 20
-1227.620430537212
 30
0.0
 11
3827.527005866753
 21
-1240.381221226463
 31
0.0
  0
LINE
  5
4D6
330
1F
100
AcDbEntity
  8
0-7_金物
  6
Continuous
 62
     7
370
     9
100
AcDbLine
 10
3849.419919328348
 20
-1237.389226319222
 30
0.0
 11
3828.127389515569
 21
-1249.443727324339
 31
0.0
  0
LINE
  5
4D7
330
1F
100
AcDbEntity
  8
0-7_金物
  6
Continuous
 62
     7
370
     9
100
AcDbLine
 10
3848.772744563135
 20
-1247.15802210123
 30
0.0
 11
3828.727773164386
 21
-1258.506233422215
 31
0.0
  0
LINE
  5
4D8
330
1F
100
AcDbEntity
  8
0-7_金物
  6
Continuous
 62
     7
370
     9
100
AcDbLine
 10
3848.125569797921
 20
-1256.926817883237
 30
0.0
 11
3829.328156813202
 21
-1267.568739520088
 31
0.0
  0
LINE
  5
4D9
330
1F
100
AcDbEntity
  8
0-7_金物
  6
Continuous
 62
     7
370
     9
100
AcDbLine
 10
3847.478395032706
 20
-1266.695613665244
 30
0.0
 11
3829.928540462017
 21
-1276.631245617962
 31
0.0
  0
LINE
  5
4DA
330
1F
100
AcDbEntity
  8
0-7_金物
  6
Continuous
 62
     7
370
     9
100
AcDbLine
 10
3846.831220267492
 20
-1276.464409447251
 30
0.0
 11
3830.528924110833
 21
-1285.693751715836
 31
0.0
  0
LINE
  5
4DB
330
1F
100
AcDbEntity
  8
0-7_金物
  6
Continuous
 62
     7
370
     9
100
AcDbLine
 10
3846.184045502278
 20
-1286.233205229262
 30
0.0
 11
3831.129307759651
 21
-1294.756257813712
 31
0.0
  0
LINE
  5
4DC
330
1F
100
AcDbEntity
  8
0-7_金物
  6
Continuous
 62
     7
370
     9
100
AcDbLine
 10
3845.536870737065
 20
-1296.002001011267
 30
0.0
 11
3831.729691408466
 21
-1303.818763911585
 31
0.0
  0
LINE
  5
4DD
330
1F
100
AcDbEntity
  8
0-7_金物
  6
Continuous
 62
     7
370
     9
100
AcDbLine
 10
3844.889695971851
 20
-1305.770796793276
 30
0.0
 11
3832.330075057282
 21
-1312.881270009461
 31
0.0
  0
LINE
  5
4DE
330
1F
100
AcDbEntity
  8
0-7_金物
  6
Continuous
 62
     7
370
     9
100
AcDbLine
 10
3844.242521206638
 20
-1315.539592575285
 30
0.0
 11
3832.930458706097
 21
-1321.943776107335
 31
0.0
  0
LINE
  5
4DF
330
1F
100
AcDbEntity
  8
0-7_金物
  6
Continuous
 62
     7
370
     9
100
AcDbLine
 10
3843.595346441424
 20
-1325.308388357292
 30
0.0
 11
3833.530842354915
 21
-1331.006282205209
 31
0.0
  0
LINE
  5
4E0
330
1F
100
AcDbEntity
  8
0-7_金物
  6
Continuous
 62
     7
370
     9
100
AcDbLine
 10
3842.94817167621
 20
-1335.077184139299
 30
0.0
 11
3834.13122600373
 21
-1340.068788303085
 31
0.0
  0
LINE
  5
4E1
330
1F
100
AcDbEntity
  8
0-7_金物
  6
Continuous
 62
     7
370
     9
100
AcDbLine
 10
3842.300996910997
 20
-1344.845979921306
 30
0.0
 11
3834.731609652546
 21
-1349.131294400958
 31
0.0
  0
LINE
  5
4E2
330
1F
100
AcDbEntity
  8
0-7_金物
  6
Continuous
 62
     7
370
     9
100
AcDbLine
 10
3841.653822145781
 20
-1354.614775703315
 30
0.0
 11
3835.331993301362
 21
-1358.193800498832
 31
0.0
  0
LINE
  5
4E3
330
1F
100
AcDbEntity
  8
0-7_金物
  6
Continuous
 62
     7
370
     9
100
AcDbLine
 10
3841.006647380568
 20
-1364.383571485322
 30
0.0
 11
3835.932376950179
 21
-1367.256306596708
 31
0.0
  0
LINE
  5
4E4
330
1F
100
AcDbEntity
  8
0-7_金物
  6
Continuous
 62
     7
370
     9
100
AcDbLine
 10
3840.359472615354
 20
-1374.152367267331
 30
0.0
 11
3836.532760598995
 21
-1376.318812694581
 31
0.0
  0
LINE
  5
4E5
330
1F
100
AcDbEntity
  8
0-7_金物
  6
Continuous
 62
     7
370
     9
100
AcDbLine
 10
3815.094756727408
 20
-1178.815109841929
 30
0.0
 11
3815.094756727408
 21
-1185.01845786393
 31
0.0
  0
LINE
  5
4E6
330
1F
100
AcDbEntity
  8
0-7_金物
  6
Continuous
 62
     7
370
     9
100
AcDbLine
 10
3861.653951240533
 20
-1185.01845786393
 30
0.0
 11
3861.653951240533
 21
-1178.815109841929
 31
0.0
  0
LINE
  5
4E7
330
1F
100
AcDbEntity
  8
0-7_金物
  6
Continuous
 62
     7
370
     9
100
AcDbLine
 10
3835.272679973533
 20
-1194.114713382929
 30
0.0
 11
3841.476027995534
 21
-1194.114713382929
 31
0.0
  0
LINE
  5
4E8
330
1F
100
AcDbEntity
  8
0-7_金物
  6
Continuous
 62
     7
370
     9
100
AcDbLine
 10
3835.272679973533
 20
-1169.71885432293
 30
0.0
 11
3841.476027995534
 21
-1169.71885432293
 31
0.0
  0
LINE
  5
4E9
330
1F
100
AcDbEntity
  8
0-7_金物
  6
Continuous
 62
     7
370
     9
100
AcDbLine
 10
3815.094756727408
 20
-1178.815109841929
 30
0.0
 11
3835.272679973533
 21
-1178.815109841929
 31
0.0
  0
LINE
  5
4EA
330
1F
100
AcDbEntity
  8
0-7_金物
  6
Continuous
 62
     7
370
     9
100
AcDbLine
 10
3841.476027995534
 20
-1178.815109841929
 30
0.0
 11
3861.653951240533
 21
-1178.815109841929
 31
0.0
  0
LINE
  5
4EB
330
1F
100
AcDbEntity
  8
0-7_金物
  6
Continuous
 62
     7
370
     9
100
AcDbLine
 10
3815.094756727408
 20
-1185.01845786393
 30
0.0
 11
3835.272679973533
 21
-1185.01845786393
 31
0.0
  0
LINE
  5
4EC
330
1F
100
AcDbEntity
  8
0-7_金物
  6
Continuous
 62
     7
370
     9
100
AcDbLine
 10
3841.476027995534
 20
-1185.01845786393
 30
0.0
 11
3861.653951240533
 21
-1185.01845786393
 31
0.0
  0
LINE
  5
4ED
330
1F
100
AcDbEntity
  8
0-7_金物
  6
Continuous
 62
     7
370
     9
100
AcDbLine
 10
3841.476027995534
 20
-1194.114713382929
 30
0.0
 11
3841.476027995534
 21
-1185.01845786393
 31
0.0
  0
LINE
  5
4EE
330
1F
100
AcDbEntity
  8
0-7_金物
  6
Continuous
 62
     7
370
     9
100
AcDbLine
 10
3841.476027995534
 20
-1178.815109841929
 30
0.0
 11
3841.476027995534
 21
-1169.71885432293
 31
0.0
  0
LINE
  5
4EF
330
1F
100
AcDbEntity
  8
0-7_金物
  6
Continuous
 62
     7
370
     9
100
AcDbLine
 10
3835.272679973533
 20
-1194.114713382929
 30
0.0
 11
3835.272679973533
 21
-1185.01845786393
 31
0.0
  0
LINE
  5
4F0
330
1F
100
AcDbEntity
  8
0-7_金物
  6
Continuous
 62
     7
370
     9
100
AcDbLine
 10
3835.272679973533
 20
-1178.815109841929
 30
0.0
 11
3835.272679973533
 21
-1169.71885432293
 31
0.0
  0
LINE
  5
4F1
330
1F
100
AcDbEntity
  8
0-7_金物
  6
Continuous
 62
     7
370
     9
100
AcDbLine
 10
3837.851144032304
 20
-1396.219184610552
 30
0.0
 11
3825.408578674354
 21
-1208.40456865293
 31
0.0
  0
LINE
  5
4F2
330
1F
100
AcDbEntity
  8
0-7_金物
  6
Continuous
 62
     7
370
     9
100
AcDbLine
 10
3838.857823887931
 20
-1396.819041777819
 30
0.0
 11
3851.340129294712
 21
-1208.40456865293
 31
0.0
  0
ELLIPSE
  5
4F3
330
1F
100
AcDbEntity
  8
0-7_金物
  6
Continuous
 62
     7
370
     9
100
AcDbEllipse
 10
3737.61163766545
 20
-1534.690348057237
 30
0.0
 11
-30.00000000000005
 21
3.673819061467138E-15
 31
0.0
210
0.0
220
0.0
230
1.0
 40
0.5773502691896267
 41
5.497787143782136
 42
7.068583470577034
  0
LINE
  5
4F4
330
1F
100
AcDbEntity
  8
0-7_金物
  6
Continuous
 62
     7
370
     9
100
AcDbLine
 10
3707.61163766545
 20
-1534.690348057237
 30
0.0
 11
3707.61163766545
 21
-1571.432694198984
 31
0.0
  0
LINE
  5
4F5
330
1F
100
AcDbEntity
  8
0-7_金物
  6
Continuous
 62
     7
370
     9
100
AcDbLine
 10
3708.633862876778
 20
-1539.173225418077
 30
0.0
 11
3708.633862876778
 21
-1575.915571559825
 31
0.0
  0
LINE
  5
4F6
330
1F
100
AcDbEntity
  8
0-7_金物
  6
Continuous
 62
     7
370
     9
100
AcDbLine
 10
3711.630875551917
 20
-1543.350602095082
 30
0.0
 11
3711.630875551917
 21
-1580.092948236829
 31
0.0
  0
LINE
  5
4F7
330
1F
100
AcDbEntity
  8
0-7_金物
  6
Continuous
 62
     7
370
     9
100
AcDbLine
 10
3716.398434229853
 20
-1546.937796771153
 30
0.0
 11
3716.398434229853
 21
-1583.680142912901
 31
0.0
  0
ELLIPSE
  5
4F8
330
1F
100
AcDbEntity
  8
0-7_金物
  6
Continuous
 62
     7
370
     9
100
AcDbEllipse
 10
4013.383282328204
 20
-1693.907181338144
 30
0.0
 11
-29.99999999999994
 21
-4.364184794797269E-14
 31
0.0
210
0.0
220
0.0
230
1.0
 40
0.5773502691896277
 41
0.7853981633974482
 42
2.356194490192345
  0
ELLIPSE
  5
4F9
330
1F
100
AcDbEntity
  8
0-7_金物
  6
Continuous
 62
     7
370
     9
100
AcDbEllipse
 10
4013.383282328204
 20
-1730.649527479891
 30
0.0
 11
-29.99999999999994
 21
-4.364184794797269E-14
 31
0.0
210
0.0
220
0.0
230
1.0
 40
0.5773502691896277
 41
0.7853981633974488
 42
2.356194490192345
  0
LINE
  5
4FA
330
1F
100
AcDbEntity
  8
0-7_金物
  6
Continuous
 62
     7
370
     9
100
AcDbLine
 10
3992.170078892607
 20
-1706.15463005206
 30
0.0
 11
3992.170078892607
 21
-1742.896976193807
 31
0.0
  0
LINE
  5
4FB
330
1F
100
AcDbEntity
  8
0-7_金物
  6
Continuous
 62
     7
370
     9
100
AcDbLine
 10
3998.383282328204
 20
-1708.907181338144
 30
0.0
 11
3998.383282328204
 21
-1745.649527479891
 31
0.0
  0
LINE
  5
4FC
330
1F
100
AcDbEntity
  8
0-7_金物
  6
Continuous
 62
     7
370
     9
100
AcDbLine
 10
4005.618710975128
 20
-1710.6375074129
 30
0.0
 11
4005.618710975128
 21
-1747.379853554648
 31
0.0
  0
LINE
  5
4FD
330
1F
100
AcDbEntity
  8
0-7_金物
  6
Continuous
 62
     7
370
     9
100
AcDbLine
 10
4013.383282328204
 20
-1711.227689413833
 30
0.0
 11
4013.383282328204
 21
-1747.97003555558
 31
0.0
  0
LINE
  5
4FE
330
1F
100
AcDbEntity
  8
0-7_金物
  6
Continuous
 62
     7
370
     9
100
AcDbLine
 10
4021.147853681278
 20
-1710.6375074129
 30
0.0
 11
4021.147853681278
 21
-1747.379853554648
 31
0.0
  0
LINE
  5
4FF
330
1F
100
AcDbEntity
  8
0-7_金物
  6
Continuous
 62
     7
370
     9
100
AcDbLine
 10
4028.383282328204
 20
-1708.907181338144
 30
0.0
 11
4028.383282328204
 21
-1745.649527479891
 31
0.0
  0
ELLIPSE
  5
500
330
1F
100
AcDbEntity
  8
0-7_金物
  6
Continuous
 62
     7
370
     9
100
AcDbEllipse
 10
4130.055901223984
 20
-1626.546213411606
 30
0.0
 11
-30.00000000000001
 21
3.673819061467133E-15
 31
0.0
210
0.0
220
0.0
230
1.0
 40
0.5773502691896252
 41
2.356194490192344
 42
3.92699081698724
  0
LINE
  5
501
330
1F
100
AcDbEntity
  8
0-7_金物
  6
Continuous
 62
     7
370
     9
100
AcDbLine
 10
4156.036663337516
 20
-1635.206467449451
 30
0.0
 11
4156.036663337516
 21
-1671.948813591198
 31
0.0
  0
LINE
  5
502
330
1F
100
AcDbEntity
  8
0-7_金物
  6
Continuous
 62
     7
370
     9
100
AcDbLine
 10
4159.033676012657
 20
-1631.029090772447
 30
0.0
 11
4159.033676012657
 21
-1667.771436914194
 31
0.0
  0
LINE
  5
503
330
1F
100
AcDbEntity
  8
0-7_金物
  6
Continuous
 62
     7
370
     9
100
AcDbLine
 10
4160.055901223984
 20
-1626.546213411606
 30
0.0
 11
4160.055901223984
 21
-1663.288559553353
 31
0.0
  0
LINE
  5
504
330
1F
100
AcDbEntity
  8
0-7_金物
  6
Continuous
 62
     7
370
     9
100
AcDbLine
 10
4151.26910465958
 20
-1675.53600826727
 30
0.0
 11
4034.596485763801
 21
-1742.896976193807
 31
0.0
  0
LINE
  5
505
330
1F
100
AcDbEntity
  8
0-7_金物
  6
Continuous
 62
     7
370
     9
100
AcDbLine
 10
4151.26910465958
 20
-1638.793662125522
 30
0.0
 11
4034.596485763801
 21
-1706.15463005206
 31
0.0
  0
LINE
  5
506
330
1F
100
AcDbEntity
  8
0-7_金物
  6
Continuous
 62
     7
370
     9
100
AcDbLine
 10
4151.26910465958
 20
-1638.793662125522
 30
0.0
 11
4151.26910465958
 21
-1675.53600826727
 31
0.0
  0
LINE
  5
507
330
1F
100
AcDbEntity
  8
0-7_金物
  6
Continuous
 62
     7
370
     9
100
AcDbLine
 10
4034.596485763801
 20
-1706.15463005206
 30
0.0
 11
4034.596485763801
 21
-1742.896976193807
 31
0.0
  0
ELLIPSE
  5
508
330
1F
100
AcDbEntity
  8
0-7_金物
  6
Continuous
 62
     7
370
     9
100
AcDbEllipse
 10
4045.203087481599
 20
-1626.546213411606
 30
0.0
 11
60.00000000000004
 21
0.0
 31
0.0
210
0.0
220
0.0
230
1.0
 40
0.5773502691896252
 41
5.497787143782138
 42
8.63937979737193
  0
LINE
  5
509
330
1F
100
AcDbEntity
  8
0-7_金物
  6
Continuous
 62
     7
370
     9
100
AcDbLine
 10
3914.284256561231
 20
-1516.319174986363
 30
0.0
 11
3914.284256561231
 21
-1553.061521128111
 31
0.0
  0
ELLIPSE
  5
50A
330
1F
100
AcDbEntity
  8
0-7_金物
  6
Continuous
 62
     7
370
     9
100
AcDbEllipse
 10
4013.383282328204
 20
-1644.91738648248
 30
0.0
 11
59.99999999999998
 21
0.0
 31
0.0
210
0.0
220
0.0
230
1.0
 40
0.5773502691896258
 41
2.356194490192344
 42
5.497787143782136
  0
LINE
  5
50B
330
1F
100
AcDbEntity
  8
0-7_金物
  6
Continuous
 62
     7
370
     9
100
AcDbLine
 10
4023.989884046002
 20
-1651.041110839438
 30
0.0
 11
3992.170078892607
 21
-1669.412283910312
 31
0.0
  0
ELLIPSE
  5
50C
330
1F
100
AcDbEntity
  8
0-7_金物
  6
Continuous
 62
     7
370
     9
100
AcDbEllipse
 10
3737.61163766545
 20
-1571.432694198984
 30
0.0
 11
-30.00000000000001
 21
-1.699649535696902E-14
 31
0.0
210
0.0
220
0.0
230
1.0
 40
0.5773502691896268
 41
0.0
 42
0.7853981633974476
  0
ELLIPSE
  5
50D
330
1F
100
AcDbEntity
  8
0-7_金物
  6
Continuous
 62
     7
370
     9
100
AcDbEllipse
 10
4130.055901223984
 20
-1663.288559553353
 30
0.0
 11
-30.00000000000001
 21
3.673819061467133E-15
 31
0.0
210
0.0
220
0.0
230
1.0
 40
0.5773502691896252
 41
2.356194490192344
 42
3.141592653589793
  0
LINE
  5
50E
330
1F
100
AcDbEntity
  8
0-7_金物
  6
Continuous
 62
     7
370
     9
100
AcDbLine
 10
3763.068773289837
 20
-1610.625275732354
 30
0.0
 11
3716.398434229853
 21
-1583.680142912901
 31
0.0
  0
LINE
  5
50F
330
1F
100
AcDbEntity
  8
0-7_金物
  6
Continuous
 62
     7
370
     9
100
AcDbLine
 10
3992.170078892607
 20
-1706.15463005206
 30
0.0
 11
3912.620566009121
 21
-1660.226697374875
 31
0.0
  0
LINE
  5
510
330
1F
100
AcDbEntity
  8
0-7_金物
  6
Continuous
 62
     7
370
     9
100
AcDbLine
 10
3762.446796325189
 20
-1573.523831022637
 30
0.0
 11
3716.398434229853
 21
-1546.937796771153
 31
0.0
  0
ELLIPSE
  5
511
330
1F
100
AcDbEntity
  8
0-7_金物
  6
Continuous
 62
     7
370
     9
100
AcDbEllipse
 10
3854.284256561231
 20
-1516.319174986363
 30
0.0
 11
60.00000000000006
 21
0.0
 31
0.0
210
0.0
220
0.0
230
1.0
 40
0.5773502691896251
 41
6.047146014440955
 42
6.519224599918218
  0
ELLIPSE
  5
512
330
1F
100
AcDbEntity
  8
0-7_金物
  6
Continuous
 62
     7
370
     9
100
AcDbEllipse
 10
3854.284256561231
 20
-1553.061521128111
 30
0.0
 11
60.00000000000006
 21
0.0
 31
0.0
210
0.0
220
0.0
230
1.0
 40
0.5773502691896251
 41
6.047146014440955
 42
6.519224599918218
  0
LINE
  5
513
330
1F
100
AcDbEntity
  8
0-7_金物
  6
Continuous
 62
     7
370
     9
100
AcDbLine
 10
3716.398434229853
 20
-1522.442899343321
 30
0.0
 11
3762.446796325189
 21
-1495.856865091837
 31
0.0
  0
LINE
  5
514
330
1F
100
AcDbEntity
  8
0-7_金物
  6
Continuous
 62
     7
370
     9
100
AcDbLine
 10
4151.26910465958
 20
-1614.29876469769
 30
0.0
 11
3912.620566009121
 21
-1476.514966666137
 31
0.0
  0
LINE
  5
515
330
1F
100
AcDbEntity
  8
0-7_金物
  6
Continuous
 62
     7
370
     9
100
AcDbLine
 10
3970.956875457011
 20
-1620.422489054648
 30
0.0
 11
4002.776680610405
 21
-1602.051315983775
 31
0.0
  0
LINE
  5
516
330
1F
100
AcDbEntity
  8
0-7_金物
  6
Continuous
 62
     7
370
     9
100
AcDbLine
 10
4055.809689199397
 20
-1669.412283910312
 30
0.0
 11
4087.629494352791
 21
-1651.041110839438
 31
0.0
  0
ELLIPSE
  5
517
330
1F
100
AcDbEntity
  8
0-7_金物
  6
Continuous
 62
     7
370
     9
100
AcDbEllipse
 10
4045.203087481599
 20
-1663.288559553353
 30
0.0
 11
30.00000000000003
 21
7.993605777301137E-14
 31
0.0
210
0.0
220
0.0
230
1.0
 40
0.5773502691896266
 41
0.2617993877991396
 42
2.356194490192344
  0
ELLIPSE
  5
518
330
1F
100
AcDbEntity
  8
0-7_金物
  6
Continuous
 62
     7
370
     9
100
AcDbEllipse
 10
4013.383282328204
 20
-1681.659732624228
 30
0.0
 11
29.99999999999995
 21
6.661338147750928E-14
 31
0.0
210
0.0
220
0.0
230
1.0
 40
0.5773502691896261
 41
2.356194490192344
 42
2.780225529683081
  0
LINE
  5
519
330
1F
100
AcDbEntity
  8
0-7_金物
  6
Continuous
 62
     7
370
     9
100
AcDbLine
 10
3992.170078892607
 20
-1742.896976193807
 30
0.0
 11
3912.620566009121
 21
-1696.969043516623
 31
0.0
  0
LINE
  5
51A
330
1F
100
AcDbEntity
  8
0-7_金物
  6
Continuous
 62
     7
370
     9
100
AcDbLine
 10
3879.323170982898
 20
-1682.054290351047
 30
0.0
 11
3763.62140123932
 21
-1613.110290470339
 31
0.0
  0
ELLIPSE
  5
51B
330
1F
100
AcDbEntity
  8
0-7_金物
  6
Continuous
 62
     7
370
     9
100
AcDbEllipse
 10
3912.620566009121
 20
-1657.997900346323
 30
0.0
 11
23.03500218845613
 21
38.65732368100281
 31
0.0
210
0.0
220
0.0
230
0.9999999999999998
 40
0.6634139481689386
 41
2.302614718066926
 42
3.873411044861822
  0
LINE
  5
51C
330
1F
100
AcDbEntity
  8
0-7_金物
  6
Continuous
 62
     7
370
     9
100
AcDbLine
 10
3882.766938341519
 20
-1690.008555914067
 30
0.0
 11
3767.065168597941
 21
-1621.064556033359
 31
0.0
  0
LINE
  5
51D
330
1F
100
AcDbEntity
  8
0-7_金物
  6
Continuous
 62
     7
370
     9
100
AcDbLine
 10
3888.245181090235
 20
-1695.781348200255
 30
0.0
 11
3772.543411346656
 21
-1626.837348319546
 31
0.0
  0
ELLIPSE
  5
51E
330
1F
100
AcDbEntity
  8
0-7_金物
  6
Continuous
 62
     7
370
     9
100
AcDbEllipse
 10
3906.875232685729
 20
-1446.067066445998
 30
0.0
 11
3.839167031409386
 21
6.442887280167132
 31
0.0
210
0.0
220
0.0
230
1.0
 40
0.6634139481689387
 41
5.444207371656721
 42
7.015003698451618
  0
LINE
  5
51F
330
1F
100
AcDbEntity
  8
0-7_金物
  6
Continuous
 62
     7
370
     9
100
AcDbLine
 10
3910.937796838876
 20
-1439.76982513701
 30
0.0
 11
3795.236027095299
 21
-1370.825825256302
 31
0.0
  0
LINE
  5
520
330
1F
100
AcDbEntity
  8
0-7_金物
  6
Continuous
 62
     7
370
     9
100
AcDbLine
 10
3909.747899347425
 20
-1439.236839677837
 30
0.0
 11
3794.046129603846
 21
-1370.292839797128
 31
0.0
  0
LINE
  5
521
330
1F
100
AcDbEntity
  8
0-7_金物
  6
Continuous
 62
     7
370
     9
100
AcDbLine
 10
3908.362234370285
 20
-1439.169322885429
 30
0.0
 11
3792.660464626707
 21
-1370.225323004721
 31
0.0
  0
LINE
  5
522
330
1F
100
AcDbEntity
  8
0-7_金物
  6
Continuous
 62
     7
370
     9
100
AcDbLine
 10
3768.192129648581
 20
-1380.269690182205
 30
0.0
 11
3791.17346294215
 21
-1370.627876036908
 31
0.0
  0
LINE
  5
523
330
1F
100
AcDbEntity
  8
0-7_金物
  6
Continuous
 62
     7
370
     9
100
AcDbLine
 10
3883.89389939216
 20
-1449.213690062913
 30
0.0
 11
3906.875232685729
 21
-1439.571875917615
 31
0.0
  0
LINE
  5
524
330
1F
100
AcDbEntity
  8
0-7_金物
  6
Continuous
 62
     7
370
     9
100
AcDbLine
 10
3906.875232685729
 20
-1439.571875917615
 30
0.0
 11
3791.17346294215
 21
-1370.627876036908
 31
0.0
  0
LINE
  5
525
330
1F
100
AcDbEntity
  8
0-7_金物
  6
Continuous
 62
     7
370
     9
100
AcDbLine
 10
3762.446796325189
 20
-1389.175334246914
 30
0.0
 11
3762.446796325189
 21
-1603.516621683562
 31
0.0
  0
LINE
  5
526
330
1F
100
AcDbEntity
  8
0-7_金物
  6
Continuous
 62
     7
370
     9
100
AcDbLine
 10
3878.148566068767
 20
-1458.119334127621
 30
0.0
 11
3878.148566068767
 21
-1672.46062156427
 31
0.0
  0
LINE
  5
527
330
1F
100
AcDbEntity
  8
0-7_金物
  6
Continuous
 62
     7
370
     9
100
AcDbLine
 10
3878.148566068767
 20
-1672.46062156427
 30
0.0
 11
3762.446796325189
 21
-1603.516621683562
 31
0.0
  0
ELLIPSE
  5
528
330
1F
100
AcDbEntity
  8
0-7_金物
  6
Continuous
 62
     7
370
     9
100
AcDbEllipse
 10
3883.89389939216
 20
-1455.708880591297
 30
0.0
 11
3.839167031409386
 21
6.442887280167133
 31
0.0
210
0.0
220
0.0
230
1.0
 40
0.6634139481689393
 41
0.7318183912720424
 42
2.302614718066939
  0
ELLIPSE
  5
529
330
1F
100
AcDbEntity
  8
0-7_金物
  6
Continuous
 62
     7
370
     9
100
AcDbEllipse
 10
3768.192129648581
 20
-1386.764880710589
 30
0.0
 11
3.839167031409303
 21
6.442887280167151
 31
0.0
210
0.0
220
0.0
230
0.9999999999999999
 40
0.6634139481689377
 41
0.7318183912720223
 42
2.302614718066919
  0
LINE
  5
52A
330
1F
100
AcDbEntity
  8
0-7_金物
  6
Continuous
 62
     7
370
     9
100
AcDbLine
 10
3883.89389939216
 20
-1449.213690062913
 30
0.0
 11
3768.192129648581
 21
-1380.269690182205
 31
0.0
  0
LINE
  5
52B
330
1F
100
AcDbEntity
  8
0-7_金物
  6
Continuous
 62
     7
370
     9
100
AcDbLine
 10
3882.406897707603
 20
-1450.058879595799
 30
0.0
 11
3766.705127964026
 21
-1381.114879715092
 31
0.0
  0
LINE
  5
52C
330
1F
100
AcDbEntity
  8
0-7_金物
  6
Continuous
 62
     7
370
     9
100
AcDbLine
 10
3881.021232730463
 20
-1451.289107359459
 30
0.0
 11
3765.319462986885
 21
-1382.34510747875
 31
0.0
  0
LINE
  5
52D
330
1F
100
AcDbEntity
  8
0-7_金物
  6
Continuous
 62
     7
370
     9
100
AcDbLine
 10
3879.831335239011
 20
-1452.820535364848
 30
0.0
 11
3764.129565495434
 21
-1383.876535484141
 31
0.0
  0
LINE
  5
52E
330
1F
100
AcDbEntity
  8
0-7_金物
  6
Continuous
 62
     7
370
     9
100
AcDbLine
 10
3878.918294780893
 20
-1454.548799324205
 30
0.0
 11
3763.216525037314
 21
-1385.604799443497
 31
0.0
  0
LINE
  5
52F
330
1F
100
AcDbEntity
  8
0-7_金物
  6
Continuous
 62
     7
370
     9
100
AcDbLine
 10
3878.344333554456
 20
-1456.356120904788
 30
0.0
 11
3762.642563810877
 21
-1387.41212102408
 31
0.0
  0
LINE
  5
530
330
1F
100
AcDbEntity
  8
0-7_金物
  6
Continuous
 62
     7
370
     9
100
AcDbLine
 10
3878.148566068767
 20
-1458.119334127621
 30
0.0
 11
3762.446796325189
 21
-1389.175334246914
 31
0.0
  0
LINE
  5
531
330
1F
100
AcDbEntity
  8
0-7_金物
  6
Continuous
 62
     7
370
     9
100
AcDbLine
 10
3912.620566009121
 20
-1696.969043516623
 30
0.0
 11
3912.620566009121
 21
-1443.656612909675
 31
0.0
  0
ELLIPSE
  5
532
330
1F
100
AcDbEntity
  8
0-7_金物
  6
Continuous
 62
     7
370
     9
100
AcDbEllipse
 10
3796.918796265542
 20
-1589.053900465615
 30
0.0
 11
23.03500218845609
 21
38.65732368100281
 31
0.0
210
0.0
220
0.0
230
1.0
 40
0.6634139481689381
 41
2.302614718066926
 42
3.088012881464371
  0
ELLIPSE
  5
533
330
1F
100
AcDbEntity
  8
0-7_金物
  6
Continuous
 62
     7
370
     9
100
AcDbEllipse
 10
3791.17346294215
 20
-1377.12306656529
 30
0.0
 11
3.839167031409308
 21
6.442887280167158
 31
0.0
210
0.0
220
0.0
230
0.9999999999999998
 40
0.6634139481689362
 41
6.22960553505472
 42
7.015003698451609
  0
LINE
  5
534
330
1F
100
AcDbEntity
  8
0-B_寸法
  6
Continuous
 62
   120
370
     5
100
AcDbLine
 10
3601.536106388196
 20
-1809.212772092927
 30
0.0
 11
3760.63520134978
 21
-1901.068677396822
 31
0.0
  0
LWPOLYLINE
  5
535
330
1F
100
AcDbEntity
  8
0-B_寸法
  6
Continuous
 62
     7
370
     9
100
AcDbPolyline
 90
        4
 70
     1
 43
3.0
 10
3603.036106388196
 20
-1809.212772092927
 42
0.4142135623731
 10
3601.536106388196
 20
-1807.712772092928
 42
0.4142135623731
 10
3600.036106388196
 20
-1809.212772092927
 42
0.4142135623731
 10
3601.536106388196
 20
-1810.712772092927
 42
0.4142135623731
  0
LINE
  5
536
330
1F
100
AcDbEntity
  8
0-B_寸法
  6
Continuous
 62
   120
370
     5
100
AcDbLine
 10
3601.536106388196
 20
-1809.212772092927
 30
0.0
 11
3701.39808384698
 21
-1751.557432525291
 31
0.0
  0
LINE
  5
537
330
1F
100
AcDbEntity
  8
0-B_寸法
  6
JWW_CENTER1
 62
   120
370
     5
100
AcDbLine
 10
4172.482308095176
 20
-1663.288559553353
 30
0.0
 11
4348.863399968281
 21
-1765.12223042625
 31
0.0
  0
LINE
  5
538
330
1F
100
AcDbEntity
  8
0-6_扉
  6
Continuous
 62
     7
370
     9
100
AcDbLine
 10
3846.325894084574
 20
-1284.09206823366
 30
0.0
 11
3940.050331181229
 21
-1338.203897221059
 31
0.0
  0
LINE
  5
539
330
1F
100
AcDbEntity
  8
0-6_扉
  6
Continuous
 62
    40
370
    15
100
AcDbLine
 10
4035.509746641409
 20
-1485.173281788039
 30
0.0
 11
4031.383533361418
 21
-1482.791011440102
 31
0.0
  0
LINE
  5
53A
330
1F
100
AcDbEntity
  8
0-6_扉
  6
Continuous
 62
    40
370
    15
100
AcDbLine
 10
3940.050331181229
 20
-603.6282470563361
 30
0.0
 11
3940.050331181229
 21
-1430.05976257542
 31
0.0
  0
LINE
  5
53B
330
1F
100
AcDbEntity
  8
0-6_扉
  6
Continuous
 62
    40
370
    15
100
AcDbLine
 10
4831.004875476277
 20
-603.6282470563361
 30
0.0
 11
4831.004875476277
 21
-1283.090378008431
 31
0.0
  0
LINE
  5
53C
330
1F
100
AcDbEntity
  8
0-6_扉
  6
Continuous
 62
    40
370
    15
100
AcDbLine
 10
4258.248382715176
 20
-603.6282470563361
 30
0.0
 11
4258.248382715176
 21
-1613.771493284159
 31
0.0
  0
LINE
  5
53D
330
1F
100
AcDbEntity
  8
0-6_扉
  6
Continuous
 62
     7
370
     9
100
AcDbLine
 10
3739.697922416565
 20
-1222.530380087991
 30
0.0
 11
3829.79034594923
 21
-1274.54526506652
 31
0.0
  0
LINE
  5
53E
330
1F
100
AcDbEntity
  8
0-6_扉
  6
Continuous
 62
     7
370
     9
100
AcDbLine
 10
3311.705574320749
 20
-975.4288827037717
 30
0.0
 11
3517.466489167178
 21
-1094.225002279061
 31
0.0
  0
MTEXT
  5
53F
330
1F
100
AcDbEntity
  8
0-A_文字
  6
Continuous
 62
     7
370
     9
100
AcDbMText
 10
3145.203099466364
 20
-182.2801979518871
 30
0.0
 40
91.43999999999996
 41
1800.0
 46
0.0
 71
     7
 72
     1
  1
{\fＭＳ ゴシック|b0|i0|c128|p49;振れ止め金具(床付け用)取り付け}
 73
     1
 44
1.0
  0
MTEXT
  5
540
330
1F
100
AcDbEntity
  8
0-A_文字
  6
Continuous
 62
     7
370
     9
100
AcDbMText
 10
3040.520046620432
 20
-385.465080060651
 30
0.0
 40
68.58
 41
1080.0
 46
0.0
 71
     7
 72
     1
  1
{\fＭＳ ゴシック|b0|i0|c128|p49;振れ止め金具(床付け用)を}
 73
     1
 44
1.0
  0
MTEXT
  5
541
330
1F
100
AcDbEntity
  8
0-A_文字
  6
Continuous
 62
     7
370
     9
100
AcDbMText
 10
3040.520046620432
 20
-490.6819117622035
 30
0.0
 40
68.58
 41
1260.0
 46
0.0
 71
     7
 72
     1
  1
{\fＭＳ ゴシック|b0|i0|c128|p49;下記のように床へ取り付けます}
 73
     1
 44
1.0
  0
MTEXT
  5
542
330
1F
100
AcDbEntity
  8
0-A_文字
  6
Continuous
 62
     7
370
     9
100
AcDbMText
 10
3569.17375625114
 20
-882.9655349099125
 30
0.0
 40
68.58
 41
180.0
 46
0.0
 71
     7
 72
     1
  1
{\fＭＳ ゴシック|b0|i0|c128|p49;小壁}
 73
     1
 44
1.0
  0
MTEXT
  5
543
330
1F
100
AcDbEntity
  8
0-A_文字
  6
Continuous
 62
     7
370
     9
100
AcDbMText
 10
4409.626629095727
 20
-1071.651059036369
 30
0.0
 40
68.57999999999998
 41
270.0
 46
0.0
 71
     7
 72
     1
  1
{\fＭＳ ゴシック|b0|i0|c128|p49;中方立}
 73
     1
 44
1.0
  0
MTEXT
  5
544
330
1F
100
AcDbEntity
  8
0-A_文字
  6
Continuous
 62
     7
370
     9
100
AcDbMText
 10
3114.902159433743
 20
-2429.844841928902
 30
0.0
 40
68.57999999999998
 41
270.0
 46
0.0
 71
     7
 72
     1
  1
{\fＭＳ ゴシック|b0|i0|c128|p49;平面図}
 73
     1
 44
1.0
  0
MTEXT
  5
545
330
1F
100
AcDbEntity
  8
0-B_寸法
  6
Continuous
 62
     7
370
     9
100
AcDbMText
 10
3308.855911773956
 20
-1219.715119461872
 30
0.0
 40
68.58
 41
450.0
 46
0.0
 71
     7
 72
     1
  1
{\fＭＳ ゴシック|b0|i0|c128|p49;ビス(同梱)}
 73
     1
 44
1.0
  0
MTEXT
  5
546
330
1F
100
AcDbEntity
  8
0-B_寸法
  6
Continuous
 62
     7
370
   211
100
AcDbMText
 10
4497.099575601571
 20
-1913.231405304248
 30
0.0
 40
91.44
 41
60.0
 46
0.0
 71
     7
 72
     1
  1
{\fＭＳ ゴシック|b0|i0|c128|p49;5}
 73
     1
 44
1.0
  0
MTEXT
  5
547
330
1F
100
AcDbEntity
  8
0-B_寸法
  6
Continuous
 62
     7
370
   211
100
AcDbMText
 10
3400.63520134978
 20
-2070.509396712664
 30
0.0
 40
91.43999999999994
 41
719.9999999999995
 46
0.0
 71
     7
 72
     1
  1
{\fＭＳ ゴシック|b0|i0|c128|p49;15(中方立芯)}
 73
     1
 44
1.0
  0
MTEXT
  5
548
330
1F
100
AcDbEntity
  8
0-B_寸法
  6
Continuous
 62
     7
370
     9
100
AcDbMText
 10
4365.039448136289
 20
-2163.8156484648
 30
0.0
 40
68.58000000000001
 41
765.0
 46
0.0
 71
     7
 72
     1
  1
{\fＭＳ ゴシック|b0|i0|c128|p49;※図は左引き(L)の}
 73
     1
 44
1.0
  0
MTEXT
  5
549
330
1F
100
AcDbEntity
  8
0-B_寸法
  6
Continuous
 62
     7
370
     9
100
AcDbMText
 10
4365.039448136289
 20
-2275.301918820007
 30
0.0
 40
68.58
 41
540.0
 46
0.0
 71
     7
 72
     1
  1
{\fＭＳ ゴシック|b0|i0|c128|p49;　場合です。}
 73
     1
 44
1.0
  0
LINE
  5
54A
330
1F
100
AcDbEntity
  8
0-A_文字
  6
Continuous
 62
   120
370
     5
100
AcDbLine
 10
3994.737008365126
 20
-2748.043923200744
 30
0.0
 11
4762.663216961225
 21
-2748.043923200744
 31
0.0
  0
LINE
  5
54B
330
1F
100
AcDbEntity
  8
0-6_扉
  6
Continuous
 62
    40
370
    15
100
AcDbLine
 10
4258.248382715178
 20
-1613.771493284157
 30
0.0
 11
3940.050331181229
 21
-1430.05976257542
 31
0.0
  0
LINE
  5
54C
330
1F
100
AcDbEntity
  8
0-B_寸法
  6
JWW_CENTER1
 62
   120
370
     5
100
AcDbLine
 10
4099.14936893297
 20
-1521.915634849197
 30
0.0
 11
3714.239986226049
 21
-1744.14317056865
 31
0.0
  0
LINE
  5
54D
330
1F
100
AcDbEntity
  8
1-B_寸法
  6
Continuous
 62
   120
370
     5
100
AcDbLine
 10
4014.950379953706
 20
-3477.771559770683
 30
0.0
 11
3730.680954035336
 21
-3477.771559770683
 31
0.0
  0
LINE
  5
54E
330
1F
100
AcDbEntity
  8
1-B_寸法
  6
Continuous
 62
   120
370
     5
100
AcDbLine
 10
4014.950379953706
 20
-3477.771559770683
 30
0.0
 11
4014.950379953706
 21
-3357.675423701169
 31
0.0
  0
LWPOLYLINE
  5
54F
330
1F
100
AcDbEntity
  8
1-B_寸法
  6
Continuous
 62
     7
370
     9
100
AcDbPolyline
 90
        4
 70
     1
 43
3.0
 10
4016.450379953706
 20
-3477.771559770683
 42
0.4142135623731
 10
4014.950379953706
 20
-3476.271559770683
 42
0.4142135623731
 10
4013.450379953705
 20
-3477.771559770683
 42
0.4142135623731
 10
4014.950379953706
 20
-3479.271559770683
 42
0.4142135623731
  0
MTEXT
  5
550
330
1F
100
AcDbEntity
  8
1-B_寸法
  6
Continuous
 62
     7
370
   211
100
AcDbMText
 10
3797.450379953706
 20
-3483.720999593202
 30
0.0
 40
91.44
 41
60.0
 46
0.0
 71
     7
 72
     1
  1
{\fＭＳ ゴシック|b0|i0|c128|p49;5}
 73
     1
 44
1.0
  0
LINE
  5
551
330
1F
100
AcDbEntity
  8
1-4_枠
  6
Continuous
 62
    92
370
    13
100
AcDbLine
 10
4014.950379953706
 20
-2832.675423701169
 30
0.0
 11
4014.950379953706
 21
-3282.675423701169
 31
0.0
  0
LINE
  5
552
330
1F
100
AcDbEntity
  8
1-4_枠
  6
Continuous
 62
    92
370
    13
100
AcDbLine
 10
4824.950379953705
 20
-3261.462220265573
 30
0.0
 11
4824.950379953705
 21
-2832.675423701169
 31
0.0
  0
LINE
  5
553
330
1F
100
AcDbEntity
  8
1-4_枠
  6
Continuous
 62
    92
370
    13
100
AcDbLine
 10
4803.737176518109
 20
-3282.675423701169
 30
0.0
 11
4014.950379953706
 21
-3282.675423701169
 31
0.0
  0
LINE
  5
554
330
1F
100
AcDbEntity
  8
1-4_枠
  6
Continuous
 62
    92
370
    13
100
AcDbLine
 10
4824.950379953705
 20
-3261.462220265573
 30
0.0
 11
4803.737176518109
 21
-3282.675423701169
 31
0.0
  0
MTEXT
  5
555
330
1F
100
AcDbEntity
  8
0-A_文字
  6
Continuous
 62
     7
370
     9
100
AcDbMText
 10
4299.950070653925
 20
-2474.434382330865
 30
0.0
 40
68.58
 41
180.0
 46
0.0
 71
     7
 72
     1
  1
{\fＭＳ ゴシック|b0|i0|c128|p49;小壁}
 73
     1
 44
1.0
  0
MTEXT
  5
556
330
1F
100
AcDbEntity
  8
0-A_文字
  6
Continuous
 62
     7
370
     9
100
AcDbMText
 10
4254.950070653925
 20
-3113.385423701169
 30
0.0
 40
68.57999999999998
 41
270.0
 46
0.0
 71
     7
 72
     1
  1
{\fＭＳ ゴシック|b0|i0|c128|p49;中方立}
 73
     1
 44
1.0
  0
LINE
  5
557
330
1F
100
AcDbEntity
  8
1-4_枠
  6
JWW_CENTER1
 62
   120
370
     5
100
AcDbLine
 10
4234.260711503905
 20
-3057.675423701169
 30
0.0
 11
3614.726064037185
 21
-3057.675423701169
 31
0.0
  0
LINE
  5
558
330
1F
100
AcDbEntity
  8
1-4_枠
  6
JWW_CENTER1
 62
   120
370
     5
100
AcDbLine
 10
4824.950379953705
 20
-3057.675423701169
 30
0.0
 11
4514.613056502714
 21
-3057.675423701169
 31
0.0
  0
LINE
  5
559
330
1F
100
AcDbEntity
  8
1-4_枠
  6
Continuous
 62
     7
370
     9
100
AcDbLine
 10
4127.449761354145
 20
-2777.324748474373
 30
0.0
 11
4127.449761354145
 21
-2832.675423701169
 31
0.0
  0
LINE
  5
55A
330
1F
100
AcDbEntity
  8
1-4_枠
  6
Continuous
 62
     7
370
     9
100
AcDbLine
 10
4127.449761354145
 20
-2328.977273196849
 30
0.0
 11
4127.449761354145
 21
-2632.557162096049
 31
0.0
  0
LINE
  5
55B
330
1F
100
AcDbEntity
  8
1-4_枠
  6
Continuous
 62
     7
370
     9
100
AcDbLine
 10
4652.450379953705
 20
-2632.557162096049
 30
0.0
 11
4652.450379953705
 21
-2328.977273196849
 31
0.0
  0
LINE
  5
55C
330
1F
100
AcDbEntity
  8
1-4_枠
  6
Continuous
 62
     7
370
     9
100
AcDbLine
 10
4127.449761354145
 20
-2832.675423701169
 30
0.0
 11
4652.450379953705
 21
-2832.675423701169
 31
0.0
  0
LINE
  5
55D
330
1F
100
AcDbEntity
  8
1-4_枠
  6
Continuous
 62
     7
370
     9
100
AcDbLine
 10
4652.450379953705
 20
-2777.324748474373
 30
0.0
 11
4652.450379953705
 21
-2832.675423701169
 31
0.0
  0
LINE
  5
55E
330
1F
100
AcDbEntity
  8
1-4_枠
  6
Continuous
 62
    92
370
    13
100
AcDbLine
 10
4014.950379953706
 20
-2832.675423701169
 30
0.0
 11
4824.950379953705
 21
-2832.675423701169
 31
0.0
  0
LINE
  5
55F
330
1F
100
AcDbEntity
  8
0-A_文字
  6
Continuous
 62
    92
370
    13
100
AcDbLine
 10
2927.066660198476
 20
-3642.80035030572
 30
0.0
 11
5163.339538734251
 21
-3642.80035030572
 31
0.0
  0
LINE
  5
560
330
1F
100
AcDbEntity
  8
0-A_文字
  6
Continuous
 62
    92
370
    13
100
AcDbLine
 10
2927.066660198476
 20
-3642.80035030572
 30
0.0
 11
2927.066660198476
 21
-18.00019795188703
 31
0.0
  0
LINE
  5
561
330
1F
100
AcDbEntity
  8
0-A_文字
  6
Continuous
 62
    92
370
    13
100
AcDbLine
 10
5163.339538734251
 20
-3642.80035030572
 30
0.0
 11
5163.339538734251
 21
-18.00019795188703
 31
0.0
  0
LINE
  5
562
330
1F
100
AcDbEntity
  8
F-0_補助線
  6
JWW_HOJO
 62
     7
370
     9
100
AcDbLine
 10
1109.918584083287
 20
-3795.000003092998
 30
0.0
 11
1109.918584083287
 21
-4195.000008247994
 31
0.0
  0
LINE
  5
563
330
1F
100
AcDbEntity
  8
F-0_補助線
  6
JWW_HOJO
 62
     7
370
     9
100
AcDbLine
 10
4889.917891251784
 20
-3795.000003092998
 30
0.0
 11
4889.917891251784
 21
-4195.000008247994
 31
0.0
  0
MTEXT
  5
564
330
1F
100
AcDbEntity
  8
F-0_補助線
  6
Continuous
 62
     7
370
     0
100
AcDbMText
 10
1109.918584083287
 20
-3945.948259655243
 30
0.0
 40
78.105
 41
615.0
 46
0.0
 71
     7
 72
     1
  1
{\fＭＳ ゴシック|b0|i0|c128|p49;建具納まり図}
 73
     1
 44
1.0
  0
MTEXT
  5
565
330
1F
100
AcDbEntity
  8
F-0_補助線
  6
Continuous
 62
     7
370
     0
100
AcDbMText
 10
509.9185840832865
 20
-3945.709576962234
 30
0.0
 40
78.58125
 41
412.5
 46
0.0
 71
     7
 72
     1
  1
{\fＭＳ ゴシック|b0|i0|c128|p49;DOORETUS}
 73
     1
 44
1.0
  0
MTEXT
  5
566
330
1F
100
AcDbEntity
  8
0-B_寸法
  6
Continuous
 62
     7
370
   211
100
AcDbMText
 10
-2743.21789642457
 20
-2161.721975261132
 30
0.0
 40
102.2684210526316
 41
1275.0
 46
0.0
 71
     7
 72
     1
  1
{\fＭＳ ゴシック|b0|i0|c128|p49;ＤＨ＝1,983 (2,183)}
 11
6.123031769111886E-17
 21
1.0
 31
0.0
 73
     1
 44
1.0
  0
MTEXT
  5
567
330
1F
100
AcDbEntity
  8
0-B_寸法
  6
Continuous
 62
     7
370
   211
100
AcDbMText
 10
-2533.21789642457
 20
-2161.721975261132
 30
0.0
 40
102.2684210526315
 41
1275.0
 46
0.0
 71
     7
 72
     1
  1
{\fＭＳ ゴシック|b0|i0|c128|p49;枠内＝2,005 (2,205)}
 11
6.123031769111886E-17
 21
1.0
 31
0.0
 73
     1
 44
1.0
  0
MTEXT
  5
568
330
1F
100
AcDbEntity
  8
0-B_寸法
  6
Continuous
 62
     7
370
   211
100
AcDbMText
 10
-2323.21789642457
 20
-2161.721975261132
 30
0.0
 40
102.2684210526315
 41
1275.0
 46
0.0
 71
     7
 72
     1
  1
{\fＭＳ ゴシック|b0|i0|c128|p49;枠外＝2,035 (2,235)}
 11
6.123031769111886E-17
 21
1.0
 31
0.0
 73
     1
 44
1.0
  0
MTEXT
  5
569
330
1F
100
AcDbEntity
  8
0-A_文字
  6
Continuous
 62
     7
370
     0
100
AcDbMText
 10
-3137.129822598253
 20
-3271.335857692796
 30
0.0
 40
78.97090909090916
 41
1140.000000000001
 46
0.0
 71
     7
 72
     1
  1
{\fＭＳ ゴシック|b0|i0|c128|p49;※(　)内寸法はハイドア}
 73
     1
 44
1.0
  0
MTEXT
  5
56A
330
1F
100
AcDbEntity
  8
F-A_文字
  6
Continuous
 62
     7
370
     0
100
AcDbMText
 10
-5080.081323642279
 20
-4045.248936078391
 30
0.0
 40
79.50199999999998
 41
2347.5
 46
0.0
 71
     7
 72
     1
  1
{\fＭＳ ゴシック|b0|i0|c128|p49;ドレタス　片引き戸　上吊りタイプ　固定枠113巾}
 73
     1
 44
1.0
  0
LWPOLYLINE
  5
56B
330
1F
100
AcDbEntity
  8
0-B_寸法
  6
Continuous
 62
     7
370
     9
100
AcDbPolyline
 90
        4
 70
     1
 43
3.0
 10
-1090.051615934502
 20
2438.999683277028
 42
0.4142135623731
 10
-1091.551615934502
 20
2440.499683277027
 42
0.4142135623731
 10
-1093.051615934502
 20
2438.999683277028
 42
0.4142135623731
 10
-1091.551615934502
 20
2437.499683277028
 42
0.4142135623731
  0
LWPOLYLINE
  5
56C
330
1F
100
AcDbEntity
  8
0-B_寸法
  6
Continuous
 62
     7
370
     9
100
AcDbPolyline
 90
        4
 70
     1
 43
3.0
 10
-1090.051615934502
 20
2552.999683277028
 42
0.4142135623731
 10
-1091.551615934502
 20
2554.499683277028
 42
0.4142135623731
 10
-1093.051615934502
 20
2552.999683277028
 42
0.4142135623731
 10
-1091.551615934502
 20
2551.499683277028
 42
0.4142135623731
  0
LWPOLYLINE
  5
56D
330
1F
100
AcDbEntity
  8
0-B_寸法
  6
Continuous
 62
     7
370
     9
100
AcDbPolyline
 90
        4
 70
     1
 43
3.0
 10
-3722.71789642457
 20
-1419.00032480045
 42
0.4142135623731
 10
-3724.21789642457
 20
-1417.500324800451
 42
0.4142135623731
 10
-3725.71789642457
 20
-1419.00032480045
 42
0.4142135623731
 10
-3724.21789642457
 20
-1420.50032480045
 42
0.4142135623731
  0
LWPOLYLINE
  5
56E
330
1F
100
AcDbEntity
  8
0-B_寸法
  6
Continuous
 62
     7
370
     9
100
AcDbPolyline
 90
        4
 70
     1
 43
3.0
 10
-3836.71789642457
 20
-1419.00032480045
 42
0.4142135623731
 10
-3838.21789642457
 20
-1417.500324800451
 42
0.4142135623731
 10
-3839.71789642457
 20
-1419.00032480045
 42
0.4142135623731
 10
-3838.21789642457
 20
-1420.50032480045
 42
0.4142135623731
  0
MTEXT
  5
56F
330
1F
100
AcDbEntity
  8
F-A_文字
  6
Continuous
 62
     7
370
     0
100
AcDbMText
 10
4889.917891251784
 20
-3945.570773120548
 30
0.0
 40
78.86699999999999
 41
517.5
 46
0.0
 71
     7
 72
     1
  1
{\fＭＳ ゴシック|b0|i0|c128|p49;2022.04.01}
 73
     1
 44
1.0
  0
LINE
  5
570
330
1F
100
AcDbEntity
  8
0-1_通り芯
  6
JWW_CENTER1
 62
   120
370
     5
100
AcDbLine
 10
-3838.21789642457
 20
-2967.251145356102
 30
0.0
 11
-3838.21789642457
 21
194.9998020481414
 31
0.0
  0
LINE
  5
571
330
1F
100
AcDbEntity
  8
0-1_通り芯
  6
JWW_CENTER1
 62
   120
370
     5
100
AcDbLine
 10
-3724.21789642457
 20
-2781.00040421394
 30
0.0
 11
-3724.21789642457
 21
-237.0001979518818
 31
0.0
  0
LINE
  5
572
330
1F
100
AcDbEntity
  8
0-1_通り芯
  6
JWW_CENTER1
 62
   120
370
     5
100
AcDbLine
 10
-1766.08145672052
 20
2552.999683277028
 30
0.0
 11
1785.91869078191
 21
2552.999683277028
 31
0.0
  0
MTEXT
  5
573
330
1F
100
AcDbEntity
  8
0-B_寸法
  6
Continuous
 62
     7
370
     0
100
AcDbMText
 10
-1406.551615934501
 20
2236.647283534773
 30
0.0
 40
91.44
 41
180.0
 46
0.0
 71
     7
 72
     1
  1
{\fＭＳ ゴシック|b0|i0|c128|p49;113}
 11
6.123031769111886E-17
 21
1.0
 31
0.0
 73
     1
 44
1.0
  0
MTEXT
  5
574
330
1F
100
AcDbEntity
  8
0-B_寸法
  6
Continuous
 62
     7
370
   211
100
AcDbMText
 10
-1106.551615934502
 20
2288.827183277027
 30
0.0
 40
97.15499999999999
 41
127.5
 46
0.0
 71
     7
 72
     1
  1
{\fＭＳ ゴシック|b0|i0|c128|p49;19}
 11
6.123031769111886E-17
 21
1.0
 31
0.0
 73
     1
 44
1.0
  0
LINE
  5
575
330
1F
100
AcDbEntity
  8
0-B_寸法
  6
Continuous
 62
   120
370
     5
100
AcDbLine
 10
-1091.551615934502
 20
2306.999683277027
 30
0.0
 11
-1091.551615934502
 21
2552.999683277028
 31
0.0
  0
MTEXT
  5
576
330
1F
100
AcDbEntity
  8
0-B_寸法
  6
Continuous
 62
     7
370
   211
100
AcDbMText
 10
1467.342693853379
 20
2477.827183277027
 30
0.0
 40
97.15499999999999
 41
127.5
 46
0.0
 71
     7
 72
     1
  1
{\fＭＳ ゴシック|b0|i0|c128|p49;79}
 11
6.123031769111886E-17
 21
1.0
 31
0.0
 73
     1
 44
1.0
  0
MTEXT
  5
577
330
1F
100
AcDbEntity
  8
0-B_寸法
  6
Continuous
 62
     7
370
     0
100
AcDbMText
 10
-4027.129474865365
 20
-868.1051942929789
 30
0.0
 40
91.43999999999956
 41
179.9999999999991
 46
0.0
 71
     7
 72
     1
  1
{\fＭＳ ゴシック|b0|i0|c128|p49;105}
 73
     1
 44
1.0
  0
LINE
  5
578
330
1F
100
AcDbEntity
  8
0-6_扉
  6
Continuous
 62
   200
370
    20
100
AcDbLine
 10
-3814.217895871216
 20
-414.000197319474
 30
0.0
 11
-3814.217895871216
 21
-1479.000197951875
 31
0.0
  0
MTEXT
  5
579
330
1F
100
AcDbEntity
  8
0-B_寸法
  6
Continuous
 62
     7
370
   211
100
AcDbMText
 10
-3976.96789642457
 20
-1415.42282480045
 30
0.0
 40
97.15499999999999
 41
127.5
 46
0.0
 71
     7
 72
     1
  1
{\fＭＳ ゴシック|b0|i0|c128|p49;19}
 73
     1
 44
1.0
  0
LINE
  5
57A
330
1F
100
AcDbEntity
  8
0-B_寸法
  6
Continuous
 62
   120
370
     5
100
AcDbLine
 10
-3724.21789642457
 20
-1419.00032480045
 30
0.0
 11
-3970.21789642457
 21
-1419.00032480045
 31
0.0
  0
ENDSEC
  0
SECTION
  2
OBJECTS
  0
DICTIONARY
  5
C
330
0
100
AcDbDictionary
281
     1
  3
ACAD_GROUP
350
D
  3
ACAD_LAYOUT
350
1A
  3
ACAD_MATERIAL
350
3B
  3
ACAD_MLEADERSTYLE
350
57C
  3
ACAD_MLINESTYLE
350
17
  3
ACAD_PLOTSETTINGS
350
19
  3
ACAD_PLOTSTYLENAME
350
E
  3
ACAD_TABLESTYLE
350
57B
  3
ACAD_VISUALSTYLE
350
2A
  0
DICTIONARY
  5
D
102
{ACAD_REACTORS
330
C
102
}
330
C
100
AcDbDictionary
281
     1
  0
DICTIONARY
  5
1A
102
{ACAD_REACTORS
330
C
102
}
330
C
100
AcDbDictionary
281
     1
  3
Layout1
350
1E
  3
Layout2
350
26
  3
Model
350
22
  0
DICTIONARY
  5
3B
102
{ACAD_REACTORS
330
C
102
}
330
C
100
AcDbDictionary
281
     1
  3
ByBlock
350
3D
  3
ByLayer
350
3C
  3
Global
350
3E
  0
DICTIONARY
  5
57C
102
{ACAD_REACTORS
330
C
102
}
330
C
100
AcDbDictionary
281
     1
  0
DICTIONARY
  5
17
102
{ACAD_REACTORS
330
C
102
}
330
C
100
AcDbDictionary
281
     1
  3
Standard
350
18
  0
DICTIONARY
  5
19
102
{ACAD_REACTORS
330
C
102
}
330
C
100
AcDbDictionary
281
     1
  0
ACDBDICTIONARYWDFLT
  5
E
102
{ACAD_REACTORS
330
C
102
}
330
C
100
AcDbDictionary
281
     1
  3
Normal
350
F
100
AcDbDictionaryWithDefault
340
F
  0
DICTIONARY
  5
57B
102
{ACAD_REACTORS
330
C
102
}
330
C
100
AcDbDictionary
281
     1
  0
DICTIONARY
  5
2A
102
{ACAD_REACTORS
330
C
102
}
330
C
100
AcDbDictionary
281
     1
  3
2dWireframe
350
2F
  3
3D Hidden
350
31
  3
3dWireframe
350
30
  3
Basic
350
32
  3
Brighten
350
36
  3
ColorChange
350
3A
  3
Conceptual
350
34
  3
Dim
350
35
  3
Facepattern
350
39
  3
Flat
350
2B
  3
FlatWithEdges
350
2C
  3
Gouraud
350
2D
  3
GouraudWithEdges
350
2E
  3
Linepattern
350
38
  3
Realistic
350
33
  3
Thicken
350
37
  0
LAYOUT
  5
1E
102
{ACAD_REACTORS
330
1A
102
}
330
1A
100
AcDbPlotSettings
  1

  2
none_device
  4

  6

 40
0.0
 41
0.0
 42
0.0
 43
0.0
 44
0.0
 45
0.0
 46
0.0
 47
0.0
 48
0.0
 49
0.0
140
0.0
141
0.0
142
1.0
143
1.0
 70
   688
 72
     0
 73
     0
 74
     5
  7

 75
    16
 76
     0
 77
     5
 78
   300
147
1.0
148
0.0
149
0.0
100
AcDbLayout
  1
Layout1
 70
     1
 71
     1
 10
0.0
 20
0.0
 11
420.0
 21
297.0
 12
0.0
 22
0.0
 32
0.0
 14
1.000000000000000E+20
 24
1.000000000000000E+20
 34
1.000000000000000E+20
 15
-1.000000000000000E+20
 25
-1.000000000000000E+20
 35
-1.000000000000000E+20
146
0.0
 13
0.0
 23
0.0
 33
0.0
 16
1.0
 26
0.0
 36
0.0
 17
0.0
 27
1.0
 37
0.0
 76
     0
330
1B
  0
LAYOUT
  5
26
102
{ACAD_REACTORS
330
1A
102
}
330
1A
100
AcDbPlotSettings
  1

  2
none_device
  4

  6

 40
0.0
 41
0.0
 42
0.0
 43
0.0
 44
0.0
 45
0.0
 46
0.0
 47
0.0
 48
0.0
 49
0.0
140
0.0
141
0.0
142
1.0
143
1.0
 70
   688
 72
     0
 73
     0
 74
     5
  7

 75
    16
 76
     0
 77
     5
 78
   300
147
1.0
148
0.0
149
0.0
100
AcDbLayout
  1
Layout2
 70
     1
 71
     2
 10
0.0
 20
0.0
 11
0.0
 21
0.0
 12
0.0
 22
0.0
 32
0.0
 14
0.0
 24
0.0
 34
0.0
 15
0.0
 25
0.0
 35
0.0
146
0.0
 13
0.0
 23
0.0
 33
0.0
 16
1.0
 26
0.0
 36
0.0
 17
0.0
 27
1.0
 37
0.0
 76
     0
330
23
  0
LAYOUT
  5
22
102
{ACAD_REACTORS
330
1A
102
}
330
1A
100
AcDbPlotSettings
  1

  2
none_device
  4

  6

 40
0.0
 41
0.0
 42
0.0
 43
0.0
 44
0.0
 45
0.0
 46
0.0
 47
0.0
 48
0.0
 49
0.0
140
0.0
141
0.0
142
1.0
143
1.0
 70
  1712
 72
     0
 73
     0
 74
     0
  7

 75
     0
 76
     0
 77
     5
 78
   300
147
1.0
148
0.0
149
0.0
100
AcDbLayout
  1
Model
 70
     1
 71
     0
 10
-8910.0
 20
-6300.0
 11
8910.0
 21
6300.0
 12
0.0
 22
0.0
 32
0.0
 14
-8910.0
 24
-6300.0
 34
0.0
 15
8910.0
 25
6300.0
 35
0.0
146
0.0
 13
0.0
 23
0.0
 33
0.0
 16
1.0
 26
0.0
 36
0.0
 17
0.0
 27
1.0
 37
0.0
 76
     0
330
1F
331
29
  0
MATERIAL
  5
3D
102
{ACAD_REACTORS
330
3B
102
}
330
3B
100
AcDbMaterial
  1
ByBlock
 72
     1
 94
      127
  0
MATERIAL
  5
3C
102
{ACAD_REACTORS
330
3B
102
}
330
3B
100
AcDbMaterial
  1
ByLayer
 72
     1
 94
      127
  0
MATERIAL
  5
3E
102
{ACAD_REACTORS
330
3B
102
}
330
3B
100
AcDbMaterial
  1
Global
 72
     1
 94
      127
  0
MLINESTYLE
  5
18
102
{ACAD_REACTORS
330
17
102
}
330
17
100
AcDbMlineStyle
  2
Standard
 70
     0
  3

 62
   256
 51
90.0
 52
90.0
 71
     2
 49
0.5
 62
   256
  6
BYLAYER
 49
-0.5
 62
   256
  6
BYLAYER
  0
ACDBPLACEHOLDER
  5
F
102
{ACAD_REACTORS
330
E
102
}
330
E
  0
VISUALSTYLE
  5
2F
102
{ACAD_REACTORS
330
2A
102
}
330
2A
100
AcDbVisualStyle
  2
2dWireframe
 70
     4
177
     2
291
     0
 71
     0
176
     1
 72
     2
176
     1
 73
     0
176
     1
 90
        0
176
     1
 40
-0.6
176
     1
 41
-30.0
176
     1
 62
     5
 63
     7
421
 16777215
176
     1
 74
     1
176
     1
 91
        4
176
     1
 64
     7
176
     1
 65
   257
176
     1
 75
     1
176
     1
175
     1
176
     1
 42
1.0
176
     1
 92
        0
176
     1
 66
   257
176
     1
 43
1.0
176
     1
 76
     1
176
     1
 77
     6
176
     1
 78
     2
176
     1
 67
     7
176
     1
 79
     5
176
     1
170
     0
176
     1
171
     0
176
     1
290
     0
176
     1
 93
        1
176
     1
 44
0.0
176
     1
173
     0
176
     1
  0
VISUALSTYLE
  5
31
102
{ACAD_REACTORS
330
2A
102
}
330
2A
100
AcDbVisualStyle
  2
3D Hidden
 70
     6
177
     2
291
     0
 71
     1
176
     1
 72
     2
176
     1
 73
     2
176
     1
 90
        0
176
     1
 40
-0.6
176
     1
 41
-30.0
176
     1
 62
     5
 63
     7
421
 16777215
176
     1
 74
     2
176
     1
 91
        2
176
     1
 64
     7
176
     1
 65
   257
176
     1
 75
     2
176
     1
175
     1
176
     1
 42
40.0
176
     1
 92
        0
176
     1
 66
   257
176
     1
 43
1.0
176
     1
 76
     1
176
     1
 77
     6
176
     1
 78
     2
176
     1
 67
     7
176
     1
 79
     3
176
     1
170
     0
176
     1
171
     0
176
     1
290
     0
176
     1
 93
        1
176
     1
 44
0.0
176
     1
173
     0
176
     1
  0
VISUALSTYLE
  5
30
102
{ACAD_REACTORS
330
2A
102
}
330
2A
100
AcDbVisualStyle
  2
3dWireframe
 70
     5
177
     2
291
     0
 71
     0
176
     1
 72
     2
176
     1
 73
     0
176
     1
 90
        0
176
     1
 40
-0.6
176
     1
 41
-30.0
176
     1
 62
     5
 63
     7
421
 16777215
176
     1
 74
     1
176
     1
 91
        4
176
     1
 64
     7
176
     1
 65
   257
176
     1
 75
     1
176
     1
175
     1
176
     1
 42
1.0
176
     1
 92
        0
176
     1
 66
   257
176
     1
 43
1.0
176
     1
 76
     1
176
     1
 77
     6
176
     1
 78
     2
176
     1
 67
     7
176
     1
 79
     5
176
     1
170
     0
176
     1
171
     0
176
     1
290
     0
176
     1
 93
        1
176
     1
 44
0.0
176
     1
173
     0
176
     1
  0
VISUALSTYLE
  5
32
102
{ACAD_REACTORS
330
2A
102
}
330
2A
100
AcDbVisualStyle
  2
Basic
 70
     7
177
     2
291
     1
 71
     1
176
     1
 72
     0
176
     1
 73
     1
176
     1
 90
        0
176
     1
 40
-0.6
176
     1
 41
-30.0
176
     1
 62
     5
 63
     7
421
 16777215
176
     1
 74
     0
176
     1
 91
        4
176
     1
 64
     7
176
     1
 65
   257
176
     1
 75
     1
176
     1
175
     1
176
     1
 42
1.0
176
     1
 92
        8
176
     1
 66
     7
176
     1
 43
1.0
176
     1
 76
     1
176
     1
 77
     6
176
     1
 78
     2
176
     1
 67
     7
176
     1
 79
     5
176
     1
170
     0
176
     1
171
     0
176
     1
290
     0
176
     1
 93
        1
176
     1
 44
0.0
176
     1
173
     0
176
     1
  0
VISUALSTYLE
  5
36
102
{ACAD_REACTORS
330
2A
102
}
330
2A
100
AcDbVisualStyle
  2
Brighten
 70
    12
177
     2
291
     1
 71
     2
176
     1
 72
     2
176
     1
 73
     0
176
     1
 90
        0
176
     1
 40
-0.6
176
     1
 41
-30.0
176
     1
 62
     5
 63
     7
421
 16777215
176
     1
 74
     1
176
     1
 91
        4
176
     1
 64
     7
176
     1
 65
   257
176
     1
 75
     1
176
     1
175
     1
176
     1
 42
1.0
176
     1
 92
        8
176
     1
 66
     7
176
     1
 43
1.0
176
     1
 76
     1
176
     1
 77
     6
176
     1
 78
     2
176
     1
 67
     7
176
     1
 79
     5
176
     1
170
     0
176
     1
171
     0
176
     1
290
     0
176
     1
 93
        1
176
     1
 44
50.0
176
     1
173
     0
176
     1
  0
VISUALSTYLE
  5
3A
102
{ACAD_REACTORS
330
2A
102
}
330
2A
100
AcDbVisualStyle
  2
ColorChange
 70
    16
177
     2
291
     1
 71
     2
176
     1
 72
     2
176
     1
 73
     3
176
     1
 90
        0
176
     1
 40
-0.6
176
     1
 41
-30.0
176
     1
 62
     5
 63
     8
421
  8421504
176
     1
 74
     1
176
     1
 91
        4
176
     1
 64
     7
176
     1
 65
   257
176
     1
 75
     1
176
     1
175
     1
176
     1
 42
1.0
176
     1
 92
        8
176
     1
 66
     8
424
  8421504
176
     1
 43
1.0
176
     1
 76
     1
176
     1
 77
     6
176
     1
 78
     2
176
     1
 67
     7
176
     1
 79
     5
176
     1
170
     0
176
     1
171
     0
176
     1
290
     0
176
     1
 93
        1
176
     1
 44
0.0
176
     1
173
     0
176
     1
  0
VISUALSTYLE
  5
34
102
{ACAD_REACTORS
330
2A
102
}
330
2A
100
AcDbVisualStyle
  2
Conceptual
 70
     9
177
     2
291
     0
 71
     3
176
     1
 72
     2
176
     1
 73
     0
176
     1
 90
        0
176
     1
 40
-0.6
176
     1
 41
-30.0
176
     1
 62
     5
 63
     7
421
 16777215
176
     1
 74
     2
176
     1
 91
        2
176
     1
 64
     7
176
     1
 65
   257
176
     1
 75
     1
176
     1
175
     1
176
     1
 42
40.0
176
     1
 92
        8
176
     1
 66
     7
176
     1
 43
1.0
176
     1
 76
     1
176
     1
 77
     6
176
     1
 78
     2
176
     1
 67
     7
176
     1
 79
     3
176
     1
170
     0
176
     1
171
     0
176
     1
290
     0
176
     1
 93
        1
176
     1
 44
0.0
176
     1
173
     0
176
     1
  0
VISUALSTYLE
  5
35
102
{ACAD_REACTORS
330
2A
102
}
330
2A
100
AcDbVisualStyle
  2
Dim
 70
    11
177
     2
291
     1
 71
     2
176
     1
 72
     2
176
     1
 73
     0
176
     1
 90
        0
176
     1
 40
-0.6
176
     1
 41
-30.0
176
     1
 62
     5
 63
     7
421
 16777215
176
     1
 74
     1
176
     1
 91
        4
176
     1
 64
     7
176
     1
 65
   257
176
     1
 75
     1
176
     1
175
     1
176
     1
 42
1.0
176
     1
 92
        8
176
     1
 66
     7
176
     1
 43
1.0
176
     1
 76
     1
176
     1
 77
     6
176
     1
 78
     2
176
     1
 67
     7
176
     1
 79
     5
176
     1
170
     0
176
     1
171
     0
176
     1
290
     0
176
     1
 93
        1
176
     1
 44
-50.0
176
     1
173
     0
176
     1
  0
VISUALSTYLE
  5
39
102
{ACAD_REACTORS
330
2A
102
}
330
2A
100
AcDbVisualStyle
  2
Facepattern
 70
    15
177
     2
291
     1
 71
     2
176
     1
 72
     2
176
     1
 73
     0
176
     1
 90
        0
176
     1
 40
-0.6
176
     1
 41
-30.0
176
     1
 62
     5
 63
     7
421
 16777215
176
     1
 74
     1
176
     1
 91
        4
176
     1
 64
     7
176
     1
 65
   257
176
     1
 75
     1
176
     1
175
     1
176
     1
 42
1.0
176
     1
 92
        8
176
     1
 66
     7
176
     1
 43
1.0
176
     1
 76
     1
176
     1
 77
     6
176
     1
 78
     2
176
     1
 67
     7
176
     1
 79
     5
176
     1
170
     0
176
     1
171
     0
176
     1
290
     0
176
     1
 93
        1
176
     1
 44
0.0
176
     1
173
     0
176
     1
  0
VISUALSTYLE
  5
2B
102
{ACAD_REACTORS
330
2A
102
}
330
2A
100
AcDbVisualStyle
  2
Flat
 70
     0
177
     2
291
     1
 71
     2
176
     1
 72
     1
176
     1
 73
     1
176
     1
 90
        2
176
     1
 40
-0.6
176
     1
 41
30.0
176
     1
 62
     5
 63
     7
421
 16777215
176
     1
 74
     0
176
     1
 91
        4
176
     1
 64
     7
176
     1
 65
   257
176
     1
 75
     1
176
     1
175
     1
176
     1
 42
1.0
176
     1
 92
        8
176
     1
 66
     7
176
     1
 43
1.0
176
     1
 76
     1
176
     1
 77
     6
176
     1
 78
     2
176
     1
 67
     7
176
     1
 79
     5
176
     1
170
     0
176
     1
171
     0
176
     1
290
     0
176
     1
 93
       13
176
     1
 44
0.0
176
     1
173
     0
176
     1
  0
VISUALSTYLE
  5
2C
102
{ACAD_REACTORS
330
2A
102
}
330
2A
100
AcDbVisualStyle
  2
FlatWithEdges
 70
     1
177
     2
291
     1
 71
     2
176
     1
 72
     1
176
     1
 73
     1
176
     1
 90
        2
176
     1
 40
-0.6
176
     1
 41
30.0
176
     1
 62
     5
 63
     7
421
 16777215
176
     1
 74
     1
176
     1
 91
        4
176
     1
 64
     7
176
     1
 65
   257
176
     1
 75
     1
176
     1
175
     1
176
     1
 42
1.0
176
     1
 92
        0
176
     1
 66
   257
176
     1
 43
1.0
176
     1
 76
     1
176
     1
 77
     6
176
     1
 78
     2
176
     1
 67
     7
176
     1
 79
     5
176
     1
170
     0
176
     1
171
     0
176
     1
290
     0
176
     1
 93
       13
176
     1
 44
0.0
176
     1
173
     0
176
     1
  0
VISUALSTYLE
  5
2D
102
{ACAD_REACTORS
330
2A
102
}
330
2A
100
AcDbVisualStyle
  2
Gouraud
 70
     2
177
     2
291
     1
 71
     2
176
     1
 72
     2
176
     1
 73
     1
176
     1
 90
        2
176
     1
 40
-0.6
176
     1
 41
30.0
176
     1
 62
     5
 63
     7
421
 16777215
176
     1
 74
     0
176
     1
 91
        4
176
     1
 64
     7
176
     1
 65
   257
176
     1
 75
     1
176
     1
175
     1
176
     1
 42
1.0
176
     1
 92
        0
176
     1
 66
     7
176
     1
 43
1.0
176
     1
 76
     1
176
     1
 77
     6
176
     1
 78
     2
176
     1
 67
     7
176
     1
 79
     5
176
     1
170
     0
176
     1
171
     0
176
     1
290
     0
176
     1
 93
       13
176
     1
 44
0.0
176
     1
173
     0
176
     1
  0
VISUALSTYLE
  5
2E
102
{ACAD_REACTORS
330
2A
102
}
330
2A
100
AcDbVisualStyle
  2
GouraudWithEdges
 70
     3
177
     2
291
     1
 71
     2
176
     1
 72
     2
176
     1
 73
     1
176
     1
 90
        2
176
     1
 40
-0.6
176
     1
 41
30.0
176
     1
 62
     5
 63
     7
421
 16777215
176
     1
 74
     1
176
     1
 91
        4
176
     1
 64
     7
176
     1
 65
   257
176
     1
 75
     1
176
     1
175
     1
176
     1
 42
1.0
176
     1
 92
        0
176
     1
 66
   257
176
     1
 43
1.0
176
     1
 76
     1
176
     1
 77
     6
176
     1
 78
     2
176
     1
 67
     7
176
     1
 79
     5
176
     1
170
     0
176
     1
171
     0
176
     1
290
     0
176
     1
 93
       13
176
     1
 44
0.0
176
     1
173
     0
176
     1
  0
VISUALSTYLE
  5
38
102
{ACAD_REACTORS
330
2A
102
}
330
2A
100
AcDbVisualStyle
  2
Linepattern
 70
    14
177
     2
291
     1
 71
     2
176
     1
 72
     2
176
     1
 73
     0
176
     1
 90
        0
176
     1
 40
-0.6
176
     1
 41
-30.0
176
     1
 62
     5
 63
     7
421
 16777215
176
     1
 74
     1
176
     1
 91
        4
176
     1
 64
     7
176
     1
 65
   257
176
     1
 75
     7
176
     1
175
     7
176
     1
 42
1.0
176
     1
 92
        8
176
     1
 66
     7
176
     1
 43
1.0
176
     1
 76
     1
176
     1
 77
     6
176
     1
 78
     2
176
     1
 67
     7
176
     1
 79
     5
176
     1
170
     0
176
     1
171
     0
176
     1
290
     0
176
     1
 93
        1
176
     1
 44
0.0
176
     1
173
     0
176
     1
  0
VISUALSTYLE
  5
33
102
{ACAD_REACTORS
330
2A
102
}
330
2A
100
AcDbVisualStyle
  2
Realistic
 70
     8
177
     2
291
     0
 71
     2
176
     1
 72
     2
176
     1
 73
     0
176
     1
 90
        0
176
     1
 40
-0.6
176
     1
 41
-30.0
176
     1
 62
     5
 63
     7
421
 16777215
176
     1
 74
     1
176
     1
 91
        0
176
     1
 64
     7
176
     1
 65
   257
176
     1
 75
     1
176
     1
175
     1
176
     1
 42
1.0
176
     1
 92
        8
176
     1
 66
     8
424
  7895160
176
     1
 43
1.0
176
     1
 76
     1
176
     1
 77
     6
176
     1
 78
     2
176
     1
 67
     7
176
     1
 79
     5
176
     1
170
     0
176
     1
171
     0
176
     1
290
     0
176
     1
 93
       13
176
     1
 44
0.0
176
     1
173
     0
176
     1
  0
VISUALSTYLE
  5
37
102
{ACAD_REACTORS
330
2A
102
}
330
2A
100
AcDbVisualStyle
  2
Thicken
 70
    13
177
     2
291
     1
 71
     2
176
     1
 72
     2
176
     1
 73
     0
176
     1
 90
        0
176
     1
 40
-0.6
176
     1
 41
-30.0
176
     1
 62
     5
 63
     7
421
 16777215
176
     1
 74
     1
176
     1
 91
        4
176
     1
 64
     7
176
     1
 65
   257
176
     1
 75
     1
176
     1
175
     1
176
     1
 42
1.0
176
     1
 92
       12
176
     1
 66
     7
176
     1
 43
1.0
176
     1
 76
     1
176
     1
 77
     6
176
     1
 78
     2
176
     1
 67
     7
176
     1
 79
     5
176
     1
170
     0
176
     1
171
     0
176
     1
290
     0
176
     1
 93
        1
176
     1
 44
0.0
176
     1
173
     0
176
     1
  0
ENDSEC
  0
EOF
