  0
SECTION
  2
HEADER
  9
$ACADVER
  1
AC1024
  9
$ACADMAINTVER
 70
     6
  9
$DWGCODEPAGE
  3
ANSI_932
  9
$INSBASE
 10
0.0
 20
0.0
 30
0.0
  9
$EXTMIN
 10
-6300.0
 20
-4455.0
 30
0.0
  9
$EXTMAX
 10
6300.0
 20
4455.0
 30
0.0
  9
$LIMMIN
 10
-6300.0
 20
-4455.0
  9
$LIMMAX
 10
6300.0
 20
4455.0
  9
$ORTHOMODE
 70
     0
  9
$REGENMODE
 70
     1
  9
$FILLMODE
 70
     1
  9
$QTEXTMODE
 70
     0
  9
$MIRRTEXT
 70
     1
  9
$LTSCALE
 40
30.0
  9
$ATTMODE
 70
     1
  9
$TEXTSIZE
 40
2.5
  9
$TRACEWID
 40
1.0
  9
$TEXTSTYLE
  7
Standard
  9
$CLAYER
  8
0
  9
$CELTYPE
  6
ByLayer
  9
$CECOLOR
 62
   256
  9
$CELTSCALE
 40
1.0
  9
$DISPSILH
 70
     0
  9
$DIMSCALE
 40
1.0
  9
$DIMASZ
 40
2.5
  9
$DIMEXO
 40
0.625
  9
$DIMDLI
 40
3.75
  9
$DIMRND
 40
0.0
  9
$DIMDLE
 40
0.0
  9
$DIMEXE
 40
1.25
  9
$DIMTP
 40
0.0
  9
$DIMTM
 40
0.0
  9
$DIMTXT
 40
2.5
  9
$DIMCEN
 40
2.5
  9
$DIMTSZ
 40
0.0
  9
$DIMTOL
 70
     0
  9
$DIMLIM
 70
     0
  9
$DIMTIH
 70
     0
  9
$DIMTOH
 70
     0
  9
$DIMSE1
 70
     0
  9
$DIMSE2
 70
     0
  9
$DIMTAD
 70
     1
  9
$DIMZIN
 70
     8
  9
$DIMBLK
  1

  9
$DIMASO
 70
     1
  9
$DIMSHO
 70
     1
  9
$DIMPOST
  1

  9
$DIMAPOST
  1

  9
$DIMALT
 70
     0
  9
$DIMALTD
 70
     3
  9
$DIMALTF
 40
0.03937007874016
  9
$DIMLFAC
 40
1.0
  9
$DIMTOFL
 70
     1
  9
$DIMTVP
 40
0.0
  9
$DIMTIX
 70
     0
  9
$DIMSOXD
 70
     0
  9
$DIMSAH
 70
     0
  9
$DIMBLK1
  1

  9
$DIMBLK2
  1

  9
$DIMSTYLE
  2
ISO-25
  9
$DIMCLRD
 70
     0
  9
$DIMCLRE
 70
     0
  9
$DIMCLRT
 70
     0
  9
$DIMTFAC
 40
1.0
  9
$DIMGAP
 40
0.625
  9
$DIMJUST
 70
     0
  9
$DIMSD1
 70
     0
  9
$DIMSD2
 70
     0
  9
$DIMTOLJ
 70
     0
  9
$DIMTZIN
 70
     8
  9
$DIMALTZ
 70
     0
  9
$DIMALTTZ
 70
     0
  9
$DIMUPT
 70
     0
  9
$DIMDEC
 70
     2
  9
$DIMTDEC
 70
     2
  9
$DIMALTU
 70
     2
  9
$DIMALTTD
 70
     3
  9
$DIMTXSTY
  7
Standard
  9
$DIMAUNIT
 70
     0
  9
$DIMADEC
 70
     0
  9
$DIMALTRND
 40
0.0
  9
$DIMAZIN
 70
     0
  9
$DIMDSEP
 70
    44
  9
$DIMATFIT
 70
     3
  9
$DIMFRAC
 70
     0
  9
$DIMLDRBLK
  1

  9
$DIMLUNIT
 70
     2
  9
$DIMLWD
 70
    -2
  9
$DIMLWE
 70
    -2
  9
$DIMTMOVE
 70
     0
  9
$DIMFXL
 40
1.0
  9
$DIMFXLON
 70
     0
  9
$DIMJOGANG
 40
0.7853981633974483
  9
$DIMTFILL
 70
     0
  9
$DIMTFILLCLR
 70
     0
  9
$DIMARCSYM
 70
     0
  9
$DIMLTYPE
  6

  9
$DIMLTEX1
  6

  9
$DIMLTEX2
  6

  9
$DIMTXTDIRECTION
 70
     0
  9
$LUNITS
 70
     2
  9
$LUPREC
 70
     4
  9
$SKETCHINC
 40
1.0
  9
$FILLETRAD
 40
10.0
  9
$AUNITS
 70
     0
  9
$AUPREC
 70
     0
  9
$MENU
  1
.
  9
$ELEVATION
 40
0.0
  9
$PELEVATION
 40
0.0
  9
$THICKNESS
 40
0.0
  9
$LIMCHECK
 70
     0
  9
$CHAMFERA
 40
10.0
  9
$CHAMFERB
 40
10.0
  9
$CHAMFERC
 40
20.0
  9
$CHAMFERD
 40
0.0
  9
$SKPOLY
 70
     0
  9
$TDCREATE
 40
2459411.585637674
  9
$TDUCREATE
 40
2459411.210637674
  9
$TDUPDATE
 40
2459411.585637685
  9
$TDUUPDATE
 40
2459411.210637685
  9
$TDINDWG
 40
0.0000000116
  9
$TDUSRTIMER
 40
0.0000000116
  9
$USRTIMER
 70
     1
  9
$ANGBASE
 50
0.0
  9
$ANGDIR
 70
     0
  9
$PDMODE
 70
     0
  9
$PDSIZE
 40
0.0
  9
$PLINEWID
 40
0.0
  9
$SPLFRAME
 70
     0
  9
$SPLINETYPE
 70
     6
  9
$SPLINESEGS
 70
     8
  9
$HANDSEED
  5
2F6
  9
$SURFTAB1
 70
     6
  9
$SURFTAB2
 70
     6
  9
$SURFTYPE
 70
     6
  9
$SURFU
 70
     6
  9
$SURFV
 70
     6
  9
$UCSBASE
  2

  9
$UCSNAME
  2

  9
$UCSORG
 10
0.0
 20
0.0
 30
0.0
  9
$UCSXDIR
 10
1.0
 20
0.0
 30
0.0
  9
$UCSYDIR
 10
0.0
 20
1.0
 30
0.0
  9
$UCSORTHOREF
  2

  9
$UCSORTHOVIEW
 70
     0
  9
$UCSORGTOP
 10
0.0
 20
0.0
 30
0.0
  9
$UCSORGBOTTOM
 10
0.0
 20
0.0
 30
0.0
  9
$UCSORGLEFT
 10
0.0
 20
0.0
 30
0.0
  9
$UCSORGRIGHT
 10
0.0
 20
0.0
 30
0.0
  9
$UCSORGFRONT
 10
0.0
 20
0.0
 30
0.0
  9
$UCSORGBACK
 10
0.0
 20
0.0
 30
0.0
  9
$PUCSBASE
  2

  9
$PUCSNAME
  2

  9
$PUCSORG
 10
0.0
 20
0.0
 30
0.0
  9
$PUCSXDIR
 10
1.0
 20
0.0
 30
0.0
  9
$PUCSYDIR
 10
0.0
 20
1.0
 30
0.0
  9
$PUCSORTHOREF
  2

  9
$PUCSORTHOVIEW
 70
     0
  9
$PUCSORGTOP
 10
0.0
 20
0.0
 30
0.0
  9
$PUCSORGBOTTOM
 10
0.0
 20
0.0
 30
0.0
  9
$PUCSORGLEFT
 10
0.0
 20
0.0
 30
0.0
  9
$PUCSORGRIGHT
 10
0.0
 20
0.0
 30
0.0
  9
$PUCSORGFRONT
 10
0.0
 20
0.0
 30
0.0
  9
$PUCSORGBACK
 10
0.0
 20
0.0
 30
0.0
  9
$USERI1
 70
     0
  9
$USERI2
 70
     0
  9
$USERI3
 70
     0
  9
$USERI4
 70
     0
  9
$USERI5
 70
     0
  9
$USERR1
 40
0.0
  9
$USERR2
 40
0.0
  9
$USERR3
 40
0.0
  9
$USERR4
 40
0.0
  9
$USERR5
 40
0.0
  9
$WORLDVIEW
 70
     1
  9
$SHADEDGE
 70
     3
  9
$SHADEDIF
 70
    70
  9
$TILEMODE
 70
     1
  9
$MAXACTVP
 70
    64
  9
$PINSBASE
 10
0.0
 20
0.0
 30
0.0
  9
$PLIMCHECK
 70
     0
  9
$PEXTMIN
 10
1.000000000000000E+20
 20
1.000000000000000E+20
 30
1.000000000000000E+20
  9
$PEXTMAX
 10
-1.000000000000000E+20
 20
-1.000000000000000E+20
 30
-1.000000000000000E+20
  9
$PLIMMIN
 10
0.0
 20
0.0
  9
$PLIMMAX
 10
420.0
 20
297.0
  9
$UNITMODE
 70
     0
  9
$VISRETAIN
 70
     1
  9
$PLINEGEN
 70
     0
  9
$PSLTSCALE
 70
     1
  9
$TREEDEPTH
 70
  3020
  9
$CMLSTYLE
  2
Standard
  9
$CMLJUST
 70
     0
  9
$CMLSCALE
 40
20.0
  9
$PROXYGRAPHICS
 70
     1
  9
$MEASUREMENT
 70
     1
  9
$CELWEIGHT
370
    -1
  9
$ENDCAPS
280
     0
  9
$JOINSTYLE
280
     0
  9
$LWDISPLAY
290
     0
  9
$INSUNITS
 70
     4
  9
$HYPERLINKBASE
  1

  9
$STYLESHEET
  1

  9
$XEDIT
290
     1
  9
$CEPSNTYPE
380
     0
  9
$PSTYLEMODE
290
     1
  9
$FINGERPRINTGUID
  2
{EC3B744A-8701-4E98-B7DE-05E627A6636B}
  9
$VERSIONGUID
  2
{FAEB1C32-E019-11D5-929B-00C0DF256EC4}
  9
$EXTNAMES
290
     1
  9
$PSVPSCALE
 40
0.0
  9
$OLESTARTUP
290
     0
  9
$SORTENTS
280
   127
  9
$INDEXCTL
280
     0
  9
$HIDETEXT
280
     1
  9
$XCLIPFRAME
280
     2
  9
$HALOGAP
280
     0
  9
$OBSCOLOR
 70
   257
  9
$OBSLTYPE
280
     0
  9
$INTERSECTIONDISPLAY
280
     0
  9
$INTERSECTIONCOLOR
 70
   257
  9
$DIMASSOC
280
     2
  9
$PROJECTNAME
  1

  9
$CAMERADISPLAY
290
     0
  9
$LENSLENGTH
 40
50.0
  9
$CAMERAHEIGHT
 40
0.0
  9
$STEPSPERSEC
 40
2.0
  9
$STEPSIZE
 40
6.0
  9
$3DDWFPREC
 40
2.0
  9
$PSOLWIDTH
 40
5.0
  9
$PSOLHEIGHT
 40
80.0
  9
$LOFTANG1
 40
1.570796326794897
  9
$LOFTANG2
 40
1.570796326794897
  9
$LOFTMAG1
 40
0.0
  9
$LOFTMAG2
 40
0.0
  9
$LOFTPARAM
 70
     7
  9
$LOFTNORMALS
280
     1
  9
$LATITUDE
 40
37.795
  9
$LONGITUDE
 40
-122.394
  9
$NORTHDIRECTION
 40
0.0
  9
$TIMEZONE
 70
 -8000
  9
$LIGHTGLYPHDISPLAY
280
     1
  9
$TILEMODELIGHTSYNCH
280
     1
  9
$SOLIDHIST
280
     1
  9
$SHOWHIST
280
     1
  9
$DWFFRAME
280
     2
  9
$DGNFRAME
280
     2
  9
$REALWORLDSCALE
290
     1
  9
$INTERFERECOLOR
 62
   256
  9
$CSHADOW
280
     0
  9
$SHADOWPLANELOCATION
 40
0.0
  0
ENDSEC
  0
SECTION
  2
CLASSES
  0
CLASS
  1
ACDBDICTIONARYWDFLT
  2
AcDbDictionaryWithDefault
  3
ObjectDBX Classes
 90
        0
 91
        4
280
     0
281
     0
  0
CLASS
  1
VISUALSTYLE
  2
AcDbVisualStyle
  3
ObjectDBX Classes
 90
     4095
 91
        4
280
     0
281
     0
  0
CLASS
  1
MATERIAL
  2
AcDbMaterial
  3
ObjectDBX Classes
 90
     1153
 91
        4
280
     0
281
     0
  0
ENDSEC
  0
SECTION
  2
TABLES
  0
TABLE
  2
VPORT
  5
8
330
0
100
AcDbSymbolTable
 70
     1
  0
VPORT
  5
29
330
8
100
AcDbSymbolTableRecord
100
AcDbViewportTableRecord
  2
*Active
 70
     0
 10
0.0
 20
0.0
 11
1.0
 21
1.0
 12
0.0
 22
0.0
 13
0.0
 23
0.0
 14
10.0
 24
10.0
 15
10.0
 25
10.0
 16
0.0
 26
0.0
 36
1.0
 17
0.0
 27
0.0
 37
0.0
 40
9801.0
 41
1.414141414141414
 42
50.0
 43
0.0
 44
0.0
 50
0.0
 51
0.0
 71
     0
 72
 10000
 73
     1
 74
     3
 75
     0
 76
     0
 77
     0
 78
     0
281
     0
 65
     1
110
0.0
120
0.0
130
0.0
111
1.0
121
0.0
131
0.0
112
0.0
122
1.0
132
0.0
 79
     0
146
0.0
 60
     3
 61
     5
292
     1
282
     1
141
0.0
142
0.0
 63
   250
  0
ENDTAB
  0
TABLE
  2
LTYPE
  5
5
330
0
100
AcDbSymbolTable
 70
     4
  0
LTYPE
  5
14
330
5
100
AcDbSymbolTableRecord
100
AcDbLinetypeTableRecord
  2
ByBlock
 70
     0
  3

 72
    65
 73
     0
 40
0.0
  0
LTYPE
  5
15
330
5
100
AcDbSymbolTableRecord
100
AcDbLinetypeTableRecord
  2
ByLayer
 70
     0
  3

 72
    65
 73
     0
 40
0.0
  0
LTYPE
  5
16
330
5
100
AcDbSymbolTableRecord
100
AcDbLinetypeTableRecord
  2
Continuous
 70
     0
  3
Solid line
 72
    65
 73
     0
 40
0.0
  0
LTYPE
  5
3F
330
5
100
AcDbSymbolTableRecord
100
AcDbLinetypeTableRecord
  2
JWW_HOJO
 70
     0
  3
  -   -   -   -   -   -   -   - 
 72
    65
 73
     2
 40
1.693333333333333
 49
-1.27
 74
     0
 49
0.4233333333333333
 74
     0
  0
LTYPE
  5
40
330
5
100
AcDbSymbolTableRecord
100
AcDbLinetypeTableRecord
  2
JWW_DASHED1
 70
     0
  3
-  --  --  --  --  --  --  --  -
 72
    65
 73
     2
 40
1.693333333333333
 49
0.8466666666666667
 74
     0
 49
-0.8466666666666667
 74
     0
  0
LTYPE
  5
41
330
5
100
AcDbSymbolTableRecord
100
AcDbLinetypeTableRecord
  2
JWW_CENTER1
 70
     0
  3
-----  --  ----------  --  -----
 72
    65
 73
     4
 40
6.773333333333333
 49
4.233333333333333
 74
     0
 49
-0.8466666666666667
 74
     0
 49
0.8466666666666667
 74
     0
 49
-0.8466666666666667
 74
     0
  0
ENDTAB
  0
TABLE
  2
LAYER
  5
2
330
0
100
AcDbSymbolTable
 70
    11
  0
LAYER
  5
10
330
2
100
AcDbSymbolTableRecord
100
AcDbLayerTableRecord
  2
0
 70
     0
 62
     7
  6
Continuous
370
    -3
390
F
347
3E
  0
LAYER
  5
42
330
2
100
AcDbSymbolTableRecord
100
AcDbLayerTableRecord
  2
F-1_枠
 70
     0
 62
     7
  6
Continuous
370
    -3
390
F
347
3E
  0
LAYER
  5
43
330
2
100
AcDbSymbolTableRecord
100
AcDbLayerTableRecord
  2
F-0_補助線
 70
     0
 62
     7
  6
Continuous
370
    -3
390
F
347
3E
  0
LAYER
  5
44
330
2
100
AcDbSymbolTableRecord
100
AcDbLayerTableRecord
  2
F-A_文字
 70
     0
 62
     7
  6
Continuous
370
    -3
390
F
347
3E
  0
LAYER
  5
45
330
2
100
AcDbSymbolTableRecord
100
AcDbLayerTableRecord
  2
0-0_補助線
 70
     0
 62
     7
  6
Continuous
370
    -3
390
F
347
3E
  0
LAYER
  5
46
330
2
100
AcDbSymbolTableRecord
100
AcDbLayerTableRecord
  2
0-A_文字
 70
     0
 62
     7
  6
Continuous
370
    -3
390
F
347
3E
  0
LAYER
  5
47
330
2
100
AcDbSymbolTableRecord
100
AcDbLayerTableRecord
  2
0-4_枠
 70
     0
 62
     7
  6
Continuous
370
    -3
390
F
347
3E
  0
LAYER
  5
48
330
2
100
AcDbSymbolTableRecord
100
AcDbLayerTableRecord
  2
0-B_寸法
 70
     0
 62
     7
  6
Continuous
370
    -3
390
F
347
3E
  0
LAYER
  5
49
330
2
100
AcDbSymbolTableRecord
100
AcDbLayerTableRecord
  2
0-2_扉
 70
     0
 62
     7
  6
Continuous
370
    -3
390
F
347
3E
  0
LAYER
  5
4A
330
2
100
AcDbSymbolTableRecord
100
AcDbLayerTableRecord
  2
引手
 70
     0
 62
     7
  6
Continuous
370
    -3
390
F
347
3E
  0
LAYER
  5
4B
330
2
100
AcDbSymbolTableRecord
100
AcDbLayerTableRecord
  2
0-C_ハッチ
 70
     0
 62
     7
  6
Continuous
370
    -3
390
F
347
3E
  0
ENDTAB
  0
TABLE
  2
STYLE
  5
3
330
0
100
AcDbSymbolTable
 70
     1
  0
STYLE
  5
11
330
3
100
AcDbSymbolTableRecord
100
AcDbTextStyleTableRecord
  2
Standard
 70
     0
 40
0.0
 41
1.0
 50
0.0
 71
     0
 42
2.5
  3
txt
  4

  0
ENDTAB
  0
TABLE
  2
VIEW
  5
6
330
0
100
AcDbSymbolTable
 70
     0
  0
ENDTAB
  0
TABLE
  2
UCS
  5
7
330
0
100
AcDbSymbolTable
 70
     0
  0
ENDTAB
  0
TABLE
  2
APPID
  5
9
330
0
100
AcDbSymbolTable
 70
     1
  0
APPID
  5
12
330
9
100
AcDbSymbolTableRecord
100
AcDbRegAppTableRecord
  2
ACAD
 70
     0
  0
ENDTAB
  0
TABLE
  2
DIMSTYLE
  5
A
330
0
100
AcDbSymbolTable
 70
     1
100
AcDbDimStyleTable
  0
DIMSTYLE
105
27
330
A
100
AcDbSymbolTableRecord
100
AcDbDimStyleTableRecord
  2
ISO-25
 70
     0
 41
2.5
 42
0.625
 43
3.75
 44
1.25
 73
     0
 74
     0
 77
     1
 78
     8
140
2.5
141
2.5
143
0.03937007874016
147
0.625
171
     3
172
     1
178
     0
271
     2
272
     2
274
     3
278
    44
283
     0
284
     8
340
11
  0
ENDTAB
  0
TABLE
  2
BLOCK_RECORD
  5
1
330
0
100
AcDbSymbolTable
 70
     1
  0
BLOCK_RECORD
  5
1F
330
1
100
AcDbSymbolTableRecord
100
AcDbBlockTableRecord
  2
*Model_Space
340
22
 70
     0
280
     1
281
     0
  0
BLOCK_RECORD
  5
1B
330
1
100
AcDbSymbolTableRecord
100
AcDbBlockTableRecord
  2
*Paper_Space
340
1E
 70
     0
280
     1
281
     0
  0
BLOCK_RECORD
  5
23
330
1
100
AcDbSymbolTableRecord
100
AcDbBlockTableRecord
  2
*Paper_Space0
340
26
 70
     0
280
     1
281
     0
  0
ENDTAB
  0
ENDSEC
  0
SECTION
  2
BLOCKS
  0
BLOCK
  5
20
330
1F
100
AcDbEntity
  8
0
100
AcDbBlockBegin
  2
*Model_Space
 70
     0
 10
0.0
 20
0.0
 30
0.0
  3
*Model_Space
  1

  0
ENDBLK
  5
21
330
1F
100
AcDbEntity
  8
0
100
AcDbBlockEnd
  0
BLOCK
  5
1C
330
1B
100
AcDbEntity
 67
     1
  8
0
100
AcDbBlockBegin
  2
*Paper_Space
 70
     0
 10
0.0
 20
0.0
 30
0.0
  3
*Paper_Space
  1

  0
ENDBLK
  5
1D
330
1B
100
AcDbEntity
 67
     1
  8
0
100
AcDbBlockEnd
  0
BLOCK
  5
24
330
23
100
AcDbEntity
  8
0
100
AcDbBlockBegin
  2
*Paper_Space0
 70
     0
 10
0.0
 20
0.0
 30
0.0
  3
*Paper_Space0
  1

  0
ENDBLK
  5
25
330
23
100
AcDbEntity
  8
0
100
AcDbBlockEnd
  0
ENDSEC
  0
SECTION
  2
ENTITIES
  0
LINE
  5
4C
330
1F
100
AcDbEntity
  8
F-1_枠
  6
Continuous
 62
   200
370
    20
100
AcDbLine
 10
-5999.999752560178
 20
4174.999769056166
 30
0.0
 11
5699.998762800888
 21
4174.999769056166
 31
0.0
  0
LINE
  5
4D
330
1F
100
AcDbEntity
  8
F-0_補助線
  6
JWW_HOJO
 62
   120
370
     5
100
AcDbLine
 10
-6300.0
 20
-4455.0
 30
0.0
 11
-6300.0
 21
4424.999604096284
 31
0.0
  0
LINE
  5
4E
330
1F
100
AcDbEntity
  8
F-0_補助線
  6
JWW_HOJO
 62
   120
370
     5
100
AcDbLine
 10
5999.999010240709
 20
4424.999604096284
 30
0.0
 11
5999.999010240709
 21
-4455.0
 31
0.0
  0
LINE
  5
4F
330
1F
100
AcDbEntity
  8
F-0_補助線
  6
JWW_HOJO
 62
   120
370
     5
100
AcDbLine
 10
5999.999010240709
 20
-4455.0
 30
0.0
 11
-6300.0
 21
-4455.0
 31
0.0
  0
LINE
  5
50
330
1F
100
AcDbEntity
  8
F-1_枠
  6
Continuous
 62
   200
370
    20
100
AcDbLine
 10
-5999.999752560178
 20
4164.999983504013
 30
0.0
 11
5699.998762800888
 21
4164.999983504013
 31
0.0
  0
LINE
  5
51
330
1F
100
AcDbEntity
  8
F-1_枠
  6
Continuous
 62
   200
370
    20
100
AcDbLine
 10
-5999.999752560178
 20
4169.999505120355
 30
0.0
 11
5699.998762800888
 21
4169.999505120355
 31
0.0
  0
LINE
  5
52
330
1F
100
AcDbEntity
  8
F-1_枠
  6
Continuous
 62
   200
370
    20
100
AcDbLine
 10
5689.998977248734
 20
4174.999769056166
 30
0.0
 11
5689.998977248734
 21
-4205.000164959882
 31
0.0
  0
LINE
  5
53
330
1F
100
AcDbEntity
  8
F-1_枠
  6
Continuous
 62
   200
370
    20
100
AcDbLine
 10
5694.998498865077
 20
4174.999769056166
 30
0.0
 11
5694.998498865077
 21
-4205.000164959882
 31
0.0
  0
LINE
  5
54
330
1F
100
AcDbEntity
  8
F-1_枠
  6
Continuous
 62
   200
370
    20
100
AcDbLine
 10
5699.998762800888
 20
4174.999769056166
 30
0.0
 11
5699.998762800888
 21
-4205.000164959882
 31
0.0
  0
LINE
  5
55
330
1F
100
AcDbEntity
  8
F-1_枠
  6
Continuous
 62
   200
370
    20
100
AcDbLine
 10
-5989.999990205507
 20
4174.999769056166
 30
0.0
 11
-5989.999990205507
 21
-4205.000164959882
 31
0.0
  0
LINE
  5
56
330
1F
100
AcDbEntity
  8
F-1_枠
  6
Continuous
 62
   200
370
    20
100
AcDbLine
 10
-5994.999975771518
 20
4174.999769056166
 30
0.0
 11
-5994.999975771518
 21
-4205.000164959882
 31
0.0
  0
LINE
  5
57
330
1F
100
AcDbEntity
  8
F-1_枠
  6
Continuous
 62
   200
370
    20
100
AcDbLine
 10
-5999.99998453501
 20
4174.999769056166
 30
0.0
 11
-5999.99998453501
 21
-4205.000164959882
 31
0.0
  0
LINE
  5
58
330
1F
100
AcDbEntity
  8
F-1_枠
  6
Continuous
 62
   200
370
    20
100
AcDbLine
 10
-5490.000018557986
 20
4174.999769056166
 30
0.0
 11
-5490.000018557986
 21
-3790.000179909372
 31
0.0
  0
LINE
  5
59
330
1F
100
AcDbEntity
  8
F-0_補助線
  6
JWW_HOJO
 62
   120
370
     5
100
AcDbLine
 10
-6300.0
 20
4424.999604096284
 30
0.0
 11
5999.999010240709
 21
4424.999604096284
 31
0.0
  0
LINE
  5
5A
330
1F
100
AcDbEntity
  8
F-0_補助線
  6
JWW_HOJO
 62
     7
370
     9
100
AcDbLine
 10
849.9995876002961
 20
-3795.000003092998
 30
0.0
 11
849.9995876002961
 21
-4195.000008247994
 31
0.0
  0
LINE
  5
5B
330
1F
100
AcDbEntity
  8
F-0_補助線
  6
JWW_HOJO
 62
     7
370
     9
100
AcDbLine
 10
349.9999175200594
 20
-3795.000003092998
 30
0.0
 11
349.9999175200594
 21
-4195.000008247994
 31
0.0
  0
LINE
  5
5C
330
1F
100
AcDbEntity
  8
F-1_枠
  6
Continuous
 62
   200
370
    20
100
AcDbLine
 10
5699.998762800888
 20
-4205.000002577498
 30
0.0
 11
-5999.999752560178
 21
-4205.000002577498
 31
0.0
  0
LINE
  5
5D
330
1F
100
AcDbEntity
  8
F-1_枠
  6
Continuous
 62
   200
370
    20
100
AcDbLine
 10
5699.998762800888
 20
-4199.999993814004
 30
0.0
 11
-5999.999752560178
 21
-4199.999993814004
 31
0.0
  0
LINE
  5
5E
330
1F
100
AcDbEntity
  8
F-1_枠
  6
Continuous
 62
   200
370
    20
100
AcDbLine
 10
5699.998762800888
 20
-4195.000008247994
 30
0.0
 11
-5999.999752560178
 21
-4195.000008247994
 31
0.0
  0
LINE
  5
5F
330
1F
100
AcDbEntity
  8
F-1_枠
  6
Continuous
 62
   200
370
    20
100
AcDbLine
 10
4189.999224688556
 20
-3795.000003092998
 30
0.0
 11
4189.999224688556
 21
-4195.000008247994
 31
0.0
  0
LINE
  5
60
330
1F
100
AcDbEntity
  8
F-1_枠
  6
Continuous
 62
   200
370
    20
100
AcDbLine
 10
2689.998729808911
 20
-3795.000003092998
 30
0.0
 11
2689.998729808911
 21
-4195.000008247994
 31
0.0
  0
LINE
  5
61
330
1F
100
AcDbEntity
  8
F-1_枠
  6
Continuous
 62
   200
370
    20
100
AcDbLine
 10
-150.0001237199109
 20
-3795.000003092998
 30
0.0
 11
-150.0001237199109
 21
-4195.000008247994
 31
0.0
  0
LINE
  5
62
330
1F
100
AcDbEntity
  8
F-1_枠
  6
Continuous
 62
   200
370
    20
100
AcDbLine
 10
-150.0001237199109
 20
-3994.999936078046
 30
0.0
 11
5689.998977248734
 21
-3995.005364289155
 31
0.0
  0
LINE
  5
63
330
1F
100
AcDbEntity
  8
F-0_補助線
  6
JWW_HOJO
 62
     7
370
     9
100
AcDbLine
 10
-5989.999990205507
 20
-3994.99993607839
 30
0.0
 11
-150.0001237199109
 21
-3994.99993607839
 31
0.0
  0
LINE
  5
64
330
1F
100
AcDbEntity
  8
F-0_補助線
  6
JWW_HOJO
 62
     7
370
     9
100
AcDbLine
 10
-5989.999990205507
 20
-3904.99993607839
 30
0.0
 11
-150.0001237199109
 21
-3904.99993607839
 31
0.0
  0
LINE
  5
65
330
1F
100
AcDbEntity
  8
F-0_補助線
  6
JWW_HOJO
 62
     7
370
     9
100
AcDbLine
 10
-5989.999990205507
 20
-4084.99993607839
 30
0.0
 11
-150.0001237199109
 21
-4084.99993607839
 31
0.0
  0
LINE
  5
66
330
1F
100
AcDbEntity
  8
F-0_補助線
  6
JWW_HOJO
 62
     7
370
     9
100
AcDbLine
 10
-150.0002584955388
 20
-4139.999739777983
 30
0.0
 11
5689.998842473105
 21
-4140.005167989091
 31
0.0
  0
LINE
  5
67
330
1F
100
AcDbEntity
  8
F-0_補助線
  6
JWW_HOJO
 62
     7
370
     9
100
AcDbLine
 10
-150.0001748415872
 20
-4049.999739778022
 30
0.0
 11
5689.998926127057
 21
-4050.005167989131
 31
0.0
  0
LINE
  5
68
330
1F
100
AcDbEntity
  8
F-0_補助線
  6
JWW_HOJO
 62
     7
370
     9
100
AcDbLine
 10
-150.0000725978671
 20
-3939.99973721807
 30
0.0
 11
5689.999028370777
 21
-3940.005165429179
 31
0.0
  0
LINE
  5
69
330
1F
100
AcDbEntity
  8
F-0_補助線
  6
JWW_HOJO
 62
     7
370
     9
100
AcDbLine
 10
-149.9999889439155
 20
-3849.999737218109
 30
0.0
 11
5689.999112024728
 21
-3850.005165429218
 31
0.0
  0
LINE
  5
6A
330
1F
100
AcDbEntity
  8
F-0_補助線
  6
JWW_HOJO
 62
     7
370
     9
100
AcDbLine
 10
2779.998729808911
 20
-3795.000003092998
 30
0.0
 11
2779.998729808911
 21
-4195.000008247994
 31
0.0
  0
LINE
  5
6B
330
1F
100
AcDbEntity
  8
F-0_補助線
  6
JWW_HOJO
 62
     7
370
     9
100
AcDbLine
 10
-60.0001237199109
 20
-3795.000003092998
 30
0.0
 11
-60.0001237199109
 21
-4195.000008247994
 31
0.0
  0
LINE
  5
6C
330
1F
100
AcDbEntity
  8
F-0_補助線
  6
JWW_HOJO
 62
     7
370
     9
100
AcDbLine
 10
4279.999224688556
 20
-3795.000003092998
 30
0.0
 11
4279.999224688556
 21
-4195.000008247994
 31
0.0
  0
LINE
  5
6D
330
1F
100
AcDbEntity
  8
F-0_補助線
  6
JWW_HOJO
 62
     7
370
     9
100
AcDbLine
 10
-5247.547376752838
 20
-3795.000003092999
 30
0.0
 11
-5247.547376752838
 21
-4205.000164959882
 31
0.0
  0
LINE
  5
6E
330
1F
100
AcDbEntity
  8
F-0_補助線
  6
JWW_HOJO
 62
     7
370
     9
100
AcDbLine
 10
-210.0001237199109
 20
-3795.000003092998
 30
0.0
 11
-210.0001237199109
 21
-4195.000008247994
 31
0.0
  0
LINE
  5
6F
330
1F
100
AcDbEntity
  8
F-1_枠
  6
Continuous
 62
   200
370
    20
100
AcDbLine
 10
5699.998762800888
 20
-3795.000003092998
 30
0.0
 11
-5999.99998453501
 21
-3795.000003092998
 31
0.0
  0
LINE
  5
70
330
1F
100
AcDbEntity
  8
F-1_枠
  6
Continuous
 62
   200
370
    20
100
AcDbLine
 10
-5999.99998453501
 20
3964.999818544131
 30
0.0
 11
5699.998762800888
 21
3964.999818544131
 31
0.0
  0
LINE
  5
71
330
1F
100
AcDbEntity
  8
F-1_枠
  6
Continuous
 62
   200
370
    20
100
AcDbLine
 10
5699.998762800888
 20
-3790.000017526987
 30
0.0
 11
-5999.99998453501
 21
-3790.000017526987
 31
0.0
  0
LINE
  5
72
330
1F
100
AcDbEntity
  8
F-1_枠
  6
Continuous
 62
   200
370
    20
100
AcDbLine
 10
-5999.99998453501
 20
190.5001831054688
 30
0.0
 11
5699.998762800888
 21
190.5001831054688
 31
0.0
  0
LINE
  5
73
330
1F
100
AcDbEntity
  8
F-1_枠
  6
Continuous
 62
   200
370
    20
100
AcDbLine
 10
-5999.99998453501
 20
-15.50015011349217
 30
0.0
 11
5699.998762800888
 21
-15.50015011349217
 31
0.0
  0
LINE
  5
74
330
1F
100
AcDbEntity
  8
F-1_枠
  6
Continuous
 62
   200
370
    20
100
AcDbLine
 10
-5999.99998453501
 20
184.5000148463899
 30
0.0
 11
5699.998762800888
 21
184.5000148463899
 31
0.0
  0
LINE
  5
75
330
1F
100
AcDbEntity
  8
F-1_枠
  6
Continuous
 62
   200
370
    20
100
AcDbLine
 10
-5999.99998453501
 20
187.5000989759289
 30
0.0
 11
5699.998762800888
 21
187.5000989759289
 31
0.0
  0
MTEXT
  5
76
330
1F
100
AcDbEntity
  8
F-A_文字
  6
Continuous
 62
     7
370
     9
100
AcDbMText
 10
-5890.000004381747
 20
4018.575148463894
 30
0.0
 40
57.15
 41
300.0
 46
0.0
 71
     7
 72
     1
  1
{\fＭＳ ゴシック|b0|i0|c128|p49;デザイン}
 73
     1
 44
1.0
  0
MTEXT
  5
77
330
1F
100
AcDbEntity
  8
F-A_文字
  6
Continuous
 62
     7
370
     9
100
AcDbMText
 10
-5852.500004381747
 20
2031.325062684755
 30
0.0
 40
57.15
 41
225.0
 46
0.0
 71
     7
 72
     1
  1
{\fＭＳ ゴシック|b0|i0|c128|p49;姿　図}
 73
     1
 44
1.0
  0
MTEXT
  5
78
330
1F
100
AcDbEntity
  8
F-A_文字
  6
Continuous
 62
     7
370
     9
100
AcDbMText
 10
-5890.000004381747
 20
38.07493236644844
 30
0.0
 40
57.15
 41
300.0
 46
0.0
 71
     7
 72
     1
  1
{\fＭＳ ゴシック|b0|i0|c128|p49;デザイン}
 73
     1
 44
1.0
  0
MTEXT
  5
79
330
1F
100
AcDbEntity
  8
F-A_文字
  6
Continuous
 62
     7
370
     9
100
AcDbMText
 10
-5852.500004381747
 20
-1949.175091552734
 30
0.0
 40
57.15
 41
225.0
 46
0.0
 71
     7
 72
     1
  1
{\fＭＳ ゴシック|b0|i0|c128|p49;姿　図}
 73
     1
 44
1.0
  0
MTEXT
  5
7A
330
1F
100
AcDbEntity
  8
F-A_文字
  6
Continuous
 62
     7
370
     0
100
AcDbMText
 10
-60.0001237199109
 20
-3887.139820871936
 30
0.0
 40
45.72
 41
180.0
 46
0.0
 71
     7
 72
     1
  1
{\fＭＳ ゴシック|b0|i0|c128|p49;図面名}
 73
     1
 44
1.0
  0
MTEXT
  5
7B
330
1F
100
AcDbEntity
  8
F-A_文字
  6
Continuous
 62
     7
370
     0
100
AcDbMText
 10
2779.998729808911
 20
-3887.142460617774
 30
0.0
 40
45.72
 41
300.0
 46
0.0
 71
     7
 72
     1
  1
{\fＭＳ ゴシック|b0|i0|c128|p49;ＳＣＡＬＥ}
 73
     1
 44
1.0
  0
MTEXT
  5
7C
330
1F
100
AcDbEntity
  8
F-A_文字
  6
Continuous
 62
     7
370
     0
100
AcDbMText
 10
4279.999224688556
 20
-3887.143854850754
 30
0.0
 40
45.72
 41
240.0
 46
0.0
 71
     7
 72
     1
  1
{\fＭＳ ゴシック|b0|i0|c128|p49;ＤＡＴＥ}
 73
     1
 44
1.0
  0
MTEXT
  5
7D
330
1F
100
AcDbEntity
  8
F-A_文字
  6
Continuous
 62
     7
370
     0
100
AcDbMText
 10
1180.417701903719
 20
-3946.423911599839
 30
0.0
 40
77.15249999999999
 41
405.0
 46
0.0
 71
     7
 72
     1
  1
{\fＭＳ ゴシック|b0|i0|c128|p49;建具姿図}
 73
     1
 44
1.0
  0
MTEXT
  5
7E
330
1F
100
AcDbEntity
  8
F-A_文字
  6
Continuous
 62
     7
370
     0
100
AcDbMText
 10
3383.748977248734
 20
-3946.426865907327
 30
0.0
 40
77.15249999999999
 41
202.5
 46
0.0
 71
     7
 72
     1
  1
{\fＭＳ ゴシック|b0|i0|c128|p49;1/30}
 73
     1
 44
1.0
  0
MTEXT
  5
7F
330
1F
100
AcDbEntity
  8
F-A_文字
  6
Continuous
 62
     7
370
     0
100
AcDbMText
 10
349.9999175200594
 20
-3946.496666872502
 30
0.0
 40
78.58125
 41
412.5
 46
0.0
 71
     7
 72
     1
  1
{\fＭＳ ゴシック|b0|i0|c128|p49;DOORETUS}
 73
     1
 44
1.0
  0
MTEXT
  5
80
330
1F
100
AcDbEntity
  8
F-A_文字
  6
Continuous
 62
     7
370
     0
100
AcDbMText
 10
2779.998729808911
 20
-4087.14246317786
 30
0.0
 40
45.72
 41
240.0
 46
0.0
 71
     7
 72
     1
  1
{\fＭＳ ゴシック|b0|i0|c128|p49;ＦＩＬＥ}
 73
     1
 44
1.0
  0
MTEXT
  5
81
330
1F
100
AcDbEntity
  8
F-A_文字
  6
Continuous
 62
     7
370
     0
100
AcDbMText
 10
4279.999224688556
 20
-4087.143857410839
 30
0.0
 40
45.72
 41
180.0
 46
0.0
 71
     7
 72
     1
  1
{\fＭＳ ゴシック|b0|i0|c128|p49;ＮＯ．}
 73
     1
 44
1.0
  0
MTEXT
  5
82
330
1F
100
AcDbEntity
  8
F-A_文字
  6
Continuous
 62
     7
370
     0
100
AcDbMText
 10
1234.998729808911
 20
-4096.140669266149
 30
0.0
 40
45.72
 41
120.0
 46
0.0
 71
     7
 72
     1
  1
{\fＭＳ ゴシック|b0|i0|c128|p49;株式}
 73
     1
 44
1.0
  0
MTEXT
  5
83
330
1F
100
AcDbEntity
  8
F-A_文字
  6
Continuous
 62
     7
370
     9
100
AcDbMText
 10
4936.249033580831
 20
-4147.857012699985
 30
0.0
 40
74.295
 41
97.5
 46
0.0
 71
     7
 72
     1
  1
{\fＭＳ ゴシック|b0|i0|c128|p49;01}
 73
     1
 44
1.0
  0
MTEXT
  5
84
330
1F
100
AcDbEntity
  8
F-A_文字
  6
Continuous
 62
     7
370
     0
100
AcDbMText
 10
1444.998729808911
 20
-4164.281754523929
 30
0.0
 40
101.44125
 41
1065.0
 46
0.0
 71
     7
 72
     1
  1
{\fＭＳ ゴシック|b0|i0|c128|p49;ウッドワン・・・}
 73
     1
 44
1.0
  0
MTEXT
  5
85
330
1F
100
AcDbEntity
  8
F-A_文字
  6
Continuous
 62
     7
370
     0
100
AcDbMText
 10
1234.998729808911
 20
-4168.140669266187
 30
0.0
 40
45.72
 41
120.0
 46
0.0
 71
     7
 72
     1
  1
{\fＭＳ ゴシック|b0|i0|c128|p49;会社}
 73
     1
 44
1.0
  0
MTEXT
  5
86
330
1F
100
AcDbEntity
  8
F-A_文字
  6
Continuous
 62
     7
370
     0
100
AcDbMText
 10
5608.403311109712
 20
-4314.841419020919
 30
0.0
 40
68.58
 41
90.0
 46
0.0
 71
     7
 72
     1
  1
{\fＭＳ ゴシック|b0|i0|c128|p49;）}
 73
     1
 44
1.0
  0
MTEXT
  5
87
330
1F
100
AcDbEntity
  8
F-A_文字
  6
Continuous
 62
     7
370
     0
100
AcDbMText
 10
5190.195950842071
 20
-4316.235443869856
 30
0.0
 40
68.58
 41
45.0
 46
0.0
 71
     7
 72
     1
  1
{\fＭＳ ゴシック|b0|i0|c128|p49;,}
 73
     1
 44
1.0
  0
MTEXT
  5
88
330
1F
100
AcDbEntity
  8
F-A_文字
  6
Continuous
 62
     7
370
     0
100
AcDbMText
 10
4923.937261915373
 20
-4314.771967288282
 30
0.0
 40
74.295
 41
97.5
 46
0.0
 71
     7
 72
     1
  1
{\fＭＳ ゴシック|b0|i0|c128|p49;$y}
 73
     1
 44
1.0
  0
MTEXT
  5
89
330
1F
100
AcDbEntity
  8
F-A_文字
  6
Continuous
 62
     7
370
     0
100
AcDbMText
 10
5078.673982954195
 20
-4314.771967288282
 30
0.0
 40
74.295
 41
97.5
 46
0.0
 71
     7
 72
     1
  1
{\fＭＳ ゴシック|b0|i0|c128|p49;$m}
 73
     1
 44
1.0
  0
MTEXT
  5
8A
330
1F
100
AcDbEntity
  8
F-A_文字
  6
Continuous
 62
     7
370
     0
100
AcDbMText
 10
5233.410715437103
 20
-4314.771967288282
 30
0.0
 40
74.295
 41
97.5
 46
0.0
 71
     7
 72
     1
  1
{\fＭＳ ゴシック|b0|i0|c128|p49;$d}
 73
     1
 44
1.0
  0
MTEXT
  5
8B
330
1F
100
AcDbEntity
  8
F-A_文字
  6
Continuous
 62
     7
370
     0
100
AcDbMText
 10
5388.147447920011
 20
-4314.771967288282
 30
0.0
 40
74.295
 41
195.0
 46
0.0
 71
     7
 72
     1
  1
{\fＭＳ ゴシック|b0|i0|c128|p49;印刷}
 73
     1
 44
1.0
  0
MTEXT
  5
8C
330
1F
100
AcDbEntity
  8
F-A_文字
  6
Continuous
 62
     7
370
     0
100
AcDbMText
 10
4784.033374252999
 20
-4319.023493567732
 30
0.0
 40
68.58
 41
90.0
 46
0.0
 71
     7
 72
     1
  1
{\fＭＳ ゴシック|b0|i0|c128|p49;（}
 73
     1
 44
1.0
  0
MTEXT
  5
8D
330
1F
100
AcDbEntity
  8
F-A_文字
  6
Continuous
 62
     7
370
     0
100
AcDbMText
 10
5031.277143812345
 20
-4319.023493567732
 30
0.0
 40
68.58
 41
45.0
 46
0.0
 71
     7
 72
     1
  1
{\fＭＳ ゴシック|b0|i0|c128|p49;,}
 73
     1
 44
1.0
  0
LINE
  5
8E
330
1F
100
AcDbEntity
  8
0-0_補助線
  6
JWW_HOJO
 62
   120
370
     5
100
AcDbLine
 10
-5370.000018557987
 20
4174.999769056166
 30
0.0
 11
-5370.000018557987
 21
-3790.000179909371
 31
0.0
  0
LINE
  5
8F
330
1F
100
AcDbEntity
  8
0-0_補助線
  6
JWW_HOJO
 62
   120
370
     5
100
AcDbLine
 10
-4756.150503200372
 20
3964.999818544131
 30
0.0
 11
-4756.150503200372
 21
-3790.000179909371
 31
0.0
  0
LINE
  5
90
330
1F
100
AcDbEntity
  8
0-0_補助線
  6
JWW_HOJO
 62
     7
370
     9
100
AcDbLine
 10
-4706.150503200371
 20
3964.999818544131
 30
0.0
 11
-4706.150503200371
 21
-3790.000179909371
 31
0.0
  0
LINE
  5
91
330
1F
100
AcDbEntity
  8
0-0_補助線
  6
JWW_HOJO
 62
     7
370
     9
100
AcDbLine
 10
-5989.999990205507
 20
1418.000148463894
 30
0.0
 11
5689.998977248734
 21
1418.000148463894
 31
0.0
  0
LINE
  5
92
330
1F
100
AcDbEntity
  8
0-0_補助線
  6
JWW_HOJO
 62
   120
370
     5
100
AcDbLine
 10
-5989.999990205507
 20
1368.000148463894
 30
0.0
 11
5689.998977248734
 21
1368.000148463894
 31
0.0
  0
LINE
  5
93
330
1F
100
AcDbEntity
  8
0-0_補助線
  6
JWW_HOJO
 62
     7
370
     9
100
AcDbLine
 10
-5989.999990205507
 20
1168.000148463894
 30
0.0
 11
5689.998977248734
 21
1168.000148463894
 31
0.0
  0
LINE
  5
94
330
1F
100
AcDbEntity
  8
0-0_補助線
  6
JWW_HOJO
 62
   120
370
     5
100
AcDbLine
 10
-5999.99998453501
 20
430.5001831054688
 30
0.0
 11
5689.998977248734
 21
430.5001831054688
 31
0.0
  0
LINE
  5
95
330
1F
100
AcDbEntity
  8
0-0_補助線
  6
JWW_HOJO
 62
   120
370
     5
100
AcDbLine
 10
-5999.99998453501
 20
310.5001831054688
 30
0.0
 11
5689.998977248734
 21
310.5001831054688
 31
0.0
  0
LINE
  5
96
330
1F
100
AcDbEntity
  8
0-0_補助線
  6
JWW_HOJO
 62
     7
370
     9
100
AcDbLine
 10
-5989.999990205507
 20
-2701.250083820241
 30
0.0
 11
5689.998977248734
 21
-2701.250083820241
 31
0.0
  0
LINE
  5
97
330
1F
100
AcDbEntity
  8
0-0_補助線
  6
JWW_HOJO
 62
   120
370
     5
100
AcDbLine
 10
-5989.999990205507
 20
-2751.250083820241
 30
0.0
 11
5689.998977248734
 21
-2751.250083820241
 31
0.0
  0
LINE
  5
98
330
1F
100
AcDbEntity
  8
0-0_補助線
  6
JWW_HOJO
 62
     7
370
     9
100
AcDbLine
 10
-5989.999990205507
 20
-2951.250083820241
 30
0.0
 11
5689.998977248734
 21
-2951.250083820241
 31
0.0
  0
LINE
  5
99
330
1F
100
AcDbEntity
  8
0-0_補助線
  6
JWW_HOJO
 62
   120
370
     5
100
AcDbLine
 10
-5999.99998453501
 20
550.5001831054688
 30
0.0
 11
5689.998977248734
 21
550.5001831054688
 31
0.0
  0
LINE
  5
9A
330
1F
100
AcDbEntity
  8
0-0_補助線
  6
JWW_HOJO
 62
   120
370
     5
100
AcDbLine
 10
5689.998977248734
 20
-3670.000017526988
 30
0.0
 11
-5999.99998453501
 21
-3670.000017526988
 31
0.0
  0
LINE
  5
9B
330
1F
100
AcDbEntity
  8
0-0_補助線
  6
JWW_HOJO
 62
   120
370
     5
100
AcDbLine
 10
5689.998977248734
 20
-3550.000017526988
 30
0.0
 11
-5999.99998453501
 21
-3550.000017526988
 31
0.0
  0
LINE
  5
9C
330
1F
100
AcDbEntity
  8
0-0_補助線
  6
JWW_HOJO
 62
   120
370
     5
100
AcDbLine
 10
5689.998977248734
 20
-3430.000017526988
 30
0.0
 11
-5999.99998453501
 21
-3430.000017526988
 31
0.0
  0
LINE
  5
9D
330
1F
100
AcDbEntity
  8
0-0_補助線
  6
JWW_HOJO
 62
   120
370
     5
100
AcDbLine
 10
219.9994793453743
 20
-3790.000179909371
 30
0.0
 11
219.9994793453743
 21
4174.999769056166
 31
0.0
  0
LINE
  5
9E
330
1F
100
AcDbEntity
  8
0-0_補助線
  6
JWW_HOJO
 62
   120
370
     5
100
AcDbLine
 10
833.8489947029888
 20
3964.999818544131
 30
0.0
 11
833.8489947029888
 21
-3790.000179909371
 31
0.0
  0
LINE
  5
9F
330
1F
100
AcDbEntity
  8
0-0_補助線
  6
JWW_HOJO
 62
     7
370
     9
100
AcDbLine
 10
883.8489947029893
 20
3964.999818544131
 30
0.0
 11
883.8489947029893
 21
-3790.000179909371
 31
0.0
  0
LINE
  5
A0
330
1F
100
AcDbEntity
  8
F-A_文字
  6
Continuous
 62
     7
370
     9
100
AcDbLine
 10
5689.998977248734
 20
187.5000989759289
 30
0.0
 11
99.99947934537431
 21
-3790.000017526987
 31
0.0
  0
LINE
  5
A1
330
1F
100
AcDbEntity
  8
F-1_枠
  6
Continuous
 62
   200
370
    20
100
AcDbLine
 10
99.99947934537431
 20
-3790.000017526987
 30
0.0
 11
99.99947934537431
 21
4174.999769056166
 31
0.0
  0
LINE
  5
A2
330
1F
100
AcDbEntity
  8
F-0_補助線
  6
JWW_HOJO
 62
   200
370
    20
100
AcDbLine
 10
-5999.99998453501
 20
84.49993236644843
 30
0.0
 11
5689.998977248734
 21
84.49993236644843
 31
0.0
  0
LINE
  5
A3
330
1F
100
AcDbEntity
  8
F-A_文字
  6
Continuous
 62
     7
370
     9
100
AcDbLine
 10
5689.998977248734
 20
4168.000067633552
 30
0.0
 11
99.99947934537431
 21
190.499951130636
 31
0.0
  0
LINE
  5
A4
330
1F
100
AcDbEntity
  8
F-A_文字
  6
Continuous
 62
     7
370
     9
100
AcDbLine
 10
99.99947934537346
 20
187.5000989759289
 30
0.0
 11
-5490.000018557987
 21
-3790.000017526987
 31
0.0
  0
MTEXT
  5
A5
330
1F
100
AcDbEntity
  8
F-A_文字
  6
Continuous
 62
     7
370
     0
100
AcDbMText
 10
4778.749126529666
 20
-3938.071010139966
 30
0.0
 40
78.86699999999999
 41
517.5
 46
0.0
 71
     7
 72
     1
  1
{\fＭＳ ゴシック|b0|i0|c128|p49;2021.04.01}
 73
     1
 44
1.0
  0
LINE
  5
A6
330
1F
100
AcDbEntity
  8
F-0_補助線
  6
JWW_HOJO
 62
   200
370
    20
100
AcDbLine
 10
-5999.99998453501
 20
4064.999901024072
 30
0.0
 11
5689.998977248734
 21
4064.999901024072
 31
0.0
  0
LINE
  5
A7
330
1F
100
AcDbEntity
  8
0-0_補助線
  6
JWW_HOJO
 62
   120
370
     5
100
AcDbLine
 10
5689.998977248734
 20
-3310.000017526988
 30
0.0
 11
-5999.99998453501
 21
-3310.000017526988
 31
0.0
  0
LINE
  5
A8
330
1F
100
AcDbEntity
  8
0-0_補助線
  6
JWW_HOJO
 62
   120
370
     5
100
AcDbLine
 10
5689.998977248734
 20
-3190.000017526988
 30
0.0
 11
-5999.99998453501
 21
-3190.000017526988
 31
0.0
  0
LINE
  5
A9
330
1F
100
AcDbEntity
  8
0-0_補助線
  6
JWW_HOJO
 62
   120
370
     5
100
AcDbLine
 10
-5999.99998453501
 20
670.5001831054688
 30
0.0
 11
5689.998977248734
 21
670.5001831054688
 31
0.0
  0
LINE
  5
AA
330
1F
100
AcDbEntity
  8
0-0_補助線
  6
JWW_HOJO
 62
   120
370
     5
100
AcDbLine
 10
-5999.99998453501
 20
790.5001831054688
 30
0.0
 11
5689.998977248734
 21
790.5001831054688
 31
0.0
  0
MTEXT
  5
AB
330
1F
100
AcDbEntity
  8
0-A_文字
  6
Continuous
 62
     7
370
     9
100
AcDbMText
 10
-5370.000018557987
 20
421.5754150803023
 30
0.0
 40
57.15000000000001
 41
1050.0
 46
0.0
 71
     7
 72
     1
  1
{\fＭＳ ゴシック|b0|i0|c128|p49;ハイドアの対応はありません。}
 73
     1
 44
1.0
  0
LINE
  5
AC
330
1F
100
AcDbEntity
  8
0-0_補助線
  6
JWW_HOJO
 62
     7
370
     9
100
AcDbLine
 10
-5989.999990205507
 20
3453.000148463893
 30
0.0
 11
5689.998977248734
 21
3453.000148463893
 31
0.0
  0
LINE
  5
AD
330
1F
100
AcDbEntity
  8
0-0_補助線
  6
JWW_HOJO
 62
     7
370
     9
100
AcDbLine
 10
-5989.999990205507
 20
-466.2500838202413
 30
0.0
 11
5689.998977248734
 21
-466.2500838202413
 31
0.0
  0
LINE
  5
AE
330
1F
100
AcDbEntity
  8
0-4_枠
  6
Continuous
 62
    92
370
    13
100
AcDbLine
 10
-4676.150503200371
 20
1418.000148463894
 30
0.0
 11
-4706.150503200371
 21
1418.000148463894
 31
0.0
  0
LINE
  5
AF
330
1F
100
AcDbEntity
  8
0-4_枠
  6
Continuous
 62
    92
370
    13
100
AcDbLine
 10
-4706.150503200371
 20
1418.000148463894
 30
0.0
 11
-4706.150503200371
 21
3453.000148463893
 31
0.0
  0
LINE
  5
B0
330
1F
100
AcDbEntity
  8
0-4_枠
  6
Continuous
 62
    92
370
    13
100
AcDbLine
 10
-4676.150503200371
 20
1418.000148463894
 30
0.0
 11
-4676.150503200371
 21
3453.000148463893
 31
0.0
  0
MTEXT
  5
B1
330
1F
100
AcDbEntity
  8
0-A_文字
  6
Continuous
 62
     7
370
     9
100
AcDbMText
 10
-2897.500269606305
 20
4013.576151024072
 30
0.0
 40
77.15249999999999
 41
405.0
 46
0.0
 71
     7
 72
     1
  1
{\fＭＳ ゴシック|b0|i0|c128|p49;Ｂ－ＤＪ}
 73
     1
 44
1.0
  0
MTEXT
  5
B2
330
1F
100
AcDbEntity
  8
0-A_文字
  6
Continuous
 62
     7
370
     9
100
AcDbMText
 10
-5370.000018557987
 20
541.5751831054688
 30
0.0
 40
57.15
 41
675.0
 46
0.0
 71
     7
 72
     1
  1
{\fＭＳ ゴシック|b0|i0|c128|p49;カスミ熱処理ガラス}
 73
     1
 44
1.0
  0
LINE
  5
B3
330
1F
100
AcDbEntity
  8
0-B_寸法
  6
Continuous
 62
   120
370
     5
100
AcDbLine
 10
-4956.150503200371
 20
3409.000148463892
 30
0.0
 11
-4756.150503200372
 21
3409.000148463892
 31
0.0
  0
LINE
  5
B4
330
1F
100
AcDbEntity
  8
0-B_寸法
  6
Continuous
 62
   120
370
     5
100
AcDbLine
 10
-4956.150503200371
 20
3409.000148463892
 30
0.0
 11
-4956.150503200371
 21
1426.000148463892
 31
0.0
  0
LWPOLYLINE
  5
B5
330
1F
100
AcDbEntity
  8
0-B_寸法
  6
Continuous
 62
     7
370
     9
100
AcDbPolyline
 90
        4
 70
     1
 43
3.0
 10
-4954.65050320037
 20
3409.000148463892
 42
0.4142135623731
 10
-4956.150503200371
 20
3410.500148463892
 42
0.4142135623731
 10
-4957.650503200371
 20
3409.000148463892
 42
0.4142135623731
 10
-4956.150503200371
 20
3407.500148463892
 42
0.4142135623731
  0
LWPOLYLINE
  5
B6
330
1F
100
AcDbEntity
  8
0-B_寸法
  6
Continuous
 62
     7
370
     9
100
AcDbPolyline
 90
        4
 70
     1
 43
3.0
 10
-4954.65050320037
 20
1426.000148463892
 42
0.4142135623731
 10
-4956.150503200371
 20
1427.500148463892
 42
0.4142135623731
 10
-4957.650503200371
 20
1426.000148463892
 42
0.4142135623731
 10
-4956.150503200371
 20
1424.500148463892
 42
0.4142135623731
  0
LINE
  5
B7
330
1F
100
AcDbEntity
  8
0-B_寸法
  6
Continuous
 62
   120
370
     5
100
AcDbLine
 10
-4956.150503200371
 20
1426.000148463892
 30
0.0
 11
-4756.150503200372
 21
1426.000148463892
 31
0.0
  0
MTEXT
  5
B8
330
1F
100
AcDbEntity
  8
0-B_寸法
  6
Continuous
 62
     7
370
    70
100
AcDbMText
 10
-4971.150503200371
 20
2208.325148463893
 30
0.0
 40
57.14999999999999
 41
412.5
 46
0.0
 71
     7
 72
     1
  1
{\fＭＳ ゴシック|b0|i0|c128|p49;ＤＨ＝1,983}
 11
6.123031769111886E-17
 21
1.0
 31
0.0
 73
     1
 44
1.0
  0
LINE
  5
B9
330
1F
100
AcDbEntity
  8
0-4_枠
  6
JWW_DASHED1
 62
   120
370
     5
100
AcDbLine
 10
-3869.15050320037
 20
1426.000148463891
 30
0.0
 11
-3869.15050320037
 21
3409.000195477458
 31
0.0
  0
LINE
  5
BA
330
1F
100
AcDbEntity
  8
0-2_扉
  6
Continuous
 62
     7
370
     9
100
AcDbLine
 10
-3899.150404224441
 20
3409.000195477458
 30
0.0
 11
-3899.150404224441
 21
1426.000148463891
 31
0.0
  0
LINE
  5
BB
330
1F
100
AcDbEntity
  8
引手
  6
JWW_CENTER1
 62
     7
370
     9
100
AcDbLine
 10
-4666.224669001696
 20
2383.500148463891
 30
0.0
 11
-4593.714972392536
 21
2383.500148463891
 31
0.0
  0
LINE
  5
BC
330
1F
100
AcDbEntity
  8
引手
  6
JWW_CENTER1
 62
     7
370
     9
100
AcDbLine
 10
-4628.150503200372
 20
2298.269479928366
 30
0.0
 11
-4628.150503200372
 21
2469.119751352503
 31
0.0
  0
LINE
  5
BD
330
1F
100
AcDbEntity
  8
引手
  6
JWW_DASHED1
 62
     7
370
     9
100
AcDbLine
 10
-4612.150503200372
 20
2332.500148463891
 30
0.0
 11
-4612.150503200372
 21
2434.500148463891
 31
0.0
  0
LINE
  5
BE
330
1F
100
AcDbEntity
  8
引手
  6
JWW_DASHED1
 62
     7
370
     9
100
AcDbLine
 10
-4644.150503200371
 20
2332.500148463891
 30
0.0
 11
-4612.150503200372
 21
2332.500148463891
 31
0.0
  0
LINE
  5
BF
330
1F
100
AcDbEntity
  8
引手
  6
JWW_DASHED1
 62
     7
370
     9
100
AcDbLine
 10
-4644.150503200371
 20
2332.500148463891
 30
0.0
 11
-4644.150503200371
 21
2434.500148463891
 31
0.0
  0
LINE
  5
C0
330
1F
100
AcDbEntity
  8
引手
  6
JWW_DASHED1
 62
     7
370
     9
100
AcDbLine
 10
-4644.150503200371
 20
2434.500148463891
 30
0.0
 11
-4612.150503200372
 21
2434.500148463891
 31
0.0
  0
LINE
  5
C1
330
1F
100
AcDbEntity
  8
引手
  6
Continuous
 62
     7
370
     9
100
AcDbLine
 10
-4647.150503200373
 20
2328.500148463891
 30
0.0
 11
-4609.150503200372
 21
2328.500148463891
 31
0.0
  0
LINE
  5
C2
330
1F
100
AcDbEntity
  8
引手
  6
Continuous
 62
     7
370
     9
100
AcDbLine
 10
-4640.650503200372
 20
2344.500148463891
 30
0.0
 11
-4615.650503200372
 21
2344.500148463891
 31
0.0
  0
LINE
  5
C3
330
1F
100
AcDbEntity
  8
引手
  6
Continuous
 62
     7
370
     9
100
AcDbLine
 10
-4640.650503200372
 20
2422.500148463891
 30
0.0
 11
-4615.650503200372
 21
2422.500148463891
 31
0.0
  0
LINE
  5
C4
330
1F
100
AcDbEntity
  8
引手
  6
Continuous
 62
     7
370
     9
100
AcDbLine
 10
-4647.150503200373
 20
2438.500148463891
 30
0.0
 11
-4609.150503200372
 21
2438.500148463891
 31
0.0
  0
LINE
  5
C5
330
1F
100
AcDbEntity
  8
引手
  6
Continuous
 62
     7
370
     9
100
AcDbLine
 10
-4647.150503200373
 20
2328.500148463891
 30
0.0
 11
-4647.150503200373
 21
2438.500148463891
 31
0.0
  0
LINE
  5
C6
330
1F
100
AcDbEntity
  8
引手
  6
Continuous
 62
     7
370
     9
100
AcDbLine
 10
-4640.650503200372
 20
2344.500148463891
 30
0.0
 11
-4640.650503200372
 21
2422.500148463891
 31
0.0
  0
LINE
  5
C7
330
1F
100
AcDbEntity
  8
引手
  6
Continuous
 62
     7
370
     9
100
AcDbLine
 10
-4615.650503200372
 20
2344.500148463891
 30
0.0
 11
-4615.650503200372
 21
2422.500148463891
 31
0.0
  0
LINE
  5
C8
330
1F
100
AcDbEntity
  8
引手
  6
Continuous
 62
     7
370
     9
100
AcDbLine
 10
-4609.150503200372
 20
2328.500148463891
 30
0.0
 11
-4609.150503200372
 21
2438.500148463891
 31
0.0
  0
LINE
  5
C9
330
1F
100
AcDbEntity
  8
0-C_ハッチ
  6
Continuous
 62
   120
370
     5
100
AcDbLine
 10
-4537.802732002488
 20
3274.000148463892
 30
0.0
 11
-4569.150453712405
 21
3244.974480213969
 31
0.0
  0
LINE
  5
CA
330
1F
100
AcDbEntity
  8
0-C_ハッチ
  6
Continuous
 62
   120
370
     5
100
AcDbLine
 10
-4563.345477263647
 20
2364.502038375173
 30
0.0
 11
-4569.150453712405
 21
2359.127060181879
 31
0.0
  0
LINE
  5
CB
330
1F
100
AcDbEntity
  8
0-C_ハッチ
  6
Continuous
 62
   120
370
     5
100
AcDbLine
 10
-4501.005993016541
 20
3274.000148463892
 30
0.0
 11
-4517.900453712404
 21
3258.357129301055
 31
0.0
  0
LINE
  5
CC
330
1F
100
AcDbEntity
  8
0-C_ハッチ
  6
Continuous
 62
   120
370
     5
100
AcDbLine
 10
-4530.400453712405
 20
3246.78305522698
 30
0.0
 11
-4542.85599301654
 21
3235.250148463892
 31
0.0
  0
LINE
  5
CD
330
1F
100
AcDbEntity
  8
0-C_ハッチ
  6
Continuous
 62
   120
370
     5
100
AcDbLine
 10
-4556.35599301654
 20
3222.750148463892
 30
0.0
 11
-4569.150453712405
 21
3210.903425597351
 31
0.0
  0
LINE
  5
CE
330
1F
100
AcDbEntity
  8
0-C_ハッチ
  6
Continuous
 62
   120
370
     5
100
AcDbLine
 10
-4464.209254030593
 20
3274.000148463892
 30
0.0
 11
-4506.059254030592
 21
3235.250148463892
 31
0.0
  0
LINE
  5
CF
330
1F
100
AcDbEntity
  8
0-C_ハッチ
  6
Continuous
 62
   120
370
     5
100
AcDbLine
 10
-4530.400453712405
 20
3212.712000610362
 30
0.0
 11
-4569.150453712405
 21
3176.832370980732
 31
0.0
  0
LINE
  5
D0
330
1F
100
AcDbEntity
  8
0-C_ハッチ
  6
Continuous
 62
   120
370
     5
100
AcDbLine
 10
-4427.412515044645
 20
3274.000148463892
 30
0.0
 11
-4469.262515044645
 21
3235.250148463892
 31
0.0
  0
LINE
  5
D1
330
1F
100
AcDbEntity
  8
0-C_ハッチ
  6
Continuous
 62
   120
370
     5
100
AcDbLine
 10
-4390.615776058697
 20
3274.000148463892
 30
0.0
 11
-4432.465776058696
 21
3235.250148463892
 31
0.0
  0
LINE
  5
D2
330
1F
100
AcDbEntity
  8
0-C_ハッチ
  6
Continuous
 62
   120
370
     5
100
AcDbLine
 10
-4353.819037072749
 20
3274.000148463892
 30
0.0
 11
-4395.669037072748
 21
3235.250148463892
 31
0.0
  0
LINE
  5
D3
330
1F
100
AcDbEntity
  8
0-C_ハッチ
  6
Continuous
 62
   120
370
     5
100
AcDbLine
 10
-4317.022298086802
 20
3274.000148463892
 30
0.0
 11
-4358.872298086801
 21
3235.250148463892
 31
0.0
  0
LINE
  5
D4
330
1F
100
AcDbEntity
  8
0-C_ハッチ
  6
Continuous
 62
   120
370
     5
100
AcDbLine
 10
-4280.225559100853
 20
3274.000148463892
 30
0.0
 11
-4322.075559100853
 21
3235.250148463892
 31
0.0
  0
LINE
  5
D5
330
1F
100
AcDbEntity
  8
0-C_ハッチ
  6
Continuous
 62
   120
370
     5
100
AcDbLine
 10
-4243.428820114906
 20
3274.000148463892
 30
0.0
 11
-4285.278820114905
 21
3235.250148463892
 31
0.0
  0
LINE
  5
D6
330
1F
100
AcDbEntity
  8
0-C_ハッチ
  6
Continuous
 62
   120
370
     5
100
AcDbLine
 10
-4206.632081128957
 20
3274.000148463892
 30
0.0
 11
-4248.482081128956
 21
3235.250148463892
 31
0.0
  0
LINE
  5
D7
330
1F
100
AcDbEntity
  8
0-C_ハッチ
  6
Continuous
 62
   120
370
     5
100
AcDbLine
 10
-4169.83534214301
 20
3274.000148463892
 30
0.0
 11
-4211.68534214301
 21
3235.250148463892
 31
0.0
  0
LINE
  5
D8
330
1F
100
AcDbEntity
  8
0-C_ハッチ
  6
Continuous
 62
   120
370
     5
100
AcDbLine
 10
-4133.038603157062
 20
3274.000148463892
 30
0.0
 11
-4174.88860315706
 21
3235.250148463892
 31
0.0
  0
LINE
  5
D9
330
1F
100
AcDbEntity
  8
0-C_ハッチ
  6
Continuous
 62
   120
370
     5
100
AcDbLine
 10
-4482.762515044644
 20
3222.750148463892
 30
0.0
 11
-4517.900453712404
 21
3190.215020067817
 31
0.0
  0
LINE
  5
DA
330
1F
100
AcDbEntity
  8
0-C_ハッチ
  6
Continuous
 62
   120
370
     5
100
AcDbLine
 10
-4530.400453712405
 20
3178.640945993743
 30
0.0
 11
-4569.150453712405
 21
3142.761316364113
 31
0.0
  0
LINE
  5
DB
330
1F
100
AcDbEntity
  8
0-C_ハッチ
  6
Continuous
 62
   120
370
     5
100
AcDbLine
 10
-4409.169037072748
 20
3222.750148463892
 30
0.0
 11
-4517.900453712404
 21
3122.07291083458
 31
0.0
  0
LINE
  5
DC
330
1F
100
AcDbEntity
  8
0-C_ハッチ
  6
Continuous
 62
   120
370
     5
100
AcDbLine
 10
-4530.400453712405
 20
3110.498836760505
 30
0.0
 11
-4569.150453712405
 21
3074.619207130876
 31
0.0
  0
LINE
  5
DD
330
1F
100
AcDbEntity
  8
0-C_ハッチ
  6
Continuous
 62
   120
370
     5
100
AcDbLine
 10
-4530.400453712405
 20
2769.788290594317
 30
0.0
 11
-4569.150453712405
 21
2733.908660964687
 31
0.0
  0
LINE
  5
DE
330
1F
100
AcDbEntity
  8
0-C_ハッチ
  6
Continuous
 62
   120
370
     5
100
AcDbLine
 10
-4530.400453712405
 20
2735.717235977698
 30
0.0
 11
-4569.150453712405
 21
2699.837606348068
 31
0.0
  0
LINE
  5
DF
330
1F
100
AcDbEntity
  8
0-C_ハッチ
  6
Continuous
 62
   120
370
     5
100
AcDbLine
 10
-4530.400453712405
 20
2701.646181361079
 30
0.0
 11
-4569.150453712405
 21
2665.766551731449
 31
0.0
  0
LINE
  5
E0
330
1F
100
AcDbEntity
  8
0-C_ハッチ
  6
Continuous
 62
   120
370
     5
100
AcDbLine
 10
-4530.400453712405
 20
2667.575126744461
 30
0.0
 11
-4569.150453712405
 21
2631.695497114831
 31
0.0
  0
LINE
  5
E1
330
1F
100
AcDbEntity
  8
0-C_ハッチ
  6
Continuous
 62
   120
370
     5
100
AcDbLine
 10
-4530.400453712405
 20
2633.504072127842
 30
0.0
 11
-4569.150453712405
 21
2597.624442498212
 31
0.0
  0
LINE
  5
E2
330
1F
100
AcDbEntity
  8
0-C_ハッチ
  6
Continuous
 62
   120
370
     5
100
AcDbLine
 10
-4530.400453712405
 20
2599.433017511223
 30
0.0
 11
-4569.150453712405
 21
2563.553387881593
 31
0.0
  0
LINE
  5
E3
330
1F
100
AcDbEntity
  8
0-C_ハッチ
  6
Continuous
 62
   120
370
     5
100
AcDbLine
 10
-4530.400453712405
 20
2565.361962894604
 30
0.0
 11
-4569.150453712405
 21
2529.482333264974
 31
0.0
  0
LINE
  5
E4
330
1F
100
AcDbEntity
  8
0-C_ハッチ
  6
Continuous
 62
   120
370
     5
100
AcDbLine
 10
-4530.400453712405
 20
2531.290908277984
 30
0.0
 11
-4569.150453712405
 21
2495.411278648355
 31
0.0
  0
LINE
  5
E5
330
1F
100
AcDbEntity
  8
0-C_ハッチ
  6
Continuous
 62
   120
370
     5
100
AcDbLine
 10
-4530.400453712405
 20
2497.219853661366
 30
0.0
 11
-4569.150453712405
 21
2461.340224031736
 31
0.0
  0
LINE
  5
E6
330
1F
100
AcDbEntity
  8
0-C_ハッチ
  6
Continuous
 62
   120
370
     5
100
AcDbLine
 10
-4530.400453712405
 20
2463.148799044746
 30
0.0
 11
-4569.150453712405
 21
2427.269169415116
 31
0.0
  0
LINE
  5
E7
330
1F
100
AcDbEntity
  8
0-C_ハッチ
  6
Continuous
 62
   120
370
     5
100
AcDbLine
 10
-4530.400453712405
 20
2429.077744428128
 30
0.0
 11
-4569.150453712405
 21
2393.198114798499
 31
0.0
  0
LINE
  5
E8
330
1F
100
AcDbEntity
  8
0-C_ハッチ
  6
Continuous
 62
   120
370
     5
100
AcDbLine
 10
-4530.400453712405
 20
2326.864580578272
 30
0.0
 11
-4569.150453712405
 21
2290.984950948642
 31
0.0
  0
LINE
  5
E9
330
1F
100
AcDbEntity
  8
0-C_ハッチ
  6
Continuous
 62
   120
370
     5
100
AcDbLine
 10
-4530.400453712405
 20
2258.722471345034
 30
0.0
 11
-4562.500544608371
 21
2229.00016495988
 31
0.0
  0
LINE
  5
EA
330
1F
100
AcDbEntity
  8
0-C_ハッチ
  6
Continuous
 62
   120
370
     5
100
AcDbLine
 10
-4530.400453712405
 20
2395.006689811508
 30
0.0
 11
-4548.22880167751
 21
2378.498960214189
 31
0.0
  0
LINE
  5
EB
330
1F
100
AcDbEntity
  8
0-C_ハッチ
  6
Continuous
 62
   120
370
     5
100
AcDbLine
 10
-4445.965776058696
 20
3222.750148463892
 30
0.0
 11
-4517.900453712404
 21
3156.143965451199
 31
0.0
  0
LINE
  5
EC
330
1F
100
AcDbEntity
  8
0-C_ハッチ
  6
Continuous
 62
   120
370
     5
100
AcDbLine
 10
-4530.400453712405
 20
3144.569891377124
 30
0.0
 11
-4569.150453712405
 21
3108.690261747495
 31
0.0
  0
LINE
  5
ED
330
1F
100
AcDbEntity
  8
0-C_ハッチ
  6
Continuous
 62
   120
370
     5
100
AcDbLine
 10
-4372.372298086801
 20
3222.750148463892
 30
0.0
 11
-4517.900453712404
 21
3088.001856217961
 31
0.0
  0
LINE
  5
EE
330
1F
100
AcDbEntity
  8
0-C_ハッチ
  6
Continuous
 62
   120
370
     5
100
AcDbLine
 10
-4530.400453712405
 20
3076.427782143886
 30
0.0
 11
-4569.150453712405
 21
3040.548152514257
 31
0.0
  0
LINE
  5
EF
330
1F
100
AcDbEntity
  8
0-C_ハッチ
  6
Continuous
 62
   120
370
     5
100
AcDbLine
 10
-4335.575559100853
 20
3222.750148463892
 30
0.0
 11
-4517.900453712404
 21
3053.930801601343
 31
0.0
  0
LINE
  5
F0
330
1F
100
AcDbEntity
  8
0-C_ハッチ
  6
Continuous
 62
   120
370
     5
100
AcDbLine
 10
-4530.400453712405
 20
3042.356727527268
 30
0.0
 11
-4569.150453712405
 21
3006.477097897638
 31
0.0
  0
LINE
  5
F1
330
1F
100
AcDbEntity
  8
0-C_ハッチ
  6
Continuous
 62
   120
370
     5
100
AcDbLine
 10
-4298.778820114904
 20
3222.750148463892
 30
0.0
 11
-4517.900453712404
 21
3019.859746984724
 31
0.0
  0
LINE
  5
F2
330
1F
100
AcDbEntity
  8
0-C_ハッチ
  6
Continuous
 62
   120
370
     5
100
AcDbLine
 10
-4530.400453712405
 20
3008.285672910649
 30
0.0
 11
-4569.150453712405
 21
2972.406043281019
 31
0.0
  0
LINE
  5
F3
330
1F
100
AcDbEntity
  8
0-C_ハッチ
  6
Continuous
 62
   120
370
     5
100
AcDbLine
 10
-4261.982081128956
 20
3222.750148463892
 30
0.0
 11
-4517.900453712404
 21
2985.788692368105
 31
0.0
  0
LINE
  5
F4
330
1F
100
AcDbEntity
  8
0-C_ハッチ
  6
Continuous
 62
   120
370
     5
100
AcDbLine
 10
-4530.400453712405
 20
2974.214618294031
 30
0.0
 11
-4569.150453712405
 21
2938.334988664401
 31
0.0
  0
LINE
  5
F5
330
1F
100
AcDbEntity
  8
0-C_ハッチ
  6
Continuous
 62
   120
370
     5
100
AcDbLine
 10
-4225.185342143009
 20
3222.750148463892
 30
0.0
 11
-4517.900453712404
 21
2951.717637751486
 31
0.0
  0
LINE
  5
F6
330
1F
100
AcDbEntity
  8
0-C_ハッチ
  6
Continuous
 62
   120
370
     5
100
AcDbLine
 10
-4530.400453712405
 20
2940.143563677411
 30
0.0
 11
-4569.150453712405
 21
2904.263934047782
 31
0.0
  0
LINE
  5
F7
330
1F
100
AcDbEntity
  8
0-C_ハッチ
  6
Continuous
 62
   120
370
     5
100
AcDbLine
 10
-4188.388603157061
 20
3222.750148463892
 30
0.0
 11
-4517.900453712404
 21
2917.646583134867
 31
0.0
  0
LINE
  5
F8
330
1F
100
AcDbEntity
  8
0-C_ハッチ
  6
Continuous
 62
   120
370
     5
100
AcDbLine
 10
-4530.400453712405
 20
2906.072509060792
 30
0.0
 11
-4569.150453712405
 21
2870.192879431163
 31
0.0
  0
LINE
  5
F9
330
1F
100
AcDbEntity
  8
0-C_ハッチ
  6
Continuous
 62
   120
370
     5
100
AcDbLine
 10
-4151.591864171112
 20
3222.750148463892
 30
0.0
 11
-4517.900453712404
 21
2883.575528518248
 31
0.0
  0
LINE
  5
FA
330
1F
100
AcDbEntity
  8
0-C_ハッチ
  6
Continuous
 62
   120
370
     5
100
AcDbLine
 10
-4530.400453712405
 20
2872.001454444173
 30
0.0
 11
-4569.150453712405
 21
2836.121824814544
 31
0.0
  0
LINE
  5
FB
330
1F
100
AcDbEntity
  8
0-C_ハッチ
  6
Continuous
 62
   120
370
     5
100
AcDbLine
 10
-4530.400453712405
 20
2837.930399827555
 30
0.0
 11
-4569.150453712405
 21
2802.050770197925
 31
0.0
  0
LINE
  5
FC
330
1F
100
AcDbEntity
  8
0-C_ハッチ
  6
Continuous
 62
   120
370
     5
100
AcDbLine
 10
-4530.400453712405
 20
2803.859345210936
 30
0.0
 11
-4569.150453712405
 21
2767.979715581306
 31
0.0
  0
LINE
  5
FD
330
1F
100
AcDbEntity
  8
0-C_ハッチ
  6
Continuous
 62
   120
370
     5
100
AcDbLine
 10
-4530.400453712405
 20
2360.93563519489
 30
0.0
 11
-4569.150453712405
 21
2325.05600556526
 31
0.0
  0
LINE
  5
FE
330
1F
100
AcDbEntity
  8
0-C_ハッチ
  6
Continuous
 62
   120
370
     5
100
AcDbLine
 10
-4530.400453712405
 20
2292.793525961653
 30
0.0
 11
-4543.947550829328
 21
2280.249917520057
 31
0.0
  0
LINE
  5
FF
330
1F
100
AcDbEntity
  8
0-C_ハッチ
  6
Continuous
 62
   120
370
     5
100
AcDbLine
 10
-4557.447550829328
 20
2267.749917520058
 30
0.0
 11
-4569.150453712405
 21
2256.913896332023
 31
0.0
  0
LINE
  5
100
330
1F
100
AcDbEntity
  8
0-C_ハッチ
  6
Continuous
 62
   120
370
     5
100
AcDbLine
 10
-4483.854072857432
 20
2267.749917520058
 30
0.0
 11
-4517.900453712404
 21
2236.225490802491
 31
0.0
  0
LINE
  5
101
330
1F
100
AcDbEntity
  8
0-C_ハッチ
  6
Continuous
 62
   120
370
     5
100
AcDbLine
 10
-4447.057333871482
 20
2267.749917520058
 30
0.0
 11
-4488.907066636474
 21
2229.00016495988
 31
0.0
  0
LINE
  5
102
330
1F
100
AcDbEntity
  8
0-C_ハッチ
  6
Continuous
 62
   120
370
     5
100
AcDbLine
 10
-4410.260594885535
 20
2267.749917520058
 30
0.0
 11
-4452.110327650526
 21
2229.00016495988
 31
0.0
  0
LINE
  5
103
330
1F
100
AcDbEntity
  8
0-C_ハッチ
  6
Continuous
 62
   120
370
     5
100
AcDbLine
 10
-4373.463855899588
 20
2267.749917520058
 30
0.0
 11
-4415.313588664579
 21
2229.00016495988
 31
0.0
  0
LINE
  5
104
330
1F
100
AcDbEntity
  8
0-C_ハッチ
  6
Continuous
 62
   120
370
     5
100
AcDbLine
 10
-4336.66711691364
 20
2267.749917520058
 30
0.0
 11
-4378.516849678631
 21
2229.00016495988
 31
0.0
  0
LINE
  5
105
330
1F
100
AcDbEntity
  8
0-C_ハッチ
  6
Continuous
 62
   120
370
     5
100
AcDbLine
 10
-4299.870377927693
 20
2267.749917520058
 30
0.0
 11
-4341.720110692684
 21
2229.00016495988
 31
0.0
  0
LINE
  5
106
330
1F
100
AcDbEntity
  8
0-C_ハッチ
  6
Continuous
 62
   120
370
     5
100
AcDbLine
 10
-4263.073638941744
 20
2267.749917520058
 30
0.0
 11
-4304.923371706735
 21
2229.00016495988
 31
0.0
  0
LINE
  5
107
330
1F
100
AcDbEntity
  8
0-C_ハッチ
  6
Continuous
 62
   120
370
     5
100
AcDbLine
 10
-4226.276899955797
 20
2267.749917520058
 30
0.0
 11
-4268.126632720788
 21
2229.00016495988
 31
0.0
  0
LINE
  5
108
330
1F
100
AcDbEntity
  8
0-C_ハッチ
  6
Continuous
 62
   120
370
     5
100
AcDbLine
 10
-4189.480160969848
 20
2267.749917520058
 30
0.0
 11
-4231.329893734839
 21
2229.00016495988
 31
0.0
  0
LINE
  5
109
330
1F
100
AcDbEntity
  8
0-C_ハッチ
  6
Continuous
 62
   120
370
     5
100
AcDbLine
 10
-4152.6834219839
 20
2267.749917520058
 30
0.0
 11
-4194.533154748891
 21
2229.00016495988
 31
0.0
  0
LINE
  5
10A
330
1F
100
AcDbEntity
  8
0-C_ハッチ
  6
Continuous
 62
   120
370
     5
100
AcDbLine
 10
-4096.241864171114
 20
3274.000148463892
 30
0.0
 11
-4138.091864171112
 21
3235.250148463892
 31
0.0
  0
LINE
  5
10B
330
1F
100
AcDbEntity
  8
0-C_ハッチ
  6
Continuous
 62
   120
370
     5
100
AcDbLine
 10
-4059.445125185166
 20
3274.000148463892
 30
0.0
 11
-4101.295125185165
 21
3235.250148463891
 31
0.0
  0
LINE
  5
10C
330
1F
100
AcDbEntity
  8
0-C_ハッチ
  6
Continuous
 62
   120
370
     5
100
AcDbLine
 10
-4114.795125185165
 20
3222.750148463891
 30
0.0
 11
-4517.900453712404
 21
2849.504473901629
 31
0.0
  0
LINE
  5
10D
330
1F
100
AcDbEntity
  8
0-C_ハッチ
  6
Continuous
 62
   120
370
     5
100
AcDbLine
 10
-4077.998386199217
 20
3222.750148463891
 30
0.0
 11
-4517.900453712404
 21
2815.433419285011
 31
0.0
  0
LINE
  5
10E
330
1F
100
AcDbEntity
  8
0-C_ハッチ
  6
Continuous
 62
   120
370
     5
100
AcDbLine
 10
-4115.886682997952
 20
2267.749917520058
 30
0.0
 11
-4157.736415762944
 21
2229.00016495988
 31
0.0
  0
LINE
  5
10F
330
1F
100
AcDbEntity
  8
0-C_ハッチ
  6
Continuous
 62
   120
370
     5
100
AcDbLine
 10
-4079.089944012004
 20
2267.749917520058
 30
0.0
 11
-4120.939944012004
 21
2228.999917520057
 31
0.0
  0
LINE
  5
110
330
1F
100
AcDbEntity
  8
0-C_ハッチ
  6
Continuous
 62
   120
370
     5
100
AcDbLine
 10
-4041.201647213268
 20
3222.750148463892
 30
0.0
 11
-4517.900453712404
 21
2781.362364668392
 31
0.0
  0
LINE
  5
111
330
1F
100
AcDbEntity
  8
0-C_ハッチ
  6
Continuous
 62
   120
370
     5
100
AcDbLine
 10
-4042.293205026056
 20
2267.749917520058
 30
0.0
 11
-4084.143205026056
 21
2228.999917520057
 31
0.0
  0
LINE
  5
112
330
1F
100
AcDbEntity
  8
0-C_ハッチ
  6
Continuous
 62
   120
370
     5
100
AcDbLine
 10
-4030.400565060324
 20
3266.822205073978
 30
0.0
 11
-4064.498386199217
 21
3235.250148463891
 31
0.0
  0
LINE
  5
113
330
1F
100
AcDbEntity
  8
0-C_ハッチ
  6
Continuous
 62
   120
370
     5
100
AcDbLine
 10
-3985.851647213269
 20
3274.000148463892
 30
0.0
 11
-4017.900565060325
 21
3244.325224531433
 31
0.0
  0
LINE
  5
114
330
1F
100
AcDbEntity
  8
0-C_ハッチ
  6
Continuous
 62
   120
370
     5
100
AcDbLine
 10
-4004.40490822732
 20
3222.750148463892
 30
0.0
 11
-4017.900565060325
 21
3210.254169914814
 31
0.0
  0
LINE
  5
115
330
1F
100
AcDbEntity
  8
0-C_ハッチ
  6
Continuous
 62
   120
370
     5
100
AcDbLine
 10
-4030.400565060324
 20
3198.680095840739
 30
0.0
 11
-4517.900453712404
 21
2747.291310051773
 31
0.0
  0
LINE
  5
116
330
1F
100
AcDbEntity
  8
0-C_ハッチ
  6
Continuous
 62
   120
370
     5
100
AcDbLine
 10
-4030.400565060324
 20
3130.537986607502
 30
0.0
 11
-4517.900453712404
 21
2679.149200818536
 31
0.0
  0
LINE
  5
117
330
1F
100
AcDbEntity
  8
0-C_ハッチ
  6
Continuous
 62
   120
370
     5
100
AcDbLine
 10
-4030.400565060324
 20
3164.609041224121
 30
0.0
 11
-4517.900453712404
 21
2713.220255435154
 31
0.0
  0
LINE
  5
118
330
1F
100
AcDbEntity
  8
0-C_ハッチ
  6
Continuous
 62
   120
370
     5
100
AcDbLine
 10
-4030.400565060324
 20
3096.466931990883
 30
0.0
 11
-4517.900453712404
 21
2645.078146201917
 31
0.0
  0
LINE
  5
119
330
1F
100
AcDbEntity
  8
0-C_ハッチ
  6
Continuous
 62
   120
370
     5
100
AcDbLine
 10
-4030.400565060324
 20
2312.83267580865
 30
0.0
 11
-4065.589944012004
 21
2280.249917520057
 31
0.0
  0
LINE
  5
11A
330
1F
100
AcDbEntity
  8
0-C_ハッチ
  6
Continuous
 62
   120
370
     5
100
AcDbLine
 10
-4030.400565060324
 20
2380.974785041887
 30
0.0
 11
-4139.1834219839
 21
2280.249917520057
 31
0.0
  0
LINE
  5
11B
330
1F
100
AcDbEntity
  8
0-C_ハッチ
  6
Continuous
 62
   120
370
     5
100
AcDbLine
 10
-4030.400565060324
 20
2823.898495057932
 30
0.0
 11
-4512.004897515874
 21
2377.968557599086
 31
0.0
  0
LINE
  5
11C
330
1F
100
AcDbEntity
  8
0-C_ハッチ
  6
Continuous
 62
   120
370
     5
100
AcDbLine
 10
-4030.400565060324
 20
3062.395877374263
 30
0.0
 11
-4517.900453712404
 21
2611.007091585298
 31
0.0
  0
LINE
  5
11D
330
1F
100
AcDbEntity
  8
0-C_ハッチ
  6
Continuous
 62
   120
370
     5
100
AcDbLine
 10
-4030.400565060324
 20
3028.324822757645
 30
0.0
 11
-4517.900453712404
 21
2576.936036968678
 31
0.0
  0
LINE
  5
11E
330
1F
100
AcDbEntity
  8
0-C_ハッチ
  6
Continuous
 62
   120
370
     5
100
AcDbLine
 10
-4030.400565060324
 20
2994.253768141026
 30
0.0
 11
-4517.900453712404
 21
2542.864982352059
 31
0.0
  0
LINE
  5
11F
330
1F
100
AcDbEntity
  8
0-C_ハッチ
  6
Continuous
 62
   120
370
     5
100
AcDbLine
 10
-4030.400565060324
 20
2960.182713524408
 30
0.0
 11
-4517.900453712404
 21
2508.793927735441
 31
0.0
  0
LINE
  5
120
330
1F
100
AcDbEntity
  8
0-C_ハッチ
  6
Continuous
 62
   120
370
     5
100
AcDbLine
 10
-4030.400565060324
 20
2926.111658907788
 30
0.0
 11
-4517.900453712404
 21
2474.722873118821
 31
0.0
  0
LINE
  5
121
330
1F
100
AcDbEntity
  8
0-C_ハッチ
  6
Continuous
 62
   120
370
     5
100
AcDbLine
 10
-4030.400565060324
 20
2892.04060429117
 30
0.0
 11
-4517.900453712404
 21
2440.651818502203
 31
0.0
  0
LINE
  5
122
330
1F
100
AcDbEntity
  8
0-C_ハッチ
  6
Continuous
 62
   120
370
     5
100
AcDbLine
 10
-4030.400565060324
 20
2789.827440441313
 30
0.0
 11
-4517.900453712404
 21
2338.438654652346
 31
0.0
  0
LINE
  5
123
330
1F
100
AcDbEntity
  8
0-C_ハッチ
  6
Continuous
 62
   120
370
     5
100
AcDbLine
 10
-4030.400565060324
 20
2755.756385824694
 30
0.0
 11
-4517.900453712404
 21
2304.367600035728
 31
0.0
  0
LINE
  5
124
330
1F
100
AcDbEntity
  8
0-C_ハッチ
  6
Continuous
 62
   120
370
     5
100
AcDbLine
 10
-4030.400565060324
 20
2857.969549674551
 30
0.0
 11
-4517.900453712404
 21
2406.580763885583
 31
0.0
  0
LINE
  5
125
330
1F
100
AcDbEntity
  8
0-C_ハッチ
  6
Continuous
 62
   120
370
     5
100
AcDbLine
 10
-4030.400565060324
 20
2721.685331208076
 30
0.0
 11
-4507.150811843379
 21
2280.249917520057
 31
0.0
  0
LINE
  5
126
330
1F
100
AcDbEntity
  8
0-C_ハッチ
  6
Continuous
 62
   120
370
     5
100
AcDbLine
 10
-4030.400565060324
 20
2687.614276591456
 30
0.0
 11
-4470.354072857432
 21
2280.249917520057
 31
0.0
  0
LINE
  5
127
330
1F
100
AcDbEntity
  8
0-C_ハッチ
  6
Continuous
 62
   120
370
     5
100
AcDbLine
 10
-4030.400565060324
 20
2653.543221974838
 30
0.0
 11
-4433.557333871483
 21
2280.249917520057
 31
0.0
  0
LINE
  5
128
330
1F
100
AcDbEntity
  8
0-C_ハッチ
  6
Continuous
 62
   120
370
     5
100
AcDbLine
 10
-4030.400565060324
 20
2619.472167358219
 30
0.0
 11
-4396.760594885535
 21
2280.249917520057
 31
0.0
  0
LINE
  5
129
330
1F
100
AcDbEntity
  8
0-C_ハッチ
  6
Continuous
 62
   120
370
     5
100
AcDbLine
 10
-4030.400565060324
 20
2585.4011127416
 30
0.0
 11
-4359.963855899588
 21
2280.249917520057
 31
0.0
  0
LINE
  5
12A
330
1F
100
AcDbEntity
  8
0-C_ハッチ
  6
Continuous
 62
   120
370
     5
100
AcDbLine
 10
-4030.400565060324
 20
2551.330058124981
 30
0.0
 11
-4323.16711691364
 21
2280.249917520057
 31
0.0
  0
LINE
  5
12B
330
1F
100
AcDbEntity
  8
0-C_ハッチ
  6
Continuous
 62
   120
370
     5
100
AcDbLine
 10
-4030.400565060324
 20
2517.259003508363
 30
0.0
 11
-4286.370377927693
 21
2280.249917520057
 31
0.0
  0
LINE
  5
12C
330
1F
100
AcDbEntity
  8
0-C_ハッチ
  6
Continuous
 62
   120
370
     5
100
AcDbLine
 10
-4030.400565060324
 20
2483.187948891744
 30
0.0
 11
-4249.573638941745
 21
2280.249917520057
 31
0.0
  0
LINE
  5
12D
330
1F
100
AcDbEntity
  8
0-C_ハッチ
  6
Continuous
 62
   120
370
     5
100
AcDbLine
 10
-4030.400565060324
 20
2449.116894275125
 30
0.0
 11
-4212.776899955797
 21
2280.249917520057
 31
0.0
  0
LINE
  5
12E
330
1F
100
AcDbEntity
  8
0-C_ハッチ
  6
Continuous
 62
   120
370
     5
100
AcDbLine
 10
-4030.400565060324
 20
2415.045839658506
 30
0.0
 11
-4175.980160969849
 21
2280.249917520057
 31
0.0
  0
LINE
  5
12F
330
1F
100
AcDbEntity
  8
0-C_ハッチ
  6
Continuous
 62
   120
370
     5
100
AcDbLine
 10
-4030.400565060324
 20
2346.903730425268
 30
0.0
 11
-4102.386682997952
 21
2280.249917520057
 31
0.0
  0
LINE
  5
130
330
1F
100
AcDbEntity
  8
0-C_ハッチ
  6
Continuous
 62
   120
370
     5
100
AcDbLine
 10
-4005.496466040108
 20
2267.749917520058
 30
0.0
 11
-4017.900565060324
 21
2256.264640649487
 31
0.0
  0
LINE
  5
131
330
1F
100
AcDbEntity
  8
0-C_ハッチ
  6
Continuous
 62
   120
370
     5
100
AcDbLine
 10
-4030.400565060324
 20
2244.690566575413
 30
0.0
 11
-4047.346334204171
 21
2229.00003959037
 31
0.0
  0
LINE
  5
132
330
1F
100
AcDbEntity
  8
0-C_ハッチ
  6
Continuous
 62
   120
370
     5
100
AcDbLine
 10
-3979.15050320037
 20
2258.073272940233
 30
0.0
 11
-4010.549595218221
 21
2229.00003959037
 31
0.0
  0
LINE
  5
133
330
1F
100
AcDbEntity
  8
0-C_ハッチ
  6
Continuous
 62
   120
370
     5
100
AcDbLine
 10
-3979.15050320037
 20
2292.144327556853
 30
0.0
 11
-3991.996466040108
 21
2280.249917520058
 31
0.0
  0
LINE
  5
134
330
1F
100
AcDbEntity
  8
0-C_ハッチ
  6
Continuous
 62
   120
370
     5
100
AcDbLine
 10
-3979.15050320037
 20
3212.062802205561
 30
0.0
 11
-4017.900565060325
 21
3176.183115298195
 31
0.0
  0
LINE
  5
135
330
1F
100
AcDbEntity
  8
0-C_ハッチ
  6
Continuous
 62
   120
370
     5
100
AcDbLine
 10
-3979.15050320037
 20
2326.215382173472
 30
0.0
 11
-4017.900565060325
 21
2290.335695266106
 31
0.0
  0
LINE
  5
136
330
1F
100
AcDbEntity
  8
0-C_ハッチ
  6
Continuous
 62
   120
370
     5
100
AcDbLine
 10
-3979.15050320037
 20
3177.991747588943
 30
0.0
 11
-4017.900565060325
 21
3142.112060681576
 31
0.0
  0
LINE
  5
137
330
1F
100
AcDbEntity
  8
0-C_ハッチ
  6
Continuous
 62
   120
370
     5
100
AcDbLine
 10
-3979.15050320037
 20
3143.920692972323
 30
0.0
 11
-4017.900565060325
 21
3108.041006064957
 31
0.0
  0
LINE
  5
138
330
1F
100
AcDbEntity
  8
0-C_ハッチ
  6
Continuous
 62
   120
370
     5
100
AcDbLine
 10
-3979.15050320037
 20
2360.286436790091
 30
0.0
 11
-4017.900565060325
 21
2324.406749882724
 31
0.0
  0
LINE
  5
139
330
1F
100
AcDbEntity
  8
0-C_ハッチ
  6
Continuous
 62
   120
370
     5
100
AcDbLine
 10
-3979.15050320037
 20
2428.428546023328
 30
0.0
 11
-4017.900565060325
 21
2392.548859115961
 31
0.0
  0
LINE
  5
13A
330
1F
100
AcDbEntity
  8
0-C_ハッチ
  6
Continuous
 62
   120
370
     5
100
AcDbLine
 10
-3979.15050320037
 20
2871.352256039373
 30
0.0
 11
-4017.900565060325
 21
2835.472569132006
 31
0.0
  0
LINE
  5
13B
330
1F
100
AcDbEntity
  8
0-C_ハッチ
  6
Continuous
 62
   120
370
     5
100
AcDbLine
 10
-3979.15050320037
 20
3109.849638355704
 30
0.0
 11
-4017.900565060325
 21
3073.969951448338
 31
0.0
  0
LINE
  5
13C
330
1F
100
AcDbEntity
  8
0-C_ハッチ
  6
Continuous
 62
   120
370
     5
100
AcDbLine
 10
-3979.15050320037
 20
3075.778583739086
 30
0.0
 11
-4017.900565060325
 21
3039.898896831719
 31
0.0
  0
LINE
  5
13D
330
1F
100
AcDbEntity
  8
0-C_ハッチ
  6
Continuous
 62
   120
370
     5
100
AcDbLine
 10
-3979.15050320037
 20
3041.707529122466
 30
0.0
 11
-4017.900565060325
 21
3005.8278422151
 31
0.0
  0
LINE
  5
13E
330
1F
100
AcDbEntity
  8
0-C_ハッチ
  6
Continuous
 62
   120
370
     5
100
AcDbLine
 10
-3979.15050320037
 20
3007.636474505848
 30
0.0
 11
-4017.900565060325
 21
2971.756787598482
 31
0.0
  0
LINE
  5
13F
330
1F
100
AcDbEntity
  8
0-C_ハッチ
  6
Continuous
 62
   120
370
     5
100
AcDbLine
 10
-3979.15050320037
 20
2973.565419889229
 30
0.0
 11
-4017.900565060325
 21
2937.685732981863
 31
0.0
  0
LINE
  5
140
330
1F
100
AcDbEntity
  8
0-C_ハッチ
  6
Continuous
 62
   120
370
     5
100
AcDbLine
 10
-3979.15050320037
 20
2939.49436527261
 30
0.0
 11
-4017.900565060325
 21
2903.614678365244
 31
0.0
  0
LINE
  5
141
330
1F
100
AcDbEntity
  8
0-C_ハッチ
  6
Continuous
 62
   120
370
     5
100
AcDbLine
 10
-3979.15050320037
 20
2837.281201422753
 30
0.0
 11
-4017.900565060325
 21
2801.401514515387
 31
0.0
  0
LINE
  5
142
330
1F
100
AcDbEntity
  8
0-C_ハッチ
  6
Continuous
 62
   120
370
     5
100
AcDbLine
 10
-3979.15050320037
 20
2803.210146806135
 30
0.0
 11
-4017.900565060325
 21
2767.330459898768
 31
0.0
  0
LINE
  5
143
330
1F
100
AcDbEntity
  8
0-C_ハッチ
  6
Continuous
 62
   120
370
     5
100
AcDbLine
 10
-3979.15050320037
 20
2905.423310655991
 30
0.0
 11
-4017.900565060325
 21
2869.543623748625
 31
0.0
  0
LINE
  5
144
330
1F
100
AcDbEntity
  8
0-C_ハッチ
  6
Continuous
 62
   120
370
     5
100
AcDbLine
 10
-3979.15050320037
 20
2769.139092189516
 30
0.0
 11
-4017.900565060325
 21
2733.25940528215
 31
0.0
  0
LINE
  5
145
330
1F
100
AcDbEntity
  8
0-C_ハッチ
  6
Continuous
 62
   120
370
     5
100
AcDbLine
 10
-3979.15050320037
 20
2735.068037572897
 30
0.0
 11
-4017.900565060325
 21
2699.188350665531
 31
0.0
  0
LINE
  5
146
330
1F
100
AcDbEntity
  8
0-C_ハッチ
  6
Continuous
 62
   120
370
     5
100
AcDbLine
 10
-3979.15050320037
 20
2700.996982956279
 30
0.0
 11
-4017.900565060325
 21
2665.117296048913
 31
0.0
  0
LINE
  5
147
330
1F
100
AcDbEntity
  8
0-C_ハッチ
  6
Continuous
 62
   120
370
     5
100
AcDbLine
 10
-3979.15050320037
 20
2666.92592833966
 30
0.0
 11
-4017.900565060325
 21
2631.046241432293
 31
0.0
  0
LINE
  5
148
330
1F
100
AcDbEntity
  8
0-C_ハッチ
  6
Continuous
 62
   120
370
     5
100
AcDbLine
 10
-3979.15050320037
 20
2632.85487372304
 30
0.0
 11
-4017.900565060325
 21
2596.975186815674
 31
0.0
  0
LINE
  5
149
330
1F
100
AcDbEntity
  8
0-C_ハッチ
  6
Continuous
 62
   120
370
     5
100
AcDbLine
 10
-3979.15050320037
 20
2598.783819106422
 30
0.0
 11
-4017.900565060325
 21
2562.904132199056
 31
0.0
  0
LINE
  5
14A
330
1F
100
AcDbEntity
  8
0-C_ハッチ
  6
Continuous
 62
   120
370
     5
100
AcDbLine
 10
-3979.15050320037
 20
2564.712764489803
 30
0.0
 11
-4017.900565060325
 21
2528.833077582437
 31
0.0
  0
LINE
  5
14B
330
1F
100
AcDbEntity
  8
0-C_ハッチ
  6
Continuous
 62
   120
370
     5
100
AcDbLine
 10
-3979.15050320037
 20
2530.641709873184
 30
0.0
 11
-4017.900565060325
 21
2494.762022965818
 31
0.0
  0
LINE
  5
14C
330
1F
100
AcDbEntity
  8
0-C_ハッチ
  6
Continuous
 62
   120
370
     5
100
AcDbLine
 10
-3979.15050320037
 20
2496.570655256566
 30
0.0
 11
-4017.900565060325
 21
2460.690968349199
 31
0.0
  0
LINE
  5
14D
330
1F
100
AcDbEntity
  8
0-C_ハッチ
  6
Continuous
 62
   120
370
     5
100
AcDbLine
 10
-3979.15050320037
 20
2462.499600639947
 30
0.0
 11
-4017.900565060325
 21
2426.61991373258
 31
0.0
  0
LINE
  5
14E
330
1F
100
AcDbEntity
  8
0-C_ハッチ
  6
Continuous
 62
   120
370
     5
100
AcDbLine
 10
-3979.15050320037
 20
2394.357491406709
 30
0.0
 11
-4017.900565060325
 21
2358.477804499343
 31
0.0
  0
LINE
  5
14F
330
1F
100
AcDbEntity
  8
0-C_ハッチ
  6
Continuous
 62
   120
370
     5
100
AcDbLine
 10
-3979.15050320037
 20
3246.13385682218
 30
0.0
 11
-3990.90490822732
 21
3235.250148463892
 31
0.0
  0
LINE
  5
150
330
1F
100
AcDbEntity
  8
0-2_扉
  6
Continuous
 62
     7
370
     9
100
AcDbLine
 10
-3979.15050320037
 20
3409.000257337414
 30
0.0
 11
-3979.15050320037
 21
1426.000148463891
 31
0.0
  0
LINE
  5
151
330
1F
100
AcDbEntity
  8
0-2_扉
  6
Continuous
 62
     7
370
     9
100
AcDbLine
 10
-4569.150453712405
 20
3409.000257337414
 30
0.0
 11
-4569.150453712405
 21
1426.000148463891
 31
0.0
  0
LINE
  5
152
330
1F
100
AcDbEntity
  8
0-2_扉
  6
Continuous
 62
     7
370
     9
100
AcDbLine
 10
-4517.900453712404
 20
2267.749964533624
 30
0.0
 11
-4517.900453712404
 21
2228.999964533624
 31
0.0
  0
LINE
  5
153
330
1F
100
AcDbEntity
  8
0-2_扉
  6
Continuous
 62
     7
370
     9
100
AcDbLine
 10
-4530.400453712405
 20
2267.749964533624
 30
0.0
 11
-4530.400453712405
 21
2228.999964533624
 31
0.0
  0
LINE
  5
154
330
1F
100
AcDbEntity
  8
0-2_扉
  6
JWW_CENTER1
 62
     7
370
     9
100
AcDbLine
 10
-4524.150453712405
 20
2207.929890305649
 30
0.0
 11
-4524.150453712405
 21
3294.566545272904
 31
0.0
  0
LINE
  5
155
330
1F
100
AcDbEntity
  8
0-2_扉
  6
Continuous
 62
     7
370
     9
100
AcDbLine
 10
-4517.900453712404
 20
3274.000195477458
 30
0.0
 11
-4517.900453712404
 21
3235.250195477458
 31
0.0
  0
LINE
  5
156
330
1F
100
AcDbEntity
  8
0-2_扉
  6
Continuous
 62
     7
370
     9
100
AcDbLine
 10
-4530.400453712405
 20
3274.000195477458
 30
0.0
 11
-4530.400453712405
 21
3235.250195477458
 31
0.0
  0
LINE
  5
157
330
1F
100
AcDbEntity
  8
0-2_扉
  6
Continuous
 62
     7
370
     9
100
AcDbLine
 10
-4530.400453712405
 20
3222.750195477457
 30
0.0
 11
-4530.400453712405
 21
2280.249964533624
 31
0.0
  0
LINE
  5
158
330
1F
100
AcDbEntity
  8
0-2_扉
  6
Continuous
 62
     7
370
     9
100
AcDbLine
 10
-4517.900453712404
 20
3222.750195477457
 30
0.0
 11
-4517.900453712404
 21
2280.249964533624
 31
0.0
  0
LINE
  5
159
330
1F
100
AcDbEntity
  8
0-2_扉
  6
JWW_CENTER1
 62
     7
370
     9
100
AcDbLine
 10
-4024.150565060325
 20
2207.929890305649
 30
0.0
 11
-4024.150565060325
 21
3294.566545272904
 31
0.0
  0
LINE
  5
15A
330
1F
100
AcDbEntity
  8
0-2_扉
  6
Continuous
 62
     7
370
     9
100
AcDbLine
 10
-4017.900565060325
 20
3274.000195477458
 30
0.0
 11
-4017.900565060325
 21
3235.250195477458
 31
0.0
  0
LINE
  5
15B
330
1F
100
AcDbEntity
  8
0-2_扉
  6
Continuous
 62
     7
370
     9
100
AcDbLine
 10
-4030.400565060324
 20
3274.000195477458
 30
0.0
 11
-4030.400565060324
 21
3235.250195477458
 31
0.0
  0
LINE
  5
15C
330
1F
100
AcDbEntity
  8
0-2_扉
  6
Continuous
 62
     7
370
     9
100
AcDbLine
 10
-4030.400565060324
 20
3222.750195477457
 30
0.0
 11
-4030.400565060324
 21
2280.249964533624
 31
0.0
  0
LINE
  5
15D
330
1F
100
AcDbEntity
  8
0-2_扉
  6
Continuous
 62
     7
370
     9
100
AcDbLine
 10
-4030.400565060324
 20
2267.749964533624
 30
0.0
 11
-4030.400565060324
 21
2228.999964533624
 31
0.0
  0
LINE
  5
15E
330
1F
100
AcDbEntity
  8
0-2_扉
  6
Continuous
 62
     7
370
     9
100
AcDbLine
 10
-4017.900565060325
 20
3222.750195477457
 30
0.0
 11
-4017.900565060325
 21
2280.249964533624
 31
0.0
  0
LINE
  5
15F
330
1F
100
AcDbEntity
  8
0-2_扉
  6
Continuous
 62
     7
370
     9
100
AcDbLine
 10
-4017.900565060325
 20
2267.749964533624
 30
0.0
 11
-4017.900565060325
 21
2228.999964533624
 31
0.0
  0
LINE
  5
160
330
1F
100
AcDbEntity
  8
0-2_扉
  6
Continuous
 62
     7
370
     9
100
AcDbLine
 10
-4569.150453712405
 20
3235.250195477458
 30
0.0
 11
-3979.15050320037
 21
3235.250195477458
 31
0.0
  0
LINE
  5
161
330
1F
100
AcDbEntity
  8
0-2_扉
  6
Continuous
 62
     7
370
     9
100
AcDbLine
 10
-4569.150453712405
 20
3222.750195477457
 30
0.0
 11
-3979.15050320037
 21
3222.750195477457
 31
0.0
  0
LINE
  5
162
330
1F
100
AcDbEntity
  8
0-2_扉
  6
Continuous
 62
     7
370
     9
100
AcDbLine
 10
-4569.150453712405
 20
3274.000195477458
 30
0.0
 11
-3979.15050320037
 21
3274.000195477458
 31
0.0
  0
LINE
  5
163
330
1F
100
AcDbEntity
  8
0-2_扉
  6
Continuous
 62
     7
370
     9
100
AcDbLine
 10
-4569.150453712405
 20
2280.249964533624
 30
0.0
 11
-3979.15050320037
 21
2280.249964533624
 31
0.0
  0
LINE
  5
164
330
1F
100
AcDbEntity
  8
0-2_扉
  6
Continuous
 62
     7
370
     9
100
AcDbLine
 10
-4569.150453712405
 20
2267.749964533624
 30
0.0
 11
-3979.15050320037
 21
2267.749964533624
 31
0.0
  0
LINE
  5
165
330
1F
100
AcDbEntity
  8
0-2_扉
  6
Continuous
 62
     7
370
     9
100
AcDbLine
 10
-3979.15050320037
 20
2229.000148463891
 30
0.0
 11
-4569.150453712405
 21
2229.000148463891
 31
0.0
  0
LINE
  5
166
330
1F
100
AcDbEntity
  8
0-2_扉
  6
Continuous
 62
     7
370
     9
100
AcDbLine
 10
-4569.150453712405
 20
2124.002647606101
 30
0.0
 11
-3979.15050320037
 21
2124.002647606101
 31
0.0
  0
LINE
  5
167
330
1F
100
AcDbEntity
  8
0-2_扉
  6
Continuous
 62
     7
370
     9
100
AcDbLine
 10
-4569.150453712405
 20
1576.000148463891
 30
0.0
 11
-3979.15050320037
 21
1576.000148463891
 31
0.0
  0
LINE
  5
168
330
1F
100
AcDbEntity
  8
0-2_扉
  6
JWW_CENTER1
 62
     7
370
     9
100
AcDbLine
 10
-4589.344908886267
 20
2273.999964533624
 30
0.0
 11
-3959.352317568296
 21
2273.999964533624
 31
0.0
  0
LINE
  5
169
330
1F
100
AcDbEntity
  8
0-2_扉
  6
JWW_CENTER1
 62
     7
370
     9
100
AcDbLine
 10
-4589.344908886267
 20
3229.000195477458
 30
0.0
 11
-3959.352317568296
 21
3229.000195477458
 31
0.0
  0
LINE
  5
16A
330
1F
100
AcDbEntity
  8
0-4_枠
  6
JWW_DASHED1
 62
   120
370
     5
100
AcDbLine
 10
-4679.150453712406
 20
3409.000195477458
 30
0.0
 11
-4679.150453712406
 21
1426.000148463891
 31
0.0
  0
LINE
  5
16B
330
1F
100
AcDbEntity
  8
0-2_扉
  6
Continuous
 62
     7
370
     9
100
AcDbLine
 10
-4676.150503200371
 20
1426.000148463891
 30
0.0
 11
-3869.15050320037
 21
1426.000148463891
 31
0.0
  0
LINE
  5
16C
330
1F
100
AcDbEntity
  8
0-4_枠
  6
JWW_DASHED1
 62
   120
370
     5
100
AcDbLine
 10
-4676.150503200371
 20
1426.000148463891
 30
0.0
 11
-4679.150453712406
 21
1426.000148463891
 31
0.0
  0
LINE
  5
16D
330
1F
100
AcDbEntity
  8
0-2_扉
  6
Continuous
 62
     7
370
     9
100
AcDbLine
 10
-4676.150503200371
 20
3409.000195477458
 30
0.0
 11
-3869.15050320037
 21
3409.000195477458
 31
0.0
  0
LINE
  5
16E
330
1F
100
AcDbEntity
  8
0-4_枠
  6
JWW_DASHED1
 62
   120
370
     5
100
AcDbLine
 10
-4676.150503200371
 20
3409.000195477458
 30
0.0
 11
-4679.150453712406
 21
3409.000195477458
 31
0.0
  0
MTEXT
  5
16F
330
1F
100
AcDbEntity
  8
0-A_文字
  6
Continuous
 62
     7
370
     9
100
AcDbMText
 10
-5370.000018557987
 20
661.5754150803014
 30
0.0
 40
57.15000000000017
 41
975.0000000000034
 46
0.0
 71
     7
 72
     1
  1
{\fＭＳ ゴシック|b0|i0|c128|p49;枠外幅 2,424mm（DW=810mm）}
 73
     1
 44
1.0
  0
LINE
  5
170
330
1F
100
AcDbEntity
  8
0-4_枠
  6
Continuous
 62
    92
370
    13
100
AcDbLine
 10
-2282.150503200371
 20
1418.000148463894
 30
0.0
 11
-2312.150503200371
 21
1418.000148463894
 31
0.0
  0
LINE
  5
171
330
1F
100
AcDbEntity
  8
0-4_枠
  6
Continuous
 62
    92
370
    13
100
AcDbLine
 10
-4676.150503200371
 20
3423.000148463893
 30
0.0
 11
-2312.150503200371
 21
3423.000148463893
 31
0.0
  0
LINE
  5
172
330
1F
100
AcDbEntity
  8
0-4_枠
  6
Continuous
 62
    92
370
    13
100
AcDbLine
 10
-2282.150503200371
 20
1418.000148463894
 30
0.0
 11
-2282.150503200371
 21
3453.000148463893
 31
0.0
  0
LINE
  5
173
330
1F
100
AcDbEntity
  8
0-4_枠
  6
Continuous
 62
    92
370
    13
100
AcDbLine
 10
-4706.150503200371
 20
3453.000148463893
 30
0.0
 11
-2282.150503200371
 21
3453.000148463893
 31
0.0
  0
LINE
  5
174
330
1F
100
AcDbEntity
  8
0-4_枠
  6
Continuous
 62
    92
370
    13
100
AcDbLine
 10
-2312.150503200371
 20
1418.000148463894
 30
0.0
 11
-2312.150503200371
 21
3453.000148463893
 31
0.0
  0
LINE
  5
175
330
1F
100
AcDbEntity
  8
0-4_枠
  6
Continuous
 62
    92
370
    13
100
AcDbLine
 10
-3119.15050320037
 20
1418.000148463892
 30
0.0
 11
-3089.15050320037
 21
1418.000148463892
 31
0.0
  0
LINE
  5
176
330
1F
100
AcDbEntity
  8
引手
  6
JWW_CENTER1
 62
     7
370
     9
100
AcDbLine
 10
-3886.224669001697
 20
2383.500148463891
 30
0.0
 11
-3813.714972392535
 21
2383.500148463891
 31
0.0
  0
LINE
  5
177
330
1F
100
AcDbEntity
  8
引手
  6
JWW_CENTER1
 62
     7
370
     9
100
AcDbLine
 10
-3848.150503200372
 20
2298.269479928366
 30
0.0
 11
-3848.150503200372
 21
2469.119751352503
 31
0.0
  0
LINE
  5
178
330
1F
100
AcDbEntity
  8
引手
  6
JWW_DASHED1
 62
     7
370
     9
100
AcDbLine
 10
-3832.150503200373
 20
2332.500148463891
 30
0.0
 11
-3832.150503200373
 21
2434.500148463891
 31
0.0
  0
LINE
  5
179
330
1F
100
AcDbEntity
  8
引手
  6
JWW_DASHED1
 62
     7
370
     9
100
AcDbLine
 10
-3864.150503200371
 20
2332.500148463891
 30
0.0
 11
-3832.150503200373
 21
2332.500148463891
 31
0.0
  0
LINE
  5
17A
330
1F
100
AcDbEntity
  8
引手
  6
JWW_DASHED1
 62
     7
370
     9
100
AcDbLine
 10
-3864.150503200371
 20
2332.500148463891
 30
0.0
 11
-3864.150503200371
 21
2434.500148463891
 31
0.0
  0
LINE
  5
17B
330
1F
100
AcDbEntity
  8
引手
  6
JWW_DASHED1
 62
     7
370
     9
100
AcDbLine
 10
-3864.150503200371
 20
2434.500148463891
 30
0.0
 11
-3832.150503200373
 21
2434.500148463891
 31
0.0
  0
LINE
  5
17C
330
1F
100
AcDbEntity
  8
引手
  6
Continuous
 62
     7
370
     9
100
AcDbLine
 10
-3867.150503200373
 20
2328.500148463891
 30
0.0
 11
-3829.150503200371
 21
2328.500148463891
 31
0.0
  0
LINE
  5
17D
330
1F
100
AcDbEntity
  8
引手
  6
Continuous
 62
     7
370
     9
100
AcDbLine
 10
-3860.650503200372
 20
2344.500148463891
 30
0.0
 11
-3835.650503200372
 21
2344.500148463891
 31
0.0
  0
LINE
  5
17E
330
1F
100
AcDbEntity
  8
引手
  6
Continuous
 62
     7
370
     9
100
AcDbLine
 10
-3860.650503200372
 20
2422.500148463891
 30
0.0
 11
-3835.650503200372
 21
2422.500148463891
 31
0.0
  0
LINE
  5
17F
330
1F
100
AcDbEntity
  8
引手
  6
Continuous
 62
     7
370
     9
100
AcDbLine
 10
-3867.150503200373
 20
2438.500148463891
 30
0.0
 11
-3829.150503200371
 21
2438.500148463891
 31
0.0
  0
LINE
  5
180
330
1F
100
AcDbEntity
  8
引手
  6
Continuous
 62
     7
370
     9
100
AcDbLine
 10
-3867.150503200373
 20
2328.500148463891
 30
0.0
 11
-3867.150503200373
 21
2438.500148463891
 31
0.0
  0
LINE
  5
181
330
1F
100
AcDbEntity
  8
引手
  6
Continuous
 62
     7
370
     9
100
AcDbLine
 10
-3860.650503200372
 20
2344.500148463891
 30
0.0
 11
-3860.650503200372
 21
2422.500148463891
 31
0.0
  0
LINE
  5
182
330
1F
100
AcDbEntity
  8
引手
  6
Continuous
 62
     7
370
     9
100
AcDbLine
 10
-3835.650503200372
 20
2344.500148463891
 30
0.0
 11
-3835.650503200372
 21
2422.500148463891
 31
0.0
  0
LINE
  5
183
330
1F
100
AcDbEntity
  8
引手
  6
Continuous
 62
     7
370
     9
100
AcDbLine
 10
-3829.150503200371
 20
2328.500148463891
 30
0.0
 11
-3829.150503200371
 21
2438.500148463891
 31
0.0
  0
LINE
  5
184
330
1F
100
AcDbEntity
  8
0-C_ハッチ
  6
Continuous
 62
   120
370
     5
100
AcDbLine
 10
-3757.802732002488
 20
3274.000148463892
 30
0.0
 11
-3789.150453712404
 21
3244.974480213969
 31
0.0
  0
LINE
  5
185
330
1F
100
AcDbEntity
  8
0-C_ハッチ
  6
Continuous
 62
   120
370
     5
100
AcDbLine
 10
-3783.345477263646
 20
2364.502038375173
 30
0.0
 11
-3789.150453712404
 21
2359.127060181879
 31
0.0
  0
LINE
  5
186
330
1F
100
AcDbEntity
  8
0-C_ハッチ
  6
Continuous
 62
   120
370
     5
100
AcDbLine
 10
-3721.005993016541
 20
3274.000148463892
 30
0.0
 11
-3737.900453712404
 21
3258.357129301055
 31
0.0
  0
LINE
  5
187
330
1F
100
AcDbEntity
  8
0-C_ハッチ
  6
Continuous
 62
   120
370
     5
100
AcDbLine
 10
-3750.400453712405
 20
3246.78305522698
 30
0.0
 11
-3762.85599301654
 21
3235.250148463892
 31
0.0
  0
LINE
  5
188
330
1F
100
AcDbEntity
  8
0-C_ハッチ
  6
Continuous
 62
   120
370
     5
100
AcDbLine
 10
-3776.355993016541
 20
3222.750148463892
 30
0.0
 11
-3789.150453712404
 21
3210.903425597351
 31
0.0
  0
LINE
  5
189
330
1F
100
AcDbEntity
  8
0-C_ハッチ
  6
Continuous
 62
   120
370
     5
100
AcDbLine
 10
-3684.209254030593
 20
3274.000148463892
 30
0.0
 11
-3726.059254030593
 21
3235.250148463892
 31
0.0
  0
LINE
  5
18A
330
1F
100
AcDbEntity
  8
0-C_ハッチ
  6
Continuous
 62
   120
370
     5
100
AcDbLine
 10
-3750.400453712405
 20
3212.712000610362
 30
0.0
 11
-3789.150453712404
 21
3176.832370980732
 31
0.0
  0
LINE
  5
18B
330
1F
100
AcDbEntity
  8
0-C_ハッチ
  6
Continuous
 62
   120
370
     5
100
AcDbLine
 10
-3647.412515044645
 20
3274.000148463892
 30
0.0
 11
-3689.262515044645
 21
3235.250148463892
 31
0.0
  0
LINE
  5
18C
330
1F
100
AcDbEntity
  8
0-C_ハッチ
  6
Continuous
 62
   120
370
     5
100
AcDbLine
 10
-3610.615776058697
 20
3274.000148463892
 30
0.0
 11
-3652.465776058697
 21
3235.250148463892
 31
0.0
  0
LINE
  5
18D
330
1F
100
AcDbEntity
  8
0-C_ハッチ
  6
Continuous
 62
   120
370
     5
100
AcDbLine
 10
-3573.819037072749
 20
3274.000148463892
 30
0.0
 11
-3615.669037072748
 21
3235.250148463892
 31
0.0
  0
LINE
  5
18E
330
1F
100
AcDbEntity
  8
0-C_ハッチ
  6
Continuous
 62
   120
370
     5
100
AcDbLine
 10
-3537.022298086802
 20
3274.000148463892
 30
0.0
 11
-3578.872298086801
 21
3235.250148463892
 31
0.0
  0
LINE
  5
18F
330
1F
100
AcDbEntity
  8
0-C_ハッチ
  6
Continuous
 62
   120
370
     5
100
AcDbLine
 10
-3500.225559100853
 20
3274.000148463892
 30
0.0
 11
-3542.075559100853
 21
3235.250148463892
 31
0.0
  0
LINE
  5
190
330
1F
100
AcDbEntity
  8
0-C_ハッチ
  6
Continuous
 62
   120
370
     5
100
AcDbLine
 10
-3463.428820114905
 20
3274.000148463892
 30
0.0
 11
-3505.278820114905
 21
3235.250148463892
 31
0.0
  0
LINE
  5
191
330
1F
100
AcDbEntity
  8
0-C_ハッチ
  6
Continuous
 62
   120
370
     5
100
AcDbLine
 10
-3426.632081128957
 20
3274.000148463892
 30
0.0
 11
-3468.482081128956
 21
3235.250148463892
 31
0.0
  0
LINE
  5
192
330
1F
100
AcDbEntity
  8
0-C_ハッチ
  6
Continuous
 62
   120
370
     5
100
AcDbLine
 10
-3389.83534214301
 20
3274.000148463892
 30
0.0
 11
-3431.685342143009
 21
3235.250148463892
 31
0.0
  0
LINE
  5
193
330
1F
100
AcDbEntity
  8
0-C_ハッチ
  6
Continuous
 62
   120
370
     5
100
AcDbLine
 10
-3353.038603157062
 20
3274.000148463892
 30
0.0
 11
-3394.888603157061
 21
3235.250148463892
 31
0.0
  0
LINE
  5
194
330
1F
100
AcDbEntity
  8
0-C_ハッチ
  6
Continuous
 62
   120
370
     5
100
AcDbLine
 10
-3702.762515044644
 20
3222.750148463892
 30
0.0
 11
-3737.900453712404
 21
3190.215020067817
 31
0.0
  0
LINE
  5
195
330
1F
100
AcDbEntity
  8
0-C_ハッチ
  6
Continuous
 62
   120
370
     5
100
AcDbLine
 10
-3750.400453712405
 20
3178.640945993743
 30
0.0
 11
-3789.150453712404
 21
3142.761316364113
 31
0.0
  0
LINE
  5
196
330
1F
100
AcDbEntity
  8
0-C_ハッチ
  6
Continuous
 62
   120
370
     5
100
AcDbLine
 10
-3629.169037072748
 20
3222.750148463892
 30
0.0
 11
-3737.900453712404
 21
3122.07291083458
 31
0.0
  0
LINE
  5
197
330
1F
100
AcDbEntity
  8
0-C_ハッチ
  6
Continuous
 62
   120
370
     5
100
AcDbLine
 10
-3750.400453712405
 20
3110.498836760505
 30
0.0
 11
-3789.150453712404
 21
3074.619207130876
 31
0.0
  0
LINE
  5
198
330
1F
100
AcDbEntity
  8
0-C_ハッチ
  6
Continuous
 62
   120
370
     5
100
AcDbLine
 10
-3750.400453712405
 20
2769.788290594317
 30
0.0
 11
-3789.150453712404
 21
2733.908660964687
 31
0.0
  0
LINE
  5
199
330
1F
100
AcDbEntity
  8
0-C_ハッチ
  6
Continuous
 62
   120
370
     5
100
AcDbLine
 10
-3750.400453712405
 20
2735.717235977698
 30
0.0
 11
-3789.150453712404
 21
2699.837606348068
 31
0.0
  0
LINE
  5
19A
330
1F
100
AcDbEntity
  8
0-C_ハッチ
  6
Continuous
 62
   120
370
     5
100
AcDbLine
 10
-3750.400453712405
 20
2701.646181361079
 30
0.0
 11
-3789.150453712404
 21
2665.766551731449
 31
0.0
  0
LINE
  5
19B
330
1F
100
AcDbEntity
  8
0-C_ハッチ
  6
Continuous
 62
   120
370
     5
100
AcDbLine
 10
-3750.400453712405
 20
2667.575126744461
 30
0.0
 11
-3789.150453712404
 21
2631.695497114831
 31
0.0
  0
LINE
  5
19C
330
1F
100
AcDbEntity
  8
0-C_ハッチ
  6
Continuous
 62
   120
370
     5
100
AcDbLine
 10
-3750.400453712405
 20
2633.504072127842
 30
0.0
 11
-3789.150453712404
 21
2597.624442498212
 31
0.0
  0
LINE
  5
19D
330
1F
100
AcDbEntity
  8
0-C_ハッチ
  6
Continuous
 62
   120
370
     5
100
AcDbLine
 10
-3750.400453712405
 20
2599.433017511223
 30
0.0
 11
-3789.150453712404
 21
2563.553387881593
 31
0.0
  0
LINE
  5
19E
330
1F
100
AcDbEntity
  8
0-C_ハッチ
  6
Continuous
 62
   120
370
     5
100
AcDbLine
 10
-3750.400453712405
 20
2565.361962894604
 30
0.0
 11
-3789.150453712404
 21
2529.482333264974
 31
0.0
  0
LINE
  5
19F
330
1F
100
AcDbEntity
  8
0-C_ハッチ
  6
Continuous
 62
   120
370
     5
100
AcDbLine
 10
-3750.400453712405
 20
2531.290908277984
 30
0.0
 11
-3789.150453712404
 21
2495.411278648355
 31
0.0
  0
LINE
  5
1A0
330
1F
100
AcDbEntity
  8
0-C_ハッチ
  6
Continuous
 62
   120
370
     5
100
AcDbLine
 10
-3750.400453712405
 20
2497.219853661366
 30
0.0
 11
-3789.150453712404
 21
2461.340224031736
 31
0.0
  0
LINE
  5
1A1
330
1F
100
AcDbEntity
  8
0-C_ハッチ
  6
Continuous
 62
   120
370
     5
100
AcDbLine
 10
-3750.400453712405
 20
2463.148799044746
 30
0.0
 11
-3789.150453712404
 21
2427.269169415116
 31
0.0
  0
LINE
  5
1A2
330
1F
100
AcDbEntity
  8
0-C_ハッチ
  6
Continuous
 62
   120
370
     5
100
AcDbLine
 10
-3750.400453712405
 20
2429.077744428128
 30
0.0
 11
-3789.150453712404
 21
2393.198114798499
 31
0.0
  0
LINE
  5
1A3
330
1F
100
AcDbEntity
  8
0-C_ハッチ
  6
Continuous
 62
   120
370
     5
100
AcDbLine
 10
-3750.400453712405
 20
2326.864580578272
 30
0.0
 11
-3789.150453712404
 21
2290.984950948642
 31
0.0
  0
LINE
  5
1A4
330
1F
100
AcDbEntity
  8
0-C_ハッチ
  6
Continuous
 62
   120
370
     5
100
AcDbLine
 10
-3750.400453712405
 20
2258.722471345034
 30
0.0
 11
-3782.50054460837
 21
2229.00016495988
 31
0.0
  0
LINE
  5
1A5
330
1F
100
AcDbEntity
  8
0-C_ハッチ
  6
Continuous
 62
   120
370
     5
100
AcDbLine
 10
-3750.400453712405
 20
2395.006689811508
 30
0.0
 11
-3768.22880167751
 21
2378.498960214189
 31
0.0
  0
LINE
  5
1A6
330
1F
100
AcDbEntity
  8
0-C_ハッチ
  6
Continuous
 62
   120
370
     5
100
AcDbLine
 10
-3665.965776058696
 20
3222.750148463892
 30
0.0
 11
-3737.900453712404
 21
3156.143965451199
 31
0.0
  0
LINE
  5
1A7
330
1F
100
AcDbEntity
  8
0-C_ハッチ
  6
Continuous
 62
   120
370
     5
100
AcDbLine
 10
-3750.400453712405
 20
3144.569891377124
 30
0.0
 11
-3789.150453712404
 21
3108.690261747495
 31
0.0
  0
LINE
  5
1A8
330
1F
100
AcDbEntity
  8
0-C_ハッチ
  6
Continuous
 62
   120
370
     5
100
AcDbLine
 10
-3592.372298086801
 20
3222.750148463892
 30
0.0
 11
-3737.900453712404
 21
3088.001856217961
 31
0.0
  0
LINE
  5
1A9
330
1F
100
AcDbEntity
  8
0-C_ハッチ
  6
Continuous
 62
   120
370
     5
100
AcDbLine
 10
-3750.400453712405
 20
3076.427782143886
 30
0.0
 11
-3789.150453712404
 21
3040.548152514257
 31
0.0
  0
LINE
  5
1AA
330
1F
100
AcDbEntity
  8
0-C_ハッチ
  6
Continuous
 62
   120
370
     5
100
AcDbLine
 10
-3555.575559100852
 20
3222.750148463892
 30
0.0
 11
-3737.900453712404
 21
3053.930801601343
 31
0.0
  0
LINE
  5
1AB
330
1F
100
AcDbEntity
  8
0-C_ハッチ
  6
Continuous
 62
   120
370
     5
100
AcDbLine
 10
-3750.400453712405
 20
3042.356727527268
 30
0.0
 11
-3789.150453712404
 21
3006.477097897638
 31
0.0
  0
LINE
  5
1AC
330
1F
100
AcDbEntity
  8
0-C_ハッチ
  6
Continuous
 62
   120
370
     5
100
AcDbLine
 10
-3518.778820114904
 20
3222.750148463892
 30
0.0
 11
-3737.900453712404
 21
3019.859746984724
 31
0.0
  0
LINE
  5
1AD
330
1F
100
AcDbEntity
  8
0-C_ハッチ
  6
Continuous
 62
   120
370
     5
100
AcDbLine
 10
-3750.400453712405
 20
3008.285672910649
 30
0.0
 11
-3789.150453712404
 21
2972.406043281019
 31
0.0
  0
LINE
  5
1AE
330
1F
100
AcDbEntity
  8
0-C_ハッチ
  6
Continuous
 62
   120
370
     5
100
AcDbLine
 10
-3481.982081128956
 20
3222.750148463892
 30
0.0
 11
-3737.900453712404
 21
2985.788692368105
 31
0.0
  0
LINE
  5
1AF
330
1F
100
AcDbEntity
  8
0-C_ハッチ
  6
Continuous
 62
   120
370
     5
100
AcDbLine
 10
-3750.400453712405
 20
2974.214618294031
 30
0.0
 11
-3789.150453712404
 21
2938.334988664401
 31
0.0
  0
LINE
  5
1B0
330
1F
100
AcDbEntity
  8
0-C_ハッチ
  6
Continuous
 62
   120
370
     5
100
AcDbLine
 10
-3445.185342143009
 20
3222.750148463892
 30
0.0
 11
-3737.900453712404
 21
2951.717637751486
 31
0.0
  0
LINE
  5
1B1
330
1F
100
AcDbEntity
  8
0-C_ハッチ
  6
Continuous
 62
   120
370
     5
100
AcDbLine
 10
-3750.400453712405
 20
2940.143563677411
 30
0.0
 11
-3789.150453712404
 21
2904.263934047782
 31
0.0
  0
LINE
  5
1B2
330
1F
100
AcDbEntity
  8
0-C_ハッチ
  6
Continuous
 62
   120
370
     5
100
AcDbLine
 10
-3408.388603157061
 20
3222.750148463892
 30
0.0
 11
-3737.900453712404
 21
2917.646583134867
 31
0.0
  0
LINE
  5
1B3
330
1F
100
AcDbEntity
  8
0-C_ハッチ
  6
Continuous
 62
   120
370
     5
100
AcDbLine
 10
-3750.400453712405
 20
2906.072509060792
 30
0.0
 11
-3789.150453712404
 21
2870.192879431163
 31
0.0
  0
LINE
  5
1B4
330
1F
100
AcDbEntity
  8
0-C_ハッチ
  6
Continuous
 62
   120
370
     5
100
AcDbLine
 10
-3371.591864171112
 20
3222.750148463892
 30
0.0
 11
-3737.900453712404
 21
2883.575528518248
 31
0.0
  0
LINE
  5
1B5
330
1F
100
AcDbEntity
  8
0-C_ハッチ
  6
Continuous
 62
   120
370
     5
100
AcDbLine
 10
-3750.400453712405
 20
2872.001454444173
 30
0.0
 11
-3789.150453712404
 21
2836.121824814544
 31
0.0
  0
LINE
  5
1B6
330
1F
100
AcDbEntity
  8
0-C_ハッチ
  6
Continuous
 62
   120
370
     5
100
AcDbLine
 10
-3750.400453712405
 20
2837.930399827555
 30
0.0
 11
-3789.150453712404
 21
2802.050770197925
 31
0.0
  0
LINE
  5
1B7
330
1F
100
AcDbEntity
  8
0-C_ハッチ
  6
Continuous
 62
   120
370
     5
100
AcDbLine
 10
-3750.400453712405
 20
2803.859345210936
 30
0.0
 11
-3789.150453712404
 21
2767.979715581306
 31
0.0
  0
LINE
  5
1B8
330
1F
100
AcDbEntity
  8
0-C_ハッチ
  6
Continuous
 62
   120
370
     5
100
AcDbLine
 10
-3750.400453712405
 20
2360.93563519489
 30
0.0
 11
-3789.150453712404
 21
2325.05600556526
 31
0.0
  0
LINE
  5
1B9
330
1F
100
AcDbEntity
  8
0-C_ハッチ
  6
Continuous
 62
   120
370
     5
100
AcDbLine
 10
-3750.400453712405
 20
2292.793525961653
 30
0.0
 11
-3763.947550829328
 21
2280.249917520057
 31
0.0
  0
LINE
  5
1BA
330
1F
100
AcDbEntity
  8
0-C_ハッチ
  6
Continuous
 62
   120
370
     5
100
AcDbLine
 10
-3777.447550829328
 20
2267.749917520058
 30
0.0
 11
-3789.150453712404
 21
2256.913896332023
 31
0.0
  0
LINE
  5
1BB
330
1F
100
AcDbEntity
  8
0-C_ハッチ
  6
Continuous
 62
   120
370
     5
100
AcDbLine
 10
-3703.854072857432
 20
2267.749917520058
 30
0.0
 11
-3737.900453712404
 21
2236.225490802491
 31
0.0
  0
LINE
  5
1BC
330
1F
100
AcDbEntity
  8
0-C_ハッチ
  6
Continuous
 62
   120
370
     5
100
AcDbLine
 10
-3667.057333871483
 20
2267.749917520058
 30
0.0
 11
-3708.907066636474
 21
2229.00016495988
 31
0.0
  0
LINE
  5
1BD
330
1F
100
AcDbEntity
  8
0-C_ハッチ
  6
Continuous
 62
   120
370
     5
100
AcDbLine
 10
-3630.260594885535
 20
2267.749917520058
 30
0.0
 11
-3672.110327650526
 21
2229.00016495988
 31
0.0
  0
LINE
  5
1BE
330
1F
100
AcDbEntity
  8
0-C_ハッチ
  6
Continuous
 62
   120
370
     5
100
AcDbLine
 10
-3593.463855899587
 20
2267.749917520058
 30
0.0
 11
-3635.313588664579
 21
2229.00016495988
 31
0.0
  0
LINE
  5
1BF
330
1F
100
AcDbEntity
  8
0-C_ハッチ
  6
Continuous
 62
   120
370
     5
100
AcDbLine
 10
-3556.66711691364
 20
2267.749917520058
 30
0.0
 11
-3598.516849678631
 21
2229.00016495988
 31
0.0
  0
LINE
  5
1C0
330
1F
100
AcDbEntity
  8
0-C_ハッチ
  6
Continuous
 62
   120
370
     5
100
AcDbLine
 10
-3519.870377927693
 20
2267.749917520058
 30
0.0
 11
-3561.720110692684
 21
2229.00016495988
 31
0.0
  0
LINE
  5
1C1
330
1F
100
AcDbEntity
  8
0-C_ハッチ
  6
Continuous
 62
   120
370
     5
100
AcDbLine
 10
-3483.073638941744
 20
2267.749917520058
 30
0.0
 11
-3524.923371706736
 21
2229.00016495988
 31
0.0
  0
LINE
  5
1C2
330
1F
100
AcDbEntity
  8
0-C_ハッチ
  6
Continuous
 62
   120
370
     5
100
AcDbLine
 10
-3446.276899955796
 20
2267.749917520058
 30
0.0
 11
-3488.126632720788
 21
2229.00016495988
 31
0.0
  0
LINE
  5
1C3
330
1F
100
AcDbEntity
  8
0-C_ハッチ
  6
Continuous
 62
   120
370
     5
100
AcDbLine
 10
-3409.480160969848
 20
2267.749917520058
 30
0.0
 11
-3451.32989373484
 21
2229.00016495988
 31
0.0
  0
LINE
  5
1C4
330
1F
100
AcDbEntity
  8
0-C_ハッチ
  6
Continuous
 62
   120
370
     5
100
AcDbLine
 10
-3372.6834219839
 20
2267.749917520058
 30
0.0
 11
-3414.533154748891
 21
2229.00016495988
 31
0.0
  0
LINE
  5
1C5
330
1F
100
AcDbEntity
  8
0-C_ハッチ
  6
Continuous
 62
   120
370
     5
100
AcDbLine
 10
-3316.241864171114
 20
3274.000148463892
 30
0.0
 11
-3358.091864171112
 21
3235.250148463892
 31
0.0
  0
LINE
  5
1C6
330
1F
100
AcDbEntity
  8
0-C_ハッチ
  6
Continuous
 62
   120
370
     5
100
AcDbLine
 10
-3279.445125185166
 20
3274.000148463892
 30
0.0
 11
-3321.295125185165
 21
3235.250148463891
 31
0.0
  0
LINE
  5
1C7
330
1F
100
AcDbEntity
  8
0-C_ハッチ
  6
Continuous
 62
   120
370
     5
100
AcDbLine
 10
-3334.795125185165
 20
3222.750148463891
 30
0.0
 11
-3737.900453712404
 21
2849.504473901629
 31
0.0
  0
LINE
  5
1C8
330
1F
100
AcDbEntity
  8
0-C_ハッチ
  6
Continuous
 62
   120
370
     5
100
AcDbLine
 10
-3297.998386199217
 20
3222.750148463891
 30
0.0
 11
-3737.900453712404
 21
2815.433419285011
 31
0.0
  0
LINE
  5
1C9
330
1F
100
AcDbEntity
  8
0-C_ハッチ
  6
Continuous
 62
   120
370
     5
100
AcDbLine
 10
-3335.886682997952
 20
2267.749917520058
 30
0.0
 11
-3377.736415762943
 21
2229.00016495988
 31
0.0
  0
LINE
  5
1CA
330
1F
100
AcDbEntity
  8
0-C_ハッチ
  6
Continuous
 62
   120
370
     5
100
AcDbLine
 10
-3299.089944012004
 20
2267.749917520058
 30
0.0
 11
-3340.939944012004
 21
2228.999917520057
 31
0.0
  0
LINE
  5
1CB
330
1F
100
AcDbEntity
  8
0-C_ハッチ
  6
Continuous
 62
   120
370
     5
100
AcDbLine
 10
-3261.201647213268
 20
3222.750148463892
 30
0.0
 11
-3737.900453712404
 21
2781.362364668392
 31
0.0
  0
LINE
  5
1CC
330
1F
100
AcDbEntity
  8
0-C_ハッチ
  6
Continuous
 62
   120
370
     5
100
AcDbLine
 10
-3262.293205026056
 20
2267.749917520058
 30
0.0
 11
-3304.143205026056
 21
2228.999917520057
 31
0.0
  0
LINE
  5
1CD
330
1F
100
AcDbEntity
  8
0-C_ハッチ
  6
Continuous
 62
   120
370
     5
100
AcDbLine
 10
-3250.400565060325
 20
3266.822205073978
 30
0.0
 11
-3284.498386199217
 21
3235.250148463891
 31
0.0
  0
LINE
  5
1CE
330
1F
100
AcDbEntity
  8
0-C_ハッチ
  6
Continuous
 62
   120
370
     5
100
AcDbLine
 10
-3205.851647213269
 20
3274.000148463892
 30
0.0
 11
-3237.900565060325
 21
3244.325224531433
 31
0.0
  0
LINE
  5
1CF
330
1F
100
AcDbEntity
  8
0-C_ハッチ
  6
Continuous
 62
   120
370
     5
100
AcDbLine
 10
-3224.40490822732
 20
3222.750148463892
 30
0.0
 11
-3237.900565060325
 21
3210.254169914814
 31
0.0
  0
LINE
  5
1D0
330
1F
100
AcDbEntity
  8
0-C_ハッチ
  6
Continuous
 62
   120
370
     5
100
AcDbLine
 10
-3250.400565060325
 20
3198.680095840739
 30
0.0
 11
-3737.900453712404
 21
2747.291310051773
 31
0.0
  0
LINE
  5
1D1
330
1F
100
AcDbEntity
  8
0-C_ハッチ
  6
Continuous
 62
   120
370
     5
100
AcDbLine
 10
-3250.400565060325
 20
3130.537986607502
 30
0.0
 11
-3737.900453712404
 21
2679.149200818536
 31
0.0
  0
LINE
  5
1D2
330
1F
100
AcDbEntity
  8
0-C_ハッチ
  6
Continuous
 62
   120
370
     5
100
AcDbLine
 10
-3250.400565060324
 20
3164.609041224121
 30
0.0
 11
-3737.900453712404
 21
2713.220255435154
 31
0.0
  0
LINE
  5
1D3
330
1F
100
AcDbEntity
  8
0-C_ハッチ
  6
Continuous
 62
   120
370
     5
100
AcDbLine
 10
-3250.400565060325
 20
3096.466931990883
 30
0.0
 11
-3737.900453712404
 21
2645.078146201917
 31
0.0
  0
LINE
  5
1D4
330
1F
100
AcDbEntity
  8
0-C_ハッチ
  6
Continuous
 62
   120
370
     5
100
AcDbLine
 10
-3250.400565060324
 20
2312.83267580865
 30
0.0
 11
-3285.589944012004
 21
2280.249917520057
 31
0.0
  0
LINE
  5
1D5
330
1F
100
AcDbEntity
  8
0-C_ハッチ
  6
Continuous
 62
   120
370
     5
100
AcDbLine
 10
-3250.400565060325
 20
2380.974785041887
 30
0.0
 11
-3359.1834219839
 21
2280.249917520057
 31
0.0
  0
LINE
  5
1D6
330
1F
100
AcDbEntity
  8
0-C_ハッチ
  6
Continuous
 62
   120
370
     5
100
AcDbLine
 10
-3250.400565060325
 20
2823.898495057932
 30
0.0
 11
-3732.004897515874
 21
2377.968557599086
 31
0.0
  0
LINE
  5
1D7
330
1F
100
AcDbEntity
  8
0-C_ハッチ
  6
Continuous
 62
   120
370
     5
100
AcDbLine
 10
-3250.400565060325
 20
3062.395877374263
 30
0.0
 11
-3737.900453712404
 21
2611.007091585298
 31
0.0
  0
LINE
  5
1D8
330
1F
100
AcDbEntity
  8
0-C_ハッチ
  6
Continuous
 62
   120
370
     5
100
AcDbLine
 10
-3250.400565060325
 20
3028.324822757645
 30
0.0
 11
-3737.900453712404
 21
2576.936036968678
 31
0.0
  0
LINE
  5
1D9
330
1F
100
AcDbEntity
  8
0-C_ハッチ
  6
Continuous
 62
   120
370
     5
100
AcDbLine
 10
-3250.400565060325
 20
2994.253768141026
 30
0.0
 11
-3737.900453712404
 21
2542.864982352059
 31
0.0
  0
LINE
  5
1DA
330
1F
100
AcDbEntity
  8
0-C_ハッチ
  6
Continuous
 62
   120
370
     5
100
AcDbLine
 10
-3250.400565060325
 20
2960.182713524408
 30
0.0
 11
-3737.900453712404
 21
2508.793927735441
 31
0.0
  0
LINE
  5
1DB
330
1F
100
AcDbEntity
  8
0-C_ハッチ
  6
Continuous
 62
   120
370
     5
100
AcDbLine
 10
-3250.400565060325
 20
2926.111658907788
 30
0.0
 11
-3737.900453712404
 21
2474.722873118821
 31
0.0
  0
LINE
  5
1DC
330
1F
100
AcDbEntity
  8
0-C_ハッチ
  6
Continuous
 62
   120
370
     5
100
AcDbLine
 10
-3250.400565060325
 20
2892.04060429117
 30
0.0
 11
-3737.900453712404
 21
2440.651818502203
 31
0.0
  0
LINE
  5
1DD
330
1F
100
AcDbEntity
  8
0-C_ハッチ
  6
Continuous
 62
   120
370
     5
100
AcDbLine
 10
-3250.400565060325
 20
2789.827440441313
 30
0.0
 11
-3737.900453712404
 21
2338.438654652346
 31
0.0
  0
LINE
  5
1DE
330
1F
100
AcDbEntity
  8
0-C_ハッチ
  6
Continuous
 62
   120
370
     5
100
AcDbLine
 10
-3250.400565060325
 20
2755.756385824694
 30
0.0
 11
-3737.900453712404
 21
2304.367600035728
 31
0.0
  0
LINE
  5
1DF
330
1F
100
AcDbEntity
  8
0-C_ハッチ
  6
Continuous
 62
   120
370
     5
100
AcDbLine
 10
-3250.400565060325
 20
2857.969549674551
 30
0.0
 11
-3737.900453712404
 21
2406.580763885583
 31
0.0
  0
LINE
  5
1E0
330
1F
100
AcDbEntity
  8
0-C_ハッチ
  6
Continuous
 62
   120
370
     5
100
AcDbLine
 10
-3250.400565060325
 20
2721.685331208076
 30
0.0
 11
-3727.150811843379
 21
2280.249917520057
 31
0.0
  0
LINE
  5
1E1
330
1F
100
AcDbEntity
  8
0-C_ハッチ
  6
Continuous
 62
   120
370
     5
100
AcDbLine
 10
-3250.400565060325
 20
2687.614276591456
 30
0.0
 11
-3690.354072857432
 21
2280.249917520057
 31
0.0
  0
LINE
  5
1E2
330
1F
100
AcDbEntity
  8
0-C_ハッチ
  6
Continuous
 62
   120
370
     5
100
AcDbLine
 10
-3250.400565060325
 20
2653.543221974838
 30
0.0
 11
-3653.557333871483
 21
2280.249917520057
 31
0.0
  0
LINE
  5
1E3
330
1F
100
AcDbEntity
  8
0-C_ハッチ
  6
Continuous
 62
   120
370
     5
100
AcDbLine
 10
-3250.400565060324
 20
2619.472167358219
 30
0.0
 11
-3616.760594885536
 21
2280.249917520057
 31
0.0
  0
LINE
  5
1E4
330
1F
100
AcDbEntity
  8
0-C_ハッチ
  6
Continuous
 62
   120
370
     5
100
AcDbLine
 10
-3250.400565060325
 20
2585.4011127416
 30
0.0
 11
-3579.963855899588
 21
2280.249917520057
 31
0.0
  0
LINE
  5
1E5
330
1F
100
AcDbEntity
  8
0-C_ハッチ
  6
Continuous
 62
   120
370
     5
100
AcDbLine
 10
-3250.400565060325
 20
2551.330058124981
 30
0.0
 11
-3543.16711691364
 21
2280.249917520057
 31
0.0
  0
LINE
  5
1E6
330
1F
100
AcDbEntity
  8
0-C_ハッチ
  6
Continuous
 62
   120
370
     5
100
AcDbLine
 10
-3250.400565060325
 20
2517.259003508363
 30
0.0
 11
-3506.370377927693
 21
2280.249917520057
 31
0.0
  0
LINE
  5
1E7
330
1F
100
AcDbEntity
  8
0-C_ハッチ
  6
Continuous
 62
   120
370
     5
100
AcDbLine
 10
-3250.400565060325
 20
2483.187948891744
 30
0.0
 11
-3469.573638941745
 21
2280.249917520057
 31
0.0
  0
LINE
  5
1E8
330
1F
100
AcDbEntity
  8
0-C_ハッチ
  6
Continuous
 62
   120
370
     5
100
AcDbLine
 10
-3250.400565060325
 20
2449.116894275125
 30
0.0
 11
-3432.776899955797
 21
2280.249917520057
 31
0.0
  0
LINE
  5
1E9
330
1F
100
AcDbEntity
  8
0-C_ハッチ
  6
Continuous
 62
   120
370
     5
100
AcDbLine
 10
-3250.400565060325
 20
2415.045839658506
 30
0.0
 11
-3395.980160969848
 21
2280.249917520057
 31
0.0
  0
LINE
  5
1EA
330
1F
100
AcDbEntity
  8
0-C_ハッチ
  6
Continuous
 62
   120
370
     5
100
AcDbLine
 10
-3250.400565060325
 20
2346.903730425268
 30
0.0
 11
-3322.386682997952
 21
2280.249917520057
 31
0.0
  0
LINE
  5
1EB
330
1F
100
AcDbEntity
  8
0-C_ハッチ
  6
Continuous
 62
   120
370
     5
100
AcDbLine
 10
-3225.496466040108
 20
2267.749917520058
 30
0.0
 11
-3237.900565060324
 21
2256.264640649487
 31
0.0
  0
LINE
  5
1EC
330
1F
100
AcDbEntity
  8
0-C_ハッチ
  6
Continuous
 62
   120
370
     5
100
AcDbLine
 10
-3250.400565060325
 20
2244.690566575413
 30
0.0
 11
-3267.34633420417
 21
2229.00003959037
 31
0.0
  0
LINE
  5
1ED
330
1F
100
AcDbEntity
  8
0-C_ハッチ
  6
Continuous
 62
   120
370
     5
100
AcDbLine
 10
-3199.15050320037
 20
2258.073272940233
 30
0.0
 11
-3230.549595218221
 21
2229.00003959037
 31
0.0
  0
LINE
  5
1EE
330
1F
100
AcDbEntity
  8
0-C_ハッチ
  6
Continuous
 62
   120
370
     5
100
AcDbLine
 10
-3199.15050320037
 20
2292.144327556853
 30
0.0
 11
-3211.996466040108
 21
2280.249917520058
 31
0.0
  0
LINE
  5
1EF
330
1F
100
AcDbEntity
  8
0-C_ハッチ
  6
Continuous
 62
   120
370
     5
100
AcDbLine
 10
-3199.15050320037
 20
3212.062802205561
 30
0.0
 11
-3237.900565060325
 21
3176.183115298195
 31
0.0
  0
LINE
  5
1F0
330
1F
100
AcDbEntity
  8
0-C_ハッチ
  6
Continuous
 62
   120
370
     5
100
AcDbLine
 10
-3199.15050320037
 20
2326.215382173472
 30
0.0
 11
-3237.900565060325
 21
2290.335695266106
 31
0.0
  0
LINE
  5
1F1
330
1F
100
AcDbEntity
  8
0-C_ハッチ
  6
Continuous
 62
   120
370
     5
100
AcDbLine
 10
-3199.15050320037
 20
3177.991747588943
 30
0.0
 11
-3237.900565060325
 21
3142.112060681576
 31
0.0
  0
LINE
  5
1F2
330
1F
100
AcDbEntity
  8
0-C_ハッチ
  6
Continuous
 62
   120
370
     5
100
AcDbLine
 10
-3199.15050320037
 20
3143.920692972323
 30
0.0
 11
-3237.900565060325
 21
3108.041006064957
 31
0.0
  0
LINE
  5
1F3
330
1F
100
AcDbEntity
  8
0-C_ハッチ
  6
Continuous
 62
   120
370
     5
100
AcDbLine
 10
-3199.15050320037
 20
2360.286436790091
 30
0.0
 11
-3237.900565060325
 21
2324.406749882724
 31
0.0
  0
LINE
  5
1F4
330
1F
100
AcDbEntity
  8
0-C_ハッチ
  6
Continuous
 62
   120
370
     5
100
AcDbLine
 10
-3199.15050320037
 20
2428.428546023328
 30
0.0
 11
-3237.900565060325
 21
2392.548859115961
 31
0.0
  0
LINE
  5
1F5
330
1F
100
AcDbEntity
  8
0-C_ハッチ
  6
Continuous
 62
   120
370
     5
100
AcDbLine
 10
-3199.15050320037
 20
2871.352256039373
 30
0.0
 11
-3237.900565060325
 21
2835.472569132006
 31
0.0
  0
LINE
  5
1F6
330
1F
100
AcDbEntity
  8
0-C_ハッチ
  6
Continuous
 62
   120
370
     5
100
AcDbLine
 10
-3199.15050320037
 20
3109.849638355704
 30
0.0
 11
-3237.900565060325
 21
3073.969951448338
 31
0.0
  0
LINE
  5
1F7
330
1F
100
AcDbEntity
  8
0-C_ハッチ
  6
Continuous
 62
   120
370
     5
100
AcDbLine
 10
-3199.15050320037
 20
3075.778583739086
 30
0.0
 11
-3237.900565060325
 21
3039.898896831719
 31
0.0
  0
LINE
  5
1F8
330
1F
100
AcDbEntity
  8
0-C_ハッチ
  6
Continuous
 62
   120
370
     5
100
AcDbLine
 10
-3199.15050320037
 20
3041.707529122466
 30
0.0
 11
-3237.900565060325
 21
3005.8278422151
 31
0.0
  0
LINE
  5
1F9
330
1F
100
AcDbEntity
  8
0-C_ハッチ
  6
Continuous
 62
   120
370
     5
100
AcDbLine
 10
-3199.15050320037
 20
3007.636474505848
 30
0.0
 11
-3237.900565060325
 21
2971.756787598482
 31
0.0
  0
LINE
  5
1FA
330
1F
100
AcDbEntity
  8
0-C_ハッチ
  6
Continuous
 62
   120
370
     5
100
AcDbLine
 10
-3199.15050320037
 20
2973.565419889229
 30
0.0
 11
-3237.900565060325
 21
2937.685732981863
 31
0.0
  0
LINE
  5
1FB
330
1F
100
AcDbEntity
  8
0-C_ハッチ
  6
Continuous
 62
   120
370
     5
100
AcDbLine
 10
-3199.15050320037
 20
2939.49436527261
 30
0.0
 11
-3237.900565060325
 21
2903.614678365244
 31
0.0
  0
LINE
  5
1FC
330
1F
100
AcDbEntity
  8
0-C_ハッチ
  6
Continuous
 62
   120
370
     5
100
AcDbLine
 10
-3199.15050320037
 20
2837.281201422753
 30
0.0
 11
-3237.900565060325
 21
2801.401514515387
 31
0.0
  0
LINE
  5
1FD
330
1F
100
AcDbEntity
  8
0-C_ハッチ
  6
Continuous
 62
   120
370
     5
100
AcDbLine
 10
-3199.15050320037
 20
2803.210146806135
 30
0.0
 11
-3237.900565060325
 21
2767.330459898768
 31
0.0
  0
LINE
  5
1FE
330
1F
100
AcDbEntity
  8
0-C_ハッチ
  6
Continuous
 62
   120
370
     5
100
AcDbLine
 10
-3199.15050320037
 20
2905.423310655991
 30
0.0
 11
-3237.900565060325
 21
2869.543623748625
 31
0.0
  0
LINE
  5
1FF
330
1F
100
AcDbEntity
  8
0-C_ハッチ
  6
Continuous
 62
   120
370
     5
100
AcDbLine
 10
-3199.15050320037
 20
2769.139092189516
 30
0.0
 11
-3237.900565060325
 21
2733.25940528215
 31
0.0
  0
LINE
  5
200
330
1F
100
AcDbEntity
  8
0-C_ハッチ
  6
Continuous
 62
   120
370
     5
100
AcDbLine
 10
-3199.15050320037
 20
2735.068037572897
 30
0.0
 11
-3237.900565060325
 21
2699.188350665531
 31
0.0
  0
LINE
  5
201
330
1F
100
AcDbEntity
  8
0-C_ハッチ
  6
Continuous
 62
   120
370
     5
100
AcDbLine
 10
-3199.15050320037
 20
2700.996982956279
 30
0.0
 11
-3237.900565060325
 21
2665.117296048913
 31
0.0
  0
LINE
  5
202
330
1F
100
AcDbEntity
  8
0-C_ハッチ
  6
Continuous
 62
   120
370
     5
100
AcDbLine
 10
-3199.15050320037
 20
2666.92592833966
 30
0.0
 11
-3237.900565060325
 21
2631.046241432293
 31
0.0
  0
LINE
  5
203
330
1F
100
AcDbEntity
  8
0-C_ハッチ
  6
Continuous
 62
   120
370
     5
100
AcDbLine
 10
-3199.15050320037
 20
2632.85487372304
 30
0.0
 11
-3237.900565060325
 21
2596.975186815674
 31
0.0
  0
LINE
  5
204
330
1F
100
AcDbEntity
  8
0-C_ハッチ
  6
Continuous
 62
   120
370
     5
100
AcDbLine
 10
-3199.15050320037
 20
2598.783819106422
 30
0.0
 11
-3237.900565060325
 21
2562.904132199056
 31
0.0
  0
LINE
  5
205
330
1F
100
AcDbEntity
  8
0-C_ハッチ
  6
Continuous
 62
   120
370
     5
100
AcDbLine
 10
-3199.15050320037
 20
2564.712764489803
 30
0.0
 11
-3237.900565060325
 21
2528.833077582437
 31
0.0
  0
LINE
  5
206
330
1F
100
AcDbEntity
  8
0-C_ハッチ
  6
Continuous
 62
   120
370
     5
100
AcDbLine
 10
-3199.15050320037
 20
2530.641709873184
 30
0.0
 11
-3237.900565060325
 21
2494.762022965818
 31
0.0
  0
LINE
  5
207
330
1F
100
AcDbEntity
  8
0-C_ハッチ
  6
Continuous
 62
   120
370
     5
100
AcDbLine
 10
-3199.15050320037
 20
2496.570655256566
 30
0.0
 11
-3237.900565060325
 21
2460.690968349199
 31
0.0
  0
LINE
  5
208
330
1F
100
AcDbEntity
  8
0-C_ハッチ
  6
Continuous
 62
   120
370
     5
100
AcDbLine
 10
-3199.15050320037
 20
2462.499600639947
 30
0.0
 11
-3237.900565060325
 21
2426.61991373258
 31
0.0
  0
LINE
  5
209
330
1F
100
AcDbEntity
  8
0-C_ハッチ
  6
Continuous
 62
   120
370
     5
100
AcDbLine
 10
-3199.15050320037
 20
2394.357491406709
 30
0.0
 11
-3237.900565060325
 21
2358.477804499343
 31
0.0
  0
LINE
  5
20A
330
1F
100
AcDbEntity
  8
0-C_ハッチ
  6
Continuous
 62
   120
370
     5
100
AcDbLine
 10
-3199.15050320037
 20
3246.13385682218
 30
0.0
 11
-3210.90490822732
 21
3235.250148463892
 31
0.0
  0
LINE
  5
20B
330
1F
100
AcDbEntity
  8
0-2_扉
  6
Continuous
 62
     7
370
     9
100
AcDbLine
 10
-3199.15050320037
 20
3409.000257337414
 30
0.0
 11
-3199.15050320037
 21
1426.000148463891
 31
0.0
  0
LINE
  5
20C
330
1F
100
AcDbEntity
  8
0-2_扉
  6
Continuous
 62
     7
370
     9
100
AcDbLine
 10
-3789.150453712404
 20
3409.000257337414
 30
0.0
 11
-3789.150453712404
 21
1426.000148463891
 31
0.0
  0
LINE
  5
20D
330
1F
100
AcDbEntity
  8
0-2_扉
  6
Continuous
 62
     7
370
     9
100
AcDbLine
 10
-3737.900453712404
 20
2267.749964533624
 30
0.0
 11
-3737.900453712404
 21
2228.999964533624
 31
0.0
  0
LINE
  5
20E
330
1F
100
AcDbEntity
  8
0-2_扉
  6
Continuous
 62
     7
370
     9
100
AcDbLine
 10
-3750.400453712404
 20
2267.749964533624
 30
0.0
 11
-3750.400453712404
 21
2228.999964533624
 31
0.0
  0
LINE
  5
20F
330
1F
100
AcDbEntity
  8
0-2_扉
  6
JWW_CENTER1
 62
     7
370
     9
100
AcDbLine
 10
-3744.150453712404
 20
2207.929890305649
 30
0.0
 11
-3744.150453712404
 21
3294.566545272904
 31
0.0
  0
LINE
  5
210
330
1F
100
AcDbEntity
  8
0-2_扉
  6
Continuous
 62
     7
370
     9
100
AcDbLine
 10
-3737.900453712404
 20
3274.000195477458
 30
0.0
 11
-3737.900453712404
 21
3235.250195477458
 31
0.0
  0
LINE
  5
211
330
1F
100
AcDbEntity
  8
0-2_扉
  6
Continuous
 62
     7
370
     9
100
AcDbLine
 10
-3750.400453712404
 20
3274.000195477458
 30
0.0
 11
-3750.400453712404
 21
3235.250195477458
 31
0.0
  0
LINE
  5
212
330
1F
100
AcDbEntity
  8
0-2_扉
  6
Continuous
 62
     7
370
     9
100
AcDbLine
 10
-3750.400453712404
 20
3222.750195477457
 30
0.0
 11
-3750.400453712404
 21
2280.249964533624
 31
0.0
  0
LINE
  5
213
330
1F
100
AcDbEntity
  8
0-2_扉
  6
Continuous
 62
     7
370
     9
100
AcDbLine
 10
-3737.900453712404
 20
3222.750195477457
 30
0.0
 11
-3737.900453712404
 21
2280.249964533624
 31
0.0
  0
LINE
  5
214
330
1F
100
AcDbEntity
  8
0-2_扉
  6
JWW_CENTER1
 62
     7
370
     9
100
AcDbLine
 10
-3244.150565060324
 20
2207.929890305649
 30
0.0
 11
-3244.150565060324
 21
3294.566545272904
 31
0.0
  0
LINE
  5
215
330
1F
100
AcDbEntity
  8
0-2_扉
  6
Continuous
 62
     7
370
     9
100
AcDbLine
 10
-3237.900565060325
 20
3274.000195477458
 30
0.0
 11
-3237.900565060325
 21
3235.250195477458
 31
0.0
  0
LINE
  5
216
330
1F
100
AcDbEntity
  8
0-2_扉
  6
Continuous
 62
     7
370
     9
100
AcDbLine
 10
-3250.400565060325
 20
3274.000195477458
 30
0.0
 11
-3250.400565060325
 21
3235.250195477458
 31
0.0
  0
LINE
  5
217
330
1F
100
AcDbEntity
  8
0-2_扉
  6
Continuous
 62
     7
370
     9
100
AcDbLine
 10
-3250.400565060325
 20
3222.750195477457
 30
0.0
 11
-3250.400565060325
 21
2280.249964533624
 31
0.0
  0
LINE
  5
218
330
1F
100
AcDbEntity
  8
0-2_扉
  6
Continuous
 62
     7
370
     9
100
AcDbLine
 10
-3250.400565060325
 20
2267.749964533624
 30
0.0
 11
-3250.400565060325
 21
2228.999964533624
 31
0.0
  0
LINE
  5
219
330
1F
100
AcDbEntity
  8
0-2_扉
  6
Continuous
 62
     7
370
     9
100
AcDbLine
 10
-3237.900565060325
 20
3222.750195477457
 30
0.0
 11
-3237.900565060325
 21
2280.249964533624
 31
0.0
  0
LINE
  5
21A
330
1F
100
AcDbEntity
  8
0-2_扉
  6
Continuous
 62
     7
370
     9
100
AcDbLine
 10
-3237.900565060325
 20
2267.749964533624
 30
0.0
 11
-3237.900565060325
 21
2228.999964533624
 31
0.0
  0
LINE
  5
21B
330
1F
100
AcDbEntity
  8
0-2_扉
  6
Continuous
 62
     7
370
     9
100
AcDbLine
 10
-3789.150453712404
 20
3235.250195477458
 30
0.0
 11
-3199.15050320037
 21
3235.250195477458
 31
0.0
  0
LINE
  5
21C
330
1F
100
AcDbEntity
  8
0-2_扉
  6
Continuous
 62
     7
370
     9
100
AcDbLine
 10
-3789.150453712404
 20
3222.750195477457
 30
0.0
 11
-3199.15050320037
 21
3222.750195477457
 31
0.0
  0
LINE
  5
21D
330
1F
100
AcDbEntity
  8
0-2_扉
  6
Continuous
 62
     7
370
     9
100
AcDbLine
 10
-3789.150453712404
 20
3274.000195477458
 30
0.0
 11
-3199.15050320037
 21
3274.000195477458
 31
0.0
  0
LINE
  5
21E
330
1F
100
AcDbEntity
  8
0-2_扉
  6
Continuous
 62
     7
370
     9
100
AcDbLine
 10
-3789.150453712404
 20
2280.249964533624
 30
0.0
 11
-3199.15050320037
 21
2280.249964533624
 31
0.0
  0
LINE
  5
21F
330
1F
100
AcDbEntity
  8
0-2_扉
  6
Continuous
 62
     7
370
     9
100
AcDbLine
 10
-3789.150453712404
 20
2267.749964533624
 30
0.0
 11
-3199.15050320037
 21
2267.749964533624
 31
0.0
  0
LINE
  5
220
330
1F
100
AcDbEntity
  8
0-2_扉
  6
Continuous
 62
     7
370
     9
100
AcDbLine
 10
-3199.15050320037
 20
2229.000148463891
 30
0.0
 11
-3789.150453712404
 21
2229.000148463891
 31
0.0
  0
LINE
  5
221
330
1F
100
AcDbEntity
  8
0-2_扉
  6
Continuous
 62
     7
370
     9
100
AcDbLine
 10
-3789.150453712404
 20
2124.002647606101
 30
0.0
 11
-3199.15050320037
 21
2124.002647606101
 31
0.0
  0
LINE
  5
222
330
1F
100
AcDbEntity
  8
0-2_扉
  6
Continuous
 62
     7
370
     9
100
AcDbLine
 10
-3789.150453712404
 20
1576.000148463891
 30
0.0
 11
-3199.15050320037
 21
1576.000148463891
 31
0.0
  0
LINE
  5
223
330
1F
100
AcDbEntity
  8
0-2_扉
  6
JWW_CENTER1
 62
     7
370
     9
100
AcDbLine
 10
-3809.344908886268
 20
2273.999964533624
 30
0.0
 11
-3179.352317568296
 21
2273.999964533624
 31
0.0
  0
LINE
  5
224
330
1F
100
AcDbEntity
  8
0-2_扉
  6
JWW_CENTER1
 62
     7
370
     9
100
AcDbLine
 10
-3809.344908886268
 20
3229.000195477458
 30
0.0
 11
-3179.352317568296
 21
3229.000195477458
 31
0.0
  0
LINE
  5
225
330
1F
100
AcDbEntity
  8
0-2_扉
  6
Continuous
 62
     7
370
     9
100
AcDbLine
 10
-3899.150453712406
 20
1426.000148463891
 30
0.0
 11
-3089.15050320037
 21
1426.000148463891
 31
0.0
  0
LINE
  5
226
330
1F
100
AcDbEntity
  8
0-2_扉
  6
Continuous
 62
     7
370
     9
100
AcDbLine
 10
-3899.150453712406
 20
3409.000195477458
 30
0.0
 11
-3089.15050320037
 21
3409.000195477458
 31
0.0
  0
LINE
  5
227
330
1F
100
AcDbEntity
  8
0-4_枠
  6
Continuous
 62
    92
370
    13
100
AcDbLine
 10
-2312.150503200371
 20
1418.000148463894
 30
0.0
 11
-4676.150503200371
 21
1418.000148463894
 31
0.0
  0
LINE
  5
228
330
1F
100
AcDbEntity
  8
0-4_枠
  6
Continuous
 62
    92
370
    13
100
AcDbLine
 10
-2312.150503200371
 20
1421.000148463894
 30
0.0
 11
-4676.150503200371
 21
1421.000148463894
 31
0.0
  0
LINE
  5
229
330
1F
100
AcDbEntity
  8
引手
  6
JWW_CENTER1
 62
     7
370
     9
100
AcDbLine
 10
-2322.076436374975
 20
2383.500148463891
 30
0.0
 11
-2394.586132984136
 21
2383.500148463891
 31
0.0
  0
LINE
  5
22A
330
1F
100
AcDbEntity
  8
引手
  6
JWW_CENTER1
 62
     7
370
     9
100
AcDbLine
 10
-2360.1506021763
 20
2298.269479928366
 30
0.0
 11
-2360.1506021763
 21
2469.119751352503
 31
0.0
  0
LINE
  5
22B
330
1F
100
AcDbEntity
  8
引手
  6
JWW_DASHED1
 62
     7
370
     9
100
AcDbLine
 10
-2376.150602176299
 20
2332.500148463891
 30
0.0
 11
-2376.150602176299
 21
2434.500148463891
 31
0.0
  0
LINE
  5
22C
330
1F
100
AcDbEntity
  8
引手
  6
JWW_DASHED1
 62
     7
370
     9
100
AcDbLine
 10
-2344.150602176301
 20
2332.500148463891
 30
0.0
 11
-2376.150602176299
 21
2332.500148463891
 31
0.0
  0
LINE
  5
22D
330
1F
100
AcDbEntity
  8
引手
  6
JWW_DASHED1
 62
     7
370
     9
100
AcDbLine
 10
-2344.150602176301
 20
2332.500148463891
 30
0.0
 11
-2344.150602176301
 21
2434.500148463891
 31
0.0
  0
LINE
  5
22E
330
1F
100
AcDbEntity
  8
引手
  6
JWW_DASHED1
 62
     7
370
     9
100
AcDbLine
 10
-2344.150602176301
 20
2434.500148463891
 30
0.0
 11
-2376.150602176299
 21
2434.500148463891
 31
0.0
  0
LINE
  5
22F
330
1F
100
AcDbEntity
  8
引手
  6
Continuous
 62
     7
370
     9
100
AcDbLine
 10
-2341.150602176299
 20
2328.500148463891
 30
0.0
 11
-2379.150602176301
 21
2328.500148463891
 31
0.0
  0
LINE
  5
230
330
1F
100
AcDbEntity
  8
引手
  6
Continuous
 62
     7
370
     9
100
AcDbLine
 10
-2347.6506021763
 20
2344.500148463891
 30
0.0
 11
-2372.6506021763
 21
2344.500148463891
 31
0.0
  0
LINE
  5
231
330
1F
100
AcDbEntity
  8
引手
  6
Continuous
 62
     7
370
     9
100
AcDbLine
 10
-2347.6506021763
 20
2422.500148463891
 30
0.0
 11
-2372.6506021763
 21
2422.500148463891
 31
0.0
  0
LINE
  5
232
330
1F
100
AcDbEntity
  8
引手
  6
Continuous
 62
     7
370
     9
100
AcDbLine
 10
-2341.150602176299
 20
2438.500148463891
 30
0.0
 11
-2379.150602176301
 21
2438.500148463891
 31
0.0
  0
LINE
  5
233
330
1F
100
AcDbEntity
  8
引手
  6
Continuous
 62
     7
370
     9
100
AcDbLine
 10
-2341.150602176299
 20
2328.500148463891
 30
0.0
 11
-2341.150602176299
 21
2438.500148463891
 31
0.0
  0
LINE
  5
234
330
1F
100
AcDbEntity
  8
引手
  6
Continuous
 62
     7
370
     9
100
AcDbLine
 10
-2347.6506021763
 20
2344.500148463891
 30
0.0
 11
-2347.6506021763
 21
2422.500148463891
 31
0.0
  0
LINE
  5
235
330
1F
100
AcDbEntity
  8
引手
  6
Continuous
 62
     7
370
     9
100
AcDbLine
 10
-2372.6506021763
 20
2344.500148463891
 30
0.0
 11
-2372.6506021763
 21
2422.500148463891
 31
0.0
  0
LINE
  5
236
330
1F
100
AcDbEntity
  8
引手
  6
Continuous
 62
     7
370
     9
100
AcDbLine
 10
-2379.150602176301
 20
2328.500148463891
 30
0.0
 11
-2379.150602176301
 21
2438.500148463891
 31
0.0
  0
LINE
  5
237
330
1F
100
AcDbEntity
  8
引手
  6
JWW_CENTER1
 62
     7
370
     9
100
AcDbLine
 10
-2322.076337399043
 20
2383.500148463891
 30
0.0
 11
-2394.586034008204
 21
2383.500148463891
 31
0.0
  0
LINE
  5
238
330
1F
100
AcDbEntity
  8
引手
  6
JWW_CENTER1
 62
     7
370
     9
100
AcDbLine
 10
-2360.150503200368
 20
2298.269479928366
 30
0.0
 11
-2360.150503200368
 21
2469.119751352503
 31
0.0
  0
LINE
  5
239
330
1F
100
AcDbEntity
  8
引手
  6
JWW_DASHED1
 62
     7
370
     9
100
AcDbLine
 10
-2376.150503200367
 20
2332.500148463891
 30
0.0
 11
-2376.150503200367
 21
2434.500148463891
 31
0.0
  0
LINE
  5
23A
330
1F
100
AcDbEntity
  8
引手
  6
JWW_DASHED1
 62
     7
370
     9
100
AcDbLine
 10
-2344.150503200369
 20
2332.500148463891
 30
0.0
 11
-2376.150503200367
 21
2332.500148463891
 31
0.0
  0
LINE
  5
23B
330
1F
100
AcDbEntity
  8
引手
  6
JWW_DASHED1
 62
     7
370
     9
100
AcDbLine
 10
-2344.150503200369
 20
2332.500148463891
 30
0.0
 11
-2344.150503200369
 21
2434.500148463891
 31
0.0
  0
LINE
  5
23C
330
1F
100
AcDbEntity
  8
引手
  6
JWW_DASHED1
 62
     7
370
     9
100
AcDbLine
 10
-2344.150503200369
 20
2434.500148463891
 30
0.0
 11
-2376.150503200367
 21
2434.500148463891
 31
0.0
  0
LINE
  5
23D
330
1F
100
AcDbEntity
  8
引手
  6
Continuous
 62
     7
370
     9
100
AcDbLine
 10
-2341.150503200367
 20
2328.500148463891
 30
0.0
 11
-2379.150503200368
 21
2328.500148463891
 31
0.0
  0
LINE
  5
23E
330
1F
100
AcDbEntity
  8
引手
  6
Continuous
 62
     7
370
     9
100
AcDbLine
 10
-2347.650503200367
 20
2344.500148463891
 30
0.0
 11
-2372.650503200367
 21
2344.500148463891
 31
0.0
  0
LINE
  5
23F
330
1F
100
AcDbEntity
  8
引手
  6
Continuous
 62
     7
370
     9
100
AcDbLine
 10
-2347.650503200367
 20
2422.500148463891
 30
0.0
 11
-2372.650503200367
 21
2422.500148463891
 31
0.0
  0
LINE
  5
240
330
1F
100
AcDbEntity
  8
引手
  6
Continuous
 62
     7
370
     9
100
AcDbLine
 10
-2341.150503200367
 20
2438.500148463891
 30
0.0
 11
-2379.150503200368
 21
2438.500148463891
 31
0.0
  0
LINE
  5
241
330
1F
100
AcDbEntity
  8
引手
  6
Continuous
 62
     7
370
     9
100
AcDbLine
 10
-2341.150503200367
 20
2328.500148463891
 30
0.0
 11
-2341.150503200367
 21
2438.500148463891
 31
0.0
  0
LINE
  5
242
330
1F
100
AcDbEntity
  8
引手
  6
Continuous
 62
     7
370
     9
100
AcDbLine
 10
-2347.650503200367
 20
2344.500148463891
 30
0.0
 11
-2347.650503200367
 21
2422.500148463891
 31
0.0
  0
LINE
  5
243
330
1F
100
AcDbEntity
  8
引手
  6
Continuous
 62
     7
370
     9
100
AcDbLine
 10
-2372.650503200367
 20
2344.500148463891
 30
0.0
 11
-2372.650503200367
 21
2422.500148463891
 31
0.0
  0
LINE
  5
244
330
1F
100
AcDbEntity
  8
引手
  6
Continuous
 62
     7
370
     9
100
AcDbLine
 10
-2379.150503200368
 20
2328.500148463891
 30
0.0
 11
-2379.150503200368
 21
2438.500148463891
 31
0.0
  0
LINE
  5
245
330
1F
100
AcDbEntity
  8
0-C_ハッチ
  6
Continuous
 62
   120
370
     5
100
AcDbLine
 10
-2450.498274398251
 20
3274.000148463892
 30
0.0
 11
-2419.150552688335
 21
3244.974480213969
 31
0.0
  0
LINE
  5
246
330
1F
100
AcDbEntity
  8
0-C_ハッチ
  6
Continuous
 62
   120
370
     5
100
AcDbLine
 10
-2424.955529137093
 20
2364.502038375173
 30
0.0
 11
-2419.150552688335
 21
2359.127060181879
 31
0.0
  0
LINE
  5
247
330
1F
100
AcDbEntity
  8
0-C_ハッチ
  6
Continuous
 62
   120
370
     5
100
AcDbLine
 10
-2487.295013384199
 20
3274.000148463892
 30
0.0
 11
-2470.400552688336
 21
3258.357129301055
 31
0.0
  0
LINE
  5
248
330
1F
100
AcDbEntity
  8
0-C_ハッチ
  6
Continuous
 62
   120
370
     5
100
AcDbLine
 10
-2457.900552688335
 20
3246.78305522698
 30
0.0
 11
-2445.4450133842
 21
3235.250148463892
 31
0.0
  0
LINE
  5
249
330
1F
100
AcDbEntity
  8
0-C_ハッチ
  6
Continuous
 62
   120
370
     5
100
AcDbLine
 10
-2431.945013384199
 20
3222.750148463892
 30
0.0
 11
-2419.150552688335
 21
3210.903425597351
 31
0.0
  0
LINE
  5
24A
330
1F
100
AcDbEntity
  8
0-C_ハッチ
  6
Continuous
 62
   120
370
     5
100
AcDbLine
 10
-2524.091752370146
 20
3274.000148463892
 30
0.0
 11
-2482.241752370147
 21
3235.250148463892
 31
0.0
  0
LINE
  5
24B
330
1F
100
AcDbEntity
  8
0-C_ハッチ
  6
Continuous
 62
   120
370
     5
100
AcDbLine
 10
-2457.900552688335
 20
3212.712000610362
 30
0.0
 11
-2419.150552688335
 21
3176.832370980732
 31
0.0
  0
LINE
  5
24C
330
1F
100
AcDbEntity
  8
0-C_ハッチ
  6
Continuous
 62
   120
370
     5
100
AcDbLine
 10
-2560.888491356095
 20
3274.000148463892
 30
0.0
 11
-2519.038491356095
 21
3235.250148463892
 31
0.0
  0
LINE
  5
24D
330
1F
100
AcDbEntity
  8
0-C_ハッチ
  6
Continuous
 62
   120
370
     5
100
AcDbLine
 10
-2597.685230342043
 20
3274.000148463892
 30
0.0
 11
-2555.835230342043
 21
3235.250148463892
 31
0.0
  0
LINE
  5
24E
330
1F
100
AcDbEntity
  8
0-C_ハッチ
  6
Continuous
 62
   120
370
     5
100
AcDbLine
 10
-2634.481969327991
 20
3274.000148463892
 30
0.0
 11
-2592.631969327991
 21
3235.250148463892
 31
0.0
  0
LINE
  5
24F
330
1F
100
AcDbEntity
  8
0-C_ハッチ
  6
Continuous
 62
   120
370
     5
100
AcDbLine
 10
-2671.278708313938
 20
3274.000148463892
 30
0.0
 11
-2629.428708313939
 21
3235.250148463892
 31
0.0
  0
LINE
  5
250
330
1F
100
AcDbEntity
  8
0-C_ハッチ
  6
Continuous
 62
   120
370
     5
100
AcDbLine
 10
-2708.075447299886
 20
3274.000148463892
 30
0.0
 11
-2666.225447299887
 21
3235.250148463892
 31
0.0
  0
LINE
  5
251
330
1F
100
AcDbEntity
  8
0-C_ハッチ
  6
Continuous
 62
   120
370
     5
100
AcDbLine
 10
-2744.872186285834
 20
3274.000148463892
 30
0.0
 11
-2703.022186285835
 21
3235.250148463892
 31
0.0
  0
LINE
  5
252
330
1F
100
AcDbEntity
  8
0-C_ハッチ
  6
Continuous
 62
   120
370
     5
100
AcDbLine
 10
-2781.668925271782
 20
3274.000148463892
 30
0.0
 11
-2739.818925271783
 21
3235.250148463892
 31
0.0
  0
LINE
  5
253
330
1F
100
AcDbEntity
  8
0-C_ハッチ
  6
Continuous
 62
   120
370
     5
100
AcDbLine
 10
-2818.46566425773
 20
3274.000148463892
 30
0.0
 11
-2776.61566425773
 21
3235.250148463892
 31
0.0
  0
LINE
  5
254
330
1F
100
AcDbEntity
  8
0-C_ハッチ
  6
Continuous
 62
   120
370
     5
100
AcDbLine
 10
-2855.262403243678
 20
3274.000148463892
 30
0.0
 11
-2813.412403243679
 21
3235.250148463892
 31
0.0
  0
LINE
  5
255
330
1F
100
AcDbEntity
  8
0-C_ハッチ
  6
Continuous
 62
   120
370
     5
100
AcDbLine
 10
-2505.538491356096
 20
3222.750148463892
 30
0.0
 11
-2470.400552688336
 21
3190.215020067817
 31
0.0
  0
LINE
  5
256
330
1F
100
AcDbEntity
  8
0-C_ハッチ
  6
Continuous
 62
   120
370
     5
100
AcDbLine
 10
-2457.900552688335
 20
3178.640945993743
 30
0.0
 11
-2419.150552688335
 21
3142.761316364113
 31
0.0
  0
LINE
  5
257
330
1F
100
AcDbEntity
  8
0-C_ハッチ
  6
Continuous
 62
   120
370
     5
100
AcDbLine
 10
-2579.131969327992
 20
3222.750148463892
 30
0.0
 11
-2470.400552688336
 21
3122.07291083458
 31
0.0
  0
LINE
  5
258
330
1F
100
AcDbEntity
  8
0-C_ハッチ
  6
Continuous
 62
   120
370
     5
100
AcDbLine
 10
-2457.900552688335
 20
3110.498836760505
 30
0.0
 11
-2419.150552688335
 21
3074.619207130876
 31
0.0
  0
LINE
  5
259
330
1F
100
AcDbEntity
  8
0-C_ハッチ
  6
Continuous
 62
   120
370
     5
100
AcDbLine
 10
-2457.900552688335
 20
2769.788290594317
 30
0.0
 11
-2419.150552688335
 21
2733.908660964687
 31
0.0
  0
LINE
  5
25A
330
1F
100
AcDbEntity
  8
0-C_ハッチ
  6
Continuous
 62
   120
370
     5
100
AcDbLine
 10
-2457.900552688335
 20
2735.717235977698
 30
0.0
 11
-2419.150552688335
 21
2699.837606348068
 31
0.0
  0
LINE
  5
25B
330
1F
100
AcDbEntity
  8
0-C_ハッチ
  6
Continuous
 62
   120
370
     5
100
AcDbLine
 10
-2457.900552688335
 20
2701.646181361079
 30
0.0
 11
-2419.150552688335
 21
2665.766551731449
 31
0.0
  0
LINE
  5
25C
330
1F
100
AcDbEntity
  8
0-C_ハッチ
  6
Continuous
 62
   120
370
     5
100
AcDbLine
 10
-2457.900552688335
 20
2667.575126744461
 30
0.0
 11
-2419.150552688335
 21
2631.695497114831
 31
0.0
  0
LINE
  5
25D
330
1F
100
AcDbEntity
  8
0-C_ハッチ
  6
Continuous
 62
   120
370
     5
100
AcDbLine
 10
-2457.900552688335
 20
2633.504072127842
 30
0.0
 11
-2419.150552688335
 21
2597.624442498212
 31
0.0
  0
LINE
  5
25E
330
1F
100
AcDbEntity
  8
0-C_ハッチ
  6
Continuous
 62
   120
370
     5
100
AcDbLine
 10
-2457.900552688335
 20
2599.433017511223
 30
0.0
 11
-2419.150552688335
 21
2563.553387881593
 31
0.0
  0
LINE
  5
25F
330
1F
100
AcDbEntity
  8
0-C_ハッチ
  6
Continuous
 62
   120
370
     5
100
AcDbLine
 10
-2457.900552688335
 20
2565.361962894604
 30
0.0
 11
-2419.150552688335
 21
2529.482333264974
 31
0.0
  0
LINE
  5
260
330
1F
100
AcDbEntity
  8
0-C_ハッチ
  6
Continuous
 62
   120
370
     5
100
AcDbLine
 10
-2457.900552688335
 20
2531.290908277984
 30
0.0
 11
-2419.150552688335
 21
2495.411278648355
 31
0.0
  0
LINE
  5
261
330
1F
100
AcDbEntity
  8
0-C_ハッチ
  6
Continuous
 62
   120
370
     5
100
AcDbLine
 10
-2457.900552688335
 20
2497.219853661366
 30
0.0
 11
-2419.150552688335
 21
2461.340224031736
 31
0.0
  0
LINE
  5
262
330
1F
100
AcDbEntity
  8
0-C_ハッチ
  6
Continuous
 62
   120
370
     5
100
AcDbLine
 10
-2457.900552688335
 20
2463.148799044746
 30
0.0
 11
-2419.150552688335
 21
2427.269169415116
 31
0.0
  0
LINE
  5
263
330
1F
100
AcDbEntity
  8
0-C_ハッチ
  6
Continuous
 62
   120
370
     5
100
AcDbLine
 10
-2457.900552688335
 20
2429.077744428128
 30
0.0
 11
-2419.150552688335
 21
2393.198114798499
 31
0.0
  0
LINE
  5
264
330
1F
100
AcDbEntity
  8
0-C_ハッチ
  6
Continuous
 62
   120
370
     5
100
AcDbLine
 10
-2457.900552688335
 20
2326.864580578272
 30
0.0
 11
-2419.150552688335
 21
2290.984950948642
 31
0.0
  0
LINE
  5
265
330
1F
100
AcDbEntity
  8
0-C_ハッチ
  6
Continuous
 62
   120
370
     5
100
AcDbLine
 10
-2457.900552688335
 20
2258.722471345034
 30
0.0
 11
-2425.800461792369
 21
2229.00016495988
 31
0.0
  0
LINE
  5
266
330
1F
100
AcDbEntity
  8
0-C_ハッチ
  6
Continuous
 62
   120
370
     5
100
AcDbLine
 10
-2457.900552688335
 20
2395.006689811508
 30
0.0
 11
-2440.07220472323
 21
2378.498960214189
 31
0.0
  0
LINE
  5
267
330
1F
100
AcDbEntity
  8
0-C_ハッチ
  6
Continuous
 62
   120
370
     5
100
AcDbLine
 10
-2542.335230342043
 20
3222.750148463892
 30
0.0
 11
-2470.400552688336
 21
3156.143965451199
 31
0.0
  0
LINE
  5
268
330
1F
100
AcDbEntity
  8
0-C_ハッチ
  6
Continuous
 62
   120
370
     5
100
AcDbLine
 10
-2457.900552688335
 20
3144.569891377124
 30
0.0
 11
-2419.150552688335
 21
3108.690261747495
 31
0.0
  0
LINE
  5
269
330
1F
100
AcDbEntity
  8
0-C_ハッチ
  6
Continuous
 62
   120
370
     5
100
AcDbLine
 10
-2615.928708313939
 20
3222.750148463892
 30
0.0
 11
-2470.400552688336
 21
3088.001856217961
 31
0.0
  0
LINE
  5
26A
330
1F
100
AcDbEntity
  8
0-C_ハッチ
  6
Continuous
 62
   120
370
     5
100
AcDbLine
 10
-2457.900552688335
 20
3076.427782143886
 30
0.0
 11
-2419.150552688335
 21
3040.548152514257
 31
0.0
  0
LINE
  5
26B
330
1F
100
AcDbEntity
  8
0-C_ハッチ
  6
Continuous
 62
   120
370
     5
100
AcDbLine
 10
-2652.725447299887
 20
3222.750148463892
 30
0.0
 11
-2470.400552688336
 21
3053.930801601343
 31
0.0
  0
LINE
  5
26C
330
1F
100
AcDbEntity
  8
0-C_ハッチ
  6
Continuous
 62
   120
370
     5
100
AcDbLine
 10
-2457.900552688335
 20
3042.356727527268
 30
0.0
 11
-2419.150552688335
 21
3006.477097897638
 31
0.0
  0
LINE
  5
26D
330
1F
100
AcDbEntity
  8
0-C_ハッチ
  6
Continuous
 62
   120
370
     5
100
AcDbLine
 10
-2689.522186285835
 20
3222.750148463892
 30
0.0
 11
-2470.400552688336
 21
3019.859746984724
 31
0.0
  0
LINE
  5
26E
330
1F
100
AcDbEntity
  8
0-C_ハッチ
  6
Continuous
 62
   120
370
     5
100
AcDbLine
 10
-2457.900552688335
 20
3008.285672910649
 30
0.0
 11
-2419.150552688335
 21
2972.406043281019
 31
0.0
  0
LINE
  5
26F
330
1F
100
AcDbEntity
  8
0-C_ハッチ
  6
Continuous
 62
   120
370
     5
100
AcDbLine
 10
-2726.318925271783
 20
3222.750148463892
 30
0.0
 11
-2470.400552688336
 21
2985.788692368105
 31
0.0
  0
LINE
  5
270
330
1F
100
AcDbEntity
  8
0-C_ハッチ
  6
Continuous
 62
   120
370
     5
100
AcDbLine
 10
-2457.900552688335
 20
2974.214618294031
 30
0.0
 11
-2419.150552688335
 21
2938.334988664401
 31
0.0
  0
LINE
  5
271
330
1F
100
AcDbEntity
  8
0-C_ハッチ
  6
Continuous
 62
   120
370
     5
100
AcDbLine
 10
-2763.115664257731
 20
3222.750148463892
 30
0.0
 11
-2470.400552688336
 21
2951.717637751486
 31
0.0
  0
LINE
  5
272
330
1F
100
AcDbEntity
  8
0-C_ハッチ
  6
Continuous
 62
   120
370
     5
100
AcDbLine
 10
-2457.900552688335
 20
2940.143563677411
 30
0.0
 11
-2419.150552688335
 21
2904.263934047782
 31
0.0
  0
LINE
  5
273
330
1F
100
AcDbEntity
  8
0-C_ハッチ
  6
Continuous
 62
   120
370
     5
100
AcDbLine
 10
-2799.912403243679
 20
3222.750148463892
 30
0.0
 11
-2470.400552688336
 21
2917.646583134867
 31
0.0
  0
LINE
  5
274
330
1F
100
AcDbEntity
  8
0-C_ハッチ
  6
Continuous
 62
   120
370
     5
100
AcDbLine
 10
-2457.900552688335
 20
2906.072509060792
 30
0.0
 11
-2419.150552688335
 21
2870.192879431163
 31
0.0
  0
LINE
  5
275
330
1F
100
AcDbEntity
  8
0-C_ハッチ
  6
Continuous
 62
   120
370
     5
100
AcDbLine
 10
-2836.709142229628
 20
3222.750148463892
 30
0.0
 11
-2470.400552688336
 21
2883.575528518248
 31
0.0
  0
LINE
  5
276
330
1F
100
AcDbEntity
  8
0-C_ハッチ
  6
Continuous
 62
   120
370
     5
100
AcDbLine
 10
-2457.900552688335
 20
2872.001454444173
 30
0.0
 11
-2419.150552688335
 21
2836.121824814544
 31
0.0
  0
LINE
  5
277
330
1F
100
AcDbEntity
  8
0-C_ハッチ
  6
Continuous
 62
   120
370
     5
100
AcDbLine
 10
-2457.900552688335
 20
2837.930399827555
 30
0.0
 11
-2419.150552688335
 21
2802.050770197925
 31
0.0
  0
LINE
  5
278
330
1F
100
AcDbEntity
  8
0-C_ハッチ
  6
Continuous
 62
   120
370
     5
100
AcDbLine
 10
-2457.900552688335
 20
2803.859345210936
 30
0.0
 11
-2419.150552688335
 21
2767.979715581306
 31
0.0
  0
LINE
  5
279
330
1F
100
AcDbEntity
  8
0-C_ハッチ
  6
Continuous
 62
   120
370
     5
100
AcDbLine
 10
-2457.900552688335
 20
2360.93563519489
 30
0.0
 11
-2419.150552688335
 21
2325.05600556526
 31
0.0
  0
LINE
  5
27A
330
1F
100
AcDbEntity
  8
0-C_ハッチ
  6
Continuous
 62
   120
370
     5
100
AcDbLine
 10
-2457.900552688335
 20
2292.793525961653
 30
0.0
 11
-2444.353455571411
 21
2280.249917520057
 31
0.0
  0
LINE
  5
27B
330
1F
100
AcDbEntity
  8
0-C_ハッチ
  6
Continuous
 62
   120
370
     5
100
AcDbLine
 10
-2430.853455571412
 20
2267.749917520058
 30
0.0
 11
-2419.150552688335
 21
2256.913896332023
 31
0.0
  0
LINE
  5
27C
330
1F
100
AcDbEntity
  8
0-C_ハッチ
  6
Continuous
 62
   120
370
     5
100
AcDbLine
 10
-2504.446933543308
 20
2267.749917520058
 30
0.0
 11
-2470.400552688336
 21
2236.225490802491
 31
0.0
  0
LINE
  5
27D
330
1F
100
AcDbEntity
  8
0-C_ハッチ
  6
Continuous
 62
   120
370
     5
100
AcDbLine
 10
-2541.243672529257
 20
2267.749917520058
 30
0.0
 11
-2499.393939764266
 21
2229.00016495988
 31
0.0
  0
LINE
  5
27E
330
1F
100
AcDbEntity
  8
0-C_ハッチ
  6
Continuous
 62
   120
370
     5
100
AcDbLine
 10
-2578.040411515204
 20
2267.749917520058
 30
0.0
 11
-2536.190678750213
 21
2229.00016495988
 31
0.0
  0
LINE
  5
27F
330
1F
100
AcDbEntity
  8
0-C_ハッチ
  6
Continuous
 62
   120
370
     5
100
AcDbLine
 10
-2614.837150501152
 20
2267.749917520058
 30
0.0
 11
-2572.987417736161
 21
2229.00016495988
 31
0.0
  0
LINE
  5
280
330
1F
100
AcDbEntity
  8
0-C_ハッチ
  6
Continuous
 62
   120
370
     5
100
AcDbLine
 10
-2651.6338894871
 20
2267.749917520058
 30
0.0
 11
-2609.784156722108
 21
2229.00016495988
 31
0.0
  0
LINE
  5
281
330
1F
100
AcDbEntity
  8
0-C_ハッチ
  6
Continuous
 62
   120
370
     5
100
AcDbLine
 10
-2688.430628473047
 20
2267.749917520058
 30
0.0
 11
-2646.580895708056
 21
2229.00016495988
 31
0.0
  0
LINE
  5
282
330
1F
100
AcDbEntity
  8
0-C_ハッチ
  6
Continuous
 62
   120
370
     5
100
AcDbLine
 10
-2725.227367458995
 20
2267.749917520058
 30
0.0
 11
-2683.377634694004
 21
2229.00016495988
 31
0.0
  0
LINE
  5
283
330
1F
100
AcDbEntity
  8
0-C_ハッチ
  6
Continuous
 62
   120
370
     5
100
AcDbLine
 10
-2762.024106444943
 20
2267.749917520058
 30
0.0
 11
-2720.174373679952
 21
2229.00016495988
 31
0.0
  0
LINE
  5
284
330
1F
100
AcDbEntity
  8
0-C_ハッチ
  6
Continuous
 62
   120
370
     5
100
AcDbLine
 10
-2798.820845430891
 20
2267.749917520058
 30
0.0
 11
-2756.9711126659
 21
2229.00016495988
 31
0.0
  0
LINE
  5
285
330
1F
100
AcDbEntity
  8
0-C_ハッチ
  6
Continuous
 62
   120
370
     5
100
AcDbLine
 10
-2835.61758441684
 20
2267.749917520058
 30
0.0
 11
-2793.767851651848
 21
2229.00016495988
 31
0.0
  0
LINE
  5
286
330
1F
100
AcDbEntity
  8
0-C_ハッチ
  6
Continuous
 62
   120
370
     5
100
AcDbLine
 10
-2892.059142229626
 20
3274.000148463892
 30
0.0
 11
-2850.209142229628
 21
3235.250148463892
 31
0.0
  0
LINE
  5
287
330
1F
100
AcDbEntity
  8
0-C_ハッチ
  6
Continuous
 62
   120
370
     5
100
AcDbLine
 10
-2928.855881215574
 20
3274.000148463892
 30
0.0
 11
-2887.005881215575
 21
3235.250148463891
 31
0.0
  0
LINE
  5
288
330
1F
100
AcDbEntity
  8
0-C_ハッチ
  6
Continuous
 62
   120
370
     5
100
AcDbLine
 10
-2873.505881215574
 20
3222.750148463891
 30
0.0
 11
-2470.400552688336
 21
2849.504473901629
 31
0.0
  0
LINE
  5
289
330
1F
100
AcDbEntity
  8
0-C_ハッチ
  6
Continuous
 62
   120
370
     5
100
AcDbLine
 10
-2910.302620201523
 20
3222.750148463891
 30
0.0
 11
-2470.400552688336
 21
2815.433419285011
 31
0.0
  0
LINE
  5
28A
330
1F
100
AcDbEntity
  8
0-C_ハッチ
  6
Continuous
 62
   120
370
     5
100
AcDbLine
 10
-2872.414323402788
 20
2267.749917520058
 30
0.0
 11
-2830.564590637796
 21
2229.00016495988
 31
0.0
  0
LINE
  5
28B
330
1F
100
AcDbEntity
  8
0-C_ハッチ
  6
Continuous
 62
   120
370
     5
100
AcDbLine
 10
-2909.211062388736
 20
2267.749917520058
 30
0.0
 11
-2867.361062388736
 21
2228.999917520057
 31
0.0
  0
LINE
  5
28C
330
1F
100
AcDbEntity
  8
0-C_ハッチ
  6
Continuous
 62
   120
370
     5
100
AcDbLine
 10
-2947.099359187471
 20
3222.750148463892
 30
0.0
 11
-2470.400552688336
 21
2781.362364668392
 31
0.0
  0
LINE
  5
28D
330
1F
100
AcDbEntity
  8
0-C_ハッチ
  6
Continuous
 62
   120
370
     5
100
AcDbLine
 10
-2946.007801374684
 20
2267.749917520058
 30
0.0
 11
-2904.157801374684
 21
2228.999917520057
 31
0.0
  0
LINE
  5
28E
330
1F
100
AcDbEntity
  8
0-C_ハッチ
  6
Continuous
 62
   120
370
     5
100
AcDbLine
 10
-2957.900441340415
 20
3266.822205073978
 30
0.0
 11
-2923.802620201523
 21
3235.250148463891
 31
0.0
  0
LINE
  5
28F
330
1F
100
AcDbEntity
  8
0-C_ハッチ
  6
Continuous
 62
   120
370
     5
100
AcDbLine
 10
-3002.449359187471
 20
3274.000148463892
 30
0.0
 11
-2970.400441340415
 21
3244.325224531433
 31
0.0
  0
LINE
  5
290
330
1F
100
AcDbEntity
  8
0-C_ハッチ
  6
Continuous
 62
   120
370
     5
100
AcDbLine
 10
-2983.896098173419
 20
3222.750148463892
 30
0.0
 11
-2970.400441340415
 21
3210.254169914814
 31
0.0
  0
LINE
  5
291
330
1F
100
AcDbEntity
  8
0-C_ハッチ
  6
Continuous
 62
   120
370
     5
100
AcDbLine
 10
-2957.900441340415
 20
3198.680095840739
 30
0.0
 11
-2470.400552688336
 21
2747.291310051773
 31
0.0
  0
LINE
  5
292
330
1F
100
AcDbEntity
  8
0-C_ハッチ
  6
Continuous
 62
   120
370
     5
100
AcDbLine
 10
-2957.900441340415
 20
3130.537986607502
 30
0.0
 11
-2470.400552688336
 21
2679.149200818536
 31
0.0
  0
LINE
  5
293
330
1F
100
AcDbEntity
  8
0-C_ハッチ
  6
Continuous
 62
   120
370
     5
100
AcDbLine
 10
-2957.900441340415
 20
3164.609041224121
 30
0.0
 11
-2470.400552688336
 21
2713.220255435154
 31
0.0
  0
LINE
  5
294
330
1F
100
AcDbEntity
  8
0-C_ハッチ
  6
Continuous
 62
   120
370
     5
100
AcDbLine
 10
-2957.900441340415
 20
3096.466931990883
 30
0.0
 11
-2470.400552688336
 21
2645.078146201917
 31
0.0
  0
LINE
  5
295
330
1F
100
AcDbEntity
  8
0-C_ハッチ
  6
Continuous
 62
   120
370
     5
100
AcDbLine
 10
-2957.900441340415
 20
2312.83267580865
 30
0.0
 11
-2922.711062388736
 21
2280.249917520057
 31
0.0
  0
LINE
  5
296
330
1F
100
AcDbEntity
  8
0-C_ハッチ
  6
Continuous
 62
   120
370
     5
100
AcDbLine
 10
-2957.900441340415
 20
2380.974785041887
 30
0.0
 11
-2849.117584416839
 21
2280.249917520057
 31
0.0
  0
LINE
  5
297
330
1F
100
AcDbEntity
  8
0-C_ハッチ
  6
Continuous
 62
   120
370
     5
100
AcDbLine
 10
-2957.900441340415
 20
2823.898495057932
 30
0.0
 11
-2476.296108884865
 21
2377.968557599086
 31
0.0
  0
LINE
  5
298
330
1F
100
AcDbEntity
  8
0-C_ハッチ
  6
Continuous
 62
   120
370
     5
100
AcDbLine
 10
-2957.900441340415
 20
3062.395877374263
 30
0.0
 11
-2470.400552688336
 21
2611.007091585298
 31
0.0
  0
LINE
  5
299
330
1F
100
AcDbEntity
  8
0-C_ハッチ
  6
Continuous
 62
   120
370
     5
100
AcDbLine
 10
-2957.900441340415
 20
3028.324822757645
 30
0.0
 11
-2470.400552688336
 21
2576.936036968678
 31
0.0
  0
LINE
  5
29A
330
1F
100
AcDbEntity
  8
0-C_ハッチ
  6
Continuous
 62
   120
370
     5
100
AcDbLine
 10
-2957.900441340415
 20
2994.253768141026
 30
0.0
 11
-2470.400552688336
 21
2542.864982352059
 31
0.0
  0
LINE
  5
29B
330
1F
100
AcDbEntity
  8
0-C_ハッチ
  6
Continuous
 62
   120
370
     5
100
AcDbLine
 10
-2957.900441340415
 20
2960.182713524408
 30
0.0
 11
-2470.400552688336
 21
2508.793927735441
 31
0.0
  0
LINE
  5
29C
330
1F
100
AcDbEntity
  8
0-C_ハッチ
  6
Continuous
 62
   120
370
     5
100
AcDbLine
 10
-2957.900441340415
 20
2926.111658907788
 30
0.0
 11
-2470.400552688336
 21
2474.722873118821
 31
0.0
  0
LINE
  5
29D
330
1F
100
AcDbEntity
  8
0-C_ハッチ
  6
Continuous
 62
   120
370
     5
100
AcDbLine
 10
-2957.900441340415
 20
2892.04060429117
 30
0.0
 11
-2470.400552688336
 21
2440.651818502203
 31
0.0
  0
LINE
  5
29E
330
1F
100
AcDbEntity
  8
0-C_ハッチ
  6
Continuous
 62
   120
370
     5
100
AcDbLine
 10
-2957.900441340415
 20
2789.827440441313
 30
0.0
 11
-2470.400552688336
 21
2338.438654652346
 31
0.0
  0
LINE
  5
29F
330
1F
100
AcDbEntity
  8
0-C_ハッチ
  6
Continuous
 62
   120
370
     5
100
AcDbLine
 10
-2957.900441340415
 20
2755.756385824694
 30
0.0
 11
-2470.400552688336
 21
2304.367600035728
 31
0.0
  0
LINE
  5
2A0
330
1F
100
AcDbEntity
  8
0-C_ハッチ
  6
Continuous
 62
   120
370
     5
100
AcDbLine
 10
-2957.900441340415
 20
2857.969549674551
 30
0.0
 11
-2470.400552688336
 21
2406.580763885583
 31
0.0
  0
LINE
  5
2A1
330
1F
100
AcDbEntity
  8
0-C_ハッチ
  6
Continuous
 62
   120
370
     5
100
AcDbLine
 10
-2957.900441340415
 20
2721.685331208076
 30
0.0
 11
-2481.15019455736
 21
2280.249917520057
 31
0.0
  0
LINE
  5
2A2
330
1F
100
AcDbEntity
  8
0-C_ハッチ
  6
Continuous
 62
   120
370
     5
100
AcDbLine
 10
-2957.900441340415
 20
2687.614276591456
 30
0.0
 11
-2517.946933543308
 21
2280.249917520057
 31
0.0
  0
LINE
  5
2A3
330
1F
100
AcDbEntity
  8
0-C_ハッチ
  6
Continuous
 62
   120
370
     5
100
AcDbLine
 10
-2957.900441340415
 20
2653.543221974838
 30
0.0
 11
-2554.743672529257
 21
2280.249917520057
 31
0.0
  0
LINE
  5
2A4
330
1F
100
AcDbEntity
  8
0-C_ハッチ
  6
Continuous
 62
   120
370
     5
100
AcDbLine
 10
-2957.900441340415
 20
2619.472167358219
 30
0.0
 11
-2591.540411515204
 21
2280.249917520057
 31
0.0
  0
LINE
  5
2A5
330
1F
100
AcDbEntity
  8
0-C_ハッチ
  6
Continuous
 62
   120
370
     5
100
AcDbLine
 10
-2957.900441340415
 20
2585.4011127416
 30
0.0
 11
-2628.337150501152
 21
2280.249917520057
 31
0.0
  0
LINE
  5
2A6
330
1F
100
AcDbEntity
  8
0-C_ハッチ
  6
Continuous
 62
   120
370
     5
100
AcDbLine
 10
-2957.900441340415
 20
2551.330058124981
 30
0.0
 11
-2665.1338894871
 21
2280.249917520057
 31
0.0
  0
LINE
  5
2A7
330
1F
100
AcDbEntity
  8
0-C_ハッチ
  6
Continuous
 62
   120
370
     5
100
AcDbLine
 10
-2957.900441340415
 20
2517.259003508363
 30
0.0
 11
-2701.930628473047
 21
2280.249917520057
 31
0.0
  0
LINE
  5
2A8
330
1F
100
AcDbEntity
  8
0-C_ハッチ
  6
Continuous
 62
   120
370
     5
100
AcDbLine
 10
-2957.900441340415
 20
2483.187948891744
 30
0.0
 11
-2738.727367458995
 21
2280.249917520057
 31
0.0
  0
LINE
  5
2A9
330
1F
100
AcDbEntity
  8
0-C_ハッチ
  6
Continuous
 62
   120
370
     5
100
AcDbLine
 10
-2957.900441340415
 20
2449.116894275125
 30
0.0
 11
-2775.524106444943
 21
2280.249917520057
 31
0.0
  0
LINE
  5
2AA
330
1F
100
AcDbEntity
  8
0-C_ハッチ
  6
Continuous
 62
   120
370
     5
100
AcDbLine
 10
-2957.900441340415
 20
2415.045839658506
 30
0.0
 11
-2812.320845430891
 21
2280.249917520057
 31
0.0
  0
LINE
  5
2AB
330
1F
100
AcDbEntity
  8
0-C_ハッチ
  6
Continuous
 62
   120
370
     5
100
AcDbLine
 10
-2957.900441340415
 20
2346.903730425268
 30
0.0
 11
-2885.914323402787
 21
2280.249917520057
 31
0.0
  0
LINE
  5
2AC
330
1F
100
AcDbEntity
  8
0-C_ハッチ
  6
Continuous
 62
   120
370
     5
100
AcDbLine
 10
-2982.804540360632
 20
2267.749917520058
 30
0.0
 11
-2970.400441340415
 21
2256.264640649487
 31
0.0
  0
LINE
  5
2AD
330
1F
100
AcDbEntity
  8
0-C_ハッチ
  6
Continuous
 62
   120
370
     5
100
AcDbLine
 10
-2957.900441340415
 20
2244.690566575413
 30
0.0
 11
-2940.954672196569
 21
2229.00003959037
 31
0.0
  0
LINE
  5
2AE
330
1F
100
AcDbEntity
  8
0-C_ハッチ
  6
Continuous
 62
   120
370
     5
100
AcDbLine
 10
-3009.15050320037
 20
2258.073272940233
 30
0.0
 11
-2977.751411182518
 21
2229.00003959037
 31
0.0
  0
LINE
  5
2AF
330
1F
100
AcDbEntity
  8
0-C_ハッチ
  6
Continuous
 62
   120
370
     5
100
AcDbLine
 10
-3009.15050320037
 20
2292.144327556853
 30
0.0
 11
-2996.304540360632
 21
2280.249917520058
 31
0.0
  0
LINE
  5
2B0
330
1F
100
AcDbEntity
  8
0-C_ハッチ
  6
Continuous
 62
   120
370
     5
100
AcDbLine
 10
-3009.15050320037
 20
3212.062802205561
 30
0.0
 11
-2970.400441340415
 21
3176.183115298195
 31
0.0
  0
LINE
  5
2B1
330
1F
100
AcDbEntity
  8
0-C_ハッチ
  6
Continuous
 62
   120
370
     5
100
AcDbLine
 10
-3009.15050320037
 20
2326.215382173472
 30
0.0
 11
-2970.400441340415
 21
2290.335695266106
 31
0.0
  0
LINE
  5
2B2
330
1F
100
AcDbEntity
  8
0-C_ハッチ
  6
Continuous
 62
   120
370
     5
100
AcDbLine
 10
-3009.15050320037
 20
3177.991747588943
 30
0.0
 11
-2970.400441340415
 21
3142.112060681576
 31
0.0
  0
LINE
  5
2B3
330
1F
100
AcDbEntity
  8
0-C_ハッチ
  6
Continuous
 62
   120
370
     5
100
AcDbLine
 10
-3009.15050320037
 20
3143.920692972323
 30
0.0
 11
-2970.400441340415
 21
3108.041006064957
 31
0.0
  0
LINE
  5
2B4
330
1F
100
AcDbEntity
  8
0-C_ハッチ
  6
Continuous
 62
   120
370
     5
100
AcDbLine
 10
-3009.15050320037
 20
2360.286436790091
 30
0.0
 11
-2970.400441340415
 21
2324.406749882724
 31
0.0
  0
LINE
  5
2B5
330
1F
100
AcDbEntity
  8
0-C_ハッチ
  6
Continuous
 62
   120
370
     5
100
AcDbLine
 10
-3009.15050320037
 20
2428.428546023328
 30
0.0
 11
-2970.400441340415
 21
2392.548859115961
 31
0.0
  0
LINE
  5
2B6
330
1F
100
AcDbEntity
  8
0-C_ハッチ
  6
Continuous
 62
   120
370
     5
100
AcDbLine
 10
-3009.15050320037
 20
2871.352256039373
 30
0.0
 11
-2970.400441340415
 21
2835.472569132006
 31
0.0
  0
LINE
  5
2B7
330
1F
100
AcDbEntity
  8
0-C_ハッチ
  6
Continuous
 62
   120
370
     5
100
AcDbLine
 10
-3009.15050320037
 20
3109.849638355704
 30
0.0
 11
-2970.400441340415
 21
3073.969951448338
 31
0.0
  0
LINE
  5
2B8
330
1F
100
AcDbEntity
  8
0-C_ハッチ
  6
Continuous
 62
   120
370
     5
100
AcDbLine
 10
-3009.15050320037
 20
3075.778583739086
 30
0.0
 11
-2970.400441340415
 21
3039.898896831719
 31
0.0
  0
LINE
  5
2B9
330
1F
100
AcDbEntity
  8
0-C_ハッチ
  6
Continuous
 62
   120
370
     5
100
AcDbLine
 10
-3009.15050320037
 20
3041.707529122466
 30
0.0
 11
-2970.400441340415
 21
3005.8278422151
 31
0.0
  0
LINE
  5
2BA
330
1F
100
AcDbEntity
  8
0-C_ハッチ
  6
Continuous
 62
   120
370
     5
100
AcDbLine
 10
-3009.15050320037
 20
3007.636474505848
 30
0.0
 11
-2970.400441340415
 21
2971.756787598482
 31
0.0
  0
LINE
  5
2BB
330
1F
100
AcDbEntity
  8
0-C_ハッチ
  6
Continuous
 62
   120
370
     5
100
AcDbLine
 10
-3009.15050320037
 20
2973.565419889229
 30
0.0
 11
-2970.400441340415
 21
2937.685732981863
 31
0.0
  0
LINE
  5
2BC
330
1F
100
AcDbEntity
  8
0-C_ハッチ
  6
Continuous
 62
   120
370
     5
100
AcDbLine
 10
-3009.15050320037
 20
2939.49436527261
 30
0.0
 11
-2970.400441340415
 21
2903.614678365244
 31
0.0
  0
LINE
  5
2BD
330
1F
100
AcDbEntity
  8
0-C_ハッチ
  6
Continuous
 62
   120
370
     5
100
AcDbLine
 10
-3009.15050320037
 20
2837.281201422753
 30
0.0
 11
-2970.400441340415
 21
2801.401514515387
 31
0.0
  0
LINE
  5
2BE
330
1F
100
AcDbEntity
  8
0-C_ハッチ
  6
Continuous
 62
   120
370
     5
100
AcDbLine
 10
-3009.15050320037
 20
2803.210146806135
 30
0.0
 11
-2970.400441340415
 21
2767.330459898768
 31
0.0
  0
LINE
  5
2BF
330
1F
100
AcDbEntity
  8
0-C_ハッチ
  6
Continuous
 62
   120
370
     5
100
AcDbLine
 10
-3009.15050320037
 20
2905.423310655991
 30
0.0
 11
-2970.400441340415
 21
2869.543623748625
 31
0.0
  0
LINE
  5
2C0
330
1F
100
AcDbEntity
  8
0-C_ハッチ
  6
Continuous
 62
   120
370
     5
100
AcDbLine
 10
-3009.15050320037
 20
2769.139092189516
 30
0.0
 11
-2970.400441340415
 21
2733.25940528215
 31
0.0
  0
LINE
  5
2C1
330
1F
100
AcDbEntity
  8
0-C_ハッチ
  6
Continuous
 62
   120
370
     5
100
AcDbLine
 10
-3009.15050320037
 20
2735.068037572897
 30
0.0
 11
-2970.400441340415
 21
2699.188350665531
 31
0.0
  0
LINE
  5
2C2
330
1F
100
AcDbEntity
  8
0-C_ハッチ
  6
Continuous
 62
   120
370
     5
100
AcDbLine
 10
-3009.15050320037
 20
2700.996982956279
 30
0.0
 11
-2970.400441340415
 21
2665.117296048913
 31
0.0
  0
LINE
  5
2C3
330
1F
100
AcDbEntity
  8
0-C_ハッチ
  6
Continuous
 62
   120
370
     5
100
AcDbLine
 10
-3009.15050320037
 20
2666.92592833966
 30
0.0
 11
-2970.400441340415
 21
2631.046241432293
 31
0.0
  0
LINE
  5
2C4
330
1F
100
AcDbEntity
  8
0-C_ハッチ
  6
Continuous
 62
   120
370
     5
100
AcDbLine
 10
-3009.15050320037
 20
2632.85487372304
 30
0.0
 11
-2970.400441340415
 21
2596.975186815674
 31
0.0
  0
LINE
  5
2C5
330
1F
100
AcDbEntity
  8
0-C_ハッチ
  6
Continuous
 62
   120
370
     5
100
AcDbLine
 10
-3009.15050320037
 20
2598.783819106422
 30
0.0
 11
-2970.400441340415
 21
2562.904132199056
 31
0.0
  0
LINE
  5
2C6
330
1F
100
AcDbEntity
  8
0-C_ハッチ
  6
Continuous
 62
   120
370
     5
100
AcDbLine
 10
-3009.15050320037
 20
2564.712764489803
 30
0.0
 11
-2970.400441340415
 21
2528.833077582437
 31
0.0
  0
LINE
  5
2C7
330
1F
100
AcDbEntity
  8
0-C_ハッチ
  6
Continuous
 62
   120
370
     5
100
AcDbLine
 10
-3009.15050320037
 20
2530.641709873184
 30
0.0
 11
-2970.400441340415
 21
2494.762022965818
 31
0.0
  0
LINE
  5
2C8
330
1F
100
AcDbEntity
  8
0-C_ハッチ
  6
Continuous
 62
   120
370
     5
100
AcDbLine
 10
-3009.15050320037
 20
2496.570655256566
 30
0.0
 11
-2970.400441340415
 21
2460.690968349199
 31
0.0
  0
LINE
  5
2C9
330
1F
100
AcDbEntity
  8
0-C_ハッチ
  6
Continuous
 62
   120
370
     5
100
AcDbLine
 10
-3009.15050320037
 20
2462.499600639947
 30
0.0
 11
-2970.400441340415
 21
2426.61991373258
 31
0.0
  0
LINE
  5
2CA
330
1F
100
AcDbEntity
  8
0-C_ハッチ
  6
Continuous
 62
   120
370
     5
100
AcDbLine
 10
-3009.15050320037
 20
2394.357491406709
 30
0.0
 11
-2970.400441340415
 21
2358.477804499343
 31
0.0
  0
LINE
  5
2CB
330
1F
100
AcDbEntity
  8
0-C_ハッチ
  6
Continuous
 62
   120
370
     5
100
AcDbLine
 10
-3009.15050320037
 20
3246.13385682218
 30
0.0
 11
-2997.396098173419
 21
3235.250148463892
 31
0.0
  0
LINE
  5
2CC
330
1F
100
AcDbEntity
  8
0-2_扉
  6
Continuous
 62
     7
370
     9
100
AcDbLine
 10
-3009.15050320037
 20
3409.000257337414
 30
0.0
 11
-3009.15050320037
 21
1426.000148463891
 31
0.0
  0
LINE
  5
2CD
330
1F
100
AcDbEntity
  8
0-2_扉
  6
Continuous
 62
     7
370
     9
100
AcDbLine
 10
-2419.150552688335
 20
3409.000257337414
 30
0.0
 11
-2419.150552688335
 21
1426.000148463891
 31
0.0
  0
LINE
  5
2CE
330
1F
100
AcDbEntity
  8
0-2_扉
  6
Continuous
 62
     7
370
     9
100
AcDbLine
 10
-2470.400552688336
 20
2267.749964533624
 30
0.0
 11
-2470.400552688336
 21
2228.999964533624
 31
0.0
  0
LINE
  5
2CF
330
1F
100
AcDbEntity
  8
0-2_扉
  6
Continuous
 62
     7
370
     9
100
AcDbLine
 10
-2457.900552688335
 20
2267.749964533624
 30
0.0
 11
-2457.900552688335
 21
2228.999964533624
 31
0.0
  0
LINE
  5
2D0
330
1F
100
AcDbEntity
  8
0-2_扉
  6
JWW_CENTER1
 62
     7
370
     9
100
AcDbLine
 10
-2464.150552688335
 20
2207.929890305649
 30
0.0
 11
-2464.150552688335
 21
3294.566545272904
 31
0.0
  0
LINE
  5
2D1
330
1F
100
AcDbEntity
  8
0-2_扉
  6
Continuous
 62
     7
370
     9
100
AcDbLine
 10
-2470.400552688336
 20
3274.000195477458
 30
0.0
 11
-2470.400552688336
 21
3235.250195477458
 31
0.0
  0
LINE
  5
2D2
330
1F
100
AcDbEntity
  8
0-2_扉
  6
Continuous
 62
     7
370
     9
100
AcDbLine
 10
-2457.900552688335
 20
3274.000195477458
 30
0.0
 11
-2457.900552688335
 21
3235.250195477458
 31
0.0
  0
LINE
  5
2D3
330
1F
100
AcDbEntity
  8
0-2_扉
  6
Continuous
 62
     7
370
     9
100
AcDbLine
 10
-2457.900552688335
 20
3222.750195477457
 30
0.0
 11
-2457.900552688335
 21
2280.249964533624
 31
0.0
  0
LINE
  5
2D4
330
1F
100
AcDbEntity
  8
0-2_扉
  6
Continuous
 62
     7
370
     9
100
AcDbLine
 10
-2470.400552688336
 20
3222.750195477457
 30
0.0
 11
-2470.400552688336
 21
2280.249964533624
 31
0.0
  0
LINE
  5
2D5
330
1F
100
AcDbEntity
  8
0-2_扉
  6
JWW_CENTER1
 62
     7
370
     9
100
AcDbLine
 10
-2964.150441340415
 20
2207.929890305649
 30
0.0
 11
-2964.150441340415
 21
3294.566545272904
 31
0.0
  0
LINE
  5
2D6
330
1F
100
AcDbEntity
  8
0-2_扉
  6
Continuous
 62
     7
370
     9
100
AcDbLine
 10
-2970.400441340415
 20
3274.000195477458
 30
0.0
 11
-2970.400441340415
 21
3235.250195477458
 31
0.0
  0
LINE
  5
2D7
330
1F
100
AcDbEntity
  8
0-2_扉
  6
Continuous
 62
     7
370
     9
100
AcDbLine
 10
-2957.900441340415
 20
3274.000195477458
 30
0.0
 11
-2957.900441340415
 21
3235.250195477458
 31
0.0
  0
LINE
  5
2D8
330
1F
100
AcDbEntity
  8
0-2_扉
  6
Continuous
 62
     7
370
     9
100
AcDbLine
 10
-2957.900441340415
 20
3222.750195477457
 30
0.0
 11
-2957.900441340415
 21
2280.249964533624
 31
0.0
  0
LINE
  5
2D9
330
1F
100
AcDbEntity
  8
0-2_扉
  6
Continuous
 62
     7
370
     9
100
AcDbLine
 10
-2957.900441340415
 20
2267.749964533624
 30
0.0
 11
-2957.900441340415
 21
2228.999964533624
 31
0.0
  0
LINE
  5
2DA
330
1F
100
AcDbEntity
  8
0-2_扉
  6
Continuous
 62
     7
370
     9
100
AcDbLine
 10
-2970.400441340415
 20
3222.750195477457
 30
0.0
 11
-2970.400441340415
 21
2280.249964533624
 31
0.0
  0
LINE
  5
2DB
330
1F
100
AcDbEntity
  8
0-2_扉
  6
Continuous
 62
     7
370
     9
100
AcDbLine
 10
-2970.400441340415
 20
2267.749964533624
 30
0.0
 11
-2970.400441340415
 21
2228.999964533624
 31
0.0
  0
LINE
  5
2DC
330
1F
100
AcDbEntity
  8
0-2_扉
  6
Continuous
 62
     7
370
     9
100
AcDbLine
 10
-2419.150552688335
 20
3235.250195477458
 30
0.0
 11
-3009.15050320037
 21
3235.250195477458
 31
0.0
  0
LINE
  5
2DD
330
1F
100
AcDbEntity
  8
0-2_扉
  6
Continuous
 62
     7
370
     9
100
AcDbLine
 10
-2419.150552688335
 20
3222.750195477457
 30
0.0
 11
-3009.15050320037
 21
3222.750195477457
 31
0.0
  0
LINE
  5
2DE
330
1F
100
AcDbEntity
  8
0-2_扉
  6
Continuous
 62
     7
370
     9
100
AcDbLine
 10
-2419.150552688335
 20
3274.000195477458
 30
0.0
 11
-3009.15050320037
 21
3274.000195477458
 31
0.0
  0
LINE
  5
2DF
330
1F
100
AcDbEntity
  8
0-2_扉
  6
Continuous
 62
     7
370
     9
100
AcDbLine
 10
-2419.150552688335
 20
2280.249964533624
 30
0.0
 11
-3009.15050320037
 21
2280.249964533624
 31
0.0
  0
LINE
  5
2E0
330
1F
100
AcDbEntity
  8
0-2_扉
  6
Continuous
 62
     7
370
     9
100
AcDbLine
 10
-2419.150552688335
 20
2267.749964533624
 30
0.0
 11
-3009.15050320037
 21
2267.749964533624
 31
0.0
  0
LINE
  5
2E1
330
1F
100
AcDbEntity
  8
0-2_扉
  6
Continuous
 62
     7
370
     9
100
AcDbLine
 10
-3009.15050320037
 20
2229.000148463891
 30
0.0
 11
-2419.150552688335
 21
2229.000148463891
 31
0.0
  0
LINE
  5
2E2
330
1F
100
AcDbEntity
  8
0-2_扉
  6
Continuous
 62
     7
370
     9
100
AcDbLine
 10
-2419.150552688335
 20
2124.002647606101
 30
0.0
 11
-3009.15050320037
 21
2124.002647606101
 31
0.0
  0
LINE
  5
2E3
330
1F
100
AcDbEntity
  8
0-2_扉
  6
Continuous
 62
     7
370
     9
100
AcDbLine
 10
-2419.150552688335
 20
1576.000148463891
 30
0.0
 11
-3009.15050320037
 21
1576.000148463891
 31
0.0
  0
LINE
  5
2E4
330
1F
100
AcDbEntity
  8
0-2_扉
  6
JWW_CENTER1
 62
     7
370
     9
100
AcDbLine
 10
-2398.956097514472
 20
2273.999964533624
 30
0.0
 11
-3028.948688832443
 21
2273.999964533624
 31
0.0
  0
LINE
  5
2E5
330
1F
100
AcDbEntity
  8
0-2_扉
  6
JWW_CENTER1
 62
     7
370
     9
100
AcDbLine
 10
-2398.956097514472
 20
3229.000195477458
 30
0.0
 11
-3028.948688832443
 21
3229.000195477458
 31
0.0
  0
LINE
  5
2E6
330
1F
100
AcDbEntity
  8
0-4_枠
  6
JWW_DASHED1
 62
   120
370
     5
100
AcDbLine
 10
-2309.150552688334
 20
3409.000195477458
 30
0.0
 11
-2309.150552688334
 21
1426.000148463891
 31
0.0
  0
LINE
  5
2E7
330
1F
100
AcDbEntity
  8
0-2_扉
  6
Continuous
 62
     7
370
     9
100
AcDbLine
 10
-2312.150503200371
 20
1426.000148463891
 30
0.0
 11
-3119.15050320037
 21
1426.000148463891
 31
0.0
  0
LINE
  5
2E8
330
1F
100
AcDbEntity
  8
0-4_枠
  6
JWW_DASHED1
 62
   120
370
     5
100
AcDbLine
 10
-2312.150503200371
 20
1426.000148463891
 30
0.0
 11
-2309.150552688334
 21
1426.000148463891
 31
0.0
  0
LINE
  5
2E9
330
1F
100
AcDbEntity
  8
0-2_扉
  6
Continuous
 62
     7
370
     9
100
AcDbLine
 10
-2312.150503200371
 20
3409.000195477458
 30
0.0
 11
-3119.15050320037
 21
3409.000195477458
 31
0.0
  0
LINE
  5
2EA
330
1F
100
AcDbEntity
  8
0-4_枠
  6
JWW_DASHED1
 62
   120
370
     5
100
AcDbLine
 10
-2312.150503200371
 20
3409.000195477458
 30
0.0
 11
-2309.150552688334
 21
3409.000195477458
 31
0.0
  0
LINE
  5
2EB
330
1F
100
AcDbEntity
  8
0-4_枠
  6
JWW_DASHED1
 62
   120
370
     5
100
AcDbLine
 10
-3089.15050320037
 20
3409.000195477458
 30
0.0
 11
-3089.15050320037
 21
1426.000148463891
 31
0.0
  0
LINE
  5
2EC
330
1F
100
AcDbEntity
  8
0-2_扉
  6
Continuous
 62
     7
370
     9
100
AcDbLine
 10
-3119.15050320037
 20
1426.000148463891
 30
0.0
 11
-3119.15050320037
 21
3409.000195477458
 31
0.0
  0
LWPOLYLINE
  5
2ED
330
1F
100
AcDbEntity
  8
0-B_寸法
  6
Continuous
 62
     7
370
     9
100
AcDbPolyline
 90
        4
 70
     1
 43
3.0
 10
-2307.650503200372
 20
1168.000148463894
 42
0.4142135623731
 10
-2309.150503200372
 20
1169.500148463894
 42
0.4142135623731
 10
-2310.650503200372
 20
1168.000148463894
 42
0.4142135623731
 10
-2309.150503200372
 20
1166.500148463894
 42
0.4142135623731
  0
LWPOLYLINE
  5
2EE
330
1F
100
AcDbEntity
  8
0-B_寸法
  6
Continuous
 62
     7
370
     9
100
AcDbPolyline
 90
        4
 70
     1
 43
3.0
 10
-3117.650503200372
 20
1168.000148463894
 42
0.4142135623731
 10
-3119.150503200372
 20
1169.500148463894
 42
0.4142135623731
 10
-3120.650503200372
 20
1168.000148463894
 42
0.4142135623731
 10
-3119.150503200372
 20
1166.500148463894
 42
0.4142135623731
  0
LINE
  5
2EF
330
1F
100
AcDbEntity
  8
0-B_寸法
  6
Continuous
 62
   120
370
     5
100
AcDbLine
 10
-2309.150503200372
 20
1168.000148463894
 30
0.0
 11
-2309.150503200372
 21
1368.000148463893
 31
0.0
  0
LINE
  5
2F0
330
1F
100
AcDbEntity
  8
0-B_寸法
  6
Continuous
 62
   120
370
     5
100
AcDbLine
 10
-3119.150503200372
 20
1168.000148463894
 30
0.0
 11
-2309.150503200372
 21
1168.000148463894
 31
0.0
  0
LINE
  5
2F1
330
1F
100
AcDbEntity
  8
0-B_寸法
  6
Continuous
 62
   120
370
     5
100
AcDbLine
 10
-3119.150503200372
 20
1168.000148463894
 30
0.0
 11
-3119.150503200372
 21
1368.000148463893
 31
0.0
  0
MTEXT
  5
2F2
330
1F
100
AcDbEntity
  8
0-B_寸法
  6
Continuous
 62
     7
370
   211
100
AcDbMText
 10
-2882.900503200372
 20
1174.075148463894
 30
0.0
 40
57.15
 41
337.5
 46
0.0
 71
     7
 72
     1
  1
{\fＭＳ ゴシック|b0|i0|c128|p49;ＤＷ＝810}
 73
     1
 44
1.0
  0
MTEXT
  5
2F3
330
1F
100
AcDbEntity
  8
F-A_文字
  6
Continuous
 62
     7
370
     0
100
AcDbMText
 10
-5239.999990205508
 20
-4045.23306107839
 30
0.0
 40
79.53375000000001
 41
2505.0
 46
0.0
 71
     7
 72
     1
  1
{\fＭＳ ゴシック|b0|i0|c128|p49;ドレタス　３枚引き違い戸　レールタイプ　Ｂ－ＤＪ}
 73
     1
 44
1.0
  0
ENDSEC
  0
SECTION
  2
OBJECTS
  0
DICTIONARY
  5
C
330
0
100
AcDbDictionary
281
     1
  3
ACAD_GROUP
350
D
  3
ACAD_LAYOUT
350
1A
  3
ACAD_MATERIAL
350
3B
  3
ACAD_MLEADERSTYLE
350
2F5
  3
ACAD_MLINESTYLE
350
17
  3
ACAD_PLOTSETTINGS
350
19
  3
ACAD_PLOTSTYLENAME
350
E
  3
ACAD_TABLESTYLE
350
2F4
  3
ACAD_VISUALSTYLE
350
2A
  0
DICTIONARY
  5
D
102
{ACAD_REACTORS
330
C
102
}
330
C
100
AcDbDictionary
281
     1
  0
DICTIONARY
  5
1A
102
{ACAD_REACTORS
330
C
102
}
330
C
100
AcDbDictionary
281
     1
  3
Layout1
350
1E
  3
Layout2
350
26
  3
Model
350
22
  0
DICTIONARY
  5
3B
102
{ACAD_REACTORS
330
C
102
}
330
C
100
AcDbDictionary
281
     1
  3
ByBlock
350
3D
  3
ByLayer
350
3C
  3
Global
350
3E
  0
DICTIONARY
  5
2F5
102
{ACAD_REACTORS
330
C
102
}
330
C
100
AcDbDictionary
281
     1
  0
DICTIONARY
  5
17
102
{ACAD_REACTORS
330
C
102
}
330
C
100
AcDbDictionary
281
     1
  3
Standard
350
18
  0
DICTIONARY
  5
19
102
{ACAD_REACTORS
330
C
102
}
330
C
100
AcDbDictionary
281
     1
  0
ACDBDICTIONARYWDFLT
  5
E
102
{ACAD_REACTORS
330
C
102
}
330
C
100
AcDbDictionary
281
     1
  3
Normal
350
F
100
AcDbDictionaryWithDefault
340
F
  0
DICTIONARY
  5
2F4
102
{ACAD_REACTORS
330
C
102
}
330
C
100
AcDbDictionary
281
     1
  0
DICTIONARY
  5
2A
102
{ACAD_REACTORS
330
C
102
}
330
C
100
AcDbDictionary
281
     1
  3
2dWireframe
350
2F
  3
3D Hidden
350
31
  3
3dWireframe
350
30
  3
Basic
350
32
  3
Brighten
350
36
  3
ColorChange
350
3A
  3
Conceptual
350
34
  3
Dim
350
35
  3
Facepattern
350
39
  3
Flat
350
2B
  3
FlatWithEdges
350
2C
  3
Gouraud
350
2D
  3
GouraudWithEdges
350
2E
  3
Linepattern
350
38
  3
Realistic
350
33
  3
Thicken
350
37
  0
LAYOUT
  5
1E
102
{ACAD_REACTORS
330
1A
102
}
330
1A
100
AcDbPlotSettings
  1

  2
none_device
  4

  6

 40
0.0
 41
0.0
 42
0.0
 43
0.0
 44
0.0
 45
0.0
 46
0.0
 47
0.0
 48
0.0
 49
0.0
140
0.0
141
0.0
142
1.0
143
1.0
 70
   688
 72
     0
 73
     0
 74
     5
  7

 75
    16
 76
     0
 77
     5
 78
   300
147
1.0
148
0.0
149
0.0
100
AcDbLayout
  1
Layout1
 70
     1
 71
     1
 10
0.0
 20
0.0
 11
420.0
 21
297.0
 12
0.0
 22
0.0
 32
0.0
 14
1.000000000000000E+20
 24
1.000000000000000E+20
 34
1.000000000000000E+20
 15
-1.000000000000000E+20
 25
-1.000000000000000E+20
 35
-1.000000000000000E+20
146
0.0
 13
0.0
 23
0.0
 33
0.0
 16
1.0
 26
0.0
 36
0.0
 17
0.0
 27
1.0
 37
0.0
 76
     0
330
1B
  0
LAYOUT
  5
26
102
{ACAD_REACTORS
330
1A
102
}
330
1A
100
AcDbPlotSettings
  1

  2
none_device
  4

  6

 40
0.0
 41
0.0
 42
0.0
 43
0.0
 44
0.0
 45
0.0
 46
0.0
 47
0.0
 48
0.0
 49
0.0
140
0.0
141
0.0
142
1.0
143
1.0
 70
   688
 72
     0
 73
     0
 74
     5
  7

 75
    16
 76
     0
 77
     5
 78
   300
147
1.0
148
0.0
149
0.0
100
AcDbLayout
  1
Layout2
 70
     1
 71
     2
 10
0.0
 20
0.0
 11
0.0
 21
0.0
 12
0.0
 22
0.0
 32
0.0
 14
0.0
 24
0.0
 34
0.0
 15
0.0
 25
0.0
 35
0.0
146
0.0
 13
0.0
 23
0.0
 33
0.0
 16
1.0
 26
0.0
 36
0.0
 17
0.0
 27
1.0
 37
0.0
 76
     0
330
23
  0
LAYOUT
  5
22
102
{ACAD_REACTORS
330
1A
102
}
330
1A
100
AcDbPlotSettings
  1

  2
none_device
  4

  6

 40
0.0
 41
0.0
 42
0.0
 43
0.0
 44
0.0
 45
0.0
 46
0.0
 47
0.0
 48
0.0
 49
0.0
140
0.0
141
0.0
142
1.0
143
1.0
 70
  1712
 72
     0
 73
     0
 74
     0
  7

 75
     0
 76
     0
 77
     5
 78
   300
147
1.0
148
0.0
149
0.0
100
AcDbLayout
  1
Model
 70
     1
 71
     0
 10
-6300.0
 20
-4455.0
 11
6300.0
 21
4455.0
 12
0.0
 22
0.0
 32
0.0
 14
-6300.0
 24
-4455.0
 34
0.0
 15
6300.0
 25
4455.0
 35
0.0
146
0.0
 13
0.0
 23
0.0
 33
0.0
 16
1.0
 26
0.0
 36
0.0
 17
0.0
 27
1.0
 37
0.0
 76
     0
330
1F
331
29
  0
MATERIAL
  5
3D
102
{ACAD_REACTORS
330
3B
102
}
330
3B
100
AcDbMaterial
  1
ByBlock
 72
     1
 94
      127
  0
MATERIAL
  5
3C
102
{ACAD_REACTORS
330
3B
102
}
330
3B
100
AcDbMaterial
  1
ByLayer
 72
     1
 94
      127
  0
MATERIAL
  5
3E
102
{ACAD_REACTORS
330
3B
102
}
330
3B
100
AcDbMaterial
  1
Global
 72
     1
 94
      127
  0
MLINESTYLE
  5
18
102
{ACAD_REACTORS
330
17
102
}
330
17
100
AcDbMlineStyle
  2
Standard
 70
     0
  3

 62
   256
 51
90.0
 52
90.0
 71
     2
 49
0.5
 62
   256
  6
BYLAYER
 49
-0.5
 62
   256
  6
BYLAYER
  0
ACDBPLACEHOLDER
  5
F
102
{ACAD_REACTORS
330
E
102
}
330
E
  0
VISUALSTYLE
  5
2F
102
{ACAD_REACTORS
330
2A
102
}
330
2A
100
AcDbVisualStyle
  2
2dWireframe
 70
     4
177
     2
291
     0
 71
     0
176
     1
 72
     2
176
     1
 73
     0
176
     1
 90
        0
176
     1
 40
-0.6
176
     1
 41
-30.0
176
     1
 62
     5
 63
     7
421
 16777215
176
     1
 74
     1
176
     1
 91
        4
176
     1
 64
     7
176
     1
 65
   257
176
     1
 75
     1
176
     1
175
     1
176
     1
 42
1.0
176
     1
 92
        0
176
     1
 66
   257
176
     1
 43
1.0
176
     1
 76
     1
176
     1
 77
     6
176
     1
 78
     2
176
     1
 67
     7
176
     1
 79
     5
176
     1
170
     0
176
     1
171
     0
176
     1
290
     0
176
     1
 93
        1
176
     1
 44
0.0
176
     1
173
     0
176
     1
  0
VISUALSTYLE
  5
31
102
{ACAD_REACTORS
330
2A
102
}
330
2A
100
AcDbVisualStyle
  2
3D Hidden
 70
     6
177
     2
291
     0
 71
     1
176
     1
 72
     2
176
     1
 73
     2
176
     1
 90
        0
176
     1
 40
-0.6
176
     1
 41
-30.0
176
     1
 62
     5
 63
     7
421
 16777215
176
     1
 74
     2
176
     1
 91
        2
176
     1
 64
     7
176
     1
 65
   257
176
     1
 75
     2
176
     1
175
     1
176
     1
 42
40.0
176
     1
 92
        0
176
     1
 66
   257
176
     1
 43
1.0
176
     1
 76
     1
176
     1
 77
     6
176
     1
 78
     2
176
     1
 67
     7
176
     1
 79
     3
176
     1
170
     0
176
     1
171
     0
176
     1
290
     0
176
     1
 93
        1
176
     1
 44
0.0
176
     1
173
     0
176
     1
  0
VISUALSTYLE
  5
30
102
{ACAD_REACTORS
330
2A
102
}
330
2A
100
AcDbVisualStyle
  2
3dWireframe
 70
     5
177
     2
291
     0
 71
     0
176
     1
 72
     2
176
     1
 73
     0
176
     1
 90
        0
176
     1
 40
-0.6
176
     1
 41
-30.0
176
     1
 62
     5
 63
     7
421
 16777215
176
     1
 74
     1
176
     1
 91
        4
176
     1
 64
     7
176
     1
 65
   257
176
     1
 75
     1
176
     1
175
     1
176
     1
 42
1.0
176
     1
 92
        0
176
     1
 66
   257
176
     1
 43
1.0
176
     1
 76
     1
176
     1
 77
     6
176
     1
 78
     2
176
     1
 67
     7
176
     1
 79
     5
176
     1
170
     0
176
     1
171
     0
176
     1
290
     0
176
     1
 93
        1
176
     1
 44
0.0
176
     1
173
     0
176
     1
  0
VISUALSTYLE
  5
32
102
{ACAD_REACTORS
330
2A
102
}
330
2A
100
AcDbVisualStyle
  2
Basic
 70
     7
177
     2
291
     1
 71
     1
176
     1
 72
     0
176
     1
 73
     1
176
     1
 90
        0
176
     1
 40
-0.6
176
     1
 41
-30.0
176
     1
 62
     5
 63
     7
421
 16777215
176
     1
 74
     0
176
     1
 91
        4
176
     1
 64
     7
176
     1
 65
   257
176
     1
 75
     1
176
     1
175
     1
176
     1
 42
1.0
176
     1
 92
        8
176
     1
 66
     7
176
     1
 43
1.0
176
     1
 76
     1
176
     1
 77
     6
176
     1
 78
     2
176
     1
 67
     7
176
     1
 79
     5
176
     1
170
     0
176
     1
171
     0
176
     1
290
     0
176
     1
 93
        1
176
     1
 44
0.0
176
     1
173
     0
176
     1
  0
VISUALSTYLE
  5
36
102
{ACAD_REACTORS
330
2A
102
}
330
2A
100
AcDbVisualStyle
  2
Brighten
 70
    12
177
     2
291
     1
 71
     2
176
     1
 72
     2
176
     1
 73
     0
176
     1
 90
        0
176
     1
 40
-0.6
176
     1
 41
-30.0
176
     1
 62
     5
 63
     7
421
 16777215
176
     1
 74
     1
176
     1
 91
        4
176
     1
 64
     7
176
     1
 65
   257
176
     1
 75
     1
176
     1
175
     1
176
     1
 42
1.0
176
     1
 92
        8
176
     1
 66
     7
176
     1
 43
1.0
176
     1
 76
     1
176
     1
 77
     6
176
     1
 78
     2
176
     1
 67
     7
176
     1
 79
     5
176
     1
170
     0
176
     1
171
     0
176
     1
290
     0
176
     1
 93
        1
176
     1
 44
50.0
176
     1
173
     0
176
     1
  0
VISUALSTYLE
  5
3A
102
{ACAD_REACTORS
330
2A
102
}
330
2A
100
AcDbVisualStyle
  2
ColorChange
 70
    16
177
     2
291
     1
 71
     2
176
     1
 72
     2
176
     1
 73
     3
176
     1
 90
        0
176
     1
 40
-0.6
176
     1
 41
-30.0
176
     1
 62
     5
 63
     8
421
  8421504
176
     1
 74
     1
176
     1
 91
        4
176
     1
 64
     7
176
     1
 65
   257
176
     1
 75
     1
176
     1
175
     1
176
     1
 42
1.0
176
     1
 92
        8
176
     1
 66
     8
424
  8421504
176
     1
 43
1.0
176
     1
 76
     1
176
     1
 77
     6
176
     1
 78
     2
176
     1
 67
     7
176
     1
 79
     5
176
     1
170
     0
176
     1
171
     0
176
     1
290
     0
176
     1
 93
        1
176
     1
 44
0.0
176
     1
173
     0
176
     1
  0
VISUALSTYLE
  5
34
102
{ACAD_REACTORS
330
2A
102
}
330
2A
100
AcDbVisualStyle
  2
Conceptual
 70
     9
177
     2
291
     0
 71
     3
176
     1
 72
     2
176
     1
 73
     0
176
     1
 90
        0
176
     1
 40
-0.6
176
     1
 41
-30.0
176
     1
 62
     5
 63
     7
421
 16777215
176
     1
 74
     2
176
     1
 91
        2
176
     1
 64
     7
176
     1
 65
   257
176
     1
 75
     1
176
     1
175
     1
176
     1
 42
40.0
176
     1
 92
        8
176
     1
 66
     7
176
     1
 43
1.0
176
     1
 76
     1
176
     1
 77
     6
176
     1
 78
     2
176
     1
 67
     7
176
     1
 79
     3
176
     1
170
     0
176
     1
171
     0
176
     1
290
     0
176
     1
 93
        1
176
     1
 44
0.0
176
     1
173
     0
176
     1
  0
VISUALSTYLE
  5
35
102
{ACAD_REACTORS
330
2A
102
}
330
2A
100
AcDbVisualStyle
  2
Dim
 70
    11
177
     2
291
     1
 71
     2
176
     1
 72
     2
176
     1
 73
     0
176
     1
 90
        0
176
     1
 40
-0.6
176
     1
 41
-30.0
176
     1
 62
     5
 63
     7
421
 16777215
176
     1
 74
     1
176
     1
 91
        4
176
     1
 64
     7
176
     1
 65
   257
176
     1
 75
     1
176
     1
175
     1
176
     1
 42
1.0
176
     1
 92
        8
176
     1
 66
     7
176
     1
 43
1.0
176
     1
 76
     1
176
     1
 77
     6
176
     1
 78
     2
176
     1
 67
     7
176
     1
 79
     5
176
     1
170
     0
176
     1
171
     0
176
     1
290
     0
176
     1
 93
        1
176
     1
 44
-50.0
176
     1
173
     0
176
     1
  0
VISUALSTYLE
  5
39
102
{ACAD_REACTORS
330
2A
102
}
330
2A
100
AcDbVisualStyle
  2
Facepattern
 70
    15
177
     2
291
     1
 71
     2
176
     1
 72
     2
176
     1
 73
     0
176
     1
 90
        0
176
     1
 40
-0.6
176
     1
 41
-30.0
176
     1
 62
     5
 63
     7
421
 16777215
176
     1
 74
     1
176
     1
 91
        4
176
     1
 64
     7
176
     1
 65
   257
176
     1
 75
     1
176
     1
175
     1
176
     1
 42
1.0
176
     1
 92
        8
176
     1
 66
     7
176
     1
 43
1.0
176
     1
 76
     1
176
     1
 77
     6
176
     1
 78
     2
176
     1
 67
     7
176
     1
 79
     5
176
     1
170
     0
176
     1
171
     0
176
     1
290
     0
176
     1
 93
        1
176
     1
 44
0.0
176
     1
173
     0
176
     1
  0
VISUALSTYLE
  5
2B
102
{ACAD_REACTORS
330
2A
102
}
330
2A
100
AcDbVisualStyle
  2
Flat
 70
     0
177
     2
291
     1
 71
     2
176
     1
 72
     1
176
     1
 73
     1
176
     1
 90
        2
176
     1
 40
-0.6
176
     1
 41
30.0
176
     1
 62
     5
 63
     7
421
 16777215
176
     1
 74
     0
176
     1
 91
        4
176
     1
 64
     7
176
     1
 65
   257
176
     1
 75
     1
176
     1
175
     1
176
     1
 42
1.0
176
     1
 92
        8
176
     1
 66
     7
176
     1
 43
1.0
176
     1
 76
     1
176
     1
 77
     6
176
     1
 78
     2
176
     1
 67
     7
176
     1
 79
     5
176
     1
170
     0
176
     1
171
     0
176
     1
290
     0
176
     1
 93
       13
176
     1
 44
0.0
176
     1
173
     0
176
     1
  0
VISUALSTYLE
  5
2C
102
{ACAD_REACTORS
330
2A
102
}
330
2A
100
AcDbVisualStyle
  2
FlatWithEdges
 70
     1
177
     2
291
     1
 71
     2
176
     1
 72
     1
176
     1
 73
     1
176
     1
 90
        2
176
     1
 40
-0.6
176
     1
 41
30.0
176
     1
 62
     5
 63
     7
421
 16777215
176
     1
 74
     1
176
     1
 91
        4
176
     1
 64
     7
176
     1
 65
   257
176
     1
 75
     1
176
     1
175
     1
176
     1
 42
1.0
176
     1
 92
        0
176
     1
 66
   257
176
     1
 43
1.0
176
     1
 76
     1
176
     1
 77
     6
176
     1
 78
     2
176
     1
 67
     7
176
     1
 79
     5
176
     1
170
     0
176
     1
171
     0
176
     1
290
     0
176
     1
 93
       13
176
     1
 44
0.0
176
     1
173
     0
176
     1
  0
VISUALSTYLE
  5
2D
102
{ACAD_REACTORS
330
2A
102
}
330
2A
100
AcDbVisualStyle
  2
Gouraud
 70
     2
177
     2
291
     1
 71
     2
176
     1
 72
     2
176
     1
 73
     1
176
     1
 90
        2
176
     1
 40
-0.6
176
     1
 41
30.0
176
     1
 62
     5
 63
     7
421
 16777215
176
     1
 74
     0
176
     1
 91
        4
176
     1
 64
     7
176
     1
 65
   257
176
     1
 75
     1
176
     1
175
     1
176
     1
 42
1.0
176
     1
 92
        0
176
     1
 66
     7
176
     1
 43
1.0
176
     1
 76
     1
176
     1
 77
     6
176
     1
 78
     2
176
     1
 67
     7
176
     1
 79
     5
176
     1
170
     0
176
     1
171
     0
176
     1
290
     0
176
     1
 93
       13
176
     1
 44
0.0
176
     1
173
     0
176
     1
  0
VISUALSTYLE
  5
2E
102
{ACAD_REACTORS
330
2A
102
}
330
2A
100
AcDbVisualStyle
  2
GouraudWithEdges
 70
     3
177
     2
291
     1
 71
     2
176
     1
 72
     2
176
     1
 73
     1
176
     1
 90
        2
176
     1
 40
-0.6
176
     1
 41
30.0
176
     1
 62
     5
 63
     7
421
 16777215
176
     1
 74
     1
176
     1
 91
        4
176
     1
 64
     7
176
     1
 65
   257
176
     1
 75
     1
176
     1
175
     1
176
     1
 42
1.0
176
     1
 92
        0
176
     1
 66
   257
176
     1
 43
1.0
176
     1
 76
     1
176
     1
 77
     6
176
     1
 78
     2
176
     1
 67
     7
176
     1
 79
     5
176
     1
170
     0
176
     1
171
     0
176
     1
290
     0
176
     1
 93
       13
176
     1
 44
0.0
176
     1
173
     0
176
     1
  0
VISUALSTYLE
  5
38
102
{ACAD_REACTORS
330
2A
102
}
330
2A
100
AcDbVisualStyle
  2
Linepattern
 70
    14
177
     2
291
     1
 71
     2
176
     1
 72
     2
176
     1
 73
     0
176
     1
 90
        0
176
     1
 40
-0.6
176
     1
 41
-30.0
176
     1
 62
     5
 63
     7
421
 16777215
176
     1
 74
     1
176
     1
 91
        4
176
     1
 64
     7
176
     1
 65
   257
176
     1
 75
     7
176
     1
175
     7
176
     1
 42
1.0
176
     1
 92
        8
176
     1
 66
     7
176
     1
 43
1.0
176
     1
 76
     1
176
     1
 77
     6
176
     1
 78
     2
176
     1
 67
     7
176
     1
 79
     5
176
     1
170
     0
176
     1
171
     0
176
     1
290
     0
176
     1
 93
        1
176
     1
 44
0.0
176
     1
173
     0
176
     1
  0
VISUALSTYLE
  5
33
102
{ACAD_REACTORS
330
2A
102
}
330
2A
100
AcDbVisualStyle
  2
Realistic
 70
     8
177
     2
291
     0
 71
     2
176
     1
 72
     2
176
     1
 73
     0
176
     1
 90
        0
176
     1
 40
-0.6
176
     1
 41
-30.0
176
     1
 62
     5
 63
     7
421
 16777215
176
     1
 74
     1
176
     1
 91
        0
176
     1
 64
     7
176
     1
 65
   257
176
     1
 75
     1
176
     1
175
     1
176
     1
 42
1.0
176
     1
 92
        8
176
     1
 66
     8
424
  7895160
176
     1
 43
1.0
176
     1
 76
     1
176
     1
 77
     6
176
     1
 78
     2
176
     1
 67
     7
176
     1
 79
     5
176
     1
170
     0
176
     1
171
     0
176
     1
290
     0
176
     1
 93
       13
176
     1
 44
0.0
176
     1
173
     0
176
     1
  0
VISUALSTYLE
  5
37
102
{ACAD_REACTORS
330
2A
102
}
330
2A
100
AcDbVisualStyle
  2
Thicken
 70
    13
177
     2
291
     1
 71
     2
176
     1
 72
     2
176
     1
 73
     0
176
     1
 90
        0
176
     1
 40
-0.6
176
     1
 41
-30.0
176
     1
 62
     5
 63
     7
421
 16777215
176
     1
 74
     1
176
     1
 91
        4
176
     1
 64
     7
176
     1
 65
   257
176
     1
 75
     1
176
     1
175
     1
176
     1
 42
1.0
176
     1
 92
       12
176
     1
 66
     7
176
     1
 43
1.0
176
     1
 76
     1
176
     1
 77
     6
176
     1
 78
     2
176
     1
 67
     7
176
     1
 79
     5
176
     1
170
     0
176
     1
171
     0
176
     1
290
     0
176
     1
 93
        1
176
     1
 44
0.0
176
     1
173
     0
176
     1
  0
ENDSEC
  0
EOF
