  0
SECTION
  2
HEADER
  9
$ACADVER
  1
AC1024
  9
$ACADMAINTVER
 70
     6
  9
$DWGCODEPAGE
  3
ANSI_932
  9
$INSBASE
 10
0.0
 20
0.0
 30
0.0
  9
$EXTMIN
 10
-6300.0
 20
-4455.0
 30
0.0
  9
$EXTMAX
 10
6300.0
 20
4455.0
 30
0.0
  9
$LIMMIN
 10
-6300.0
 20
-4455.0
  9
$LIMMAX
 10
6300.0
 20
4455.0
  9
$ORTHOMODE
 70
     0
  9
$REGENMODE
 70
     1
  9
$FILLMODE
 70
     1
  9
$QTEXTMODE
 70
     0
  9
$MIRRTEXT
 70
     1
  9
$LTSCALE
 40
30.0
  9
$ATTMODE
 70
     1
  9
$TEXTSIZE
 40
2.5
  9
$TRACEWID
 40
1.0
  9
$TEXTSTYLE
  7
Standard
  9
$CLAYER
  8
0
  9
$CELTYPE
  6
ByLayer
  9
$CECOLOR
 62
   256
  9
$CELTSCALE
 40
1.0
  9
$DISPSILH
 70
     0
  9
$DIMSCALE
 40
1.0
  9
$DIMASZ
 40
2.5
  9
$DIMEXO
 40
0.625
  9
$DIMDLI
 40
3.75
  9
$DIMRND
 40
0.0
  9
$DIMDLE
 40
0.0
  9
$DIMEXE
 40
1.25
  9
$DIMTP
 40
0.0
  9
$DIMTM
 40
0.0
  9
$DIMTXT
 40
2.5
  9
$DIMCEN
 40
2.5
  9
$DIMTSZ
 40
0.0
  9
$DIMTOL
 70
     0
  9
$DIMLIM
 70
     0
  9
$DIMTIH
 70
     0
  9
$DIMTOH
 70
     0
  9
$DIMSE1
 70
     0
  9
$DIMSE2
 70
     0
  9
$DIMTAD
 70
     1
  9
$DIMZIN
 70
     8
  9
$DIMBLK
  1

  9
$DIMASO
 70
     1
  9
$DIMSHO
 70
     1
  9
$DIMPOST
  1

  9
$DIMAPOST
  1

  9
$DIMALT
 70
     0
  9
$DIMALTD
 70
     3
  9
$DIMALTF
 40
0.03937007874016
  9
$DIMLFAC
 40
1.0
  9
$DIMTOFL
 70
     1
  9
$DIMTVP
 40
0.0
  9
$DIMTIX
 70
     0
  9
$DIMSOXD
 70
     0
  9
$DIMSAH
 70
     0
  9
$DIMBLK1
  1

  9
$DIMBLK2
  1

  9
$DIMSTYLE
  2
ISO-25
  9
$DIMCLRD
 70
     0
  9
$DIMCLRE
 70
     0
  9
$DIMCLRT
 70
     0
  9
$DIMTFAC
 40
1.0
  9
$DIMGAP
 40
0.625
  9
$DIMJUST
 70
     0
  9
$DIMSD1
 70
     0
  9
$DIMSD2
 70
     0
  9
$DIMTOLJ
 70
     0
  9
$DIMTZIN
 70
     8
  9
$DIMALTZ
 70
     0
  9
$DIMALTTZ
 70
     0
  9
$DIMUPT
 70
     0
  9
$DIMDEC
 70
     2
  9
$DIMTDEC
 70
     2
  9
$DIMALTU
 70
     2
  9
$DIMALTTD
 70
     3
  9
$DIMTXSTY
  7
Standard
  9
$DIMAUNIT
 70
     0
  9
$DIMADEC
 70
     0
  9
$DIMALTRND
 40
0.0
  9
$DIMAZIN
 70
     0
  9
$DIMDSEP
 70
    44
  9
$DIMATFIT
 70
     3
  9
$DIMFRAC
 70
     0
  9
$DIMLDRBLK
  1

  9
$DIMLUNIT
 70
     2
  9
$DIMLWD
 70
    -2
  9
$DIMLWE
 70
    -2
  9
$DIMTMOVE
 70
     0
  9
$DIMFXL
 40
1.0
  9
$DIMFXLON
 70
     0
  9
$DIMJOGANG
 40
0.7853981633974483
  9
$DIMTFILL
 70
     0
  9
$DIMTFILLCLR
 70
     0
  9
$DIMARCSYM
 70
     0
  9
$DIMLTYPE
  6

  9
$DIMLTEX1
  6

  9
$DIMLTEX2
  6

  9
$DIMTXTDIRECTION
 70
     0
  9
$LUNITS
 70
     2
  9
$LUPREC
 70
     4
  9
$SKETCHINC
 40
1.0
  9
$FILLETRAD
 40
10.0
  9
$AUNITS
 70
     0
  9
$AUPREC
 70
     0
  9
$MENU
  1
.
  9
$ELEVATION
 40
0.0
  9
$PELEVATION
 40
0.0
  9
$THICKNESS
 40
0.0
  9
$LIMCHECK
 70
     0
  9
$CHAMFERA
 40
10.0
  9
$CHAMFERB
 40
10.0
  9
$CHAMFERC
 40
20.0
  9
$CHAMFERD
 40
0.0
  9
$SKPOLY
 70
     0
  9
$TDCREATE
 40
2459411.586527511
  9
$TDUCREATE
 40
2459411.211527511
  9
$TDUPDATE
 40
2459411.586527523
  9
$TDUUPDATE
 40
2459411.211527523
  9
$TDINDWG
 40
0.0000000116
  9
$TDUSRTIMER
 40
0.0000000116
  9
$USRTIMER
 70
     1
  9
$ANGBASE
 50
0.0
  9
$ANGDIR
 70
     0
  9
$PDMODE
 70
     0
  9
$PDSIZE
 40
0.0
  9
$PLINEWID
 40
0.0
  9
$SPLFRAME
 70
     0
  9
$SPLINETYPE
 70
     6
  9
$SPLINESEGS
 70
     8
  9
$HANDSEED
  5
5A5
  9
$SURFTAB1
 70
     6
  9
$SURFTAB2
 70
     6
  9
$SURFTYPE
 70
     6
  9
$SURFU
 70
     6
  9
$SURFV
 70
     6
  9
$UCSBASE
  2

  9
$UCSNAME
  2

  9
$UCSORG
 10
0.0
 20
0.0
 30
0.0
  9
$UCSXDIR
 10
1.0
 20
0.0
 30
0.0
  9
$UCSYDIR
 10
0.0
 20
1.0
 30
0.0
  9
$UCSORTHOREF
  2

  9
$UCSORTHOVIEW
 70
     0
  9
$UCSORGTOP
 10
0.0
 20
0.0
 30
0.0
  9
$UCSORGBOTTOM
 10
0.0
 20
0.0
 30
0.0
  9
$UCSORGLEFT
 10
0.0
 20
0.0
 30
0.0
  9
$UCSORGRIGHT
 10
0.0
 20
0.0
 30
0.0
  9
$UCSORGFRONT
 10
0.0
 20
0.0
 30
0.0
  9
$UCSORGBACK
 10
0.0
 20
0.0
 30
0.0
  9
$PUCSBASE
  2

  9
$PUCSNAME
  2

  9
$PUCSORG
 10
0.0
 20
0.0
 30
0.0
  9
$PUCSXDIR
 10
1.0
 20
0.0
 30
0.0
  9
$PUCSYDIR
 10
0.0
 20
1.0
 30
0.0
  9
$PUCSORTHOREF
  2

  9
$PUCSORTHOVIEW
 70
     0
  9
$PUCSORGTOP
 10
0.0
 20
0.0
 30
0.0
  9
$PUCSORGBOTTOM
 10
0.0
 20
0.0
 30
0.0
  9
$PUCSORGLEFT
 10
0.0
 20
0.0
 30
0.0
  9
$PUCSORGRIGHT
 10
0.0
 20
0.0
 30
0.0
  9
$PUCSORGFRONT
 10
0.0
 20
0.0
 30
0.0
  9
$PUCSORGBACK
 10
0.0
 20
0.0
 30
0.0
  9
$USERI1
 70
     0
  9
$USERI2
 70
     0
  9
$USERI3
 70
     0
  9
$USERI4
 70
     0
  9
$USERI5
 70
     0
  9
$USERR1
 40
0.0
  9
$USERR2
 40
0.0
  9
$USERR3
 40
0.0
  9
$USERR4
 40
0.0
  9
$USERR5
 40
0.0
  9
$WORLDVIEW
 70
     1
  9
$SHADEDGE
 70
     3
  9
$SHADEDIF
 70
    70
  9
$TILEMODE
 70
     1
  9
$MAXACTVP
 70
    64
  9
$PINSBASE
 10
0.0
 20
0.0
 30
0.0
  9
$PLIMCHECK
 70
     0
  9
$PEXTMIN
 10
1.000000000000000E+20
 20
1.000000000000000E+20
 30
1.000000000000000E+20
  9
$PEXTMAX
 10
-1.000000000000000E+20
 20
-1.000000000000000E+20
 30
-1.000000000000000E+20
  9
$PLIMMIN
 10
0.0
 20
0.0
  9
$PLIMMAX
 10
420.0
 20
297.0
  9
$UNITMODE
 70
     0
  9
$VISRETAIN
 70
     1
  9
$PLINEGEN
 70
     0
  9
$PSLTSCALE
 70
     1
  9
$TREEDEPTH
 70
  3020
  9
$CMLSTYLE
  2
Standard
  9
$CMLJUST
 70
     0
  9
$CMLSCALE
 40
20.0
  9
$PROXYGRAPHICS
 70
     1
  9
$MEASUREMENT
 70
     1
  9
$CELWEIGHT
370
    -1
  9
$ENDCAPS
280
     0
  9
$JOINSTYLE
280
     0
  9
$LWDISPLAY
290
     0
  9
$INSUNITS
 70
     4
  9
$HYPERLINKBASE
  1

  9
$STYLESHEET
  1

  9
$XEDIT
290
     1
  9
$CEPSNTYPE
380
     0
  9
$PSTYLEMODE
290
     1
  9
$FINGERPRINTGUID
  2
{ACC84F3D-CFD8-4C6B-9A82-B4E1710968E8}
  9
$VERSIONGUID
  2
{FAEB1C32-E019-11D5-929B-00C0DF256EC4}
  9
$EXTNAMES
290
     1
  9
$PSVPSCALE
 40
0.0
  9
$OLESTARTUP
290
     0
  9
$SORTENTS
280
   127
  9
$INDEXCTL
280
     0
  9
$HIDETEXT
280
     1
  9
$XCLIPFRAME
280
     2
  9
$HALOGAP
280
     0
  9
$OBSCOLOR
 70
   257
  9
$OBSLTYPE
280
     0
  9
$INTERSECTIONDISPLAY
280
     0
  9
$INTERSECTIONCOLOR
 70
   257
  9
$DIMASSOC
280
     2
  9
$PROJECTNAME
  1

  9
$CAMERADISPLAY
290
     0
  9
$LENSLENGTH
 40
50.0
  9
$CAMERAHEIGHT
 40
0.0
  9
$STEPSPERSEC
 40
2.0
  9
$STEPSIZE
 40
6.0
  9
$3DDWFPREC
 40
2.0
  9
$PSOLWIDTH
 40
5.0
  9
$PSOLHEIGHT
 40
80.0
  9
$LOFTANG1
 40
1.570796326794897
  9
$LOFTANG2
 40
1.570796326794897
  9
$LOFTMAG1
 40
0.0
  9
$LOFTMAG2
 40
0.0
  9
$LOFTPARAM
 70
     7
  9
$LOFTNORMALS
280
     1
  9
$LATITUDE
 40
37.795
  9
$LONGITUDE
 40
-122.394
  9
$NORTHDIRECTION
 40
0.0
  9
$TIMEZONE
 70
 -8000
  9
$LIGHTGLYPHDISPLAY
280
     1
  9
$TILEMODELIGHTSYNCH
280
     1
  9
$SOLIDHIST
280
     1
  9
$SHOWHIST
280
     1
  9
$DWFFRAME
280
     2
  9
$DGNFRAME
280
     2
  9
$REALWORLDSCALE
290
     1
  9
$INTERFERECOLOR
 62
   256
  9
$CSHADOW
280
     0
  9
$SHADOWPLANELOCATION
 40
0.0
  0
ENDSEC
  0
SECTION
  2
CLASSES
  0
CLASS
  1
ACDBDICTIONARYWDFLT
  2
AcDbDictionaryWithDefault
  3
ObjectDBX Classes
 90
        0
 91
        4
280
     0
281
     0
  0
CLASS
  1
VISUALSTYLE
  2
AcDbVisualStyle
  3
ObjectDBX Classes
 90
     4095
 91
        4
280
     0
281
     0
  0
CLASS
  1
MATERIAL
  2
AcDbMaterial
  3
ObjectDBX Classes
 90
     1153
 91
        4
280
     0
281
     0
  0
ENDSEC
  0
SECTION
  2
TABLES
  0
TABLE
  2
VPORT
  5
8
330
0
100
AcDbSymbolTable
 70
     1
  0
VPORT
  5
29
330
8
100
AcDbSymbolTableRecord
100
AcDbViewportTableRecord
  2
*Active
 70
     0
 10
0.0
 20
0.0
 11
1.0
 21
1.0
 12
0.0
 22
0.0
 13
0.0
 23
0.0
 14
10.0
 24
10.0
 15
10.0
 25
10.0
 16
0.0
 26
0.0
 36
1.0
 17
0.0
 27
0.0
 37
0.0
 40
9801.0
 41
1.414141414141414
 42
50.0
 43
0.0
 44
0.0
 50
0.0
 51
0.0
 71
     0
 72
 10000
 73
     1
 74
     3
 75
     0
 76
     0
 77
     0
 78
     0
281
     0
 65
     1
110
0.0
120
0.0
130
0.0
111
1.0
121
0.0
131
0.0
112
0.0
122
1.0
132
0.0
 79
     0
146
0.0
 60
     3
 61
     5
292
     1
282
     1
141
0.0
142
0.0
 63
   250
  0
ENDTAB
  0
TABLE
  2
LTYPE
  5
5
330
0
100
AcDbSymbolTable
 70
     4
  0
LTYPE
  5
14
330
5
100
AcDbSymbolTableRecord
100
AcDbLinetypeTableRecord
  2
ByBlock
 70
     0
  3

 72
    65
 73
     0
 40
0.0
  0
LTYPE
  5
15
330
5
100
AcDbSymbolTableRecord
100
AcDbLinetypeTableRecord
  2
ByLayer
 70
     0
  3

 72
    65
 73
     0
 40
0.0
  0
LTYPE
  5
16
330
5
100
AcDbSymbolTableRecord
100
AcDbLinetypeTableRecord
  2
Continuous
 70
     0
  3
Solid line
 72
    65
 73
     0
 40
0.0
  0
LTYPE
  5
3F
330
5
100
AcDbSymbolTableRecord
100
AcDbLinetypeTableRecord
  2
JWW_HOJO
 70
     0
  3
  -   -   -   -   -   -   -   - 
 72
    65
 73
     2
 40
1.693333333333333
 49
-1.27
 74
     0
 49
0.4233333333333333
 74
     0
  0
LTYPE
  5
40
330
5
100
AcDbSymbolTableRecord
100
AcDbLinetypeTableRecord
  2
JWW_DASHED1
 70
     0
  3
-  --  --  --  --  --  --  --  -
 72
    65
 73
     2
 40
1.693333333333333
 49
0.8466666666666667
 74
     0
 49
-0.8466666666666667
 74
     0
  0
LTYPE
  5
41
330
5
100
AcDbSymbolTableRecord
100
AcDbLinetypeTableRecord
  2
JWW_CENTER1
 70
     0
  3
-----  --  ----------  --  -----
 72
    65
 73
     4
 40
6.773333333333333
 49
4.233333333333333
 74
     0
 49
-0.8466666666666667
 74
     0
 49
0.8466666666666667
 74
     0
 49
-0.8466666666666667
 74
     0
  0
ENDTAB
  0
TABLE
  2
LAYER
  5
2
330
0
100
AcDbSymbolTable
 70
    11
  0
LAYER
  5
10
330
2
100
AcDbSymbolTableRecord
100
AcDbLayerTableRecord
  2
0
 70
     0
 62
     7
  6
Continuous
370
    -3
390
F
347
3E
  0
LAYER
  5
42
330
2
100
AcDbSymbolTableRecord
100
AcDbLayerTableRecord
  2
F-1_枠
 70
     0
 62
     7
  6
Continuous
370
    -3
390
F
347
3E
  0
LAYER
  5
43
330
2
100
AcDbSymbolTableRecord
100
AcDbLayerTableRecord
  2
F-0_補助線
 70
     0
 62
     7
  6
Continuous
370
    -3
390
F
347
3E
  0
LAYER
  5
44
330
2
100
AcDbSymbolTableRecord
100
AcDbLayerTableRecord
  2
F-A_文字
 70
     0
 62
     7
  6
Continuous
370
    -3
390
F
347
3E
  0
LAYER
  5
45
330
2
100
AcDbSymbolTableRecord
100
AcDbLayerTableRecord
  2
0-0_補助線
 70
     0
 62
     7
  6
Continuous
370
    -3
390
F
347
3E
  0
LAYER
  5
46
330
2
100
AcDbSymbolTableRecord
100
AcDbLayerTableRecord
  2
0-A_文字
 70
     0
 62
     7
  6
Continuous
370
    -3
390
F
347
3E
  0
LAYER
  5
47
330
2
100
AcDbSymbolTableRecord
100
AcDbLayerTableRecord
  2
0-4_枠
 70
     0
 62
     7
  6
Continuous
370
    -3
390
F
347
3E
  0
LAYER
  5
48
330
2
100
AcDbSymbolTableRecord
100
AcDbLayerTableRecord
  2
0-B_寸法
 70
     0
 62
     7
  6
Continuous
370
    -3
390
F
347
3E
  0
LAYER
  5
49
330
2
100
AcDbSymbolTableRecord
100
AcDbLayerTableRecord
  2
0-2_扉
 70
     0
 62
     7
  6
Continuous
370
    -3
390
F
347
3E
  0
LAYER
  5
4A
330
2
100
AcDbSymbolTableRecord
100
AcDbLayerTableRecord
  2
引手
 70
     0
 62
     7
  6
Continuous
370
    -3
390
F
347
3E
  0
LAYER
  5
4B
330
2
100
AcDbSymbolTableRecord
100
AcDbLayerTableRecord
  2
0-3_仕上げ
 70
     0
 62
     7
  6
Continuous
370
    -3
390
F
347
3E
  0
ENDTAB
  0
TABLE
  2
STYLE
  5
3
330
0
100
AcDbSymbolTable
 70
     1
  0
STYLE
  5
11
330
3
100
AcDbSymbolTableRecord
100
AcDbTextStyleTableRecord
  2
Standard
 70
     0
 40
0.0
 41
1.0
 50
0.0
 71
     0
 42
2.5
  3
txt
  4

  0
ENDTAB
  0
TABLE
  2
VIEW
  5
6
330
0
100
AcDbSymbolTable
 70
     0
  0
ENDTAB
  0
TABLE
  2
UCS
  5
7
330
0
100
AcDbSymbolTable
 70
     0
  0
ENDTAB
  0
TABLE
  2
APPID
  5
9
330
0
100
AcDbSymbolTable
 70
     1
  0
APPID
  5
12
330
9
100
AcDbSymbolTableRecord
100
AcDbRegAppTableRecord
  2
ACAD
 70
     0
  0
ENDTAB
  0
TABLE
  2
DIMSTYLE
  5
A
330
0
100
AcDbSymbolTable
 70
     1
100
AcDbDimStyleTable
  0
DIMSTYLE
105
27
330
A
100
AcDbSymbolTableRecord
100
AcDbDimStyleTableRecord
  2
ISO-25
 70
     0
 41
2.5
 42
0.625
 43
3.75
 44
1.25
 73
     0
 74
     0
 77
     1
 78
     8
140
2.5
141
2.5
143
0.03937007874016
147
0.625
171
     3
172
     1
178
     0
271
     2
272
     2
274
     3
278
    44
283
     0
284
     8
340
11
  0
ENDTAB
  0
TABLE
  2
BLOCK_RECORD
  5
1
330
0
100
AcDbSymbolTable
 70
     1
  0
BLOCK_RECORD
  5
1F
330
1
100
AcDbSymbolTableRecord
100
AcDbBlockTableRecord
  2
*Model_Space
340
22
 70
     0
280
     1
281
     0
  0
BLOCK_RECORD
  5
1B
330
1
100
AcDbSymbolTableRecord
100
AcDbBlockTableRecord
  2
*Paper_Space
340
1E
 70
     0
280
     1
281
     0
  0
BLOCK_RECORD
  5
23
330
1
100
AcDbSymbolTableRecord
100
AcDbBlockTableRecord
  2
*Paper_Space0
340
26
 70
     0
280
     1
281
     0
  0
ENDTAB
  0
ENDSEC
  0
SECTION
  2
BLOCKS
  0
BLOCK
  5
20
330
1F
100
AcDbEntity
  8
0
100
AcDbBlockBegin
  2
*Model_Space
 70
     0
 10
0.0
 20
0.0
 30
0.0
  3
*Model_Space
  1

  0
ENDBLK
  5
21
330
1F
100
AcDbEntity
  8
0
100
AcDbBlockEnd
  0
BLOCK
  5
1C
330
1B
100
AcDbEntity
 67
     1
  8
0
100
AcDbBlockBegin
  2
*Paper_Space
 70
     0
 10
0.0
 20
0.0
 30
0.0
  3
*Paper_Space
  1

  0
ENDBLK
  5
1D
330
1B
100
AcDbEntity
 67
     1
  8
0
100
AcDbBlockEnd
  0
BLOCK
  5
24
330
23
100
AcDbEntity
  8
0
100
AcDbBlockBegin
  2
*Paper_Space0
 70
     0
 10
0.0
 20
0.0
 30
0.0
  3
*Paper_Space0
  1

  0
ENDBLK
  5
25
330
23
100
AcDbEntity
  8
0
100
AcDbBlockEnd
  0
ENDSEC
  0
SECTION
  2
ENTITIES
  0
LINE
  5
4C
330
1F
100
AcDbEntity
  8
F-1_枠
  6
Continuous
 62
   200
370
    20
100
AcDbLine
 10
-5999.999752560178
 20
4174.999769056166
 30
0.0
 11
5699.998762800888
 21
4174.999769056166
 31
0.0
  0
LINE
  5
4D
330
1F
100
AcDbEntity
  8
F-0_補助線
  6
JWW_HOJO
 62
   120
370
     5
100
AcDbLine
 10
-6300.0
 20
-4455.0
 30
0.0
 11
-6300.0
 21
4424.999604096284
 31
0.0
  0
LINE
  5
4E
330
1F
100
AcDbEntity
  8
F-0_補助線
  6
JWW_HOJO
 62
   120
370
     5
100
AcDbLine
 10
5999.999010240709
 20
4424.999604096284
 30
0.0
 11
5999.999010240709
 21
-4455.0
 31
0.0
  0
LINE
  5
4F
330
1F
100
AcDbEntity
  8
F-0_補助線
  6
JWW_HOJO
 62
   120
370
     5
100
AcDbLine
 10
5999.999010240709
 20
-4455.0
 30
0.0
 11
-6300.0
 21
-4455.0
 31
0.0
  0
LINE
  5
50
330
1F
100
AcDbEntity
  8
F-1_枠
  6
Continuous
 62
   200
370
    20
100
AcDbLine
 10
-5999.999752560178
 20
4164.999983504013
 30
0.0
 11
5699.998762800888
 21
4164.999983504013
 31
0.0
  0
LINE
  5
51
330
1F
100
AcDbEntity
  8
F-1_枠
  6
Continuous
 62
   200
370
    20
100
AcDbLine
 10
-5999.999752560178
 20
4169.999505120355
 30
0.0
 11
5699.998762800888
 21
4169.999505120355
 31
0.0
  0
LINE
  5
52
330
1F
100
AcDbEntity
  8
F-1_枠
  6
Continuous
 62
   200
370
    20
100
AcDbLine
 10
5689.998977248734
 20
4174.999769056166
 30
0.0
 11
5689.998977248734
 21
-4205.000164959882
 31
0.0
  0
LINE
  5
53
330
1F
100
AcDbEntity
  8
F-1_枠
  6
Continuous
 62
   200
370
    20
100
AcDbLine
 10
5694.998498865077
 20
4174.999769056166
 30
0.0
 11
5694.998498865077
 21
-4205.000164959882
 31
0.0
  0
LINE
  5
54
330
1F
100
AcDbEntity
  8
F-1_枠
  6
Continuous
 62
   200
370
    20
100
AcDbLine
 10
5699.998762800888
 20
4174.999769056166
 30
0.0
 11
5699.998762800888
 21
-4205.000164959882
 31
0.0
  0
LINE
  5
55
330
1F
100
AcDbEntity
  8
F-1_枠
  6
Continuous
 62
   200
370
    20
100
AcDbLine
 10
-5989.999990205507
 20
4174.999769056166
 30
0.0
 11
-5989.999990205507
 21
-4205.000164959882
 31
0.0
  0
LINE
  5
56
330
1F
100
AcDbEntity
  8
F-1_枠
  6
Continuous
 62
   200
370
    20
100
AcDbLine
 10
-5994.999975771518
 20
4174.999769056166
 30
0.0
 11
-5994.999975771518
 21
-4205.000164959882
 31
0.0
  0
LINE
  5
57
330
1F
100
AcDbEntity
  8
F-1_枠
  6
Continuous
 62
   200
370
    20
100
AcDbLine
 10
-5999.99998453501
 20
4174.999769056166
 30
0.0
 11
-5999.99998453501
 21
-4205.000164959882
 31
0.0
  0
LINE
  5
58
330
1F
100
AcDbEntity
  8
F-1_枠
  6
Continuous
 62
   200
370
    20
100
AcDbLine
 10
-5490.000018557986
 20
4174.999769056166
 30
0.0
 11
-5490.000018557986
 21
-3790.000179909372
 31
0.0
  0
LINE
  5
59
330
1F
100
AcDbEntity
  8
F-0_補助線
  6
JWW_HOJO
 62
   120
370
     5
100
AcDbLine
 10
-6300.0
 20
4424.999604096284
 30
0.0
 11
5999.999010240709
 21
4424.999604096284
 31
0.0
  0
LINE
  5
5A
330
1F
100
AcDbEntity
  8
F-0_補助線
  6
JWW_HOJO
 62
     7
370
     9
100
AcDbLine
 10
849.9995876002961
 20
-3795.000003092998
 30
0.0
 11
849.9995876002961
 21
-4195.000008247994
 31
0.0
  0
LINE
  5
5B
330
1F
100
AcDbEntity
  8
F-0_補助線
  6
JWW_HOJO
 62
     7
370
     9
100
AcDbLine
 10
349.9999175200594
 20
-3795.000003092998
 30
0.0
 11
349.9999175200594
 21
-4195.000008247994
 31
0.0
  0
LINE
  5
5C
330
1F
100
AcDbEntity
  8
F-1_枠
  6
Continuous
 62
   200
370
    20
100
AcDbLine
 10
5699.998762800888
 20
-4205.000002577498
 30
0.0
 11
-5999.999752560178
 21
-4205.000002577498
 31
0.0
  0
LINE
  5
5D
330
1F
100
AcDbEntity
  8
F-1_枠
  6
Continuous
 62
   200
370
    20
100
AcDbLine
 10
5699.998762800888
 20
-4199.999993814004
 30
0.0
 11
-5999.999752560178
 21
-4199.999993814004
 31
0.0
  0
LINE
  5
5E
330
1F
100
AcDbEntity
  8
F-1_枠
  6
Continuous
 62
   200
370
    20
100
AcDbLine
 10
5699.998762800888
 20
-4195.000008247994
 30
0.0
 11
-5999.999752560178
 21
-4195.000008247994
 31
0.0
  0
LINE
  5
5F
330
1F
100
AcDbEntity
  8
F-1_枠
  6
Continuous
 62
   200
370
    20
100
AcDbLine
 10
4189.999224688556
 20
-3795.000003092998
 30
0.0
 11
4189.999224688556
 21
-4195.000008247994
 31
0.0
  0
LINE
  5
60
330
1F
100
AcDbEntity
  8
F-1_枠
  6
Continuous
 62
   200
370
    20
100
AcDbLine
 10
2689.998729808911
 20
-3795.000003092998
 30
0.0
 11
2689.998729808911
 21
-4195.000008247994
 31
0.0
  0
LINE
  5
61
330
1F
100
AcDbEntity
  8
F-1_枠
  6
Continuous
 62
   200
370
    20
100
AcDbLine
 10
-150.0001237199109
 20
-3795.000003092998
 30
0.0
 11
-150.0001237199109
 21
-4195.000008247994
 31
0.0
  0
LINE
  5
62
330
1F
100
AcDbEntity
  8
F-1_枠
  6
Continuous
 62
   200
370
    20
100
AcDbLine
 10
-150.0001237199109
 20
-3994.999936078046
 30
0.0
 11
5689.998977248734
 21
-3995.005364289155
 31
0.0
  0
LINE
  5
63
330
1F
100
AcDbEntity
  8
F-0_補助線
  6
JWW_HOJO
 62
     7
370
     9
100
AcDbLine
 10
-5989.999990205507
 20
-3994.99993607839
 30
0.0
 11
-150.0001237199109
 21
-3994.99993607839
 31
0.0
  0
LINE
  5
64
330
1F
100
AcDbEntity
  8
F-0_補助線
  6
JWW_HOJO
 62
     7
370
     9
100
AcDbLine
 10
-5989.999990205507
 20
-3904.99993607839
 30
0.0
 11
-150.0001237199109
 21
-3904.99993607839
 31
0.0
  0
LINE
  5
65
330
1F
100
AcDbEntity
  8
F-0_補助線
  6
JWW_HOJO
 62
     7
370
     9
100
AcDbLine
 10
-5989.999990205507
 20
-4084.99993607839
 30
0.0
 11
-150.0001237199109
 21
-4084.99993607839
 31
0.0
  0
LINE
  5
66
330
1F
100
AcDbEntity
  8
F-0_補助線
  6
JWW_HOJO
 62
     7
370
     9
100
AcDbLine
 10
-150.0002584955388
 20
-4139.999739777983
 30
0.0
 11
5689.998842473105
 21
-4140.005167989091
 31
0.0
  0
LINE
  5
67
330
1F
100
AcDbEntity
  8
F-0_補助線
  6
JWW_HOJO
 62
     7
370
     9
100
AcDbLine
 10
-150.0001748415872
 20
-4049.999739778022
 30
0.0
 11
5689.998926127057
 21
-4050.005167989131
 31
0.0
  0
LINE
  5
68
330
1F
100
AcDbEntity
  8
F-0_補助線
  6
JWW_HOJO
 62
     7
370
     9
100
AcDbLine
 10
-150.0000725978671
 20
-3939.99973721807
 30
0.0
 11
5689.999028370777
 21
-3940.005165429179
 31
0.0
  0
LINE
  5
69
330
1F
100
AcDbEntity
  8
F-0_補助線
  6
JWW_HOJO
 62
     7
370
     9
100
AcDbLine
 10
-149.9999889439155
 20
-3849.999737218109
 30
0.0
 11
5689.999112024728
 21
-3850.005165429218
 31
0.0
  0
LINE
  5
6A
330
1F
100
AcDbEntity
  8
F-0_補助線
  6
JWW_HOJO
 62
     7
370
     9
100
AcDbLine
 10
2779.998729808911
 20
-3795.000003092998
 30
0.0
 11
2779.998729808911
 21
-4195.000008247994
 31
0.0
  0
LINE
  5
6B
330
1F
100
AcDbEntity
  8
F-0_補助線
  6
JWW_HOJO
 62
     7
370
     9
100
AcDbLine
 10
-60.0001237199109
 20
-3795.000003092998
 30
0.0
 11
-60.0001237199109
 21
-4195.000008247994
 31
0.0
  0
LINE
  5
6C
330
1F
100
AcDbEntity
  8
F-0_補助線
  6
JWW_HOJO
 62
     7
370
     9
100
AcDbLine
 10
4279.999224688556
 20
-3795.000003092998
 30
0.0
 11
4279.999224688556
 21
-4195.000008247994
 31
0.0
  0
LINE
  5
6D
330
1F
100
AcDbEntity
  8
F-0_補助線
  6
JWW_HOJO
 62
     7
370
     9
100
AcDbLine
 10
-5247.547376752838
 20
-3795.000003092999
 30
0.0
 11
-5247.547376752838
 21
-4205.000164959882
 31
0.0
  0
LINE
  5
6E
330
1F
100
AcDbEntity
  8
F-0_補助線
  6
JWW_HOJO
 62
     7
370
     9
100
AcDbLine
 10
-210.0001237199109
 20
-3795.000003092998
 30
0.0
 11
-210.0001237199109
 21
-4195.000008247994
 31
0.0
  0
LINE
  5
6F
330
1F
100
AcDbEntity
  8
F-1_枠
  6
Continuous
 62
   200
370
    20
100
AcDbLine
 10
5699.998762800888
 20
-3795.000003092998
 30
0.0
 11
-5999.99998453501
 21
-3795.000003092998
 31
0.0
  0
LINE
  5
70
330
1F
100
AcDbEntity
  8
F-1_枠
  6
Continuous
 62
   200
370
    20
100
AcDbLine
 10
-5999.99998453501
 20
3964.999818544131
 30
0.0
 11
5699.998762800888
 21
3964.999818544131
 31
0.0
  0
LINE
  5
71
330
1F
100
AcDbEntity
  8
F-1_枠
  6
Continuous
 62
   200
370
    20
100
AcDbLine
 10
5699.998762800888
 20
-3790.000017526987
 30
0.0
 11
-5999.99998453501
 21
-3790.000017526987
 31
0.0
  0
LINE
  5
72
330
1F
100
AcDbEntity
  8
F-1_枠
  6
Continuous
 62
   200
370
    20
100
AcDbLine
 10
-5999.99998453501
 20
190.5001831054688
 30
0.0
 11
5699.998762800888
 21
190.5001831054688
 31
0.0
  0
LINE
  5
73
330
1F
100
AcDbEntity
  8
F-1_枠
  6
Continuous
 62
   200
370
    20
100
AcDbLine
 10
-5999.99998453501
 20
-15.50015011349217
 30
0.0
 11
5699.998762800888
 21
-15.50015011349217
 31
0.0
  0
LINE
  5
74
330
1F
100
AcDbEntity
  8
F-1_枠
  6
Continuous
 62
   200
370
    20
100
AcDbLine
 10
-5999.99998453501
 20
184.5000148463899
 30
0.0
 11
5699.998762800888
 21
184.5000148463899
 31
0.0
  0
LINE
  5
75
330
1F
100
AcDbEntity
  8
F-1_枠
  6
Continuous
 62
   200
370
    20
100
AcDbLine
 10
-5999.99998453501
 20
187.5000989759289
 30
0.0
 11
5699.998762800888
 21
187.5000989759289
 31
0.0
  0
MTEXT
  5
76
330
1F
100
AcDbEntity
  8
F-A_文字
  6
Continuous
 62
     7
370
     9
100
AcDbMText
 10
-5890.000004381747
 20
4018.575148463894
 30
0.0
 40
57.15
 41
300.0
 46
0.0
 71
     7
 72
     1
  1
{\fＭＳ ゴシック|b0|i0|c128|p49;デザイン}
 73
     1
 44
1.0
  0
MTEXT
  5
77
330
1F
100
AcDbEntity
  8
F-A_文字
  6
Continuous
 62
     7
370
     9
100
AcDbMText
 10
-5852.500004381747
 20
2031.325062684755
 30
0.0
 40
57.15
 41
225.0
 46
0.0
 71
     7
 72
     1
  1
{\fＭＳ ゴシック|b0|i0|c128|p49;姿　図}
 73
     1
 44
1.0
  0
MTEXT
  5
78
330
1F
100
AcDbEntity
  8
F-A_文字
  6
Continuous
 62
     7
370
     9
100
AcDbMText
 10
-5890.000004381747
 20
38.07493236644844
 30
0.0
 40
57.15
 41
300.0
 46
0.0
 71
     7
 72
     1
  1
{\fＭＳ ゴシック|b0|i0|c128|p49;デザイン}
 73
     1
 44
1.0
  0
MTEXT
  5
79
330
1F
100
AcDbEntity
  8
F-A_文字
  6
Continuous
 62
     7
370
     9
100
AcDbMText
 10
-5852.500004381747
 20
-1949.175091552734
 30
0.0
 40
57.15
 41
225.0
 46
0.0
 71
     7
 72
     1
  1
{\fＭＳ ゴシック|b0|i0|c128|p49;姿　図}
 73
     1
 44
1.0
  0
MTEXT
  5
7A
330
1F
100
AcDbEntity
  8
F-A_文字
  6
Continuous
 62
     7
370
     0
100
AcDbMText
 10
-60.0001237199109
 20
-3887.139820871936
 30
0.0
 40
45.72
 41
180.0
 46
0.0
 71
     7
 72
     1
  1
{\fＭＳ ゴシック|b0|i0|c128|p49;図面名}
 73
     1
 44
1.0
  0
MTEXT
  5
7B
330
1F
100
AcDbEntity
  8
F-A_文字
  6
Continuous
 62
     7
370
     0
100
AcDbMText
 10
2779.998729808911
 20
-3887.142460617774
 30
0.0
 40
45.72
 41
300.0
 46
0.0
 71
     7
 72
     1
  1
{\fＭＳ ゴシック|b0|i0|c128|p49;ＳＣＡＬＥ}
 73
     1
 44
1.0
  0
MTEXT
  5
7C
330
1F
100
AcDbEntity
  8
F-A_文字
  6
Continuous
 62
     7
370
     0
100
AcDbMText
 10
4279.999224688556
 20
-3887.143854850754
 30
0.0
 40
45.72
 41
240.0
 46
0.0
 71
     7
 72
     1
  1
{\fＭＳ ゴシック|b0|i0|c128|p49;ＤＡＴＥ}
 73
     1
 44
1.0
  0
MTEXT
  5
7D
330
1F
100
AcDbEntity
  8
F-A_文字
  6
Continuous
 62
     7
370
     0
100
AcDbMText
 10
1180.417701903719
 20
-3946.423911599839
 30
0.0
 40
77.15249999999999
 41
405.0
 46
0.0
 71
     7
 72
     1
  1
{\fＭＳ ゴシック|b0|i0|c128|p49;建具姿図}
 73
     1
 44
1.0
  0
MTEXT
  5
7E
330
1F
100
AcDbEntity
  8
F-A_文字
  6
Continuous
 62
     7
370
     0
100
AcDbMText
 10
3383.748977248734
 20
-3946.426865907327
 30
0.0
 40
77.15249999999999
 41
202.5
 46
0.0
 71
     7
 72
     1
  1
{\fＭＳ ゴシック|b0|i0|c128|p49;1/30}
 73
     1
 44
1.0
  0
MTEXT
  5
7F
330
1F
100
AcDbEntity
  8
F-A_文字
  6
Continuous
 62
     7
370
     0
100
AcDbMText
 10
349.9999175200594
 20
-3946.496666872502
 30
0.0
 40
78.58125
 41
412.5
 46
0.0
 71
     7
 72
     1
  1
{\fＭＳ ゴシック|b0|i0|c128|p49;DOORETUS}
 73
     1
 44
1.0
  0
MTEXT
  5
80
330
1F
100
AcDbEntity
  8
F-A_文字
  6
Continuous
 62
     7
370
     0
100
AcDbMText
 10
2779.998729808911
 20
-4087.14246317786
 30
0.0
 40
45.72
 41
240.0
 46
0.0
 71
     7
 72
     1
  1
{\fＭＳ ゴシック|b0|i0|c128|p49;ＦＩＬＥ}
 73
     1
 44
1.0
  0
MTEXT
  5
81
330
1F
100
AcDbEntity
  8
F-A_文字
  6
Continuous
 62
     7
370
     0
100
AcDbMText
 10
4279.999224688556
 20
-4087.143857410839
 30
0.0
 40
45.72
 41
180.0
 46
0.0
 71
     7
 72
     1
  1
{\fＭＳ ゴシック|b0|i0|c128|p49;ＮＯ．}
 73
     1
 44
1.0
  0
MTEXT
  5
82
330
1F
100
AcDbEntity
  8
F-A_文字
  6
Continuous
 62
     7
370
     0
100
AcDbMText
 10
1234.998729808911
 20
-4096.140669266149
 30
0.0
 40
45.72
 41
120.0
 46
0.0
 71
     7
 72
     1
  1
{\fＭＳ ゴシック|b0|i0|c128|p49;株式}
 73
     1
 44
1.0
  0
MTEXT
  5
83
330
1F
100
AcDbEntity
  8
F-A_文字
  6
Continuous
 62
     7
370
     9
100
AcDbMText
 10
4936.249033580831
 20
-4147.857012699985
 30
0.0
 40
74.295
 41
97.5
 46
0.0
 71
     7
 72
     1
  1
{\fＭＳ ゴシック|b0|i0|c128|p49;01}
 73
     1
 44
1.0
  0
MTEXT
  5
84
330
1F
100
AcDbEntity
  8
F-A_文字
  6
Continuous
 62
     7
370
     0
100
AcDbMText
 10
1444.998729808911
 20
-4164.281754523929
 30
0.0
 40
101.44125
 41
1065.0
 46
0.0
 71
     7
 72
     1
  1
{\fＭＳ ゴシック|b0|i0|c128|p49;ウッドワン・・・}
 73
     1
 44
1.0
  0
MTEXT
  5
85
330
1F
100
AcDbEntity
  8
F-A_文字
  6
Continuous
 62
     7
370
     0
100
AcDbMText
 10
1234.998729808911
 20
-4168.140669266187
 30
0.0
 40
45.72
 41
120.0
 46
0.0
 71
     7
 72
     1
  1
{\fＭＳ ゴシック|b0|i0|c128|p49;会社}
 73
     1
 44
1.0
  0
MTEXT
  5
86
330
1F
100
AcDbEntity
  8
F-A_文字
  6
Continuous
 62
     7
370
     0
100
AcDbMText
 10
5608.403311109712
 20
-4314.841419020919
 30
0.0
 40
68.58
 41
90.0
 46
0.0
 71
     7
 72
     1
  1
{\fＭＳ ゴシック|b0|i0|c128|p49;）}
 73
     1
 44
1.0
  0
MTEXT
  5
87
330
1F
100
AcDbEntity
  8
F-A_文字
  6
Continuous
 62
     7
370
     0
100
AcDbMText
 10
5190.195950842071
 20
-4316.235443869856
 30
0.0
 40
68.58
 41
45.0
 46
0.0
 71
     7
 72
     1
  1
{\fＭＳ ゴシック|b0|i0|c128|p49;,}
 73
     1
 44
1.0
  0
MTEXT
  5
88
330
1F
100
AcDbEntity
  8
F-A_文字
  6
Continuous
 62
     7
370
     0
100
AcDbMText
 10
4923.937261915373
 20
-4314.771967288282
 30
0.0
 40
74.295
 41
97.5
 46
0.0
 71
     7
 72
     1
  1
{\fＭＳ ゴシック|b0|i0|c128|p49;$y}
 73
     1
 44
1.0
  0
MTEXT
  5
89
330
1F
100
AcDbEntity
  8
F-A_文字
  6
Continuous
 62
     7
370
     0
100
AcDbMText
 10
5078.673982954195
 20
-4314.771967288282
 30
0.0
 40
74.295
 41
97.5
 46
0.0
 71
     7
 72
     1
  1
{\fＭＳ ゴシック|b0|i0|c128|p49;$m}
 73
     1
 44
1.0
  0
MTEXT
  5
8A
330
1F
100
AcDbEntity
  8
F-A_文字
  6
Continuous
 62
     7
370
     0
100
AcDbMText
 10
5233.410715437103
 20
-4314.771967288282
 30
0.0
 40
74.295
 41
97.5
 46
0.0
 71
     7
 72
     1
  1
{\fＭＳ ゴシック|b0|i0|c128|p49;$d}
 73
     1
 44
1.0
  0
MTEXT
  5
8B
330
1F
100
AcDbEntity
  8
F-A_文字
  6
Continuous
 62
     7
370
     0
100
AcDbMText
 10
5388.147447920011
 20
-4314.771967288282
 30
0.0
 40
74.295
 41
195.0
 46
0.0
 71
     7
 72
     1
  1
{\fＭＳ ゴシック|b0|i0|c128|p49;印刷}
 73
     1
 44
1.0
  0
MTEXT
  5
8C
330
1F
100
AcDbEntity
  8
F-A_文字
  6
Continuous
 62
     7
370
     0
100
AcDbMText
 10
4784.033374252999
 20
-4319.023493567732
 30
0.0
 40
68.58
 41
90.0
 46
0.0
 71
     7
 72
     1
  1
{\fＭＳ ゴシック|b0|i0|c128|p49;（}
 73
     1
 44
1.0
  0
MTEXT
  5
8D
330
1F
100
AcDbEntity
  8
F-A_文字
  6
Continuous
 62
     7
370
     0
100
AcDbMText
 10
5031.277143812345
 20
-4319.023493567732
 30
0.0
 40
68.58
 41
45.0
 46
0.0
 71
     7
 72
     1
  1
{\fＭＳ ゴシック|b0|i0|c128|p49;,}
 73
     1
 44
1.0
  0
LINE
  5
8E
330
1F
100
AcDbEntity
  8
0-0_補助線
  6
JWW_HOJO
 62
   120
370
     5
100
AcDbLine
 10
-5370.000018557987
 20
4174.999769056166
 30
0.0
 11
-5370.000018557987
 21
-3790.000179909371
 31
0.0
  0
LINE
  5
8F
330
1F
100
AcDbEntity
  8
0-0_補助線
  6
JWW_HOJO
 62
   120
370
     5
100
AcDbLine
 10
-4756.150503200372
 20
3964.999818544131
 30
0.0
 11
-4756.150503200372
 21
-3790.000179909371
 31
0.0
  0
LINE
  5
90
330
1F
100
AcDbEntity
  8
0-0_補助線
  6
JWW_HOJO
 62
     7
370
     9
100
AcDbLine
 10
-4706.150503200371
 20
3964.999818544131
 30
0.0
 11
-4706.150503200371
 21
-3790.000179909371
 31
0.0
  0
LINE
  5
91
330
1F
100
AcDbEntity
  8
0-0_補助線
  6
JWW_HOJO
 62
     7
370
     9
100
AcDbLine
 10
-5989.999990205507
 20
1418.000148463894
 30
0.0
 11
5689.998977248734
 21
1418.000148463894
 31
0.0
  0
LINE
  5
92
330
1F
100
AcDbEntity
  8
0-0_補助線
  6
JWW_HOJO
 62
   120
370
     5
100
AcDbLine
 10
-5989.999990205507
 20
1368.000148463894
 30
0.0
 11
5689.998977248734
 21
1368.000148463894
 31
0.0
  0
LINE
  5
93
330
1F
100
AcDbEntity
  8
0-0_補助線
  6
JWW_HOJO
 62
     7
370
     9
100
AcDbLine
 10
-5989.999990205507
 20
1168.000148463894
 30
0.0
 11
5689.998977248734
 21
1168.000148463894
 31
0.0
  0
LINE
  5
94
330
1F
100
AcDbEntity
  8
0-0_補助線
  6
JWW_HOJO
 62
   120
370
     5
100
AcDbLine
 10
-5999.99998453501
 20
430.5001831054688
 30
0.0
 11
5689.998977248734
 21
430.5001831054688
 31
0.0
  0
LINE
  5
95
330
1F
100
AcDbEntity
  8
0-0_補助線
  6
JWW_HOJO
 62
   120
370
     5
100
AcDbLine
 10
-5999.99998453501
 20
310.5001831054688
 30
0.0
 11
5689.998977248734
 21
310.5001831054688
 31
0.0
  0
LINE
  5
96
330
1F
100
AcDbEntity
  8
0-0_補助線
  6
JWW_HOJO
 62
     7
370
     9
100
AcDbLine
 10
-5989.999990205507
 20
-2701.250083820241
 30
0.0
 11
5689.998977248734
 21
-2701.250083820241
 31
0.0
  0
LINE
  5
97
330
1F
100
AcDbEntity
  8
0-0_補助線
  6
JWW_HOJO
 62
   120
370
     5
100
AcDbLine
 10
-5989.999990205507
 20
-2751.250083820241
 30
0.0
 11
5689.998977248734
 21
-2751.250083820241
 31
0.0
  0
LINE
  5
98
330
1F
100
AcDbEntity
  8
0-0_補助線
  6
JWW_HOJO
 62
     7
370
     9
100
AcDbLine
 10
-5989.999990205507
 20
-2951.250083820241
 30
0.0
 11
5689.998977248734
 21
-2951.250083820241
 31
0.0
  0
LINE
  5
99
330
1F
100
AcDbEntity
  8
0-0_補助線
  6
JWW_HOJO
 62
   120
370
     5
100
AcDbLine
 10
-5999.99998453501
 20
550.5001831054688
 30
0.0
 11
5689.998977248734
 21
550.5001831054688
 31
0.0
  0
LINE
  5
9A
330
1F
100
AcDbEntity
  8
0-0_補助線
  6
JWW_HOJO
 62
   120
370
     5
100
AcDbLine
 10
5689.998977248734
 20
-3670.000017526988
 30
0.0
 11
-5999.99998453501
 21
-3670.000017526988
 31
0.0
  0
LINE
  5
9B
330
1F
100
AcDbEntity
  8
0-0_補助線
  6
JWW_HOJO
 62
   120
370
     5
100
AcDbLine
 10
5689.998977248734
 20
-3550.000017526988
 30
0.0
 11
-5999.99998453501
 21
-3550.000017526988
 31
0.0
  0
LINE
  5
9C
330
1F
100
AcDbEntity
  8
0-0_補助線
  6
JWW_HOJO
 62
   120
370
     5
100
AcDbLine
 10
5689.998977248734
 20
-3430.000017526988
 30
0.0
 11
-5999.99998453501
 21
-3430.000017526988
 31
0.0
  0
LINE
  5
9D
330
1F
100
AcDbEntity
  8
0-0_補助線
  6
JWW_HOJO
 62
   120
370
     5
100
AcDbLine
 10
219.9994793453743
 20
-3790.000179909371
 30
0.0
 11
219.9994793453743
 21
4174.999769056166
 31
0.0
  0
LINE
  5
9E
330
1F
100
AcDbEntity
  8
0-0_補助線
  6
JWW_HOJO
 62
   120
370
     5
100
AcDbLine
 10
833.8489947029888
 20
3964.999818544131
 30
0.0
 11
833.8489947029888
 21
-3790.000179909371
 31
0.0
  0
LINE
  5
9F
330
1F
100
AcDbEntity
  8
0-0_補助線
  6
JWW_HOJO
 62
     7
370
     9
100
AcDbLine
 10
883.8489947029893
 20
3964.999818544131
 30
0.0
 11
883.8489947029893
 21
-3790.000179909371
 31
0.0
  0
LINE
  5
A0
330
1F
100
AcDbEntity
  8
F-A_文字
  6
Continuous
 62
     7
370
     9
100
AcDbLine
 10
5689.998977248734
 20
187.5000989759289
 30
0.0
 11
99.99947934537431
 21
-3790.000017526987
 31
0.0
  0
LINE
  5
A1
330
1F
100
AcDbEntity
  8
F-1_枠
  6
Continuous
 62
   200
370
    20
100
AcDbLine
 10
99.99947934537431
 20
-3790.000017526987
 30
0.0
 11
99.99947934537431
 21
4174.999769056166
 31
0.0
  0
LINE
  5
A2
330
1F
100
AcDbEntity
  8
F-0_補助線
  6
JWW_HOJO
 62
   200
370
    20
100
AcDbLine
 10
-5999.99998453501
 20
84.49993236644843
 30
0.0
 11
5689.998977248734
 21
84.49993236644843
 31
0.0
  0
LINE
  5
A3
330
1F
100
AcDbEntity
  8
F-A_文字
  6
Continuous
 62
     7
370
     9
100
AcDbLine
 10
5689.998977248734
 20
4168.000067633552
 30
0.0
 11
99.99947934537431
 21
190.499951130636
 31
0.0
  0
LINE
  5
A4
330
1F
100
AcDbEntity
  8
F-A_文字
  6
Continuous
 62
     7
370
     9
100
AcDbLine
 10
99.99947934537346
 20
187.5000989759289
 30
0.0
 11
-5490.000018557987
 21
-3790.000017526987
 31
0.0
  0
MTEXT
  5
A5
330
1F
100
AcDbEntity
  8
F-A_文字
  6
Continuous
 62
     7
370
     0
100
AcDbMText
 10
4778.749126529666
 20
-3938.071010139966
 30
0.0
 40
78.86699999999999
 41
517.5
 46
0.0
 71
     7
 72
     1
  1
{\fＭＳ ゴシック|b0|i0|c128|p49;2021.04.01}
 73
     1
 44
1.0
  0
LINE
  5
A6
330
1F
100
AcDbEntity
  8
F-0_補助線
  6
JWW_HOJO
 62
   200
370
    20
100
AcDbLine
 10
-5999.99998453501
 20
4064.999901024072
 30
0.0
 11
5689.998977248734
 21
4064.999901024072
 31
0.0
  0
LINE
  5
A7
330
1F
100
AcDbEntity
  8
0-0_補助線
  6
JWW_HOJO
 62
   120
370
     5
100
AcDbLine
 10
5689.998977248734
 20
-3310.000017526988
 30
0.0
 11
-5999.99998453501
 21
-3310.000017526988
 31
0.0
  0
LINE
  5
A8
330
1F
100
AcDbEntity
  8
0-0_補助線
  6
JWW_HOJO
 62
   120
370
     5
100
AcDbLine
 10
5689.998977248734
 20
-3190.000017526988
 30
0.0
 11
-5999.99998453501
 21
-3190.000017526988
 31
0.0
  0
LINE
  5
A9
330
1F
100
AcDbEntity
  8
0-0_補助線
  6
JWW_HOJO
 62
   120
370
     5
100
AcDbLine
 10
-5999.99998453501
 20
670.5001831054688
 30
0.0
 11
5689.998977248734
 21
670.5001831054688
 31
0.0
  0
LINE
  5
AA
330
1F
100
AcDbEntity
  8
0-0_補助線
  6
JWW_HOJO
 62
   120
370
     5
100
AcDbLine
 10
-5999.99998453501
 20
790.5001831054688
 30
0.0
 11
5689.998977248734
 21
790.5001831054688
 31
0.0
  0
MTEXT
  5
AB
330
1F
100
AcDbEntity
  8
0-A_文字
  6
Continuous
 62
     7
370
     9
100
AcDbMText
 10
-5370.000018557987
 20
421.5754150803023
 30
0.0
 40
57.15000000000001
 41
1050.0
 46
0.0
 71
     7
 72
     1
  1
{\fＭＳ ゴシック|b0|i0|c128|p49;ハイドアの対応はありません。}
 73
     1
 44
1.0
  0
LINE
  5
AC
330
1F
100
AcDbEntity
  8
0-0_補助線
  6
JWW_HOJO
 62
     7
370
     9
100
AcDbLine
 10
-5989.999990205507
 20
3453.000148463893
 30
0.0
 11
5689.998977248734
 21
3453.000148463893
 31
0.0
  0
LINE
  5
AD
330
1F
100
AcDbEntity
  8
0-0_補助線
  6
JWW_HOJO
 62
     7
370
     9
100
AcDbLine
 10
-5989.999990205507
 20
-466.2500838202413
 30
0.0
 11
5689.998977248734
 21
-466.2500838202413
 31
0.0
  0
LINE
  5
AE
330
1F
100
AcDbEntity
  8
0-4_枠
  6
Continuous
 62
    92
370
    13
100
AcDbLine
 10
-4676.150503200371
 20
1418.000148463894
 30
0.0
 11
-4706.150503200371
 21
1418.000148463894
 31
0.0
  0
LINE
  5
AF
330
1F
100
AcDbEntity
  8
0-4_枠
  6
Continuous
 62
    92
370
    13
100
AcDbLine
 10
-4706.150503200371
 20
1418.000148463894
 30
0.0
 11
-4706.150503200371
 21
3453.000148463893
 31
0.0
  0
LINE
  5
B0
330
1F
100
AcDbEntity
  8
0-4_枠
  6
Continuous
 62
    92
370
    13
100
AcDbLine
 10
-4676.150503200371
 20
1418.000148463894
 30
0.0
 11
-4676.150503200371
 21
3453.000148463893
 31
0.0
  0
MTEXT
  5
B1
330
1F
100
AcDbEntity
  8
0-A_文字
  6
Continuous
 62
     7
370
     9
100
AcDbMText
 10
-2897.500269606305
 20
4013.576151024072
 30
0.0
 40
77.15249999999999
 41
405.0
 46
0.0
 71
     7
 72
     1
  1
{\fＭＳ ゴシック|b0|i0|c128|p49;Ｂ－ＸＱ}
 73
     1
 44
1.0
  0
MTEXT
  5
B2
330
1F
100
AcDbEntity
  8
0-A_文字
  6
Continuous
 62
     7
370
     9
100
AcDbMText
 10
-5370.000018557987
 20
541.5751831054687
 30
0.0
 40
57.15
 41
300.0
 46
0.0
 71
     7
 72
     1
  1
{\fＭＳ ゴシック|b0|i0|c128|p49;換気口付}
 73
     1
 44
1.0
  0
LINE
  5
B3
330
1F
100
AcDbEntity
  8
0-B_寸法
  6
Continuous
 62
   120
370
     5
100
AcDbLine
 10
-4956.150503200371
 20
3409.000148463892
 30
0.0
 11
-4756.150503200372
 21
3409.000148463892
 31
0.0
  0
LINE
  5
B4
330
1F
100
AcDbEntity
  8
0-B_寸法
  6
Continuous
 62
   120
370
     5
100
AcDbLine
 10
-4956.150503200371
 20
3409.000148463892
 30
0.0
 11
-4956.150503200371
 21
1426.000148463892
 31
0.0
  0
LWPOLYLINE
  5
B5
330
1F
100
AcDbEntity
  8
0-B_寸法
  6
Continuous
 62
     7
370
     9
100
AcDbPolyline
 90
        4
 70
     1
 43
3.0
 10
-4954.65050320037
 20
3409.000148463892
 42
0.4142135623731
 10
-4956.150503200371
 20
3410.500148463892
 42
0.4142135623731
 10
-4957.650503200371
 20
3409.000148463892
 42
0.4142135623731
 10
-4956.150503200371
 20
3407.500148463892
 42
0.4142135623731
  0
LWPOLYLINE
  5
B6
330
1F
100
AcDbEntity
  8
0-B_寸法
  6
Continuous
 62
     7
370
     9
100
AcDbPolyline
 90
        4
 70
     1
 43
3.0
 10
-4954.65050320037
 20
1426.000148463892
 42
0.4142135623731
 10
-4956.150503200371
 20
1427.500148463892
 42
0.4142135623731
 10
-4957.650503200371
 20
1426.000148463892
 42
0.4142135623731
 10
-4956.150503200371
 20
1424.500148463892
 42
0.4142135623731
  0
LINE
  5
B7
330
1F
100
AcDbEntity
  8
0-B_寸法
  6
Continuous
 62
   120
370
     5
100
AcDbLine
 10
-4956.150503200371
 20
1426.000148463892
 30
0.0
 11
-4756.150503200372
 21
1426.000148463892
 31
0.0
  0
MTEXT
  5
B8
330
1F
100
AcDbEntity
  8
0-B_寸法
  6
Continuous
 62
     7
370
    70
100
AcDbMText
 10
-4971.150503200371
 20
2208.325148463893
 30
0.0
 40
57.14999999999999
 41
412.5
 46
0.0
 71
     7
 72
     1
  1
{\fＭＳ ゴシック|b0|i0|c128|p49;ＤＨ＝1,983}
 11
6.123031769111886E-17
 21
1.0
 31
0.0
 73
     1
 44
1.0
  0
LINE
  5
B9
330
1F
100
AcDbEntity
  8
0-2_扉
  6
Continuous
 62
    92
370
    13
100
AcDbLine
 10
-3899.15050320037
 20
1426.000148463891
 30
0.0
 11
-3899.15050320037
 21
3409.000148463891
 31
0.0
  0
LINE
  5
BA
330
1F
100
AcDbEntity
  8
0-4_枠
  6
JWW_DASHED1
 62
   120
370
     5
100
AcDbLine
 10
-3869.15050320037
 20
1426.000148463891
 30
0.0
 11
-3869.15050320037
 21
3409.000148463891
 31
0.0
  0
LINE
  5
BB
330
1F
100
AcDbEntity
  8
引手
  6
JWW_CENTER1
 62
     7
370
     9
100
AcDbLine
 10
-4666.224669001696
 20
2383.500148463891
 30
0.0
 11
-4593.714972392536
 21
2383.500148463891
 31
0.0
  0
LINE
  5
BC
330
1F
100
AcDbEntity
  8
引手
  6
JWW_CENTER1
 62
     7
370
     9
100
AcDbLine
 10
-4628.150503200372
 20
2298.269479928366
 30
0.0
 11
-4628.150503200372
 21
2469.119751352503
 31
0.0
  0
LINE
  5
BD
330
1F
100
AcDbEntity
  8
引手
  6
JWW_DASHED1
 62
     7
370
     9
100
AcDbLine
 10
-4612.150503200372
 20
2332.500148463891
 30
0.0
 11
-4612.150503200372
 21
2434.500148463891
 31
0.0
  0
LINE
  5
BE
330
1F
100
AcDbEntity
  8
引手
  6
JWW_DASHED1
 62
     7
370
     9
100
AcDbLine
 10
-4644.150503200371
 20
2332.500148463891
 30
0.0
 11
-4612.150503200372
 21
2332.500148463891
 31
0.0
  0
LINE
  5
BF
330
1F
100
AcDbEntity
  8
引手
  6
JWW_DASHED1
 62
     7
370
     9
100
AcDbLine
 10
-4644.150503200371
 20
2332.500148463891
 30
0.0
 11
-4644.150503200371
 21
2434.500148463891
 31
0.0
  0
LINE
  5
C0
330
1F
100
AcDbEntity
  8
引手
  6
JWW_DASHED1
 62
     7
370
     9
100
AcDbLine
 10
-4644.150503200371
 20
2434.500148463891
 30
0.0
 11
-4612.150503200372
 21
2434.500148463891
 31
0.0
  0
LINE
  5
C1
330
1F
100
AcDbEntity
  8
引手
  6
Continuous
 62
     7
370
     9
100
AcDbLine
 10
-4647.150503200373
 20
2328.500148463891
 30
0.0
 11
-4609.150503200372
 21
2328.500148463891
 31
0.0
  0
LINE
  5
C2
330
1F
100
AcDbEntity
  8
引手
  6
Continuous
 62
     7
370
     9
100
AcDbLine
 10
-4640.650503200372
 20
2344.500148463891
 30
0.0
 11
-4615.650503200372
 21
2344.500148463891
 31
0.0
  0
LINE
  5
C3
330
1F
100
AcDbEntity
  8
引手
  6
Continuous
 62
     7
370
     9
100
AcDbLine
 10
-4640.650503200372
 20
2422.500148463891
 30
0.0
 11
-4615.650503200372
 21
2422.500148463891
 31
0.0
  0
LINE
  5
C4
330
1F
100
AcDbEntity
  8
引手
  6
Continuous
 62
     7
370
     9
100
AcDbLine
 10
-4647.150503200373
 20
2438.500148463891
 30
0.0
 11
-4609.150503200372
 21
2438.500148463891
 31
0.0
  0
LINE
  5
C5
330
1F
100
AcDbEntity
  8
引手
  6
Continuous
 62
     7
370
     9
100
AcDbLine
 10
-4647.150503200373
 20
2328.500148463891
 30
0.0
 11
-4647.150503200373
 21
2438.500148463891
 31
0.0
  0
LINE
  5
C6
330
1F
100
AcDbEntity
  8
引手
  6
Continuous
 62
     7
370
     9
100
AcDbLine
 10
-4640.650503200372
 20
2344.500148463891
 30
0.0
 11
-4640.650503200372
 21
2422.500148463891
 31
0.0
  0
LINE
  5
C7
330
1F
100
AcDbEntity
  8
引手
  6
Continuous
 62
     7
370
     9
100
AcDbLine
 10
-4615.650503200372
 20
2344.500148463891
 30
0.0
 11
-4615.650503200372
 21
2422.500148463891
 31
0.0
  0
LINE
  5
C8
330
1F
100
AcDbEntity
  8
引手
  6
Continuous
 62
     7
370
     9
100
AcDbLine
 10
-4609.150503200372
 20
2328.500148463891
 30
0.0
 11
-4609.150503200372
 21
2438.500148463891
 31
0.0
  0
LINE
  5
C9
330
1F
100
AcDbEntity
  8
0-2_扉
  6
JWW_DASHED1
 62
   120
370
     5
100
AcDbLine
 10
-4679.15050320037
 20
3409.000148463891
 30
0.0
 11
-4679.15050320037
 21
3405.000148463891
 31
0.0
  0
LINE
  5
CA
330
1F
100
AcDbEntity
  8
0-3_仕上げ
  6
Continuous
 62
   120
370
     5
100
AcDbLine
 10
-4388.15050320037
 20
3266.000148463897
 30
0.0
 11
-4160.15050320037
 21
3266.000148463897
 31
0.0
  0
LINE
  5
CB
330
1F
100
AcDbEntity
  8
0-3_仕上げ
  6
Continuous
 62
   120
370
     5
100
AcDbLine
 10
-4388.15050320037
 20
3256.000148463896
 30
0.0
 11
-4160.15050320037
 21
3256.000148463896
 31
0.0
  0
LINE
  5
CC
330
1F
100
AcDbEntity
  8
0-3_仕上げ
  6
Continuous
 62
   120
370
     5
100
AcDbLine
 10
-4388.15050320037
 20
3240.000148463897
 30
0.0
 11
-4160.15050320037
 21
3240.000148463897
 31
0.0
  0
LINE
  5
CD
330
1F
100
AcDbEntity
  8
0-3_仕上げ
  6
Continuous
 62
   120
370
     5
100
AcDbLine
 10
-4388.15050320037
 20
3230.000148463896
 30
0.0
 11
-4160.15050320037
 21
3230.000148463896
 31
0.0
  0
LINE
  5
CE
330
1F
100
AcDbEntity
  8
0-3_仕上げ
  6
Continuous
 62
   120
370
     5
100
AcDbLine
 10
-4388.15050320037
 20
3214.000148463896
 30
0.0
 11
-4160.15050320037
 21
3214.000148463896
 31
0.0
  0
LINE
  5
CF
330
1F
100
AcDbEntity
  8
0-3_仕上げ
  6
Continuous
 62
   120
370
     5
100
AcDbLine
 10
-4388.15050320037
 20
3204.000148463896
 30
0.0
 11
-4160.15050320037
 21
3204.000148463896
 31
0.0
  0
LINE
  5
D0
330
1F
100
AcDbEntity
  8
0-3_仕上げ
  6
Continuous
 62
   120
370
     5
100
AcDbLine
 10
-4388.15050320037
 20
3188.000148463896
 30
0.0
 11
-4160.15050320037
 21
3188.000148463896
 31
0.0
  0
LINE
  5
D1
330
1F
100
AcDbEntity
  8
0-3_仕上げ
  6
Continuous
 62
   120
370
     5
100
AcDbLine
 10
-4388.15050320037
 20
3178.000148463896
 30
0.0
 11
-4160.15050320037
 21
3178.000148463896
 31
0.0
  0
LINE
  5
D2
330
1F
100
AcDbEntity
  8
0-3_仕上げ
  6
Continuous
 62
   120
370
     5
100
AcDbLine
 10
-4388.15050320037
 20
3162.000148463897
 30
0.0
 11
-4160.15050320037
 21
3162.000148463897
 31
0.0
  0
LINE
  5
D3
330
1F
100
AcDbEntity
  8
0-3_仕上げ
  6
Continuous
 62
   120
370
     5
100
AcDbLine
 10
-4388.15050320037
 20
3152.000148463896
 30
0.0
 11
-4160.15050320037
 21
3152.000148463896
 31
0.0
  0
LINE
  5
D4
330
1F
100
AcDbEntity
  8
0-3_仕上げ
  6
Continuous
 62
   120
370
     5
100
AcDbLine
 10
-4388.15050320037
 20
3136.000148463896
 30
0.0
 11
-4160.15050320037
 21
3136.000148463896
 31
0.0
  0
LINE
  5
D5
330
1F
100
AcDbEntity
  8
0-3_仕上げ
  6
Continuous
 62
   120
370
     5
100
AcDbLine
 10
-4388.15050320037
 20
3126.000148463896
 30
0.0
 11
-4160.15050320037
 21
3126.000148463896
 31
0.0
  0
LINE
  5
D6
330
1F
100
AcDbEntity
  8
0-3_仕上げ
  6
Continuous
 62
   120
370
     5
100
AcDbLine
 10
-4388.15050320037
 20
3110.000148463896
 30
0.0
 11
-4160.15050320037
 21
3110.000148463896
 31
0.0
  0
LINE
  5
D7
330
1F
100
AcDbEntity
  8
0-3_仕上げ
  6
Continuous
 62
   120
370
     5
100
AcDbLine
 10
-4388.15050320037
 20
3100.000148463896
 30
0.0
 11
-4160.15050320037
 21
3100.000148463896
 31
0.0
  0
LINE
  5
D8
330
1F
100
AcDbEntity
  8
0-3_仕上げ
  6
Continuous
 62
   120
370
     5
100
AcDbLine
 10
-4388.15050320037
 20
3084.000148463896
 30
0.0
 11
-4160.15050320037
 21
3084.000148463896
 31
0.0
  0
LINE
  5
D9
330
1F
100
AcDbEntity
  8
0-3_仕上げ
  6
Continuous
 62
   120
370
     5
100
AcDbLine
 10
-4388.15050320037
 20
3074.000148463896
 30
0.0
 11
-4160.15050320037
 21
3074.000148463896
 31
0.0
  0
LINE
  5
DA
330
1F
100
AcDbEntity
  8
0-3_仕上げ
  6
Continuous
 62
   120
370
     5
100
AcDbLine
 10
-4388.15050320037
 20
3058.000148463896
 30
0.0
 11
-4160.15050320037
 21
3058.000148463896
 31
0.0
  0
LINE
  5
DB
330
1F
100
AcDbEntity
  8
0-3_仕上げ
  6
Continuous
 62
   120
370
     5
100
AcDbLine
 10
-4388.15050320037
 20
3048.000148463896
 30
0.0
 11
-4160.15050320037
 21
3048.000148463896
 31
0.0
  0
LINE
  5
DC
330
1F
100
AcDbEntity
  8
0-3_仕上げ
  6
Continuous
 62
   120
370
     5
100
AcDbLine
 10
-4388.15050320037
 20
3032.000148463896
 30
0.0
 11
-4160.15050320037
 21
3032.000148463896
 31
0.0
  0
LINE
  5
DD
330
1F
100
AcDbEntity
  8
0-3_仕上げ
  6
Continuous
 62
   120
370
     5
100
AcDbLine
 10
-4388.15050320037
 20
3022.000148463896
 30
0.0
 11
-4160.15050320037
 21
3022.000148463896
 31
0.0
  0
LINE
  5
DE
330
1F
100
AcDbEntity
  8
0-3_仕上げ
  6
Continuous
 62
   120
370
     5
100
AcDbLine
 10
-4388.15050320037
 20
3006.000148463896
 30
0.0
 11
-4160.15050320037
 21
3006.000148463896
 31
0.0
  0
LINE
  5
DF
330
1F
100
AcDbEntity
  8
0-3_仕上げ
  6
Continuous
 62
   120
370
     5
100
AcDbLine
 10
-4388.15050320037
 20
2996.000148463896
 30
0.0
 11
-4160.15050320037
 21
2996.000148463896
 31
0.0
  0
LINE
  5
E0
330
1F
100
AcDbEntity
  8
0-3_仕上げ
  6
Continuous
 62
   120
370
     5
100
AcDbLine
 10
-4388.15050320037
 20
2980.000148463895
 30
0.0
 11
-4160.15050320037
 21
2980.000148463895
 31
0.0
  0
LINE
  5
E1
330
1F
100
AcDbEntity
  8
0-3_仕上げ
  6
Continuous
 62
   120
370
     5
100
AcDbLine
 10
-4388.15050320037
 20
2970.000148463896
 30
0.0
 11
-4160.15050320037
 21
2970.000148463896
 31
0.0
  0
LINE
  5
E2
330
1F
100
AcDbEntity
  8
0-3_仕上げ
  6
Continuous
 62
   120
370
     5
100
AcDbLine
 10
-4388.15050320037
 20
2954.000148463896
 30
0.0
 11
-4160.15050320037
 21
2954.000148463896
 31
0.0
  0
LINE
  5
E3
330
1F
100
AcDbEntity
  8
0-3_仕上げ
  6
Continuous
 62
   120
370
     5
100
AcDbLine
 10
-4388.15050320037
 20
2944.000148463896
 30
0.0
 11
-4160.15050320037
 21
2944.000148463896
 31
0.0
  0
LINE
  5
E4
330
1F
100
AcDbEntity
  8
0-3_仕上げ
  6
Continuous
 62
   120
370
     5
100
AcDbLine
 10
-4388.15050320037
 20
2928.000148463896
 30
0.0
 11
-4160.15050320037
 21
2928.000148463896
 31
0.0
  0
LINE
  5
E5
330
1F
100
AcDbEntity
  8
0-3_仕上げ
  6
Continuous
 62
   120
370
     5
100
AcDbLine
 10
-4388.15050320037
 20
2918.000148463896
 30
0.0
 11
-4160.15050320037
 21
2918.000148463896
 31
0.0
  0
LINE
  5
E6
330
1F
100
AcDbEntity
  8
0-3_仕上げ
  6
Continuous
 62
   120
370
     5
100
AcDbLine
 10
-4388.15050320037
 20
2902.000148463896
 30
0.0
 11
-4160.15050320037
 21
2902.000148463896
 31
0.0
  0
LINE
  5
E7
330
1F
100
AcDbEntity
  8
0-3_仕上げ
  6
Continuous
 62
   120
370
     5
100
AcDbLine
 10
-4388.15050320037
 20
2892.000148463895
 30
0.0
 11
-4160.15050320037
 21
2892.000148463895
 31
0.0
  0
LINE
  5
E8
330
1F
100
AcDbEntity
  8
0-3_仕上げ
  6
Continuous
 62
   120
370
     5
100
AcDbLine
 10
-4388.15050320037
 20
2876.000148463895
 30
0.0
 11
-4160.15050320037
 21
2876.000148463895
 31
0.0
  0
LINE
  5
E9
330
1F
100
AcDbEntity
  8
0-3_仕上げ
  6
Continuous
 62
   120
370
     5
100
AcDbLine
 10
-4388.15050320037
 20
2866.000148463895
 30
0.0
 11
-4160.15050320037
 21
2866.000148463895
 31
0.0
  0
LINE
  5
EA
330
1F
100
AcDbEntity
  8
0-3_仕上げ
  6
Continuous
 62
   120
370
     5
100
AcDbLine
 10
-4388.15050320037
 20
2850.000148463895
 30
0.0
 11
-4160.15050320037
 21
2850.000148463895
 31
0.0
  0
LINE
  5
EB
330
1F
100
AcDbEntity
  8
0-3_仕上げ
  6
Continuous
 62
   120
370
     5
100
AcDbLine
 10
-4388.15050320037
 20
2840.000148463895
 30
0.0
 11
-4160.15050320037
 21
2840.000148463895
 31
0.0
  0
LINE
  5
EC
330
1F
100
AcDbEntity
  8
0-3_仕上げ
  6
Continuous
 62
   120
370
     5
100
AcDbLine
 10
-4388.15050320037
 20
2824.000148463895
 30
0.0
 11
-4160.15050320037
 21
2824.000148463895
 31
0.0
  0
LINE
  5
ED
330
1F
100
AcDbEntity
  8
0-3_仕上げ
  6
Continuous
 62
   120
370
     5
100
AcDbLine
 10
-4388.15050320037
 20
2814.000148463896
 30
0.0
 11
-4160.15050320037
 21
2814.000148463896
 31
0.0
  0
LINE
  5
EE
330
1F
100
AcDbEntity
  8
0-3_仕上げ
  6
Continuous
 62
   120
370
     5
100
AcDbLine
 10
-4388.15050320037
 20
2798.000148463895
 30
0.0
 11
-4160.15050320037
 21
2798.000148463895
 31
0.0
  0
LINE
  5
EF
330
1F
100
AcDbEntity
  8
0-3_仕上げ
  6
Continuous
 62
   120
370
     5
100
AcDbLine
 10
-4388.15050320037
 20
2788.000148463895
 30
0.0
 11
-4160.15050320037
 21
2788.000148463895
 31
0.0
  0
LINE
  5
F0
330
1F
100
AcDbEntity
  8
0-3_仕上げ
  6
Continuous
 62
   120
370
     5
100
AcDbLine
 10
-4388.15050320037
 20
2772.000148463895
 30
0.0
 11
-4160.15050320037
 21
2772.000148463895
 31
0.0
  0
LINE
  5
F1
330
1F
100
AcDbEntity
  8
0-3_仕上げ
  6
Continuous
 62
   120
370
     5
100
AcDbLine
 10
-4388.15050320037
 20
2762.000148463895
 30
0.0
 11
-4160.15050320037
 21
2762.000148463895
 31
0.0
  0
LINE
  5
F2
330
1F
100
AcDbEntity
  8
0-3_仕上げ
  6
Continuous
 62
   120
370
     5
100
AcDbLine
 10
-4388.15050320037
 20
2746.000148463895
 30
0.0
 11
-4160.15050320037
 21
2746.000148463895
 31
0.0
  0
LINE
  5
F3
330
1F
100
AcDbEntity
  8
0-3_仕上げ
  6
Continuous
 62
   120
370
     5
100
AcDbLine
 10
-4388.15050320037
 20
2736.000148463895
 30
0.0
 11
-4160.15050320037
 21
2736.000148463895
 31
0.0
  0
LINE
  5
F4
330
1F
100
AcDbEntity
  8
0-3_仕上げ
  6
Continuous
 62
   120
370
     5
100
AcDbLine
 10
-4388.15050320037
 20
2720.000148463895
 30
0.0
 11
-4160.15050320037
 21
2720.000148463895
 31
0.0
  0
LINE
  5
F5
330
1F
100
AcDbEntity
  8
0-3_仕上げ
  6
Continuous
 62
   120
370
     5
100
AcDbLine
 10
-4388.15050320037
 20
2710.000148463895
 30
0.0
 11
-4160.15050320037
 21
2710.000148463895
 31
0.0
  0
LINE
  5
F6
330
1F
100
AcDbEntity
  8
0-3_仕上げ
  6
Continuous
 62
   120
370
     5
100
AcDbLine
 10
-4388.15050320037
 20
2694.000148463895
 30
0.0
 11
-4160.15050320037
 21
2694.000148463895
 31
0.0
  0
LINE
  5
F7
330
1F
100
AcDbEntity
  8
0-3_仕上げ
  6
Continuous
 62
   120
370
     5
100
AcDbLine
 10
-4388.15050320037
 20
2684.000148463895
 30
0.0
 11
-4160.15050320037
 21
2684.000148463895
 31
0.0
  0
LINE
  5
F8
330
1F
100
AcDbEntity
  8
0-3_仕上げ
  6
Continuous
 62
   120
370
     5
100
AcDbLine
 10
-4388.15050320037
 20
2668.000148463894
 30
0.0
 11
-4160.15050320037
 21
2668.000148463894
 31
0.0
  0
LINE
  5
F9
330
1F
100
AcDbEntity
  8
0-3_仕上げ
  6
Continuous
 62
   120
370
     5
100
AcDbLine
 10
-4388.15050320037
 20
2658.000148463895
 30
0.0
 11
-4160.15050320037
 21
2658.000148463895
 31
0.0
  0
LINE
  5
FA
330
1F
100
AcDbEntity
  8
0-3_仕上げ
  6
Continuous
 62
   120
370
     5
100
AcDbLine
 10
-4388.15050320037
 20
2642.000148463895
 30
0.0
 11
-4160.15050320037
 21
2642.000148463895
 31
0.0
  0
LINE
  5
FB
330
1F
100
AcDbEntity
  8
0-3_仕上げ
  6
Continuous
 62
   120
370
     5
100
AcDbLine
 10
-4388.15050320037
 20
2632.000148463895
 30
0.0
 11
-4160.15050320037
 21
2632.000148463895
 31
0.0
  0
LINE
  5
FC
330
1F
100
AcDbEntity
  8
0-3_仕上げ
  6
Continuous
 62
   120
370
     5
100
AcDbLine
 10
-4388.15050320037
 20
2616.000148463895
 30
0.0
 11
-4160.15050320037
 21
2616.000148463895
 31
0.0
  0
LINE
  5
FD
330
1F
100
AcDbEntity
  8
0-3_仕上げ
  6
Continuous
 62
   120
370
     5
100
AcDbLine
 10
-4388.15050320037
 20
2606.000148463894
 30
0.0
 11
-4160.15050320037
 21
2606.000148463894
 31
0.0
  0
LINE
  5
FE
330
1F
100
AcDbEntity
  8
0-3_仕上げ
  6
Continuous
 62
   120
370
     5
100
AcDbLine
 10
-4388.15050320037
 20
2590.000148463895
 30
0.0
 11
-4160.15050320037
 21
2590.000148463895
 31
0.0
  0
LINE
  5
FF
330
1F
100
AcDbEntity
  8
0-3_仕上げ
  6
Continuous
 62
   120
370
     5
100
AcDbLine
 10
-4388.15050320037
 20
2580.000148463894
 30
0.0
 11
-4160.15050320037
 21
2580.000148463894
 31
0.0
  0
LINE
  5
100
330
1F
100
AcDbEntity
  8
0-3_仕上げ
  6
Continuous
 62
   120
370
     5
100
AcDbLine
 10
-4388.15050320037
 20
2564.000148463894
 30
0.0
 11
-4160.15050320037
 21
2564.000148463894
 31
0.0
  0
LINE
  5
101
330
1F
100
AcDbEntity
  8
0-3_仕上げ
  6
Continuous
 62
   120
370
     5
100
AcDbLine
 10
-4388.15050320037
 20
2554.000148463894
 30
0.0
 11
-4160.15050320037
 21
2554.000148463894
 31
0.0
  0
LINE
  5
102
330
1F
100
AcDbEntity
  8
0-3_仕上げ
  6
Continuous
 62
   120
370
     5
100
AcDbLine
 10
-4388.15050320037
 20
2538.000148463895
 30
0.0
 11
-4160.15050320037
 21
2538.000148463895
 31
0.0
  0
LINE
  5
103
330
1F
100
AcDbEntity
  8
0-3_仕上げ
  6
Continuous
 62
   120
370
     5
100
AcDbLine
 10
-4388.15050320037
 20
2528.000148463894
 30
0.0
 11
-4160.15050320037
 21
2528.000148463894
 31
0.0
  0
LINE
  5
104
330
1F
100
AcDbEntity
  8
0-3_仕上げ
  6
Continuous
 62
   120
370
     5
100
AcDbLine
 10
-4388.15050320037
 20
2512.000148463895
 30
0.0
 11
-4160.15050320037
 21
2512.000148463895
 31
0.0
  0
LINE
  5
105
330
1F
100
AcDbEntity
  8
0-3_仕上げ
  6
Continuous
 62
   120
370
     5
100
AcDbLine
 10
-4388.15050320037
 20
2502.000148463894
 30
0.0
 11
-4160.15050320037
 21
2502.000148463894
 31
0.0
  0
LINE
  5
106
330
1F
100
AcDbEntity
  8
0-3_仕上げ
  6
Continuous
 62
   120
370
     5
100
AcDbLine
 10
-4388.15050320037
 20
2486.000148463894
 30
0.0
 11
-4160.15050320037
 21
2486.000148463894
 31
0.0
  0
LINE
  5
107
330
1F
100
AcDbEntity
  8
0-3_仕上げ
  6
Continuous
 62
   120
370
     5
100
AcDbLine
 10
-4388.15050320037
 20
2476.000148463894
 30
0.0
 11
-4160.15050320037
 21
2476.000148463894
 31
0.0
  0
LINE
  5
108
330
1F
100
AcDbEntity
  8
0-3_仕上げ
  6
Continuous
 62
   120
370
     5
100
AcDbLine
 10
-4388.15050320037
 20
2460.000148463894
 30
0.0
 11
-4160.15050320037
 21
2460.000148463894
 31
0.0
  0
LINE
  5
109
330
1F
100
AcDbEntity
  8
0-3_仕上げ
  6
Continuous
 62
   120
370
     5
100
AcDbLine
 10
-4388.15050320037
 20
2450.000148463894
 30
0.0
 11
-4160.15050320037
 21
2450.000148463894
 31
0.0
  0
LINE
  5
10A
330
1F
100
AcDbEntity
  8
0-3_仕上げ
  6
Continuous
 62
   120
370
     5
100
AcDbLine
 10
-4388.15050320037
 20
2434.000148463894
 30
0.0
 11
-4160.15050320037
 21
2434.000148463894
 31
0.0
  0
LINE
  5
10B
330
1F
100
AcDbEntity
  8
0-3_仕上げ
  6
Continuous
 62
   120
370
     5
100
AcDbLine
 10
-4388.15050320037
 20
2424.000148463894
 30
0.0
 11
-4160.15050320037
 21
2424.000148463894
 31
0.0
  0
LINE
  5
10C
330
1F
100
AcDbEntity
  8
0-3_仕上げ
  6
Continuous
 62
   120
370
     5
100
AcDbLine
 10
-4388.15050320037
 20
2408.000148463894
 30
0.0
 11
-4160.15050320037
 21
2408.000148463894
 31
0.0
  0
LINE
  5
10D
330
1F
100
AcDbEntity
  8
0-3_仕上げ
  6
Continuous
 62
   120
370
     5
100
AcDbLine
 10
-4388.15050320037
 20
2398.000148463893
 30
0.0
 11
-4160.15050320037
 21
2398.000148463893
 31
0.0
  0
LINE
  5
10E
330
1F
100
AcDbEntity
  8
0-3_仕上げ
  6
Continuous
 62
   120
370
     5
100
AcDbLine
 10
-4388.15050320037
 20
2382.000148463893
 30
0.0
 11
-4160.15050320037
 21
2382.000148463893
 31
0.0
  0
LINE
  5
10F
330
1F
100
AcDbEntity
  8
0-3_仕上げ
  6
Continuous
 62
   120
370
     5
100
AcDbLine
 10
-4388.15050320037
 20
2372.000148463893
 30
0.0
 11
-4160.15050320037
 21
2372.000148463893
 31
0.0
  0
LINE
  5
110
330
1F
100
AcDbEntity
  8
0-3_仕上げ
  6
Continuous
 62
   120
370
     5
100
AcDbLine
 10
-4388.15050320037
 20
2356.000148463893
 30
0.0
 11
-4160.15050320037
 21
2356.000148463893
 31
0.0
  0
LINE
  5
111
330
1F
100
AcDbEntity
  8
0-3_仕上げ
  6
Continuous
 62
   120
370
     5
100
AcDbLine
 10
-4388.15050320037
 20
2346.000148463894
 30
0.0
 11
-4160.15050320037
 21
2346.000148463894
 31
0.0
  0
LINE
  5
112
330
1F
100
AcDbEntity
  8
0-3_仕上げ
  6
Continuous
 62
   120
370
     5
100
AcDbLine
 10
-4388.15050320037
 20
2330.000148463893
 30
0.0
 11
-4160.15050320037
 21
2330.000148463893
 31
0.0
  0
LINE
  5
113
330
1F
100
AcDbEntity
  8
0-3_仕上げ
  6
Continuous
 62
   120
370
     5
100
AcDbLine
 10
-4388.15050320037
 20
2320.000148463894
 30
0.0
 11
-4160.15050320037
 21
2320.000148463894
 31
0.0
  0
LINE
  5
114
330
1F
100
AcDbEntity
  8
0-3_仕上げ
  6
Continuous
 62
   120
370
     5
100
AcDbLine
 10
-4388.15050320037
 20
2304.000148463894
 30
0.0
 11
-4160.15050320037
 21
2304.000148463894
 31
0.0
  0
LINE
  5
115
330
1F
100
AcDbEntity
  8
0-3_仕上げ
  6
Continuous
 62
   120
370
     5
100
AcDbLine
 10
-4388.15050320037
 20
2294.000148463893
 30
0.0
 11
-4160.15050320037
 21
2294.000148463893
 31
0.0
  0
LINE
  5
116
330
1F
100
AcDbEntity
  8
0-3_仕上げ
  6
Continuous
 62
   120
370
     5
100
AcDbLine
 10
-4388.15050320037
 20
2278.000148463893
 30
0.0
 11
-4160.15050320037
 21
2278.000148463893
 31
0.0
  0
LINE
  5
117
330
1F
100
AcDbEntity
  8
0-3_仕上げ
  6
Continuous
 62
   120
370
     5
100
AcDbLine
 10
-4388.15050320037
 20
2268.000148463893
 30
0.0
 11
-4160.15050320037
 21
2268.000148463893
 31
0.0
  0
LINE
  5
118
330
1F
100
AcDbEntity
  8
0-3_仕上げ
  6
Continuous
 62
   120
370
     5
100
AcDbLine
 10
-4388.15050320037
 20
2252.000148463893
 30
0.0
 11
-4160.15050320037
 21
2252.000148463893
 31
0.0
  0
LINE
  5
119
330
1F
100
AcDbEntity
  8
0-3_仕上げ
  6
Continuous
 62
   120
370
     5
100
AcDbLine
 10
-4388.15050320037
 20
2242.000148463893
 30
0.0
 11
-4160.15050320037
 21
2242.000148463893
 31
0.0
  0
LINE
  5
11A
330
1F
100
AcDbEntity
  8
0-3_仕上げ
  6
Continuous
 62
   120
370
     5
100
AcDbLine
 10
-4388.15050320037
 20
2226.000148463893
 30
0.0
 11
-4160.15050320037
 21
2226.000148463893
 31
0.0
  0
LINE
  5
11B
330
1F
100
AcDbEntity
  8
0-3_仕上げ
  6
Continuous
 62
   120
370
     5
100
AcDbLine
 10
-4388.15050320037
 20
2216.000148463893
 30
0.0
 11
-4160.15050320037
 21
2216.000148463893
 31
0.0
  0
LINE
  5
11C
330
1F
100
AcDbEntity
  8
0-3_仕上げ
  6
Continuous
 62
   120
370
     5
100
AcDbLine
 10
-4388.15050320037
 20
2200.000148463893
 30
0.0
 11
-4160.15050320037
 21
2200.000148463893
 31
0.0
  0
LINE
  5
11D
330
1F
100
AcDbEntity
  8
0-3_仕上げ
  6
Continuous
 62
   120
370
     5
100
AcDbLine
 10
-4388.15050320037
 20
2190.000148463893
 30
0.0
 11
-4160.15050320037
 21
2190.000148463893
 31
0.0
  0
LINE
  5
11E
330
1F
100
AcDbEntity
  8
0-3_仕上げ
  6
Continuous
 62
   120
370
     5
100
AcDbLine
 10
-4388.15050320037
 20
2174.000148463893
 30
0.0
 11
-4160.15050320037
 21
2174.000148463893
 31
0.0
  0
LINE
  5
11F
330
1F
100
AcDbEntity
  8
0-3_仕上げ
  6
Continuous
 62
   120
370
     5
100
AcDbLine
 10
-4388.15050320037
 20
2164.000148463893
 30
0.0
 11
-4160.15050320037
 21
2164.000148463893
 31
0.0
  0
LINE
  5
120
330
1F
100
AcDbEntity
  8
0-3_仕上げ
  6
Continuous
 62
   120
370
     5
100
AcDbLine
 10
-4388.15050320037
 20
2148.000148463893
 30
0.0
 11
-4160.15050320037
 21
2148.000148463893
 31
0.0
  0
LINE
  5
121
330
1F
100
AcDbEntity
  8
0-3_仕上げ
  6
Continuous
 62
   120
370
     5
100
AcDbLine
 10
-4388.15050320037
 20
2138.000148463893
 30
0.0
 11
-4160.15050320037
 21
2138.000148463893
 31
0.0
  0
LINE
  5
122
330
1F
100
AcDbEntity
  8
0-3_仕上げ
  6
Continuous
 62
   120
370
     5
100
AcDbLine
 10
-4388.15050320037
 20
2122.000148463893
 30
0.0
 11
-4160.15050320037
 21
2122.000148463893
 31
0.0
  0
LINE
  5
123
330
1F
100
AcDbEntity
  8
0-3_仕上げ
  6
Continuous
 62
   120
370
     5
100
AcDbLine
 10
-4388.15050320037
 20
2112.000148463893
 30
0.0
 11
-4160.15050320037
 21
2112.000148463893
 31
0.0
  0
LINE
  5
124
330
1F
100
AcDbEntity
  8
0-3_仕上げ
  6
Continuous
 62
   120
370
     5
100
AcDbLine
 10
-4388.15050320037
 20
2096.000148463893
 30
0.0
 11
-4160.15050320037
 21
2096.000148463893
 31
0.0
  0
LINE
  5
125
330
1F
100
AcDbEntity
  8
0-3_仕上げ
  6
Continuous
 62
   120
370
     5
100
AcDbLine
 10
-4388.15050320037
 20
2086.000148463893
 30
0.0
 11
-4160.15050320037
 21
2086.000148463893
 31
0.0
  0
LINE
  5
126
330
1F
100
AcDbEntity
  8
0-3_仕上げ
  6
Continuous
 62
   120
370
     5
100
AcDbLine
 10
-4388.15050320037
 20
2070.000148463892
 30
0.0
 11
-4160.15050320037
 21
2070.000148463892
 31
0.0
  0
LINE
  5
127
330
1F
100
AcDbEntity
  8
0-3_仕上げ
  6
Continuous
 62
   120
370
     5
100
AcDbLine
 10
-4388.15050320037
 20
2060.000148463893
 30
0.0
 11
-4160.15050320037
 21
2060.000148463893
 31
0.0
  0
LINE
  5
128
330
1F
100
AcDbEntity
  8
0-3_仕上げ
  6
Continuous
 62
   120
370
     5
100
AcDbLine
 10
-4388.15050320037
 20
2044.000148463893
 30
0.0
 11
-4160.15050320037
 21
2044.000148463893
 31
0.0
  0
LINE
  5
129
330
1F
100
AcDbEntity
  8
0-3_仕上げ
  6
Continuous
 62
   120
370
     5
100
AcDbLine
 10
-4388.15050320037
 20
2034.000148463893
 30
0.0
 11
-4160.15050320037
 21
2034.000148463893
 31
0.0
  0
LINE
  5
12A
330
1F
100
AcDbEntity
  8
0-3_仕上げ
  6
Continuous
 62
   120
370
     5
100
AcDbLine
 10
-4388.15050320037
 20
2018.000148463893
 30
0.0
 11
-4160.15050320037
 21
2018.000148463893
 31
0.0
  0
LINE
  5
12B
330
1F
100
AcDbEntity
  8
0-3_仕上げ
  6
Continuous
 62
   120
370
     5
100
AcDbLine
 10
-4388.15050320037
 20
2008.000148463893
 30
0.0
 11
-4160.15050320037
 21
2008.000148463893
 31
0.0
  0
LINE
  5
12C
330
1F
100
AcDbEntity
  8
0-3_仕上げ
  6
Continuous
 62
   120
370
     5
100
AcDbLine
 10
-4388.15050320037
 20
1992.000148463893
 30
0.0
 11
-4160.15050320037
 21
1992.000148463893
 31
0.0
  0
LINE
  5
12D
330
1F
100
AcDbEntity
  8
0-3_仕上げ
  6
Continuous
 62
   120
370
     5
100
AcDbLine
 10
-4388.15050320037
 20
1982.000148463892
 30
0.0
 11
-4160.15050320037
 21
1982.000148463892
 31
0.0
  0
LINE
  5
12E
330
1F
100
AcDbEntity
  8
0-3_仕上げ
  6
Continuous
 62
   120
370
     5
100
AcDbLine
 10
-4388.15050320037
 20
1966.000148463891
 30
0.0
 11
-4160.15050320037
 21
1966.000148463891
 31
0.0
  0
LINE
  5
12F
330
1F
100
AcDbEntity
  8
0-3_仕上げ
  6
Continuous
 62
   120
370
     5
100
AcDbLine
 10
-4388.15050320037
 20
1956.000148463892
 30
0.0
 11
-4160.15050320037
 21
1956.000148463892
 31
0.0
  0
LINE
  5
130
330
1F
100
AcDbEntity
  8
0-3_仕上げ
  6
Continuous
 62
   120
370
     5
100
AcDbLine
 10
-4388.15050320037
 20
1940.000148463892
 30
0.0
 11
-4160.15050320037
 21
1940.000148463892
 31
0.0
  0
LINE
  5
131
330
1F
100
AcDbEntity
  8
0-3_仕上げ
  6
Continuous
 62
   120
370
     5
100
AcDbLine
 10
-4388.15050320037
 20
1930.000148463892
 30
0.0
 11
-4160.15050320037
 21
1930.000148463892
 31
0.0
  0
LINE
  5
132
330
1F
100
AcDbEntity
  8
0-3_仕上げ
  6
Continuous
 62
   120
370
     5
100
AcDbLine
 10
-4388.15050320037
 20
1914.000148463893
 30
0.0
 11
-4160.15050320037
 21
1914.000148463893
 31
0.0
  0
LINE
  5
133
330
1F
100
AcDbEntity
  8
0-3_仕上げ
  6
Continuous
 62
   120
370
     5
100
AcDbLine
 10
-4388.15050320037
 20
1904.000148463892
 30
0.0
 11
-4160.15050320037
 21
1904.000148463892
 31
0.0
  0
LINE
  5
134
330
1F
100
AcDbEntity
  8
0-3_仕上げ
  6
Continuous
 62
   120
370
     5
100
AcDbLine
 10
-4388.15050320037
 20
1888.000148463893
 30
0.0
 11
-4160.15050320037
 21
1888.000148463893
 31
0.0
  0
LINE
  5
135
330
1F
100
AcDbEntity
  8
0-3_仕上げ
  6
Continuous
 62
   120
370
     5
100
AcDbLine
 10
-4388.15050320037
 20
1878.000148463892
 30
0.0
 11
-4160.15050320037
 21
1878.000148463892
 31
0.0
  0
LINE
  5
136
330
1F
100
AcDbEntity
  8
0-3_仕上げ
  6
Continuous
 62
   120
370
     5
100
AcDbLine
 10
-4388.15050320037
 20
1862.000148463892
 30
0.0
 11
-4160.15050320037
 21
1862.000148463892
 31
0.0
  0
LINE
  5
137
330
1F
100
AcDbEntity
  8
0-3_仕上げ
  6
Continuous
 62
   120
370
     5
100
AcDbLine
 10
-4388.15050320037
 20
1852.000148463892
 30
0.0
 11
-4160.15050320037
 21
1852.000148463892
 31
0.0
  0
LINE
  5
138
330
1F
100
AcDbEntity
  8
0-3_仕上げ
  6
Continuous
 62
   120
370
     5
100
AcDbLine
 10
-4388.15050320037
 20
1836.000148463892
 30
0.0
 11
-4160.15050320037
 21
1836.000148463892
 31
0.0
  0
LINE
  5
139
330
1F
100
AcDbEntity
  8
0-3_仕上げ
  6
Continuous
 62
   120
370
     5
100
AcDbLine
 10
-4388.15050320037
 20
1826.000148463892
 30
0.0
 11
-4160.15050320037
 21
1826.000148463892
 31
0.0
  0
LINE
  5
13A
330
1F
100
AcDbEntity
  8
0-3_仕上げ
  6
Continuous
 62
   120
370
     5
100
AcDbLine
 10
-4388.15050320037
 20
1810.000148463892
 30
0.0
 11
-4160.15050320037
 21
1810.000148463892
 31
0.0
  0
LINE
  5
13B
330
1F
100
AcDbEntity
  8
0-3_仕上げ
  6
Continuous
 62
   120
370
     5
100
AcDbLine
 10
-4388.15050320037
 20
1800.000148463892
 30
0.0
 11
-4160.15050320037
 21
1800.000148463892
 31
0.0
  0
LINE
  5
13C
330
1F
100
AcDbEntity
  8
0-3_仕上げ
  6
Continuous
 62
   120
370
     5
100
AcDbLine
 10
-4388.15050320037
 20
1784.000148463892
 30
0.0
 11
-4160.15050320037
 21
1784.000148463892
 31
0.0
  0
LINE
  5
13D
330
1F
100
AcDbEntity
  8
0-3_仕上げ
  6
Continuous
 62
   120
370
     5
100
AcDbLine
 10
-4388.15050320037
 20
1774.000148463891
 30
0.0
 11
-4160.15050320037
 21
1774.000148463891
 31
0.0
  0
LINE
  5
13E
330
1F
100
AcDbEntity
  8
0-3_仕上げ
  6
Continuous
 62
   120
370
     5
100
AcDbLine
 10
-4388.15050320037
 20
1758.000148463891
 30
0.0
 11
-4160.15050320037
 21
1758.000148463891
 31
0.0
  0
LINE
  5
13F
330
1F
100
AcDbEntity
  8
0-3_仕上げ
  6
Continuous
 62
   120
370
     5
100
AcDbLine
 10
-4388.15050320037
 20
1748.000148463892
 30
0.0
 11
-4160.15050320037
 21
1748.000148463892
 31
0.0
  0
LINE
  5
140
330
1F
100
AcDbEntity
  8
0-3_仕上げ
  6
Continuous
 62
   120
370
     5
100
AcDbLine
 10
-4388.15050320037
 20
1732.000148463891
 30
0.0
 11
-4160.15050320037
 21
1732.000148463891
 31
0.0
  0
LINE
  5
141
330
1F
100
AcDbEntity
  8
0-3_仕上げ
  6
Continuous
 62
   120
370
     5
100
AcDbLine
 10
-4388.15050320037
 20
1722.000148463891
 30
0.0
 11
-4160.15050320037
 21
1722.000148463891
 31
0.0
  0
LINE
  5
142
330
1F
100
AcDbEntity
  8
0-3_仕上げ
  6
Continuous
 62
   120
370
     5
100
AcDbLine
 10
-4388.15050320037
 20
1706.000148463892
 30
0.0
 11
-4160.15050320037
 21
1706.000148463892
 31
0.0
  0
LINE
  5
143
330
1F
100
AcDbEntity
  8
0-3_仕上げ
  6
Continuous
 62
   120
370
     5
100
AcDbLine
 10
-4388.15050320037
 20
1592.000148463891
 30
0.0
 11
-4160.15050320037
 21
1592.000148463891
 31
0.0
  0
LINE
  5
144
330
1F
100
AcDbEntity
  8
0-3_仕上げ
  6
Continuous
 62
   120
370
     5
100
AcDbLine
 10
-4388.15050320037
 20
1602.000148463891
 30
0.0
 11
-4160.15050320037
 21
1602.000148463891
 31
0.0
  0
LINE
  5
145
330
1F
100
AcDbEntity
  8
0-3_仕上げ
  6
Continuous
 62
   120
370
     5
100
AcDbLine
 10
-4388.15050320037
 20
1618.000148463891
 30
0.0
 11
-4160.15050320037
 21
1618.000148463891
 31
0.0
  0
LINE
  5
146
330
1F
100
AcDbEntity
  8
0-3_仕上げ
  6
Continuous
 62
   120
370
     5
100
AcDbLine
 10
-4388.15050320037
 20
1628.000148463891
 30
0.0
 11
-4160.15050320037
 21
1628.000148463891
 31
0.0
  0
LINE
  5
147
330
1F
100
AcDbEntity
  8
0-3_仕上げ
  6
Continuous
 62
   120
370
     5
100
AcDbLine
 10
-4388.15050320037
 20
1644.000148463891
 30
0.0
 11
-4160.15050320037
 21
1644.000148463891
 31
0.0
  0
LINE
  5
148
330
1F
100
AcDbEntity
  8
0-3_仕上げ
  6
Continuous
 62
   120
370
     5
100
AcDbLine
 10
-4388.15050320037
 20
1696.000148463891
 30
0.0
 11
-4160.15050320037
 21
1696.000148463891
 31
0.0
  0
LINE
  5
149
330
1F
100
AcDbEntity
  8
0-3_仕上げ
  6
Continuous
 62
   120
370
     5
100
AcDbLine
 10
-4388.15050320037
 20
1680.000148463892
 30
0.0
 11
-4160.15050320037
 21
1680.000148463892
 31
0.0
  0
LINE
  5
14A
330
1F
100
AcDbEntity
  8
0-3_仕上げ
  6
Continuous
 62
   120
370
     5
100
AcDbLine
 10
-4388.15050320037
 20
1670.000148463891
 30
0.0
 11
-4160.15050320037
 21
1670.000148463891
 31
0.0
  0
LINE
  5
14B
330
1F
100
AcDbEntity
  8
0-3_仕上げ
  6
Continuous
 62
   120
370
     5
100
AcDbLine
 10
-4388.15050320037
 20
1654.000148463891
 30
0.0
 11
-4160.15050320037
 21
1654.000148463891
 31
0.0
  0
LINE
  5
14C
330
1F
100
AcDbEntity
  8
0-3_仕上げ
  6
Continuous
 62
   120
370
     5
100
AcDbLine
 10
-4383.15050320037
 20
1602.000148463891
 30
0.0
 11
-4383.15050320037
 21
1595.581095965814
 31
0.0
  0
LINE
  5
14D
330
1F
100
AcDbEntity
  8
0-3_仕上げ
  6
Continuous
 62
   120
370
     5
100
AcDbLine
 10
-4388.15050320037
 20
1595.581095965814
 30
0.0
 11
-4383.15050320037
 21
1595.581095965814
 31
0.0
  0
LINE
  5
14E
330
1F
100
AcDbEntity
  8
0-3_仕上げ
  6
Continuous
 62
   120
370
     5
100
AcDbLine
 10
-4383.15050320037
 20
1628.000148463891
 30
0.0
 11
-4383.15050320037
 21
1621.581095965813
 31
0.0
  0
LINE
  5
14F
330
1F
100
AcDbEntity
  8
0-3_仕上げ
  6
Continuous
 62
   120
370
     5
100
AcDbLine
 10
-4388.15050320037
 20
1621.581095965813
 30
0.0
 11
-4383.15050320037
 21
1621.581095965813
 31
0.0
  0
LINE
  5
150
330
1F
100
AcDbEntity
  8
0-3_仕上げ
  6
Continuous
 62
   120
370
     5
100
AcDbLine
 10
-4383.15050320037
 20
1654.000148463891
 30
0.0
 11
-4383.15050320037
 21
1647.581095965814
 31
0.0
  0
LINE
  5
151
330
1F
100
AcDbEntity
  8
0-3_仕上げ
  6
Continuous
 62
   120
370
     5
100
AcDbLine
 10
-4388.15050320037
 20
1647.581095965814
 30
0.0
 11
-4383.15050320037
 21
1647.581095965814
 31
0.0
  0
LINE
  5
152
330
1F
100
AcDbEntity
  8
0-3_仕上げ
  6
Continuous
 62
   120
370
     5
100
AcDbLine
 10
-4383.15050320037
 20
1680.000148463892
 30
0.0
 11
-4383.15050320037
 21
1673.581095965814
 31
0.0
  0
LINE
  5
153
330
1F
100
AcDbEntity
  8
0-3_仕上げ
  6
Continuous
 62
   120
370
     5
100
AcDbLine
 10
-4388.15050320037
 20
1673.581095965814
 30
0.0
 11
-4383.15050320037
 21
1673.581095965814
 31
0.0
  0
LINE
  5
154
330
1F
100
AcDbEntity
  8
0-3_仕上げ
  6
Continuous
 62
   120
370
     5
100
AcDbLine
 10
-4383.15050320037
 20
1706.000148463892
 30
0.0
 11
-4383.15050320037
 21
1699.581095965814
 31
0.0
  0
LINE
  5
155
330
1F
100
AcDbEntity
  8
0-3_仕上げ
  6
Continuous
 62
   120
370
     5
100
AcDbLine
 10
-4388.15050320037
 20
1699.581095965814
 30
0.0
 11
-4383.15050320037
 21
1699.581095965814
 31
0.0
  0
LINE
  5
156
330
1F
100
AcDbEntity
  8
0-3_仕上げ
  6
Continuous
 62
   120
370
     5
100
AcDbLine
 10
-4383.15050320037
 20
1732.000148463891
 30
0.0
 11
-4383.15050320037
 21
1725.581095965814
 31
0.0
  0
LINE
  5
157
330
1F
100
AcDbEntity
  8
0-3_仕上げ
  6
Continuous
 62
   120
370
     5
100
AcDbLine
 10
-4388.15050320037
 20
1725.581095965814
 30
0.0
 11
-4383.15050320037
 21
1725.581095965814
 31
0.0
  0
LINE
  5
158
330
1F
100
AcDbEntity
  8
0-3_仕上げ
  6
Continuous
 62
   120
370
     5
100
AcDbLine
 10
-4383.15050320037
 20
1758.000148463891
 30
0.0
 11
-4383.15050320037
 21
1751.581095965814
 31
0.0
  0
LINE
  5
159
330
1F
100
AcDbEntity
  8
0-3_仕上げ
  6
Continuous
 62
   120
370
     5
100
AcDbLine
 10
-4388.15050320037
 20
1751.581095965814
 30
0.0
 11
-4383.15050320037
 21
1751.581095965814
 31
0.0
  0
LINE
  5
15A
330
1F
100
AcDbEntity
  8
0-3_仕上げ
  6
Continuous
 62
   120
370
     5
100
AcDbLine
 10
-4383.15050320037
 20
1784.000148463892
 30
0.0
 11
-4383.15050320037
 21
1777.581095965814
 31
0.0
  0
LINE
  5
15B
330
1F
100
AcDbEntity
  8
0-3_仕上げ
  6
Continuous
 62
   120
370
     5
100
AcDbLine
 10
-4388.15050320037
 20
1777.581095965814
 30
0.0
 11
-4383.15050320037
 21
1777.581095965814
 31
0.0
  0
LINE
  5
15C
330
1F
100
AcDbEntity
  8
0-3_仕上げ
  6
Continuous
 62
   120
370
     5
100
AcDbLine
 10
-4383.15050320037
 20
1810.000148463892
 30
0.0
 11
-4383.15050320037
 21
1803.581095965814
 31
0.0
  0
LINE
  5
15D
330
1F
100
AcDbEntity
  8
0-3_仕上げ
  6
Continuous
 62
   120
370
     5
100
AcDbLine
 10
-4388.15050320037
 20
1803.581095965814
 30
0.0
 11
-4383.15050320037
 21
1803.581095965814
 31
0.0
  0
LINE
  5
15E
330
1F
100
AcDbEntity
  8
0-3_仕上げ
  6
Continuous
 62
   120
370
     5
100
AcDbLine
 10
-4383.15050320037
 20
1836.000148463892
 30
0.0
 11
-4383.15050320037
 21
1829.581095965814
 31
0.0
  0
LINE
  5
15F
330
1F
100
AcDbEntity
  8
0-3_仕上げ
  6
Continuous
 62
   120
370
     5
100
AcDbLine
 10
-4388.15050320037
 20
1829.581095965814
 30
0.0
 11
-4383.15050320037
 21
1829.581095965814
 31
0.0
  0
LINE
  5
160
330
1F
100
AcDbEntity
  8
0-3_仕上げ
  6
Continuous
 62
   120
370
     5
100
AcDbLine
 10
-4383.15050320037
 20
1862.000148463892
 30
0.0
 11
-4383.15050320037
 21
1855.581095965814
 31
0.0
  0
LINE
  5
161
330
1F
100
AcDbEntity
  8
0-3_仕上げ
  6
Continuous
 62
   120
370
     5
100
AcDbLine
 10
-4388.15050320037
 20
1855.581095965814
 30
0.0
 11
-4383.15050320037
 21
1855.581095965814
 31
0.0
  0
LINE
  5
162
330
1F
100
AcDbEntity
  8
0-3_仕上げ
  6
Continuous
 62
   120
370
     5
100
AcDbLine
 10
-4383.15050320037
 20
1888.000148463893
 30
0.0
 11
-4383.15050320037
 21
1881.581095965815
 31
0.0
  0
LINE
  5
163
330
1F
100
AcDbEntity
  8
0-3_仕上げ
  6
Continuous
 62
   120
370
     5
100
AcDbLine
 10
-4388.15050320037
 20
1881.581095965815
 30
0.0
 11
-4383.15050320037
 21
1881.581095965815
 31
0.0
  0
LINE
  5
164
330
1F
100
AcDbEntity
  8
0-3_仕上げ
  6
Continuous
 62
   120
370
     5
100
AcDbLine
 10
-4383.15050320037
 20
1914.000148463893
 30
0.0
 11
-4383.15050320037
 21
1907.581095965815
 31
0.0
  0
LINE
  5
165
330
1F
100
AcDbEntity
  8
0-3_仕上げ
  6
Continuous
 62
   120
370
     5
100
AcDbLine
 10
-4388.15050320037
 20
1907.581095965815
 30
0.0
 11
-4383.15050320037
 21
1907.581095965815
 31
0.0
  0
LINE
  5
166
330
1F
100
AcDbEntity
  8
0-3_仕上げ
  6
Continuous
 62
   120
370
     5
100
AcDbLine
 10
-4383.15050320037
 20
1940.000148463892
 30
0.0
 11
-4383.15050320037
 21
1933.581095965815
 31
0.0
  0
LINE
  5
167
330
1F
100
AcDbEntity
  8
0-3_仕上げ
  6
Continuous
 62
   120
370
     5
100
AcDbLine
 10
-4388.15050320037
 20
1933.581095965815
 30
0.0
 11
-4383.15050320037
 21
1933.581095965815
 31
0.0
  0
LINE
  5
168
330
1F
100
AcDbEntity
  8
0-3_仕上げ
  6
Continuous
 62
   120
370
     5
100
AcDbLine
 10
-4383.15050320037
 20
1966.000148463891
 30
0.0
 11
-4383.15050320037
 21
1959.581095965815
 31
0.0
  0
LINE
  5
169
330
1F
100
AcDbEntity
  8
0-3_仕上げ
  6
Continuous
 62
   120
370
     5
100
AcDbLine
 10
-4388.15050320037
 20
1959.581095965815
 30
0.0
 11
-4383.15050320037
 21
1959.581095965815
 31
0.0
  0
LINE
  5
16A
330
1F
100
AcDbEntity
  8
0-3_仕上げ
  6
Continuous
 62
   120
370
     5
100
AcDbLine
 10
-4383.15050320037
 20
1992.000148463893
 30
0.0
 11
-4383.15050320037
 21
1985.581095965815
 31
0.0
  0
LINE
  5
16B
330
1F
100
AcDbEntity
  8
0-3_仕上げ
  6
Continuous
 62
   120
370
     5
100
AcDbLine
 10
-4388.15050320037
 20
1985.581095965815
 30
0.0
 11
-4383.15050320037
 21
1985.581095965815
 31
0.0
  0
LINE
  5
16C
330
1F
100
AcDbEntity
  8
0-3_仕上げ
  6
Continuous
 62
   120
370
     5
100
AcDbLine
 10
-4383.15050320037
 20
2018.000148463893
 30
0.0
 11
-4383.15050320037
 21
2011.581095965815
 31
0.0
  0
LINE
  5
16D
330
1F
100
AcDbEntity
  8
0-3_仕上げ
  6
Continuous
 62
   120
370
     5
100
AcDbLine
 10
-4388.15050320037
 20
2011.581095965815
 30
0.0
 11
-4383.15050320037
 21
2011.581095965815
 31
0.0
  0
LINE
  5
16E
330
1F
100
AcDbEntity
  8
0-3_仕上げ
  6
Continuous
 62
   120
370
     5
100
AcDbLine
 10
-4383.15050320037
 20
2044.000148463893
 30
0.0
 11
-4383.15050320037
 21
2037.581095965815
 31
0.0
  0
LINE
  5
16F
330
1F
100
AcDbEntity
  8
0-3_仕上げ
  6
Continuous
 62
   120
370
     5
100
AcDbLine
 10
-4388.15050320037
 20
2037.581095965815
 30
0.0
 11
-4383.15050320037
 21
2037.581095965815
 31
0.0
  0
LINE
  5
170
330
1F
100
AcDbEntity
  8
0-3_仕上げ
  6
Continuous
 62
   120
370
     5
100
AcDbLine
 10
-4383.15050320037
 20
2070.000148463892
 30
0.0
 11
-4383.15050320037
 21
2063.581095965816
 31
0.0
  0
LINE
  5
171
330
1F
100
AcDbEntity
  8
0-3_仕上げ
  6
Continuous
 62
   120
370
     5
100
AcDbLine
 10
-4388.15050320037
 20
2063.581095965816
 30
0.0
 11
-4383.15050320037
 21
2063.581095965816
 31
0.0
  0
LINE
  5
172
330
1F
100
AcDbEntity
  8
0-3_仕上げ
  6
Continuous
 62
   120
370
     5
100
AcDbLine
 10
-4383.15050320037
 20
2096.000148463893
 30
0.0
 11
-4383.15050320037
 21
2089.581095965816
 31
0.0
  0
LINE
  5
173
330
1F
100
AcDbEntity
  8
0-3_仕上げ
  6
Continuous
 62
   120
370
     5
100
AcDbLine
 10
-4388.15050320037
 20
2089.581095965816
 30
0.0
 11
-4383.15050320037
 21
2089.581095965816
 31
0.0
  0
LINE
  5
174
330
1F
100
AcDbEntity
  8
0-3_仕上げ
  6
Continuous
 62
   120
370
     5
100
AcDbLine
 10
-4383.15050320037
 20
2122.000148463893
 30
0.0
 11
-4383.15050320037
 21
2115.581095965815
 31
0.0
  0
LINE
  5
175
330
1F
100
AcDbEntity
  8
0-3_仕上げ
  6
Continuous
 62
   120
370
     5
100
AcDbLine
 10
-4388.15050320037
 20
2115.581095965815
 30
0.0
 11
-4383.15050320037
 21
2115.581095965815
 31
0.0
  0
LINE
  5
176
330
1F
100
AcDbEntity
  8
0-3_仕上げ
  6
Continuous
 62
   120
370
     5
100
AcDbLine
 10
-4383.15050320037
 20
2148.000148463893
 30
0.0
 11
-4383.15050320037
 21
2141.581095965815
 31
0.0
  0
LINE
  5
177
330
1F
100
AcDbEntity
  8
0-3_仕上げ
  6
Continuous
 62
   120
370
     5
100
AcDbLine
 10
-4388.15050320037
 20
2141.581095965815
 30
0.0
 11
-4383.15050320037
 21
2141.581095965815
 31
0.0
  0
LINE
  5
178
330
1F
100
AcDbEntity
  8
0-3_仕上げ
  6
Continuous
 62
   120
370
     5
100
AcDbLine
 10
-4383.15050320037
 20
2174.000148463893
 30
0.0
 11
-4383.15050320037
 21
2167.581095965816
 31
0.0
  0
LINE
  5
179
330
1F
100
AcDbEntity
  8
0-3_仕上げ
  6
Continuous
 62
   120
370
     5
100
AcDbLine
 10
-4388.15050320037
 20
2167.581095965816
 30
0.0
 11
-4383.15050320037
 21
2167.581095965816
 31
0.0
  0
LINE
  5
17A
330
1F
100
AcDbEntity
  8
0-3_仕上げ
  6
Continuous
 62
   120
370
     5
100
AcDbLine
 10
-4383.15050320037
 20
2200.000148463893
 30
0.0
 11
-4383.15050320037
 21
2193.581095965816
 31
0.0
  0
LINE
  5
17B
330
1F
100
AcDbEntity
  8
0-3_仕上げ
  6
Continuous
 62
   120
370
     5
100
AcDbLine
 10
-4388.15050320037
 20
2193.581095965816
 30
0.0
 11
-4383.15050320037
 21
2193.581095965816
 31
0.0
  0
LINE
  5
17C
330
1F
100
AcDbEntity
  8
0-3_仕上げ
  6
Continuous
 62
   120
370
     5
100
AcDbLine
 10
-4383.15050320037
 20
2226.000148463893
 30
0.0
 11
-4383.15050320037
 21
2219.581095965816
 31
0.0
  0
LINE
  5
17D
330
1F
100
AcDbEntity
  8
0-3_仕上げ
  6
Continuous
 62
   120
370
     5
100
AcDbLine
 10
-4388.15050320037
 20
2219.581095965816
 30
0.0
 11
-4383.15050320037
 21
2219.581095965816
 31
0.0
  0
LINE
  5
17E
330
1F
100
AcDbEntity
  8
0-3_仕上げ
  6
Continuous
 62
   120
370
     5
100
AcDbLine
 10
-4383.15050320037
 20
2252.000148463893
 30
0.0
 11
-4383.15050320037
 21
2245.581095965816
 31
0.0
  0
LINE
  5
17F
330
1F
100
AcDbEntity
  8
0-3_仕上げ
  6
Continuous
 62
   120
370
     5
100
AcDbLine
 10
-4388.15050320037
 20
2245.581095965816
 30
0.0
 11
-4383.15050320037
 21
2245.581095965816
 31
0.0
  0
LINE
  5
180
330
1F
100
AcDbEntity
  8
0-3_仕上げ
  6
Continuous
 62
   120
370
     5
100
AcDbLine
 10
-4383.15050320037
 20
2278.000148463893
 30
0.0
 11
-4383.15050320037
 21
2271.581095965816
 31
0.0
  0
LINE
  5
181
330
1F
100
AcDbEntity
  8
0-3_仕上げ
  6
Continuous
 62
   120
370
     5
100
AcDbLine
 10
-4388.15050320037
 20
2271.581095965816
 30
0.0
 11
-4383.15050320037
 21
2271.581095965816
 31
0.0
  0
LINE
  5
182
330
1F
100
AcDbEntity
  8
0-3_仕上げ
  6
Continuous
 62
   120
370
     5
100
AcDbLine
 10
-4383.15050320037
 20
2304.000148463894
 30
0.0
 11
-4383.15050320037
 21
2297.581095965816
 31
0.0
  0
LINE
  5
183
330
1F
100
AcDbEntity
  8
0-3_仕上げ
  6
Continuous
 62
   120
370
     5
100
AcDbLine
 10
-4388.15050320037
 20
2297.581095965816
 30
0.0
 11
-4383.15050320037
 21
2297.581095965816
 31
0.0
  0
LINE
  5
184
330
1F
100
AcDbEntity
  8
0-3_仕上げ
  6
Continuous
 62
   120
370
     5
100
AcDbLine
 10
-4383.15050320037
 20
2330.000148463893
 30
0.0
 11
-4383.15050320037
 21
2323.581095965816
 31
0.0
  0
LINE
  5
185
330
1F
100
AcDbEntity
  8
0-3_仕上げ
  6
Continuous
 62
   120
370
     5
100
AcDbLine
 10
-4388.15050320037
 20
2323.581095965816
 30
0.0
 11
-4383.15050320037
 21
2323.581095965816
 31
0.0
  0
LINE
  5
186
330
1F
100
AcDbEntity
  8
0-3_仕上げ
  6
Continuous
 62
   120
370
     5
100
AcDbLine
 10
-4383.15050320037
 20
2356.000148463893
 30
0.0
 11
-4383.15050320037
 21
2349.581095965816
 31
0.0
  0
LINE
  5
187
330
1F
100
AcDbEntity
  8
0-3_仕上げ
  6
Continuous
 62
   120
370
     5
100
AcDbLine
 10
-4388.15050320037
 20
2349.581095965816
 30
0.0
 11
-4383.15050320037
 21
2349.581095965816
 31
0.0
  0
LINE
  5
188
330
1F
100
AcDbEntity
  8
0-3_仕上げ
  6
Continuous
 62
   120
370
     5
100
AcDbLine
 10
-4383.15050320037
 20
2382.000148463893
 30
0.0
 11
-4383.15050320037
 21
2375.581095965816
 31
0.0
  0
LINE
  5
189
330
1F
100
AcDbEntity
  8
0-3_仕上げ
  6
Continuous
 62
   120
370
     5
100
AcDbLine
 10
-4388.15050320037
 20
2375.581095965816
 30
0.0
 11
-4383.15050320037
 21
2375.581095965816
 31
0.0
  0
LINE
  5
18A
330
1F
100
AcDbEntity
  8
0-3_仕上げ
  6
Continuous
 62
   120
370
     5
100
AcDbLine
 10
-4383.15050320037
 20
2408.000148463894
 30
0.0
 11
-4383.15050320037
 21
2401.581095965816
 31
0.0
  0
LINE
  5
18B
330
1F
100
AcDbEntity
  8
0-3_仕上げ
  6
Continuous
 62
   120
370
     5
100
AcDbLine
 10
-4388.15050320037
 20
2401.581095965816
 30
0.0
 11
-4383.15050320037
 21
2401.581095965816
 31
0.0
  0
LINE
  5
18C
330
1F
100
AcDbEntity
  8
0-3_仕上げ
  6
Continuous
 62
   120
370
     5
100
AcDbLine
 10
-4383.15050320037
 20
2434.000148463894
 30
0.0
 11
-4383.15050320037
 21
2427.581095965816
 31
0.0
  0
LINE
  5
18D
330
1F
100
AcDbEntity
  8
0-3_仕上げ
  6
Continuous
 62
   120
370
     5
100
AcDbLine
 10
-4388.15050320037
 20
2427.581095965816
 30
0.0
 11
-4383.15050320037
 21
2427.581095965816
 31
0.0
  0
LINE
  5
18E
330
1F
100
AcDbEntity
  8
0-3_仕上げ
  6
Continuous
 62
   120
370
     5
100
AcDbLine
 10
-4383.15050320037
 20
2460.000148463894
 30
0.0
 11
-4383.15050320037
 21
2453.581095965816
 31
0.0
  0
LINE
  5
18F
330
1F
100
AcDbEntity
  8
0-3_仕上げ
  6
Continuous
 62
   120
370
     5
100
AcDbLine
 10
-4388.15050320037
 20
2453.581095965816
 30
0.0
 11
-4383.15050320037
 21
2453.581095965816
 31
0.0
  0
LINE
  5
190
330
1F
100
AcDbEntity
  8
0-3_仕上げ
  6
Continuous
 62
   120
370
     5
100
AcDbLine
 10
-4383.15050320037
 20
2486.000148463894
 30
0.0
 11
-4383.15050320037
 21
2479.581095965817
 31
0.0
  0
LINE
  5
191
330
1F
100
AcDbEntity
  8
0-3_仕上げ
  6
Continuous
 62
   120
370
     5
100
AcDbLine
 10
-4388.15050320037
 20
2479.581095965817
 30
0.0
 11
-4383.15050320037
 21
2479.581095965817
 31
0.0
  0
LINE
  5
192
330
1F
100
AcDbEntity
  8
0-3_仕上げ
  6
Continuous
 62
   120
370
     5
100
AcDbLine
 10
-4383.15050320037
 20
2512.000148463895
 30
0.0
 11
-4383.15050320037
 21
2505.581095965817
 31
0.0
  0
LINE
  5
193
330
1F
100
AcDbEntity
  8
0-3_仕上げ
  6
Continuous
 62
   120
370
     5
100
AcDbLine
 10
-4388.15050320037
 20
2505.581095965817
 30
0.0
 11
-4383.15050320037
 21
2505.581095965817
 31
0.0
  0
LINE
  5
194
330
1F
100
AcDbEntity
  8
0-3_仕上げ
  6
Continuous
 62
   120
370
     5
100
AcDbLine
 10
-4383.15050320037
 20
2538.000148463895
 30
0.0
 11
-4383.15050320037
 21
2531.581095965817
 31
0.0
  0
LINE
  5
195
330
1F
100
AcDbEntity
  8
0-3_仕上げ
  6
Continuous
 62
   120
370
     5
100
AcDbLine
 10
-4388.15050320037
 20
2531.581095965817
 30
0.0
 11
-4383.15050320037
 21
2531.581095965817
 31
0.0
  0
LINE
  5
196
330
1F
100
AcDbEntity
  8
0-3_仕上げ
  6
Continuous
 62
   120
370
     5
100
AcDbLine
 10
-4383.15050320037
 20
2564.000148463894
 30
0.0
 11
-4383.15050320037
 21
2557.581095965817
 31
0.0
  0
LINE
  5
197
330
1F
100
AcDbEntity
  8
0-3_仕上げ
  6
Continuous
 62
   120
370
     5
100
AcDbLine
 10
-4388.15050320037
 20
2557.581095965817
 30
0.0
 11
-4383.15050320037
 21
2557.581095965817
 31
0.0
  0
LINE
  5
198
330
1F
100
AcDbEntity
  8
0-3_仕上げ
  6
Continuous
 62
   120
370
     5
100
AcDbLine
 10
-4383.15050320037
 20
2590.000148463895
 30
0.0
 11
-4383.15050320037
 21
2583.581095965817
 31
0.0
  0
LINE
  5
199
330
1F
100
AcDbEntity
  8
0-3_仕上げ
  6
Continuous
 62
   120
370
     5
100
AcDbLine
 10
-4388.15050320037
 20
2583.581095965817
 30
0.0
 11
-4383.15050320037
 21
2583.581095965817
 31
0.0
  0
LINE
  5
19A
330
1F
100
AcDbEntity
  8
0-3_仕上げ
  6
Continuous
 62
   120
370
     5
100
AcDbLine
 10
-4383.15050320037
 20
2616.000148463895
 30
0.0
 11
-4383.15050320037
 21
2609.581095965817
 31
0.0
  0
LINE
  5
19B
330
1F
100
AcDbEntity
  8
0-3_仕上げ
  6
Continuous
 62
   120
370
     5
100
AcDbLine
 10
-4388.15050320037
 20
2609.581095965817
 30
0.0
 11
-4383.15050320037
 21
2609.581095965817
 31
0.0
  0
LINE
  5
19C
330
1F
100
AcDbEntity
  8
0-3_仕上げ
  6
Continuous
 62
   120
370
     5
100
AcDbLine
 10
-4383.15050320037
 20
2642.000148463895
 30
0.0
 11
-4383.15050320037
 21
2635.581095965817
 31
0.0
  0
LINE
  5
19D
330
1F
100
AcDbEntity
  8
0-3_仕上げ
  6
Continuous
 62
   120
370
     5
100
AcDbLine
 10
-4388.15050320037
 20
2635.581095965817
 30
0.0
 11
-4383.15050320037
 21
2635.581095965817
 31
0.0
  0
LINE
  5
19E
330
1F
100
AcDbEntity
  8
0-3_仕上げ
  6
Continuous
 62
   120
370
     5
100
AcDbLine
 10
-4383.15050320037
 20
2668.000148463894
 30
0.0
 11
-4383.15050320037
 21
2661.581095965817
 31
0.0
  0
LINE
  5
19F
330
1F
100
AcDbEntity
  8
0-3_仕上げ
  6
Continuous
 62
   120
370
     5
100
AcDbLine
 10
-4388.15050320037
 20
2661.581095965817
 30
0.0
 11
-4383.15050320037
 21
2661.581095965817
 31
0.0
  0
LINE
  5
1A0
330
1F
100
AcDbEntity
  8
0-3_仕上げ
  6
Continuous
 62
   120
370
     5
100
AcDbLine
 10
-4383.15050320037
 20
2694.000148463895
 30
0.0
 11
-4383.15050320037
 21
2687.581095965817
 31
0.0
  0
LINE
  5
1A1
330
1F
100
AcDbEntity
  8
0-3_仕上げ
  6
Continuous
 62
   120
370
     5
100
AcDbLine
 10
-4388.15050320037
 20
2687.581095965817
 30
0.0
 11
-4383.15050320037
 21
2687.581095965817
 31
0.0
  0
LINE
  5
1A2
330
1F
100
AcDbEntity
  8
0-3_仕上げ
  6
Continuous
 62
   120
370
     5
100
AcDbLine
 10
-4383.15050320037
 20
2720.000148463895
 30
0.0
 11
-4383.15050320037
 21
2713.581095965817
 31
0.0
  0
LINE
  5
1A3
330
1F
100
AcDbEntity
  8
0-3_仕上げ
  6
Continuous
 62
   120
370
     5
100
AcDbLine
 10
-4388.15050320037
 20
2713.581095965817
 30
0.0
 11
-4383.15050320037
 21
2713.581095965817
 31
0.0
  0
LINE
  5
1A4
330
1F
100
AcDbEntity
  8
0-3_仕上げ
  6
Continuous
 62
   120
370
     5
100
AcDbLine
 10
-4383.15050320037
 20
2746.000148463895
 30
0.0
 11
-4383.15050320037
 21
2739.581095965817
 31
0.0
  0
LINE
  5
1A5
330
1F
100
AcDbEntity
  8
0-3_仕上げ
  6
Continuous
 62
   120
370
     5
100
AcDbLine
 10
-4388.15050320037
 20
2739.581095965817
 30
0.0
 11
-4383.15050320037
 21
2739.581095965817
 31
0.0
  0
LINE
  5
1A6
330
1F
100
AcDbEntity
  8
0-3_仕上げ
  6
Continuous
 62
   120
370
     5
100
AcDbLine
 10
-4383.15050320037
 20
2772.000148463895
 30
0.0
 11
-4383.15050320037
 21
2765.581095965817
 31
0.0
  0
LINE
  5
1A7
330
1F
100
AcDbEntity
  8
0-3_仕上げ
  6
Continuous
 62
   120
370
     5
100
AcDbLine
 10
-4388.15050320037
 20
2765.581095965817
 30
0.0
 11
-4383.15050320037
 21
2765.581095965817
 31
0.0
  0
LINE
  5
1A8
330
1F
100
AcDbEntity
  8
0-3_仕上げ
  6
Continuous
 62
   120
370
     5
100
AcDbLine
 10
-4383.15050320037
 20
2798.000148463895
 30
0.0
 11
-4383.15050320037
 21
2791.581095965817
 31
0.0
  0
LINE
  5
1A9
330
1F
100
AcDbEntity
  8
0-3_仕上げ
  6
Continuous
 62
   120
370
     5
100
AcDbLine
 10
-4388.15050320037
 20
2791.581095965817
 30
0.0
 11
-4383.15050320037
 21
2791.581095965817
 31
0.0
  0
LINE
  5
1AA
330
1F
100
AcDbEntity
  8
0-3_仕上げ
  6
Continuous
 62
   120
370
     5
100
AcDbLine
 10
-4383.15050320037
 20
2824.000148463895
 30
0.0
 11
-4383.15050320037
 21
2817.581095965818
 31
0.0
  0
LINE
  5
1AB
330
1F
100
AcDbEntity
  8
0-3_仕上げ
  6
Continuous
 62
   120
370
     5
100
AcDbLine
 10
-4388.15050320037
 20
2817.581095965818
 30
0.0
 11
-4383.15050320037
 21
2817.581095965818
 31
0.0
  0
LINE
  5
1AC
330
1F
100
AcDbEntity
  8
0-3_仕上げ
  6
Continuous
 62
   120
370
     5
100
AcDbLine
 10
-4383.15050320037
 20
2850.000148463895
 30
0.0
 11
-4383.15050320037
 21
2843.581095965817
 31
0.0
  0
LINE
  5
1AD
330
1F
100
AcDbEntity
  8
0-3_仕上げ
  6
Continuous
 62
   120
370
     5
100
AcDbLine
 10
-4388.15050320037
 20
2843.581095965817
 30
0.0
 11
-4383.15050320037
 21
2843.581095965817
 31
0.0
  0
LINE
  5
1AE
330
1F
100
AcDbEntity
  8
0-3_仕上げ
  6
Continuous
 62
   120
370
     5
100
AcDbLine
 10
-4383.15050320037
 20
2876.000148463895
 30
0.0
 11
-4383.15050320037
 21
2869.581095965817
 31
0.0
  0
LINE
  5
1AF
330
1F
100
AcDbEntity
  8
0-3_仕上げ
  6
Continuous
 62
   120
370
     5
100
AcDbLine
 10
-4388.15050320037
 20
2869.581095965817
 30
0.0
 11
-4383.15050320037
 21
2869.581095965817
 31
0.0
  0
LINE
  5
1B0
330
1F
100
AcDbEntity
  8
0-3_仕上げ
  6
Continuous
 62
   120
370
     5
100
AcDbLine
 10
-4383.15050320037
 20
2902.000148463896
 30
0.0
 11
-4383.15050320037
 21
2895.581095965817
 31
0.0
  0
LINE
  5
1B1
330
1F
100
AcDbEntity
  8
0-3_仕上げ
  6
Continuous
 62
   120
370
     5
100
AcDbLine
 10
-4388.15050320037
 20
2895.581095965817
 30
0.0
 11
-4383.15050320037
 21
2895.581095965817
 31
0.0
  0
LINE
  5
1B2
330
1F
100
AcDbEntity
  8
0-3_仕上げ
  6
Continuous
 62
   120
370
     5
100
AcDbLine
 10
-4383.15050320037
 20
2928.000148463896
 30
0.0
 11
-4383.15050320037
 21
2921.581095965818
 31
0.0
  0
LINE
  5
1B3
330
1F
100
AcDbEntity
  8
0-3_仕上げ
  6
Continuous
 62
   120
370
     5
100
AcDbLine
 10
-4388.15050320037
 20
2921.581095965818
 30
0.0
 11
-4383.15050320037
 21
2921.581095965818
 31
0.0
  0
LINE
  5
1B4
330
1F
100
AcDbEntity
  8
0-3_仕上げ
  6
Continuous
 62
   120
370
     5
100
AcDbLine
 10
-4383.15050320037
 20
2954.000148463896
 30
0.0
 11
-4383.15050320037
 21
2947.581095965818
 31
0.0
  0
LINE
  5
1B5
330
1F
100
AcDbEntity
  8
0-3_仕上げ
  6
Continuous
 62
   120
370
     5
100
AcDbLine
 10
-4388.15050320037
 20
2947.581095965818
 30
0.0
 11
-4383.15050320037
 21
2947.581095965818
 31
0.0
  0
LINE
  5
1B6
330
1F
100
AcDbEntity
  8
0-3_仕上げ
  6
Continuous
 62
   120
370
     5
100
AcDbLine
 10
-4383.15050320037
 20
2980.000148463895
 30
0.0
 11
-4383.15050320037
 21
2973.581095965818
 31
0.0
  0
LINE
  5
1B7
330
1F
100
AcDbEntity
  8
0-3_仕上げ
  6
Continuous
 62
   120
370
     5
100
AcDbLine
 10
-4388.15050320037
 20
2973.581095965818
 30
0.0
 11
-4383.15050320037
 21
2973.581095965818
 31
0.0
  0
LINE
  5
1B8
330
1F
100
AcDbEntity
  8
0-3_仕上げ
  6
Continuous
 62
   120
370
     5
100
AcDbLine
 10
-4383.15050320037
 20
3006.000148463896
 30
0.0
 11
-4383.15050320037
 21
2999.581095965818
 31
0.0
  0
LINE
  5
1B9
330
1F
100
AcDbEntity
  8
0-3_仕上げ
  6
Continuous
 62
   120
370
     5
100
AcDbLine
 10
-4388.15050320037
 20
2999.581095965818
 30
0.0
 11
-4383.15050320037
 21
2999.581095965818
 31
0.0
  0
LINE
  5
1BA
330
1F
100
AcDbEntity
  8
0-3_仕上げ
  6
Continuous
 62
   120
370
     5
100
AcDbLine
 10
-4383.15050320037
 20
3032.000148463896
 30
0.0
 11
-4383.15050320037
 21
3025.581095965818
 31
0.0
  0
LINE
  5
1BB
330
1F
100
AcDbEntity
  8
0-3_仕上げ
  6
Continuous
 62
   120
370
     5
100
AcDbLine
 10
-4388.15050320037
 20
3025.581095965818
 30
0.0
 11
-4383.15050320037
 21
3025.581095965818
 31
0.0
  0
LINE
  5
1BC
330
1F
100
AcDbEntity
  8
0-3_仕上げ
  6
Continuous
 62
   120
370
     5
100
AcDbLine
 10
-4383.15050320037
 20
3058.000148463896
 30
0.0
 11
-4383.15050320037
 21
3051.581095965818
 31
0.0
  0
LINE
  5
1BD
330
1F
100
AcDbEntity
  8
0-3_仕上げ
  6
Continuous
 62
   120
370
     5
100
AcDbLine
 10
-4388.15050320037
 20
3051.581095965818
 30
0.0
 11
-4383.15050320037
 21
3051.581095965818
 31
0.0
  0
LINE
  5
1BE
330
1F
100
AcDbEntity
  8
0-3_仕上げ
  6
Continuous
 62
   120
370
     5
100
AcDbLine
 10
-4383.15050320037
 20
3084.000148463896
 30
0.0
 11
-4383.15050320037
 21
3077.581095965818
 31
0.0
  0
LINE
  5
1BF
330
1F
100
AcDbEntity
  8
0-3_仕上げ
  6
Continuous
 62
   120
370
     5
100
AcDbLine
 10
-4388.15050320037
 20
3077.581095965818
 30
0.0
 11
-4383.15050320037
 21
3077.581095965818
 31
0.0
  0
LINE
  5
1C0
330
1F
100
AcDbEntity
  8
0-3_仕上げ
  6
Continuous
 62
   120
370
     5
100
AcDbLine
 10
-4383.15050320037
 20
3110.000148463896
 30
0.0
 11
-4383.15050320037
 21
3103.581095965818
 31
0.0
  0
LINE
  5
1C1
330
1F
100
AcDbEntity
  8
0-3_仕上げ
  6
Continuous
 62
   120
370
     5
100
AcDbLine
 10
-4388.15050320037
 20
3103.581095965818
 30
0.0
 11
-4383.15050320037
 21
3103.581095965818
 31
0.0
  0
LINE
  5
1C2
330
1F
100
AcDbEntity
  8
0-3_仕上げ
  6
Continuous
 62
   120
370
     5
100
AcDbLine
 10
-4383.15050320037
 20
3136.000148463896
 30
0.0
 11
-4383.15050320037
 21
3129.581095965819
 31
0.0
  0
LINE
  5
1C3
330
1F
100
AcDbEntity
  8
0-3_仕上げ
  6
Continuous
 62
   120
370
     5
100
AcDbLine
 10
-4388.15050320037
 20
3129.581095965819
 30
0.0
 11
-4383.15050320037
 21
3129.581095965819
 31
0.0
  0
LINE
  5
1C4
330
1F
100
AcDbEntity
  8
0-3_仕上げ
  6
Continuous
 62
   120
370
     5
100
AcDbLine
 10
-4383.15050320037
 20
3162.000148463897
 30
0.0
 11
-4383.15050320037
 21
3155.581095965819
 31
0.0
  0
LINE
  5
1C5
330
1F
100
AcDbEntity
  8
0-3_仕上げ
  6
Continuous
 62
   120
370
     5
100
AcDbLine
 10
-4388.15050320037
 20
3155.581095965819
 30
0.0
 11
-4383.15050320037
 21
3155.581095965819
 31
0.0
  0
LINE
  5
1C6
330
1F
100
AcDbEntity
  8
0-3_仕上げ
  6
Continuous
 62
   120
370
     5
100
AcDbLine
 10
-4383.15050320037
 20
3188.000148463896
 30
0.0
 11
-4383.15050320037
 21
3181.581095965819
 31
0.0
  0
LINE
  5
1C7
330
1F
100
AcDbEntity
  8
0-3_仕上げ
  6
Continuous
 62
   120
370
     5
100
AcDbLine
 10
-4388.15050320037
 20
3181.581095965819
 30
0.0
 11
-4383.15050320037
 21
3181.581095965819
 31
0.0
  0
LINE
  5
1C8
330
1F
100
AcDbEntity
  8
0-3_仕上げ
  6
Continuous
 62
   120
370
     5
100
AcDbLine
 10
-4383.15050320037
 20
3214.000148463896
 30
0.0
 11
-4383.15050320037
 21
3207.581095965819
 31
0.0
  0
LINE
  5
1C9
330
1F
100
AcDbEntity
  8
0-3_仕上げ
  6
Continuous
 62
   120
370
     5
100
AcDbLine
 10
-4388.15050320037
 20
3207.581095965819
 30
0.0
 11
-4383.15050320037
 21
3207.581095965819
 31
0.0
  0
LINE
  5
1CA
330
1F
100
AcDbEntity
  8
0-3_仕上げ
  6
Continuous
 62
   120
370
     5
100
AcDbLine
 10
-4383.15050320037
 20
3240.000148463897
 30
0.0
 11
-4383.15050320037
 21
3233.581095965819
 31
0.0
  0
LINE
  5
1CB
330
1F
100
AcDbEntity
  8
0-3_仕上げ
  6
Continuous
 62
   120
370
     5
100
AcDbLine
 10
-4388.15050320037
 20
3233.581095965819
 30
0.0
 11
-4383.15050320037
 21
3233.581095965819
 31
0.0
  0
LINE
  5
1CC
330
1F
100
AcDbEntity
  8
0-3_仕上げ
  6
Continuous
 62
   120
370
     5
100
AcDbLine
 10
-4383.15050320037
 20
3266.000148463897
 30
0.0
 11
-4383.15050320037
 21
3259.581095965819
 31
0.0
  0
LINE
  5
1CD
330
1F
100
AcDbEntity
  8
0-3_仕上げ
  6
Continuous
 62
   120
370
     5
100
AcDbLine
 10
-4388.15050320037
 20
3259.581095965819
 30
0.0
 11
-4383.15050320037
 21
3259.581095965819
 31
0.0
  0
LINE
  5
1CE
330
1F
100
AcDbEntity
  8
0-3_仕上げ
  6
Continuous
 62
   120
370
     5
100
AcDbLine
 10
-4165.15050320037
 20
1595.581095965814
 30
0.0
 11
-4160.15050320037
 21
1595.581095965814
 31
0.0
  0
LINE
  5
1CF
330
1F
100
AcDbEntity
  8
0-3_仕上げ
  6
Continuous
 62
   120
370
     5
100
AcDbLine
 10
-4165.15050320037
 20
1602.000148463891
 30
0.0
 11
-4165.15050320037
 21
1595.581095965814
 31
0.0
  0
LINE
  5
1D0
330
1F
100
AcDbEntity
  8
0-3_仕上げ
  6
Continuous
 62
   120
370
     5
100
AcDbLine
 10
-4165.15050320037
 20
1621.581095965813
 30
0.0
 11
-4160.15050320037
 21
1621.581095965813
 31
0.0
  0
LINE
  5
1D1
330
1F
100
AcDbEntity
  8
0-3_仕上げ
  6
Continuous
 62
   120
370
     5
100
AcDbLine
 10
-4165.15050320037
 20
1628.000148463891
 30
0.0
 11
-4165.15050320037
 21
1621.581095965813
 31
0.0
  0
LINE
  5
1D2
330
1F
100
AcDbEntity
  8
0-3_仕上げ
  6
Continuous
 62
   120
370
     5
100
AcDbLine
 10
-4165.15050320037
 20
1647.581095965814
 30
0.0
 11
-4160.15050320037
 21
1647.581095965814
 31
0.0
  0
LINE
  5
1D3
330
1F
100
AcDbEntity
  8
0-3_仕上げ
  6
Continuous
 62
   120
370
     5
100
AcDbLine
 10
-4165.15050320037
 20
1654.000148463891
 30
0.0
 11
-4165.15050320037
 21
1647.581095965814
 31
0.0
  0
LINE
  5
1D4
330
1F
100
AcDbEntity
  8
0-3_仕上げ
  6
Continuous
 62
   120
370
     5
100
AcDbLine
 10
-4165.15050320037
 20
1673.581095965814
 30
0.0
 11
-4160.15050320037
 21
1673.581095965814
 31
0.0
  0
LINE
  5
1D5
330
1F
100
AcDbEntity
  8
0-3_仕上げ
  6
Continuous
 62
   120
370
     5
100
AcDbLine
 10
-4165.15050320037
 20
1680.000148463892
 30
0.0
 11
-4165.15050320037
 21
1673.581095965814
 31
0.0
  0
LINE
  5
1D6
330
1F
100
AcDbEntity
  8
0-3_仕上げ
  6
Continuous
 62
   120
370
     5
100
AcDbLine
 10
-4165.15050320037
 20
1699.581095965814
 30
0.0
 11
-4160.15050320037
 21
1699.581095965814
 31
0.0
  0
LINE
  5
1D7
330
1F
100
AcDbEntity
  8
0-3_仕上げ
  6
Continuous
 62
   120
370
     5
100
AcDbLine
 10
-4165.15050320037
 20
1706.000148463892
 30
0.0
 11
-4165.15050320037
 21
1699.581095965814
 31
0.0
  0
LINE
  5
1D8
330
1F
100
AcDbEntity
  8
0-3_仕上げ
  6
Continuous
 62
   120
370
     5
100
AcDbLine
 10
-4165.15050320037
 20
1725.581095965814
 30
0.0
 11
-4160.15050320037
 21
1725.581095965814
 31
0.0
  0
LINE
  5
1D9
330
1F
100
AcDbEntity
  8
0-3_仕上げ
  6
Continuous
 62
   120
370
     5
100
AcDbLine
 10
-4165.15050320037
 20
1732.000148463891
 30
0.0
 11
-4165.15050320037
 21
1725.581095965814
 31
0.0
  0
LINE
  5
1DA
330
1F
100
AcDbEntity
  8
0-3_仕上げ
  6
Continuous
 62
   120
370
     5
100
AcDbLine
 10
-4165.15050320037
 20
1751.581095965814
 30
0.0
 11
-4160.15050320037
 21
1751.581095965814
 31
0.0
  0
LINE
  5
1DB
330
1F
100
AcDbEntity
  8
0-3_仕上げ
  6
Continuous
 62
   120
370
     5
100
AcDbLine
 10
-4165.15050320037
 20
1758.000148463891
 30
0.0
 11
-4165.15050320037
 21
1751.581095965814
 31
0.0
  0
LINE
  5
1DC
330
1F
100
AcDbEntity
  8
0-3_仕上げ
  6
Continuous
 62
   120
370
     5
100
AcDbLine
 10
-4165.15050320037
 20
1777.581095965814
 30
0.0
 11
-4160.15050320037
 21
1777.581095965814
 31
0.0
  0
LINE
  5
1DD
330
1F
100
AcDbEntity
  8
0-3_仕上げ
  6
Continuous
 62
   120
370
     5
100
AcDbLine
 10
-4165.15050320037
 20
1784.000148463892
 30
0.0
 11
-4165.15050320037
 21
1777.581095965814
 31
0.0
  0
LINE
  5
1DE
330
1F
100
AcDbEntity
  8
0-3_仕上げ
  6
Continuous
 62
   120
370
     5
100
AcDbLine
 10
-4165.15050320037
 20
1803.581095965814
 30
0.0
 11
-4160.15050320037
 21
1803.581095965814
 31
0.0
  0
LINE
  5
1DF
330
1F
100
AcDbEntity
  8
0-3_仕上げ
  6
Continuous
 62
   120
370
     5
100
AcDbLine
 10
-4165.15050320037
 20
1810.000148463892
 30
0.0
 11
-4165.15050320037
 21
1803.581095965814
 31
0.0
  0
LINE
  5
1E0
330
1F
100
AcDbEntity
  8
0-3_仕上げ
  6
Continuous
 62
   120
370
     5
100
AcDbLine
 10
-4165.15050320037
 20
1829.581095965814
 30
0.0
 11
-4160.15050320037
 21
1829.581095965814
 31
0.0
  0
LINE
  5
1E1
330
1F
100
AcDbEntity
  8
0-3_仕上げ
  6
Continuous
 62
   120
370
     5
100
AcDbLine
 10
-4165.15050320037
 20
1836.000148463892
 30
0.0
 11
-4165.15050320037
 21
1829.581095965814
 31
0.0
  0
LINE
  5
1E2
330
1F
100
AcDbEntity
  8
0-3_仕上げ
  6
Continuous
 62
   120
370
     5
100
AcDbLine
 10
-4165.15050320037
 20
1855.581095965814
 30
0.0
 11
-4160.15050320037
 21
1855.581095965814
 31
0.0
  0
LINE
  5
1E3
330
1F
100
AcDbEntity
  8
0-3_仕上げ
  6
Continuous
 62
   120
370
     5
100
AcDbLine
 10
-4165.15050320037
 20
1862.000148463892
 30
0.0
 11
-4165.15050320037
 21
1855.581095965814
 31
0.0
  0
LINE
  5
1E4
330
1F
100
AcDbEntity
  8
0-3_仕上げ
  6
Continuous
 62
   120
370
     5
100
AcDbLine
 10
-4165.15050320037
 20
1881.581095965815
 30
0.0
 11
-4160.15050320037
 21
1881.581095965815
 31
0.0
  0
LINE
  5
1E5
330
1F
100
AcDbEntity
  8
0-3_仕上げ
  6
Continuous
 62
   120
370
     5
100
AcDbLine
 10
-4165.15050320037
 20
1888.000148463893
 30
0.0
 11
-4165.15050320037
 21
1881.581095965815
 31
0.0
  0
LINE
  5
1E6
330
1F
100
AcDbEntity
  8
0-3_仕上げ
  6
Continuous
 62
   120
370
     5
100
AcDbLine
 10
-4165.15050320037
 20
1907.581095965815
 30
0.0
 11
-4160.15050320037
 21
1907.581095965815
 31
0.0
  0
LINE
  5
1E7
330
1F
100
AcDbEntity
  8
0-3_仕上げ
  6
Continuous
 62
   120
370
     5
100
AcDbLine
 10
-4165.15050320037
 20
1914.000148463893
 30
0.0
 11
-4165.15050320037
 21
1907.581095965815
 31
0.0
  0
LINE
  5
1E8
330
1F
100
AcDbEntity
  8
0-3_仕上げ
  6
Continuous
 62
   120
370
     5
100
AcDbLine
 10
-4165.15050320037
 20
1933.581095965815
 30
0.0
 11
-4160.15050320037
 21
1933.581095965815
 31
0.0
  0
LINE
  5
1E9
330
1F
100
AcDbEntity
  8
0-3_仕上げ
  6
Continuous
 62
   120
370
     5
100
AcDbLine
 10
-4165.15050320037
 20
1940.000148463892
 30
0.0
 11
-4165.15050320037
 21
1933.581095965815
 31
0.0
  0
LINE
  5
1EA
330
1F
100
AcDbEntity
  8
0-3_仕上げ
  6
Continuous
 62
   120
370
     5
100
AcDbLine
 10
-4165.15050320037
 20
1959.581095965815
 30
0.0
 11
-4160.15050320037
 21
1959.581095965815
 31
0.0
  0
LINE
  5
1EB
330
1F
100
AcDbEntity
  8
0-3_仕上げ
  6
Continuous
 62
   120
370
     5
100
AcDbLine
 10
-4165.15050320037
 20
1966.000148463891
 30
0.0
 11
-4165.15050320037
 21
1959.581095965815
 31
0.0
  0
LINE
  5
1EC
330
1F
100
AcDbEntity
  8
0-3_仕上げ
  6
Continuous
 62
   120
370
     5
100
AcDbLine
 10
-4165.15050320037
 20
1985.581095965815
 30
0.0
 11
-4160.15050320037
 21
1985.581095965815
 31
0.0
  0
LINE
  5
1ED
330
1F
100
AcDbEntity
  8
0-3_仕上げ
  6
Continuous
 62
   120
370
     5
100
AcDbLine
 10
-4165.15050320037
 20
1992.000148463893
 30
0.0
 11
-4165.15050320037
 21
1985.581095965815
 31
0.0
  0
LINE
  5
1EE
330
1F
100
AcDbEntity
  8
0-3_仕上げ
  6
Continuous
 62
   120
370
     5
100
AcDbLine
 10
-4165.15050320037
 20
2011.581095965815
 30
0.0
 11
-4160.15050320037
 21
2011.581095965815
 31
0.0
  0
LINE
  5
1EF
330
1F
100
AcDbEntity
  8
0-3_仕上げ
  6
Continuous
 62
   120
370
     5
100
AcDbLine
 10
-4165.15050320037
 20
2018.000148463893
 30
0.0
 11
-4165.15050320037
 21
2011.581095965815
 31
0.0
  0
LINE
  5
1F0
330
1F
100
AcDbEntity
  8
0-3_仕上げ
  6
Continuous
 62
   120
370
     5
100
AcDbLine
 10
-4165.15050320037
 20
2037.581095965815
 30
0.0
 11
-4160.15050320037
 21
2037.581095965815
 31
0.0
  0
LINE
  5
1F1
330
1F
100
AcDbEntity
  8
0-3_仕上げ
  6
Continuous
 62
   120
370
     5
100
AcDbLine
 10
-4165.15050320037
 20
2044.000148463893
 30
0.0
 11
-4165.15050320037
 21
2037.581095965815
 31
0.0
  0
LINE
  5
1F2
330
1F
100
AcDbEntity
  8
0-3_仕上げ
  6
Continuous
 62
   120
370
     5
100
AcDbLine
 10
-4165.15050320037
 20
2063.581095965816
 30
0.0
 11
-4160.15050320037
 21
2063.581095965816
 31
0.0
  0
LINE
  5
1F3
330
1F
100
AcDbEntity
  8
0-3_仕上げ
  6
Continuous
 62
   120
370
     5
100
AcDbLine
 10
-4165.15050320037
 20
2070.000148463892
 30
0.0
 11
-4165.15050320037
 21
2063.581095965816
 31
0.0
  0
LINE
  5
1F4
330
1F
100
AcDbEntity
  8
0-3_仕上げ
  6
Continuous
 62
   120
370
     5
100
AcDbLine
 10
-4165.15050320037
 20
2089.581095965816
 30
0.0
 11
-4160.15050320037
 21
2089.581095965816
 31
0.0
  0
LINE
  5
1F5
330
1F
100
AcDbEntity
  8
0-3_仕上げ
  6
Continuous
 62
   120
370
     5
100
AcDbLine
 10
-4165.15050320037
 20
2096.000148463893
 30
0.0
 11
-4165.15050320037
 21
2089.581095965816
 31
0.0
  0
LINE
  5
1F6
330
1F
100
AcDbEntity
  8
0-3_仕上げ
  6
Continuous
 62
   120
370
     5
100
AcDbLine
 10
-4165.15050320037
 20
2115.581095965815
 30
0.0
 11
-4160.15050320037
 21
2115.581095965815
 31
0.0
  0
LINE
  5
1F7
330
1F
100
AcDbEntity
  8
0-3_仕上げ
  6
Continuous
 62
   120
370
     5
100
AcDbLine
 10
-4165.15050320037
 20
2122.000148463893
 30
0.0
 11
-4165.15050320037
 21
2115.581095965815
 31
0.0
  0
LINE
  5
1F8
330
1F
100
AcDbEntity
  8
0-3_仕上げ
  6
Continuous
 62
   120
370
     5
100
AcDbLine
 10
-4165.15050320037
 20
2141.581095965815
 30
0.0
 11
-4160.15050320037
 21
2141.581095965815
 31
0.0
  0
LINE
  5
1F9
330
1F
100
AcDbEntity
  8
0-3_仕上げ
  6
Continuous
 62
   120
370
     5
100
AcDbLine
 10
-4165.15050320037
 20
2148.000148463893
 30
0.0
 11
-4165.15050320037
 21
2141.581095965815
 31
0.0
  0
LINE
  5
1FA
330
1F
100
AcDbEntity
  8
0-3_仕上げ
  6
Continuous
 62
   120
370
     5
100
AcDbLine
 10
-4165.15050320037
 20
2167.581095965816
 30
0.0
 11
-4160.15050320037
 21
2167.581095965816
 31
0.0
  0
LINE
  5
1FB
330
1F
100
AcDbEntity
  8
0-3_仕上げ
  6
Continuous
 62
   120
370
     5
100
AcDbLine
 10
-4165.15050320037
 20
2174.000148463893
 30
0.0
 11
-4165.15050320037
 21
2167.581095965816
 31
0.0
  0
LINE
  5
1FC
330
1F
100
AcDbEntity
  8
0-3_仕上げ
  6
Continuous
 62
   120
370
     5
100
AcDbLine
 10
-4165.15050320037
 20
2193.581095965816
 30
0.0
 11
-4160.15050320037
 21
2193.581095965816
 31
0.0
  0
LINE
  5
1FD
330
1F
100
AcDbEntity
  8
0-3_仕上げ
  6
Continuous
 62
   120
370
     5
100
AcDbLine
 10
-4165.15050320037
 20
2200.000148463893
 30
0.0
 11
-4165.15050320037
 21
2193.581095965816
 31
0.0
  0
LINE
  5
1FE
330
1F
100
AcDbEntity
  8
0-3_仕上げ
  6
Continuous
 62
   120
370
     5
100
AcDbLine
 10
-4165.15050320037
 20
2219.581095965816
 30
0.0
 11
-4160.15050320037
 21
2219.581095965816
 31
0.0
  0
LINE
  5
1FF
330
1F
100
AcDbEntity
  8
0-3_仕上げ
  6
Continuous
 62
   120
370
     5
100
AcDbLine
 10
-4165.15050320037
 20
2226.000148463893
 30
0.0
 11
-4165.15050320037
 21
2219.581095965816
 31
0.0
  0
LINE
  5
200
330
1F
100
AcDbEntity
  8
0-3_仕上げ
  6
Continuous
 62
   120
370
     5
100
AcDbLine
 10
-4165.15050320037
 20
2245.581095965816
 30
0.0
 11
-4160.15050320037
 21
2245.581095965816
 31
0.0
  0
LINE
  5
201
330
1F
100
AcDbEntity
  8
0-3_仕上げ
  6
Continuous
 62
   120
370
     5
100
AcDbLine
 10
-4165.15050320037
 20
2252.000148463893
 30
0.0
 11
-4165.15050320037
 21
2245.581095965816
 31
0.0
  0
LINE
  5
202
330
1F
100
AcDbEntity
  8
0-3_仕上げ
  6
Continuous
 62
   120
370
     5
100
AcDbLine
 10
-4165.15050320037
 20
2271.581095965816
 30
0.0
 11
-4160.15050320037
 21
2271.581095965816
 31
0.0
  0
LINE
  5
203
330
1F
100
AcDbEntity
  8
0-3_仕上げ
  6
Continuous
 62
   120
370
     5
100
AcDbLine
 10
-4165.15050320037
 20
2278.000148463893
 30
0.0
 11
-4165.15050320037
 21
2271.581095965816
 31
0.0
  0
LINE
  5
204
330
1F
100
AcDbEntity
  8
0-3_仕上げ
  6
Continuous
 62
   120
370
     5
100
AcDbLine
 10
-4165.15050320037
 20
2297.581095965816
 30
0.0
 11
-4160.15050320037
 21
2297.581095965816
 31
0.0
  0
LINE
  5
205
330
1F
100
AcDbEntity
  8
0-3_仕上げ
  6
Continuous
 62
   120
370
     5
100
AcDbLine
 10
-4165.15050320037
 20
2304.000148463894
 30
0.0
 11
-4165.15050320037
 21
2297.581095965816
 31
0.0
  0
LINE
  5
206
330
1F
100
AcDbEntity
  8
0-3_仕上げ
  6
Continuous
 62
   120
370
     5
100
AcDbLine
 10
-4165.15050320037
 20
2323.581095965816
 30
0.0
 11
-4160.15050320037
 21
2323.581095965816
 31
0.0
  0
LINE
  5
207
330
1F
100
AcDbEntity
  8
0-3_仕上げ
  6
Continuous
 62
   120
370
     5
100
AcDbLine
 10
-4165.15050320037
 20
2330.000148463893
 30
0.0
 11
-4165.15050320037
 21
2323.581095965816
 31
0.0
  0
LINE
  5
208
330
1F
100
AcDbEntity
  8
0-3_仕上げ
  6
Continuous
 62
   120
370
     5
100
AcDbLine
 10
-4165.15050320037
 20
2349.581095965816
 30
0.0
 11
-4160.15050320037
 21
2349.581095965816
 31
0.0
  0
LINE
  5
209
330
1F
100
AcDbEntity
  8
0-3_仕上げ
  6
Continuous
 62
   120
370
     5
100
AcDbLine
 10
-4165.15050320037
 20
2356.000148463893
 30
0.0
 11
-4165.15050320037
 21
2349.581095965816
 31
0.0
  0
LINE
  5
20A
330
1F
100
AcDbEntity
  8
0-3_仕上げ
  6
Continuous
 62
   120
370
     5
100
AcDbLine
 10
-4165.15050320037
 20
2375.581095965816
 30
0.0
 11
-4160.15050320037
 21
2375.581095965816
 31
0.0
  0
LINE
  5
20B
330
1F
100
AcDbEntity
  8
0-3_仕上げ
  6
Continuous
 62
   120
370
     5
100
AcDbLine
 10
-4165.15050320037
 20
2382.000148463893
 30
0.0
 11
-4165.15050320037
 21
2375.581095965816
 31
0.0
  0
LINE
  5
20C
330
1F
100
AcDbEntity
  8
0-3_仕上げ
  6
Continuous
 62
   120
370
     5
100
AcDbLine
 10
-4165.15050320037
 20
2401.581095965816
 30
0.0
 11
-4160.15050320037
 21
2401.581095965816
 31
0.0
  0
LINE
  5
20D
330
1F
100
AcDbEntity
  8
0-3_仕上げ
  6
Continuous
 62
   120
370
     5
100
AcDbLine
 10
-4165.15050320037
 20
2408.000148463894
 30
0.0
 11
-4165.15050320037
 21
2401.581095965816
 31
0.0
  0
LINE
  5
20E
330
1F
100
AcDbEntity
  8
0-3_仕上げ
  6
Continuous
 62
   120
370
     5
100
AcDbLine
 10
-4165.15050320037
 20
2427.581095965816
 30
0.0
 11
-4160.15050320037
 21
2427.581095965816
 31
0.0
  0
LINE
  5
20F
330
1F
100
AcDbEntity
  8
0-3_仕上げ
  6
Continuous
 62
   120
370
     5
100
AcDbLine
 10
-4165.15050320037
 20
2434.000148463894
 30
0.0
 11
-4165.15050320037
 21
2427.581095965816
 31
0.0
  0
LINE
  5
210
330
1F
100
AcDbEntity
  8
0-3_仕上げ
  6
Continuous
 62
   120
370
     5
100
AcDbLine
 10
-4165.15050320037
 20
2453.581095965816
 30
0.0
 11
-4160.15050320037
 21
2453.581095965816
 31
0.0
  0
LINE
  5
211
330
1F
100
AcDbEntity
  8
0-3_仕上げ
  6
Continuous
 62
   120
370
     5
100
AcDbLine
 10
-4165.15050320037
 20
2460.000148463894
 30
0.0
 11
-4165.15050320037
 21
2453.581095965816
 31
0.0
  0
LINE
  5
212
330
1F
100
AcDbEntity
  8
0-3_仕上げ
  6
Continuous
 62
   120
370
     5
100
AcDbLine
 10
-4165.15050320037
 20
2479.581095965817
 30
0.0
 11
-4160.15050320037
 21
2479.581095965817
 31
0.0
  0
LINE
  5
213
330
1F
100
AcDbEntity
  8
0-3_仕上げ
  6
Continuous
 62
   120
370
     5
100
AcDbLine
 10
-4165.15050320037
 20
2486.000148463894
 30
0.0
 11
-4165.15050320037
 21
2479.581095965817
 31
0.0
  0
LINE
  5
214
330
1F
100
AcDbEntity
  8
0-3_仕上げ
  6
Continuous
 62
   120
370
     5
100
AcDbLine
 10
-4165.15050320037
 20
2505.581095965817
 30
0.0
 11
-4160.15050320037
 21
2505.581095965817
 31
0.0
  0
LINE
  5
215
330
1F
100
AcDbEntity
  8
0-3_仕上げ
  6
Continuous
 62
   120
370
     5
100
AcDbLine
 10
-4165.15050320037
 20
2512.000148463895
 30
0.0
 11
-4165.15050320037
 21
2505.581095965817
 31
0.0
  0
LINE
  5
216
330
1F
100
AcDbEntity
  8
0-3_仕上げ
  6
Continuous
 62
   120
370
     5
100
AcDbLine
 10
-4165.15050320037
 20
2531.581095965817
 30
0.0
 11
-4160.15050320037
 21
2531.581095965817
 31
0.0
  0
LINE
  5
217
330
1F
100
AcDbEntity
  8
0-3_仕上げ
  6
Continuous
 62
   120
370
     5
100
AcDbLine
 10
-4165.15050320037
 20
2538.000148463895
 30
0.0
 11
-4165.15050320037
 21
2531.581095965817
 31
0.0
  0
LINE
  5
218
330
1F
100
AcDbEntity
  8
0-3_仕上げ
  6
Continuous
 62
   120
370
     5
100
AcDbLine
 10
-4165.15050320037
 20
2557.581095965817
 30
0.0
 11
-4160.15050320037
 21
2557.581095965817
 31
0.0
  0
LINE
  5
219
330
1F
100
AcDbEntity
  8
0-3_仕上げ
  6
Continuous
 62
   120
370
     5
100
AcDbLine
 10
-4165.15050320037
 20
2564.000148463894
 30
0.0
 11
-4165.15050320037
 21
2557.581095965817
 31
0.0
  0
LINE
  5
21A
330
1F
100
AcDbEntity
  8
0-3_仕上げ
  6
Continuous
 62
   120
370
     5
100
AcDbLine
 10
-4165.15050320037
 20
2583.581095965817
 30
0.0
 11
-4160.15050320037
 21
2583.581095965817
 31
0.0
  0
LINE
  5
21B
330
1F
100
AcDbEntity
  8
0-3_仕上げ
  6
Continuous
 62
   120
370
     5
100
AcDbLine
 10
-4165.15050320037
 20
2590.000148463895
 30
0.0
 11
-4165.15050320037
 21
2583.581095965817
 31
0.0
  0
LINE
  5
21C
330
1F
100
AcDbEntity
  8
0-3_仕上げ
  6
Continuous
 62
   120
370
     5
100
AcDbLine
 10
-4165.15050320037
 20
2609.581095965817
 30
0.0
 11
-4160.15050320037
 21
2609.581095965817
 31
0.0
  0
LINE
  5
21D
330
1F
100
AcDbEntity
  8
0-3_仕上げ
  6
Continuous
 62
   120
370
     5
100
AcDbLine
 10
-4165.15050320037
 20
2616.000148463895
 30
0.0
 11
-4165.15050320037
 21
2609.581095965817
 31
0.0
  0
LINE
  5
21E
330
1F
100
AcDbEntity
  8
0-3_仕上げ
  6
Continuous
 62
   120
370
     5
100
AcDbLine
 10
-4165.15050320037
 20
2635.581095965817
 30
0.0
 11
-4160.15050320037
 21
2635.581095965817
 31
0.0
  0
LINE
  5
21F
330
1F
100
AcDbEntity
  8
0-3_仕上げ
  6
Continuous
 62
   120
370
     5
100
AcDbLine
 10
-4165.15050320037
 20
2642.000148463895
 30
0.0
 11
-4165.15050320037
 21
2635.581095965817
 31
0.0
  0
LINE
  5
220
330
1F
100
AcDbEntity
  8
0-3_仕上げ
  6
Continuous
 62
   120
370
     5
100
AcDbLine
 10
-4165.15050320037
 20
2661.581095965817
 30
0.0
 11
-4160.15050320037
 21
2661.581095965817
 31
0.0
  0
LINE
  5
221
330
1F
100
AcDbEntity
  8
0-3_仕上げ
  6
Continuous
 62
   120
370
     5
100
AcDbLine
 10
-4165.15050320037
 20
2668.000148463894
 30
0.0
 11
-4165.15050320037
 21
2661.581095965817
 31
0.0
  0
LINE
  5
222
330
1F
100
AcDbEntity
  8
0-3_仕上げ
  6
Continuous
 62
   120
370
     5
100
AcDbLine
 10
-4165.15050320037
 20
2687.581095965817
 30
0.0
 11
-4160.15050320037
 21
2687.581095965817
 31
0.0
  0
LINE
  5
223
330
1F
100
AcDbEntity
  8
0-3_仕上げ
  6
Continuous
 62
   120
370
     5
100
AcDbLine
 10
-4165.15050320037
 20
2694.000148463895
 30
0.0
 11
-4165.15050320037
 21
2687.581095965817
 31
0.0
  0
LINE
  5
224
330
1F
100
AcDbEntity
  8
0-3_仕上げ
  6
Continuous
 62
   120
370
     5
100
AcDbLine
 10
-4165.15050320037
 20
2713.581095965817
 30
0.0
 11
-4160.15050320037
 21
2713.581095965817
 31
0.0
  0
LINE
  5
225
330
1F
100
AcDbEntity
  8
0-3_仕上げ
  6
Continuous
 62
   120
370
     5
100
AcDbLine
 10
-4165.15050320037
 20
2720.000148463895
 30
0.0
 11
-4165.15050320037
 21
2713.581095965817
 31
0.0
  0
LINE
  5
226
330
1F
100
AcDbEntity
  8
0-3_仕上げ
  6
Continuous
 62
   120
370
     5
100
AcDbLine
 10
-4165.15050320037
 20
2739.581095965817
 30
0.0
 11
-4160.15050320037
 21
2739.581095965817
 31
0.0
  0
LINE
  5
227
330
1F
100
AcDbEntity
  8
0-3_仕上げ
  6
Continuous
 62
   120
370
     5
100
AcDbLine
 10
-4165.15050320037
 20
2746.000148463895
 30
0.0
 11
-4165.15050320037
 21
2739.581095965817
 31
0.0
  0
LINE
  5
228
330
1F
100
AcDbEntity
  8
0-3_仕上げ
  6
Continuous
 62
   120
370
     5
100
AcDbLine
 10
-4165.15050320037
 20
2765.581095965817
 30
0.0
 11
-4160.15050320037
 21
2765.581095965817
 31
0.0
  0
LINE
  5
229
330
1F
100
AcDbEntity
  8
0-3_仕上げ
  6
Continuous
 62
   120
370
     5
100
AcDbLine
 10
-4165.15050320037
 20
2772.000148463895
 30
0.0
 11
-4165.15050320037
 21
2765.581095965817
 31
0.0
  0
LINE
  5
22A
330
1F
100
AcDbEntity
  8
0-3_仕上げ
  6
Continuous
 62
   120
370
     5
100
AcDbLine
 10
-4165.15050320037
 20
2791.581095965817
 30
0.0
 11
-4160.15050320037
 21
2791.581095965817
 31
0.0
  0
LINE
  5
22B
330
1F
100
AcDbEntity
  8
0-3_仕上げ
  6
Continuous
 62
   120
370
     5
100
AcDbLine
 10
-4165.15050320037
 20
2798.000148463895
 30
0.0
 11
-4165.15050320037
 21
2791.581095965817
 31
0.0
  0
LINE
  5
22C
330
1F
100
AcDbEntity
  8
0-3_仕上げ
  6
Continuous
 62
   120
370
     5
100
AcDbLine
 10
-4165.15050320037
 20
2817.581095965818
 30
0.0
 11
-4160.15050320037
 21
2817.581095965818
 31
0.0
  0
LINE
  5
22D
330
1F
100
AcDbEntity
  8
0-3_仕上げ
  6
Continuous
 62
   120
370
     5
100
AcDbLine
 10
-4165.15050320037
 20
2824.000148463895
 30
0.0
 11
-4165.15050320037
 21
2817.581095965818
 31
0.0
  0
LINE
  5
22E
330
1F
100
AcDbEntity
  8
0-3_仕上げ
  6
Continuous
 62
   120
370
     5
100
AcDbLine
 10
-4165.15050320037
 20
2843.581095965817
 30
0.0
 11
-4160.15050320037
 21
2843.581095965817
 31
0.0
  0
LINE
  5
22F
330
1F
100
AcDbEntity
  8
0-3_仕上げ
  6
Continuous
 62
   120
370
     5
100
AcDbLine
 10
-4165.15050320037
 20
2850.000148463895
 30
0.0
 11
-4165.15050320037
 21
2843.581095965817
 31
0.0
  0
LINE
  5
230
330
1F
100
AcDbEntity
  8
0-3_仕上げ
  6
Continuous
 62
   120
370
     5
100
AcDbLine
 10
-4165.15050320037
 20
2869.581095965817
 30
0.0
 11
-4160.15050320037
 21
2869.581095965817
 31
0.0
  0
LINE
  5
231
330
1F
100
AcDbEntity
  8
0-3_仕上げ
  6
Continuous
 62
   120
370
     5
100
AcDbLine
 10
-4165.15050320037
 20
2876.000148463895
 30
0.0
 11
-4165.15050320037
 21
2869.581095965817
 31
0.0
  0
LINE
  5
232
330
1F
100
AcDbEntity
  8
0-3_仕上げ
  6
Continuous
 62
   120
370
     5
100
AcDbLine
 10
-4165.15050320037
 20
2895.581095965817
 30
0.0
 11
-4160.15050320037
 21
2895.581095965817
 31
0.0
  0
LINE
  5
233
330
1F
100
AcDbEntity
  8
0-3_仕上げ
  6
Continuous
 62
   120
370
     5
100
AcDbLine
 10
-4165.15050320037
 20
2902.000148463896
 30
0.0
 11
-4165.15050320037
 21
2895.581095965817
 31
0.0
  0
LINE
  5
234
330
1F
100
AcDbEntity
  8
0-3_仕上げ
  6
Continuous
 62
   120
370
     5
100
AcDbLine
 10
-4165.15050320037
 20
2921.581095965818
 30
0.0
 11
-4160.15050320037
 21
2921.581095965818
 31
0.0
  0
LINE
  5
235
330
1F
100
AcDbEntity
  8
0-3_仕上げ
  6
Continuous
 62
   120
370
     5
100
AcDbLine
 10
-4165.15050320037
 20
2928.000148463896
 30
0.0
 11
-4165.15050320037
 21
2921.581095965818
 31
0.0
  0
LINE
  5
236
330
1F
100
AcDbEntity
  8
0-3_仕上げ
  6
Continuous
 62
   120
370
     5
100
AcDbLine
 10
-4165.15050320037
 20
2947.581095965818
 30
0.0
 11
-4160.15050320037
 21
2947.581095965818
 31
0.0
  0
LINE
  5
237
330
1F
100
AcDbEntity
  8
0-3_仕上げ
  6
Continuous
 62
   120
370
     5
100
AcDbLine
 10
-4165.15050320037
 20
2954.000148463896
 30
0.0
 11
-4165.15050320037
 21
2947.581095965818
 31
0.0
  0
LINE
  5
238
330
1F
100
AcDbEntity
  8
0-3_仕上げ
  6
Continuous
 62
   120
370
     5
100
AcDbLine
 10
-4165.15050320037
 20
2973.581095965818
 30
0.0
 11
-4160.15050320037
 21
2973.581095965818
 31
0.0
  0
LINE
  5
239
330
1F
100
AcDbEntity
  8
0-3_仕上げ
  6
Continuous
 62
   120
370
     5
100
AcDbLine
 10
-4165.15050320037
 20
2980.000148463895
 30
0.0
 11
-4165.15050320037
 21
2973.581095965818
 31
0.0
  0
LINE
  5
23A
330
1F
100
AcDbEntity
  8
0-3_仕上げ
  6
Continuous
 62
   120
370
     5
100
AcDbLine
 10
-4165.15050320037
 20
2999.581095965818
 30
0.0
 11
-4160.15050320037
 21
2999.581095965818
 31
0.0
  0
LINE
  5
23B
330
1F
100
AcDbEntity
  8
0-3_仕上げ
  6
Continuous
 62
   120
370
     5
100
AcDbLine
 10
-4165.15050320037
 20
3006.000148463896
 30
0.0
 11
-4165.15050320037
 21
2999.581095965818
 31
0.0
  0
LINE
  5
23C
330
1F
100
AcDbEntity
  8
0-3_仕上げ
  6
Continuous
 62
   120
370
     5
100
AcDbLine
 10
-4165.15050320037
 20
3025.581095965818
 30
0.0
 11
-4160.15050320037
 21
3025.581095965818
 31
0.0
  0
LINE
  5
23D
330
1F
100
AcDbEntity
  8
0-3_仕上げ
  6
Continuous
 62
   120
370
     5
100
AcDbLine
 10
-4165.15050320037
 20
3032.000148463896
 30
0.0
 11
-4165.15050320037
 21
3025.581095965818
 31
0.0
  0
LINE
  5
23E
330
1F
100
AcDbEntity
  8
0-3_仕上げ
  6
Continuous
 62
   120
370
     5
100
AcDbLine
 10
-4165.15050320037
 20
3051.581095965818
 30
0.0
 11
-4160.15050320037
 21
3051.581095965818
 31
0.0
  0
LINE
  5
23F
330
1F
100
AcDbEntity
  8
0-3_仕上げ
  6
Continuous
 62
   120
370
     5
100
AcDbLine
 10
-4165.15050320037
 20
3058.000148463896
 30
0.0
 11
-4165.15050320037
 21
3051.581095965818
 31
0.0
  0
LINE
  5
240
330
1F
100
AcDbEntity
  8
0-3_仕上げ
  6
Continuous
 62
   120
370
     5
100
AcDbLine
 10
-4165.15050320037
 20
3077.581095965818
 30
0.0
 11
-4160.15050320037
 21
3077.581095965818
 31
0.0
  0
LINE
  5
241
330
1F
100
AcDbEntity
  8
0-3_仕上げ
  6
Continuous
 62
   120
370
     5
100
AcDbLine
 10
-4165.15050320037
 20
3084.000148463896
 30
0.0
 11
-4165.15050320037
 21
3077.581095965818
 31
0.0
  0
LINE
  5
242
330
1F
100
AcDbEntity
  8
0-3_仕上げ
  6
Continuous
 62
   120
370
     5
100
AcDbLine
 10
-4165.15050320037
 20
3103.581095965818
 30
0.0
 11
-4160.15050320037
 21
3103.581095965818
 31
0.0
  0
LINE
  5
243
330
1F
100
AcDbEntity
  8
0-3_仕上げ
  6
Continuous
 62
   120
370
     5
100
AcDbLine
 10
-4165.15050320037
 20
3110.000148463896
 30
0.0
 11
-4165.15050320037
 21
3103.581095965818
 31
0.0
  0
LINE
  5
244
330
1F
100
AcDbEntity
  8
0-3_仕上げ
  6
Continuous
 62
   120
370
     5
100
AcDbLine
 10
-4165.15050320037
 20
3129.581095965819
 30
0.0
 11
-4160.15050320037
 21
3129.581095965819
 31
0.0
  0
LINE
  5
245
330
1F
100
AcDbEntity
  8
0-3_仕上げ
  6
Continuous
 62
   120
370
     5
100
AcDbLine
 10
-4165.15050320037
 20
3136.000148463896
 30
0.0
 11
-4165.15050320037
 21
3129.581095965819
 31
0.0
  0
LINE
  5
246
330
1F
100
AcDbEntity
  8
0-3_仕上げ
  6
Continuous
 62
   120
370
     5
100
AcDbLine
 10
-4165.15050320037
 20
3155.581095965819
 30
0.0
 11
-4160.15050320037
 21
3155.581095965819
 31
0.0
  0
LINE
  5
247
330
1F
100
AcDbEntity
  8
0-3_仕上げ
  6
Continuous
 62
   120
370
     5
100
AcDbLine
 10
-4165.15050320037
 20
3162.000148463897
 30
0.0
 11
-4165.15050320037
 21
3155.581095965819
 31
0.0
  0
LINE
  5
248
330
1F
100
AcDbEntity
  8
0-3_仕上げ
  6
Continuous
 62
   120
370
     5
100
AcDbLine
 10
-4165.15050320037
 20
3181.581095965819
 30
0.0
 11
-4160.15050320037
 21
3181.581095965819
 31
0.0
  0
LINE
  5
249
330
1F
100
AcDbEntity
  8
0-3_仕上げ
  6
Continuous
 62
   120
370
     5
100
AcDbLine
 10
-4165.15050320037
 20
3188.000148463896
 30
0.0
 11
-4165.15050320037
 21
3181.581095965819
 31
0.0
  0
LINE
  5
24A
330
1F
100
AcDbEntity
  8
0-3_仕上げ
  6
Continuous
 62
   120
370
     5
100
AcDbLine
 10
-4165.15050320037
 20
3207.581095965819
 30
0.0
 11
-4160.15050320037
 21
3207.581095965819
 31
0.0
  0
LINE
  5
24B
330
1F
100
AcDbEntity
  8
0-3_仕上げ
  6
Continuous
 62
   120
370
     5
100
AcDbLine
 10
-4165.15050320037
 20
3214.000148463896
 30
0.0
 11
-4165.15050320037
 21
3207.581095965819
 31
0.0
  0
LINE
  5
24C
330
1F
100
AcDbEntity
  8
0-3_仕上げ
  6
Continuous
 62
   120
370
     5
100
AcDbLine
 10
-4165.15050320037
 20
3233.581095965819
 30
0.0
 11
-4160.15050320037
 21
3233.581095965819
 31
0.0
  0
LINE
  5
24D
330
1F
100
AcDbEntity
  8
0-3_仕上げ
  6
Continuous
 62
   120
370
     5
100
AcDbLine
 10
-4165.15050320037
 20
3240.000148463897
 30
0.0
 11
-4165.15050320037
 21
3233.581095965819
 31
0.0
  0
LINE
  5
24E
330
1F
100
AcDbEntity
  8
0-3_仕上げ
  6
Continuous
 62
   120
370
     5
100
AcDbLine
 10
-4165.15050320037
 20
3259.581095965819
 30
0.0
 11
-4160.15050320037
 21
3259.581095965819
 31
0.0
  0
LINE
  5
24F
330
1F
100
AcDbEntity
  8
0-3_仕上げ
  6
Continuous
 62
   120
370
     5
100
AcDbLine
 10
-4165.15050320037
 20
3266.000148463897
 30
0.0
 11
-4165.15050320037
 21
3259.581095965819
 31
0.0
  0
LINE
  5
250
330
1F
100
AcDbEntity
  8
0-3_仕上げ
  6
Continuous
 62
     7
370
     9
100
AcDbLine
 10
-4388.15050320037
 20
3286.000148463891
 30
0.0
 11
-4160.15050320037
 21
3286.000148463891
 31
0.0
  0
LINE
  5
251
330
1F
100
AcDbEntity
  8
0-3_仕上げ
  6
Continuous
 62
     7
370
     9
100
AcDbLine
 10
-4388.15050320037
 20
1576.000148463891
 30
0.0
 11
-4160.15050320037
 21
1576.000148463891
 31
0.0
  0
LINE
  5
252
330
1F
100
AcDbEntity
  8
0-3_仕上げ
  6
Continuous
 62
     7
370
     9
100
AcDbLine
 10
-4388.15050320037
 20
1426.000148463891
 30
0.0
 11
-4388.15050320037
 21
3409.000148463891
 31
0.0
  0
LINE
  5
253
330
1F
100
AcDbEntity
  8
0-3_仕上げ
  6
Continuous
 62
     7
370
     9
100
AcDbLine
 10
-4160.15050320037
 20
1426.000148463891
 30
0.0
 11
-4160.15050320037
 21
3409.000148463891
 31
0.0
  0
LINE
  5
254
330
1F
100
AcDbEntity
  8
0-2_扉
  6
JWW_DASHED1
 62
   120
370
     5
100
AcDbLine
 10
-4679.15050320037
 20
3409.000148463891
 30
0.0
 11
-4679.15050320037
 21
3405.000148463891
 31
0.0
  0
LINE
  5
255
330
1F
100
AcDbEntity
  8
0-4_枠
  6
JWW_DASHED1
 62
   120
370
     5
100
AcDbLine
 10
-4679.15050320037
 20
3409.000148463891
 30
0.0
 11
-4679.15050320037
 21
1426.000148463891
 31
0.0
  0
LINE
  5
256
330
1F
100
AcDbEntity
  8
0-2_扉
  6
Continuous
 62
    92
370
    13
100
AcDbLine
 10
-3869.15050320037
 20
1426.000148463891
 30
0.0
 11
-4676.150503200371
 21
1426.000148463891
 31
0.0
  0
LINE
  5
257
330
1F
100
AcDbEntity
  8
0-4_枠
  6
JWW_DASHED1
 62
   120
370
     5
100
AcDbLine
 10
-4676.150503200371
 20
1426.000148463891
 30
0.0
 11
-4679.15050320037
 21
1426.000148463891
 31
0.0
  0
LINE
  5
258
330
1F
100
AcDbEntity
  8
0-2_扉
  6
Continuous
 62
    92
370
    13
100
AcDbLine
 10
-3869.15050320037
 20
3409.000148463891
 30
0.0
 11
-4676.150503200371
 21
3409.000148463891
 31
0.0
  0
LINE
  5
259
330
1F
100
AcDbEntity
  8
0-4_枠
  6
JWW_DASHED1
 62
   120
370
     5
100
AcDbLine
 10
-4676.150503200371
 20
3409.000148463891
 30
0.0
 11
-4679.15050320037
 21
3409.000148463891
 31
0.0
  0
LINE
  5
25A
330
1F
100
AcDbEntity
  8
0-4_枠
  6
Continuous
 62
    92
370
    13
100
AcDbLine
 10
-3119.15050320037
 20
1418.000148463892
 30
0.0
 11
-3089.15050320037
 21
1418.000148463892
 31
0.0
  0
LINE
  5
25B
330
1F
100
AcDbEntity
  8
引手
  6
JWW_CENTER1
 62
     7
370
     9
100
AcDbLine
 10
-3886.224669001697
 20
2383.500148463891
 30
0.0
 11
-3813.714972392535
 21
2383.500148463891
 31
0.0
  0
LINE
  5
25C
330
1F
100
AcDbEntity
  8
引手
  6
JWW_CENTER1
 62
     7
370
     9
100
AcDbLine
 10
-3848.150503200372
 20
2298.269479928366
 30
0.0
 11
-3848.150503200372
 21
2469.119751352503
 31
0.0
  0
LINE
  5
25D
330
1F
100
AcDbEntity
  8
引手
  6
JWW_DASHED1
 62
     7
370
     9
100
AcDbLine
 10
-3832.150503200373
 20
2332.500148463891
 30
0.0
 11
-3832.150503200373
 21
2434.500148463891
 31
0.0
  0
LINE
  5
25E
330
1F
100
AcDbEntity
  8
引手
  6
JWW_DASHED1
 62
     7
370
     9
100
AcDbLine
 10
-3864.150503200371
 20
2332.500148463891
 30
0.0
 11
-3832.150503200373
 21
2332.500148463891
 31
0.0
  0
LINE
  5
25F
330
1F
100
AcDbEntity
  8
引手
  6
JWW_DASHED1
 62
     7
370
     9
100
AcDbLine
 10
-3864.150503200371
 20
2332.500148463891
 30
0.0
 11
-3864.150503200371
 21
2434.500148463891
 31
0.0
  0
LINE
  5
260
330
1F
100
AcDbEntity
  8
引手
  6
JWW_DASHED1
 62
     7
370
     9
100
AcDbLine
 10
-3864.150503200371
 20
2434.500148463891
 30
0.0
 11
-3832.150503200373
 21
2434.500148463891
 31
0.0
  0
LINE
  5
261
330
1F
100
AcDbEntity
  8
引手
  6
Continuous
 62
     7
370
     9
100
AcDbLine
 10
-3867.150503200373
 20
2328.500148463891
 30
0.0
 11
-3829.150503200371
 21
2328.500148463891
 31
0.0
  0
LINE
  5
262
330
1F
100
AcDbEntity
  8
引手
  6
Continuous
 62
     7
370
     9
100
AcDbLine
 10
-3860.650503200372
 20
2344.500148463891
 30
0.0
 11
-3835.650503200372
 21
2344.500148463891
 31
0.0
  0
LINE
  5
263
330
1F
100
AcDbEntity
  8
引手
  6
Continuous
 62
     7
370
     9
100
AcDbLine
 10
-3860.650503200372
 20
2422.500148463891
 30
0.0
 11
-3835.650503200372
 21
2422.500148463891
 31
0.0
  0
LINE
  5
264
330
1F
100
AcDbEntity
  8
引手
  6
Continuous
 62
     7
370
     9
100
AcDbLine
 10
-3867.150503200373
 20
2438.500148463891
 30
0.0
 11
-3829.150503200371
 21
2438.500148463891
 31
0.0
  0
LINE
  5
265
330
1F
100
AcDbEntity
  8
引手
  6
Continuous
 62
     7
370
     9
100
AcDbLine
 10
-3867.150503200373
 20
2328.500148463891
 30
0.0
 11
-3867.150503200373
 21
2438.500148463891
 31
0.0
  0
LINE
  5
266
330
1F
100
AcDbEntity
  8
引手
  6
Continuous
 62
     7
370
     9
100
AcDbLine
 10
-3860.650503200372
 20
2344.500148463891
 30
0.0
 11
-3860.650503200372
 21
2422.500148463891
 31
0.0
  0
LINE
  5
267
330
1F
100
AcDbEntity
  8
引手
  6
Continuous
 62
     7
370
     9
100
AcDbLine
 10
-3835.650503200372
 20
2344.500148463891
 30
0.0
 11
-3835.650503200372
 21
2422.500148463891
 31
0.0
  0
LINE
  5
268
330
1F
100
AcDbEntity
  8
引手
  6
Continuous
 62
     7
370
     9
100
AcDbLine
 10
-3829.150503200371
 20
2328.500148463891
 30
0.0
 11
-3829.150503200371
 21
2438.500148463891
 31
0.0
  0
LINE
  5
269
330
1F
100
AcDbEntity
  8
0-3_仕上げ
  6
Continuous
 62
   120
370
     5
100
AcDbLine
 10
-3608.15050320037
 20
3266.000148463897
 30
0.0
 11
-3380.15050320037
 21
3266.000148463897
 31
0.0
  0
LINE
  5
26A
330
1F
100
AcDbEntity
  8
0-3_仕上げ
  6
Continuous
 62
   120
370
     5
100
AcDbLine
 10
-3608.15050320037
 20
3256.000148463896
 30
0.0
 11
-3380.15050320037
 21
3256.000148463896
 31
0.0
  0
LINE
  5
26B
330
1F
100
AcDbEntity
  8
0-3_仕上げ
  6
Continuous
 62
   120
370
     5
100
AcDbLine
 10
-3608.15050320037
 20
3240.000148463897
 30
0.0
 11
-3380.15050320037
 21
3240.000148463897
 31
0.0
  0
LINE
  5
26C
330
1F
100
AcDbEntity
  8
0-3_仕上げ
  6
Continuous
 62
   120
370
     5
100
AcDbLine
 10
-3608.15050320037
 20
3230.000148463896
 30
0.0
 11
-3380.15050320037
 21
3230.000148463896
 31
0.0
  0
LINE
  5
26D
330
1F
100
AcDbEntity
  8
0-3_仕上げ
  6
Continuous
 62
   120
370
     5
100
AcDbLine
 10
-3608.15050320037
 20
3214.000148463896
 30
0.0
 11
-3380.15050320037
 21
3214.000148463896
 31
0.0
  0
LINE
  5
26E
330
1F
100
AcDbEntity
  8
0-3_仕上げ
  6
Continuous
 62
   120
370
     5
100
AcDbLine
 10
-3608.15050320037
 20
3204.000148463896
 30
0.0
 11
-3380.15050320037
 21
3204.000148463896
 31
0.0
  0
LINE
  5
26F
330
1F
100
AcDbEntity
  8
0-3_仕上げ
  6
Continuous
 62
   120
370
     5
100
AcDbLine
 10
-3608.15050320037
 20
3188.000148463896
 30
0.0
 11
-3380.15050320037
 21
3188.000148463896
 31
0.0
  0
LINE
  5
270
330
1F
100
AcDbEntity
  8
0-3_仕上げ
  6
Continuous
 62
   120
370
     5
100
AcDbLine
 10
-3608.15050320037
 20
3178.000148463896
 30
0.0
 11
-3380.15050320037
 21
3178.000148463896
 31
0.0
  0
LINE
  5
271
330
1F
100
AcDbEntity
  8
0-3_仕上げ
  6
Continuous
 62
   120
370
     5
100
AcDbLine
 10
-3608.15050320037
 20
3162.000148463897
 30
0.0
 11
-3380.15050320037
 21
3162.000148463897
 31
0.0
  0
LINE
  5
272
330
1F
100
AcDbEntity
  8
0-3_仕上げ
  6
Continuous
 62
   120
370
     5
100
AcDbLine
 10
-3608.15050320037
 20
3152.000148463896
 30
0.0
 11
-3380.15050320037
 21
3152.000148463896
 31
0.0
  0
LINE
  5
273
330
1F
100
AcDbEntity
  8
0-3_仕上げ
  6
Continuous
 62
   120
370
     5
100
AcDbLine
 10
-3608.15050320037
 20
3136.000148463896
 30
0.0
 11
-3380.15050320037
 21
3136.000148463896
 31
0.0
  0
LINE
  5
274
330
1F
100
AcDbEntity
  8
0-3_仕上げ
  6
Continuous
 62
   120
370
     5
100
AcDbLine
 10
-3608.15050320037
 20
3126.000148463896
 30
0.0
 11
-3380.15050320037
 21
3126.000148463896
 31
0.0
  0
LINE
  5
275
330
1F
100
AcDbEntity
  8
0-3_仕上げ
  6
Continuous
 62
   120
370
     5
100
AcDbLine
 10
-3608.15050320037
 20
3110.000148463896
 30
0.0
 11
-3380.15050320037
 21
3110.000148463896
 31
0.0
  0
LINE
  5
276
330
1F
100
AcDbEntity
  8
0-3_仕上げ
  6
Continuous
 62
   120
370
     5
100
AcDbLine
 10
-3608.15050320037
 20
3100.000148463896
 30
0.0
 11
-3380.15050320037
 21
3100.000148463896
 31
0.0
  0
LINE
  5
277
330
1F
100
AcDbEntity
  8
0-3_仕上げ
  6
Continuous
 62
   120
370
     5
100
AcDbLine
 10
-3608.15050320037
 20
3084.000148463896
 30
0.0
 11
-3380.15050320037
 21
3084.000148463896
 31
0.0
  0
LINE
  5
278
330
1F
100
AcDbEntity
  8
0-3_仕上げ
  6
Continuous
 62
   120
370
     5
100
AcDbLine
 10
-3608.15050320037
 20
3074.000148463896
 30
0.0
 11
-3380.15050320037
 21
3074.000148463896
 31
0.0
  0
LINE
  5
279
330
1F
100
AcDbEntity
  8
0-3_仕上げ
  6
Continuous
 62
   120
370
     5
100
AcDbLine
 10
-3608.15050320037
 20
3058.000148463896
 30
0.0
 11
-3380.15050320037
 21
3058.000148463896
 31
0.0
  0
LINE
  5
27A
330
1F
100
AcDbEntity
  8
0-3_仕上げ
  6
Continuous
 62
   120
370
     5
100
AcDbLine
 10
-3608.15050320037
 20
3048.000148463896
 30
0.0
 11
-3380.15050320037
 21
3048.000148463896
 31
0.0
  0
LINE
  5
27B
330
1F
100
AcDbEntity
  8
0-3_仕上げ
  6
Continuous
 62
   120
370
     5
100
AcDbLine
 10
-3608.15050320037
 20
3032.000148463896
 30
0.0
 11
-3380.15050320037
 21
3032.000148463896
 31
0.0
  0
LINE
  5
27C
330
1F
100
AcDbEntity
  8
0-3_仕上げ
  6
Continuous
 62
   120
370
     5
100
AcDbLine
 10
-3608.15050320037
 20
3022.000148463896
 30
0.0
 11
-3380.15050320037
 21
3022.000148463896
 31
0.0
  0
LINE
  5
27D
330
1F
100
AcDbEntity
  8
0-3_仕上げ
  6
Continuous
 62
   120
370
     5
100
AcDbLine
 10
-3608.15050320037
 20
3006.000148463896
 30
0.0
 11
-3380.15050320037
 21
3006.000148463896
 31
0.0
  0
LINE
  5
27E
330
1F
100
AcDbEntity
  8
0-3_仕上げ
  6
Continuous
 62
   120
370
     5
100
AcDbLine
 10
-3608.15050320037
 20
2996.000148463896
 30
0.0
 11
-3380.15050320037
 21
2996.000148463896
 31
0.0
  0
LINE
  5
27F
330
1F
100
AcDbEntity
  8
0-3_仕上げ
  6
Continuous
 62
   120
370
     5
100
AcDbLine
 10
-3608.15050320037
 20
2980.000148463895
 30
0.0
 11
-3380.15050320037
 21
2980.000148463895
 31
0.0
  0
LINE
  5
280
330
1F
100
AcDbEntity
  8
0-3_仕上げ
  6
Continuous
 62
   120
370
     5
100
AcDbLine
 10
-3608.15050320037
 20
2970.000148463896
 30
0.0
 11
-3380.15050320037
 21
2970.000148463896
 31
0.0
  0
LINE
  5
281
330
1F
100
AcDbEntity
  8
0-3_仕上げ
  6
Continuous
 62
   120
370
     5
100
AcDbLine
 10
-3608.15050320037
 20
2954.000148463896
 30
0.0
 11
-3380.15050320037
 21
2954.000148463896
 31
0.0
  0
LINE
  5
282
330
1F
100
AcDbEntity
  8
0-3_仕上げ
  6
Continuous
 62
   120
370
     5
100
AcDbLine
 10
-3608.15050320037
 20
2944.000148463896
 30
0.0
 11
-3380.15050320037
 21
2944.000148463896
 31
0.0
  0
LINE
  5
283
330
1F
100
AcDbEntity
  8
0-3_仕上げ
  6
Continuous
 62
   120
370
     5
100
AcDbLine
 10
-3608.15050320037
 20
2928.000148463896
 30
0.0
 11
-3380.15050320037
 21
2928.000148463896
 31
0.0
  0
LINE
  5
284
330
1F
100
AcDbEntity
  8
0-3_仕上げ
  6
Continuous
 62
   120
370
     5
100
AcDbLine
 10
-3608.15050320037
 20
2918.000148463896
 30
0.0
 11
-3380.15050320037
 21
2918.000148463896
 31
0.0
  0
LINE
  5
285
330
1F
100
AcDbEntity
  8
0-3_仕上げ
  6
Continuous
 62
   120
370
     5
100
AcDbLine
 10
-3608.15050320037
 20
2902.000148463896
 30
0.0
 11
-3380.15050320037
 21
2902.000148463896
 31
0.0
  0
LINE
  5
286
330
1F
100
AcDbEntity
  8
0-3_仕上げ
  6
Continuous
 62
   120
370
     5
100
AcDbLine
 10
-3608.15050320037
 20
2892.000148463895
 30
0.0
 11
-3380.15050320037
 21
2892.000148463895
 31
0.0
  0
LINE
  5
287
330
1F
100
AcDbEntity
  8
0-3_仕上げ
  6
Continuous
 62
   120
370
     5
100
AcDbLine
 10
-3608.15050320037
 20
2876.000148463895
 30
0.0
 11
-3380.15050320037
 21
2876.000148463895
 31
0.0
  0
LINE
  5
288
330
1F
100
AcDbEntity
  8
0-3_仕上げ
  6
Continuous
 62
   120
370
     5
100
AcDbLine
 10
-3608.15050320037
 20
2866.000148463895
 30
0.0
 11
-3380.15050320037
 21
2866.000148463895
 31
0.0
  0
LINE
  5
289
330
1F
100
AcDbEntity
  8
0-3_仕上げ
  6
Continuous
 62
   120
370
     5
100
AcDbLine
 10
-3608.15050320037
 20
2850.000148463895
 30
0.0
 11
-3380.15050320037
 21
2850.000148463895
 31
0.0
  0
LINE
  5
28A
330
1F
100
AcDbEntity
  8
0-3_仕上げ
  6
Continuous
 62
   120
370
     5
100
AcDbLine
 10
-3608.15050320037
 20
2840.000148463895
 30
0.0
 11
-3380.15050320037
 21
2840.000148463895
 31
0.0
  0
LINE
  5
28B
330
1F
100
AcDbEntity
  8
0-3_仕上げ
  6
Continuous
 62
   120
370
     5
100
AcDbLine
 10
-3608.15050320037
 20
2824.000148463895
 30
0.0
 11
-3380.15050320037
 21
2824.000148463895
 31
0.0
  0
LINE
  5
28C
330
1F
100
AcDbEntity
  8
0-3_仕上げ
  6
Continuous
 62
   120
370
     5
100
AcDbLine
 10
-3608.15050320037
 20
2814.000148463896
 30
0.0
 11
-3380.15050320037
 21
2814.000148463896
 31
0.0
  0
LINE
  5
28D
330
1F
100
AcDbEntity
  8
0-3_仕上げ
  6
Continuous
 62
   120
370
     5
100
AcDbLine
 10
-3608.15050320037
 20
2798.000148463895
 30
0.0
 11
-3380.15050320037
 21
2798.000148463895
 31
0.0
  0
LINE
  5
28E
330
1F
100
AcDbEntity
  8
0-3_仕上げ
  6
Continuous
 62
   120
370
     5
100
AcDbLine
 10
-3608.15050320037
 20
2788.000148463895
 30
0.0
 11
-3380.15050320037
 21
2788.000148463895
 31
0.0
  0
LINE
  5
28F
330
1F
100
AcDbEntity
  8
0-3_仕上げ
  6
Continuous
 62
   120
370
     5
100
AcDbLine
 10
-3608.15050320037
 20
2772.000148463895
 30
0.0
 11
-3380.15050320037
 21
2772.000148463895
 31
0.0
  0
LINE
  5
290
330
1F
100
AcDbEntity
  8
0-3_仕上げ
  6
Continuous
 62
   120
370
     5
100
AcDbLine
 10
-3608.15050320037
 20
2762.000148463895
 30
0.0
 11
-3380.15050320037
 21
2762.000148463895
 31
0.0
  0
LINE
  5
291
330
1F
100
AcDbEntity
  8
0-3_仕上げ
  6
Continuous
 62
   120
370
     5
100
AcDbLine
 10
-3608.15050320037
 20
2746.000148463895
 30
0.0
 11
-3380.15050320037
 21
2746.000148463895
 31
0.0
  0
LINE
  5
292
330
1F
100
AcDbEntity
  8
0-3_仕上げ
  6
Continuous
 62
   120
370
     5
100
AcDbLine
 10
-3608.15050320037
 20
2736.000148463895
 30
0.0
 11
-3380.15050320037
 21
2736.000148463895
 31
0.0
  0
LINE
  5
293
330
1F
100
AcDbEntity
  8
0-3_仕上げ
  6
Continuous
 62
   120
370
     5
100
AcDbLine
 10
-3608.15050320037
 20
2720.000148463895
 30
0.0
 11
-3380.15050320037
 21
2720.000148463895
 31
0.0
  0
LINE
  5
294
330
1F
100
AcDbEntity
  8
0-3_仕上げ
  6
Continuous
 62
   120
370
     5
100
AcDbLine
 10
-3608.15050320037
 20
2710.000148463895
 30
0.0
 11
-3380.15050320037
 21
2710.000148463895
 31
0.0
  0
LINE
  5
295
330
1F
100
AcDbEntity
  8
0-3_仕上げ
  6
Continuous
 62
   120
370
     5
100
AcDbLine
 10
-3608.15050320037
 20
2694.000148463895
 30
0.0
 11
-3380.15050320037
 21
2694.000148463895
 31
0.0
  0
LINE
  5
296
330
1F
100
AcDbEntity
  8
0-3_仕上げ
  6
Continuous
 62
   120
370
     5
100
AcDbLine
 10
-3608.15050320037
 20
2684.000148463895
 30
0.0
 11
-3380.15050320037
 21
2684.000148463895
 31
0.0
  0
LINE
  5
297
330
1F
100
AcDbEntity
  8
0-3_仕上げ
  6
Continuous
 62
   120
370
     5
100
AcDbLine
 10
-3608.15050320037
 20
2668.000148463894
 30
0.0
 11
-3380.15050320037
 21
2668.000148463894
 31
0.0
  0
LINE
  5
298
330
1F
100
AcDbEntity
  8
0-3_仕上げ
  6
Continuous
 62
   120
370
     5
100
AcDbLine
 10
-3608.15050320037
 20
2658.000148463895
 30
0.0
 11
-3380.15050320037
 21
2658.000148463895
 31
0.0
  0
LINE
  5
299
330
1F
100
AcDbEntity
  8
0-3_仕上げ
  6
Continuous
 62
   120
370
     5
100
AcDbLine
 10
-3608.15050320037
 20
2642.000148463895
 30
0.0
 11
-3380.15050320037
 21
2642.000148463895
 31
0.0
  0
LINE
  5
29A
330
1F
100
AcDbEntity
  8
0-3_仕上げ
  6
Continuous
 62
   120
370
     5
100
AcDbLine
 10
-3608.15050320037
 20
2632.000148463895
 30
0.0
 11
-3380.15050320037
 21
2632.000148463895
 31
0.0
  0
LINE
  5
29B
330
1F
100
AcDbEntity
  8
0-3_仕上げ
  6
Continuous
 62
   120
370
     5
100
AcDbLine
 10
-3608.15050320037
 20
2616.000148463895
 30
0.0
 11
-3380.15050320037
 21
2616.000148463895
 31
0.0
  0
LINE
  5
29C
330
1F
100
AcDbEntity
  8
0-3_仕上げ
  6
Continuous
 62
   120
370
     5
100
AcDbLine
 10
-3608.15050320037
 20
2606.000148463894
 30
0.0
 11
-3380.15050320037
 21
2606.000148463894
 31
0.0
  0
LINE
  5
29D
330
1F
100
AcDbEntity
  8
0-3_仕上げ
  6
Continuous
 62
   120
370
     5
100
AcDbLine
 10
-3608.15050320037
 20
2590.000148463895
 30
0.0
 11
-3380.15050320037
 21
2590.000148463895
 31
0.0
  0
LINE
  5
29E
330
1F
100
AcDbEntity
  8
0-3_仕上げ
  6
Continuous
 62
   120
370
     5
100
AcDbLine
 10
-3608.15050320037
 20
2580.000148463894
 30
0.0
 11
-3380.15050320037
 21
2580.000148463894
 31
0.0
  0
LINE
  5
29F
330
1F
100
AcDbEntity
  8
0-3_仕上げ
  6
Continuous
 62
   120
370
     5
100
AcDbLine
 10
-3608.15050320037
 20
2564.000148463894
 30
0.0
 11
-3380.15050320037
 21
2564.000148463894
 31
0.0
  0
LINE
  5
2A0
330
1F
100
AcDbEntity
  8
0-3_仕上げ
  6
Continuous
 62
   120
370
     5
100
AcDbLine
 10
-3608.15050320037
 20
2554.000148463894
 30
0.0
 11
-3380.15050320037
 21
2554.000148463894
 31
0.0
  0
LINE
  5
2A1
330
1F
100
AcDbEntity
  8
0-3_仕上げ
  6
Continuous
 62
   120
370
     5
100
AcDbLine
 10
-3608.15050320037
 20
2538.000148463895
 30
0.0
 11
-3380.15050320037
 21
2538.000148463895
 31
0.0
  0
LINE
  5
2A2
330
1F
100
AcDbEntity
  8
0-3_仕上げ
  6
Continuous
 62
   120
370
     5
100
AcDbLine
 10
-3608.15050320037
 20
2528.000148463894
 30
0.0
 11
-3380.15050320037
 21
2528.000148463894
 31
0.0
  0
LINE
  5
2A3
330
1F
100
AcDbEntity
  8
0-3_仕上げ
  6
Continuous
 62
   120
370
     5
100
AcDbLine
 10
-3608.15050320037
 20
2512.000148463895
 30
0.0
 11
-3380.15050320037
 21
2512.000148463895
 31
0.0
  0
LINE
  5
2A4
330
1F
100
AcDbEntity
  8
0-3_仕上げ
  6
Continuous
 62
   120
370
     5
100
AcDbLine
 10
-3608.15050320037
 20
2502.000148463894
 30
0.0
 11
-3380.15050320037
 21
2502.000148463894
 31
0.0
  0
LINE
  5
2A5
330
1F
100
AcDbEntity
  8
0-3_仕上げ
  6
Continuous
 62
   120
370
     5
100
AcDbLine
 10
-3608.15050320037
 20
2486.000148463894
 30
0.0
 11
-3380.15050320037
 21
2486.000148463894
 31
0.0
  0
LINE
  5
2A6
330
1F
100
AcDbEntity
  8
0-3_仕上げ
  6
Continuous
 62
   120
370
     5
100
AcDbLine
 10
-3608.15050320037
 20
2476.000148463894
 30
0.0
 11
-3380.15050320037
 21
2476.000148463894
 31
0.0
  0
LINE
  5
2A7
330
1F
100
AcDbEntity
  8
0-3_仕上げ
  6
Continuous
 62
   120
370
     5
100
AcDbLine
 10
-3608.15050320037
 20
2460.000148463894
 30
0.0
 11
-3380.15050320037
 21
2460.000148463894
 31
0.0
  0
LINE
  5
2A8
330
1F
100
AcDbEntity
  8
0-3_仕上げ
  6
Continuous
 62
   120
370
     5
100
AcDbLine
 10
-3608.15050320037
 20
2450.000148463894
 30
0.0
 11
-3380.15050320037
 21
2450.000148463894
 31
0.0
  0
LINE
  5
2A9
330
1F
100
AcDbEntity
  8
0-3_仕上げ
  6
Continuous
 62
   120
370
     5
100
AcDbLine
 10
-3608.15050320037
 20
2434.000148463894
 30
0.0
 11
-3380.15050320037
 21
2434.000148463894
 31
0.0
  0
LINE
  5
2AA
330
1F
100
AcDbEntity
  8
0-3_仕上げ
  6
Continuous
 62
   120
370
     5
100
AcDbLine
 10
-3608.15050320037
 20
2424.000148463894
 30
0.0
 11
-3380.15050320037
 21
2424.000148463894
 31
0.0
  0
LINE
  5
2AB
330
1F
100
AcDbEntity
  8
0-3_仕上げ
  6
Continuous
 62
   120
370
     5
100
AcDbLine
 10
-3608.15050320037
 20
2408.000148463894
 30
0.0
 11
-3380.15050320037
 21
2408.000148463894
 31
0.0
  0
LINE
  5
2AC
330
1F
100
AcDbEntity
  8
0-3_仕上げ
  6
Continuous
 62
   120
370
     5
100
AcDbLine
 10
-3608.15050320037
 20
2398.000148463893
 30
0.0
 11
-3380.15050320037
 21
2398.000148463893
 31
0.0
  0
LINE
  5
2AD
330
1F
100
AcDbEntity
  8
0-3_仕上げ
  6
Continuous
 62
   120
370
     5
100
AcDbLine
 10
-3608.15050320037
 20
2382.000148463893
 30
0.0
 11
-3380.15050320037
 21
2382.000148463893
 31
0.0
  0
LINE
  5
2AE
330
1F
100
AcDbEntity
  8
0-3_仕上げ
  6
Continuous
 62
   120
370
     5
100
AcDbLine
 10
-3608.15050320037
 20
2372.000148463893
 30
0.0
 11
-3380.15050320037
 21
2372.000148463893
 31
0.0
  0
LINE
  5
2AF
330
1F
100
AcDbEntity
  8
0-3_仕上げ
  6
Continuous
 62
   120
370
     5
100
AcDbLine
 10
-3608.15050320037
 20
2356.000148463893
 30
0.0
 11
-3380.15050320037
 21
2356.000148463893
 31
0.0
  0
LINE
  5
2B0
330
1F
100
AcDbEntity
  8
0-3_仕上げ
  6
Continuous
 62
   120
370
     5
100
AcDbLine
 10
-3608.15050320037
 20
2346.000148463894
 30
0.0
 11
-3380.15050320037
 21
2346.000148463894
 31
0.0
  0
LINE
  5
2B1
330
1F
100
AcDbEntity
  8
0-3_仕上げ
  6
Continuous
 62
   120
370
     5
100
AcDbLine
 10
-3608.15050320037
 20
2330.000148463893
 30
0.0
 11
-3380.15050320037
 21
2330.000148463893
 31
0.0
  0
LINE
  5
2B2
330
1F
100
AcDbEntity
  8
0-3_仕上げ
  6
Continuous
 62
   120
370
     5
100
AcDbLine
 10
-3608.15050320037
 20
2320.000148463894
 30
0.0
 11
-3380.15050320037
 21
2320.000148463894
 31
0.0
  0
LINE
  5
2B3
330
1F
100
AcDbEntity
  8
0-3_仕上げ
  6
Continuous
 62
   120
370
     5
100
AcDbLine
 10
-3608.15050320037
 20
2304.000148463894
 30
0.0
 11
-3380.15050320037
 21
2304.000148463894
 31
0.0
  0
LINE
  5
2B4
330
1F
100
AcDbEntity
  8
0-3_仕上げ
  6
Continuous
 62
   120
370
     5
100
AcDbLine
 10
-3608.15050320037
 20
2294.000148463893
 30
0.0
 11
-3380.15050320037
 21
2294.000148463893
 31
0.0
  0
LINE
  5
2B5
330
1F
100
AcDbEntity
  8
0-3_仕上げ
  6
Continuous
 62
   120
370
     5
100
AcDbLine
 10
-3608.15050320037
 20
2278.000148463893
 30
0.0
 11
-3380.15050320037
 21
2278.000148463893
 31
0.0
  0
LINE
  5
2B6
330
1F
100
AcDbEntity
  8
0-3_仕上げ
  6
Continuous
 62
   120
370
     5
100
AcDbLine
 10
-3608.15050320037
 20
2268.000148463893
 30
0.0
 11
-3380.15050320037
 21
2268.000148463893
 31
0.0
  0
LINE
  5
2B7
330
1F
100
AcDbEntity
  8
0-3_仕上げ
  6
Continuous
 62
   120
370
     5
100
AcDbLine
 10
-3608.15050320037
 20
2252.000148463893
 30
0.0
 11
-3380.15050320037
 21
2252.000148463893
 31
0.0
  0
LINE
  5
2B8
330
1F
100
AcDbEntity
  8
0-3_仕上げ
  6
Continuous
 62
   120
370
     5
100
AcDbLine
 10
-3608.15050320037
 20
2242.000148463893
 30
0.0
 11
-3380.15050320037
 21
2242.000148463893
 31
0.0
  0
LINE
  5
2B9
330
1F
100
AcDbEntity
  8
0-3_仕上げ
  6
Continuous
 62
   120
370
     5
100
AcDbLine
 10
-3608.15050320037
 20
2226.000148463893
 30
0.0
 11
-3380.15050320037
 21
2226.000148463893
 31
0.0
  0
LINE
  5
2BA
330
1F
100
AcDbEntity
  8
0-3_仕上げ
  6
Continuous
 62
   120
370
     5
100
AcDbLine
 10
-3608.15050320037
 20
2216.000148463893
 30
0.0
 11
-3380.15050320037
 21
2216.000148463893
 31
0.0
  0
LINE
  5
2BB
330
1F
100
AcDbEntity
  8
0-3_仕上げ
  6
Continuous
 62
   120
370
     5
100
AcDbLine
 10
-3608.15050320037
 20
2200.000148463893
 30
0.0
 11
-3380.15050320037
 21
2200.000148463893
 31
0.0
  0
LINE
  5
2BC
330
1F
100
AcDbEntity
  8
0-3_仕上げ
  6
Continuous
 62
   120
370
     5
100
AcDbLine
 10
-3608.15050320037
 20
2190.000148463893
 30
0.0
 11
-3380.15050320037
 21
2190.000148463893
 31
0.0
  0
LINE
  5
2BD
330
1F
100
AcDbEntity
  8
0-3_仕上げ
  6
Continuous
 62
   120
370
     5
100
AcDbLine
 10
-3608.15050320037
 20
2174.000148463893
 30
0.0
 11
-3380.15050320037
 21
2174.000148463893
 31
0.0
  0
LINE
  5
2BE
330
1F
100
AcDbEntity
  8
0-3_仕上げ
  6
Continuous
 62
   120
370
     5
100
AcDbLine
 10
-3608.15050320037
 20
2164.000148463893
 30
0.0
 11
-3380.15050320037
 21
2164.000148463893
 31
0.0
  0
LINE
  5
2BF
330
1F
100
AcDbEntity
  8
0-3_仕上げ
  6
Continuous
 62
   120
370
     5
100
AcDbLine
 10
-3608.15050320037
 20
2148.000148463893
 30
0.0
 11
-3380.15050320037
 21
2148.000148463893
 31
0.0
  0
LINE
  5
2C0
330
1F
100
AcDbEntity
  8
0-3_仕上げ
  6
Continuous
 62
   120
370
     5
100
AcDbLine
 10
-3608.15050320037
 20
2138.000148463893
 30
0.0
 11
-3380.15050320037
 21
2138.000148463893
 31
0.0
  0
LINE
  5
2C1
330
1F
100
AcDbEntity
  8
0-3_仕上げ
  6
Continuous
 62
   120
370
     5
100
AcDbLine
 10
-3608.15050320037
 20
2122.000148463893
 30
0.0
 11
-3380.15050320037
 21
2122.000148463893
 31
0.0
  0
LINE
  5
2C2
330
1F
100
AcDbEntity
  8
0-3_仕上げ
  6
Continuous
 62
   120
370
     5
100
AcDbLine
 10
-3608.15050320037
 20
2112.000148463893
 30
0.0
 11
-3380.15050320037
 21
2112.000148463893
 31
0.0
  0
LINE
  5
2C3
330
1F
100
AcDbEntity
  8
0-3_仕上げ
  6
Continuous
 62
   120
370
     5
100
AcDbLine
 10
-3608.15050320037
 20
2096.000148463893
 30
0.0
 11
-3380.15050320037
 21
2096.000148463893
 31
0.0
  0
LINE
  5
2C4
330
1F
100
AcDbEntity
  8
0-3_仕上げ
  6
Continuous
 62
   120
370
     5
100
AcDbLine
 10
-3608.15050320037
 20
2086.000148463893
 30
0.0
 11
-3380.15050320037
 21
2086.000148463893
 31
0.0
  0
LINE
  5
2C5
330
1F
100
AcDbEntity
  8
0-3_仕上げ
  6
Continuous
 62
   120
370
     5
100
AcDbLine
 10
-3608.15050320037
 20
2070.000148463892
 30
0.0
 11
-3380.15050320037
 21
2070.000148463892
 31
0.0
  0
LINE
  5
2C6
330
1F
100
AcDbEntity
  8
0-3_仕上げ
  6
Continuous
 62
   120
370
     5
100
AcDbLine
 10
-3608.15050320037
 20
2060.000148463893
 30
0.0
 11
-3380.15050320037
 21
2060.000148463893
 31
0.0
  0
LINE
  5
2C7
330
1F
100
AcDbEntity
  8
0-3_仕上げ
  6
Continuous
 62
   120
370
     5
100
AcDbLine
 10
-3608.15050320037
 20
2044.000148463893
 30
0.0
 11
-3380.15050320037
 21
2044.000148463893
 31
0.0
  0
LINE
  5
2C8
330
1F
100
AcDbEntity
  8
0-3_仕上げ
  6
Continuous
 62
   120
370
     5
100
AcDbLine
 10
-3608.15050320037
 20
2034.000148463893
 30
0.0
 11
-3380.15050320037
 21
2034.000148463893
 31
0.0
  0
LINE
  5
2C9
330
1F
100
AcDbEntity
  8
0-3_仕上げ
  6
Continuous
 62
   120
370
     5
100
AcDbLine
 10
-3608.15050320037
 20
2018.000148463893
 30
0.0
 11
-3380.15050320037
 21
2018.000148463893
 31
0.0
  0
LINE
  5
2CA
330
1F
100
AcDbEntity
  8
0-3_仕上げ
  6
Continuous
 62
   120
370
     5
100
AcDbLine
 10
-3608.15050320037
 20
2008.000148463893
 30
0.0
 11
-3380.15050320037
 21
2008.000148463893
 31
0.0
  0
LINE
  5
2CB
330
1F
100
AcDbEntity
  8
0-3_仕上げ
  6
Continuous
 62
   120
370
     5
100
AcDbLine
 10
-3608.15050320037
 20
1992.000148463893
 30
0.0
 11
-3380.15050320037
 21
1992.000148463893
 31
0.0
  0
LINE
  5
2CC
330
1F
100
AcDbEntity
  8
0-3_仕上げ
  6
Continuous
 62
   120
370
     5
100
AcDbLine
 10
-3608.15050320037
 20
1982.000148463892
 30
0.0
 11
-3380.15050320037
 21
1982.000148463892
 31
0.0
  0
LINE
  5
2CD
330
1F
100
AcDbEntity
  8
0-3_仕上げ
  6
Continuous
 62
   120
370
     5
100
AcDbLine
 10
-3608.15050320037
 20
1966.000148463891
 30
0.0
 11
-3380.15050320037
 21
1966.000148463891
 31
0.0
  0
LINE
  5
2CE
330
1F
100
AcDbEntity
  8
0-3_仕上げ
  6
Continuous
 62
   120
370
     5
100
AcDbLine
 10
-3608.15050320037
 20
1956.000148463892
 30
0.0
 11
-3380.15050320037
 21
1956.000148463892
 31
0.0
  0
LINE
  5
2CF
330
1F
100
AcDbEntity
  8
0-3_仕上げ
  6
Continuous
 62
   120
370
     5
100
AcDbLine
 10
-3608.15050320037
 20
1940.000148463892
 30
0.0
 11
-3380.15050320037
 21
1940.000148463892
 31
0.0
  0
LINE
  5
2D0
330
1F
100
AcDbEntity
  8
0-3_仕上げ
  6
Continuous
 62
   120
370
     5
100
AcDbLine
 10
-3608.15050320037
 20
1930.000148463892
 30
0.0
 11
-3380.15050320037
 21
1930.000148463892
 31
0.0
  0
LINE
  5
2D1
330
1F
100
AcDbEntity
  8
0-3_仕上げ
  6
Continuous
 62
   120
370
     5
100
AcDbLine
 10
-3608.15050320037
 20
1914.000148463893
 30
0.0
 11
-3380.15050320037
 21
1914.000148463893
 31
0.0
  0
LINE
  5
2D2
330
1F
100
AcDbEntity
  8
0-3_仕上げ
  6
Continuous
 62
   120
370
     5
100
AcDbLine
 10
-3608.15050320037
 20
1904.000148463892
 30
0.0
 11
-3380.15050320037
 21
1904.000148463892
 31
0.0
  0
LINE
  5
2D3
330
1F
100
AcDbEntity
  8
0-3_仕上げ
  6
Continuous
 62
   120
370
     5
100
AcDbLine
 10
-3608.15050320037
 20
1888.000148463893
 30
0.0
 11
-3380.15050320037
 21
1888.000148463893
 31
0.0
  0
LINE
  5
2D4
330
1F
100
AcDbEntity
  8
0-3_仕上げ
  6
Continuous
 62
   120
370
     5
100
AcDbLine
 10
-3608.15050320037
 20
1878.000148463892
 30
0.0
 11
-3380.15050320037
 21
1878.000148463892
 31
0.0
  0
LINE
  5
2D5
330
1F
100
AcDbEntity
  8
0-3_仕上げ
  6
Continuous
 62
   120
370
     5
100
AcDbLine
 10
-3608.15050320037
 20
1862.000148463892
 30
0.0
 11
-3380.15050320037
 21
1862.000148463892
 31
0.0
  0
LINE
  5
2D6
330
1F
100
AcDbEntity
  8
0-3_仕上げ
  6
Continuous
 62
   120
370
     5
100
AcDbLine
 10
-3608.15050320037
 20
1852.000148463892
 30
0.0
 11
-3380.15050320037
 21
1852.000148463892
 31
0.0
  0
LINE
  5
2D7
330
1F
100
AcDbEntity
  8
0-3_仕上げ
  6
Continuous
 62
   120
370
     5
100
AcDbLine
 10
-3608.15050320037
 20
1836.000148463892
 30
0.0
 11
-3380.15050320037
 21
1836.000148463892
 31
0.0
  0
LINE
  5
2D8
330
1F
100
AcDbEntity
  8
0-3_仕上げ
  6
Continuous
 62
   120
370
     5
100
AcDbLine
 10
-3608.15050320037
 20
1826.000148463892
 30
0.0
 11
-3380.15050320037
 21
1826.000148463892
 31
0.0
  0
LINE
  5
2D9
330
1F
100
AcDbEntity
  8
0-3_仕上げ
  6
Continuous
 62
   120
370
     5
100
AcDbLine
 10
-3608.15050320037
 20
1810.000148463892
 30
0.0
 11
-3380.15050320037
 21
1810.000148463892
 31
0.0
  0
LINE
  5
2DA
330
1F
100
AcDbEntity
  8
0-3_仕上げ
  6
Continuous
 62
   120
370
     5
100
AcDbLine
 10
-3608.15050320037
 20
1800.000148463892
 30
0.0
 11
-3380.15050320037
 21
1800.000148463892
 31
0.0
  0
LINE
  5
2DB
330
1F
100
AcDbEntity
  8
0-3_仕上げ
  6
Continuous
 62
   120
370
     5
100
AcDbLine
 10
-3608.15050320037
 20
1784.000148463892
 30
0.0
 11
-3380.15050320037
 21
1784.000148463892
 31
0.0
  0
LINE
  5
2DC
330
1F
100
AcDbEntity
  8
0-3_仕上げ
  6
Continuous
 62
   120
370
     5
100
AcDbLine
 10
-3608.15050320037
 20
1774.000148463891
 30
0.0
 11
-3380.15050320037
 21
1774.000148463891
 31
0.0
  0
LINE
  5
2DD
330
1F
100
AcDbEntity
  8
0-3_仕上げ
  6
Continuous
 62
   120
370
     5
100
AcDbLine
 10
-3608.15050320037
 20
1758.000148463891
 30
0.0
 11
-3380.15050320037
 21
1758.000148463891
 31
0.0
  0
LINE
  5
2DE
330
1F
100
AcDbEntity
  8
0-3_仕上げ
  6
Continuous
 62
   120
370
     5
100
AcDbLine
 10
-3608.15050320037
 20
1748.000148463892
 30
0.0
 11
-3380.15050320037
 21
1748.000148463892
 31
0.0
  0
LINE
  5
2DF
330
1F
100
AcDbEntity
  8
0-3_仕上げ
  6
Continuous
 62
   120
370
     5
100
AcDbLine
 10
-3608.15050320037
 20
1732.000148463891
 30
0.0
 11
-3380.15050320037
 21
1732.000148463891
 31
0.0
  0
LINE
  5
2E0
330
1F
100
AcDbEntity
  8
0-3_仕上げ
  6
Continuous
 62
   120
370
     5
100
AcDbLine
 10
-3608.15050320037
 20
1722.000148463891
 30
0.0
 11
-3380.15050320037
 21
1722.000148463891
 31
0.0
  0
LINE
  5
2E1
330
1F
100
AcDbEntity
  8
0-3_仕上げ
  6
Continuous
 62
   120
370
     5
100
AcDbLine
 10
-3608.15050320037
 20
1706.000148463892
 30
0.0
 11
-3380.15050320037
 21
1706.000148463892
 31
0.0
  0
LINE
  5
2E2
330
1F
100
AcDbEntity
  8
0-3_仕上げ
  6
Continuous
 62
   120
370
     5
100
AcDbLine
 10
-3608.15050320037
 20
1592.000148463891
 30
0.0
 11
-3380.15050320037
 21
1592.000148463891
 31
0.0
  0
LINE
  5
2E3
330
1F
100
AcDbEntity
  8
0-3_仕上げ
  6
Continuous
 62
   120
370
     5
100
AcDbLine
 10
-3608.15050320037
 20
1602.000148463891
 30
0.0
 11
-3380.15050320037
 21
1602.000148463891
 31
0.0
  0
LINE
  5
2E4
330
1F
100
AcDbEntity
  8
0-3_仕上げ
  6
Continuous
 62
   120
370
     5
100
AcDbLine
 10
-3608.15050320037
 20
1618.000148463891
 30
0.0
 11
-3380.15050320037
 21
1618.000148463891
 31
0.0
  0
LINE
  5
2E5
330
1F
100
AcDbEntity
  8
0-3_仕上げ
  6
Continuous
 62
   120
370
     5
100
AcDbLine
 10
-3608.15050320037
 20
1628.000148463891
 30
0.0
 11
-3380.15050320037
 21
1628.000148463891
 31
0.0
  0
LINE
  5
2E6
330
1F
100
AcDbEntity
  8
0-3_仕上げ
  6
Continuous
 62
   120
370
     5
100
AcDbLine
 10
-3608.15050320037
 20
1644.000148463891
 30
0.0
 11
-3380.15050320037
 21
1644.000148463891
 31
0.0
  0
LINE
  5
2E7
330
1F
100
AcDbEntity
  8
0-3_仕上げ
  6
Continuous
 62
   120
370
     5
100
AcDbLine
 10
-3608.15050320037
 20
1696.000148463891
 30
0.0
 11
-3380.15050320037
 21
1696.000148463891
 31
0.0
  0
LINE
  5
2E8
330
1F
100
AcDbEntity
  8
0-3_仕上げ
  6
Continuous
 62
   120
370
     5
100
AcDbLine
 10
-3608.15050320037
 20
1680.000148463892
 30
0.0
 11
-3380.15050320037
 21
1680.000148463892
 31
0.0
  0
LINE
  5
2E9
330
1F
100
AcDbEntity
  8
0-3_仕上げ
  6
Continuous
 62
   120
370
     5
100
AcDbLine
 10
-3608.15050320037
 20
1670.000148463891
 30
0.0
 11
-3380.15050320037
 21
1670.000148463891
 31
0.0
  0
LINE
  5
2EA
330
1F
100
AcDbEntity
  8
0-3_仕上げ
  6
Continuous
 62
   120
370
     5
100
AcDbLine
 10
-3608.15050320037
 20
1654.000148463891
 30
0.0
 11
-3380.15050320037
 21
1654.000148463891
 31
0.0
  0
LINE
  5
2EB
330
1F
100
AcDbEntity
  8
0-3_仕上げ
  6
Continuous
 62
   120
370
     5
100
AcDbLine
 10
-3603.15050320037
 20
1602.000148463891
 30
0.0
 11
-3603.15050320037
 21
1595.581095965814
 31
0.0
  0
LINE
  5
2EC
330
1F
100
AcDbEntity
  8
0-3_仕上げ
  6
Continuous
 62
   120
370
     5
100
AcDbLine
 10
-3608.15050320037
 20
1595.581095965814
 30
0.0
 11
-3603.15050320037
 21
1595.581095965814
 31
0.0
  0
LINE
  5
2ED
330
1F
100
AcDbEntity
  8
0-3_仕上げ
  6
Continuous
 62
   120
370
     5
100
AcDbLine
 10
-3603.15050320037
 20
1628.000148463891
 30
0.0
 11
-3603.15050320037
 21
1621.581095965813
 31
0.0
  0
LINE
  5
2EE
330
1F
100
AcDbEntity
  8
0-3_仕上げ
  6
Continuous
 62
   120
370
     5
100
AcDbLine
 10
-3608.15050320037
 20
1621.581095965813
 30
0.0
 11
-3603.15050320037
 21
1621.581095965813
 31
0.0
  0
LINE
  5
2EF
330
1F
100
AcDbEntity
  8
0-3_仕上げ
  6
Continuous
 62
   120
370
     5
100
AcDbLine
 10
-3603.15050320037
 20
1654.000148463891
 30
0.0
 11
-3603.15050320037
 21
1647.581095965814
 31
0.0
  0
LINE
  5
2F0
330
1F
100
AcDbEntity
  8
0-3_仕上げ
  6
Continuous
 62
   120
370
     5
100
AcDbLine
 10
-3608.15050320037
 20
1647.581095965814
 30
0.0
 11
-3603.15050320037
 21
1647.581095965814
 31
0.0
  0
LINE
  5
2F1
330
1F
100
AcDbEntity
  8
0-3_仕上げ
  6
Continuous
 62
   120
370
     5
100
AcDbLine
 10
-3603.15050320037
 20
1680.000148463892
 30
0.0
 11
-3603.15050320037
 21
1673.581095965814
 31
0.0
  0
LINE
  5
2F2
330
1F
100
AcDbEntity
  8
0-3_仕上げ
  6
Continuous
 62
   120
370
     5
100
AcDbLine
 10
-3608.15050320037
 20
1673.581095965814
 30
0.0
 11
-3603.15050320037
 21
1673.581095965814
 31
0.0
  0
LINE
  5
2F3
330
1F
100
AcDbEntity
  8
0-3_仕上げ
  6
Continuous
 62
   120
370
     5
100
AcDbLine
 10
-3603.15050320037
 20
1706.000148463892
 30
0.0
 11
-3603.15050320037
 21
1699.581095965814
 31
0.0
  0
LINE
  5
2F4
330
1F
100
AcDbEntity
  8
0-3_仕上げ
  6
Continuous
 62
   120
370
     5
100
AcDbLine
 10
-3608.15050320037
 20
1699.581095965814
 30
0.0
 11
-3603.15050320037
 21
1699.581095965814
 31
0.0
  0
LINE
  5
2F5
330
1F
100
AcDbEntity
  8
0-3_仕上げ
  6
Continuous
 62
   120
370
     5
100
AcDbLine
 10
-3603.15050320037
 20
1732.000148463891
 30
0.0
 11
-3603.15050320037
 21
1725.581095965814
 31
0.0
  0
LINE
  5
2F6
330
1F
100
AcDbEntity
  8
0-3_仕上げ
  6
Continuous
 62
   120
370
     5
100
AcDbLine
 10
-3608.15050320037
 20
1725.581095965814
 30
0.0
 11
-3603.15050320037
 21
1725.581095965814
 31
0.0
  0
LINE
  5
2F7
330
1F
100
AcDbEntity
  8
0-3_仕上げ
  6
Continuous
 62
   120
370
     5
100
AcDbLine
 10
-3603.15050320037
 20
1758.000148463891
 30
0.0
 11
-3603.15050320037
 21
1751.581095965814
 31
0.0
  0
LINE
  5
2F8
330
1F
100
AcDbEntity
  8
0-3_仕上げ
  6
Continuous
 62
   120
370
     5
100
AcDbLine
 10
-3608.15050320037
 20
1751.581095965814
 30
0.0
 11
-3603.15050320037
 21
1751.581095965814
 31
0.0
  0
LINE
  5
2F9
330
1F
100
AcDbEntity
  8
0-3_仕上げ
  6
Continuous
 62
   120
370
     5
100
AcDbLine
 10
-3603.15050320037
 20
1784.000148463892
 30
0.0
 11
-3603.15050320037
 21
1777.581095965814
 31
0.0
  0
LINE
  5
2FA
330
1F
100
AcDbEntity
  8
0-3_仕上げ
  6
Continuous
 62
   120
370
     5
100
AcDbLine
 10
-3608.15050320037
 20
1777.581095965814
 30
0.0
 11
-3603.15050320037
 21
1777.581095965814
 31
0.0
  0
LINE
  5
2FB
330
1F
100
AcDbEntity
  8
0-3_仕上げ
  6
Continuous
 62
   120
370
     5
100
AcDbLine
 10
-3603.15050320037
 20
1810.000148463892
 30
0.0
 11
-3603.15050320037
 21
1803.581095965814
 31
0.0
  0
LINE
  5
2FC
330
1F
100
AcDbEntity
  8
0-3_仕上げ
  6
Continuous
 62
   120
370
     5
100
AcDbLine
 10
-3608.15050320037
 20
1803.581095965814
 30
0.0
 11
-3603.15050320037
 21
1803.581095965814
 31
0.0
  0
LINE
  5
2FD
330
1F
100
AcDbEntity
  8
0-3_仕上げ
  6
Continuous
 62
   120
370
     5
100
AcDbLine
 10
-3603.15050320037
 20
1836.000148463892
 30
0.0
 11
-3603.15050320037
 21
1829.581095965814
 31
0.0
  0
LINE
  5
2FE
330
1F
100
AcDbEntity
  8
0-3_仕上げ
  6
Continuous
 62
   120
370
     5
100
AcDbLine
 10
-3608.15050320037
 20
1829.581095965814
 30
0.0
 11
-3603.15050320037
 21
1829.581095965814
 31
0.0
  0
LINE
  5
2FF
330
1F
100
AcDbEntity
  8
0-3_仕上げ
  6
Continuous
 62
   120
370
     5
100
AcDbLine
 10
-3603.15050320037
 20
1862.000148463892
 30
0.0
 11
-3603.15050320037
 21
1855.581095965814
 31
0.0
  0
LINE
  5
300
330
1F
100
AcDbEntity
  8
0-3_仕上げ
  6
Continuous
 62
   120
370
     5
100
AcDbLine
 10
-3608.15050320037
 20
1855.581095965814
 30
0.0
 11
-3603.15050320037
 21
1855.581095965814
 31
0.0
  0
LINE
  5
301
330
1F
100
AcDbEntity
  8
0-3_仕上げ
  6
Continuous
 62
   120
370
     5
100
AcDbLine
 10
-3603.15050320037
 20
1888.000148463893
 30
0.0
 11
-3603.15050320037
 21
1881.581095965815
 31
0.0
  0
LINE
  5
302
330
1F
100
AcDbEntity
  8
0-3_仕上げ
  6
Continuous
 62
   120
370
     5
100
AcDbLine
 10
-3608.15050320037
 20
1881.581095965815
 30
0.0
 11
-3603.15050320037
 21
1881.581095965815
 31
0.0
  0
LINE
  5
303
330
1F
100
AcDbEntity
  8
0-3_仕上げ
  6
Continuous
 62
   120
370
     5
100
AcDbLine
 10
-3603.15050320037
 20
1914.000148463893
 30
0.0
 11
-3603.15050320037
 21
1907.581095965815
 31
0.0
  0
LINE
  5
304
330
1F
100
AcDbEntity
  8
0-3_仕上げ
  6
Continuous
 62
   120
370
     5
100
AcDbLine
 10
-3608.15050320037
 20
1907.581095965815
 30
0.0
 11
-3603.15050320037
 21
1907.581095965815
 31
0.0
  0
LINE
  5
305
330
1F
100
AcDbEntity
  8
0-3_仕上げ
  6
Continuous
 62
   120
370
     5
100
AcDbLine
 10
-3603.15050320037
 20
1940.000148463892
 30
0.0
 11
-3603.15050320037
 21
1933.581095965815
 31
0.0
  0
LINE
  5
306
330
1F
100
AcDbEntity
  8
0-3_仕上げ
  6
Continuous
 62
   120
370
     5
100
AcDbLine
 10
-3608.15050320037
 20
1933.581095965815
 30
0.0
 11
-3603.15050320037
 21
1933.581095965815
 31
0.0
  0
LINE
  5
307
330
1F
100
AcDbEntity
  8
0-3_仕上げ
  6
Continuous
 62
   120
370
     5
100
AcDbLine
 10
-3603.15050320037
 20
1966.000148463891
 30
0.0
 11
-3603.15050320037
 21
1959.581095965815
 31
0.0
  0
LINE
  5
308
330
1F
100
AcDbEntity
  8
0-3_仕上げ
  6
Continuous
 62
   120
370
     5
100
AcDbLine
 10
-3608.15050320037
 20
1959.581095965815
 30
0.0
 11
-3603.15050320037
 21
1959.581095965815
 31
0.0
  0
LINE
  5
309
330
1F
100
AcDbEntity
  8
0-3_仕上げ
  6
Continuous
 62
   120
370
     5
100
AcDbLine
 10
-3603.15050320037
 20
1992.000148463893
 30
0.0
 11
-3603.15050320037
 21
1985.581095965815
 31
0.0
  0
LINE
  5
30A
330
1F
100
AcDbEntity
  8
0-3_仕上げ
  6
Continuous
 62
   120
370
     5
100
AcDbLine
 10
-3608.15050320037
 20
1985.581095965815
 30
0.0
 11
-3603.15050320037
 21
1985.581095965815
 31
0.0
  0
LINE
  5
30B
330
1F
100
AcDbEntity
  8
0-3_仕上げ
  6
Continuous
 62
   120
370
     5
100
AcDbLine
 10
-3603.15050320037
 20
2018.000148463893
 30
0.0
 11
-3603.15050320037
 21
2011.581095965815
 31
0.0
  0
LINE
  5
30C
330
1F
100
AcDbEntity
  8
0-3_仕上げ
  6
Continuous
 62
   120
370
     5
100
AcDbLine
 10
-3608.15050320037
 20
2011.581095965815
 30
0.0
 11
-3603.15050320037
 21
2011.581095965815
 31
0.0
  0
LINE
  5
30D
330
1F
100
AcDbEntity
  8
0-3_仕上げ
  6
Continuous
 62
   120
370
     5
100
AcDbLine
 10
-3603.15050320037
 20
2044.000148463893
 30
0.0
 11
-3603.15050320037
 21
2037.581095965815
 31
0.0
  0
LINE
  5
30E
330
1F
100
AcDbEntity
  8
0-3_仕上げ
  6
Continuous
 62
   120
370
     5
100
AcDbLine
 10
-3608.15050320037
 20
2037.581095965815
 30
0.0
 11
-3603.15050320037
 21
2037.581095965815
 31
0.0
  0
LINE
  5
30F
330
1F
100
AcDbEntity
  8
0-3_仕上げ
  6
Continuous
 62
   120
370
     5
100
AcDbLine
 10
-3603.15050320037
 20
2070.000148463892
 30
0.0
 11
-3603.15050320037
 21
2063.581095965816
 31
0.0
  0
LINE
  5
310
330
1F
100
AcDbEntity
  8
0-3_仕上げ
  6
Continuous
 62
   120
370
     5
100
AcDbLine
 10
-3608.15050320037
 20
2063.581095965816
 30
0.0
 11
-3603.15050320037
 21
2063.581095965816
 31
0.0
  0
LINE
  5
311
330
1F
100
AcDbEntity
  8
0-3_仕上げ
  6
Continuous
 62
   120
370
     5
100
AcDbLine
 10
-3603.15050320037
 20
2096.000148463893
 30
0.0
 11
-3603.15050320037
 21
2089.581095965816
 31
0.0
  0
LINE
  5
312
330
1F
100
AcDbEntity
  8
0-3_仕上げ
  6
Continuous
 62
   120
370
     5
100
AcDbLine
 10
-3608.15050320037
 20
2089.581095965816
 30
0.0
 11
-3603.15050320037
 21
2089.581095965816
 31
0.0
  0
LINE
  5
313
330
1F
100
AcDbEntity
  8
0-3_仕上げ
  6
Continuous
 62
   120
370
     5
100
AcDbLine
 10
-3603.15050320037
 20
2122.000148463893
 30
0.0
 11
-3603.15050320037
 21
2115.581095965815
 31
0.0
  0
LINE
  5
314
330
1F
100
AcDbEntity
  8
0-3_仕上げ
  6
Continuous
 62
   120
370
     5
100
AcDbLine
 10
-3608.15050320037
 20
2115.581095965815
 30
0.0
 11
-3603.15050320037
 21
2115.581095965815
 31
0.0
  0
LINE
  5
315
330
1F
100
AcDbEntity
  8
0-3_仕上げ
  6
Continuous
 62
   120
370
     5
100
AcDbLine
 10
-3603.15050320037
 20
2148.000148463893
 30
0.0
 11
-3603.15050320037
 21
2141.581095965815
 31
0.0
  0
LINE
  5
316
330
1F
100
AcDbEntity
  8
0-3_仕上げ
  6
Continuous
 62
   120
370
     5
100
AcDbLine
 10
-3608.15050320037
 20
2141.581095965815
 30
0.0
 11
-3603.15050320037
 21
2141.581095965815
 31
0.0
  0
LINE
  5
317
330
1F
100
AcDbEntity
  8
0-3_仕上げ
  6
Continuous
 62
   120
370
     5
100
AcDbLine
 10
-3603.15050320037
 20
2174.000148463893
 30
0.0
 11
-3603.15050320037
 21
2167.581095965816
 31
0.0
  0
LINE
  5
318
330
1F
100
AcDbEntity
  8
0-3_仕上げ
  6
Continuous
 62
   120
370
     5
100
AcDbLine
 10
-3608.15050320037
 20
2167.581095965816
 30
0.0
 11
-3603.15050320037
 21
2167.581095965816
 31
0.0
  0
LINE
  5
319
330
1F
100
AcDbEntity
  8
0-3_仕上げ
  6
Continuous
 62
   120
370
     5
100
AcDbLine
 10
-3603.15050320037
 20
2200.000148463893
 30
0.0
 11
-3603.15050320037
 21
2193.581095965816
 31
0.0
  0
LINE
  5
31A
330
1F
100
AcDbEntity
  8
0-3_仕上げ
  6
Continuous
 62
   120
370
     5
100
AcDbLine
 10
-3608.15050320037
 20
2193.581095965816
 30
0.0
 11
-3603.15050320037
 21
2193.581095965816
 31
0.0
  0
LINE
  5
31B
330
1F
100
AcDbEntity
  8
0-3_仕上げ
  6
Continuous
 62
   120
370
     5
100
AcDbLine
 10
-3603.15050320037
 20
2226.000148463893
 30
0.0
 11
-3603.15050320037
 21
2219.581095965816
 31
0.0
  0
LINE
  5
31C
330
1F
100
AcDbEntity
  8
0-3_仕上げ
  6
Continuous
 62
   120
370
     5
100
AcDbLine
 10
-3608.15050320037
 20
2219.581095965816
 30
0.0
 11
-3603.15050320037
 21
2219.581095965816
 31
0.0
  0
LINE
  5
31D
330
1F
100
AcDbEntity
  8
0-3_仕上げ
  6
Continuous
 62
   120
370
     5
100
AcDbLine
 10
-3603.15050320037
 20
2252.000148463893
 30
0.0
 11
-3603.15050320037
 21
2245.581095965816
 31
0.0
  0
LINE
  5
31E
330
1F
100
AcDbEntity
  8
0-3_仕上げ
  6
Continuous
 62
   120
370
     5
100
AcDbLine
 10
-3608.15050320037
 20
2245.581095965816
 30
0.0
 11
-3603.15050320037
 21
2245.581095965816
 31
0.0
  0
LINE
  5
31F
330
1F
100
AcDbEntity
  8
0-3_仕上げ
  6
Continuous
 62
   120
370
     5
100
AcDbLine
 10
-3603.15050320037
 20
2278.000148463893
 30
0.0
 11
-3603.15050320037
 21
2271.581095965816
 31
0.0
  0
LINE
  5
320
330
1F
100
AcDbEntity
  8
0-3_仕上げ
  6
Continuous
 62
   120
370
     5
100
AcDbLine
 10
-3608.15050320037
 20
2271.581095965816
 30
0.0
 11
-3603.15050320037
 21
2271.581095965816
 31
0.0
  0
LINE
  5
321
330
1F
100
AcDbEntity
  8
0-3_仕上げ
  6
Continuous
 62
   120
370
     5
100
AcDbLine
 10
-3603.15050320037
 20
2304.000148463894
 30
0.0
 11
-3603.15050320037
 21
2297.581095965816
 31
0.0
  0
LINE
  5
322
330
1F
100
AcDbEntity
  8
0-3_仕上げ
  6
Continuous
 62
   120
370
     5
100
AcDbLine
 10
-3608.15050320037
 20
2297.581095965816
 30
0.0
 11
-3603.15050320037
 21
2297.581095965816
 31
0.0
  0
LINE
  5
323
330
1F
100
AcDbEntity
  8
0-3_仕上げ
  6
Continuous
 62
   120
370
     5
100
AcDbLine
 10
-3603.15050320037
 20
2330.000148463893
 30
0.0
 11
-3603.15050320037
 21
2323.581095965816
 31
0.0
  0
LINE
  5
324
330
1F
100
AcDbEntity
  8
0-3_仕上げ
  6
Continuous
 62
   120
370
     5
100
AcDbLine
 10
-3608.15050320037
 20
2323.581095965816
 30
0.0
 11
-3603.15050320037
 21
2323.581095965816
 31
0.0
  0
LINE
  5
325
330
1F
100
AcDbEntity
  8
0-3_仕上げ
  6
Continuous
 62
   120
370
     5
100
AcDbLine
 10
-3603.15050320037
 20
2356.000148463893
 30
0.0
 11
-3603.15050320037
 21
2349.581095965816
 31
0.0
  0
LINE
  5
326
330
1F
100
AcDbEntity
  8
0-3_仕上げ
  6
Continuous
 62
   120
370
     5
100
AcDbLine
 10
-3608.15050320037
 20
2349.581095965816
 30
0.0
 11
-3603.15050320037
 21
2349.581095965816
 31
0.0
  0
LINE
  5
327
330
1F
100
AcDbEntity
  8
0-3_仕上げ
  6
Continuous
 62
   120
370
     5
100
AcDbLine
 10
-3603.15050320037
 20
2382.000148463893
 30
0.0
 11
-3603.15050320037
 21
2375.581095965816
 31
0.0
  0
LINE
  5
328
330
1F
100
AcDbEntity
  8
0-3_仕上げ
  6
Continuous
 62
   120
370
     5
100
AcDbLine
 10
-3608.15050320037
 20
2375.581095965816
 30
0.0
 11
-3603.15050320037
 21
2375.581095965816
 31
0.0
  0
LINE
  5
329
330
1F
100
AcDbEntity
  8
0-3_仕上げ
  6
Continuous
 62
   120
370
     5
100
AcDbLine
 10
-3603.15050320037
 20
2408.000148463894
 30
0.0
 11
-3603.15050320037
 21
2401.581095965816
 31
0.0
  0
LINE
  5
32A
330
1F
100
AcDbEntity
  8
0-3_仕上げ
  6
Continuous
 62
   120
370
     5
100
AcDbLine
 10
-3608.15050320037
 20
2401.581095965816
 30
0.0
 11
-3603.15050320037
 21
2401.581095965816
 31
0.0
  0
LINE
  5
32B
330
1F
100
AcDbEntity
  8
0-3_仕上げ
  6
Continuous
 62
   120
370
     5
100
AcDbLine
 10
-3603.15050320037
 20
2434.000148463894
 30
0.0
 11
-3603.15050320037
 21
2427.581095965816
 31
0.0
  0
LINE
  5
32C
330
1F
100
AcDbEntity
  8
0-3_仕上げ
  6
Continuous
 62
   120
370
     5
100
AcDbLine
 10
-3608.15050320037
 20
2427.581095965816
 30
0.0
 11
-3603.15050320037
 21
2427.581095965816
 31
0.0
  0
LINE
  5
32D
330
1F
100
AcDbEntity
  8
0-3_仕上げ
  6
Continuous
 62
   120
370
     5
100
AcDbLine
 10
-3603.15050320037
 20
2460.000148463894
 30
0.0
 11
-3603.15050320037
 21
2453.581095965816
 31
0.0
  0
LINE
  5
32E
330
1F
100
AcDbEntity
  8
0-3_仕上げ
  6
Continuous
 62
   120
370
     5
100
AcDbLine
 10
-3608.15050320037
 20
2453.581095965816
 30
0.0
 11
-3603.15050320037
 21
2453.581095965816
 31
0.0
  0
LINE
  5
32F
330
1F
100
AcDbEntity
  8
0-3_仕上げ
  6
Continuous
 62
   120
370
     5
100
AcDbLine
 10
-3603.15050320037
 20
2486.000148463894
 30
0.0
 11
-3603.15050320037
 21
2479.581095965817
 31
0.0
  0
LINE
  5
330
330
1F
100
AcDbEntity
  8
0-3_仕上げ
  6
Continuous
 62
   120
370
     5
100
AcDbLine
 10
-3608.15050320037
 20
2479.581095965817
 30
0.0
 11
-3603.15050320037
 21
2479.581095965817
 31
0.0
  0
LINE
  5
331
330
1F
100
AcDbEntity
  8
0-3_仕上げ
  6
Continuous
 62
   120
370
     5
100
AcDbLine
 10
-3603.15050320037
 20
2512.000148463895
 30
0.0
 11
-3603.15050320037
 21
2505.581095965817
 31
0.0
  0
LINE
  5
332
330
1F
100
AcDbEntity
  8
0-3_仕上げ
  6
Continuous
 62
   120
370
     5
100
AcDbLine
 10
-3608.15050320037
 20
2505.581095965817
 30
0.0
 11
-3603.15050320037
 21
2505.581095965817
 31
0.0
  0
LINE
  5
333
330
1F
100
AcDbEntity
  8
0-3_仕上げ
  6
Continuous
 62
   120
370
     5
100
AcDbLine
 10
-3603.15050320037
 20
2538.000148463895
 30
0.0
 11
-3603.15050320037
 21
2531.581095965817
 31
0.0
  0
LINE
  5
334
330
1F
100
AcDbEntity
  8
0-3_仕上げ
  6
Continuous
 62
   120
370
     5
100
AcDbLine
 10
-3608.15050320037
 20
2531.581095965817
 30
0.0
 11
-3603.15050320037
 21
2531.581095965817
 31
0.0
  0
LINE
  5
335
330
1F
100
AcDbEntity
  8
0-3_仕上げ
  6
Continuous
 62
   120
370
     5
100
AcDbLine
 10
-3603.15050320037
 20
2564.000148463894
 30
0.0
 11
-3603.15050320037
 21
2557.581095965817
 31
0.0
  0
LINE
  5
336
330
1F
100
AcDbEntity
  8
0-3_仕上げ
  6
Continuous
 62
   120
370
     5
100
AcDbLine
 10
-3608.15050320037
 20
2557.581095965817
 30
0.0
 11
-3603.15050320037
 21
2557.581095965817
 31
0.0
  0
LINE
  5
337
330
1F
100
AcDbEntity
  8
0-3_仕上げ
  6
Continuous
 62
   120
370
     5
100
AcDbLine
 10
-3603.15050320037
 20
2590.000148463895
 30
0.0
 11
-3603.15050320037
 21
2583.581095965817
 31
0.0
  0
LINE
  5
338
330
1F
100
AcDbEntity
  8
0-3_仕上げ
  6
Continuous
 62
   120
370
     5
100
AcDbLine
 10
-3608.15050320037
 20
2583.581095965817
 30
0.0
 11
-3603.15050320037
 21
2583.581095965817
 31
0.0
  0
LINE
  5
339
330
1F
100
AcDbEntity
  8
0-3_仕上げ
  6
Continuous
 62
   120
370
     5
100
AcDbLine
 10
-3603.15050320037
 20
2616.000148463895
 30
0.0
 11
-3603.15050320037
 21
2609.581095965817
 31
0.0
  0
LINE
  5
33A
330
1F
100
AcDbEntity
  8
0-3_仕上げ
  6
Continuous
 62
   120
370
     5
100
AcDbLine
 10
-3608.15050320037
 20
2609.581095965817
 30
0.0
 11
-3603.15050320037
 21
2609.581095965817
 31
0.0
  0
LINE
  5
33B
330
1F
100
AcDbEntity
  8
0-3_仕上げ
  6
Continuous
 62
   120
370
     5
100
AcDbLine
 10
-3603.15050320037
 20
2642.000148463895
 30
0.0
 11
-3603.15050320037
 21
2635.581095965817
 31
0.0
  0
LINE
  5
33C
330
1F
100
AcDbEntity
  8
0-3_仕上げ
  6
Continuous
 62
   120
370
     5
100
AcDbLine
 10
-3608.15050320037
 20
2635.581095965817
 30
0.0
 11
-3603.15050320037
 21
2635.581095965817
 31
0.0
  0
LINE
  5
33D
330
1F
100
AcDbEntity
  8
0-3_仕上げ
  6
Continuous
 62
   120
370
     5
100
AcDbLine
 10
-3603.15050320037
 20
2668.000148463894
 30
0.0
 11
-3603.15050320037
 21
2661.581095965817
 31
0.0
  0
LINE
  5
33E
330
1F
100
AcDbEntity
  8
0-3_仕上げ
  6
Continuous
 62
   120
370
     5
100
AcDbLine
 10
-3608.15050320037
 20
2661.581095965817
 30
0.0
 11
-3603.15050320037
 21
2661.581095965817
 31
0.0
  0
LINE
  5
33F
330
1F
100
AcDbEntity
  8
0-3_仕上げ
  6
Continuous
 62
   120
370
     5
100
AcDbLine
 10
-3603.15050320037
 20
2694.000148463895
 30
0.0
 11
-3603.15050320037
 21
2687.581095965817
 31
0.0
  0
LINE
  5
340
330
1F
100
AcDbEntity
  8
0-3_仕上げ
  6
Continuous
 62
   120
370
     5
100
AcDbLine
 10
-3608.15050320037
 20
2687.581095965817
 30
0.0
 11
-3603.15050320037
 21
2687.581095965817
 31
0.0
  0
LINE
  5
341
330
1F
100
AcDbEntity
  8
0-3_仕上げ
  6
Continuous
 62
   120
370
     5
100
AcDbLine
 10
-3603.15050320037
 20
2720.000148463895
 30
0.0
 11
-3603.15050320037
 21
2713.581095965817
 31
0.0
  0
LINE
  5
342
330
1F
100
AcDbEntity
  8
0-3_仕上げ
  6
Continuous
 62
   120
370
     5
100
AcDbLine
 10
-3608.15050320037
 20
2713.581095965817
 30
0.0
 11
-3603.15050320037
 21
2713.581095965817
 31
0.0
  0
LINE
  5
343
330
1F
100
AcDbEntity
  8
0-3_仕上げ
  6
Continuous
 62
   120
370
     5
100
AcDbLine
 10
-3603.15050320037
 20
2746.000148463895
 30
0.0
 11
-3603.15050320037
 21
2739.581095965817
 31
0.0
  0
LINE
  5
344
330
1F
100
AcDbEntity
  8
0-3_仕上げ
  6
Continuous
 62
   120
370
     5
100
AcDbLine
 10
-3608.15050320037
 20
2739.581095965817
 30
0.0
 11
-3603.15050320037
 21
2739.581095965817
 31
0.0
  0
LINE
  5
345
330
1F
100
AcDbEntity
  8
0-3_仕上げ
  6
Continuous
 62
   120
370
     5
100
AcDbLine
 10
-3603.15050320037
 20
2772.000148463895
 30
0.0
 11
-3603.15050320037
 21
2765.581095965817
 31
0.0
  0
LINE
  5
346
330
1F
100
AcDbEntity
  8
0-3_仕上げ
  6
Continuous
 62
   120
370
     5
100
AcDbLine
 10
-3608.15050320037
 20
2765.581095965817
 30
0.0
 11
-3603.15050320037
 21
2765.581095965817
 31
0.0
  0
LINE
  5
347
330
1F
100
AcDbEntity
  8
0-3_仕上げ
  6
Continuous
 62
   120
370
     5
100
AcDbLine
 10
-3603.15050320037
 20
2798.000148463895
 30
0.0
 11
-3603.15050320037
 21
2791.581095965817
 31
0.0
  0
LINE
  5
348
330
1F
100
AcDbEntity
  8
0-3_仕上げ
  6
Continuous
 62
   120
370
     5
100
AcDbLine
 10
-3608.15050320037
 20
2791.581095965817
 30
0.0
 11
-3603.15050320037
 21
2791.581095965817
 31
0.0
  0
LINE
  5
349
330
1F
100
AcDbEntity
  8
0-3_仕上げ
  6
Continuous
 62
   120
370
     5
100
AcDbLine
 10
-3603.15050320037
 20
2824.000148463895
 30
0.0
 11
-3603.15050320037
 21
2817.581095965818
 31
0.0
  0
LINE
  5
34A
330
1F
100
AcDbEntity
  8
0-3_仕上げ
  6
Continuous
 62
   120
370
     5
100
AcDbLine
 10
-3608.15050320037
 20
2817.581095965818
 30
0.0
 11
-3603.15050320037
 21
2817.581095965818
 31
0.0
  0
LINE
  5
34B
330
1F
100
AcDbEntity
  8
0-3_仕上げ
  6
Continuous
 62
   120
370
     5
100
AcDbLine
 10
-3603.15050320037
 20
2850.000148463895
 30
0.0
 11
-3603.15050320037
 21
2843.581095965817
 31
0.0
  0
LINE
  5
34C
330
1F
100
AcDbEntity
  8
0-3_仕上げ
  6
Continuous
 62
   120
370
     5
100
AcDbLine
 10
-3608.15050320037
 20
2843.581095965817
 30
0.0
 11
-3603.15050320037
 21
2843.581095965817
 31
0.0
  0
LINE
  5
34D
330
1F
100
AcDbEntity
  8
0-3_仕上げ
  6
Continuous
 62
   120
370
     5
100
AcDbLine
 10
-3603.15050320037
 20
2876.000148463895
 30
0.0
 11
-3603.15050320037
 21
2869.581095965817
 31
0.0
  0
LINE
  5
34E
330
1F
100
AcDbEntity
  8
0-3_仕上げ
  6
Continuous
 62
   120
370
     5
100
AcDbLine
 10
-3608.15050320037
 20
2869.581095965817
 30
0.0
 11
-3603.15050320037
 21
2869.581095965817
 31
0.0
  0
LINE
  5
34F
330
1F
100
AcDbEntity
  8
0-3_仕上げ
  6
Continuous
 62
   120
370
     5
100
AcDbLine
 10
-3603.15050320037
 20
2902.000148463896
 30
0.0
 11
-3603.15050320037
 21
2895.581095965817
 31
0.0
  0
LINE
  5
350
330
1F
100
AcDbEntity
  8
0-3_仕上げ
  6
Continuous
 62
   120
370
     5
100
AcDbLine
 10
-3608.15050320037
 20
2895.581095965817
 30
0.0
 11
-3603.15050320037
 21
2895.581095965817
 31
0.0
  0
LINE
  5
351
330
1F
100
AcDbEntity
  8
0-3_仕上げ
  6
Continuous
 62
   120
370
     5
100
AcDbLine
 10
-3603.15050320037
 20
2928.000148463896
 30
0.0
 11
-3603.15050320037
 21
2921.581095965818
 31
0.0
  0
LINE
  5
352
330
1F
100
AcDbEntity
  8
0-3_仕上げ
  6
Continuous
 62
   120
370
     5
100
AcDbLine
 10
-3608.15050320037
 20
2921.581095965818
 30
0.0
 11
-3603.15050320037
 21
2921.581095965818
 31
0.0
  0
LINE
  5
353
330
1F
100
AcDbEntity
  8
0-3_仕上げ
  6
Continuous
 62
   120
370
     5
100
AcDbLine
 10
-3603.15050320037
 20
2954.000148463896
 30
0.0
 11
-3603.15050320037
 21
2947.581095965818
 31
0.0
  0
LINE
  5
354
330
1F
100
AcDbEntity
  8
0-3_仕上げ
  6
Continuous
 62
   120
370
     5
100
AcDbLine
 10
-3608.15050320037
 20
2947.581095965818
 30
0.0
 11
-3603.15050320037
 21
2947.581095965818
 31
0.0
  0
LINE
  5
355
330
1F
100
AcDbEntity
  8
0-3_仕上げ
  6
Continuous
 62
   120
370
     5
100
AcDbLine
 10
-3603.15050320037
 20
2980.000148463895
 30
0.0
 11
-3603.15050320037
 21
2973.581095965818
 31
0.0
  0
LINE
  5
356
330
1F
100
AcDbEntity
  8
0-3_仕上げ
  6
Continuous
 62
   120
370
     5
100
AcDbLine
 10
-3608.15050320037
 20
2973.581095965818
 30
0.0
 11
-3603.15050320037
 21
2973.581095965818
 31
0.0
  0
LINE
  5
357
330
1F
100
AcDbEntity
  8
0-3_仕上げ
  6
Continuous
 62
   120
370
     5
100
AcDbLine
 10
-3603.15050320037
 20
3006.000148463896
 30
0.0
 11
-3603.15050320037
 21
2999.581095965818
 31
0.0
  0
LINE
  5
358
330
1F
100
AcDbEntity
  8
0-3_仕上げ
  6
Continuous
 62
   120
370
     5
100
AcDbLine
 10
-3608.15050320037
 20
2999.581095965818
 30
0.0
 11
-3603.15050320037
 21
2999.581095965818
 31
0.0
  0
LINE
  5
359
330
1F
100
AcDbEntity
  8
0-3_仕上げ
  6
Continuous
 62
   120
370
     5
100
AcDbLine
 10
-3603.15050320037
 20
3032.000148463896
 30
0.0
 11
-3603.15050320037
 21
3025.581095965818
 31
0.0
  0
LINE
  5
35A
330
1F
100
AcDbEntity
  8
0-3_仕上げ
  6
Continuous
 62
   120
370
     5
100
AcDbLine
 10
-3608.15050320037
 20
3025.581095965818
 30
0.0
 11
-3603.15050320037
 21
3025.581095965818
 31
0.0
  0
LINE
  5
35B
330
1F
100
AcDbEntity
  8
0-3_仕上げ
  6
Continuous
 62
   120
370
     5
100
AcDbLine
 10
-3603.15050320037
 20
3058.000148463896
 30
0.0
 11
-3603.15050320037
 21
3051.581095965818
 31
0.0
  0
LINE
  5
35C
330
1F
100
AcDbEntity
  8
0-3_仕上げ
  6
Continuous
 62
   120
370
     5
100
AcDbLine
 10
-3608.15050320037
 20
3051.581095965818
 30
0.0
 11
-3603.15050320037
 21
3051.581095965818
 31
0.0
  0
LINE
  5
35D
330
1F
100
AcDbEntity
  8
0-3_仕上げ
  6
Continuous
 62
   120
370
     5
100
AcDbLine
 10
-3603.15050320037
 20
3084.000148463896
 30
0.0
 11
-3603.15050320037
 21
3077.581095965818
 31
0.0
  0
LINE
  5
35E
330
1F
100
AcDbEntity
  8
0-3_仕上げ
  6
Continuous
 62
   120
370
     5
100
AcDbLine
 10
-3608.15050320037
 20
3077.581095965818
 30
0.0
 11
-3603.15050320037
 21
3077.581095965818
 31
0.0
  0
LINE
  5
35F
330
1F
100
AcDbEntity
  8
0-3_仕上げ
  6
Continuous
 62
   120
370
     5
100
AcDbLine
 10
-3603.15050320037
 20
3110.000148463896
 30
0.0
 11
-3603.15050320037
 21
3103.581095965818
 31
0.0
  0
LINE
  5
360
330
1F
100
AcDbEntity
  8
0-3_仕上げ
  6
Continuous
 62
   120
370
     5
100
AcDbLine
 10
-3608.15050320037
 20
3103.581095965818
 30
0.0
 11
-3603.15050320037
 21
3103.581095965818
 31
0.0
  0
LINE
  5
361
330
1F
100
AcDbEntity
  8
0-3_仕上げ
  6
Continuous
 62
   120
370
     5
100
AcDbLine
 10
-3603.15050320037
 20
3136.000148463896
 30
0.0
 11
-3603.15050320037
 21
3129.581095965819
 31
0.0
  0
LINE
  5
362
330
1F
100
AcDbEntity
  8
0-3_仕上げ
  6
Continuous
 62
   120
370
     5
100
AcDbLine
 10
-3608.15050320037
 20
3129.581095965819
 30
0.0
 11
-3603.15050320037
 21
3129.581095965819
 31
0.0
  0
LINE
  5
363
330
1F
100
AcDbEntity
  8
0-3_仕上げ
  6
Continuous
 62
   120
370
     5
100
AcDbLine
 10
-3603.15050320037
 20
3162.000148463897
 30
0.0
 11
-3603.15050320037
 21
3155.581095965819
 31
0.0
  0
LINE
  5
364
330
1F
100
AcDbEntity
  8
0-3_仕上げ
  6
Continuous
 62
   120
370
     5
100
AcDbLine
 10
-3608.15050320037
 20
3155.581095965819
 30
0.0
 11
-3603.15050320037
 21
3155.581095965819
 31
0.0
  0
LINE
  5
365
330
1F
100
AcDbEntity
  8
0-3_仕上げ
  6
Continuous
 62
   120
370
     5
100
AcDbLine
 10
-3603.15050320037
 20
3188.000148463896
 30
0.0
 11
-3603.15050320037
 21
3181.581095965819
 31
0.0
  0
LINE
  5
366
330
1F
100
AcDbEntity
  8
0-3_仕上げ
  6
Continuous
 62
   120
370
     5
100
AcDbLine
 10
-3608.15050320037
 20
3181.581095965819
 30
0.0
 11
-3603.15050320037
 21
3181.581095965819
 31
0.0
  0
LINE
  5
367
330
1F
100
AcDbEntity
  8
0-3_仕上げ
  6
Continuous
 62
   120
370
     5
100
AcDbLine
 10
-3603.15050320037
 20
3214.000148463896
 30
0.0
 11
-3603.15050320037
 21
3207.581095965819
 31
0.0
  0
LINE
  5
368
330
1F
100
AcDbEntity
  8
0-3_仕上げ
  6
Continuous
 62
   120
370
     5
100
AcDbLine
 10
-3608.15050320037
 20
3207.581095965819
 30
0.0
 11
-3603.15050320037
 21
3207.581095965819
 31
0.0
  0
LINE
  5
369
330
1F
100
AcDbEntity
  8
0-3_仕上げ
  6
Continuous
 62
   120
370
     5
100
AcDbLine
 10
-3603.15050320037
 20
3240.000148463897
 30
0.0
 11
-3603.15050320037
 21
3233.581095965819
 31
0.0
  0
LINE
  5
36A
330
1F
100
AcDbEntity
  8
0-3_仕上げ
  6
Continuous
 62
   120
370
     5
100
AcDbLine
 10
-3608.15050320037
 20
3233.581095965819
 30
0.0
 11
-3603.15050320037
 21
3233.581095965819
 31
0.0
  0
LINE
  5
36B
330
1F
100
AcDbEntity
  8
0-3_仕上げ
  6
Continuous
 62
   120
370
     5
100
AcDbLine
 10
-3603.15050320037
 20
3266.000148463897
 30
0.0
 11
-3603.15050320037
 21
3259.581095965819
 31
0.0
  0
LINE
  5
36C
330
1F
100
AcDbEntity
  8
0-3_仕上げ
  6
Continuous
 62
   120
370
     5
100
AcDbLine
 10
-3608.15050320037
 20
3259.581095965819
 30
0.0
 11
-3603.15050320037
 21
3259.581095965819
 31
0.0
  0
LINE
  5
36D
330
1F
100
AcDbEntity
  8
0-3_仕上げ
  6
Continuous
 62
   120
370
     5
100
AcDbLine
 10
-3385.150503200371
 20
1595.581095965814
 30
0.0
 11
-3380.15050320037
 21
1595.581095965814
 31
0.0
  0
LINE
  5
36E
330
1F
100
AcDbEntity
  8
0-3_仕上げ
  6
Continuous
 62
   120
370
     5
100
AcDbLine
 10
-3385.150503200371
 20
1602.000148463891
 30
0.0
 11
-3385.150503200371
 21
1595.581095965814
 31
0.0
  0
LINE
  5
36F
330
1F
100
AcDbEntity
  8
0-3_仕上げ
  6
Continuous
 62
   120
370
     5
100
AcDbLine
 10
-3385.150503200371
 20
1621.581095965813
 30
0.0
 11
-3380.15050320037
 21
1621.581095965813
 31
0.0
  0
LINE
  5
370
330
1F
100
AcDbEntity
  8
0-3_仕上げ
  6
Continuous
 62
   120
370
     5
100
AcDbLine
 10
-3385.150503200371
 20
1628.000148463891
 30
0.0
 11
-3385.150503200371
 21
1621.581095965813
 31
0.0
  0
LINE
  5
371
330
1F
100
AcDbEntity
  8
0-3_仕上げ
  6
Continuous
 62
   120
370
     5
100
AcDbLine
 10
-3385.150503200371
 20
1647.581095965814
 30
0.0
 11
-3380.15050320037
 21
1647.581095965814
 31
0.0
  0
LINE
  5
372
330
1F
100
AcDbEntity
  8
0-3_仕上げ
  6
Continuous
 62
   120
370
     5
100
AcDbLine
 10
-3385.150503200371
 20
1654.000148463891
 30
0.0
 11
-3385.150503200371
 21
1647.581095965814
 31
0.0
  0
LINE
  5
373
330
1F
100
AcDbEntity
  8
0-3_仕上げ
  6
Continuous
 62
   120
370
     5
100
AcDbLine
 10
-3385.150503200371
 20
1673.581095965814
 30
0.0
 11
-3380.15050320037
 21
1673.581095965814
 31
0.0
  0
LINE
  5
374
330
1F
100
AcDbEntity
  8
0-3_仕上げ
  6
Continuous
 62
   120
370
     5
100
AcDbLine
 10
-3385.150503200371
 20
1680.000148463892
 30
0.0
 11
-3385.150503200371
 21
1673.581095965814
 31
0.0
  0
LINE
  5
375
330
1F
100
AcDbEntity
  8
0-3_仕上げ
  6
Continuous
 62
   120
370
     5
100
AcDbLine
 10
-3385.150503200371
 20
1699.581095965814
 30
0.0
 11
-3380.15050320037
 21
1699.581095965814
 31
0.0
  0
LINE
  5
376
330
1F
100
AcDbEntity
  8
0-3_仕上げ
  6
Continuous
 62
   120
370
     5
100
AcDbLine
 10
-3385.150503200371
 20
1706.000148463892
 30
0.0
 11
-3385.150503200371
 21
1699.581095965814
 31
0.0
  0
LINE
  5
377
330
1F
100
AcDbEntity
  8
0-3_仕上げ
  6
Continuous
 62
   120
370
     5
100
AcDbLine
 10
-3385.150503200371
 20
1725.581095965814
 30
0.0
 11
-3380.15050320037
 21
1725.581095965814
 31
0.0
  0
LINE
  5
378
330
1F
100
AcDbEntity
  8
0-3_仕上げ
  6
Continuous
 62
   120
370
     5
100
AcDbLine
 10
-3385.150503200371
 20
1732.000148463891
 30
0.0
 11
-3385.150503200371
 21
1725.581095965814
 31
0.0
  0
LINE
  5
379
330
1F
100
AcDbEntity
  8
0-3_仕上げ
  6
Continuous
 62
   120
370
     5
100
AcDbLine
 10
-3385.150503200371
 20
1751.581095965814
 30
0.0
 11
-3380.15050320037
 21
1751.581095965814
 31
0.0
  0
LINE
  5
37A
330
1F
100
AcDbEntity
  8
0-3_仕上げ
  6
Continuous
 62
   120
370
     5
100
AcDbLine
 10
-3385.150503200371
 20
1758.000148463891
 30
0.0
 11
-3385.150503200371
 21
1751.581095965814
 31
0.0
  0
LINE
  5
37B
330
1F
100
AcDbEntity
  8
0-3_仕上げ
  6
Continuous
 62
   120
370
     5
100
AcDbLine
 10
-3385.150503200371
 20
1777.581095965814
 30
0.0
 11
-3380.15050320037
 21
1777.581095965814
 31
0.0
  0
LINE
  5
37C
330
1F
100
AcDbEntity
  8
0-3_仕上げ
  6
Continuous
 62
   120
370
     5
100
AcDbLine
 10
-3385.150503200371
 20
1784.000148463892
 30
0.0
 11
-3385.150503200371
 21
1777.581095965814
 31
0.0
  0
LINE
  5
37D
330
1F
100
AcDbEntity
  8
0-3_仕上げ
  6
Continuous
 62
   120
370
     5
100
AcDbLine
 10
-3385.150503200371
 20
1803.581095965814
 30
0.0
 11
-3380.15050320037
 21
1803.581095965814
 31
0.0
  0
LINE
  5
37E
330
1F
100
AcDbEntity
  8
0-3_仕上げ
  6
Continuous
 62
   120
370
     5
100
AcDbLine
 10
-3385.150503200371
 20
1810.000148463892
 30
0.0
 11
-3385.150503200371
 21
1803.581095965814
 31
0.0
  0
LINE
  5
37F
330
1F
100
AcDbEntity
  8
0-3_仕上げ
  6
Continuous
 62
   120
370
     5
100
AcDbLine
 10
-3385.150503200371
 20
1829.581095965814
 30
0.0
 11
-3380.15050320037
 21
1829.581095965814
 31
0.0
  0
LINE
  5
380
330
1F
100
AcDbEntity
  8
0-3_仕上げ
  6
Continuous
 62
   120
370
     5
100
AcDbLine
 10
-3385.150503200371
 20
1836.000148463892
 30
0.0
 11
-3385.150503200371
 21
1829.581095965814
 31
0.0
  0
LINE
  5
381
330
1F
100
AcDbEntity
  8
0-3_仕上げ
  6
Continuous
 62
   120
370
     5
100
AcDbLine
 10
-3385.150503200371
 20
1855.581095965814
 30
0.0
 11
-3380.15050320037
 21
1855.581095965814
 31
0.0
  0
LINE
  5
382
330
1F
100
AcDbEntity
  8
0-3_仕上げ
  6
Continuous
 62
   120
370
     5
100
AcDbLine
 10
-3385.150503200371
 20
1862.000148463892
 30
0.0
 11
-3385.150503200371
 21
1855.581095965814
 31
0.0
  0
LINE
  5
383
330
1F
100
AcDbEntity
  8
0-3_仕上げ
  6
Continuous
 62
   120
370
     5
100
AcDbLine
 10
-3385.150503200371
 20
1881.581095965815
 30
0.0
 11
-3380.15050320037
 21
1881.581095965815
 31
0.0
  0
LINE
  5
384
330
1F
100
AcDbEntity
  8
0-3_仕上げ
  6
Continuous
 62
   120
370
     5
100
AcDbLine
 10
-3385.150503200371
 20
1888.000148463893
 30
0.0
 11
-3385.150503200371
 21
1881.581095965815
 31
0.0
  0
LINE
  5
385
330
1F
100
AcDbEntity
  8
0-3_仕上げ
  6
Continuous
 62
   120
370
     5
100
AcDbLine
 10
-3385.150503200371
 20
1907.581095965815
 30
0.0
 11
-3380.15050320037
 21
1907.581095965815
 31
0.0
  0
LINE
  5
386
330
1F
100
AcDbEntity
  8
0-3_仕上げ
  6
Continuous
 62
   120
370
     5
100
AcDbLine
 10
-3385.150503200371
 20
1914.000148463893
 30
0.0
 11
-3385.150503200371
 21
1907.581095965815
 31
0.0
  0
LINE
  5
387
330
1F
100
AcDbEntity
  8
0-3_仕上げ
  6
Continuous
 62
   120
370
     5
100
AcDbLine
 10
-3385.150503200371
 20
1933.581095965815
 30
0.0
 11
-3380.15050320037
 21
1933.581095965815
 31
0.0
  0
LINE
  5
388
330
1F
100
AcDbEntity
  8
0-3_仕上げ
  6
Continuous
 62
   120
370
     5
100
AcDbLine
 10
-3385.150503200371
 20
1940.000148463892
 30
0.0
 11
-3385.150503200371
 21
1933.581095965815
 31
0.0
  0
LINE
  5
389
330
1F
100
AcDbEntity
  8
0-3_仕上げ
  6
Continuous
 62
   120
370
     5
100
AcDbLine
 10
-3385.150503200371
 20
1959.581095965815
 30
0.0
 11
-3380.15050320037
 21
1959.581095965815
 31
0.0
  0
LINE
  5
38A
330
1F
100
AcDbEntity
  8
0-3_仕上げ
  6
Continuous
 62
   120
370
     5
100
AcDbLine
 10
-3385.150503200371
 20
1966.000148463891
 30
0.0
 11
-3385.150503200371
 21
1959.581095965815
 31
0.0
  0
LINE
  5
38B
330
1F
100
AcDbEntity
  8
0-3_仕上げ
  6
Continuous
 62
   120
370
     5
100
AcDbLine
 10
-3385.150503200371
 20
1985.581095965815
 30
0.0
 11
-3380.15050320037
 21
1985.581095965815
 31
0.0
  0
LINE
  5
38C
330
1F
100
AcDbEntity
  8
0-3_仕上げ
  6
Continuous
 62
   120
370
     5
100
AcDbLine
 10
-3385.150503200371
 20
1992.000148463893
 30
0.0
 11
-3385.150503200371
 21
1985.581095965815
 31
0.0
  0
LINE
  5
38D
330
1F
100
AcDbEntity
  8
0-3_仕上げ
  6
Continuous
 62
   120
370
     5
100
AcDbLine
 10
-3385.150503200371
 20
2011.581095965815
 30
0.0
 11
-3380.15050320037
 21
2011.581095965815
 31
0.0
  0
LINE
  5
38E
330
1F
100
AcDbEntity
  8
0-3_仕上げ
  6
Continuous
 62
   120
370
     5
100
AcDbLine
 10
-3385.150503200371
 20
2018.000148463893
 30
0.0
 11
-3385.150503200371
 21
2011.581095965815
 31
0.0
  0
LINE
  5
38F
330
1F
100
AcDbEntity
  8
0-3_仕上げ
  6
Continuous
 62
   120
370
     5
100
AcDbLine
 10
-3385.150503200371
 20
2037.581095965815
 30
0.0
 11
-3380.15050320037
 21
2037.581095965815
 31
0.0
  0
LINE
  5
390
330
1F
100
AcDbEntity
  8
0-3_仕上げ
  6
Continuous
 62
   120
370
     5
100
AcDbLine
 10
-3385.150503200371
 20
2044.000148463893
 30
0.0
 11
-3385.150503200371
 21
2037.581095965815
 31
0.0
  0
LINE
  5
391
330
1F
100
AcDbEntity
  8
0-3_仕上げ
  6
Continuous
 62
   120
370
     5
100
AcDbLine
 10
-3385.150503200371
 20
2063.581095965816
 30
0.0
 11
-3380.15050320037
 21
2063.581095965816
 31
0.0
  0
LINE
  5
392
330
1F
100
AcDbEntity
  8
0-3_仕上げ
  6
Continuous
 62
   120
370
     5
100
AcDbLine
 10
-3385.150503200371
 20
2070.000148463892
 30
0.0
 11
-3385.150503200371
 21
2063.581095965816
 31
0.0
  0
LINE
  5
393
330
1F
100
AcDbEntity
  8
0-3_仕上げ
  6
Continuous
 62
   120
370
     5
100
AcDbLine
 10
-3385.150503200371
 20
2089.581095965816
 30
0.0
 11
-3380.15050320037
 21
2089.581095965816
 31
0.0
  0
LINE
  5
394
330
1F
100
AcDbEntity
  8
0-3_仕上げ
  6
Continuous
 62
   120
370
     5
100
AcDbLine
 10
-3385.150503200371
 20
2096.000148463893
 30
0.0
 11
-3385.150503200371
 21
2089.581095965816
 31
0.0
  0
LINE
  5
395
330
1F
100
AcDbEntity
  8
0-3_仕上げ
  6
Continuous
 62
   120
370
     5
100
AcDbLine
 10
-3385.150503200371
 20
2115.581095965815
 30
0.0
 11
-3380.15050320037
 21
2115.581095965815
 31
0.0
  0
LINE
  5
396
330
1F
100
AcDbEntity
  8
0-3_仕上げ
  6
Continuous
 62
   120
370
     5
100
AcDbLine
 10
-3385.150503200371
 20
2122.000148463893
 30
0.0
 11
-3385.150503200371
 21
2115.581095965815
 31
0.0
  0
LINE
  5
397
330
1F
100
AcDbEntity
  8
0-3_仕上げ
  6
Continuous
 62
   120
370
     5
100
AcDbLine
 10
-3385.150503200371
 20
2141.581095965815
 30
0.0
 11
-3380.15050320037
 21
2141.581095965815
 31
0.0
  0
LINE
  5
398
330
1F
100
AcDbEntity
  8
0-3_仕上げ
  6
Continuous
 62
   120
370
     5
100
AcDbLine
 10
-3385.150503200371
 20
2148.000148463893
 30
0.0
 11
-3385.150503200371
 21
2141.581095965815
 31
0.0
  0
LINE
  5
399
330
1F
100
AcDbEntity
  8
0-3_仕上げ
  6
Continuous
 62
   120
370
     5
100
AcDbLine
 10
-3385.150503200371
 20
2167.581095965816
 30
0.0
 11
-3380.15050320037
 21
2167.581095965816
 31
0.0
  0
LINE
  5
39A
330
1F
100
AcDbEntity
  8
0-3_仕上げ
  6
Continuous
 62
   120
370
     5
100
AcDbLine
 10
-3385.150503200371
 20
2174.000148463893
 30
0.0
 11
-3385.150503200371
 21
2167.581095965816
 31
0.0
  0
LINE
  5
39B
330
1F
100
AcDbEntity
  8
0-3_仕上げ
  6
Continuous
 62
   120
370
     5
100
AcDbLine
 10
-3385.150503200371
 20
2193.581095965816
 30
0.0
 11
-3380.15050320037
 21
2193.581095965816
 31
0.0
  0
LINE
  5
39C
330
1F
100
AcDbEntity
  8
0-3_仕上げ
  6
Continuous
 62
   120
370
     5
100
AcDbLine
 10
-3385.150503200371
 20
2200.000148463893
 30
0.0
 11
-3385.150503200371
 21
2193.581095965816
 31
0.0
  0
LINE
  5
39D
330
1F
100
AcDbEntity
  8
0-3_仕上げ
  6
Continuous
 62
   120
370
     5
100
AcDbLine
 10
-3385.150503200371
 20
2219.581095965816
 30
0.0
 11
-3380.15050320037
 21
2219.581095965816
 31
0.0
  0
LINE
  5
39E
330
1F
100
AcDbEntity
  8
0-3_仕上げ
  6
Continuous
 62
   120
370
     5
100
AcDbLine
 10
-3385.150503200371
 20
2226.000148463893
 30
0.0
 11
-3385.150503200371
 21
2219.581095965816
 31
0.0
  0
LINE
  5
39F
330
1F
100
AcDbEntity
  8
0-3_仕上げ
  6
Continuous
 62
   120
370
     5
100
AcDbLine
 10
-3385.150503200371
 20
2245.581095965816
 30
0.0
 11
-3380.15050320037
 21
2245.581095965816
 31
0.0
  0
LINE
  5
3A0
330
1F
100
AcDbEntity
  8
0-3_仕上げ
  6
Continuous
 62
   120
370
     5
100
AcDbLine
 10
-3385.150503200371
 20
2252.000148463893
 30
0.0
 11
-3385.150503200371
 21
2245.581095965816
 31
0.0
  0
LINE
  5
3A1
330
1F
100
AcDbEntity
  8
0-3_仕上げ
  6
Continuous
 62
   120
370
     5
100
AcDbLine
 10
-3385.150503200371
 20
2271.581095965816
 30
0.0
 11
-3380.15050320037
 21
2271.581095965816
 31
0.0
  0
LINE
  5
3A2
330
1F
100
AcDbEntity
  8
0-3_仕上げ
  6
Continuous
 62
   120
370
     5
100
AcDbLine
 10
-3385.150503200371
 20
2278.000148463893
 30
0.0
 11
-3385.150503200371
 21
2271.581095965816
 31
0.0
  0
LINE
  5
3A3
330
1F
100
AcDbEntity
  8
0-3_仕上げ
  6
Continuous
 62
   120
370
     5
100
AcDbLine
 10
-3385.150503200371
 20
2297.581095965816
 30
0.0
 11
-3380.15050320037
 21
2297.581095965816
 31
0.0
  0
LINE
  5
3A4
330
1F
100
AcDbEntity
  8
0-3_仕上げ
  6
Continuous
 62
   120
370
     5
100
AcDbLine
 10
-3385.150503200371
 20
2304.000148463894
 30
0.0
 11
-3385.150503200371
 21
2297.581095965816
 31
0.0
  0
LINE
  5
3A5
330
1F
100
AcDbEntity
  8
0-3_仕上げ
  6
Continuous
 62
   120
370
     5
100
AcDbLine
 10
-3385.150503200371
 20
2323.581095965816
 30
0.0
 11
-3380.15050320037
 21
2323.581095965816
 31
0.0
  0
LINE
  5
3A6
330
1F
100
AcDbEntity
  8
0-3_仕上げ
  6
Continuous
 62
   120
370
     5
100
AcDbLine
 10
-3385.150503200371
 20
2330.000148463893
 30
0.0
 11
-3385.150503200371
 21
2323.581095965816
 31
0.0
  0
LINE
  5
3A7
330
1F
100
AcDbEntity
  8
0-3_仕上げ
  6
Continuous
 62
   120
370
     5
100
AcDbLine
 10
-3385.150503200371
 20
2349.581095965816
 30
0.0
 11
-3380.15050320037
 21
2349.581095965816
 31
0.0
  0
LINE
  5
3A8
330
1F
100
AcDbEntity
  8
0-3_仕上げ
  6
Continuous
 62
   120
370
     5
100
AcDbLine
 10
-3385.150503200371
 20
2356.000148463893
 30
0.0
 11
-3385.150503200371
 21
2349.581095965816
 31
0.0
  0
LINE
  5
3A9
330
1F
100
AcDbEntity
  8
0-3_仕上げ
  6
Continuous
 62
   120
370
     5
100
AcDbLine
 10
-3385.150503200371
 20
2375.581095965816
 30
0.0
 11
-3380.15050320037
 21
2375.581095965816
 31
0.0
  0
LINE
  5
3AA
330
1F
100
AcDbEntity
  8
0-3_仕上げ
  6
Continuous
 62
   120
370
     5
100
AcDbLine
 10
-3385.150503200371
 20
2382.000148463893
 30
0.0
 11
-3385.150503200371
 21
2375.581095965816
 31
0.0
  0
LINE
  5
3AB
330
1F
100
AcDbEntity
  8
0-3_仕上げ
  6
Continuous
 62
   120
370
     5
100
AcDbLine
 10
-3385.150503200371
 20
2401.581095965816
 30
0.0
 11
-3380.15050320037
 21
2401.581095965816
 31
0.0
  0
LINE
  5
3AC
330
1F
100
AcDbEntity
  8
0-3_仕上げ
  6
Continuous
 62
   120
370
     5
100
AcDbLine
 10
-3385.150503200371
 20
2408.000148463894
 30
0.0
 11
-3385.150503200371
 21
2401.581095965816
 31
0.0
  0
LINE
  5
3AD
330
1F
100
AcDbEntity
  8
0-3_仕上げ
  6
Continuous
 62
   120
370
     5
100
AcDbLine
 10
-3385.150503200371
 20
2427.581095965816
 30
0.0
 11
-3380.15050320037
 21
2427.581095965816
 31
0.0
  0
LINE
  5
3AE
330
1F
100
AcDbEntity
  8
0-3_仕上げ
  6
Continuous
 62
   120
370
     5
100
AcDbLine
 10
-3385.150503200371
 20
2434.000148463894
 30
0.0
 11
-3385.150503200371
 21
2427.581095965816
 31
0.0
  0
LINE
  5
3AF
330
1F
100
AcDbEntity
  8
0-3_仕上げ
  6
Continuous
 62
   120
370
     5
100
AcDbLine
 10
-3385.150503200371
 20
2453.581095965816
 30
0.0
 11
-3380.15050320037
 21
2453.581095965816
 31
0.0
  0
LINE
  5
3B0
330
1F
100
AcDbEntity
  8
0-3_仕上げ
  6
Continuous
 62
   120
370
     5
100
AcDbLine
 10
-3385.150503200371
 20
2460.000148463894
 30
0.0
 11
-3385.150503200371
 21
2453.581095965816
 31
0.0
  0
LINE
  5
3B1
330
1F
100
AcDbEntity
  8
0-3_仕上げ
  6
Continuous
 62
   120
370
     5
100
AcDbLine
 10
-3385.150503200371
 20
2479.581095965817
 30
0.0
 11
-3380.15050320037
 21
2479.581095965817
 31
0.0
  0
LINE
  5
3B2
330
1F
100
AcDbEntity
  8
0-3_仕上げ
  6
Continuous
 62
   120
370
     5
100
AcDbLine
 10
-3385.150503200371
 20
2486.000148463894
 30
0.0
 11
-3385.150503200371
 21
2479.581095965817
 31
0.0
  0
LINE
  5
3B3
330
1F
100
AcDbEntity
  8
0-3_仕上げ
  6
Continuous
 62
   120
370
     5
100
AcDbLine
 10
-3385.150503200371
 20
2505.581095965817
 30
0.0
 11
-3380.15050320037
 21
2505.581095965817
 31
0.0
  0
LINE
  5
3B4
330
1F
100
AcDbEntity
  8
0-3_仕上げ
  6
Continuous
 62
   120
370
     5
100
AcDbLine
 10
-3385.150503200371
 20
2512.000148463895
 30
0.0
 11
-3385.150503200371
 21
2505.581095965817
 31
0.0
  0
LINE
  5
3B5
330
1F
100
AcDbEntity
  8
0-3_仕上げ
  6
Continuous
 62
   120
370
     5
100
AcDbLine
 10
-3385.150503200371
 20
2531.581095965817
 30
0.0
 11
-3380.15050320037
 21
2531.581095965817
 31
0.0
  0
LINE
  5
3B6
330
1F
100
AcDbEntity
  8
0-3_仕上げ
  6
Continuous
 62
   120
370
     5
100
AcDbLine
 10
-3385.150503200371
 20
2538.000148463895
 30
0.0
 11
-3385.150503200371
 21
2531.581095965817
 31
0.0
  0
LINE
  5
3B7
330
1F
100
AcDbEntity
  8
0-3_仕上げ
  6
Continuous
 62
   120
370
     5
100
AcDbLine
 10
-3385.150503200371
 20
2557.581095965817
 30
0.0
 11
-3380.15050320037
 21
2557.581095965817
 31
0.0
  0
LINE
  5
3B8
330
1F
100
AcDbEntity
  8
0-3_仕上げ
  6
Continuous
 62
   120
370
     5
100
AcDbLine
 10
-3385.150503200371
 20
2564.000148463894
 30
0.0
 11
-3385.150503200371
 21
2557.581095965817
 31
0.0
  0
LINE
  5
3B9
330
1F
100
AcDbEntity
  8
0-3_仕上げ
  6
Continuous
 62
   120
370
     5
100
AcDbLine
 10
-3385.150503200371
 20
2583.581095965817
 30
0.0
 11
-3380.15050320037
 21
2583.581095965817
 31
0.0
  0
LINE
  5
3BA
330
1F
100
AcDbEntity
  8
0-3_仕上げ
  6
Continuous
 62
   120
370
     5
100
AcDbLine
 10
-3385.150503200371
 20
2590.000148463895
 30
0.0
 11
-3385.150503200371
 21
2583.581095965817
 31
0.0
  0
LINE
  5
3BB
330
1F
100
AcDbEntity
  8
0-3_仕上げ
  6
Continuous
 62
   120
370
     5
100
AcDbLine
 10
-3385.150503200371
 20
2609.581095965817
 30
0.0
 11
-3380.15050320037
 21
2609.581095965817
 31
0.0
  0
LINE
  5
3BC
330
1F
100
AcDbEntity
  8
0-3_仕上げ
  6
Continuous
 62
   120
370
     5
100
AcDbLine
 10
-3385.150503200371
 20
2616.000148463895
 30
0.0
 11
-3385.150503200371
 21
2609.581095965817
 31
0.0
  0
LINE
  5
3BD
330
1F
100
AcDbEntity
  8
0-3_仕上げ
  6
Continuous
 62
   120
370
     5
100
AcDbLine
 10
-3385.150503200371
 20
2635.581095965817
 30
0.0
 11
-3380.15050320037
 21
2635.581095965817
 31
0.0
  0
LINE
  5
3BE
330
1F
100
AcDbEntity
  8
0-3_仕上げ
  6
Continuous
 62
   120
370
     5
100
AcDbLine
 10
-3385.150503200371
 20
2642.000148463895
 30
0.0
 11
-3385.150503200371
 21
2635.581095965817
 31
0.0
  0
LINE
  5
3BF
330
1F
100
AcDbEntity
  8
0-3_仕上げ
  6
Continuous
 62
   120
370
     5
100
AcDbLine
 10
-3385.150503200371
 20
2661.581095965817
 30
0.0
 11
-3380.15050320037
 21
2661.581095965817
 31
0.0
  0
LINE
  5
3C0
330
1F
100
AcDbEntity
  8
0-3_仕上げ
  6
Continuous
 62
   120
370
     5
100
AcDbLine
 10
-3385.150503200371
 20
2668.000148463894
 30
0.0
 11
-3385.150503200371
 21
2661.581095965817
 31
0.0
  0
LINE
  5
3C1
330
1F
100
AcDbEntity
  8
0-3_仕上げ
  6
Continuous
 62
   120
370
     5
100
AcDbLine
 10
-3385.150503200371
 20
2687.581095965817
 30
0.0
 11
-3380.15050320037
 21
2687.581095965817
 31
0.0
  0
LINE
  5
3C2
330
1F
100
AcDbEntity
  8
0-3_仕上げ
  6
Continuous
 62
   120
370
     5
100
AcDbLine
 10
-3385.150503200371
 20
2694.000148463895
 30
0.0
 11
-3385.150503200371
 21
2687.581095965817
 31
0.0
  0
LINE
  5
3C3
330
1F
100
AcDbEntity
  8
0-3_仕上げ
  6
Continuous
 62
   120
370
     5
100
AcDbLine
 10
-3385.150503200371
 20
2713.581095965817
 30
0.0
 11
-3380.15050320037
 21
2713.581095965817
 31
0.0
  0
LINE
  5
3C4
330
1F
100
AcDbEntity
  8
0-3_仕上げ
  6
Continuous
 62
   120
370
     5
100
AcDbLine
 10
-3385.150503200371
 20
2720.000148463895
 30
0.0
 11
-3385.150503200371
 21
2713.581095965817
 31
0.0
  0
LINE
  5
3C5
330
1F
100
AcDbEntity
  8
0-3_仕上げ
  6
Continuous
 62
   120
370
     5
100
AcDbLine
 10
-3385.150503200371
 20
2739.581095965817
 30
0.0
 11
-3380.15050320037
 21
2739.581095965817
 31
0.0
  0
LINE
  5
3C6
330
1F
100
AcDbEntity
  8
0-3_仕上げ
  6
Continuous
 62
   120
370
     5
100
AcDbLine
 10
-3385.150503200371
 20
2746.000148463895
 30
0.0
 11
-3385.150503200371
 21
2739.581095965817
 31
0.0
  0
LINE
  5
3C7
330
1F
100
AcDbEntity
  8
0-3_仕上げ
  6
Continuous
 62
   120
370
     5
100
AcDbLine
 10
-3385.150503200371
 20
2765.581095965817
 30
0.0
 11
-3380.15050320037
 21
2765.581095965817
 31
0.0
  0
LINE
  5
3C8
330
1F
100
AcDbEntity
  8
0-3_仕上げ
  6
Continuous
 62
   120
370
     5
100
AcDbLine
 10
-3385.150503200371
 20
2772.000148463895
 30
0.0
 11
-3385.150503200371
 21
2765.581095965817
 31
0.0
  0
LINE
  5
3C9
330
1F
100
AcDbEntity
  8
0-3_仕上げ
  6
Continuous
 62
   120
370
     5
100
AcDbLine
 10
-3385.150503200371
 20
2791.581095965817
 30
0.0
 11
-3380.15050320037
 21
2791.581095965817
 31
0.0
  0
LINE
  5
3CA
330
1F
100
AcDbEntity
  8
0-3_仕上げ
  6
Continuous
 62
   120
370
     5
100
AcDbLine
 10
-3385.150503200371
 20
2798.000148463895
 30
0.0
 11
-3385.150503200371
 21
2791.581095965817
 31
0.0
  0
LINE
  5
3CB
330
1F
100
AcDbEntity
  8
0-3_仕上げ
  6
Continuous
 62
   120
370
     5
100
AcDbLine
 10
-3385.150503200371
 20
2817.581095965818
 30
0.0
 11
-3380.15050320037
 21
2817.581095965818
 31
0.0
  0
LINE
  5
3CC
330
1F
100
AcDbEntity
  8
0-3_仕上げ
  6
Continuous
 62
   120
370
     5
100
AcDbLine
 10
-3385.150503200371
 20
2824.000148463895
 30
0.0
 11
-3385.150503200371
 21
2817.581095965818
 31
0.0
  0
LINE
  5
3CD
330
1F
100
AcDbEntity
  8
0-3_仕上げ
  6
Continuous
 62
   120
370
     5
100
AcDbLine
 10
-3385.150503200371
 20
2843.581095965817
 30
0.0
 11
-3380.15050320037
 21
2843.581095965817
 31
0.0
  0
LINE
  5
3CE
330
1F
100
AcDbEntity
  8
0-3_仕上げ
  6
Continuous
 62
   120
370
     5
100
AcDbLine
 10
-3385.150503200371
 20
2850.000148463895
 30
0.0
 11
-3385.150503200371
 21
2843.581095965817
 31
0.0
  0
LINE
  5
3CF
330
1F
100
AcDbEntity
  8
0-3_仕上げ
  6
Continuous
 62
   120
370
     5
100
AcDbLine
 10
-3385.150503200371
 20
2869.581095965817
 30
0.0
 11
-3380.15050320037
 21
2869.581095965817
 31
0.0
  0
LINE
  5
3D0
330
1F
100
AcDbEntity
  8
0-3_仕上げ
  6
Continuous
 62
   120
370
     5
100
AcDbLine
 10
-3385.150503200371
 20
2876.000148463895
 30
0.0
 11
-3385.150503200371
 21
2869.581095965817
 31
0.0
  0
LINE
  5
3D1
330
1F
100
AcDbEntity
  8
0-3_仕上げ
  6
Continuous
 62
   120
370
     5
100
AcDbLine
 10
-3385.150503200371
 20
2895.581095965817
 30
0.0
 11
-3380.15050320037
 21
2895.581095965817
 31
0.0
  0
LINE
  5
3D2
330
1F
100
AcDbEntity
  8
0-3_仕上げ
  6
Continuous
 62
   120
370
     5
100
AcDbLine
 10
-3385.150503200371
 20
2902.000148463896
 30
0.0
 11
-3385.150503200371
 21
2895.581095965817
 31
0.0
  0
LINE
  5
3D3
330
1F
100
AcDbEntity
  8
0-3_仕上げ
  6
Continuous
 62
   120
370
     5
100
AcDbLine
 10
-3385.150503200371
 20
2921.581095965818
 30
0.0
 11
-3380.15050320037
 21
2921.581095965818
 31
0.0
  0
LINE
  5
3D4
330
1F
100
AcDbEntity
  8
0-3_仕上げ
  6
Continuous
 62
   120
370
     5
100
AcDbLine
 10
-3385.150503200371
 20
2928.000148463896
 30
0.0
 11
-3385.150503200371
 21
2921.581095965818
 31
0.0
  0
LINE
  5
3D5
330
1F
100
AcDbEntity
  8
0-3_仕上げ
  6
Continuous
 62
   120
370
     5
100
AcDbLine
 10
-3385.150503200371
 20
2947.581095965818
 30
0.0
 11
-3380.15050320037
 21
2947.581095965818
 31
0.0
  0
LINE
  5
3D6
330
1F
100
AcDbEntity
  8
0-3_仕上げ
  6
Continuous
 62
   120
370
     5
100
AcDbLine
 10
-3385.150503200371
 20
2954.000148463896
 30
0.0
 11
-3385.150503200371
 21
2947.581095965818
 31
0.0
  0
LINE
  5
3D7
330
1F
100
AcDbEntity
  8
0-3_仕上げ
  6
Continuous
 62
   120
370
     5
100
AcDbLine
 10
-3385.150503200371
 20
2973.581095965818
 30
0.0
 11
-3380.15050320037
 21
2973.581095965818
 31
0.0
  0
LINE
  5
3D8
330
1F
100
AcDbEntity
  8
0-3_仕上げ
  6
Continuous
 62
   120
370
     5
100
AcDbLine
 10
-3385.150503200371
 20
2980.000148463895
 30
0.0
 11
-3385.150503200371
 21
2973.581095965818
 31
0.0
  0
LINE
  5
3D9
330
1F
100
AcDbEntity
  8
0-3_仕上げ
  6
Continuous
 62
   120
370
     5
100
AcDbLine
 10
-3385.150503200371
 20
2999.581095965818
 30
0.0
 11
-3380.15050320037
 21
2999.581095965818
 31
0.0
  0
LINE
  5
3DA
330
1F
100
AcDbEntity
  8
0-3_仕上げ
  6
Continuous
 62
   120
370
     5
100
AcDbLine
 10
-3385.150503200371
 20
3006.000148463896
 30
0.0
 11
-3385.150503200371
 21
2999.581095965818
 31
0.0
  0
LINE
  5
3DB
330
1F
100
AcDbEntity
  8
0-3_仕上げ
  6
Continuous
 62
   120
370
     5
100
AcDbLine
 10
-3385.150503200371
 20
3025.581095965818
 30
0.0
 11
-3380.15050320037
 21
3025.581095965818
 31
0.0
  0
LINE
  5
3DC
330
1F
100
AcDbEntity
  8
0-3_仕上げ
  6
Continuous
 62
   120
370
     5
100
AcDbLine
 10
-3385.150503200371
 20
3032.000148463896
 30
0.0
 11
-3385.150503200371
 21
3025.581095965818
 31
0.0
  0
LINE
  5
3DD
330
1F
100
AcDbEntity
  8
0-3_仕上げ
  6
Continuous
 62
   120
370
     5
100
AcDbLine
 10
-3385.150503200371
 20
3051.581095965818
 30
0.0
 11
-3380.15050320037
 21
3051.581095965818
 31
0.0
  0
LINE
  5
3DE
330
1F
100
AcDbEntity
  8
0-3_仕上げ
  6
Continuous
 62
   120
370
     5
100
AcDbLine
 10
-3385.150503200371
 20
3058.000148463896
 30
0.0
 11
-3385.150503200371
 21
3051.581095965818
 31
0.0
  0
LINE
  5
3DF
330
1F
100
AcDbEntity
  8
0-3_仕上げ
  6
Continuous
 62
   120
370
     5
100
AcDbLine
 10
-3385.150503200371
 20
3077.581095965818
 30
0.0
 11
-3380.15050320037
 21
3077.581095965818
 31
0.0
  0
LINE
  5
3E0
330
1F
100
AcDbEntity
  8
0-3_仕上げ
  6
Continuous
 62
   120
370
     5
100
AcDbLine
 10
-3385.150503200371
 20
3084.000148463896
 30
0.0
 11
-3385.150503200371
 21
3077.581095965818
 31
0.0
  0
LINE
  5
3E1
330
1F
100
AcDbEntity
  8
0-3_仕上げ
  6
Continuous
 62
   120
370
     5
100
AcDbLine
 10
-3385.150503200371
 20
3103.581095965818
 30
0.0
 11
-3380.15050320037
 21
3103.581095965818
 31
0.0
  0
LINE
  5
3E2
330
1F
100
AcDbEntity
  8
0-3_仕上げ
  6
Continuous
 62
   120
370
     5
100
AcDbLine
 10
-3385.150503200371
 20
3110.000148463896
 30
0.0
 11
-3385.150503200371
 21
3103.581095965818
 31
0.0
  0
LINE
  5
3E3
330
1F
100
AcDbEntity
  8
0-3_仕上げ
  6
Continuous
 62
   120
370
     5
100
AcDbLine
 10
-3385.150503200371
 20
3129.581095965819
 30
0.0
 11
-3380.15050320037
 21
3129.581095965819
 31
0.0
  0
LINE
  5
3E4
330
1F
100
AcDbEntity
  8
0-3_仕上げ
  6
Continuous
 62
   120
370
     5
100
AcDbLine
 10
-3385.150503200371
 20
3136.000148463896
 30
0.0
 11
-3385.150503200371
 21
3129.581095965819
 31
0.0
  0
LINE
  5
3E5
330
1F
100
AcDbEntity
  8
0-3_仕上げ
  6
Continuous
 62
   120
370
     5
100
AcDbLine
 10
-3385.150503200371
 20
3155.581095965819
 30
0.0
 11
-3380.15050320037
 21
3155.581095965819
 31
0.0
  0
LINE
  5
3E6
330
1F
100
AcDbEntity
  8
0-3_仕上げ
  6
Continuous
 62
   120
370
     5
100
AcDbLine
 10
-3385.150503200371
 20
3162.000148463897
 30
0.0
 11
-3385.150503200371
 21
3155.581095965819
 31
0.0
  0
LINE
  5
3E7
330
1F
100
AcDbEntity
  8
0-3_仕上げ
  6
Continuous
 62
   120
370
     5
100
AcDbLine
 10
-3385.150503200371
 20
3181.581095965819
 30
0.0
 11
-3380.15050320037
 21
3181.581095965819
 31
0.0
  0
LINE
  5
3E8
330
1F
100
AcDbEntity
  8
0-3_仕上げ
  6
Continuous
 62
   120
370
     5
100
AcDbLine
 10
-3385.150503200371
 20
3188.000148463896
 30
0.0
 11
-3385.150503200371
 21
3181.581095965819
 31
0.0
  0
LINE
  5
3E9
330
1F
100
AcDbEntity
  8
0-3_仕上げ
  6
Continuous
 62
   120
370
     5
100
AcDbLine
 10
-3385.150503200371
 20
3207.581095965819
 30
0.0
 11
-3380.15050320037
 21
3207.581095965819
 31
0.0
  0
LINE
  5
3EA
330
1F
100
AcDbEntity
  8
0-3_仕上げ
  6
Continuous
 62
   120
370
     5
100
AcDbLine
 10
-3385.150503200371
 20
3214.000148463896
 30
0.0
 11
-3385.150503200371
 21
3207.581095965819
 31
0.0
  0
LINE
  5
3EB
330
1F
100
AcDbEntity
  8
0-3_仕上げ
  6
Continuous
 62
   120
370
     5
100
AcDbLine
 10
-3385.150503200371
 20
3233.581095965819
 30
0.0
 11
-3380.15050320037
 21
3233.581095965819
 31
0.0
  0
LINE
  5
3EC
330
1F
100
AcDbEntity
  8
0-3_仕上げ
  6
Continuous
 62
   120
370
     5
100
AcDbLine
 10
-3385.150503200371
 20
3240.000148463897
 30
0.0
 11
-3385.150503200371
 21
3233.581095965819
 31
0.0
  0
LINE
  5
3ED
330
1F
100
AcDbEntity
  8
0-3_仕上げ
  6
Continuous
 62
   120
370
     5
100
AcDbLine
 10
-3385.150503200371
 20
3259.581095965819
 30
0.0
 11
-3380.15050320037
 21
3259.581095965819
 31
0.0
  0
LINE
  5
3EE
330
1F
100
AcDbEntity
  8
0-3_仕上げ
  6
Continuous
 62
   120
370
     5
100
AcDbLine
 10
-3385.150503200371
 20
3266.000148463897
 30
0.0
 11
-3385.150503200371
 21
3259.581095965819
 31
0.0
  0
LINE
  5
3EF
330
1F
100
AcDbEntity
  8
0-3_仕上げ
  6
Continuous
 62
     7
370
     9
100
AcDbLine
 10
-3608.15050320037
 20
3286.000148463891
 30
0.0
 11
-3380.15050320037
 21
3286.000148463891
 31
0.0
  0
LINE
  5
3F0
330
1F
100
AcDbEntity
  8
0-3_仕上げ
  6
Continuous
 62
     7
370
     9
100
AcDbLine
 10
-3608.15050320037
 20
1576.000148463891
 30
0.0
 11
-3380.15050320037
 21
1576.000148463891
 31
0.0
  0
LINE
  5
3F1
330
1F
100
AcDbEntity
  8
0-3_仕上げ
  6
Continuous
 62
     7
370
     9
100
AcDbLine
 10
-3608.15050320037
 20
1426.000148463891
 30
0.0
 11
-3608.15050320037
 21
3409.000148463891
 31
0.0
  0
LINE
  5
3F2
330
1F
100
AcDbEntity
  8
0-3_仕上げ
  6
Continuous
 62
     7
370
     9
100
AcDbLine
 10
-3380.15050320037
 20
1426.000148463891
 30
0.0
 11
-3380.15050320037
 21
3409.000148463891
 31
0.0
  0
LINE
  5
3F3
330
1F
100
AcDbEntity
  8
0-2_扉
  6
Continuous
 62
    92
370
    13
100
AcDbLine
 10
-3089.15050320037
 20
1426.000148463891
 30
0.0
 11
-3899.15050320037
 21
1426.000148463891
 31
0.0
  0
LINE
  5
3F4
330
1F
100
AcDbEntity
  8
0-2_扉
  6
Continuous
 62
    92
370
    13
100
AcDbLine
 10
-3089.15050320037
 20
3409.000148463891
 30
0.0
 11
-3899.15050320037
 21
3409.000148463891
 31
0.0
  0
LINE
  5
3F5
330
1F
100
AcDbEntity
  8
0-3_仕上げ
  6
Continuous
 62
   120
370
     5
100
AcDbLine
 10
-2600.15050320037
 20
3266.000148463897
 30
0.0
 11
-2828.15050320037
 21
3266.000148463897
 31
0.0
  0
LINE
  5
3F6
330
1F
100
AcDbEntity
  8
0-3_仕上げ
  6
Continuous
 62
   120
370
     5
100
AcDbLine
 10
-2600.15050320037
 20
3256.000148463896
 30
0.0
 11
-2828.15050320037
 21
3256.000148463896
 31
0.0
  0
LINE
  5
3F7
330
1F
100
AcDbEntity
  8
0-3_仕上げ
  6
Continuous
 62
   120
370
     5
100
AcDbLine
 10
-2600.15050320037
 20
3240.000148463897
 30
0.0
 11
-2828.15050320037
 21
3240.000148463897
 31
0.0
  0
LINE
  5
3F8
330
1F
100
AcDbEntity
  8
0-3_仕上げ
  6
Continuous
 62
   120
370
     5
100
AcDbLine
 10
-2600.15050320037
 20
3230.000148463896
 30
0.0
 11
-2828.15050320037
 21
3230.000148463896
 31
0.0
  0
LINE
  5
3F9
330
1F
100
AcDbEntity
  8
0-3_仕上げ
  6
Continuous
 62
   120
370
     5
100
AcDbLine
 10
-2600.15050320037
 20
3214.000148463896
 30
0.0
 11
-2828.15050320037
 21
3214.000148463896
 31
0.0
  0
LINE
  5
3FA
330
1F
100
AcDbEntity
  8
0-3_仕上げ
  6
Continuous
 62
   120
370
     5
100
AcDbLine
 10
-2600.15050320037
 20
3204.000148463896
 30
0.0
 11
-2828.15050320037
 21
3204.000148463896
 31
0.0
  0
LINE
  5
3FB
330
1F
100
AcDbEntity
  8
0-3_仕上げ
  6
Continuous
 62
   120
370
     5
100
AcDbLine
 10
-2600.15050320037
 20
3188.000148463896
 30
0.0
 11
-2828.15050320037
 21
3188.000148463896
 31
0.0
  0
LINE
  5
3FC
330
1F
100
AcDbEntity
  8
0-3_仕上げ
  6
Continuous
 62
   120
370
     5
100
AcDbLine
 10
-2600.15050320037
 20
3178.000148463896
 30
0.0
 11
-2828.15050320037
 21
3178.000148463896
 31
0.0
  0
LINE
  5
3FD
330
1F
100
AcDbEntity
  8
0-3_仕上げ
  6
Continuous
 62
   120
370
     5
100
AcDbLine
 10
-2600.15050320037
 20
3162.000148463897
 30
0.0
 11
-2828.15050320037
 21
3162.000148463897
 31
0.0
  0
LINE
  5
3FE
330
1F
100
AcDbEntity
  8
0-3_仕上げ
  6
Continuous
 62
   120
370
     5
100
AcDbLine
 10
-2600.15050320037
 20
3152.000148463896
 30
0.0
 11
-2828.15050320037
 21
3152.000148463896
 31
0.0
  0
LINE
  5
3FF
330
1F
100
AcDbEntity
  8
0-3_仕上げ
  6
Continuous
 62
   120
370
     5
100
AcDbLine
 10
-2600.15050320037
 20
3136.000148463896
 30
0.0
 11
-2828.15050320037
 21
3136.000148463896
 31
0.0
  0
LINE
  5
400
330
1F
100
AcDbEntity
  8
0-3_仕上げ
  6
Continuous
 62
   120
370
     5
100
AcDbLine
 10
-2600.15050320037
 20
3126.000148463896
 30
0.0
 11
-2828.15050320037
 21
3126.000148463896
 31
0.0
  0
LINE
  5
401
330
1F
100
AcDbEntity
  8
0-3_仕上げ
  6
Continuous
 62
   120
370
     5
100
AcDbLine
 10
-2600.15050320037
 20
3110.000148463896
 30
0.0
 11
-2828.15050320037
 21
3110.000148463896
 31
0.0
  0
LINE
  5
402
330
1F
100
AcDbEntity
  8
0-3_仕上げ
  6
Continuous
 62
   120
370
     5
100
AcDbLine
 10
-2600.15050320037
 20
3100.000148463896
 30
0.0
 11
-2828.15050320037
 21
3100.000148463896
 31
0.0
  0
LINE
  5
403
330
1F
100
AcDbEntity
  8
0-3_仕上げ
  6
Continuous
 62
   120
370
     5
100
AcDbLine
 10
-2600.15050320037
 20
3084.000148463896
 30
0.0
 11
-2828.15050320037
 21
3084.000148463896
 31
0.0
  0
LINE
  5
404
330
1F
100
AcDbEntity
  8
0-3_仕上げ
  6
Continuous
 62
   120
370
     5
100
AcDbLine
 10
-2600.15050320037
 20
3074.000148463896
 30
0.0
 11
-2828.15050320037
 21
3074.000148463896
 31
0.0
  0
LINE
  5
405
330
1F
100
AcDbEntity
  8
0-3_仕上げ
  6
Continuous
 62
   120
370
     5
100
AcDbLine
 10
-2600.15050320037
 20
3058.000148463896
 30
0.0
 11
-2828.15050320037
 21
3058.000148463896
 31
0.0
  0
LINE
  5
406
330
1F
100
AcDbEntity
  8
0-3_仕上げ
  6
Continuous
 62
   120
370
     5
100
AcDbLine
 10
-2600.15050320037
 20
3048.000148463896
 30
0.0
 11
-2828.15050320037
 21
3048.000148463896
 31
0.0
  0
LINE
  5
407
330
1F
100
AcDbEntity
  8
0-3_仕上げ
  6
Continuous
 62
   120
370
     5
100
AcDbLine
 10
-2600.15050320037
 20
3032.000148463896
 30
0.0
 11
-2828.15050320037
 21
3032.000148463896
 31
0.0
  0
LINE
  5
408
330
1F
100
AcDbEntity
  8
0-3_仕上げ
  6
Continuous
 62
   120
370
     5
100
AcDbLine
 10
-2600.15050320037
 20
3022.000148463896
 30
0.0
 11
-2828.15050320037
 21
3022.000148463896
 31
0.0
  0
LINE
  5
409
330
1F
100
AcDbEntity
  8
0-3_仕上げ
  6
Continuous
 62
   120
370
     5
100
AcDbLine
 10
-2600.15050320037
 20
3006.000148463896
 30
0.0
 11
-2828.15050320037
 21
3006.000148463896
 31
0.0
  0
LINE
  5
40A
330
1F
100
AcDbEntity
  8
0-3_仕上げ
  6
Continuous
 62
   120
370
     5
100
AcDbLine
 10
-2600.15050320037
 20
2996.000148463896
 30
0.0
 11
-2828.15050320037
 21
2996.000148463896
 31
0.0
  0
LINE
  5
40B
330
1F
100
AcDbEntity
  8
0-3_仕上げ
  6
Continuous
 62
   120
370
     5
100
AcDbLine
 10
-2600.15050320037
 20
2980.000148463895
 30
0.0
 11
-2828.15050320037
 21
2980.000148463895
 31
0.0
  0
LINE
  5
40C
330
1F
100
AcDbEntity
  8
0-3_仕上げ
  6
Continuous
 62
   120
370
     5
100
AcDbLine
 10
-2600.15050320037
 20
2970.000148463896
 30
0.0
 11
-2828.15050320037
 21
2970.000148463896
 31
0.0
  0
LINE
  5
40D
330
1F
100
AcDbEntity
  8
0-3_仕上げ
  6
Continuous
 62
   120
370
     5
100
AcDbLine
 10
-2600.15050320037
 20
2954.000148463896
 30
0.0
 11
-2828.15050320037
 21
2954.000148463896
 31
0.0
  0
LINE
  5
40E
330
1F
100
AcDbEntity
  8
0-3_仕上げ
  6
Continuous
 62
   120
370
     5
100
AcDbLine
 10
-2600.15050320037
 20
2944.000148463896
 30
0.0
 11
-2828.15050320037
 21
2944.000148463896
 31
0.0
  0
LINE
  5
40F
330
1F
100
AcDbEntity
  8
0-3_仕上げ
  6
Continuous
 62
   120
370
     5
100
AcDbLine
 10
-2600.15050320037
 20
2928.000148463896
 30
0.0
 11
-2828.15050320037
 21
2928.000148463896
 31
0.0
  0
LINE
  5
410
330
1F
100
AcDbEntity
  8
0-3_仕上げ
  6
Continuous
 62
   120
370
     5
100
AcDbLine
 10
-2600.15050320037
 20
2918.000148463896
 30
0.0
 11
-2828.15050320037
 21
2918.000148463896
 31
0.0
  0
LINE
  5
411
330
1F
100
AcDbEntity
  8
0-3_仕上げ
  6
Continuous
 62
   120
370
     5
100
AcDbLine
 10
-2600.15050320037
 20
2902.000148463896
 30
0.0
 11
-2828.15050320037
 21
2902.000148463896
 31
0.0
  0
LINE
  5
412
330
1F
100
AcDbEntity
  8
0-3_仕上げ
  6
Continuous
 62
   120
370
     5
100
AcDbLine
 10
-2600.15050320037
 20
2892.000148463895
 30
0.0
 11
-2828.15050320037
 21
2892.000148463895
 31
0.0
  0
LINE
  5
413
330
1F
100
AcDbEntity
  8
0-3_仕上げ
  6
Continuous
 62
   120
370
     5
100
AcDbLine
 10
-2600.15050320037
 20
2876.000148463895
 30
0.0
 11
-2828.15050320037
 21
2876.000148463895
 31
0.0
  0
LINE
  5
414
330
1F
100
AcDbEntity
  8
0-3_仕上げ
  6
Continuous
 62
   120
370
     5
100
AcDbLine
 10
-2600.15050320037
 20
2866.000148463895
 30
0.0
 11
-2828.15050320037
 21
2866.000148463895
 31
0.0
  0
LINE
  5
415
330
1F
100
AcDbEntity
  8
0-3_仕上げ
  6
Continuous
 62
   120
370
     5
100
AcDbLine
 10
-2600.15050320037
 20
2850.000148463895
 30
0.0
 11
-2828.15050320037
 21
2850.000148463895
 31
0.0
  0
LINE
  5
416
330
1F
100
AcDbEntity
  8
0-3_仕上げ
  6
Continuous
 62
   120
370
     5
100
AcDbLine
 10
-2600.15050320037
 20
2840.000148463895
 30
0.0
 11
-2828.15050320037
 21
2840.000148463895
 31
0.0
  0
LINE
  5
417
330
1F
100
AcDbEntity
  8
0-3_仕上げ
  6
Continuous
 62
   120
370
     5
100
AcDbLine
 10
-2600.15050320037
 20
2824.000148463895
 30
0.0
 11
-2828.15050320037
 21
2824.000148463895
 31
0.0
  0
LINE
  5
418
330
1F
100
AcDbEntity
  8
0-3_仕上げ
  6
Continuous
 62
   120
370
     5
100
AcDbLine
 10
-2600.15050320037
 20
2814.000148463896
 30
0.0
 11
-2828.15050320037
 21
2814.000148463896
 31
0.0
  0
LINE
  5
419
330
1F
100
AcDbEntity
  8
0-3_仕上げ
  6
Continuous
 62
   120
370
     5
100
AcDbLine
 10
-2600.15050320037
 20
2798.000148463895
 30
0.0
 11
-2828.15050320037
 21
2798.000148463895
 31
0.0
  0
LINE
  5
41A
330
1F
100
AcDbEntity
  8
0-3_仕上げ
  6
Continuous
 62
   120
370
     5
100
AcDbLine
 10
-2600.15050320037
 20
2788.000148463895
 30
0.0
 11
-2828.15050320037
 21
2788.000148463895
 31
0.0
  0
LINE
  5
41B
330
1F
100
AcDbEntity
  8
0-3_仕上げ
  6
Continuous
 62
   120
370
     5
100
AcDbLine
 10
-2600.15050320037
 20
2772.000148463895
 30
0.0
 11
-2828.15050320037
 21
2772.000148463895
 31
0.0
  0
LINE
  5
41C
330
1F
100
AcDbEntity
  8
0-3_仕上げ
  6
Continuous
 62
   120
370
     5
100
AcDbLine
 10
-2600.15050320037
 20
2762.000148463895
 30
0.0
 11
-2828.15050320037
 21
2762.000148463895
 31
0.0
  0
LINE
  5
41D
330
1F
100
AcDbEntity
  8
0-3_仕上げ
  6
Continuous
 62
   120
370
     5
100
AcDbLine
 10
-2600.15050320037
 20
2746.000148463895
 30
0.0
 11
-2828.15050320037
 21
2746.000148463895
 31
0.0
  0
LINE
  5
41E
330
1F
100
AcDbEntity
  8
0-3_仕上げ
  6
Continuous
 62
   120
370
     5
100
AcDbLine
 10
-2600.15050320037
 20
2736.000148463895
 30
0.0
 11
-2828.15050320037
 21
2736.000148463895
 31
0.0
  0
LINE
  5
41F
330
1F
100
AcDbEntity
  8
0-3_仕上げ
  6
Continuous
 62
   120
370
     5
100
AcDbLine
 10
-2600.15050320037
 20
2720.000148463895
 30
0.0
 11
-2828.15050320037
 21
2720.000148463895
 31
0.0
  0
LINE
  5
420
330
1F
100
AcDbEntity
  8
0-3_仕上げ
  6
Continuous
 62
   120
370
     5
100
AcDbLine
 10
-2600.15050320037
 20
2710.000148463895
 30
0.0
 11
-2828.15050320037
 21
2710.000148463895
 31
0.0
  0
LINE
  5
421
330
1F
100
AcDbEntity
  8
0-3_仕上げ
  6
Continuous
 62
   120
370
     5
100
AcDbLine
 10
-2600.15050320037
 20
2694.000148463895
 30
0.0
 11
-2828.15050320037
 21
2694.000148463895
 31
0.0
  0
LINE
  5
422
330
1F
100
AcDbEntity
  8
0-3_仕上げ
  6
Continuous
 62
   120
370
     5
100
AcDbLine
 10
-2600.15050320037
 20
2684.000148463895
 30
0.0
 11
-2828.15050320037
 21
2684.000148463895
 31
0.0
  0
LINE
  5
423
330
1F
100
AcDbEntity
  8
0-3_仕上げ
  6
Continuous
 62
   120
370
     5
100
AcDbLine
 10
-2600.15050320037
 20
2668.000148463894
 30
0.0
 11
-2828.15050320037
 21
2668.000148463894
 31
0.0
  0
LINE
  5
424
330
1F
100
AcDbEntity
  8
0-3_仕上げ
  6
Continuous
 62
   120
370
     5
100
AcDbLine
 10
-2600.15050320037
 20
2658.000148463895
 30
0.0
 11
-2828.15050320037
 21
2658.000148463895
 31
0.0
  0
LINE
  5
425
330
1F
100
AcDbEntity
  8
0-3_仕上げ
  6
Continuous
 62
   120
370
     5
100
AcDbLine
 10
-2600.15050320037
 20
2642.000148463895
 30
0.0
 11
-2828.15050320037
 21
2642.000148463895
 31
0.0
  0
LINE
  5
426
330
1F
100
AcDbEntity
  8
0-3_仕上げ
  6
Continuous
 62
   120
370
     5
100
AcDbLine
 10
-2600.15050320037
 20
2632.000148463895
 30
0.0
 11
-2828.15050320037
 21
2632.000148463895
 31
0.0
  0
LINE
  5
427
330
1F
100
AcDbEntity
  8
0-3_仕上げ
  6
Continuous
 62
   120
370
     5
100
AcDbLine
 10
-2600.15050320037
 20
2616.000148463895
 30
0.0
 11
-2828.15050320037
 21
2616.000148463895
 31
0.0
  0
LINE
  5
428
330
1F
100
AcDbEntity
  8
0-3_仕上げ
  6
Continuous
 62
   120
370
     5
100
AcDbLine
 10
-2600.15050320037
 20
2606.000148463894
 30
0.0
 11
-2828.15050320037
 21
2606.000148463894
 31
0.0
  0
LINE
  5
429
330
1F
100
AcDbEntity
  8
0-3_仕上げ
  6
Continuous
 62
   120
370
     5
100
AcDbLine
 10
-2600.15050320037
 20
2590.000148463895
 30
0.0
 11
-2828.15050320037
 21
2590.000148463895
 31
0.0
  0
LINE
  5
42A
330
1F
100
AcDbEntity
  8
0-3_仕上げ
  6
Continuous
 62
   120
370
     5
100
AcDbLine
 10
-2600.15050320037
 20
2580.000148463894
 30
0.0
 11
-2828.15050320037
 21
2580.000148463894
 31
0.0
  0
LINE
  5
42B
330
1F
100
AcDbEntity
  8
0-3_仕上げ
  6
Continuous
 62
   120
370
     5
100
AcDbLine
 10
-2600.15050320037
 20
2564.000148463894
 30
0.0
 11
-2828.15050320037
 21
2564.000148463894
 31
0.0
  0
LINE
  5
42C
330
1F
100
AcDbEntity
  8
0-3_仕上げ
  6
Continuous
 62
   120
370
     5
100
AcDbLine
 10
-2600.15050320037
 20
2554.000148463894
 30
0.0
 11
-2828.15050320037
 21
2554.000148463894
 31
0.0
  0
LINE
  5
42D
330
1F
100
AcDbEntity
  8
0-3_仕上げ
  6
Continuous
 62
   120
370
     5
100
AcDbLine
 10
-2600.15050320037
 20
2538.000148463895
 30
0.0
 11
-2828.15050320037
 21
2538.000148463895
 31
0.0
  0
LINE
  5
42E
330
1F
100
AcDbEntity
  8
0-3_仕上げ
  6
Continuous
 62
   120
370
     5
100
AcDbLine
 10
-2600.15050320037
 20
2528.000148463894
 30
0.0
 11
-2828.15050320037
 21
2528.000148463894
 31
0.0
  0
LINE
  5
42F
330
1F
100
AcDbEntity
  8
0-3_仕上げ
  6
Continuous
 62
   120
370
     5
100
AcDbLine
 10
-2600.15050320037
 20
2512.000148463895
 30
0.0
 11
-2828.15050320037
 21
2512.000148463895
 31
0.0
  0
LINE
  5
430
330
1F
100
AcDbEntity
  8
0-3_仕上げ
  6
Continuous
 62
   120
370
     5
100
AcDbLine
 10
-2600.15050320037
 20
2502.000148463894
 30
0.0
 11
-2828.15050320037
 21
2502.000148463894
 31
0.0
  0
LINE
  5
431
330
1F
100
AcDbEntity
  8
0-3_仕上げ
  6
Continuous
 62
   120
370
     5
100
AcDbLine
 10
-2600.15050320037
 20
2486.000148463894
 30
0.0
 11
-2828.15050320037
 21
2486.000148463894
 31
0.0
  0
LINE
  5
432
330
1F
100
AcDbEntity
  8
0-3_仕上げ
  6
Continuous
 62
   120
370
     5
100
AcDbLine
 10
-2600.15050320037
 20
2476.000148463894
 30
0.0
 11
-2828.15050320037
 21
2476.000148463894
 31
0.0
  0
LINE
  5
433
330
1F
100
AcDbEntity
  8
0-3_仕上げ
  6
Continuous
 62
   120
370
     5
100
AcDbLine
 10
-2600.15050320037
 20
2460.000148463894
 30
0.0
 11
-2828.15050320037
 21
2460.000148463894
 31
0.0
  0
LINE
  5
434
330
1F
100
AcDbEntity
  8
0-3_仕上げ
  6
Continuous
 62
   120
370
     5
100
AcDbLine
 10
-2600.15050320037
 20
2450.000148463894
 30
0.0
 11
-2828.15050320037
 21
2450.000148463894
 31
0.0
  0
LINE
  5
435
330
1F
100
AcDbEntity
  8
0-3_仕上げ
  6
Continuous
 62
   120
370
     5
100
AcDbLine
 10
-2600.15050320037
 20
2434.000148463894
 30
0.0
 11
-2828.15050320037
 21
2434.000148463894
 31
0.0
  0
LINE
  5
436
330
1F
100
AcDbEntity
  8
0-3_仕上げ
  6
Continuous
 62
   120
370
     5
100
AcDbLine
 10
-2600.15050320037
 20
2424.000148463894
 30
0.0
 11
-2828.15050320037
 21
2424.000148463894
 31
0.0
  0
LINE
  5
437
330
1F
100
AcDbEntity
  8
0-3_仕上げ
  6
Continuous
 62
   120
370
     5
100
AcDbLine
 10
-2600.15050320037
 20
2408.000148463894
 30
0.0
 11
-2828.15050320037
 21
2408.000148463894
 31
0.0
  0
LINE
  5
438
330
1F
100
AcDbEntity
  8
0-3_仕上げ
  6
Continuous
 62
   120
370
     5
100
AcDbLine
 10
-2600.15050320037
 20
2398.000148463893
 30
0.0
 11
-2828.15050320037
 21
2398.000148463893
 31
0.0
  0
LINE
  5
439
330
1F
100
AcDbEntity
  8
0-3_仕上げ
  6
Continuous
 62
   120
370
     5
100
AcDbLine
 10
-2600.15050320037
 20
2382.000148463893
 30
0.0
 11
-2828.15050320037
 21
2382.000148463893
 31
0.0
  0
LINE
  5
43A
330
1F
100
AcDbEntity
  8
0-3_仕上げ
  6
Continuous
 62
   120
370
     5
100
AcDbLine
 10
-2600.15050320037
 20
2372.000148463893
 30
0.0
 11
-2828.15050320037
 21
2372.000148463893
 31
0.0
  0
LINE
  5
43B
330
1F
100
AcDbEntity
  8
0-3_仕上げ
  6
Continuous
 62
   120
370
     5
100
AcDbLine
 10
-2600.15050320037
 20
2356.000148463893
 30
0.0
 11
-2828.15050320037
 21
2356.000148463893
 31
0.0
  0
LINE
  5
43C
330
1F
100
AcDbEntity
  8
0-3_仕上げ
  6
Continuous
 62
   120
370
     5
100
AcDbLine
 10
-2600.15050320037
 20
2346.000148463894
 30
0.0
 11
-2828.15050320037
 21
2346.000148463894
 31
0.0
  0
LINE
  5
43D
330
1F
100
AcDbEntity
  8
0-3_仕上げ
  6
Continuous
 62
   120
370
     5
100
AcDbLine
 10
-2600.15050320037
 20
2330.000148463893
 30
0.0
 11
-2828.15050320037
 21
2330.000148463893
 31
0.0
  0
LINE
  5
43E
330
1F
100
AcDbEntity
  8
0-3_仕上げ
  6
Continuous
 62
   120
370
     5
100
AcDbLine
 10
-2600.15050320037
 20
2320.000148463894
 30
0.0
 11
-2828.15050320037
 21
2320.000148463894
 31
0.0
  0
LINE
  5
43F
330
1F
100
AcDbEntity
  8
0-3_仕上げ
  6
Continuous
 62
   120
370
     5
100
AcDbLine
 10
-2600.15050320037
 20
2304.000148463894
 30
0.0
 11
-2828.15050320037
 21
2304.000148463894
 31
0.0
  0
LINE
  5
440
330
1F
100
AcDbEntity
  8
0-3_仕上げ
  6
Continuous
 62
   120
370
     5
100
AcDbLine
 10
-2600.15050320037
 20
2294.000148463893
 30
0.0
 11
-2828.15050320037
 21
2294.000148463893
 31
0.0
  0
LINE
  5
441
330
1F
100
AcDbEntity
  8
0-3_仕上げ
  6
Continuous
 62
   120
370
     5
100
AcDbLine
 10
-2600.15050320037
 20
2278.000148463893
 30
0.0
 11
-2828.15050320037
 21
2278.000148463893
 31
0.0
  0
LINE
  5
442
330
1F
100
AcDbEntity
  8
0-3_仕上げ
  6
Continuous
 62
   120
370
     5
100
AcDbLine
 10
-2600.15050320037
 20
2268.000148463893
 30
0.0
 11
-2828.15050320037
 21
2268.000148463893
 31
0.0
  0
LINE
  5
443
330
1F
100
AcDbEntity
  8
0-3_仕上げ
  6
Continuous
 62
   120
370
     5
100
AcDbLine
 10
-2600.15050320037
 20
2252.000148463893
 30
0.0
 11
-2828.15050320037
 21
2252.000148463893
 31
0.0
  0
LINE
  5
444
330
1F
100
AcDbEntity
  8
0-3_仕上げ
  6
Continuous
 62
   120
370
     5
100
AcDbLine
 10
-2600.15050320037
 20
2242.000148463893
 30
0.0
 11
-2828.15050320037
 21
2242.000148463893
 31
0.0
  0
LINE
  5
445
330
1F
100
AcDbEntity
  8
0-3_仕上げ
  6
Continuous
 62
   120
370
     5
100
AcDbLine
 10
-2600.15050320037
 20
2226.000148463893
 30
0.0
 11
-2828.15050320037
 21
2226.000148463893
 31
0.0
  0
LINE
  5
446
330
1F
100
AcDbEntity
  8
0-3_仕上げ
  6
Continuous
 62
   120
370
     5
100
AcDbLine
 10
-2600.15050320037
 20
2216.000148463893
 30
0.0
 11
-2828.15050320037
 21
2216.000148463893
 31
0.0
  0
LINE
  5
447
330
1F
100
AcDbEntity
  8
0-3_仕上げ
  6
Continuous
 62
   120
370
     5
100
AcDbLine
 10
-2600.15050320037
 20
2200.000148463893
 30
0.0
 11
-2828.15050320037
 21
2200.000148463893
 31
0.0
  0
LINE
  5
448
330
1F
100
AcDbEntity
  8
0-3_仕上げ
  6
Continuous
 62
   120
370
     5
100
AcDbLine
 10
-2600.15050320037
 20
2190.000148463893
 30
0.0
 11
-2828.15050320037
 21
2190.000148463893
 31
0.0
  0
LINE
  5
449
330
1F
100
AcDbEntity
  8
0-3_仕上げ
  6
Continuous
 62
   120
370
     5
100
AcDbLine
 10
-2600.15050320037
 20
2174.000148463893
 30
0.0
 11
-2828.15050320037
 21
2174.000148463893
 31
0.0
  0
LINE
  5
44A
330
1F
100
AcDbEntity
  8
0-3_仕上げ
  6
Continuous
 62
   120
370
     5
100
AcDbLine
 10
-2600.15050320037
 20
2164.000148463893
 30
0.0
 11
-2828.15050320037
 21
2164.000148463893
 31
0.0
  0
LINE
  5
44B
330
1F
100
AcDbEntity
  8
0-3_仕上げ
  6
Continuous
 62
   120
370
     5
100
AcDbLine
 10
-2600.15050320037
 20
2148.000148463893
 30
0.0
 11
-2828.15050320037
 21
2148.000148463893
 31
0.0
  0
LINE
  5
44C
330
1F
100
AcDbEntity
  8
0-3_仕上げ
  6
Continuous
 62
   120
370
     5
100
AcDbLine
 10
-2600.15050320037
 20
2138.000148463893
 30
0.0
 11
-2828.15050320037
 21
2138.000148463893
 31
0.0
  0
LINE
  5
44D
330
1F
100
AcDbEntity
  8
0-3_仕上げ
  6
Continuous
 62
   120
370
     5
100
AcDbLine
 10
-2600.15050320037
 20
2122.000148463893
 30
0.0
 11
-2828.15050320037
 21
2122.000148463893
 31
0.0
  0
LINE
  5
44E
330
1F
100
AcDbEntity
  8
0-3_仕上げ
  6
Continuous
 62
   120
370
     5
100
AcDbLine
 10
-2600.15050320037
 20
2112.000148463893
 30
0.0
 11
-2828.15050320037
 21
2112.000148463893
 31
0.0
  0
LINE
  5
44F
330
1F
100
AcDbEntity
  8
0-3_仕上げ
  6
Continuous
 62
   120
370
     5
100
AcDbLine
 10
-2600.15050320037
 20
2096.000148463893
 30
0.0
 11
-2828.15050320037
 21
2096.000148463893
 31
0.0
  0
LINE
  5
450
330
1F
100
AcDbEntity
  8
0-3_仕上げ
  6
Continuous
 62
   120
370
     5
100
AcDbLine
 10
-2600.15050320037
 20
2086.000148463893
 30
0.0
 11
-2828.15050320037
 21
2086.000148463893
 31
0.0
  0
LINE
  5
451
330
1F
100
AcDbEntity
  8
0-3_仕上げ
  6
Continuous
 62
   120
370
     5
100
AcDbLine
 10
-2600.15050320037
 20
2070.000148463892
 30
0.0
 11
-2828.15050320037
 21
2070.000148463892
 31
0.0
  0
LINE
  5
452
330
1F
100
AcDbEntity
  8
0-3_仕上げ
  6
Continuous
 62
   120
370
     5
100
AcDbLine
 10
-2600.15050320037
 20
2060.000148463893
 30
0.0
 11
-2828.15050320037
 21
2060.000148463893
 31
0.0
  0
LINE
  5
453
330
1F
100
AcDbEntity
  8
0-3_仕上げ
  6
Continuous
 62
   120
370
     5
100
AcDbLine
 10
-2600.15050320037
 20
2044.000148463893
 30
0.0
 11
-2828.15050320037
 21
2044.000148463893
 31
0.0
  0
LINE
  5
454
330
1F
100
AcDbEntity
  8
0-3_仕上げ
  6
Continuous
 62
   120
370
     5
100
AcDbLine
 10
-2600.15050320037
 20
2034.000148463893
 30
0.0
 11
-2828.15050320037
 21
2034.000148463893
 31
0.0
  0
LINE
  5
455
330
1F
100
AcDbEntity
  8
0-3_仕上げ
  6
Continuous
 62
   120
370
     5
100
AcDbLine
 10
-2600.15050320037
 20
2018.000148463893
 30
0.0
 11
-2828.15050320037
 21
2018.000148463893
 31
0.0
  0
LINE
  5
456
330
1F
100
AcDbEntity
  8
0-3_仕上げ
  6
Continuous
 62
   120
370
     5
100
AcDbLine
 10
-2600.15050320037
 20
2008.000148463893
 30
0.0
 11
-2828.15050320037
 21
2008.000148463893
 31
0.0
  0
LINE
  5
457
330
1F
100
AcDbEntity
  8
0-3_仕上げ
  6
Continuous
 62
   120
370
     5
100
AcDbLine
 10
-2600.15050320037
 20
1992.000148463893
 30
0.0
 11
-2828.15050320037
 21
1992.000148463893
 31
0.0
  0
LINE
  5
458
330
1F
100
AcDbEntity
  8
0-3_仕上げ
  6
Continuous
 62
   120
370
     5
100
AcDbLine
 10
-2600.15050320037
 20
1982.000148463892
 30
0.0
 11
-2828.15050320037
 21
1982.000148463892
 31
0.0
  0
LINE
  5
459
330
1F
100
AcDbEntity
  8
0-3_仕上げ
  6
Continuous
 62
   120
370
     5
100
AcDbLine
 10
-2600.15050320037
 20
1966.000148463891
 30
0.0
 11
-2828.15050320037
 21
1966.000148463891
 31
0.0
  0
LINE
  5
45A
330
1F
100
AcDbEntity
  8
0-3_仕上げ
  6
Continuous
 62
   120
370
     5
100
AcDbLine
 10
-2600.15050320037
 20
1956.000148463892
 30
0.0
 11
-2828.15050320037
 21
1956.000148463892
 31
0.0
  0
LINE
  5
45B
330
1F
100
AcDbEntity
  8
0-3_仕上げ
  6
Continuous
 62
   120
370
     5
100
AcDbLine
 10
-2600.15050320037
 20
1940.000148463892
 30
0.0
 11
-2828.15050320037
 21
1940.000148463892
 31
0.0
  0
LINE
  5
45C
330
1F
100
AcDbEntity
  8
0-3_仕上げ
  6
Continuous
 62
   120
370
     5
100
AcDbLine
 10
-2600.15050320037
 20
1930.000148463892
 30
0.0
 11
-2828.15050320037
 21
1930.000148463892
 31
0.0
  0
LINE
  5
45D
330
1F
100
AcDbEntity
  8
0-3_仕上げ
  6
Continuous
 62
   120
370
     5
100
AcDbLine
 10
-2600.15050320037
 20
1914.000148463893
 30
0.0
 11
-2828.15050320037
 21
1914.000148463893
 31
0.0
  0
LINE
  5
45E
330
1F
100
AcDbEntity
  8
0-3_仕上げ
  6
Continuous
 62
   120
370
     5
100
AcDbLine
 10
-2600.15050320037
 20
1904.000148463892
 30
0.0
 11
-2828.15050320037
 21
1904.000148463892
 31
0.0
  0
LINE
  5
45F
330
1F
100
AcDbEntity
  8
0-3_仕上げ
  6
Continuous
 62
   120
370
     5
100
AcDbLine
 10
-2600.15050320037
 20
1888.000148463893
 30
0.0
 11
-2828.15050320037
 21
1888.000148463893
 31
0.0
  0
LINE
  5
460
330
1F
100
AcDbEntity
  8
0-3_仕上げ
  6
Continuous
 62
   120
370
     5
100
AcDbLine
 10
-2600.15050320037
 20
1878.000148463892
 30
0.0
 11
-2828.15050320037
 21
1878.000148463892
 31
0.0
  0
LINE
  5
461
330
1F
100
AcDbEntity
  8
0-3_仕上げ
  6
Continuous
 62
   120
370
     5
100
AcDbLine
 10
-2600.15050320037
 20
1862.000148463892
 30
0.0
 11
-2828.15050320037
 21
1862.000148463892
 31
0.0
  0
LINE
  5
462
330
1F
100
AcDbEntity
  8
0-3_仕上げ
  6
Continuous
 62
   120
370
     5
100
AcDbLine
 10
-2600.15050320037
 20
1852.000148463892
 30
0.0
 11
-2828.15050320037
 21
1852.000148463892
 31
0.0
  0
LINE
  5
463
330
1F
100
AcDbEntity
  8
0-3_仕上げ
  6
Continuous
 62
   120
370
     5
100
AcDbLine
 10
-2600.15050320037
 20
1836.000148463892
 30
0.0
 11
-2828.15050320037
 21
1836.000148463892
 31
0.0
  0
LINE
  5
464
330
1F
100
AcDbEntity
  8
0-3_仕上げ
  6
Continuous
 62
   120
370
     5
100
AcDbLine
 10
-2600.15050320037
 20
1826.000148463892
 30
0.0
 11
-2828.15050320037
 21
1826.000148463892
 31
0.0
  0
LINE
  5
465
330
1F
100
AcDbEntity
  8
0-3_仕上げ
  6
Continuous
 62
   120
370
     5
100
AcDbLine
 10
-2600.15050320037
 20
1810.000148463892
 30
0.0
 11
-2828.15050320037
 21
1810.000148463892
 31
0.0
  0
LINE
  5
466
330
1F
100
AcDbEntity
  8
0-3_仕上げ
  6
Continuous
 62
   120
370
     5
100
AcDbLine
 10
-2600.15050320037
 20
1800.000148463892
 30
0.0
 11
-2828.15050320037
 21
1800.000148463892
 31
0.0
  0
LINE
  5
467
330
1F
100
AcDbEntity
  8
0-3_仕上げ
  6
Continuous
 62
   120
370
     5
100
AcDbLine
 10
-2600.15050320037
 20
1784.000148463892
 30
0.0
 11
-2828.15050320037
 21
1784.000148463892
 31
0.0
  0
LINE
  5
468
330
1F
100
AcDbEntity
  8
0-3_仕上げ
  6
Continuous
 62
   120
370
     5
100
AcDbLine
 10
-2600.15050320037
 20
1774.000148463891
 30
0.0
 11
-2828.15050320037
 21
1774.000148463891
 31
0.0
  0
LINE
  5
469
330
1F
100
AcDbEntity
  8
0-3_仕上げ
  6
Continuous
 62
   120
370
     5
100
AcDbLine
 10
-2600.15050320037
 20
1758.000148463891
 30
0.0
 11
-2828.15050320037
 21
1758.000148463891
 31
0.0
  0
LINE
  5
46A
330
1F
100
AcDbEntity
  8
0-3_仕上げ
  6
Continuous
 62
   120
370
     5
100
AcDbLine
 10
-2600.15050320037
 20
1748.000148463892
 30
0.0
 11
-2828.15050320037
 21
1748.000148463892
 31
0.0
  0
LINE
  5
46B
330
1F
100
AcDbEntity
  8
0-3_仕上げ
  6
Continuous
 62
   120
370
     5
100
AcDbLine
 10
-2600.15050320037
 20
1732.000148463891
 30
0.0
 11
-2828.15050320037
 21
1732.000148463891
 31
0.0
  0
LINE
  5
46C
330
1F
100
AcDbEntity
  8
0-3_仕上げ
  6
Continuous
 62
   120
370
     5
100
AcDbLine
 10
-2600.15050320037
 20
1722.000148463891
 30
0.0
 11
-2828.15050320037
 21
1722.000148463891
 31
0.0
  0
LINE
  5
46D
330
1F
100
AcDbEntity
  8
0-3_仕上げ
  6
Continuous
 62
   120
370
     5
100
AcDbLine
 10
-2600.15050320037
 20
1706.000148463892
 30
0.0
 11
-2828.15050320037
 21
1706.000148463892
 31
0.0
  0
LINE
  5
46E
330
1F
100
AcDbEntity
  8
0-3_仕上げ
  6
Continuous
 62
   120
370
     5
100
AcDbLine
 10
-2600.15050320037
 20
1592.000148463891
 30
0.0
 11
-2828.15050320037
 21
1592.000148463891
 31
0.0
  0
LINE
  5
46F
330
1F
100
AcDbEntity
  8
0-3_仕上げ
  6
Continuous
 62
   120
370
     5
100
AcDbLine
 10
-2600.15050320037
 20
1602.000148463891
 30
0.0
 11
-2828.15050320037
 21
1602.000148463891
 31
0.0
  0
LINE
  5
470
330
1F
100
AcDbEntity
  8
0-3_仕上げ
  6
Continuous
 62
   120
370
     5
100
AcDbLine
 10
-2600.15050320037
 20
1618.000148463891
 30
0.0
 11
-2828.15050320037
 21
1618.000148463891
 31
0.0
  0
LINE
  5
471
330
1F
100
AcDbEntity
  8
0-3_仕上げ
  6
Continuous
 62
   120
370
     5
100
AcDbLine
 10
-2600.15050320037
 20
1628.000148463891
 30
0.0
 11
-2828.15050320037
 21
1628.000148463891
 31
0.0
  0
LINE
  5
472
330
1F
100
AcDbEntity
  8
0-3_仕上げ
  6
Continuous
 62
   120
370
     5
100
AcDbLine
 10
-2600.15050320037
 20
1644.000148463891
 30
0.0
 11
-2828.15050320037
 21
1644.000148463891
 31
0.0
  0
LINE
  5
473
330
1F
100
AcDbEntity
  8
0-3_仕上げ
  6
Continuous
 62
   120
370
     5
100
AcDbLine
 10
-2600.15050320037
 20
1696.000148463891
 30
0.0
 11
-2828.15050320037
 21
1696.000148463891
 31
0.0
  0
LINE
  5
474
330
1F
100
AcDbEntity
  8
0-3_仕上げ
  6
Continuous
 62
   120
370
     5
100
AcDbLine
 10
-2600.15050320037
 20
1680.000148463892
 30
0.0
 11
-2828.15050320037
 21
1680.000148463892
 31
0.0
  0
LINE
  5
475
330
1F
100
AcDbEntity
  8
0-3_仕上げ
  6
Continuous
 62
   120
370
     5
100
AcDbLine
 10
-2600.15050320037
 20
1670.000148463891
 30
0.0
 11
-2828.15050320037
 21
1670.000148463891
 31
0.0
  0
LINE
  5
476
330
1F
100
AcDbEntity
  8
0-3_仕上げ
  6
Continuous
 62
   120
370
     5
100
AcDbLine
 10
-2600.15050320037
 20
1654.000148463891
 30
0.0
 11
-2828.15050320037
 21
1654.000148463891
 31
0.0
  0
LINE
  5
477
330
1F
100
AcDbEntity
  8
0-3_仕上げ
  6
Continuous
 62
   120
370
     5
100
AcDbLine
 10
-2605.15050320037
 20
1602.000148463891
 30
0.0
 11
-2605.15050320037
 21
1595.581095965814
 31
0.0
  0
LINE
  5
478
330
1F
100
AcDbEntity
  8
0-3_仕上げ
  6
Continuous
 62
   120
370
     5
100
AcDbLine
 10
-2600.15050320037
 20
1595.581095965814
 30
0.0
 11
-2605.15050320037
 21
1595.581095965814
 31
0.0
  0
LINE
  5
479
330
1F
100
AcDbEntity
  8
0-3_仕上げ
  6
Continuous
 62
   120
370
     5
100
AcDbLine
 10
-2605.15050320037
 20
1628.000148463891
 30
0.0
 11
-2605.15050320037
 21
1621.581095965813
 31
0.0
  0
LINE
  5
47A
330
1F
100
AcDbEntity
  8
0-3_仕上げ
  6
Continuous
 62
   120
370
     5
100
AcDbLine
 10
-2600.15050320037
 20
1621.581095965813
 30
0.0
 11
-2605.15050320037
 21
1621.581095965813
 31
0.0
  0
LINE
  5
47B
330
1F
100
AcDbEntity
  8
0-3_仕上げ
  6
Continuous
 62
   120
370
     5
100
AcDbLine
 10
-2605.15050320037
 20
1654.000148463891
 30
0.0
 11
-2605.15050320037
 21
1647.581095965814
 31
0.0
  0
LINE
  5
47C
330
1F
100
AcDbEntity
  8
0-3_仕上げ
  6
Continuous
 62
   120
370
     5
100
AcDbLine
 10
-2600.15050320037
 20
1647.581095965814
 30
0.0
 11
-2605.15050320037
 21
1647.581095965814
 31
0.0
  0
LINE
  5
47D
330
1F
100
AcDbEntity
  8
0-3_仕上げ
  6
Continuous
 62
   120
370
     5
100
AcDbLine
 10
-2605.15050320037
 20
1680.000148463892
 30
0.0
 11
-2605.15050320037
 21
1673.581095965814
 31
0.0
  0
LINE
  5
47E
330
1F
100
AcDbEntity
  8
0-3_仕上げ
  6
Continuous
 62
   120
370
     5
100
AcDbLine
 10
-2600.15050320037
 20
1673.581095965814
 30
0.0
 11
-2605.15050320037
 21
1673.581095965814
 31
0.0
  0
LINE
  5
47F
330
1F
100
AcDbEntity
  8
0-3_仕上げ
  6
Continuous
 62
   120
370
     5
100
AcDbLine
 10
-2605.15050320037
 20
1706.000148463892
 30
0.0
 11
-2605.15050320037
 21
1699.581095965814
 31
0.0
  0
LINE
  5
480
330
1F
100
AcDbEntity
  8
0-3_仕上げ
  6
Continuous
 62
   120
370
     5
100
AcDbLine
 10
-2600.15050320037
 20
1699.581095965814
 30
0.0
 11
-2605.15050320037
 21
1699.581095965814
 31
0.0
  0
LINE
  5
481
330
1F
100
AcDbEntity
  8
0-3_仕上げ
  6
Continuous
 62
   120
370
     5
100
AcDbLine
 10
-2605.15050320037
 20
1732.000148463891
 30
0.0
 11
-2605.15050320037
 21
1725.581095965814
 31
0.0
  0
LINE
  5
482
330
1F
100
AcDbEntity
  8
0-3_仕上げ
  6
Continuous
 62
   120
370
     5
100
AcDbLine
 10
-2600.15050320037
 20
1725.581095965814
 30
0.0
 11
-2605.15050320037
 21
1725.581095965814
 31
0.0
  0
LINE
  5
483
330
1F
100
AcDbEntity
  8
0-3_仕上げ
  6
Continuous
 62
   120
370
     5
100
AcDbLine
 10
-2605.15050320037
 20
1758.000148463891
 30
0.0
 11
-2605.15050320037
 21
1751.581095965814
 31
0.0
  0
LINE
  5
484
330
1F
100
AcDbEntity
  8
0-3_仕上げ
  6
Continuous
 62
   120
370
     5
100
AcDbLine
 10
-2600.15050320037
 20
1751.581095965814
 30
0.0
 11
-2605.15050320037
 21
1751.581095965814
 31
0.0
  0
LINE
  5
485
330
1F
100
AcDbEntity
  8
0-3_仕上げ
  6
Continuous
 62
   120
370
     5
100
AcDbLine
 10
-2605.15050320037
 20
1784.000148463892
 30
0.0
 11
-2605.15050320037
 21
1777.581095965814
 31
0.0
  0
LINE
  5
486
330
1F
100
AcDbEntity
  8
0-3_仕上げ
  6
Continuous
 62
   120
370
     5
100
AcDbLine
 10
-2600.15050320037
 20
1777.581095965814
 30
0.0
 11
-2605.15050320037
 21
1777.581095965814
 31
0.0
  0
LINE
  5
487
330
1F
100
AcDbEntity
  8
0-3_仕上げ
  6
Continuous
 62
   120
370
     5
100
AcDbLine
 10
-2605.15050320037
 20
1810.000148463892
 30
0.0
 11
-2605.15050320037
 21
1803.581095965814
 31
0.0
  0
LINE
  5
488
330
1F
100
AcDbEntity
  8
0-3_仕上げ
  6
Continuous
 62
   120
370
     5
100
AcDbLine
 10
-2600.15050320037
 20
1803.581095965814
 30
0.0
 11
-2605.15050320037
 21
1803.581095965814
 31
0.0
  0
LINE
  5
489
330
1F
100
AcDbEntity
  8
0-3_仕上げ
  6
Continuous
 62
   120
370
     5
100
AcDbLine
 10
-2605.15050320037
 20
1836.000148463892
 30
0.0
 11
-2605.15050320037
 21
1829.581095965814
 31
0.0
  0
LINE
  5
48A
330
1F
100
AcDbEntity
  8
0-3_仕上げ
  6
Continuous
 62
   120
370
     5
100
AcDbLine
 10
-2600.15050320037
 20
1829.581095965814
 30
0.0
 11
-2605.15050320037
 21
1829.581095965814
 31
0.0
  0
LINE
  5
48B
330
1F
100
AcDbEntity
  8
0-3_仕上げ
  6
Continuous
 62
   120
370
     5
100
AcDbLine
 10
-2605.15050320037
 20
1862.000148463892
 30
0.0
 11
-2605.15050320037
 21
1855.581095965814
 31
0.0
  0
LINE
  5
48C
330
1F
100
AcDbEntity
  8
0-3_仕上げ
  6
Continuous
 62
   120
370
     5
100
AcDbLine
 10
-2600.15050320037
 20
1855.581095965814
 30
0.0
 11
-2605.15050320037
 21
1855.581095965814
 31
0.0
  0
LINE
  5
48D
330
1F
100
AcDbEntity
  8
0-3_仕上げ
  6
Continuous
 62
   120
370
     5
100
AcDbLine
 10
-2605.15050320037
 20
1888.000148463893
 30
0.0
 11
-2605.15050320037
 21
1881.581095965815
 31
0.0
  0
LINE
  5
48E
330
1F
100
AcDbEntity
  8
0-3_仕上げ
  6
Continuous
 62
   120
370
     5
100
AcDbLine
 10
-2600.15050320037
 20
1881.581095965815
 30
0.0
 11
-2605.15050320037
 21
1881.581095965815
 31
0.0
  0
LINE
  5
48F
330
1F
100
AcDbEntity
  8
0-3_仕上げ
  6
Continuous
 62
   120
370
     5
100
AcDbLine
 10
-2605.15050320037
 20
1914.000148463893
 30
0.0
 11
-2605.15050320037
 21
1907.581095965815
 31
0.0
  0
LINE
  5
490
330
1F
100
AcDbEntity
  8
0-3_仕上げ
  6
Continuous
 62
   120
370
     5
100
AcDbLine
 10
-2600.15050320037
 20
1907.581095965815
 30
0.0
 11
-2605.15050320037
 21
1907.581095965815
 31
0.0
  0
LINE
  5
491
330
1F
100
AcDbEntity
  8
0-3_仕上げ
  6
Continuous
 62
   120
370
     5
100
AcDbLine
 10
-2605.15050320037
 20
1940.000148463892
 30
0.0
 11
-2605.15050320037
 21
1933.581095965815
 31
0.0
  0
LINE
  5
492
330
1F
100
AcDbEntity
  8
0-3_仕上げ
  6
Continuous
 62
   120
370
     5
100
AcDbLine
 10
-2600.15050320037
 20
1933.581095965815
 30
0.0
 11
-2605.15050320037
 21
1933.581095965815
 31
0.0
  0
LINE
  5
493
330
1F
100
AcDbEntity
  8
0-3_仕上げ
  6
Continuous
 62
   120
370
     5
100
AcDbLine
 10
-2605.15050320037
 20
1966.000148463891
 30
0.0
 11
-2605.15050320037
 21
1959.581095965815
 31
0.0
  0
LINE
  5
494
330
1F
100
AcDbEntity
  8
0-3_仕上げ
  6
Continuous
 62
   120
370
     5
100
AcDbLine
 10
-2600.15050320037
 20
1959.581095965815
 30
0.0
 11
-2605.15050320037
 21
1959.581095965815
 31
0.0
  0
LINE
  5
495
330
1F
100
AcDbEntity
  8
0-3_仕上げ
  6
Continuous
 62
   120
370
     5
100
AcDbLine
 10
-2605.15050320037
 20
1992.000148463893
 30
0.0
 11
-2605.15050320037
 21
1985.581095965815
 31
0.0
  0
LINE
  5
496
330
1F
100
AcDbEntity
  8
0-3_仕上げ
  6
Continuous
 62
   120
370
     5
100
AcDbLine
 10
-2600.15050320037
 20
1985.581095965815
 30
0.0
 11
-2605.15050320037
 21
1985.581095965815
 31
0.0
  0
LINE
  5
497
330
1F
100
AcDbEntity
  8
0-3_仕上げ
  6
Continuous
 62
   120
370
     5
100
AcDbLine
 10
-2605.15050320037
 20
2018.000148463893
 30
0.0
 11
-2605.15050320037
 21
2011.581095965815
 31
0.0
  0
LINE
  5
498
330
1F
100
AcDbEntity
  8
0-3_仕上げ
  6
Continuous
 62
   120
370
     5
100
AcDbLine
 10
-2600.15050320037
 20
2011.581095965815
 30
0.0
 11
-2605.15050320037
 21
2011.581095965815
 31
0.0
  0
LINE
  5
499
330
1F
100
AcDbEntity
  8
0-3_仕上げ
  6
Continuous
 62
   120
370
     5
100
AcDbLine
 10
-2605.15050320037
 20
2044.000148463893
 30
0.0
 11
-2605.15050320037
 21
2037.581095965815
 31
0.0
  0
LINE
  5
49A
330
1F
100
AcDbEntity
  8
0-3_仕上げ
  6
Continuous
 62
   120
370
     5
100
AcDbLine
 10
-2600.15050320037
 20
2037.581095965815
 30
0.0
 11
-2605.15050320037
 21
2037.581095965815
 31
0.0
  0
LINE
  5
49B
330
1F
100
AcDbEntity
  8
0-3_仕上げ
  6
Continuous
 62
   120
370
     5
100
AcDbLine
 10
-2605.15050320037
 20
2070.000148463892
 30
0.0
 11
-2605.15050320037
 21
2063.581095965816
 31
0.0
  0
LINE
  5
49C
330
1F
100
AcDbEntity
  8
0-3_仕上げ
  6
Continuous
 62
   120
370
     5
100
AcDbLine
 10
-2600.15050320037
 20
2063.581095965816
 30
0.0
 11
-2605.15050320037
 21
2063.581095965816
 31
0.0
  0
LINE
  5
49D
330
1F
100
AcDbEntity
  8
0-3_仕上げ
  6
Continuous
 62
   120
370
     5
100
AcDbLine
 10
-2605.15050320037
 20
2096.000148463893
 30
0.0
 11
-2605.15050320037
 21
2089.581095965816
 31
0.0
  0
LINE
  5
49E
330
1F
100
AcDbEntity
  8
0-3_仕上げ
  6
Continuous
 62
   120
370
     5
100
AcDbLine
 10
-2600.15050320037
 20
2089.581095965816
 30
0.0
 11
-2605.15050320037
 21
2089.581095965816
 31
0.0
  0
LINE
  5
49F
330
1F
100
AcDbEntity
  8
0-3_仕上げ
  6
Continuous
 62
   120
370
     5
100
AcDbLine
 10
-2605.15050320037
 20
2122.000148463893
 30
0.0
 11
-2605.15050320037
 21
2115.581095965815
 31
0.0
  0
LINE
  5
4A0
330
1F
100
AcDbEntity
  8
0-3_仕上げ
  6
Continuous
 62
   120
370
     5
100
AcDbLine
 10
-2600.15050320037
 20
2115.581095965815
 30
0.0
 11
-2605.15050320037
 21
2115.581095965815
 31
0.0
  0
LINE
  5
4A1
330
1F
100
AcDbEntity
  8
0-3_仕上げ
  6
Continuous
 62
   120
370
     5
100
AcDbLine
 10
-2605.15050320037
 20
2148.000148463893
 30
0.0
 11
-2605.15050320037
 21
2141.581095965815
 31
0.0
  0
LINE
  5
4A2
330
1F
100
AcDbEntity
  8
0-3_仕上げ
  6
Continuous
 62
   120
370
     5
100
AcDbLine
 10
-2600.15050320037
 20
2141.581095965815
 30
0.0
 11
-2605.15050320037
 21
2141.581095965815
 31
0.0
  0
LINE
  5
4A3
330
1F
100
AcDbEntity
  8
0-3_仕上げ
  6
Continuous
 62
   120
370
     5
100
AcDbLine
 10
-2605.15050320037
 20
2174.000148463893
 30
0.0
 11
-2605.15050320037
 21
2167.581095965816
 31
0.0
  0
LINE
  5
4A4
330
1F
100
AcDbEntity
  8
0-3_仕上げ
  6
Continuous
 62
   120
370
     5
100
AcDbLine
 10
-2600.15050320037
 20
2167.581095965816
 30
0.0
 11
-2605.15050320037
 21
2167.581095965816
 31
0.0
  0
LINE
  5
4A5
330
1F
100
AcDbEntity
  8
0-3_仕上げ
  6
Continuous
 62
   120
370
     5
100
AcDbLine
 10
-2605.15050320037
 20
2200.000148463893
 30
0.0
 11
-2605.15050320037
 21
2193.581095965816
 31
0.0
  0
LINE
  5
4A6
330
1F
100
AcDbEntity
  8
0-3_仕上げ
  6
Continuous
 62
   120
370
     5
100
AcDbLine
 10
-2600.15050320037
 20
2193.581095965816
 30
0.0
 11
-2605.15050320037
 21
2193.581095965816
 31
0.0
  0
LINE
  5
4A7
330
1F
100
AcDbEntity
  8
0-3_仕上げ
  6
Continuous
 62
   120
370
     5
100
AcDbLine
 10
-2605.15050320037
 20
2226.000148463893
 30
0.0
 11
-2605.15050320037
 21
2219.581095965816
 31
0.0
  0
LINE
  5
4A8
330
1F
100
AcDbEntity
  8
0-3_仕上げ
  6
Continuous
 62
   120
370
     5
100
AcDbLine
 10
-2600.15050320037
 20
2219.581095965816
 30
0.0
 11
-2605.15050320037
 21
2219.581095965816
 31
0.0
  0
LINE
  5
4A9
330
1F
100
AcDbEntity
  8
0-3_仕上げ
  6
Continuous
 62
   120
370
     5
100
AcDbLine
 10
-2605.15050320037
 20
2252.000148463893
 30
0.0
 11
-2605.15050320037
 21
2245.581095965816
 31
0.0
  0
LINE
  5
4AA
330
1F
100
AcDbEntity
  8
0-3_仕上げ
  6
Continuous
 62
   120
370
     5
100
AcDbLine
 10
-2600.15050320037
 20
2245.581095965816
 30
0.0
 11
-2605.15050320037
 21
2245.581095965816
 31
0.0
  0
LINE
  5
4AB
330
1F
100
AcDbEntity
  8
0-3_仕上げ
  6
Continuous
 62
   120
370
     5
100
AcDbLine
 10
-2605.15050320037
 20
2278.000148463893
 30
0.0
 11
-2605.15050320037
 21
2271.581095965816
 31
0.0
  0
LINE
  5
4AC
330
1F
100
AcDbEntity
  8
0-3_仕上げ
  6
Continuous
 62
   120
370
     5
100
AcDbLine
 10
-2600.15050320037
 20
2271.581095965816
 30
0.0
 11
-2605.15050320037
 21
2271.581095965816
 31
0.0
  0
LINE
  5
4AD
330
1F
100
AcDbEntity
  8
0-3_仕上げ
  6
Continuous
 62
   120
370
     5
100
AcDbLine
 10
-2605.15050320037
 20
2304.000148463894
 30
0.0
 11
-2605.15050320037
 21
2297.581095965816
 31
0.0
  0
LINE
  5
4AE
330
1F
100
AcDbEntity
  8
0-3_仕上げ
  6
Continuous
 62
   120
370
     5
100
AcDbLine
 10
-2600.15050320037
 20
2297.581095965816
 30
0.0
 11
-2605.15050320037
 21
2297.581095965816
 31
0.0
  0
LINE
  5
4AF
330
1F
100
AcDbEntity
  8
0-3_仕上げ
  6
Continuous
 62
   120
370
     5
100
AcDbLine
 10
-2605.15050320037
 20
2330.000148463893
 30
0.0
 11
-2605.15050320037
 21
2323.581095965816
 31
0.0
  0
LINE
  5
4B0
330
1F
100
AcDbEntity
  8
0-3_仕上げ
  6
Continuous
 62
   120
370
     5
100
AcDbLine
 10
-2600.15050320037
 20
2323.581095965816
 30
0.0
 11
-2605.15050320037
 21
2323.581095965816
 31
0.0
  0
LINE
  5
4B1
330
1F
100
AcDbEntity
  8
0-3_仕上げ
  6
Continuous
 62
   120
370
     5
100
AcDbLine
 10
-2605.15050320037
 20
2356.000148463893
 30
0.0
 11
-2605.15050320037
 21
2349.581095965816
 31
0.0
  0
LINE
  5
4B2
330
1F
100
AcDbEntity
  8
0-3_仕上げ
  6
Continuous
 62
   120
370
     5
100
AcDbLine
 10
-2600.15050320037
 20
2349.581095965816
 30
0.0
 11
-2605.15050320037
 21
2349.581095965816
 31
0.0
  0
LINE
  5
4B3
330
1F
100
AcDbEntity
  8
0-3_仕上げ
  6
Continuous
 62
   120
370
     5
100
AcDbLine
 10
-2605.15050320037
 20
2382.000148463893
 30
0.0
 11
-2605.15050320037
 21
2375.581095965816
 31
0.0
  0
LINE
  5
4B4
330
1F
100
AcDbEntity
  8
0-3_仕上げ
  6
Continuous
 62
   120
370
     5
100
AcDbLine
 10
-2600.15050320037
 20
2375.581095965816
 30
0.0
 11
-2605.15050320037
 21
2375.581095965816
 31
0.0
  0
LINE
  5
4B5
330
1F
100
AcDbEntity
  8
0-3_仕上げ
  6
Continuous
 62
   120
370
     5
100
AcDbLine
 10
-2605.15050320037
 20
2408.000148463894
 30
0.0
 11
-2605.15050320037
 21
2401.581095965816
 31
0.0
  0
LINE
  5
4B6
330
1F
100
AcDbEntity
  8
0-3_仕上げ
  6
Continuous
 62
   120
370
     5
100
AcDbLine
 10
-2600.15050320037
 20
2401.581095965816
 30
0.0
 11
-2605.15050320037
 21
2401.581095965816
 31
0.0
  0
LINE
  5
4B7
330
1F
100
AcDbEntity
  8
0-3_仕上げ
  6
Continuous
 62
   120
370
     5
100
AcDbLine
 10
-2605.15050320037
 20
2434.000148463894
 30
0.0
 11
-2605.15050320037
 21
2427.581095965816
 31
0.0
  0
LINE
  5
4B8
330
1F
100
AcDbEntity
  8
0-3_仕上げ
  6
Continuous
 62
   120
370
     5
100
AcDbLine
 10
-2600.15050320037
 20
2427.581095965816
 30
0.0
 11
-2605.15050320037
 21
2427.581095965816
 31
0.0
  0
LINE
  5
4B9
330
1F
100
AcDbEntity
  8
0-3_仕上げ
  6
Continuous
 62
   120
370
     5
100
AcDbLine
 10
-2605.15050320037
 20
2460.000148463894
 30
0.0
 11
-2605.15050320037
 21
2453.581095965816
 31
0.0
  0
LINE
  5
4BA
330
1F
100
AcDbEntity
  8
0-3_仕上げ
  6
Continuous
 62
   120
370
     5
100
AcDbLine
 10
-2600.15050320037
 20
2453.581095965816
 30
0.0
 11
-2605.15050320037
 21
2453.581095965816
 31
0.0
  0
LINE
  5
4BB
330
1F
100
AcDbEntity
  8
0-3_仕上げ
  6
Continuous
 62
   120
370
     5
100
AcDbLine
 10
-2605.15050320037
 20
2486.000148463894
 30
0.0
 11
-2605.15050320037
 21
2479.581095965817
 31
0.0
  0
LINE
  5
4BC
330
1F
100
AcDbEntity
  8
0-3_仕上げ
  6
Continuous
 62
   120
370
     5
100
AcDbLine
 10
-2600.15050320037
 20
2479.581095965817
 30
0.0
 11
-2605.15050320037
 21
2479.581095965817
 31
0.0
  0
LINE
  5
4BD
330
1F
100
AcDbEntity
  8
0-3_仕上げ
  6
Continuous
 62
   120
370
     5
100
AcDbLine
 10
-2605.15050320037
 20
2512.000148463895
 30
0.0
 11
-2605.15050320037
 21
2505.581095965817
 31
0.0
  0
LINE
  5
4BE
330
1F
100
AcDbEntity
  8
0-3_仕上げ
  6
Continuous
 62
   120
370
     5
100
AcDbLine
 10
-2600.15050320037
 20
2505.581095965817
 30
0.0
 11
-2605.15050320037
 21
2505.581095965817
 31
0.0
  0
LINE
  5
4BF
330
1F
100
AcDbEntity
  8
0-3_仕上げ
  6
Continuous
 62
   120
370
     5
100
AcDbLine
 10
-2605.15050320037
 20
2538.000148463895
 30
0.0
 11
-2605.15050320037
 21
2531.581095965817
 31
0.0
  0
LINE
  5
4C0
330
1F
100
AcDbEntity
  8
0-3_仕上げ
  6
Continuous
 62
   120
370
     5
100
AcDbLine
 10
-2600.15050320037
 20
2531.581095965817
 30
0.0
 11
-2605.15050320037
 21
2531.581095965817
 31
0.0
  0
LINE
  5
4C1
330
1F
100
AcDbEntity
  8
0-3_仕上げ
  6
Continuous
 62
   120
370
     5
100
AcDbLine
 10
-2605.15050320037
 20
2564.000148463894
 30
0.0
 11
-2605.15050320037
 21
2557.581095965817
 31
0.0
  0
LINE
  5
4C2
330
1F
100
AcDbEntity
  8
0-3_仕上げ
  6
Continuous
 62
   120
370
     5
100
AcDbLine
 10
-2600.15050320037
 20
2557.581095965817
 30
0.0
 11
-2605.15050320037
 21
2557.581095965817
 31
0.0
  0
LINE
  5
4C3
330
1F
100
AcDbEntity
  8
0-3_仕上げ
  6
Continuous
 62
   120
370
     5
100
AcDbLine
 10
-2605.15050320037
 20
2590.000148463895
 30
0.0
 11
-2605.15050320037
 21
2583.581095965817
 31
0.0
  0
LINE
  5
4C4
330
1F
100
AcDbEntity
  8
0-3_仕上げ
  6
Continuous
 62
   120
370
     5
100
AcDbLine
 10
-2600.15050320037
 20
2583.581095965817
 30
0.0
 11
-2605.15050320037
 21
2583.581095965817
 31
0.0
  0
LINE
  5
4C5
330
1F
100
AcDbEntity
  8
0-3_仕上げ
  6
Continuous
 62
   120
370
     5
100
AcDbLine
 10
-2605.15050320037
 20
2616.000148463895
 30
0.0
 11
-2605.15050320037
 21
2609.581095965817
 31
0.0
  0
LINE
  5
4C6
330
1F
100
AcDbEntity
  8
0-3_仕上げ
  6
Continuous
 62
   120
370
     5
100
AcDbLine
 10
-2600.15050320037
 20
2609.581095965817
 30
0.0
 11
-2605.15050320037
 21
2609.581095965817
 31
0.0
  0
LINE
  5
4C7
330
1F
100
AcDbEntity
  8
0-3_仕上げ
  6
Continuous
 62
   120
370
     5
100
AcDbLine
 10
-2605.15050320037
 20
2642.000148463895
 30
0.0
 11
-2605.15050320037
 21
2635.581095965817
 31
0.0
  0
LINE
  5
4C8
330
1F
100
AcDbEntity
  8
0-3_仕上げ
  6
Continuous
 62
   120
370
     5
100
AcDbLine
 10
-2600.15050320037
 20
2635.581095965817
 30
0.0
 11
-2605.15050320037
 21
2635.581095965817
 31
0.0
  0
LINE
  5
4C9
330
1F
100
AcDbEntity
  8
0-3_仕上げ
  6
Continuous
 62
   120
370
     5
100
AcDbLine
 10
-2605.15050320037
 20
2668.000148463894
 30
0.0
 11
-2605.15050320037
 21
2661.581095965817
 31
0.0
  0
LINE
  5
4CA
330
1F
100
AcDbEntity
  8
0-3_仕上げ
  6
Continuous
 62
   120
370
     5
100
AcDbLine
 10
-2600.15050320037
 20
2661.581095965817
 30
0.0
 11
-2605.15050320037
 21
2661.581095965817
 31
0.0
  0
LINE
  5
4CB
330
1F
100
AcDbEntity
  8
0-3_仕上げ
  6
Continuous
 62
   120
370
     5
100
AcDbLine
 10
-2605.15050320037
 20
2694.000148463895
 30
0.0
 11
-2605.15050320037
 21
2687.581095965817
 31
0.0
  0
LINE
  5
4CC
330
1F
100
AcDbEntity
  8
0-3_仕上げ
  6
Continuous
 62
   120
370
     5
100
AcDbLine
 10
-2600.15050320037
 20
2687.581095965817
 30
0.0
 11
-2605.15050320037
 21
2687.581095965817
 31
0.0
  0
LINE
  5
4CD
330
1F
100
AcDbEntity
  8
0-3_仕上げ
  6
Continuous
 62
   120
370
     5
100
AcDbLine
 10
-2605.15050320037
 20
2720.000148463895
 30
0.0
 11
-2605.15050320037
 21
2713.581095965817
 31
0.0
  0
LINE
  5
4CE
330
1F
100
AcDbEntity
  8
0-3_仕上げ
  6
Continuous
 62
   120
370
     5
100
AcDbLine
 10
-2600.15050320037
 20
2713.581095965817
 30
0.0
 11
-2605.15050320037
 21
2713.581095965817
 31
0.0
  0
LINE
  5
4CF
330
1F
100
AcDbEntity
  8
0-3_仕上げ
  6
Continuous
 62
   120
370
     5
100
AcDbLine
 10
-2605.15050320037
 20
2746.000148463895
 30
0.0
 11
-2605.15050320037
 21
2739.581095965817
 31
0.0
  0
LINE
  5
4D0
330
1F
100
AcDbEntity
  8
0-3_仕上げ
  6
Continuous
 62
   120
370
     5
100
AcDbLine
 10
-2600.15050320037
 20
2739.581095965817
 30
0.0
 11
-2605.15050320037
 21
2739.581095965817
 31
0.0
  0
LINE
  5
4D1
330
1F
100
AcDbEntity
  8
0-3_仕上げ
  6
Continuous
 62
   120
370
     5
100
AcDbLine
 10
-2605.15050320037
 20
2772.000148463895
 30
0.0
 11
-2605.15050320037
 21
2765.581095965817
 31
0.0
  0
LINE
  5
4D2
330
1F
100
AcDbEntity
  8
0-3_仕上げ
  6
Continuous
 62
   120
370
     5
100
AcDbLine
 10
-2600.15050320037
 20
2765.581095965817
 30
0.0
 11
-2605.15050320037
 21
2765.581095965817
 31
0.0
  0
LINE
  5
4D3
330
1F
100
AcDbEntity
  8
0-3_仕上げ
  6
Continuous
 62
   120
370
     5
100
AcDbLine
 10
-2605.15050320037
 20
2798.000148463895
 30
0.0
 11
-2605.15050320037
 21
2791.581095965817
 31
0.0
  0
LINE
  5
4D4
330
1F
100
AcDbEntity
  8
0-3_仕上げ
  6
Continuous
 62
   120
370
     5
100
AcDbLine
 10
-2600.15050320037
 20
2791.581095965817
 30
0.0
 11
-2605.15050320037
 21
2791.581095965817
 31
0.0
  0
LINE
  5
4D5
330
1F
100
AcDbEntity
  8
0-3_仕上げ
  6
Continuous
 62
   120
370
     5
100
AcDbLine
 10
-2605.15050320037
 20
2824.000148463895
 30
0.0
 11
-2605.15050320037
 21
2817.581095965818
 31
0.0
  0
LINE
  5
4D6
330
1F
100
AcDbEntity
  8
0-3_仕上げ
  6
Continuous
 62
   120
370
     5
100
AcDbLine
 10
-2600.15050320037
 20
2817.581095965818
 30
0.0
 11
-2605.15050320037
 21
2817.581095965818
 31
0.0
  0
LINE
  5
4D7
330
1F
100
AcDbEntity
  8
0-3_仕上げ
  6
Continuous
 62
   120
370
     5
100
AcDbLine
 10
-2605.15050320037
 20
2850.000148463895
 30
0.0
 11
-2605.15050320037
 21
2843.581095965817
 31
0.0
  0
LINE
  5
4D8
330
1F
100
AcDbEntity
  8
0-3_仕上げ
  6
Continuous
 62
   120
370
     5
100
AcDbLine
 10
-2600.15050320037
 20
2843.581095965817
 30
0.0
 11
-2605.15050320037
 21
2843.581095965817
 31
0.0
  0
LINE
  5
4D9
330
1F
100
AcDbEntity
  8
0-3_仕上げ
  6
Continuous
 62
   120
370
     5
100
AcDbLine
 10
-2605.15050320037
 20
2876.000148463895
 30
0.0
 11
-2605.15050320037
 21
2869.581095965817
 31
0.0
  0
LINE
  5
4DA
330
1F
100
AcDbEntity
  8
0-3_仕上げ
  6
Continuous
 62
   120
370
     5
100
AcDbLine
 10
-2600.15050320037
 20
2869.581095965817
 30
0.0
 11
-2605.15050320037
 21
2869.581095965817
 31
0.0
  0
LINE
  5
4DB
330
1F
100
AcDbEntity
  8
0-3_仕上げ
  6
Continuous
 62
   120
370
     5
100
AcDbLine
 10
-2605.15050320037
 20
2902.000148463896
 30
0.0
 11
-2605.15050320037
 21
2895.581095965817
 31
0.0
  0
LINE
  5
4DC
330
1F
100
AcDbEntity
  8
0-3_仕上げ
  6
Continuous
 62
   120
370
     5
100
AcDbLine
 10
-2600.15050320037
 20
2895.581095965817
 30
0.0
 11
-2605.15050320037
 21
2895.581095965817
 31
0.0
  0
LINE
  5
4DD
330
1F
100
AcDbEntity
  8
0-3_仕上げ
  6
Continuous
 62
   120
370
     5
100
AcDbLine
 10
-2605.15050320037
 20
2928.000148463896
 30
0.0
 11
-2605.15050320037
 21
2921.581095965818
 31
0.0
  0
LINE
  5
4DE
330
1F
100
AcDbEntity
  8
0-3_仕上げ
  6
Continuous
 62
   120
370
     5
100
AcDbLine
 10
-2600.15050320037
 20
2921.581095965818
 30
0.0
 11
-2605.15050320037
 21
2921.581095965818
 31
0.0
  0
LINE
  5
4DF
330
1F
100
AcDbEntity
  8
0-3_仕上げ
  6
Continuous
 62
   120
370
     5
100
AcDbLine
 10
-2605.15050320037
 20
2954.000148463896
 30
0.0
 11
-2605.15050320037
 21
2947.581095965818
 31
0.0
  0
LINE
  5
4E0
330
1F
100
AcDbEntity
  8
0-3_仕上げ
  6
Continuous
 62
   120
370
     5
100
AcDbLine
 10
-2600.15050320037
 20
2947.581095965818
 30
0.0
 11
-2605.15050320037
 21
2947.581095965818
 31
0.0
  0
LINE
  5
4E1
330
1F
100
AcDbEntity
  8
0-3_仕上げ
  6
Continuous
 62
   120
370
     5
100
AcDbLine
 10
-2605.15050320037
 20
2980.000148463895
 30
0.0
 11
-2605.15050320037
 21
2973.581095965818
 31
0.0
  0
LINE
  5
4E2
330
1F
100
AcDbEntity
  8
0-3_仕上げ
  6
Continuous
 62
   120
370
     5
100
AcDbLine
 10
-2600.15050320037
 20
2973.581095965818
 30
0.0
 11
-2605.15050320037
 21
2973.581095965818
 31
0.0
  0
LINE
  5
4E3
330
1F
100
AcDbEntity
  8
0-3_仕上げ
  6
Continuous
 62
   120
370
     5
100
AcDbLine
 10
-2605.15050320037
 20
3006.000148463896
 30
0.0
 11
-2605.15050320037
 21
2999.581095965818
 31
0.0
  0
LINE
  5
4E4
330
1F
100
AcDbEntity
  8
0-3_仕上げ
  6
Continuous
 62
   120
370
     5
100
AcDbLine
 10
-2600.15050320037
 20
2999.581095965818
 30
0.0
 11
-2605.15050320037
 21
2999.581095965818
 31
0.0
  0
LINE
  5
4E5
330
1F
100
AcDbEntity
  8
0-3_仕上げ
  6
Continuous
 62
   120
370
     5
100
AcDbLine
 10
-2605.15050320037
 20
3032.000148463896
 30
0.0
 11
-2605.15050320037
 21
3025.581095965818
 31
0.0
  0
LINE
  5
4E6
330
1F
100
AcDbEntity
  8
0-3_仕上げ
  6
Continuous
 62
   120
370
     5
100
AcDbLine
 10
-2600.15050320037
 20
3025.581095965818
 30
0.0
 11
-2605.15050320037
 21
3025.581095965818
 31
0.0
  0
LINE
  5
4E7
330
1F
100
AcDbEntity
  8
0-3_仕上げ
  6
Continuous
 62
   120
370
     5
100
AcDbLine
 10
-2605.15050320037
 20
3058.000148463896
 30
0.0
 11
-2605.15050320037
 21
3051.581095965818
 31
0.0
  0
LINE
  5
4E8
330
1F
100
AcDbEntity
  8
0-3_仕上げ
  6
Continuous
 62
   120
370
     5
100
AcDbLine
 10
-2600.15050320037
 20
3051.581095965818
 30
0.0
 11
-2605.15050320037
 21
3051.581095965818
 31
0.0
  0
LINE
  5
4E9
330
1F
100
AcDbEntity
  8
0-3_仕上げ
  6
Continuous
 62
   120
370
     5
100
AcDbLine
 10
-2605.15050320037
 20
3084.000148463896
 30
0.0
 11
-2605.15050320037
 21
3077.581095965818
 31
0.0
  0
LINE
  5
4EA
330
1F
100
AcDbEntity
  8
0-3_仕上げ
  6
Continuous
 62
   120
370
     5
100
AcDbLine
 10
-2600.15050320037
 20
3077.581095965818
 30
0.0
 11
-2605.15050320037
 21
3077.581095965818
 31
0.0
  0
LINE
  5
4EB
330
1F
100
AcDbEntity
  8
0-3_仕上げ
  6
Continuous
 62
   120
370
     5
100
AcDbLine
 10
-2605.15050320037
 20
3110.000148463896
 30
0.0
 11
-2605.15050320037
 21
3103.581095965818
 31
0.0
  0
LINE
  5
4EC
330
1F
100
AcDbEntity
  8
0-3_仕上げ
  6
Continuous
 62
   120
370
     5
100
AcDbLine
 10
-2600.15050320037
 20
3103.581095965818
 30
0.0
 11
-2605.15050320037
 21
3103.581095965818
 31
0.0
  0
LINE
  5
4ED
330
1F
100
AcDbEntity
  8
0-3_仕上げ
  6
Continuous
 62
   120
370
     5
100
AcDbLine
 10
-2605.15050320037
 20
3136.000148463896
 30
0.0
 11
-2605.15050320037
 21
3129.581095965819
 31
0.0
  0
LINE
  5
4EE
330
1F
100
AcDbEntity
  8
0-3_仕上げ
  6
Continuous
 62
   120
370
     5
100
AcDbLine
 10
-2600.15050320037
 20
3129.581095965819
 30
0.0
 11
-2605.15050320037
 21
3129.581095965819
 31
0.0
  0
LINE
  5
4EF
330
1F
100
AcDbEntity
  8
0-3_仕上げ
  6
Continuous
 62
   120
370
     5
100
AcDbLine
 10
-2605.15050320037
 20
3162.000148463897
 30
0.0
 11
-2605.15050320037
 21
3155.581095965819
 31
0.0
  0
LINE
  5
4F0
330
1F
100
AcDbEntity
  8
0-3_仕上げ
  6
Continuous
 62
   120
370
     5
100
AcDbLine
 10
-2600.15050320037
 20
3155.581095965819
 30
0.0
 11
-2605.15050320037
 21
3155.581095965819
 31
0.0
  0
LINE
  5
4F1
330
1F
100
AcDbEntity
  8
0-3_仕上げ
  6
Continuous
 62
   120
370
     5
100
AcDbLine
 10
-2605.15050320037
 20
3188.000148463896
 30
0.0
 11
-2605.15050320037
 21
3181.581095965819
 31
0.0
  0
LINE
  5
4F2
330
1F
100
AcDbEntity
  8
0-3_仕上げ
  6
Continuous
 62
   120
370
     5
100
AcDbLine
 10
-2600.15050320037
 20
3181.581095965819
 30
0.0
 11
-2605.15050320037
 21
3181.581095965819
 31
0.0
  0
LINE
  5
4F3
330
1F
100
AcDbEntity
  8
0-3_仕上げ
  6
Continuous
 62
   120
370
     5
100
AcDbLine
 10
-2605.15050320037
 20
3214.000148463896
 30
0.0
 11
-2605.15050320037
 21
3207.581095965819
 31
0.0
  0
LINE
  5
4F4
330
1F
100
AcDbEntity
  8
0-3_仕上げ
  6
Continuous
 62
   120
370
     5
100
AcDbLine
 10
-2600.15050320037
 20
3207.581095965819
 30
0.0
 11
-2605.15050320037
 21
3207.581095965819
 31
0.0
  0
LINE
  5
4F5
330
1F
100
AcDbEntity
  8
0-3_仕上げ
  6
Continuous
 62
   120
370
     5
100
AcDbLine
 10
-2605.15050320037
 20
3240.000148463897
 30
0.0
 11
-2605.15050320037
 21
3233.581095965819
 31
0.0
  0
LINE
  5
4F6
330
1F
100
AcDbEntity
  8
0-3_仕上げ
  6
Continuous
 62
   120
370
     5
100
AcDbLine
 10
-2600.15050320037
 20
3233.581095965819
 30
0.0
 11
-2605.15050320037
 21
3233.581095965819
 31
0.0
  0
LINE
  5
4F7
330
1F
100
AcDbEntity
  8
0-3_仕上げ
  6
Continuous
 62
   120
370
     5
100
AcDbLine
 10
-2605.15050320037
 20
3266.000148463897
 30
0.0
 11
-2605.15050320037
 21
3259.581095965819
 31
0.0
  0
LINE
  5
4F8
330
1F
100
AcDbEntity
  8
0-3_仕上げ
  6
Continuous
 62
   120
370
     5
100
AcDbLine
 10
-2600.15050320037
 20
3259.581095965819
 30
0.0
 11
-2605.15050320037
 21
3259.581095965819
 31
0.0
  0
LINE
  5
4F9
330
1F
100
AcDbEntity
  8
0-3_仕上げ
  6
Continuous
 62
   120
370
     5
100
AcDbLine
 10
-2823.150503200369
 20
1595.581095965814
 30
0.0
 11
-2828.15050320037
 21
1595.581095965814
 31
0.0
  0
LINE
  5
4FA
330
1F
100
AcDbEntity
  8
0-3_仕上げ
  6
Continuous
 62
   120
370
     5
100
AcDbLine
 10
-2823.150503200369
 20
1602.000148463891
 30
0.0
 11
-2823.150503200369
 21
1595.581095965814
 31
0.0
  0
LINE
  5
4FB
330
1F
100
AcDbEntity
  8
0-3_仕上げ
  6
Continuous
 62
   120
370
     5
100
AcDbLine
 10
-2823.150503200369
 20
1621.581095965813
 30
0.0
 11
-2828.15050320037
 21
1621.581095965813
 31
0.0
  0
LINE
  5
4FC
330
1F
100
AcDbEntity
  8
0-3_仕上げ
  6
Continuous
 62
   120
370
     5
100
AcDbLine
 10
-2823.150503200369
 20
1628.000148463891
 30
0.0
 11
-2823.150503200369
 21
1621.581095965813
 31
0.0
  0
LINE
  5
4FD
330
1F
100
AcDbEntity
  8
0-3_仕上げ
  6
Continuous
 62
   120
370
     5
100
AcDbLine
 10
-2823.150503200369
 20
1647.581095965814
 30
0.0
 11
-2828.15050320037
 21
1647.581095965814
 31
0.0
  0
LINE
  5
4FE
330
1F
100
AcDbEntity
  8
0-3_仕上げ
  6
Continuous
 62
   120
370
     5
100
AcDbLine
 10
-2823.150503200369
 20
1654.000148463891
 30
0.0
 11
-2823.150503200369
 21
1647.581095965814
 31
0.0
  0
LINE
  5
4FF
330
1F
100
AcDbEntity
  8
0-3_仕上げ
  6
Continuous
 62
   120
370
     5
100
AcDbLine
 10
-2823.150503200369
 20
1673.581095965814
 30
0.0
 11
-2828.15050320037
 21
1673.581095965814
 31
0.0
  0
LINE
  5
500
330
1F
100
AcDbEntity
  8
0-3_仕上げ
  6
Continuous
 62
   120
370
     5
100
AcDbLine
 10
-2823.150503200369
 20
1680.000148463892
 30
0.0
 11
-2823.150503200369
 21
1673.581095965814
 31
0.0
  0
LINE
  5
501
330
1F
100
AcDbEntity
  8
0-3_仕上げ
  6
Continuous
 62
   120
370
     5
100
AcDbLine
 10
-2823.150503200369
 20
1699.581095965814
 30
0.0
 11
-2828.15050320037
 21
1699.581095965814
 31
0.0
  0
LINE
  5
502
330
1F
100
AcDbEntity
  8
0-3_仕上げ
  6
Continuous
 62
   120
370
     5
100
AcDbLine
 10
-2823.150503200369
 20
1706.000148463892
 30
0.0
 11
-2823.150503200369
 21
1699.581095965814
 31
0.0
  0
LINE
  5
503
330
1F
100
AcDbEntity
  8
0-3_仕上げ
  6
Continuous
 62
   120
370
     5
100
AcDbLine
 10
-2823.150503200369
 20
1725.581095965814
 30
0.0
 11
-2828.15050320037
 21
1725.581095965814
 31
0.0
  0
LINE
  5
504
330
1F
100
AcDbEntity
  8
0-3_仕上げ
  6
Continuous
 62
   120
370
     5
100
AcDbLine
 10
-2823.150503200369
 20
1732.000148463891
 30
0.0
 11
-2823.150503200369
 21
1725.581095965814
 31
0.0
  0
LINE
  5
505
330
1F
100
AcDbEntity
  8
0-3_仕上げ
  6
Continuous
 62
   120
370
     5
100
AcDbLine
 10
-2823.150503200369
 20
1751.581095965814
 30
0.0
 11
-2828.15050320037
 21
1751.581095965814
 31
0.0
  0
LINE
  5
506
330
1F
100
AcDbEntity
  8
0-3_仕上げ
  6
Continuous
 62
   120
370
     5
100
AcDbLine
 10
-2823.150503200369
 20
1758.000148463891
 30
0.0
 11
-2823.150503200369
 21
1751.581095965814
 31
0.0
  0
LINE
  5
507
330
1F
100
AcDbEntity
  8
0-3_仕上げ
  6
Continuous
 62
   120
370
     5
100
AcDbLine
 10
-2823.150503200369
 20
1777.581095965814
 30
0.0
 11
-2828.15050320037
 21
1777.581095965814
 31
0.0
  0
LINE
  5
508
330
1F
100
AcDbEntity
  8
0-3_仕上げ
  6
Continuous
 62
   120
370
     5
100
AcDbLine
 10
-2823.150503200369
 20
1784.000148463892
 30
0.0
 11
-2823.150503200369
 21
1777.581095965814
 31
0.0
  0
LINE
  5
509
330
1F
100
AcDbEntity
  8
0-3_仕上げ
  6
Continuous
 62
   120
370
     5
100
AcDbLine
 10
-2823.150503200369
 20
1803.581095965814
 30
0.0
 11
-2828.15050320037
 21
1803.581095965814
 31
0.0
  0
LINE
  5
50A
330
1F
100
AcDbEntity
  8
0-3_仕上げ
  6
Continuous
 62
   120
370
     5
100
AcDbLine
 10
-2823.150503200369
 20
1810.000148463892
 30
0.0
 11
-2823.150503200369
 21
1803.581095965814
 31
0.0
  0
LINE
  5
50B
330
1F
100
AcDbEntity
  8
0-3_仕上げ
  6
Continuous
 62
   120
370
     5
100
AcDbLine
 10
-2823.150503200369
 20
1829.581095965814
 30
0.0
 11
-2828.15050320037
 21
1829.581095965814
 31
0.0
  0
LINE
  5
50C
330
1F
100
AcDbEntity
  8
0-3_仕上げ
  6
Continuous
 62
   120
370
     5
100
AcDbLine
 10
-2823.150503200369
 20
1836.000148463892
 30
0.0
 11
-2823.150503200369
 21
1829.581095965814
 31
0.0
  0
LINE
  5
50D
330
1F
100
AcDbEntity
  8
0-3_仕上げ
  6
Continuous
 62
   120
370
     5
100
AcDbLine
 10
-2823.150503200369
 20
1855.581095965814
 30
0.0
 11
-2828.15050320037
 21
1855.581095965814
 31
0.0
  0
LINE
  5
50E
330
1F
100
AcDbEntity
  8
0-3_仕上げ
  6
Continuous
 62
   120
370
     5
100
AcDbLine
 10
-2823.150503200369
 20
1862.000148463892
 30
0.0
 11
-2823.150503200369
 21
1855.581095965814
 31
0.0
  0
LINE
  5
50F
330
1F
100
AcDbEntity
  8
0-3_仕上げ
  6
Continuous
 62
   120
370
     5
100
AcDbLine
 10
-2823.150503200369
 20
1881.581095965815
 30
0.0
 11
-2828.15050320037
 21
1881.581095965815
 31
0.0
  0
LINE
  5
510
330
1F
100
AcDbEntity
  8
0-3_仕上げ
  6
Continuous
 62
   120
370
     5
100
AcDbLine
 10
-2823.150503200369
 20
1888.000148463893
 30
0.0
 11
-2823.150503200369
 21
1881.581095965815
 31
0.0
  0
LINE
  5
511
330
1F
100
AcDbEntity
  8
0-3_仕上げ
  6
Continuous
 62
   120
370
     5
100
AcDbLine
 10
-2823.150503200369
 20
1907.581095965815
 30
0.0
 11
-2828.15050320037
 21
1907.581095965815
 31
0.0
  0
LINE
  5
512
330
1F
100
AcDbEntity
  8
0-3_仕上げ
  6
Continuous
 62
   120
370
     5
100
AcDbLine
 10
-2823.150503200369
 20
1914.000148463893
 30
0.0
 11
-2823.150503200369
 21
1907.581095965815
 31
0.0
  0
LINE
  5
513
330
1F
100
AcDbEntity
  8
0-3_仕上げ
  6
Continuous
 62
   120
370
     5
100
AcDbLine
 10
-2823.150503200369
 20
1933.581095965815
 30
0.0
 11
-2828.15050320037
 21
1933.581095965815
 31
0.0
  0
LINE
  5
514
330
1F
100
AcDbEntity
  8
0-3_仕上げ
  6
Continuous
 62
   120
370
     5
100
AcDbLine
 10
-2823.150503200369
 20
1940.000148463892
 30
0.0
 11
-2823.150503200369
 21
1933.581095965815
 31
0.0
  0
LINE
  5
515
330
1F
100
AcDbEntity
  8
0-3_仕上げ
  6
Continuous
 62
   120
370
     5
100
AcDbLine
 10
-2823.150503200369
 20
1959.581095965815
 30
0.0
 11
-2828.15050320037
 21
1959.581095965815
 31
0.0
  0
LINE
  5
516
330
1F
100
AcDbEntity
  8
0-3_仕上げ
  6
Continuous
 62
   120
370
     5
100
AcDbLine
 10
-2823.150503200369
 20
1966.000148463891
 30
0.0
 11
-2823.150503200369
 21
1959.581095965815
 31
0.0
  0
LINE
  5
517
330
1F
100
AcDbEntity
  8
0-3_仕上げ
  6
Continuous
 62
   120
370
     5
100
AcDbLine
 10
-2823.150503200369
 20
1985.581095965815
 30
0.0
 11
-2828.15050320037
 21
1985.581095965815
 31
0.0
  0
LINE
  5
518
330
1F
100
AcDbEntity
  8
0-3_仕上げ
  6
Continuous
 62
   120
370
     5
100
AcDbLine
 10
-2823.150503200369
 20
1992.000148463893
 30
0.0
 11
-2823.150503200369
 21
1985.581095965815
 31
0.0
  0
LINE
  5
519
330
1F
100
AcDbEntity
  8
0-3_仕上げ
  6
Continuous
 62
   120
370
     5
100
AcDbLine
 10
-2823.150503200369
 20
2011.581095965815
 30
0.0
 11
-2828.15050320037
 21
2011.581095965815
 31
0.0
  0
LINE
  5
51A
330
1F
100
AcDbEntity
  8
0-3_仕上げ
  6
Continuous
 62
   120
370
     5
100
AcDbLine
 10
-2823.150503200369
 20
2018.000148463893
 30
0.0
 11
-2823.150503200369
 21
2011.581095965815
 31
0.0
  0
LINE
  5
51B
330
1F
100
AcDbEntity
  8
0-3_仕上げ
  6
Continuous
 62
   120
370
     5
100
AcDbLine
 10
-2823.150503200369
 20
2037.581095965815
 30
0.0
 11
-2828.15050320037
 21
2037.581095965815
 31
0.0
  0
LINE
  5
51C
330
1F
100
AcDbEntity
  8
0-3_仕上げ
  6
Continuous
 62
   120
370
     5
100
AcDbLine
 10
-2823.150503200369
 20
2044.000148463893
 30
0.0
 11
-2823.150503200369
 21
2037.581095965815
 31
0.0
  0
LINE
  5
51D
330
1F
100
AcDbEntity
  8
0-3_仕上げ
  6
Continuous
 62
   120
370
     5
100
AcDbLine
 10
-2823.150503200369
 20
2063.581095965816
 30
0.0
 11
-2828.15050320037
 21
2063.581095965816
 31
0.0
  0
LINE
  5
51E
330
1F
100
AcDbEntity
  8
0-3_仕上げ
  6
Continuous
 62
   120
370
     5
100
AcDbLine
 10
-2823.150503200369
 20
2070.000148463892
 30
0.0
 11
-2823.150503200369
 21
2063.581095965816
 31
0.0
  0
LINE
  5
51F
330
1F
100
AcDbEntity
  8
0-3_仕上げ
  6
Continuous
 62
   120
370
     5
100
AcDbLine
 10
-2823.150503200369
 20
2089.581095965816
 30
0.0
 11
-2828.15050320037
 21
2089.581095965816
 31
0.0
  0
LINE
  5
520
330
1F
100
AcDbEntity
  8
0-3_仕上げ
  6
Continuous
 62
   120
370
     5
100
AcDbLine
 10
-2823.150503200369
 20
2096.000148463893
 30
0.0
 11
-2823.150503200369
 21
2089.581095965816
 31
0.0
  0
LINE
  5
521
330
1F
100
AcDbEntity
  8
0-3_仕上げ
  6
Continuous
 62
   120
370
     5
100
AcDbLine
 10
-2823.150503200369
 20
2115.581095965815
 30
0.0
 11
-2828.15050320037
 21
2115.581095965815
 31
0.0
  0
LINE
  5
522
330
1F
100
AcDbEntity
  8
0-3_仕上げ
  6
Continuous
 62
   120
370
     5
100
AcDbLine
 10
-2823.150503200369
 20
2122.000148463893
 30
0.0
 11
-2823.150503200369
 21
2115.581095965815
 31
0.0
  0
LINE
  5
523
330
1F
100
AcDbEntity
  8
0-3_仕上げ
  6
Continuous
 62
   120
370
     5
100
AcDbLine
 10
-2823.150503200369
 20
2141.581095965815
 30
0.0
 11
-2828.15050320037
 21
2141.581095965815
 31
0.0
  0
LINE
  5
524
330
1F
100
AcDbEntity
  8
0-3_仕上げ
  6
Continuous
 62
   120
370
     5
100
AcDbLine
 10
-2823.150503200369
 20
2148.000148463893
 30
0.0
 11
-2823.150503200369
 21
2141.581095965815
 31
0.0
  0
LINE
  5
525
330
1F
100
AcDbEntity
  8
0-3_仕上げ
  6
Continuous
 62
   120
370
     5
100
AcDbLine
 10
-2823.150503200369
 20
2167.581095965816
 30
0.0
 11
-2828.15050320037
 21
2167.581095965816
 31
0.0
  0
LINE
  5
526
330
1F
100
AcDbEntity
  8
0-3_仕上げ
  6
Continuous
 62
   120
370
     5
100
AcDbLine
 10
-2823.150503200369
 20
2174.000148463893
 30
0.0
 11
-2823.150503200369
 21
2167.581095965816
 31
0.0
  0
LINE
  5
527
330
1F
100
AcDbEntity
  8
0-3_仕上げ
  6
Continuous
 62
   120
370
     5
100
AcDbLine
 10
-2823.150503200369
 20
2193.581095965816
 30
0.0
 11
-2828.15050320037
 21
2193.581095965816
 31
0.0
  0
LINE
  5
528
330
1F
100
AcDbEntity
  8
0-3_仕上げ
  6
Continuous
 62
   120
370
     5
100
AcDbLine
 10
-2823.150503200369
 20
2200.000148463893
 30
0.0
 11
-2823.150503200369
 21
2193.581095965816
 31
0.0
  0
LINE
  5
529
330
1F
100
AcDbEntity
  8
0-3_仕上げ
  6
Continuous
 62
   120
370
     5
100
AcDbLine
 10
-2823.150503200369
 20
2219.581095965816
 30
0.0
 11
-2828.15050320037
 21
2219.581095965816
 31
0.0
  0
LINE
  5
52A
330
1F
100
AcDbEntity
  8
0-3_仕上げ
  6
Continuous
 62
   120
370
     5
100
AcDbLine
 10
-2823.150503200369
 20
2226.000148463893
 30
0.0
 11
-2823.150503200369
 21
2219.581095965816
 31
0.0
  0
LINE
  5
52B
330
1F
100
AcDbEntity
  8
0-3_仕上げ
  6
Continuous
 62
   120
370
     5
100
AcDbLine
 10
-2823.150503200369
 20
2245.581095965816
 30
0.0
 11
-2828.15050320037
 21
2245.581095965816
 31
0.0
  0
LINE
  5
52C
330
1F
100
AcDbEntity
  8
0-3_仕上げ
  6
Continuous
 62
   120
370
     5
100
AcDbLine
 10
-2823.150503200369
 20
2252.000148463893
 30
0.0
 11
-2823.150503200369
 21
2245.581095965816
 31
0.0
  0
LINE
  5
52D
330
1F
100
AcDbEntity
  8
0-3_仕上げ
  6
Continuous
 62
   120
370
     5
100
AcDbLine
 10
-2823.150503200369
 20
2271.581095965816
 30
0.0
 11
-2828.15050320037
 21
2271.581095965816
 31
0.0
  0
LINE
  5
52E
330
1F
100
AcDbEntity
  8
0-3_仕上げ
  6
Continuous
 62
   120
370
     5
100
AcDbLine
 10
-2823.150503200369
 20
2278.000148463893
 30
0.0
 11
-2823.150503200369
 21
2271.581095965816
 31
0.0
  0
LINE
  5
52F
330
1F
100
AcDbEntity
  8
0-3_仕上げ
  6
Continuous
 62
   120
370
     5
100
AcDbLine
 10
-2823.150503200369
 20
2297.581095965816
 30
0.0
 11
-2828.15050320037
 21
2297.581095965816
 31
0.0
  0
LINE
  5
530
330
1F
100
AcDbEntity
  8
0-3_仕上げ
  6
Continuous
 62
   120
370
     5
100
AcDbLine
 10
-2823.150503200369
 20
2304.000148463894
 30
0.0
 11
-2823.150503200369
 21
2297.581095965816
 31
0.0
  0
LINE
  5
531
330
1F
100
AcDbEntity
  8
0-3_仕上げ
  6
Continuous
 62
   120
370
     5
100
AcDbLine
 10
-2823.150503200369
 20
2323.581095965816
 30
0.0
 11
-2828.15050320037
 21
2323.581095965816
 31
0.0
  0
LINE
  5
532
330
1F
100
AcDbEntity
  8
0-3_仕上げ
  6
Continuous
 62
   120
370
     5
100
AcDbLine
 10
-2823.150503200369
 20
2330.000148463893
 30
0.0
 11
-2823.150503200369
 21
2323.581095965816
 31
0.0
  0
LINE
  5
533
330
1F
100
AcDbEntity
  8
0-3_仕上げ
  6
Continuous
 62
   120
370
     5
100
AcDbLine
 10
-2823.150503200369
 20
2349.581095965816
 30
0.0
 11
-2828.15050320037
 21
2349.581095965816
 31
0.0
  0
LINE
  5
534
330
1F
100
AcDbEntity
  8
0-3_仕上げ
  6
Continuous
 62
   120
370
     5
100
AcDbLine
 10
-2823.150503200369
 20
2356.000148463893
 30
0.0
 11
-2823.150503200369
 21
2349.581095965816
 31
0.0
  0
LINE
  5
535
330
1F
100
AcDbEntity
  8
0-3_仕上げ
  6
Continuous
 62
   120
370
     5
100
AcDbLine
 10
-2823.150503200369
 20
2375.581095965816
 30
0.0
 11
-2828.15050320037
 21
2375.581095965816
 31
0.0
  0
LINE
  5
536
330
1F
100
AcDbEntity
  8
0-3_仕上げ
  6
Continuous
 62
   120
370
     5
100
AcDbLine
 10
-2823.150503200369
 20
2382.000148463893
 30
0.0
 11
-2823.150503200369
 21
2375.581095965816
 31
0.0
  0
LINE
  5
537
330
1F
100
AcDbEntity
  8
0-3_仕上げ
  6
Continuous
 62
   120
370
     5
100
AcDbLine
 10
-2823.150503200369
 20
2401.581095965816
 30
0.0
 11
-2828.15050320037
 21
2401.581095965816
 31
0.0
  0
LINE
  5
538
330
1F
100
AcDbEntity
  8
0-3_仕上げ
  6
Continuous
 62
   120
370
     5
100
AcDbLine
 10
-2823.150503200369
 20
2408.000148463894
 30
0.0
 11
-2823.150503200369
 21
2401.581095965816
 31
0.0
  0
LINE
  5
539
330
1F
100
AcDbEntity
  8
0-3_仕上げ
  6
Continuous
 62
   120
370
     5
100
AcDbLine
 10
-2823.150503200369
 20
2427.581095965816
 30
0.0
 11
-2828.15050320037
 21
2427.581095965816
 31
0.0
  0
LINE
  5
53A
330
1F
100
AcDbEntity
  8
0-3_仕上げ
  6
Continuous
 62
   120
370
     5
100
AcDbLine
 10
-2823.150503200369
 20
2434.000148463894
 30
0.0
 11
-2823.150503200369
 21
2427.581095965816
 31
0.0
  0
LINE
  5
53B
330
1F
100
AcDbEntity
  8
0-3_仕上げ
  6
Continuous
 62
   120
370
     5
100
AcDbLine
 10
-2823.150503200369
 20
2453.581095965816
 30
0.0
 11
-2828.15050320037
 21
2453.581095965816
 31
0.0
  0
LINE
  5
53C
330
1F
100
AcDbEntity
  8
0-3_仕上げ
  6
Continuous
 62
   120
370
     5
100
AcDbLine
 10
-2823.150503200369
 20
2460.000148463894
 30
0.0
 11
-2823.150503200369
 21
2453.581095965816
 31
0.0
  0
LINE
  5
53D
330
1F
100
AcDbEntity
  8
0-3_仕上げ
  6
Continuous
 62
   120
370
     5
100
AcDbLine
 10
-2823.150503200369
 20
2479.581095965817
 30
0.0
 11
-2828.15050320037
 21
2479.581095965817
 31
0.0
  0
LINE
  5
53E
330
1F
100
AcDbEntity
  8
0-3_仕上げ
  6
Continuous
 62
   120
370
     5
100
AcDbLine
 10
-2823.150503200369
 20
2486.000148463894
 30
0.0
 11
-2823.150503200369
 21
2479.581095965817
 31
0.0
  0
LINE
  5
53F
330
1F
100
AcDbEntity
  8
0-3_仕上げ
  6
Continuous
 62
   120
370
     5
100
AcDbLine
 10
-2823.150503200369
 20
2505.581095965817
 30
0.0
 11
-2828.15050320037
 21
2505.581095965817
 31
0.0
  0
LINE
  5
540
330
1F
100
AcDbEntity
  8
0-3_仕上げ
  6
Continuous
 62
   120
370
     5
100
AcDbLine
 10
-2823.150503200369
 20
2512.000148463895
 30
0.0
 11
-2823.150503200369
 21
2505.581095965817
 31
0.0
  0
LINE
  5
541
330
1F
100
AcDbEntity
  8
0-3_仕上げ
  6
Continuous
 62
   120
370
     5
100
AcDbLine
 10
-2823.150503200369
 20
2531.581095965817
 30
0.0
 11
-2828.15050320037
 21
2531.581095965817
 31
0.0
  0
LINE
  5
542
330
1F
100
AcDbEntity
  8
0-3_仕上げ
  6
Continuous
 62
   120
370
     5
100
AcDbLine
 10
-2823.150503200369
 20
2538.000148463895
 30
0.0
 11
-2823.150503200369
 21
2531.581095965817
 31
0.0
  0
LINE
  5
543
330
1F
100
AcDbEntity
  8
0-3_仕上げ
  6
Continuous
 62
   120
370
     5
100
AcDbLine
 10
-2823.150503200369
 20
2557.581095965817
 30
0.0
 11
-2828.15050320037
 21
2557.581095965817
 31
0.0
  0
LINE
  5
544
330
1F
100
AcDbEntity
  8
0-3_仕上げ
  6
Continuous
 62
   120
370
     5
100
AcDbLine
 10
-2823.150503200369
 20
2564.000148463894
 30
0.0
 11
-2823.150503200369
 21
2557.581095965817
 31
0.0
  0
LINE
  5
545
330
1F
100
AcDbEntity
  8
0-3_仕上げ
  6
Continuous
 62
   120
370
     5
100
AcDbLine
 10
-2823.150503200369
 20
2583.581095965817
 30
0.0
 11
-2828.15050320037
 21
2583.581095965817
 31
0.0
  0
LINE
  5
546
330
1F
100
AcDbEntity
  8
0-3_仕上げ
  6
Continuous
 62
   120
370
     5
100
AcDbLine
 10
-2823.150503200369
 20
2590.000148463895
 30
0.0
 11
-2823.150503200369
 21
2583.581095965817
 31
0.0
  0
LINE
  5
547
330
1F
100
AcDbEntity
  8
0-3_仕上げ
  6
Continuous
 62
   120
370
     5
100
AcDbLine
 10
-2823.150503200369
 20
2609.581095965817
 30
0.0
 11
-2828.15050320037
 21
2609.581095965817
 31
0.0
  0
LINE
  5
548
330
1F
100
AcDbEntity
  8
0-3_仕上げ
  6
Continuous
 62
   120
370
     5
100
AcDbLine
 10
-2823.150503200369
 20
2616.000148463895
 30
0.0
 11
-2823.150503200369
 21
2609.581095965817
 31
0.0
  0
LINE
  5
549
330
1F
100
AcDbEntity
  8
0-3_仕上げ
  6
Continuous
 62
   120
370
     5
100
AcDbLine
 10
-2823.150503200369
 20
2635.581095965817
 30
0.0
 11
-2828.15050320037
 21
2635.581095965817
 31
0.0
  0
LINE
  5
54A
330
1F
100
AcDbEntity
  8
0-3_仕上げ
  6
Continuous
 62
   120
370
     5
100
AcDbLine
 10
-2823.150503200369
 20
2642.000148463895
 30
0.0
 11
-2823.150503200369
 21
2635.581095965817
 31
0.0
  0
LINE
  5
54B
330
1F
100
AcDbEntity
  8
0-3_仕上げ
  6
Continuous
 62
   120
370
     5
100
AcDbLine
 10
-2823.150503200369
 20
2661.581095965817
 30
0.0
 11
-2828.15050320037
 21
2661.581095965817
 31
0.0
  0
LINE
  5
54C
330
1F
100
AcDbEntity
  8
0-3_仕上げ
  6
Continuous
 62
   120
370
     5
100
AcDbLine
 10
-2823.150503200369
 20
2668.000148463894
 30
0.0
 11
-2823.150503200369
 21
2661.581095965817
 31
0.0
  0
LINE
  5
54D
330
1F
100
AcDbEntity
  8
0-3_仕上げ
  6
Continuous
 62
   120
370
     5
100
AcDbLine
 10
-2823.150503200369
 20
2687.581095965817
 30
0.0
 11
-2828.15050320037
 21
2687.581095965817
 31
0.0
  0
LINE
  5
54E
330
1F
100
AcDbEntity
  8
0-3_仕上げ
  6
Continuous
 62
   120
370
     5
100
AcDbLine
 10
-2823.150503200369
 20
2694.000148463895
 30
0.0
 11
-2823.150503200369
 21
2687.581095965817
 31
0.0
  0
LINE
  5
54F
330
1F
100
AcDbEntity
  8
0-3_仕上げ
  6
Continuous
 62
   120
370
     5
100
AcDbLine
 10
-2823.150503200369
 20
2713.581095965817
 30
0.0
 11
-2828.15050320037
 21
2713.581095965817
 31
0.0
  0
LINE
  5
550
330
1F
100
AcDbEntity
  8
0-3_仕上げ
  6
Continuous
 62
   120
370
     5
100
AcDbLine
 10
-2823.150503200369
 20
2720.000148463895
 30
0.0
 11
-2823.150503200369
 21
2713.581095965817
 31
0.0
  0
LINE
  5
551
330
1F
100
AcDbEntity
  8
0-3_仕上げ
  6
Continuous
 62
   120
370
     5
100
AcDbLine
 10
-2823.150503200369
 20
2739.581095965817
 30
0.0
 11
-2828.15050320037
 21
2739.581095965817
 31
0.0
  0
LINE
  5
552
330
1F
100
AcDbEntity
  8
0-3_仕上げ
  6
Continuous
 62
   120
370
     5
100
AcDbLine
 10
-2823.150503200369
 20
2746.000148463895
 30
0.0
 11
-2823.150503200369
 21
2739.581095965817
 31
0.0
  0
LINE
  5
553
330
1F
100
AcDbEntity
  8
0-3_仕上げ
  6
Continuous
 62
   120
370
     5
100
AcDbLine
 10
-2823.150503200369
 20
2765.581095965817
 30
0.0
 11
-2828.15050320037
 21
2765.581095965817
 31
0.0
  0
LINE
  5
554
330
1F
100
AcDbEntity
  8
0-3_仕上げ
  6
Continuous
 62
   120
370
     5
100
AcDbLine
 10
-2823.150503200369
 20
2772.000148463895
 30
0.0
 11
-2823.150503200369
 21
2765.581095965817
 31
0.0
  0
LINE
  5
555
330
1F
100
AcDbEntity
  8
0-3_仕上げ
  6
Continuous
 62
   120
370
     5
100
AcDbLine
 10
-2823.150503200369
 20
2791.581095965817
 30
0.0
 11
-2828.15050320037
 21
2791.581095965817
 31
0.0
  0
LINE
  5
556
330
1F
100
AcDbEntity
  8
0-3_仕上げ
  6
Continuous
 62
   120
370
     5
100
AcDbLine
 10
-2823.150503200369
 20
2798.000148463895
 30
0.0
 11
-2823.150503200369
 21
2791.581095965817
 31
0.0
  0
LINE
  5
557
330
1F
100
AcDbEntity
  8
0-3_仕上げ
  6
Continuous
 62
   120
370
     5
100
AcDbLine
 10
-2823.150503200369
 20
2817.581095965818
 30
0.0
 11
-2828.15050320037
 21
2817.581095965818
 31
0.0
  0
LINE
  5
558
330
1F
100
AcDbEntity
  8
0-3_仕上げ
  6
Continuous
 62
   120
370
     5
100
AcDbLine
 10
-2823.150503200369
 20
2824.000148463895
 30
0.0
 11
-2823.150503200369
 21
2817.581095965818
 31
0.0
  0
LINE
  5
559
330
1F
100
AcDbEntity
  8
0-3_仕上げ
  6
Continuous
 62
   120
370
     5
100
AcDbLine
 10
-2823.150503200369
 20
2843.581095965817
 30
0.0
 11
-2828.15050320037
 21
2843.581095965817
 31
0.0
  0
LINE
  5
55A
330
1F
100
AcDbEntity
  8
0-3_仕上げ
  6
Continuous
 62
   120
370
     5
100
AcDbLine
 10
-2823.150503200369
 20
2850.000148463895
 30
0.0
 11
-2823.150503200369
 21
2843.581095965817
 31
0.0
  0
LINE
  5
55B
330
1F
100
AcDbEntity
  8
0-3_仕上げ
  6
Continuous
 62
   120
370
     5
100
AcDbLine
 10
-2823.150503200369
 20
2869.581095965817
 30
0.0
 11
-2828.15050320037
 21
2869.581095965817
 31
0.0
  0
LINE
  5
55C
330
1F
100
AcDbEntity
  8
0-3_仕上げ
  6
Continuous
 62
   120
370
     5
100
AcDbLine
 10
-2823.150503200369
 20
2876.000148463895
 30
0.0
 11
-2823.150503200369
 21
2869.581095965817
 31
0.0
  0
LINE
  5
55D
330
1F
100
AcDbEntity
  8
0-3_仕上げ
  6
Continuous
 62
   120
370
     5
100
AcDbLine
 10
-2823.150503200369
 20
2895.581095965817
 30
0.0
 11
-2828.15050320037
 21
2895.581095965817
 31
0.0
  0
LINE
  5
55E
330
1F
100
AcDbEntity
  8
0-3_仕上げ
  6
Continuous
 62
   120
370
     5
100
AcDbLine
 10
-2823.150503200369
 20
2902.000148463896
 30
0.0
 11
-2823.150503200369
 21
2895.581095965817
 31
0.0
  0
LINE
  5
55F
330
1F
100
AcDbEntity
  8
0-3_仕上げ
  6
Continuous
 62
   120
370
     5
100
AcDbLine
 10
-2823.150503200369
 20
2921.581095965818
 30
0.0
 11
-2828.15050320037
 21
2921.581095965818
 31
0.0
  0
LINE
  5
560
330
1F
100
AcDbEntity
  8
0-3_仕上げ
  6
Continuous
 62
   120
370
     5
100
AcDbLine
 10
-2823.150503200369
 20
2928.000148463896
 30
0.0
 11
-2823.150503200369
 21
2921.581095965818
 31
0.0
  0
LINE
  5
561
330
1F
100
AcDbEntity
  8
0-3_仕上げ
  6
Continuous
 62
   120
370
     5
100
AcDbLine
 10
-2823.150503200369
 20
2947.581095965818
 30
0.0
 11
-2828.15050320037
 21
2947.581095965818
 31
0.0
  0
LINE
  5
562
330
1F
100
AcDbEntity
  8
0-3_仕上げ
  6
Continuous
 62
   120
370
     5
100
AcDbLine
 10
-2823.150503200369
 20
2954.000148463896
 30
0.0
 11
-2823.150503200369
 21
2947.581095965818
 31
0.0
  0
LINE
  5
563
330
1F
100
AcDbEntity
  8
0-3_仕上げ
  6
Continuous
 62
   120
370
     5
100
AcDbLine
 10
-2823.150503200369
 20
2973.581095965818
 30
0.0
 11
-2828.15050320037
 21
2973.581095965818
 31
0.0
  0
LINE
  5
564
330
1F
100
AcDbEntity
  8
0-3_仕上げ
  6
Continuous
 62
   120
370
     5
100
AcDbLine
 10
-2823.150503200369
 20
2980.000148463895
 30
0.0
 11
-2823.150503200369
 21
2973.581095965818
 31
0.0
  0
LINE
  5
565
330
1F
100
AcDbEntity
  8
0-3_仕上げ
  6
Continuous
 62
   120
370
     5
100
AcDbLine
 10
-2823.150503200369
 20
2999.581095965818
 30
0.0
 11
-2828.15050320037
 21
2999.581095965818
 31
0.0
  0
LINE
  5
566
330
1F
100
AcDbEntity
  8
0-3_仕上げ
  6
Continuous
 62
   120
370
     5
100
AcDbLine
 10
-2823.150503200369
 20
3006.000148463896
 30
0.0
 11
-2823.150503200369
 21
2999.581095965818
 31
0.0
  0
LINE
  5
567
330
1F
100
AcDbEntity
  8
0-3_仕上げ
  6
Continuous
 62
   120
370
     5
100
AcDbLine
 10
-2823.150503200369
 20
3025.581095965818
 30
0.0
 11
-2828.15050320037
 21
3025.581095965818
 31
0.0
  0
LINE
  5
568
330
1F
100
AcDbEntity
  8
0-3_仕上げ
  6
Continuous
 62
   120
370
     5
100
AcDbLine
 10
-2823.150503200369
 20
3032.000148463896
 30
0.0
 11
-2823.150503200369
 21
3025.581095965818
 31
0.0
  0
LINE
  5
569
330
1F
100
AcDbEntity
  8
0-3_仕上げ
  6
Continuous
 62
   120
370
     5
100
AcDbLine
 10
-2823.150503200369
 20
3051.581095965818
 30
0.0
 11
-2828.15050320037
 21
3051.581095965818
 31
0.0
  0
LINE
  5
56A
330
1F
100
AcDbEntity
  8
0-3_仕上げ
  6
Continuous
 62
   120
370
     5
100
AcDbLine
 10
-2823.150503200369
 20
3058.000148463896
 30
0.0
 11
-2823.150503200369
 21
3051.581095965818
 31
0.0
  0
LINE
  5
56B
330
1F
100
AcDbEntity
  8
0-3_仕上げ
  6
Continuous
 62
   120
370
     5
100
AcDbLine
 10
-2823.150503200369
 20
3077.581095965818
 30
0.0
 11
-2828.15050320037
 21
3077.581095965818
 31
0.0
  0
LINE
  5
56C
330
1F
100
AcDbEntity
  8
0-3_仕上げ
  6
Continuous
 62
   120
370
     5
100
AcDbLine
 10
-2823.150503200369
 20
3084.000148463896
 30
0.0
 11
-2823.150503200369
 21
3077.581095965818
 31
0.0
  0
LINE
  5
56D
330
1F
100
AcDbEntity
  8
0-3_仕上げ
  6
Continuous
 62
   120
370
     5
100
AcDbLine
 10
-2823.150503200369
 20
3103.581095965818
 30
0.0
 11
-2828.15050320037
 21
3103.581095965818
 31
0.0
  0
LINE
  5
56E
330
1F
100
AcDbEntity
  8
0-3_仕上げ
  6
Continuous
 62
   120
370
     5
100
AcDbLine
 10
-2823.150503200369
 20
3110.000148463896
 30
0.0
 11
-2823.150503200369
 21
3103.581095965818
 31
0.0
  0
LINE
  5
56F
330
1F
100
AcDbEntity
  8
0-3_仕上げ
  6
Continuous
 62
   120
370
     5
100
AcDbLine
 10
-2823.150503200369
 20
3129.581095965819
 30
0.0
 11
-2828.15050320037
 21
3129.581095965819
 31
0.0
  0
LINE
  5
570
330
1F
100
AcDbEntity
  8
0-3_仕上げ
  6
Continuous
 62
   120
370
     5
100
AcDbLine
 10
-2823.150503200369
 20
3136.000148463896
 30
0.0
 11
-2823.150503200369
 21
3129.581095965819
 31
0.0
  0
LINE
  5
571
330
1F
100
AcDbEntity
  8
0-3_仕上げ
  6
Continuous
 62
   120
370
     5
100
AcDbLine
 10
-2823.150503200369
 20
3155.581095965819
 30
0.0
 11
-2828.15050320037
 21
3155.581095965819
 31
0.0
  0
LINE
  5
572
330
1F
100
AcDbEntity
  8
0-3_仕上げ
  6
Continuous
 62
   120
370
     5
100
AcDbLine
 10
-2823.150503200369
 20
3162.000148463897
 30
0.0
 11
-2823.150503200369
 21
3155.581095965819
 31
0.0
  0
LINE
  5
573
330
1F
100
AcDbEntity
  8
0-3_仕上げ
  6
Continuous
 62
   120
370
     5
100
AcDbLine
 10
-2823.150503200369
 20
3181.581095965819
 30
0.0
 11
-2828.15050320037
 21
3181.581095965819
 31
0.0
  0
LINE
  5
574
330
1F
100
AcDbEntity
  8
0-3_仕上げ
  6
Continuous
 62
   120
370
     5
100
AcDbLine
 10
-2823.150503200369
 20
3188.000148463896
 30
0.0
 11
-2823.150503200369
 21
3181.581095965819
 31
0.0
  0
LINE
  5
575
330
1F
100
AcDbEntity
  8
0-3_仕上げ
  6
Continuous
 62
   120
370
     5
100
AcDbLine
 10
-2823.150503200369
 20
3207.581095965819
 30
0.0
 11
-2828.15050320037
 21
3207.581095965819
 31
0.0
  0
LINE
  5
576
330
1F
100
AcDbEntity
  8
0-3_仕上げ
  6
Continuous
 62
   120
370
     5
100
AcDbLine
 10
-2823.150503200369
 20
3214.000148463896
 30
0.0
 11
-2823.150503200369
 21
3207.581095965819
 31
0.0
  0
LINE
  5
577
330
1F
100
AcDbEntity
  8
0-3_仕上げ
  6
Continuous
 62
   120
370
     5
100
AcDbLine
 10
-2823.150503200369
 20
3233.581095965819
 30
0.0
 11
-2828.15050320037
 21
3233.581095965819
 31
0.0
  0
LINE
  5
578
330
1F
100
AcDbEntity
  8
0-3_仕上げ
  6
Continuous
 62
   120
370
     5
100
AcDbLine
 10
-2823.150503200369
 20
3240.000148463897
 30
0.0
 11
-2823.150503200369
 21
3233.581095965819
 31
0.0
  0
LINE
  5
579
330
1F
100
AcDbEntity
  8
0-3_仕上げ
  6
Continuous
 62
   120
370
     5
100
AcDbLine
 10
-2823.150503200369
 20
3259.581095965819
 30
0.0
 11
-2828.15050320037
 21
3259.581095965819
 31
0.0
  0
LINE
  5
57A
330
1F
100
AcDbEntity
  8
0-3_仕上げ
  6
Continuous
 62
   120
370
     5
100
AcDbLine
 10
-2823.150503200369
 20
3266.000148463897
 30
0.0
 11
-2823.150503200369
 21
3259.581095965819
 31
0.0
  0
LINE
  5
57B
330
1F
100
AcDbEntity
  8
0-3_仕上げ
  6
Continuous
 62
     7
370
     9
100
AcDbLine
 10
-2600.15050320037
 20
3286.000148463891
 30
0.0
 11
-2828.15050320037
 21
3286.000148463891
 31
0.0
  0
LINE
  5
57C
330
1F
100
AcDbEntity
  8
0-3_仕上げ
  6
Continuous
 62
     7
370
     9
100
AcDbLine
 10
-2600.15050320037
 20
1576.000148463891
 30
0.0
 11
-2828.15050320037
 21
1576.000148463891
 31
0.0
  0
LINE
  5
57D
330
1F
100
AcDbEntity
  8
0-3_仕上げ
  6
Continuous
 62
     7
370
     9
100
AcDbLine
 10
-2600.15050320037
 20
1426.000148463891
 30
0.0
 11
-2600.15050320037
 21
3409.000148463891
 31
0.0
  0
LINE
  5
57E
330
1F
100
AcDbEntity
  8
0-3_仕上げ
  6
Continuous
 62
     7
370
     9
100
AcDbLine
 10
-2828.15050320037
 20
1426.000148463891
 30
0.0
 11
-2828.15050320037
 21
3409.000148463891
 31
0.0
  0
LINE
  5
57F
330
1F
100
AcDbEntity
  8
0-4_枠
  6
JWW_DASHED1
 62
   120
370
     5
100
AcDbLine
 10
-3089.15050320037
 20
1426.000148463891
 30
0.0
 11
-3089.15050320037
 21
3409.000148463891
 31
0.0
  0
LINE
  5
580
330
1F
100
AcDbEntity
  8
0-2_扉
  6
Continuous
 62
    92
370
    13
100
AcDbLine
 10
-3119.15050320037
 20
1426.000148463891
 30
0.0
 11
-3119.15050320037
 21
3409.000148463891
 31
0.0
  0
MTEXT
  5
581
330
1F
100
AcDbEntity
  8
0-A_文字
  6
Continuous
 62
     7
370
     9
100
AcDbMText
 10
-5370.000018557987
 20
661.5754150803014
 30
0.0
 40
57.15000000000017
 41
975.0000000000034
 46
0.0
 71
     7
 72
     1
  1
{\fＭＳ ゴシック|b0|i0|c128|p49;枠外幅 3,207mm（DW=810mm）}
 73
     1
 44
1.0
  0
MTEXT
  5
582
330
1F
100
AcDbEntity
  8
F-A_文字
  6
Continuous
 62
     7
370
     0
100
AcDbMText
 10
-5239.999990205508
 20
-4045.23306107839
 30
0.0
 40
79.53375000000001
 41
2505.0
 46
0.0
 71
     7
 72
     1
  1
{\fＭＳ ゴシック|b0|i0|c128|p49;ドレタス　３枚引き込み戸　レールタイプ　Ｂ－ＸＱ}
 73
     1
 44
1.0
  0
LWPOLYLINE
  5
583
330
1F
100
AcDbEntity
  8
0-B_寸法
  6
Continuous
 62
     7
370
     9
100
AcDbPolyline
 90
        4
 70
     1
 43
3.0
 10
-3867.65050320037
 20
1168.000148463894
 42
0.4142135623731
 10
-3869.15050320037
 20
1169.500148463894
 42
0.4142135623731
 10
-3870.65050320037
 20
1168.000148463894
 42
0.4142135623731
 10
-3869.15050320037
 20
1166.500148463894
 42
0.4142135623731
  0
LWPOLYLINE
  5
584
330
1F
100
AcDbEntity
  8
0-B_寸法
  6
Continuous
 62
     7
370
     9
100
AcDbPolyline
 90
        4
 70
     1
 43
3.0
 10
-4677.65050320037
 20
1168.000148463894
 42
0.4142135623731
 10
-4679.15050320037
 20
1169.500148463894
 42
0.4142135623731
 10
-4680.65050320037
 20
1168.000148463894
 42
0.4142135623731
 10
-4679.15050320037
 20
1166.500148463894
 42
0.4142135623731
  0
LINE
  5
585
330
1F
100
AcDbEntity
  8
0-B_寸法
  6
Continuous
 62
   120
370
     5
100
AcDbLine
 10
-3869.15050320037
 20
1168.000148463894
 30
0.0
 11
-3869.15050320037
 21
1368.000148463893
 31
0.0
  0
LINE
  5
586
330
1F
100
AcDbEntity
  8
0-B_寸法
  6
Continuous
 62
   120
370
     5
100
AcDbLine
 10
-4679.15050320037
 20
1168.000148463894
 30
0.0
 11
-3869.15050320037
 21
1168.000148463894
 31
0.0
  0
LINE
  5
587
330
1F
100
AcDbEntity
  8
0-B_寸法
  6
Continuous
 62
   120
370
     5
100
AcDbLine
 10
-4679.15050320037
 20
1168.000148463894
 30
0.0
 11
-4679.15050320037
 21
1368.000148463893
 31
0.0
  0
MTEXT
  5
588
330
1F
100
AcDbEntity
  8
0-B_寸法
  6
Continuous
 62
     7
370
   211
100
AcDbMText
 10
-4442.90050320037
 20
1174.075148463894
 30
0.0
 40
57.15
 41
337.5
 46
0.0
 71
     7
 72
     1
  1
{\fＭＳ ゴシック|b0|i0|c128|p49;ＤＷ＝810}
 73
     1
 44
1.0
  0
LINE
  5
589
330
1F
100
AcDbEntity
  8
引手
  6
JWW_CENTER1
 62
     7
370
     9
100
AcDbLine
 10
-3106.224669001697
 20
2383.500148463891
 30
0.0
 11
-3033.714972392535
 21
2383.500148463891
 31
0.0
  0
LINE
  5
58A
330
1F
100
AcDbEntity
  8
引手
  6
JWW_CENTER1
 62
     7
370
     9
100
AcDbLine
 10
-3068.150503200372
 20
2298.269479928366
 30
0.0
 11
-3068.150503200372
 21
2469.119751352503
 31
0.0
  0
LINE
  5
58B
330
1F
100
AcDbEntity
  8
引手
  6
JWW_DASHED1
 62
     7
370
     9
100
AcDbLine
 10
-3052.150503200373
 20
2332.500148463891
 30
0.0
 11
-3052.150503200373
 21
2434.500148463891
 31
0.0
  0
LINE
  5
58C
330
1F
100
AcDbEntity
  8
引手
  6
JWW_DASHED1
 62
     7
370
     9
100
AcDbLine
 10
-3084.150503200371
 20
2332.500148463891
 30
0.0
 11
-3052.150503200373
 21
2332.500148463891
 31
0.0
  0
LINE
  5
58D
330
1F
100
AcDbEntity
  8
引手
  6
JWW_DASHED1
 62
     7
370
     9
100
AcDbLine
 10
-3084.150503200371
 20
2332.500148463891
 30
0.0
 11
-3084.150503200371
 21
2434.500148463891
 31
0.0
  0
LINE
  5
58E
330
1F
100
AcDbEntity
  8
引手
  6
JWW_DASHED1
 62
     7
370
     9
100
AcDbLine
 10
-3084.150503200371
 20
2434.500148463891
 30
0.0
 11
-3052.150503200373
 21
2434.500148463891
 31
0.0
  0
LINE
  5
58F
330
1F
100
AcDbEntity
  8
引手
  6
Continuous
 62
     7
370
     9
100
AcDbLine
 10
-3087.150503200373
 20
2328.500148463891
 30
0.0
 11
-3049.150503200371
 21
2328.500148463891
 31
0.0
  0
LINE
  5
590
330
1F
100
AcDbEntity
  8
引手
  6
Continuous
 62
     7
370
     9
100
AcDbLine
 10
-3080.650503200372
 20
2344.500148463891
 30
0.0
 11
-3055.650503200372
 21
2344.500148463891
 31
0.0
  0
LINE
  5
591
330
1F
100
AcDbEntity
  8
引手
  6
Continuous
 62
     7
370
     9
100
AcDbLine
 10
-3080.650503200372
 20
2422.500148463891
 30
0.0
 11
-3055.650503200372
 21
2422.500148463891
 31
0.0
  0
LINE
  5
592
330
1F
100
AcDbEntity
  8
引手
  6
Continuous
 62
     7
370
     9
100
AcDbLine
 10
-3087.150503200373
 20
2438.500148463891
 30
0.0
 11
-3049.150503200371
 21
2438.500148463891
 31
0.0
  0
LINE
  5
593
330
1F
100
AcDbEntity
  8
引手
  6
Continuous
 62
     7
370
     9
100
AcDbLine
 10
-3087.150503200373
 20
2328.500148463891
 30
0.0
 11
-3087.150503200373
 21
2438.500148463891
 31
0.0
  0
LINE
  5
594
330
1F
100
AcDbEntity
  8
引手
  6
Continuous
 62
     7
370
     9
100
AcDbLine
 10
-3080.650503200372
 20
2344.500148463891
 30
0.0
 11
-3080.650503200372
 21
2422.500148463891
 31
0.0
  0
LINE
  5
595
330
1F
100
AcDbEntity
  8
引手
  6
Continuous
 62
     7
370
     9
100
AcDbLine
 10
-3055.650503200372
 20
2344.500148463891
 30
0.0
 11
-3055.650503200372
 21
2422.500148463891
 31
0.0
  0
LINE
  5
596
330
1F
100
AcDbEntity
  8
引手
  6
Continuous
 62
     7
370
     9
100
AcDbLine
 10
-3049.150503200371
 20
2328.500148463891
 30
0.0
 11
-3049.150503200371
 21
2438.500148463891
 31
0.0
  0
LINE
  5
597
330
1F
100
AcDbEntity
  8
0-4_枠
  6
Continuous
 62
    92
370
    13
100
AcDbLine
 10
-1499.15050320037
 20
1418.000148463894
 30
0.0
 11
-1529.15050320037
 21
1418.000148463894
 31
0.0
  0
LINE
  5
598
330
1F
100
AcDbEntity
  8
0-4_枠
  6
Continuous
 62
    92
370
    13
100
AcDbLine
 10
-4676.150503200371
 20
3423.000148463893
 30
0.0
 11
-1529.15050320037
 21
3423.000148463893
 31
0.0
  0
LINE
  5
599
330
1F
100
AcDbEntity
  8
0-4_枠
  6
Continuous
 62
    92
370
    13
100
AcDbLine
 10
-1499.15050320037
 20
1418.000148463894
 30
0.0
 11
-1499.15050320037
 21
3453.000148463893
 31
0.0
  0
LINE
  5
59A
330
1F
100
AcDbEntity
  8
0-4_枠
  6
Continuous
 62
    92
370
    13
100
AcDbLine
 10
-4706.150503200371
 20
3453.000148463893
 30
0.0
 11
-1499.15050320037
 21
3453.000148463893
 31
0.0
  0
LINE
  5
59B
330
1F
100
AcDbEntity
  8
0-4_枠
  6
Continuous
 62
    92
370
    13
100
AcDbLine
 10
-1529.15050320037
 20
1418.000148463894
 30
0.0
 11
-1529.15050320037
 21
3453.000148463893
 31
0.0
  0
LINE
  5
59C
330
1F
100
AcDbEntity
  8
0-4_枠
  6
Continuous
 62
    92
370
    13
100
AcDbLine
 10
-1529.15050320037
 20
1418.000148463894
 30
0.0
 11
-4676.150503200371
 21
1418.000148463894
 31
0.0
  0
LINE
  5
59D
330
1F
100
AcDbEntity
  8
0-4_枠
  6
Continuous
 62
    92
370
    13
100
AcDbLine
 10
-1529.15050320037
 20
1421.000148463894
 30
0.0
 11
-4676.150503200371
 21
1421.000148463894
 31
0.0
  0
LINE
  5
59E
330
1F
100
AcDbEntity
  8
0-2_扉
  6
Continuous
 62
    92
370
    13
100
AcDbLine
 10
-2309.15050320037
 20
3409.000148463891
 30
0.0
 11
-2309.15050320037
 21
1426.000148463891
 31
0.0
  0
LINE
  5
59F
330
1F
100
AcDbEntity
  8
0-2_扉
  6
Continuous
 62
    92
370
    13
100
AcDbLine
 10
-3119.15050320037
 20
1426.000148463891
 30
0.0
 11
-2309.15050320037
 21
1426.000148463891
 31
0.0
  0
LINE
  5
5A0
330
1F
100
AcDbEntity
  8
0-2_扉
  6
Continuous
 62
    92
370
    13
100
AcDbLine
 10
-3119.15050320037
 20
3409.000148463891
 30
0.0
 11
-2309.15050320037
 21
3409.000148463891
 31
0.0
  0
LINE
  5
5A1
330
1F
100
AcDbEntity
  8
0-4_枠
  6
JWW_DASHED1
 62
   120
370
     5
100
AcDbLine
 10
-2339.150503200371
 20
1421.000148463894
 30
0.0
 11
-2339.150503200371
 21
3423.000148463893
 31
0.0
  0
LINE
  5
5A2
330
1F
100
AcDbEntity
  8
0-4_枠
  6
JWW_DASHED1
 62
   120
370
     5
100
AcDbLine
 10
-2309.150503200371
 20
1421.000148463894
 30
0.0
 11
-2309.150503200371
 21
3423.000148463893
 31
0.0
  0
ENDSEC
  0
SECTION
  2
OBJECTS
  0
DICTIONARY
  5
C
330
0
100
AcDbDictionary
281
     1
  3
ACAD_GROUP
350
D
  3
ACAD_LAYOUT
350
1A
  3
ACAD_MATERIAL
350
3B
  3
ACAD_MLEADERSTYLE
350
5A4
  3
ACAD_MLINESTYLE
350
17
  3
ACAD_PLOTSETTINGS
350
19
  3
ACAD_PLOTSTYLENAME
350
E
  3
ACAD_TABLESTYLE
350
5A3
  3
ACAD_VISUALSTYLE
350
2A
  0
DICTIONARY
  5
D
102
{ACAD_REACTORS
330
C
102
}
330
C
100
AcDbDictionary
281
     1
  0
DICTIONARY
  5
1A
102
{ACAD_REACTORS
330
C
102
}
330
C
100
AcDbDictionary
281
     1
  3
Layout1
350
1E
  3
Layout2
350
26
  3
Model
350
22
  0
DICTIONARY
  5
3B
102
{ACAD_REACTORS
330
C
102
}
330
C
100
AcDbDictionary
281
     1
  3
ByBlock
350
3D
  3
ByLayer
350
3C
  3
Global
350
3E
  0
DICTIONARY
  5
5A4
102
{ACAD_REACTORS
330
C
102
}
330
C
100
AcDbDictionary
281
     1
  0
DICTIONARY
  5
17
102
{ACAD_REACTORS
330
C
102
}
330
C
100
AcDbDictionary
281
     1
  3
Standard
350
18
  0
DICTIONARY
  5
19
102
{ACAD_REACTORS
330
C
102
}
330
C
100
AcDbDictionary
281
     1
  0
ACDBDICTIONARYWDFLT
  5
E
102
{ACAD_REACTORS
330
C
102
}
330
C
100
AcDbDictionary
281
     1
  3
Normal
350
F
100
AcDbDictionaryWithDefault
340
F
  0
DICTIONARY
  5
5A3
102
{ACAD_REACTORS
330
C
102
}
330
C
100
AcDbDictionary
281
     1
  0
DICTIONARY
  5
2A
102
{ACAD_REACTORS
330
C
102
}
330
C
100
AcDbDictionary
281
     1
  3
2dWireframe
350
2F
  3
3D Hidden
350
31
  3
3dWireframe
350
30
  3
Basic
350
32
  3
Brighten
350
36
  3
ColorChange
350
3A
  3
Conceptual
350
34
  3
Dim
350
35
  3
Facepattern
350
39
  3
Flat
350
2B
  3
FlatWithEdges
350
2C
  3
Gouraud
350
2D
  3
GouraudWithEdges
350
2E
  3
Linepattern
350
38
  3
Realistic
350
33
  3
Thicken
350
37
  0
LAYOUT
  5
1E
102
{ACAD_REACTORS
330
1A
102
}
330
1A
100
AcDbPlotSettings
  1

  2
none_device
  4

  6

 40
0.0
 41
0.0
 42
0.0
 43
0.0
 44
0.0
 45
0.0
 46
0.0
 47
0.0
 48
0.0
 49
0.0
140
0.0
141
0.0
142
1.0
143
1.0
 70
   688
 72
     0
 73
     0
 74
     5
  7

 75
    16
 76
     0
 77
     5
 78
   300
147
1.0
148
0.0
149
0.0
100
AcDbLayout
  1
Layout1
 70
     1
 71
     1
 10
0.0
 20
0.0
 11
420.0
 21
297.0
 12
0.0
 22
0.0
 32
0.0
 14
1.000000000000000E+20
 24
1.000000000000000E+20
 34
1.000000000000000E+20
 15
-1.000000000000000E+20
 25
-1.000000000000000E+20
 35
-1.000000000000000E+20
146
0.0
 13
0.0
 23
0.0
 33
0.0
 16
1.0
 26
0.0
 36
0.0
 17
0.0
 27
1.0
 37
0.0
 76
     0
330
1B
  0
LAYOUT
  5
26
102
{ACAD_REACTORS
330
1A
102
}
330
1A
100
AcDbPlotSettings
  1

  2
none_device
  4

  6

 40
0.0
 41
0.0
 42
0.0
 43
0.0
 44
0.0
 45
0.0
 46
0.0
 47
0.0
 48
0.0
 49
0.0
140
0.0
141
0.0
142
1.0
143
1.0
 70
   688
 72
     0
 73
     0
 74
     5
  7

 75
    16
 76
     0
 77
     5
 78
   300
147
1.0
148
0.0
149
0.0
100
AcDbLayout
  1
Layout2
 70
     1
 71
     2
 10
0.0
 20
0.0
 11
0.0
 21
0.0
 12
0.0
 22
0.0
 32
0.0
 14
0.0
 24
0.0
 34
0.0
 15
0.0
 25
0.0
 35
0.0
146
0.0
 13
0.0
 23
0.0
 33
0.0
 16
1.0
 26
0.0
 36
0.0
 17
0.0
 27
1.0
 37
0.0
 76
     0
330
23
  0
LAYOUT
  5
22
102
{ACAD_REACTORS
330
1A
102
}
330
1A
100
AcDbPlotSettings
  1

  2
none_device
  4

  6

 40
0.0
 41
0.0
 42
0.0
 43
0.0
 44
0.0
 45
0.0
 46
0.0
 47
0.0
 48
0.0
 49
0.0
140
0.0
141
0.0
142
1.0
143
1.0
 70
  1712
 72
     0
 73
     0
 74
     0
  7

 75
     0
 76
     0
 77
     5
 78
   300
147
1.0
148
0.0
149
0.0
100
AcDbLayout
  1
Model
 70
     1
 71
     0
 10
-6300.0
 20
-4455.0
 11
6300.0
 21
4455.0
 12
0.0
 22
0.0
 32
0.0
 14
-6300.0
 24
-4455.0
 34
0.0
 15
6300.0
 25
4455.0
 35
0.0
146
0.0
 13
0.0
 23
0.0
 33
0.0
 16
1.0
 26
0.0
 36
0.0
 17
0.0
 27
1.0
 37
0.0
 76
     0
330
1F
331
29
  0
MATERIAL
  5
3D
102
{ACAD_REACTORS
330
3B
102
}
330
3B
100
AcDbMaterial
  1
ByBlock
 72
     1
 94
      127
  0
MATERIAL
  5
3C
102
{ACAD_REACTORS
330
3B
102
}
330
3B
100
AcDbMaterial
  1
ByLayer
 72
     1
 94
      127
  0
MATERIAL
  5
3E
102
{ACAD_REACTORS
330
3B
102
}
330
3B
100
AcDbMaterial
  1
Global
 72
     1
 94
      127
  0
MLINESTYLE
  5
18
102
{ACAD_REACTORS
330
17
102
}
330
17
100
AcDbMlineStyle
  2
Standard
 70
     0
  3

 62
   256
 51
90.0
 52
90.0
 71
     2
 49
0.5
 62
   256
  6
BYLAYER
 49
-0.5
 62
   256
  6
BYLAYER
  0
ACDBPLACEHOLDER
  5
F
102
{ACAD_REACTORS
330
E
102
}
330
E
  0
VISUALSTYLE
  5
2F
102
{ACAD_REACTORS
330
2A
102
}
330
2A
100
AcDbVisualStyle
  2
2dWireframe
 70
     4
177
     2
291
     0
 71
     0
176
     1
 72
     2
176
     1
 73
     0
176
     1
 90
        0
176
     1
 40
-0.6
176
     1
 41
-30.0
176
     1
 62
     5
 63
     7
421
 16777215
176
     1
 74
     1
176
     1
 91
        4
176
     1
 64
     7
176
     1
 65
   257
176
     1
 75
     1
176
     1
175
     1
176
     1
 42
1.0
176
     1
 92
        0
176
     1
 66
   257
176
     1
 43
1.0
176
     1
 76
     1
176
     1
 77
     6
176
     1
 78
     2
176
     1
 67
     7
176
     1
 79
     5
176
     1
170
     0
176
     1
171
     0
176
     1
290
     0
176
     1
 93
        1
176
     1
 44
0.0
176
     1
173
     0
176
     1
  0
VISUALSTYLE
  5
31
102
{ACAD_REACTORS
330
2A
102
}
330
2A
100
AcDbVisualStyle
  2
3D Hidden
 70
     6
177
     2
291
     0
 71
     1
176
     1
 72
     2
176
     1
 73
     2
176
     1
 90
        0
176
     1
 40
-0.6
176
     1
 41
-30.0
176
     1
 62
     5
 63
     7
421
 16777215
176
     1
 74
     2
176
     1
 91
        2
176
     1
 64
     7
176
     1
 65
   257
176
     1
 75
     2
176
     1
175
     1
176
     1
 42
40.0
176
     1
 92
        0
176
     1
 66
   257
176
     1
 43
1.0
176
     1
 76
     1
176
     1
 77
     6
176
     1
 78
     2
176
     1
 67
     7
176
     1
 79
     3
176
     1
170
     0
176
     1
171
     0
176
     1
290
     0
176
     1
 93
        1
176
     1
 44
0.0
176
     1
173
     0
176
     1
  0
VISUALSTYLE
  5
30
102
{ACAD_REACTORS
330
2A
102
}
330
2A
100
AcDbVisualStyle
  2
3dWireframe
 70
     5
177
     2
291
     0
 71
     0
176
     1
 72
     2
176
     1
 73
     0
176
     1
 90
        0
176
     1
 40
-0.6
176
     1
 41
-30.0
176
     1
 62
     5
 63
     7
421
 16777215
176
     1
 74
     1
176
     1
 91
        4
176
     1
 64
     7
176
     1
 65
   257
176
     1
 75
     1
176
     1
175
     1
176
     1
 42
1.0
176
     1
 92
        0
176
     1
 66
   257
176
     1
 43
1.0
176
     1
 76
     1
176
     1
 77
     6
176
     1
 78
     2
176
     1
 67
     7
176
     1
 79
     5
176
     1
170
     0
176
     1
171
     0
176
     1
290
     0
176
     1
 93
        1
176
     1
 44
0.0
176
     1
173
     0
176
     1
  0
VISUALSTYLE
  5
32
102
{ACAD_REACTORS
330
2A
102
}
330
2A
100
AcDbVisualStyle
  2
Basic
 70
     7
177
     2
291
     1
 71
     1
176
     1
 72
     0
176
     1
 73
     1
176
     1
 90
        0
176
     1
 40
-0.6
176
     1
 41
-30.0
176
     1
 62
     5
 63
     7
421
 16777215
176
     1
 74
     0
176
     1
 91
        4
176
     1
 64
     7
176
     1
 65
   257
176
     1
 75
     1
176
     1
175
     1
176
     1
 42
1.0
176
     1
 92
        8
176
     1
 66
     7
176
     1
 43
1.0
176
     1
 76
     1
176
     1
 77
     6
176
     1
 78
     2
176
     1
 67
     7
176
     1
 79
     5
176
     1
170
     0
176
     1
171
     0
176
     1
290
     0
176
     1
 93
        1
176
     1
 44
0.0
176
     1
173
     0
176
     1
  0
VISUALSTYLE
  5
36
102
{ACAD_REACTORS
330
2A
102
}
330
2A
100
AcDbVisualStyle
  2
Brighten
 70
    12
177
     2
291
     1
 71
     2
176
     1
 72
     2
176
     1
 73
     0
176
     1
 90
        0
176
     1
 40
-0.6
176
     1
 41
-30.0
176
     1
 62
     5
 63
     7
421
 16777215
176
     1
 74
     1
176
     1
 91
        4
176
     1
 64
     7
176
     1
 65
   257
176
     1
 75
     1
176
     1
175
     1
176
     1
 42
1.0
176
     1
 92
        8
176
     1
 66
     7
176
     1
 43
1.0
176
     1
 76
     1
176
     1
 77
     6
176
     1
 78
     2
176
     1
 67
     7
176
     1
 79
     5
176
     1
170
     0
176
     1
171
     0
176
     1
290
     0
176
     1
 93
        1
176
     1
 44
50.0
176
     1
173
     0
176
     1
  0
VISUALSTYLE
  5
3A
102
{ACAD_REACTORS
330
2A
102
}
330
2A
100
AcDbVisualStyle
  2
ColorChange
 70
    16
177
     2
291
     1
 71
     2
176
     1
 72
     2
176
     1
 73
     3
176
     1
 90
        0
176
     1
 40
-0.6
176
     1
 41
-30.0
176
     1
 62
     5
 63
     8
421
  8421504
176
     1
 74
     1
176
     1
 91
        4
176
     1
 64
     7
176
     1
 65
   257
176
     1
 75
     1
176
     1
175
     1
176
     1
 42
1.0
176
     1
 92
        8
176
     1
 66
     8
424
  8421504
176
     1
 43
1.0
176
     1
 76
     1
176
     1
 77
     6
176
     1
 78
     2
176
     1
 67
     7
176
     1
 79
     5
176
     1
170
     0
176
     1
171
     0
176
     1
290
     0
176
     1
 93
        1
176
     1
 44
0.0
176
     1
173
     0
176
     1
  0
VISUALSTYLE
  5
34
102
{ACAD_REACTORS
330
2A
102
}
330
2A
100
AcDbVisualStyle
  2
Conceptual
 70
     9
177
     2
291
     0
 71
     3
176
     1
 72
     2
176
     1
 73
     0
176
     1
 90
        0
176
     1
 40
-0.6
176
     1
 41
-30.0
176
     1
 62
     5
 63
     7
421
 16777215
176
     1
 74
     2
176
     1
 91
        2
176
     1
 64
     7
176
     1
 65
   257
176
     1
 75
     1
176
     1
175
     1
176
     1
 42
40.0
176
     1
 92
        8
176
     1
 66
     7
176
     1
 43
1.0
176
     1
 76
     1
176
     1
 77
     6
176
     1
 78
     2
176
     1
 67
     7
176
     1
 79
     3
176
     1
170
     0
176
     1
171
     0
176
     1
290
     0
176
     1
 93
        1
176
     1
 44
0.0
176
     1
173
     0
176
     1
  0
VISUALSTYLE
  5
35
102
{ACAD_REACTORS
330
2A
102
}
330
2A
100
AcDbVisualStyle
  2
Dim
 70
    11
177
     2
291
     1
 71
     2
176
     1
 72
     2
176
     1
 73
     0
176
     1
 90
        0
176
     1
 40
-0.6
176
     1
 41
-30.0
176
     1
 62
     5
 63
     7
421
 16777215
176
     1
 74
     1
176
     1
 91
        4
176
     1
 64
     7
176
     1
 65
   257
176
     1
 75
     1
176
     1
175
     1
176
     1
 42
1.0
176
     1
 92
        8
176
     1
 66
     7
176
     1
 43
1.0
176
     1
 76
     1
176
     1
 77
     6
176
     1
 78
     2
176
     1
 67
     7
176
     1
 79
     5
176
     1
170
     0
176
     1
171
     0
176
     1
290
     0
176
     1
 93
        1
176
     1
 44
-50.0
176
     1
173
     0
176
     1
  0
VISUALSTYLE
  5
39
102
{ACAD_REACTORS
330
2A
102
}
330
2A
100
AcDbVisualStyle
  2
Facepattern
 70
    15
177
     2
291
     1
 71
     2
176
     1
 72
     2
176
     1
 73
     0
176
     1
 90
        0
176
     1
 40
-0.6
176
     1
 41
-30.0
176
     1
 62
     5
 63
     7
421
 16777215
176
     1
 74
     1
176
     1
 91
        4
176
     1
 64
     7
176
     1
 65
   257
176
     1
 75
     1
176
     1
175
     1
176
     1
 42
1.0
176
     1
 92
        8
176
     1
 66
     7
176
     1
 43
1.0
176
     1
 76
     1
176
     1
 77
     6
176
     1
 78
     2
176
     1
 67
     7
176
     1
 79
     5
176
     1
170
     0
176
     1
171
     0
176
     1
290
     0
176
     1
 93
        1
176
     1
 44
0.0
176
     1
173
     0
176
     1
  0
VISUALSTYLE
  5
2B
102
{ACAD_REACTORS
330
2A
102
}
330
2A
100
AcDbVisualStyle
  2
Flat
 70
     0
177
     2
291
     1
 71
     2
176
     1
 72
     1
176
     1
 73
     1
176
     1
 90
        2
176
     1
 40
-0.6
176
     1
 41
30.0
176
     1
 62
     5
 63
     7
421
 16777215
176
     1
 74
     0
176
     1
 91
        4
176
     1
 64
     7
176
     1
 65
   257
176
     1
 75
     1
176
     1
175
     1
176
     1
 42
1.0
176
     1
 92
        8
176
     1
 66
     7
176
     1
 43
1.0
176
     1
 76
     1
176
     1
 77
     6
176
     1
 78
     2
176
     1
 67
     7
176
     1
 79
     5
176
     1
170
     0
176
     1
171
     0
176
     1
290
     0
176
     1
 93
       13
176
     1
 44
0.0
176
     1
173
     0
176
     1
  0
VISUALSTYLE
  5
2C
102
{ACAD_REACTORS
330
2A
102
}
330
2A
100
AcDbVisualStyle
  2
FlatWithEdges
 70
     1
177
     2
291
     1
 71
     2
176
     1
 72
     1
176
     1
 73
     1
176
     1
 90
        2
176
     1
 40
-0.6
176
     1
 41
30.0
176
     1
 62
     5
 63
     7
421
 16777215
176
     1
 74
     1
176
     1
 91
        4
176
     1
 64
     7
176
     1
 65
   257
176
     1
 75
     1
176
     1
175
     1
176
     1
 42
1.0
176
     1
 92
        0
176
     1
 66
   257
176
     1
 43
1.0
176
     1
 76
     1
176
     1
 77
     6
176
     1
 78
     2
176
     1
 67
     7
176
     1
 79
     5
176
     1
170
     0
176
     1
171
     0
176
     1
290
     0
176
     1
 93
       13
176
     1
 44
0.0
176
     1
173
     0
176
     1
  0
VISUALSTYLE
  5
2D
102
{ACAD_REACTORS
330
2A
102
}
330
2A
100
AcDbVisualStyle
  2
Gouraud
 70
     2
177
     2
291
     1
 71
     2
176
     1
 72
     2
176
     1
 73
     1
176
     1
 90
        2
176
     1
 40
-0.6
176
     1
 41
30.0
176
     1
 62
     5
 63
     7
421
 16777215
176
     1
 74
     0
176
     1
 91
        4
176
     1
 64
     7
176
     1
 65
   257
176
     1
 75
     1
176
     1
175
     1
176
     1
 42
1.0
176
     1
 92
        0
176
     1
 66
     7
176
     1
 43
1.0
176
     1
 76
     1
176
     1
 77
     6
176
     1
 78
     2
176
     1
 67
     7
176
     1
 79
     5
176
     1
170
     0
176
     1
171
     0
176
     1
290
     0
176
     1
 93
       13
176
     1
 44
0.0
176
     1
173
     0
176
     1
  0
VISUALSTYLE
  5
2E
102
{ACAD_REACTORS
330
2A
102
}
330
2A
100
AcDbVisualStyle
  2
GouraudWithEdges
 70
     3
177
     2
291
     1
 71
     2
176
     1
 72
     2
176
     1
 73
     1
176
     1
 90
        2
176
     1
 40
-0.6
176
     1
 41
30.0
176
     1
 62
     5
 63
     7
421
 16777215
176
     1
 74
     1
176
     1
 91
        4
176
     1
 64
     7
176
     1
 65
   257
176
     1
 75
     1
176
     1
175
     1
176
     1
 42
1.0
176
     1
 92
        0
176
     1
 66
   257
176
     1
 43
1.0
176
     1
 76
     1
176
     1
 77
     6
176
     1
 78
     2
176
     1
 67
     7
176
     1
 79
     5
176
     1
170
     0
176
     1
171
     0
176
     1
290
     0
176
     1
 93
       13
176
     1
 44
0.0
176
     1
173
     0
176
     1
  0
VISUALSTYLE
  5
38
102
{ACAD_REACTORS
330
2A
102
}
330
2A
100
AcDbVisualStyle
  2
Linepattern
 70
    14
177
     2
291
     1
 71
     2
176
     1
 72
     2
176
     1
 73
     0
176
     1
 90
        0
176
     1
 40
-0.6
176
     1
 41
-30.0
176
     1
 62
     5
 63
     7
421
 16777215
176
     1
 74
     1
176
     1
 91
        4
176
     1
 64
     7
176
     1
 65
   257
176
     1
 75
     7
176
     1
175
     7
176
     1
 42
1.0
176
     1
 92
        8
176
     1
 66
     7
176
     1
 43
1.0
176
     1
 76
     1
176
     1
 77
     6
176
     1
 78
     2
176
     1
 67
     7
176
     1
 79
     5
176
     1
170
     0
176
     1
171
     0
176
     1
290
     0
176
     1
 93
        1
176
     1
 44
0.0
176
     1
173
     0
176
     1
  0
VISUALSTYLE
  5
33
102
{ACAD_REACTORS
330
2A
102
}
330
2A
100
AcDbVisualStyle
  2
Realistic
 70
     8
177
     2
291
     0
 71
     2
176
     1
 72
     2
176
     1
 73
     0
176
     1
 90
        0
176
     1
 40
-0.6
176
     1
 41
-30.0
176
     1
 62
     5
 63
     7
421
 16777215
176
     1
 74
     1
176
     1
 91
        0
176
     1
 64
     7
176
     1
 65
   257
176
     1
 75
     1
176
     1
175
     1
176
     1
 42
1.0
176
     1
 92
        8
176
     1
 66
     8
424
  7895160
176
     1
 43
1.0
176
     1
 76
     1
176
     1
 77
     6
176
     1
 78
     2
176
     1
 67
     7
176
     1
 79
     5
176
     1
170
     0
176
     1
171
     0
176
     1
290
     0
176
     1
 93
       13
176
     1
 44
0.0
176
     1
173
     0
176
     1
  0
VISUALSTYLE
  5
37
102
{ACAD_REACTORS
330
2A
102
}
330
2A
100
AcDbVisualStyle
  2
Thicken
 70
    13
177
     2
291
     1
 71
     2
176
     1
 72
     2
176
     1
 73
     0
176
     1
 90
        0
176
     1
 40
-0.6
176
     1
 41
-30.0
176
     1
 62
     5
 63
     7
421
 16777215
176
     1
 74
     1
176
     1
 91
        4
176
     1
 64
     7
176
     1
 65
   257
176
     1
 75
     1
176
     1
175
     1
176
     1
 42
1.0
176
     1
 92
       12
176
     1
 66
     7
176
     1
 43
1.0
176
     1
 76
     1
176
     1
 77
     6
176
     1
 78
     2
176
     1
 67
     7
176
     1
 79
     5
176
     1
170
     0
176
     1
171
     0
176
     1
290
     0
176
     1
 93
        1
176
     1
 44
0.0
176
     1
173
     0
176
     1
  0
ENDSEC
  0
EOF
