  0
SECTION
  2
HEADER
  9
$ACADVER
  1
AC1024
  9
$ACADMAINTVER
 70
     6
  9
$DWGCODEPAGE
  3
ANSI_932
  9
$INSBASE
 10
0.0
 20
0.0
 30
0.0
  9
$EXTMIN
 10
-4200.0
 20
-2970.0
 30
0.0
  9
$EXTMAX
 10
4200.0
 20
2970.0
 30
0.0
  9
$LIMMIN
 10
-4200.0
 20
-2970.0
  9
$LIMMAX
 10
4200.0
 20
2970.0
  9
$ORTHOMODE
 70
     0
  9
$REGENMODE
 70
     1
  9
$FILLMODE
 70
     1
  9
$QTEXTMODE
 70
     0
  9
$MIRRTEXT
 70
     1
  9
$LTSCALE
 40
20.0
  9
$ATTMODE
 70
     1
  9
$TEXTSIZE
 40
2.5
  9
$TRACEWID
 40
1.0
  9
$TEXTSTYLE
  7
Standard
  9
$CLAYER
  8
0
  9
$CELTYPE
  6
ByLayer
  9
$CECOLOR
 62
   256
  9
$CELTSCALE
 40
1.0
  9
$DISPSILH
 70
     0
  9
$DIMSCALE
 40
1.0
  9
$DIMASZ
 40
2.5
  9
$DIMEXO
 40
0.625
  9
$DIMDLI
 40
3.75
  9
$DIMRND
 40
0.0
  9
$DIMDLE
 40
0.0
  9
$DIMEXE
 40
1.25
  9
$DIMTP
 40
0.0
  9
$DIMTM
 40
0.0
  9
$DIMTXT
 40
2.5
  9
$DIMCEN
 40
2.5
  9
$DIMTSZ
 40
0.0
  9
$DIMTOL
 70
     0
  9
$DIMLIM
 70
     0
  9
$DIMTIH
 70
     0
  9
$DIMTOH
 70
     0
  9
$DIMSE1
 70
     0
  9
$DIMSE2
 70
     0
  9
$DIMTAD
 70
     1
  9
$DIMZIN
 70
     8
  9
$DIMBLK
  1

  9
$DIMASO
 70
     1
  9
$DIMSHO
 70
     1
  9
$DIMPOST
  1

  9
$DIMAPOST
  1

  9
$DIMALT
 70
     0
  9
$DIMALTD
 70
     3
  9
$DIMALTF
 40
0.03937007874016
  9
$DIMLFAC
 40
1.0
  9
$DIMTOFL
 70
     1
  9
$DIMTVP
 40
0.0
  9
$DIMTIX
 70
     0
  9
$DIMSOXD
 70
     0
  9
$DIMSAH
 70
     0
  9
$DIMBLK1
  1

  9
$DIMBLK2
  1

  9
$DIMSTYLE
  2
ISO-25
  9
$DIMCLRD
 70
     0
  9
$DIMCLRE
 70
     0
  9
$DIMCLRT
 70
     0
  9
$DIMTFAC
 40
1.0
  9
$DIMGAP
 40
0.625
  9
$DIMJUST
 70
     0
  9
$DIMSD1
 70
     0
  9
$DIMSD2
 70
     0
  9
$DIMTOLJ
 70
     0
  9
$DIMTZIN
 70
     8
  9
$DIMALTZ
 70
     0
  9
$DIMALTTZ
 70
     0
  9
$DIMUPT
 70
     0
  9
$DIMDEC
 70
     2
  9
$DIMTDEC
 70
     2
  9
$DIMALTU
 70
     2
  9
$DIMALTTD
 70
     3
  9
$DIMTXSTY
  7
Standard
  9
$DIMAUNIT
 70
     0
  9
$DIMADEC
 70
     0
  9
$DIMALTRND
 40
0.0
  9
$DIMAZIN
 70
     0
  9
$DIMDSEP
 70
    44
  9
$DIMATFIT
 70
     3
  9
$DIMFRAC
 70
     0
  9
$DIMLDRBLK
  1

  9
$DIMLUNIT
 70
     2
  9
$DIMLWD
 70
    -2
  9
$DIMLWE
 70
    -2
  9
$DIMTMOVE
 70
     0
  9
$DIMFXL
 40
1.0
  9
$DIMFXLON
 70
     0
  9
$DIMJOGANG
 40
0.7853981633974483
  9
$DIMTFILL
 70
     0
  9
$DIMTFILLCLR
 70
     0
  9
$DIMARCSYM
 70
     0
  9
$DIMLTYPE
  6

  9
$DIMLTEX1
  6

  9
$DIMLTEX2
  6

  9
$DIMTXTDIRECTION
 70
     0
  9
$LUNITS
 70
     2
  9
$LUPREC
 70
     4
  9
$SKETCHINC
 40
1.0
  9
$FILLETRAD
 40
10.0
  9
$AUNITS
 70
     0
  9
$AUPREC
 70
     0
  9
$MENU
  1
.
  9
$ELEVATION
 40
0.0
  9
$PELEVATION
 40
0.0
  9
$THICKNESS
 40
0.0
  9
$LIMCHECK
 70
     0
  9
$CHAMFERA
 40
10.0
  9
$CHAMFERB
 40
10.0
  9
$CHAMFERC
 40
20.0
  9
$CHAMFERD
 40
0.0
  9
$SKPOLY
 70
     0
  9
$TDCREATE
 40
2459432.545591203
  9
$TDUCREATE
 40
2459432.170591203
  9
$TDUPDATE
 40
2459432.545591215
  9
$TDUUPDATE
 40
2459432.170591215
  9
$TDINDWG
 40
0.0000000116
  9
$TDUSRTIMER
 40
0.0000000116
  9
$USRTIMER
 70
     1
  9
$ANGBASE
 50
0.0
  9
$ANGDIR
 70
     0
  9
$PDMODE
 70
     0
  9
$PDSIZE
 40
0.0
  9
$PLINEWID
 40
0.0
  9
$SPLFRAME
 70
     0
  9
$SPLINETYPE
 70
     6
  9
$SPLINESEGS
 70
     8
  9
$HANDSEED
  5
23B
  9
$SURFTAB1
 70
     6
  9
$SURFTAB2
 70
     6
  9
$SURFTYPE
 70
     6
  9
$SURFU
 70
     6
  9
$SURFV
 70
     6
  9
$UCSBASE
  2

  9
$UCSNAME
  2

  9
$UCSORG
 10
0.0
 20
0.0
 30
0.0
  9
$UCSXDIR
 10
1.0
 20
0.0
 30
0.0
  9
$UCSYDIR
 10
0.0
 20
1.0
 30
0.0
  9
$UCSORTHOREF
  2

  9
$UCSORTHOVIEW
 70
     0
  9
$UCSORGTOP
 10
0.0
 20
0.0
 30
0.0
  9
$UCSORGBOTTOM
 10
0.0
 20
0.0
 30
0.0
  9
$UCSORGLEFT
 10
0.0
 20
0.0
 30
0.0
  9
$UCSORGRIGHT
 10
0.0
 20
0.0
 30
0.0
  9
$UCSORGFRONT
 10
0.0
 20
0.0
 30
0.0
  9
$UCSORGBACK
 10
0.0
 20
0.0
 30
0.0
  9
$PUCSBASE
  2

  9
$PUCSNAME
  2

  9
$PUCSORG
 10
0.0
 20
0.0
 30
0.0
  9
$PUCSXDIR
 10
1.0
 20
0.0
 30
0.0
  9
$PUCSYDIR
 10
0.0
 20
1.0
 30
0.0
  9
$PUCSORTHOREF
  2

  9
$PUCSORTHOVIEW
 70
     0
  9
$PUCSORGTOP
 10
0.0
 20
0.0
 30
0.0
  9
$PUCSORGBOTTOM
 10
0.0
 20
0.0
 30
0.0
  9
$PUCSORGLEFT
 10
0.0
 20
0.0
 30
0.0
  9
$PUCSORGRIGHT
 10
0.0
 20
0.0
 30
0.0
  9
$PUCSORGFRONT
 10
0.0
 20
0.0
 30
0.0
  9
$PUCSORGBACK
 10
0.0
 20
0.0
 30
0.0
  9
$USERI1
 70
     0
  9
$USERI2
 70
     0
  9
$USERI3
 70
     0
  9
$USERI4
 70
     0
  9
$USERI5
 70
     0
  9
$USERR1
 40
0.0
  9
$USERR2
 40
0.0
  9
$USERR3
 40
0.0
  9
$USERR4
 40
0.0
  9
$USERR5
 40
0.0
  9
$WORLDVIEW
 70
     1
  9
$SHADEDGE
 70
     3
  9
$SHADEDIF
 70
    70
  9
$TILEMODE
 70
     1
  9
$MAXACTVP
 70
    64
  9
$PINSBASE
 10
0.0
 20
0.0
 30
0.0
  9
$PLIMCHECK
 70
     0
  9
$PEXTMIN
 10
1.000000000000000E+20
 20
1.000000000000000E+20
 30
1.000000000000000E+20
  9
$PEXTMAX
 10
-1.000000000000000E+20
 20
-1.000000000000000E+20
 30
-1.000000000000000E+20
  9
$PLIMMIN
 10
0.0
 20
0.0
  9
$PLIMMAX
 10
420.0
 20
297.0
  9
$UNITMODE
 70
     0
  9
$VISRETAIN
 70
     1
  9
$PLINEGEN
 70
     0
  9
$PSLTSCALE
 70
     1
  9
$TREEDEPTH
 70
  3020
  9
$CMLSTYLE
  2
Standard
  9
$CMLJUST
 70
     0
  9
$CMLSCALE
 40
20.0
  9
$PROXYGRAPHICS
 70
     1
  9
$MEASUREMENT
 70
     1
  9
$CELWEIGHT
370
    -1
  9
$ENDCAPS
280
     0
  9
$JOINSTYLE
280
     0
  9
$LWDISPLAY
290
     0
  9
$INSUNITS
 70
     4
  9
$HYPERLINKBASE
  1

  9
$STYLESHEET
  1

  9
$XEDIT
290
     1
  9
$CEPSNTYPE
380
     0
  9
$PSTYLEMODE
290
     1
  9
$FINGERPRINTGUID
  2
{1A25CA47-E93E-40BD-BAA5-D6F7FF5A2BA5}
  9
$VERSIONGUID
  2
{FAEB1C32-E019-11D5-929B-00C0DF256EC4}
  9
$EXTNAMES
290
     1
  9
$PSVPSCALE
 40
0.0
  9
$OLESTARTUP
290
     0
  9
$SORTENTS
280
   127
  9
$INDEXCTL
280
     0
  9
$HIDETEXT
280
     1
  9
$XCLIPFRAME
280
     2
  9
$HALOGAP
280
     0
  9
$OBSCOLOR
 70
   257
  9
$OBSLTYPE
280
     0
  9
$INTERSECTIONDISPLAY
280
     0
  9
$INTERSECTIONCOLOR
 70
   257
  9
$DIMASSOC
280
     2
  9
$PROJECTNAME
  1

  9
$CAMERADISPLAY
290
     0
  9
$LENSLENGTH
 40
50.0
  9
$CAMERAHEIGHT
 40
0.0
  9
$STEPSPERSEC
 40
2.0
  9
$STEPSIZE
 40
6.0
  9
$3DDWFPREC
 40
2.0
  9
$PSOLWIDTH
 40
5.0
  9
$PSOLHEIGHT
 40
80.0
  9
$LOFTANG1
 40
1.570796326794897
  9
$LOFTANG2
 40
1.570796326794897
  9
$LOFTMAG1
 40
0.0
  9
$LOFTMAG2
 40
0.0
  9
$LOFTPARAM
 70
     7
  9
$LOFTNORMALS
280
     1
  9
$LATITUDE
 40
37.795
  9
$LONGITUDE
 40
-122.394
  9
$NORTHDIRECTION
 40
0.0
  9
$TIMEZONE
 70
 -8000
  9
$LIGHTGLYPHDISPLAY
280
     1
  9
$TILEMODELIGHTSYNCH
280
     1
  9
$SOLIDHIST
280
     1
  9
$SHOWHIST
280
     1
  9
$DWFFRAME
280
     2
  9
$DGNFRAME
280
     2
  9
$REALWORLDSCALE
290
     1
  9
$INTERFERECOLOR
 62
   256
  9
$CSHADOW
280
     0
  9
$SHADOWPLANELOCATION
 40
0.0
  0
ENDSEC
  0
SECTION
  2
CLASSES
  0
CLASS
  1
ACDBDICTIONARYWDFLT
  2
AcDbDictionaryWithDefault
  3
ObjectDBX Classes
 90
        0
 91
        4
280
     0
281
     0
  0
CLASS
  1
VISUALSTYLE
  2
AcDbVisualStyle
  3
ObjectDBX Classes
 90
     4095
 91
        4
280
     0
281
     0
  0
CLASS
  1
MATERIAL
  2
AcDbMaterial
  3
ObjectDBX Classes
 90
     1153
 91
        4
280
     0
281
     0
  0
ENDSEC
  0
SECTION
  2
TABLES
  0
TABLE
  2
VPORT
  5
8
330
0
100
AcDbSymbolTable
 70
     1
  0
VPORT
  5
29
330
8
100
AcDbSymbolTableRecord
100
AcDbViewportTableRecord
  2
*Active
 70
     0
 10
0.0
 20
0.0
 11
1.0
 21
1.0
 12
0.0
 22
0.0
 13
0.0
 23
0.0
 14
10.0
 24
10.0
 15
10.0
 25
10.0
 16
0.0
 26
0.0
 36
1.0
 17
0.0
 27
0.0
 37
0.0
 40
6534.000000000001
 41
1.414141414141414
 42
50.0
 43
0.0
 44
0.0
 50
0.0
 51
0.0
 71
     0
 72
 10000
 73
     1
 74
     3
 75
     0
 76
     0
 77
     0
 78
     0
281
     0
 65
     1
110
0.0
120
0.0
130
0.0
111
1.0
121
0.0
131
0.0
112
0.0
122
1.0
132
0.0
 79
     0
146
0.0
 60
     3
 61
     5
292
     1
282
     1
141
0.0
142
0.0
 63
   250
  0
ENDTAB
  0
TABLE
  2
LTYPE
  5
5
330
0
100
AcDbSymbolTable
 70
     3
  0
LTYPE
  5
14
330
5
100
AcDbSymbolTableRecord
100
AcDbLinetypeTableRecord
  2
ByBlock
 70
     0
  3

 72
    65
 73
     0
 40
0.0
  0
LTYPE
  5
15
330
5
100
AcDbSymbolTableRecord
100
AcDbLinetypeTableRecord
  2
ByLayer
 70
     0
  3

 72
    65
 73
     0
 40
0.0
  0
LTYPE
  5
16
330
5
100
AcDbSymbolTableRecord
100
AcDbLinetypeTableRecord
  2
Continuous
 70
     0
  3
Solid line
 72
    65
 73
     0
 40
0.0
  0
LTYPE
  5
3F
330
5
100
AcDbSymbolTableRecord
100
AcDbLinetypeTableRecord
  2
JWW_HOJO
 70
     0
  3
  -   -   -   -   -   -   -   - 
 72
    65
 73
     2
 40
1.693333333333333
 49
-1.27
 74
     0
 49
0.4233333333333333
 74
     0
  0
LTYPE
  5
40
330
5
100
AcDbSymbolTableRecord
100
AcDbLinetypeTableRecord
  2
JWW_DASHED1
 70
     0
  3
-  --  --  --  --  --  --  --  -
 72
    65
 73
     2
 40
1.693333333333333
 49
0.8466666666666667
 74
     0
 49
-0.8466666666666667
 74
     0
  0
ENDTAB
  0
TABLE
  2
LAYER
  5
2
330
0
100
AcDbSymbolTable
 70
     8
  0
LAYER
  5
10
330
2
100
AcDbSymbolTableRecord
100
AcDbLayerTableRecord
  2
0
 70
     0
 62
     7
  6
Continuous
370
    -3
390
F
347
3E
  0
LAYER
  5
41
330
2
100
AcDbSymbolTableRecord
100
AcDbLayerTableRecord
  2
F-0
 70
     0
 62
     7
  6
Continuous
370
    -3
390
F
347
3E
  0
LAYER
  5
42
330
2
100
AcDbSymbolTableRecord
100
AcDbLayerTableRecord
  2
F-1
 70
     0
 62
     7
  6
Continuous
370
    -3
390
F
347
3E
  0
LAYER
  5
43
330
2
100
AcDbSymbolTableRecord
100
AcDbLayerTableRecord
  2
0-0
 70
     0
 62
     7
  6
Continuous
370
    -3
390
F
347
3E
  0
LAYER
  5
44
330
2
100
AcDbSymbolTableRecord
100
AcDbLayerTableRecord
  2
0-4
 70
     0
 62
     7
  6
Continuous
370
    -3
390
F
347
3E
  0
LAYER
  5
45
330
2
100
AcDbSymbolTableRecord
100
AcDbLayerTableRecord
  2
0-B
 70
     0
 62
     7
  6
Continuous
370
    -3
390
F
347
3E
  0
LAYER
  5
46
330
2
100
AcDbSymbolTableRecord
100
AcDbLayerTableRecord
  2
0-A
 70
     0
 62
     7
  6
Continuous
370
    -3
390
F
347
3E
  0
LAYER
  5
47
330
2
100
AcDbSymbolTableRecord
100
AcDbLayerTableRecord
  2
F-A
 70
     0
 62
     7
  6
Continuous
370
    -3
390
F
347
3E
  0
ENDTAB
  0
TABLE
  2
STYLE
  5
3
330
0
100
AcDbSymbolTable
 70
     1
  0
STYLE
  5
11
330
3
100
AcDbSymbolTableRecord
100
AcDbTextStyleTableRecord
  2
Standard
 70
     0
 40
0.0
 41
1.0
 50
0.0
 71
     0
 42
2.5
  3
txt
  4

  0
ENDTAB
  0
TABLE
  2
VIEW
  5
6
330
0
100
AcDbSymbolTable
 70
     0
  0
ENDTAB
  0
TABLE
  2
UCS
  5
7
330
0
100
AcDbSymbolTable
 70
     0
  0
ENDTAB
  0
TABLE
  2
APPID
  5
9
330
0
100
AcDbSymbolTable
 70
     1
  0
APPID
  5
12
330
9
100
AcDbSymbolTableRecord
100
AcDbRegAppTableRecord
  2
ACAD
 70
     0
  0
ENDTAB
  0
TABLE
  2
DIMSTYLE
  5
A
330
0
100
AcDbSymbolTable
 70
     1
100
AcDbDimStyleTable
  0
DIMSTYLE
105
27
330
A
100
AcDbSymbolTableRecord
100
AcDbDimStyleTableRecord
  2
ISO-25
 70
     0
 41
2.5
 42
0.625
 43
3.75
 44
1.25
 73
     0
 74
     0
 77
     1
 78
     8
140
2.5
141
2.5
143
0.03937007874016
147
0.625
171
     3
172
     1
178
     0
271
     2
272
     2
274
     3
278
    44
283
     0
284
     8
340
11
  0
ENDTAB
  0
TABLE
  2
BLOCK_RECORD
  5
1
330
0
100
AcDbSymbolTable
 70
     1
  0
BLOCK_RECORD
  5
1F
330
1
100
AcDbSymbolTableRecord
100
AcDbBlockTableRecord
  2
*Model_Space
340
22
 70
     0
280
     1
281
     0
  0
BLOCK_RECORD
  5
1B
330
1
100
AcDbSymbolTableRecord
100
AcDbBlockTableRecord
  2
*Paper_Space
340
1E
 70
     0
280
     1
281
     0
  0
BLOCK_RECORD
  5
23
330
1
100
AcDbSymbolTableRecord
100
AcDbBlockTableRecord
  2
*Paper_Space0
340
26
 70
     0
280
     1
281
     0
  0
ENDTAB
  0
ENDSEC
  0
SECTION
  2
BLOCKS
  0
BLOCK
  5
20
330
1F
100
AcDbEntity
  8
0
100
AcDbBlockBegin
  2
*Model_Space
 70
     0
 10
0.0
 20
0.0
 30
0.0
  3
*Model_Space
  1

  0
ENDBLK
  5
21
330
1F
100
AcDbEntity
  8
0
100
AcDbBlockEnd
  0
BLOCK
  5
1C
330
1B
100
AcDbEntity
 67
     1
  8
0
100
AcDbBlockBegin
  2
*Paper_Space
 70
     0
 10
0.0
 20
0.0
 30
0.0
  3
*Paper_Space
  1

  0
ENDBLK
  5
1D
330
1B
100
AcDbEntity
 67
     1
  8
0
100
AcDbBlockEnd
  0
BLOCK
  5
24
330
23
100
AcDbEntity
  8
0
100
AcDbBlockBegin
  2
*Paper_Space0
 70
     0
 10
0.0
 20
0.0
 30
0.0
  3
*Paper_Space0
  1

  0
ENDBLK
  5
25
330
23
100
AcDbEntity
  8
0
100
AcDbBlockEnd
  0
ENDSEC
  0
SECTION
  2
ENTITIES
  0
LINE
  5
48
330
1F
100
AcDbEntity
  8
F-0
  6
JWW_HOJO
 62
     7
370
     9
100
AcDbLine
 10
-100.0001165610581
 20
-2699.999826518681
 30
0.0
 11
3793.332617418037
 21
-2700.003445326087
 31
0.0
  0
LINE
  5
49
330
1F
100
AcDbEntity
  8
F-1
  6
Continuous
 62
     7
370
     9
100
AcDbLine
 10
-1603.333839210304
 20
2783.36534654772
 30
0.0
 11
-1603.333839210304
 21
-2530.000032991976
 31
0.0
  0
LINE
  5
4A
330
1F
100
AcDbEntity
  8
F-1
  6
Continuous
 62
     7
370
     9
100
AcDbLine
 10
-1003.333839210304
 20
2783.36534654772
 30
0.0
 11
-1003.333839210304
 21
-2530.000032991976
 31
0.0
  0
LINE
  5
4B
330
1F
100
AcDbEntity
  8
F-1
  6
Continuous
 62
     7
370
     9
100
AcDbLine
 10
-423.3338392103036
 20
2783.36534654772
 30
0.0
 11
-423.3338392103036
 21
-2530.000032991976
 31
0.0
  0
LINE
  5
4C
330
1F
100
AcDbEntity
  8
F-0
  6
JWW_HOJO
 62
   120
370
     5
100
AcDbLine
 10
-4200.0
 20
2949.99973606419
 30
0.0
 11
3999.999340160473
 21
2949.99973606419
 31
0.0
  0
LINE
  5
4D
330
1F
100
AcDbEntity
  8
F-1
  6
Continuous
 62
   200
370
    20
100
AcDbLine
 10
-3993.333326803671
 20
2783.333179370777
 30
0.0
 11
-3993.333326803671
 21
-2803.333443306588
 31
0.0
  0
LINE
  5
4E
330
1F
100
AcDbEntity
  8
F-0
  6
JWW_HOJO
 62
   120
370
     5
100
AcDbLine
 10
1.666259765625
 20
2776.666655669342
 30
0.0
 11
1.666259765625
 21
-2526.72046558277
 31
0.0
  0
LINE
  5
4F
330
1F
100
AcDbEntity
  8
F-0
  6
JWW_HOJO
 62
   120
370
     5
100
AcDbLine
 10
-3993.33306389886
 20
2631.666919605152
 30
0.0
 11
3793.558316617399
 21
2631.666919605152
 31
0.0
  0
LINE
  5
50
330
1F
100
AcDbEntity
  8
F-0
  6
JWW_HOJO
 62
   120
370
     5
100
AcDbLine
 10
-4200.0
 20
-2970.0
 30
0.0
 11
-4200.0
 21
2949.99973606419
 31
0.0
  0
LINE
  5
51
330
1F
100
AcDbEntity
  8
F-0
  6
JWW_HOJO
 62
   120
370
     5
100
AcDbLine
 10
3999.999340160473
 20
2949.99973606419
 30
0.0
 11
3999.999340160473
 21
-2970.0
 31
0.0
  0
LINE
  5
52
330
1F
100
AcDbEntity
  8
F-0
  6
JWW_HOJO
 62
   120
370
     5
100
AcDbLine
 10
3999.999340160473
 20
-2970.0
 30
0.0
 11
-4200.0
 21
-2970.0
 31
0.0
  0
LINE
  5
53
330
1F
100
AcDbEntity
  8
F-1
  6
Continuous
 62
   200
370
    20
100
AcDbLine
 10
-3999.999835040118
 20
2783.333179370777
 30
0.0
 11
3799.999175200592
 21
2783.333179370777
 31
0.0
  0
LINE
  5
54
330
1F
100
AcDbEntity
  8
F-1
  6
Continuous
 62
   200
370
    20
100
AcDbLine
 10
3799.999175200592
 20
2783.333179370777
 30
0.0
 11
3799.999175200592
 21
-2803.333443306588
 31
0.0
  0
LINE
  5
55
330
1F
100
AcDbEntity
  8
F-1
  6
Continuous
 62
   200
370
    20
100
AcDbLine
 10
-3999.999989690007
 20
2783.333179370777
 30
0.0
 11
-3999.999989690007
 21
-2803.333443306588
 31
0.0
  0
LINE
  5
56
330
1F
100
AcDbEntity
  8
F-1
  6
Continuous
 62
   200
370
    20
100
AcDbLine
 10
-3999.999835040118
 20
2776.666655669342
 30
0.0
 11
3799.999175200592
 21
2776.666655669342
 31
0.0
  0
LINE
  5
57
330
1F
100
AcDbEntity
  8
F-1
  6
Continuous
 62
   200
370
    20
100
AcDbLine
 10
-3999.999835040118
 20
2779.999670080237
 30
0.0
 11
3799.999175200592
 21
2779.999670080237
 31
0.0
  0
LINE
  5
58
330
1F
100
AcDbEntity
  8
F-1
  6
Continuous
 62
   200
370
    20
100
AcDbLine
 10
-3996.666650514345
 20
2783.333179370777
 30
0.0
 11
-3996.666650514345
 21
-2803.333443306588
 31
0.0
  0
LINE
  5
59
330
1F
100
AcDbEntity
  8
F-1
  6
Continuous
 62
   200
370
    20
100
AcDbLine
 10
3796.665665910051
 20
2783.333179370777
 30
0.0
 11
3796.665665910051
 21
-2803.333443306588
 31
0.0
  0
LINE
  5
5A
330
1F
100
AcDbEntity
  8
F-1
  6
Continuous
 62
   200
370
    20
100
AcDbLine
 10
3793.332651499156
 20
2783.333179370777
 30
0.0
 11
3793.332651499156
 21
-2803.333443306588
 31
0.0
  0
LINE
  5
5B
330
1F
100
AcDbEntity
  8
F-1
  6
Continuous
 62
   200
370
    20
100
AcDbLine
 10
-100.0005773595859
 20
2783.333179370777
 30
0.0
 11
-100.0005773595859
 21
-2530.000032991976
 31
0.0
  0
LINE
  5
5C
330
1F
100
AcDbEntity
  8
F-1
  6
Continuous
 62
   200
370
    20
100
AcDbLine
 10
-96.66731550886823
 20
2783.36534654772
 30
0.0
 11
-96.66731550886823
 21
-2530.000032991976
 31
0.0
  0
LINE
  5
5D
330
1F
100
AcDbEntity
  8
F-1
  6
Continuous
 62
   200
370
    20
100
AcDbLine
 10
-103.3338392103036
 20
2783.36534654772
 30
0.0
 11
-103.3338392103036
 21
-2530.000032991976
 31
0.0
  0
LINE
  5
5E
330
1F
100
AcDbEntity
  8
F-1
  6
Continuous
 62
   200
370
    20
100
AcDbLine
 10
3799.999175200592
 20
2473.333641258446
 30
0.0
 11
-3999.999835040118
 21
2473.333641258446
 31
0.0
  0
LINE
  5
5F
330
1F
100
AcDbEntity
  8
F-1
  6
Continuous
 62
     7
370
     9
100
AcDbLine
 10
-3293.333352578653
 20
2783.333179370777
 30
0.0
 11
-3293.333352578653
 21
-2526.666678351325
 31
0.0
  0
LINE
  5
60
330
1F
100
AcDbEntity
  8
F-1
  6
Continuous
 62
     7
370
     9
100
AcDbLine
 10
2293.333146378801
 20
2783.333179370777
 30
0.0
 11
2293.333146378801
 21
-2526.666678351325
 31
0.0
  0
LINE
  5
61
330
1F
100
AcDbEntity
  8
F-0
  6
JWW_HOJO
 62
   120
370
     5
100
AcDbLine
 10
1448.33277109507
 20
2473.333641258446
 30
0.0
 11
1448.33277109507
 21
-2526.666678351325
 31
0.0
  0
LINE
  5
62
330
1F
100
AcDbEntity
  8
F-1
  6
JWW_HOJO
 62
   120
370
     5
100
AcDbLine
 10
-3993.33306389886
 20
2631.666919605152
 30
0.0
 11
3793.558316617399
 21
2631.666919605152
 31
0.0
  0
LINE
  5
63
330
1F
100
AcDbEntity
  8
F-1
  6
Continuous
 62
     7
370
     9
100
AcDbLine
 10
-1603.333839210304
 20
2631.666919605152
 30
0.0
 11
-1003.333839210304
 21
2631.666919605152
 31
0.0
  0
LINE
  5
64
330
1F
100
AcDbEntity
  8
F-1
  6
Continuous
 62
     7
370
     9
100
AcDbLine
 10
2293.333146378801
 20
2631.634752428209
 30
0.0
 11
2893.333146378801
 21
2631.634752428209
 31
0.0
  0
LINE
  5
65
330
1F
100
AcDbEntity
  8
F-1
  6
Continuous
 62
     7
370
     9
100
AcDbLine
 10
2893.333146378801
 20
2783.333179370777
 30
0.0
 11
2893.333146378801
 21
-2530.032200168919
 31
0.0
  0
LINE
  5
66
330
1F
100
AcDbEntity
  8
F-1
  6
Continuous
 62
     7
370
     9
100
AcDbLine
 10
3473.333146378802
 20
2783.333179370777
 30
0.0
 11
3473.333146378802
 21
-2530.032200168919
 31
0.0
  0
LINE
  5
67
330
1F
100
AcDbEntity
  8
F-1
  6
Continuous
 62
   200
370
    20
100
AcDbLine
 10
3799.999175200592
 20
2480.000164960446
 30
0.0
 11
-3999.999835040119
 21
2480.000164960446
 31
0.0
  0
LINE
  5
68
330
1F
100
AcDbEntity
  8
0-0
  6
JWW_HOJO
 62
     7
370
     9
100
AcDbLine
 10
-983.3338392103042
 20
2783.36534654772
 30
0.0
 11
-983.3338392103042
 21
-2530.000032991976
 31
0.0
  0
LINE
  5
69
330
1F
100
AcDbEntity
  8
F-1
  6
JWW_DASHED1
 62
     7
370
     9
100
AcDbLine
 10
2293.333146378801
 20
1878.526853023809
 30
0.0
 11
3793.333146378802
 21
1878.526853023809
 31
0.0
  0
LINE
  5
6A
330
1F
100
AcDbEntity
  8
F-1
  6
JWW_DASHED1
 62
     7
370
     9
100
AcDbLine
 10
2293.333146378801
 20
1997.574479681184
 30
0.0
 11
3793.333146378802
 21
1997.574479681184
 31
0.0
  0
LINE
  5
6B
330
1F
100
AcDbEntity
  8
F-1
  6
JWW_DASHED1
 62
     7
370
     9
100
AcDbLine
 10
2293.333146378801
 20
2116.62210633856
 30
0.0
 11
3793.333146378802
 21
2116.62210633856
 31
0.0
  0
LINE
  5
6C
330
1F
100
AcDbEntity
  8
F-1
  6
JWW_DASHED1
 62
     7
370
     9
100
AcDbLine
 10
2293.333146378801
 20
2235.669732995935
 30
0.0
 11
3793.333146378802
 21
2235.669732995935
 31
0.0
  0
LINE
  5
6D
330
1F
100
AcDbEntity
  8
F-1
  6
JWW_DASHED1
 62
     7
370
     9
100
AcDbLine
 10
2293.333146378801
 20
2354.717359653311
 30
0.0
 11
3793.333146378802
 21
2354.717359653311
 31
0.0
  0
LINE
  5
6E
330
1F
100
AcDbEntity
  8
0-0
  6
JWW_HOJO
 62
     7
370
     9
100
AcDbLine
 10
2913.333146378801
 20
2783.333179370777
 30
0.0
 11
2913.333146378801
 21
-2530.032200168919
 31
0.0
  0
LINE
  5
6F
330
1F
100
AcDbEntity
  8
F-1
  6
JWW_DASHED1
 62
     7
370
     9
100
AcDbLine
 10
2293.333146378801
 20
1164.672438131796
 30
0.0
 11
3793.333146378802
 21
1164.672438131796
 31
0.0
  0
LINE
  5
70
330
1F
100
AcDbEntity
  8
F-1
  6
JWW_DASHED1
 62
     7
370
     9
100
AcDbLine
 10
2293.333146378801
 20
1283.720064789172
 30
0.0
 11
3793.333146378802
 21
1283.720064789172
 31
0.0
  0
LINE
  5
71
330
1F
100
AcDbEntity
  8
F-1
  6
JWW_DASHED1
 62
     7
370
     9
100
AcDbLine
 10
2293.333146378801
 20
1402.767691446547
 30
0.0
 11
3793.333146378802
 21
1402.767691446547
 31
0.0
  0
LINE
  5
72
330
1F
100
AcDbEntity
  8
F-1
  6
JWW_DASHED1
 62
     7
370
     9
100
AcDbLine
 10
2293.333146378801
 20
1521.815318103923
 30
0.0
 11
3793.333146378802
 21
1521.815318103923
 31
0.0
  0
LINE
  5
73
330
1F
100
AcDbEntity
  8
F-1
  6
JWW_DASHED1
 62
     7
370
     9
100
AcDbLine
 10
2293.333146378801
 20
1640.862944761299
 30
0.0
 11
3793.333146378802
 21
1640.862944761299
 31
0.0
  0
LINE
  5
74
330
1F
100
AcDbEntity
  8
F-1
  6
JWW_DASHED1
 62
     7
370
     9
100
AcDbLine
 10
2293.333146378801
 20
450.8180232397837
 30
0.0
 11
3793.333146378802
 21
450.8180232397837
 31
0.0
  0
LINE
  5
75
330
1F
100
AcDbEntity
  8
F-1
  6
JWW_DASHED1
 62
     7
370
     9
100
AcDbLine
 10
2293.333146378801
 20
569.8656498971591
 30
0.0
 11
3793.333146378802
 21
569.8656498971591
 31
0.0
  0
LINE
  5
76
330
1F
100
AcDbEntity
  8
F-1
  6
JWW_DASHED1
 62
     7
370
     9
100
AcDbLine
 10
2293.333146378801
 20
688.9132765545346
 30
0.0
 11
3793.333146378802
 21
688.9132765545346
 31
0.0
  0
LINE
  5
77
330
1F
100
AcDbEntity
  8
F-1
  6
JWW_DASHED1
 62
     7
370
     9
100
AcDbLine
 10
2293.333146378801
 20
807.9609032119104
 30
0.0
 11
3793.333146378802
 21
807.9609032119104
 31
0.0
  0
LINE
  5
78
330
1F
100
AcDbEntity
  8
F-1
  6
JWW_DASHED1
 62
     7
370
     9
100
AcDbLine
 10
2293.333146378801
 20
927.0085298692859
 30
0.0
 11
3793.333146378802
 21
927.0085298692859
 31
0.0
  0
LINE
  5
79
330
1F
100
AcDbEntity
  8
F-1
  6
JWW_DASHED1
 62
     7
370
     9
100
AcDbLine
 10
2293.333146378801
 20
-263.036391652229
 30
0.0
 11
3793.333146378802
 21
-263.036391652229
 31
0.0
  0
LINE
  5
7A
330
1F
100
AcDbEntity
  8
F-1
  6
JWW_DASHED1
 62
     7
370
     9
100
AcDbLine
 10
2293.333146378801
 20
-143.9887649948537
 30
0.0
 11
3793.333146378802
 21
-143.9887649948537
 31
0.0
  0
LINE
  5
7B
330
1F
100
AcDbEntity
  8
F-1
  6
JWW_DASHED1
 62
     7
370
     9
100
AcDbLine
 10
2293.333146378801
 20
-24.94113833747804
 30
0.0
 11
3793.333146378802
 21
-24.94113833747804
 31
0.0
  0
LINE
  5
7C
330
1F
100
AcDbEntity
  8
F-1
  6
JWW_DASHED1
 62
     7
370
     9
100
AcDbLine
 10
2293.333146378801
 20
94.10648831989761
 30
0.0
 11
3793.333146378802
 21
94.10648831989761
 31
0.0
  0
LINE
  5
7D
330
1F
100
AcDbEntity
  8
F-1
  6
JWW_DASHED1
 62
     7
370
     9
100
AcDbLine
 10
2293.333146378801
 20
213.1541149772733
 30
0.0
 11
3793.333146378802
 21
213.1541149772733
 31
0.0
  0
LINE
  5
7E
330
1F
100
AcDbEntity
  8
F-1
  6
JWW_DASHED1
 62
     7
370
     9
100
AcDbLine
 10
2293.333146378801
 20
-976.8908065442415
 30
0.0
 11
3793.333146378802
 21
-976.8908065442415
 31
0.0
  0
LINE
  5
7F
330
1F
100
AcDbEntity
  8
F-1
  6
JWW_DASHED1
 62
     7
370
     9
100
AcDbLine
 10
2293.333146378801
 20
-857.8431798868661
 30
0.0
 11
3793.333146378802
 21
-857.8431798868661
 31
0.0
  0
LINE
  5
80
330
1F
100
AcDbEntity
  8
F-1
  6
JWW_DASHED1
 62
     7
370
     9
100
AcDbLine
 10
2293.333146378801
 20
-738.7955532294905
 30
0.0
 11
3793.333146378802
 21
-738.7955532294905
 31
0.0
  0
LINE
  5
81
330
1F
100
AcDbEntity
  8
F-1
  6
JWW_DASHED1
 62
     7
370
     9
100
AcDbLine
 10
2293.333146378801
 20
-619.7479265721148
 30
0.0
 11
3793.333146378802
 21
-619.7479265721148
 31
0.0
  0
LINE
  5
82
330
1F
100
AcDbEntity
  8
F-1
  6
JWW_DASHED1
 62
     7
370
     9
100
AcDbLine
 10
2293.333146378801
 20
-500.7002999147392
 30
0.0
 11
3793.333146378802
 21
-500.7002999147392
 31
0.0
  0
LINE
  5
83
330
1F
100
AcDbEntity
  8
F-1
  6
JWW_DASHED1
 62
     7
370
     9
100
AcDbLine
 10
2293.333146378801
 20
-1690.745221436254
 30
0.0
 11
3793.333146378802
 21
-1690.745221436254
 31
0.0
  0
LINE
  5
84
330
1F
100
AcDbEntity
  8
F-1
  6
JWW_DASHED1
 62
     7
370
     9
100
AcDbLine
 10
2293.333146378801
 20
-1571.697594778879
 30
0.0
 11
3793.333146378802
 21
-1571.697594778879
 31
0.0
  0
LINE
  5
85
330
1F
100
AcDbEntity
  8
F-1
  6
JWW_DASHED1
 62
     7
370
     9
100
AcDbLine
 10
2293.333146378801
 20
-1452.649968121503
 30
0.0
 11
3793.333146378802
 21
-1452.649968121503
 31
0.0
  0
LINE
  5
86
330
1F
100
AcDbEntity
  8
F-1
  6
JWW_DASHED1
 62
     7
370
     9
100
AcDbLine
 10
2293.333146378801
 20
-1333.602341464127
 30
0.0
 11
3793.333146378802
 21
-1333.602341464127
 31
0.0
  0
LINE
  5
87
330
1F
100
AcDbEntity
  8
F-1
  6
JWW_DASHED1
 62
     7
370
     9
100
AcDbLine
 10
2293.333146378801
 20
-1214.554714806752
 30
0.0
 11
3793.333146378802
 21
-1214.554714806752
 31
0.0
  0
LINE
  5
88
330
1F
100
AcDbEntity
  8
F-1
  6
JWW_DASHED1
 62
     7
370
     9
100
AcDbLine
 10
2293.333146378801
 20
-2404.599636328267
 30
0.0
 11
3793.333146378802
 21
-2404.599636328267
 31
0.0
  0
LINE
  5
89
330
1F
100
AcDbEntity
  8
F-1
  6
JWW_DASHED1
 62
     7
370
     9
100
AcDbLine
 10
2293.333146378801
 20
-2285.552009670891
 30
0.0
 11
3793.333146378802
 21
-2285.552009670891
 31
0.0
  0
LINE
  5
8A
330
1F
100
AcDbEntity
  8
F-1
  6
JWW_DASHED1
 62
     7
370
     9
100
AcDbLine
 10
2293.333146378801
 20
-2166.504383013516
 30
0.0
 11
3793.333146378802
 21
-2166.504383013516
 31
0.0
  0
LINE
  5
8B
330
1F
100
AcDbEntity
  8
F-1
  6
JWW_DASHED1
 62
     7
370
     9
100
AcDbLine
 10
2293.333146378801
 20
-2047.45675635614
 30
0.0
 11
3793.333146378802
 21
-2047.45675635614
 31
0.0
  0
LINE
  5
8C
330
1F
100
AcDbEntity
  8
F-1
  6
JWW_DASHED1
 62
     7
370
     9
100
AcDbLine
 10
2293.333146378801
 20
-1928.409129698764
 30
0.0
 11
3793.333146378802
 21
-1928.409129698764
 31
0.0
  0
LINE
  5
8D
330
1F
100
AcDbEntity
  8
F-1
  6
JWW_DASHED1
 62
     7
370
     9
100
AcDbLine
 10
2293.333146378801
 20
-1809.792848093629
 30
0.0
 11
3793.332651499156
 21
-1809.792848093629
 31
0.0
  0
LINE
  5
8E
330
1F
100
AcDbEntity
  8
F-0
  6
JWW_HOJO
 62
     7
370
     9
100
AcDbLine
 10
566.6663917335308
 20
-2530.000002061998
 30
0.0
 11
566.6663917335308
 21
-2796.666672165329
 31
0.0
  0
LINE
  5
8F
330
1F
100
AcDbEntity
  8
F-0
  6
JWW_HOJO
 62
     7
370
     9
100
AcDbLine
 10
233.3332783467063
 20
-2530.000002061998
 30
0.0
 11
233.3332783467063
 21
-2796.666672165329
 31
0.0
  0
LINE
  5
90
330
1F
100
AcDbEntity
  8
F-1
  6
Continuous
 62
   200
370
    20
100
AcDbLine
 10
3799.999175200592
 20
-2803.333335051665
 30
0.0
 11
-3999.999835040119
 21
-2803.333335051665
 31
0.0
  0
LINE
  5
91
330
1F
100
AcDbEntity
  8
F-1
  6
Continuous
 62
   200
370
    20
100
AcDbLine
 10
3799.999175200592
 20
-2799.999995876003
 30
0.0
 11
-3999.999835040119
 21
-2799.999995876003
 31
0.0
  0
LINE
  5
92
330
1F
100
AcDbEntity
  8
F-1
  6
Continuous
 62
   200
370
    20
100
AcDbLine
 10
3799.999175200592
 20
-2796.666672165329
 30
0.0
 11
-3999.999835040119
 21
-2796.666672165329
 31
0.0
  0
LINE
  5
93
330
1F
100
AcDbEntity
  8
F-1
  6
Continuous
 62
   200
370
    20
100
AcDbLine
 10
2793.332816459038
 20
-2530.000002061998
 30
0.0
 11
2793.332816459038
 21
-2796.666672165329
 31
0.0
  0
LINE
  5
94
330
1F
100
AcDbEntity
  8
F-1
  6
Continuous
 62
   200
370
    20
100
AcDbLine
 10
1793.332486539274
 20
-2530.000002061998
 30
0.0
 11
1793.332486539274
 21
-2796.666672165329
 31
0.0
  0
LINE
  5
95
330
1F
100
AcDbEntity
  8
F-1
  6
Continuous
 62
   200
370
    20
100
AcDbLine
 10
-100.0000824799406
 20
-2530.000002061998
 30
0.0
 11
-100.0000824799406
 21
-2796.666672165329
 31
0.0
  0
LINE
  5
96
330
1F
100
AcDbEntity
  8
F-1
  6
Continuous
 62
   200
370
    20
100
AcDbLine
 10
-100.0000824799406
 20
-2663.333290718697
 30
0.0
 11
3793.332651499156
 21
-2663.336909526103
 31
0.0
  0
LINE
  5
97
330
1F
100
AcDbEntity
  8
F-0
  6
JWW_HOJO
 62
     7
370
     9
100
AcDbLine
 10
-3993.333326803671
 20
-2663.333290718927
 30
0.0
 11
-100.0000824799406
 21
-2663.333290718927
 31
0.0
  0
LINE
  5
98
330
1F
100
AcDbEntity
  8
F-0
  6
JWW_HOJO
 62
     7
370
     9
100
AcDbLine
 10
-3993.333326803671
 20
-2603.333290718927
 30
0.0
 11
-100.0000824799406
 21
-2603.333290718927
 31
0.0
  0
LINE
  5
99
330
1F
100
AcDbEntity
  8
F-0
  6
JWW_HOJO
 62
     7
370
     9
100
AcDbLine
 10
-3993.333326803671
 20
-2723.333290718927
 30
0.0
 11
-100.0000824799406
 21
-2723.333290718927
 31
0.0
  0
LINE
  5
9A
330
1F
100
AcDbEntity
  8
F-0
  6
JWW_HOJO
 62
     7
370
     9
100
AcDbLine
 10
-100.0001723303592
 20
-2759.999826518655
 30
0.0
 11
3793.332561648736
 21
-2760.003445326061
 31
0.0
  0
LINE
  5
9B
330
1F
100
AcDbEntity
  8
F-0
  6
JWW_HOJO
 62
     7
370
     9
100
AcDbLine
 10
-100.0000483985781
 20
-2626.666491478713
 30
0.0
 11
3793.332685580518
 21
-2626.670110286119
 31
0.0
  0
LINE
  5
9C
330
1F
100
AcDbEntity
  8
F-0
  6
JWW_HOJO
 62
     7
370
     9
100
AcDbLine
 10
-99.99999262927702
 20
-2566.66649147874
 30
0.0
 11
3793.332741349819
 21
-2566.670110286145
 31
0.0
  0
LINE
  5
9D
330
1F
100
AcDbEntity
  8
F-0
  6
JWW_HOJO
 62
     7
370
     9
100
AcDbLine
 10
1853.332486539274
 20
-2530.000002061998
 30
0.0
 11
1853.332486539274
 21
-2796.666672165329
 31
0.0
  0
LINE
  5
9E
330
1F
100
AcDbEntity
  8
F-0
  6
JWW_HOJO
 62
     7
370
     9
100
AcDbLine
 10
-40.0000824799406
 20
-2530.000002061998
 30
0.0
 11
-40.0000824799406
 21
-2796.666672165329
 31
0.0
  0
LINE
  5
9F
330
1F
100
AcDbEntity
  8
F-0
  6
JWW_HOJO
 62
     7
370
     9
100
AcDbLine
 10
2853.332816459038
 20
-2530.000002061998
 30
0.0
 11
2853.332816459038
 21
-2796.666672165329
 31
0.0
  0
LINE
  5
A0
330
1F
100
AcDbEntity
  8
F-1
  6
Continuous
 62
   200
370
    20
100
AcDbLine
 10
3799.999175200592
 20
-2530.000002061998
 30
0.0
 11
-3999.999835040119
 21
-2530.000002061998
 31
0.0
  0
LINE
  5
A1
330
1F
100
AcDbEntity
  8
F-1
  6
Continuous
 62
   200
370
    20
100
AcDbLine
 10
3799.999175200592
 20
-2526.666678351325
 30
0.0
 11
-3999.999835040119
 21
-2526.666678351325
 31
0.0
  0
LINE
  5
A2
330
1F
100
AcDbEntity
  8
F-0
  6
JWW_HOJO
 62
     7
370
     9
100
AcDbLine
 10
-3498.364917835225
 20
-2530.000002061999
 30
0.0
 11
-3498.364917835225
 21
-2803.333443306588
 31
0.0
  0
LINE
  5
A3
330
1F
100
AcDbEntity
  8
F-0
  6
JWW_HOJO
 62
     7
370
     9
100
AcDbLine
 10
-140.0000824799406
 20
-2530.000002061998
 30
0.0
 11
-140.0000824799406
 21
-2796.666672165329
 31
0.0
  0
LINE
  5
A4
330
1F
100
AcDbEntity
  8
F-1
  6
Continuous
 62
     7
370
     9
100
AcDbLine
 10
-3293.333352578653
 20
1759.047881314193
 30
0.0
 11
3793.332651499156
 21
1759.047881314193
 31
0.0
  0
LINE
  5
A5
330
1F
100
AcDbEntity
  8
F-1
  6
Continuous
 62
     7
370
     9
100
AcDbLine
 10
-3293.333352578653
 20
1044.76212136994
 30
0.0
 11
3793.332651499156
 21
1044.76212136994
 31
0.0
  0
LINE
  5
A6
330
1F
100
AcDbEntity
  8
F-1
  6
Continuous
 62
     7
370
     9
100
AcDbLine
 10
-3293.333352578653
 20
330.4763614256868
 30
0.0
 11
3793.332651499156
 21
330.4763614256868
 31
0.0
  0
LINE
  5
A7
330
1F
100
AcDbEntity
  8
F-1
  6
Continuous
 62
     7
370
     9
100
AcDbLine
 10
-3293.333352578653
 20
-383.8093985185662
 30
0.0
 11
3793.332651499156
 21
-383.8093985185662
 31
0.0
  0
LINE
  5
A8
330
1F
100
AcDbEntity
  8
F-1
  6
Continuous
 62
     7
370
     9
100
AcDbLine
 10
-3293.333352578653
 20
-1098.095158462819
 30
0.0
 11
3793.332651499156
 21
-1098.095158462819
 31
0.0
  0
LINE
  5
A9
330
1F
100
AcDbEntity
  8
F-1
  6
Continuous
 62
     7
370
     9
100
AcDbLine
 10
-3293.333352578653
 20
-1812.380918407072
 30
0.0
 11
3793.332651499156
 21
-1812.380918407072
 31
0.0
  0
LINE
  5
AA
330
1F
100
AcDbEntity
  8
F-1
  6
JWW_DASHED1
 62
     7
370
     9
100
AcDbLine
 10
-1603.333839210304
 20
2235.238387943695
 30
0.0
 11
-103.3338392103036
 21
2235.238387943695
 31
0.0
  0
LINE
  5
AB
330
1F
100
AcDbEntity
  8
F-1
  6
JWW_DASHED1
 62
     7
370
     9
100
AcDbLine
 10
-1603.333839210304
 20
2116.190761286319
 30
0.0
 11
-103.3338392103036
 21
2116.190761286319
 31
0.0
  0
LINE
  5
AC
330
1F
100
AcDbEntity
  8
F-1
  6
JWW_DASHED1
 62
     7
370
     9
100
AcDbLine
 10
-1603.333839210304
 20
1997.143134628943
 30
0.0
 11
-103.3338392103036
 21
1997.143134628943
 31
0.0
  0
LINE
  5
AD
330
1F
100
AcDbEntity
  8
F-1
  6
JWW_DASHED1
 62
     7
370
     9
100
AcDbLine
 10
-1603.333839210304
 20
1878.095507971568
 30
0.0
 11
-103.3338392103036
 21
1878.095507971568
 31
0.0
  0
LINE
  5
AE
330
1F
100
AcDbEntity
  8
F-1
  6
JWW_DASHED1
 62
     7
370
     9
100
AcDbLine
 10
-1603.333839210304
 20
1520.952627999442
 30
0.0
 11
-103.3338392103036
 21
1520.952627999442
 31
0.0
  0
LINE
  5
AF
330
1F
100
AcDbEntity
  8
F-1
  6
JWW_DASHED1
 62
     7
370
     9
100
AcDbLine
 10
-1603.333839210304
 20
1401.905001342066
 30
0.0
 11
-103.3338392103036
 21
1401.905001342066
 31
0.0
  0
LINE
  5
B0
330
1F
100
AcDbEntity
  8
F-1
  6
JWW_DASHED1
 62
     7
370
     9
100
AcDbLine
 10
-1603.333839210304
 20
1282.85737468469
 30
0.0
 11
-103.3338392103036
 21
1282.85737468469
 31
0.0
  0
LINE
  5
B1
330
1F
100
AcDbEntity
  8
F-1
  6
JWW_DASHED1
 62
     7
370
     9
100
AcDbLine
 10
-1603.333839210304
 20
1163.809748027315
 30
0.0
 11
-103.3338392103036
 21
1163.809748027315
 31
0.0
  0
LINE
  5
B2
330
1F
100
AcDbEntity
  8
F-1
  6
JWW_DASHED1
 62
     7
370
     9
100
AcDbLine
 10
-1603.333839210304
 20
806.6668680551885
 30
0.0
 11
-103.3338392103036
 21
806.6668680551885
 31
0.0
  0
LINE
  5
B3
330
1F
100
AcDbEntity
  8
F-1
  6
JWW_DASHED1
 62
     7
370
     9
100
AcDbLine
 10
-1603.333839210304
 20
687.6192413978129
 30
0.0
 11
-103.3338392103036
 21
687.6192413978129
 31
0.0
  0
LINE
  5
B4
330
1F
100
AcDbEntity
  8
F-1
  6
JWW_DASHED1
 62
     7
370
     9
100
AcDbLine
 10
-1603.333839210304
 20
568.5716147404372
 30
0.0
 11
-103.3338392103036
 21
568.5716147404372
 31
0.0
  0
LINE
  5
B5
330
1F
100
AcDbEntity
  8
F-1
  6
JWW_DASHED1
 62
     7
370
     9
100
AcDbLine
 10
-1603.333839210304
 20
449.5239880830616
 30
0.0
 11
-103.3338392103036
 21
449.5239880830616
 31
0.0
  0
LINE
  5
B6
330
1F
100
AcDbEntity
  8
F-1
  6
JWW_DASHED1
 62
     7
370
     9
100
AcDbLine
 10
-1603.333839210304
 20
92.38110811093549
 30
0.0
 11
-103.3338392103036
 21
92.38110811093549
 31
0.0
  0
LINE
  5
B7
330
1F
100
AcDbEntity
  8
F-1
  6
JWW_DASHED1
 62
     7
370
     9
100
AcDbLine
 10
-1603.333839210304
 20
-26.66651854644016
 30
0.0
 11
-103.3338392103036
 21
-26.66651854644016
 31
0.0
  0
LINE
  5
B8
330
1F
100
AcDbEntity
  8
F-1
  6
JWW_DASHED1
 62
     7
370
     9
100
AcDbLine
 10
-1603.333839210304
 20
-145.7141452038158
 30
0.0
 11
-103.3338392103036
 21
-145.7141452038158
 31
0.0
  0
LINE
  5
B9
330
1F
100
AcDbEntity
  8
F-1
  6
JWW_DASHED1
 62
     7
370
     9
100
AcDbLine
 10
-1603.333839210304
 20
-264.7617718611914
 30
0.0
 11
-103.3338392103036
 21
-264.7617718611914
 31
0.0
  0
LINE
  5
BA
330
1F
100
AcDbEntity
  8
F-1
  6
JWW_DASHED1
 62
     7
370
     9
100
AcDbLine
 10
-1603.333839210304
 20
-621.9046518333175
 30
0.0
 11
-103.3338392103036
 21
-621.9046518333175
 31
0.0
  0
LINE
  5
BB
330
1F
100
AcDbEntity
  8
F-1
  6
JWW_DASHED1
 62
     7
370
     9
100
AcDbLine
 10
-1603.333839210304
 20
-740.9522784906932
 30
0.0
 11
-103.3338392103036
 21
-740.9522784906932
 31
0.0
  0
LINE
  5
BC
330
1F
100
AcDbEntity
  8
F-1
  6
JWW_DASHED1
 62
     7
370
     9
100
AcDbLine
 10
-1603.333839210304
 20
-859.9999051480688
 30
0.0
 11
-103.3338392103036
 21
-859.9999051480688
 31
0.0
  0
LINE
  5
BD
330
1F
100
AcDbEntity
  8
F-1
  6
JWW_DASHED1
 62
     7
370
     9
100
AcDbLine
 10
-1603.333839210304
 20
-979.0475318054445
 30
0.0
 11
-103.3338392103036
 21
-979.0475318054445
 31
0.0
  0
LINE
  5
BE
330
1F
100
AcDbEntity
  8
F-1
  6
JWW_DASHED1
 62
     7
370
     9
100
AcDbLine
 10
-1603.333839210304
 20
-1336.19041177757
 30
0.0
 11
-103.3338392103036
 21
-1336.19041177757
 31
0.0
  0
LINE
  5
BF
330
1F
100
AcDbEntity
  8
F-1
  6
JWW_DASHED1
 62
     7
370
     9
100
AcDbLine
 10
-1603.333839210304
 20
-1455.238038434946
 30
0.0
 11
-103.3338392103036
 21
-1455.238038434946
 31
0.0
  0
LINE
  5
C0
330
1F
100
AcDbEntity
  8
F-1
  6
JWW_DASHED1
 62
     7
370
     9
100
AcDbLine
 10
-1603.333839210304
 20
-1574.285665092322
 30
0.0
 11
-103.3338392103036
 21
-1574.285665092322
 31
0.0
  0
LINE
  5
C1
330
1F
100
AcDbEntity
  8
F-1
  6
JWW_DASHED1
 62
     7
370
     9
100
AcDbLine
 10
-1603.333839210304
 20
-1693.333291749697
 30
0.0
 11
-103.3338392103036
 21
-1693.333291749697
 31
0.0
  0
LINE
  5
C2
330
1F
100
AcDbEntity
  8
F-1
  6
JWW_DASHED1
 62
     7
370
     9
100
AcDbLine
 10
-1603.333839210304
 20
-2050.476171721823
 30
0.0
 11
-103.3338392103036
 21
-2050.476171721823
 31
0.0
  0
LINE
  5
C3
330
1F
100
AcDbEntity
  8
F-1
  6
JWW_DASHED1
 62
     7
370
     9
100
AcDbLine
 10
-1603.333839210304
 20
-2169.523798379199
 30
0.0
 11
-103.3338392103036
 21
-2169.523798379199
 31
0.0
  0
LINE
  5
C4
330
1F
100
AcDbEntity
  8
F-1
  6
JWW_DASHED1
 62
     7
370
     9
100
AcDbLine
 10
-1603.333839210304
 20
-2288.571425036575
 30
0.0
 11
-103.3338392103036
 21
-2288.571425036575
 31
0.0
  0
LINE
  5
C5
330
1F
100
AcDbEntity
  8
F-1
  6
JWW_DASHED1
 62
     7
370
     9
100
AcDbLine
 10
-1603.333839210304
 20
-2407.61905169395
 30
0.0
 11
-103.3338392103036
 21
-2407.61905169395
 31
0.0
  0
LINE
  5
C6
330
1F
100
AcDbEntity
  8
F-1
  6
JWW_DASHED1
 62
     7
370
     9
100
AcDbLine
 10
-1003.333839210304
 20
2354.28601460107
 30
0.0
 11
-103.3338392103036
 21
2354.28601460107
 31
0.0
  0
LINE
  5
C7
330
1F
100
AcDbEntity
  8
F-1
  6
JWW_DASHED1
 62
     7
370
     9
100
AcDbLine
 10
-1003.333839210304
 20
1640.000254656817
 30
0.0
 11
-103.3338392103036
 21
1640.000254656817
 31
0.0
  0
LINE
  5
C8
330
1F
100
AcDbEntity
  8
F-1
  6
JWW_DASHED1
 62
     7
370
     9
100
AcDbLine
 10
-1003.333839210304
 20
925.7144947125641
 30
0.0
 11
-103.3338392103036
 21
925.7144947125641
 31
0.0
  0
LINE
  5
C9
330
1F
100
AcDbEntity
  8
F-1
  6
JWW_DASHED1
 62
     7
370
     9
100
AcDbLine
 10
-1003.333839210304
 20
211.4287347683111
 30
0.0
 11
-103.3338392103036
 21
211.4287347683111
 31
0.0
  0
LINE
  5
CA
330
1F
100
AcDbEntity
  8
F-1
  6
JWW_DASHED1
 62
     7
370
     9
100
AcDbLine
 10
-1003.333839210304
 20
-502.8570251759419
 30
0.0
 11
-103.3338392103036
 21
-502.8570251759419
 31
0.0
  0
LINE
  5
CB
330
1F
100
AcDbEntity
  8
F-1
  6
JWW_DASHED1
 62
     7
370
     9
100
AcDbLine
 10
-1003.333839210304
 20
-1217.142785120195
 30
0.0
 11
-103.3338392103036
 21
-1217.142785120195
 31
0.0
  0
LINE
  5
CC
330
1F
100
AcDbEntity
  8
0-4
  6
Continuous
 62
    92
370
    13
100
AcDbLine
 10
-2773.333595894479
 20
1355.19346642218
 30
0.0
 11
-2673.333595894479
 21
1355.19346642218
 31
0.0
  0
LINE
  5
CD
330
1F
100
AcDbEntity
  8
0-4
  6
Continuous
 62
    92
370
    13
100
AcDbLine
 10
-2773.333595894479
 20
1265.19346642218
 30
0.0
 11
-2673.333595894479
 21
1265.19346642218
 31
0.0
  0
LINE
  5
CE
330
1F
100
AcDbEntity
  8
0-4
  6
Continuous
 62
    92
370
    13
100
AcDbLine
 10
-2673.333595894479
 20
1355.19346642218
 30
0.0
 11
-2673.333595894479
 21
1265.19346642218
 31
0.0
  0
LINE
  5
CF
330
1F
100
AcDbEntity
  8
0-4
  6
Continuous
 62
    92
370
    13
100
AcDbLine
 10
-1953.333595894479
 20
1415.19346642218
 30
0.0
 11
-2773.333595894479
 21
1415.19346642218
 31
0.0
  0
LINE
  5
D0
330
1F
100
AcDbEntity
  8
0-4
  6
Continuous
 62
    92
370
    13
100
AcDbLine
 10
-2773.333595894479
 20
1355.19346642218
 30
0.0
 11
-2773.333595894479
 21
1415.19346642218
 31
0.0
  0
LINE
  5
D1
330
1F
100
AcDbEntity
  8
0-4
  6
Continuous
 62
    92
370
    13
100
AcDbLine
 10
-2768.333595894479
 20
1355.19346642218
 30
0.0
 11
-2768.333595894479
 21
1410.19346642218
 31
0.0
  0
LINE
  5
D2
330
1F
100
AcDbEntity
  8
0-4
  6
Continuous
 62
    92
370
    13
100
AcDbLine
 10
-1953.333595894479
 20
1410.19346642218
 30
0.0
 11
-2768.333595894479
 21
1410.19346642218
 31
0.0
  0
LINE
  5
D3
330
1F
100
AcDbEntity
  8
0-0
  6
JWW_HOJO
 62
     7
370
     9
100
AcDbLine
 10
-1953.333595894479
 20
1415.19346642218
 30
0.0
 11
-1953.333595894479
 21
1585.19346642218
 31
0.0
  0
LINE
  5
D4
330
1F
100
AcDbEntity
  8
0-0
  6
JWW_HOJO
 62
     7
370
     9
100
AcDbLine
 10
-1953.333595894479
 20
1435.19346642218
 30
0.0
 11
-2793.333595894479
 21
1435.19346642218
 31
0.0
  0
LINE
  5
D5
330
1F
100
AcDbEntity
  8
0-0
  6
JWW_HOJO
 62
     7
370
     9
100
AcDbLine
 10
-1953.333595894479
 20
1485.19346642218
 30
0.0
 11
-2843.333595894479
 21
1485.19346642218
 31
0.0
  0
LINE
  5
D6
330
1F
100
AcDbEntity
  8
0-0
  6
JWW_HOJO
 62
     7
370
     9
100
AcDbLine
 10
-1953.333595894479
 20
1585.19346642218
 30
0.0
 11
-2943.333595894479
 21
1585.19346642218
 31
0.0
  0
LINE
  5
D7
330
1F
100
AcDbEntity
  8
0-B
  6
Continuous
 62
   120
370
     5
100
AcDbLine
 10
-2773.333595894479
 20
1485.19346642218
 30
0.0
 11
-2673.333595894479
 21
1485.19346642218
 31
0.0
  0
LWPOLYLINE
  5
D8
330
1F
100
AcDbEntity
  8
0-B
  6
Continuous
 62
     7
370
     9
100
AcDbPolyline
 90
        4
 70
     1
 43
2.0
 10
-2772.333595894479
 20
1485.19346642218
 42
0.4142135623731
 10
-2773.333595894479
 20
1486.19346642218
 42
0.4142135623731
 10
-2774.333595894479
 20
1485.19346642218
 42
0.4142135623731
 10
-2773.333595894479
 20
1484.19346642218
 42
0.4142135623731
  0
LWPOLYLINE
  5
D9
330
1F
100
AcDbEntity
  8
0-B
  6
Continuous
 62
     7
370
     9
100
AcDbPolyline
 90
        4
 70
     1
 43
2.0
 10
-2672.333595894479
 20
1485.19346642218
 42
0.4142135623731
 10
-2673.333595894479
 20
1486.19346642218
 42
0.4142135623731
 10
-2674.333595894479
 20
1485.19346642218
 42
0.4142135623731
 10
-2673.333595894479
 20
1484.19346642218
 42
0.4142135623731
  0
LINE
  5
DA
330
1F
100
AcDbEntity
  8
0-B
  6
Continuous
 62
   120
370
     5
100
AcDbLine
 10
-2773.333595894479
 20
1585.19346642218
 30
0.0
 11
-2773.333595894479
 21
1435.19346642218
 31
0.0
  0
LINE
  5
DB
330
1F
100
AcDbEntity
  8
0-B
  6
Continuous
 62
   120
370
     5
100
AcDbLine
 10
-2673.333595894479
 20
1485.19346642218
 30
0.0
 11
-2673.333595894479
 21
1435.19346642218
 31
0.0
  0
LINE
  5
DC
330
1F
100
AcDbEntity
  8
0-B
  6
Continuous
 62
   120
370
     5
100
AcDbLine
 10
-2773.333595894479
 20
1585.19346642218
 30
0.0
 11
-1953.333595894479
 21
1585.19346642218
 31
0.0
  0
LWPOLYLINE
  5
DD
330
1F
100
AcDbEntity
  8
0-B
  6
Continuous
 62
     7
370
     9
100
AcDbPolyline
 90
        4
 70
     1
 43
2.0
 10
-2772.333595894479
 20
1585.19346642218
 42
0.4142135623731
 10
-2773.333595894479
 20
1586.19346642218
 42
0.4142135623731
 10
-2774.333595894479
 20
1585.19346642218
 42
0.4142135623731
 10
-2773.333595894479
 20
1584.19346642218
 42
0.4142135623731
  0
LWPOLYLINE
  5
DE
330
1F
100
AcDbEntity
  8
0-B
  6
Continuous
 62
     7
370
     9
100
AcDbPolyline
 90
        4
 70
     1
 43
2.0
 10
-1952.333595894479
 20
1585.19346642218
 42
0.4142135623731
 10
-1953.333595894479
 20
1586.19346642218
 42
0.4142135623731
 10
-1954.333595894479
 20
1585.19346642218
 42
0.4142135623731
 10
-1953.333595894479
 20
1584.19346642218
 42
0.4142135623731
  0
LINE
  5
DF
330
1F
100
AcDbEntity
  8
0-B
  6
Continuous
 62
   120
370
     5
100
AcDbLine
 10
-1953.333595894479
 20
1585.19346642218
 30
0.0
 11
-1953.333595894479
 21
1435.19346642218
 31
0.0
  0
LWPOLYLINE
  5
E0
330
1F
100
AcDbEntity
  8
0-B
  6
Continuous
 62
     7
370
     9
100
AcDbPolyline
 90
        4
 70
     1
 43
2.0
 10
-2842.333595894479
 20
1415.19346642218
 42
0.4142135623731
 10
-2843.333595894479
 20
1416.19346642218
 42
0.4142135623731
 10
-2844.333595894479
 20
1415.19346642218
 42
0.4142135623731
 10
-2843.333595894479
 20
1414.19346642218
 42
0.4142135623731
  0
LWPOLYLINE
  5
E1
330
1F
100
AcDbEntity
  8
0-B
  6
Continuous
 62
     7
370
     9
100
AcDbPolyline
 90
        4
 70
     1
 43
2.0
 10
-2842.333595894479
 20
1355.19346642218
 42
0.4142135623731
 10
-2843.333595894479
 20
1356.19346642218
 42
0.4142135623731
 10
-2844.333595894479
 20
1355.19346642218
 42
0.4142135623731
 10
-2843.333595894479
 20
1354.19346642218
 42
0.4142135623731
  0
LINE
  5
E2
330
1F
100
AcDbEntity
  8
0-B
  6
Continuous
 62
   120
370
     5
100
AcDbLine
 10
-2943.333595894479
 20
1415.19346642218
 30
0.0
 11
-2793.333595894479
 21
1415.19346642218
 31
0.0
  0
LINE
  5
E3
330
1F
100
AcDbEntity
  8
0-B
  6
Continuous
 62
   120
370
     5
100
AcDbLine
 10
-2843.333595894479
 20
1355.19346642218
 30
0.0
 11
-2793.333595894479
 21
1355.19346642218
 31
0.0
  0
LWPOLYLINE
  5
E4
330
1F
100
AcDbEntity
  8
0-B
  6
Continuous
 62
     7
370
     9
100
AcDbPolyline
 90
        4
 70
     1
 43
2.0
 10
-2842.333595894479
 20
1265.19346642218
 42
0.4142135623731
 10
-2843.333595894479
 20
1266.19346642218
 42
0.4142135623731
 10
-2844.333595894479
 20
1265.19346642218
 42
0.4142135623731
 10
-2843.333595894479
 20
1264.19346642218
 42
0.4142135623731
  0
LINE
  5
E5
330
1F
100
AcDbEntity
  8
0-B
  6
Continuous
 62
   120
370
     5
100
AcDbLine
 10
-2843.333595894479
 20
1265.19346642218
 30
0.0
 11
-2793.333595894479
 21
1265.19346642218
 31
0.0
  0
LWPOLYLINE
  5
E6
330
1F
100
AcDbEntity
  8
0-B
  6
Continuous
 62
     7
370
     9
100
AcDbPolyline
 90
        4
 70
     1
 43
2.0
 10
-2942.333595894479
 20
1415.19346642218
 42
0.4142135623731
 10
-2943.333595894479
 20
1416.19346642218
 42
0.4142135623731
 10
-2944.333595894479
 20
1415.19346642218
 42
0.4142135623731
 10
-2943.333595894479
 20
1414.19346642218
 42
0.4142135623731
  0
LINE
  5
E7
330
1F
100
AcDbEntity
  8
0-4
  6
Continuous
 62
    92
370
    13
100
AcDbLine
 10
-1953.333595894479
 20
1415.19346642218
 30
0.0
 11
-1953.333595894479
 21
1215.19346642218
 31
0.0
  0
LINE
  5
E8
330
1F
100
AcDbEntity
  8
0-4
  6
Continuous
 62
    92
370
    13
100
AcDbLine
 10
-1953.333595894479
 20
1215.19346642218
 30
0.0
 11
-2773.333595894479
 21
1215.19346642218
 31
0.0
  0
LINE
  5
E9
330
1F
100
AcDbEntity
  8
0-4
  6
Continuous
 62
    92
370
    13
100
AcDbLine
 10
-2773.333595894479
 20
1265.19346642218
 30
0.0
 11
-2773.333595894479
 21
1215.19346642218
 31
0.0
  0
LINE
  5
EA
330
1F
100
AcDbEntity
  8
0-0
  6
JWW_HOJO
 62
     7
370
     9
100
AcDbLine
 10
-2793.333595894479
 20
1215.19346642218
 30
0.0
 11
-2793.333595894479
 21
1435.19346642218
 31
0.0
  0
LINE
  5
EB
330
1F
100
AcDbEntity
  8
0-0
  6
JWW_HOJO
 62
     7
370
     9
100
AcDbLine
 10
-2843.333595894479
 20
1215.19346642218
 30
0.0
 11
-2843.333595894479
 21
1485.19346642218
 31
0.0
  0
LINE
  5
EC
330
1F
100
AcDbEntity
  8
0-0
  6
JWW_HOJO
 62
     7
370
     9
100
AcDbLine
 10
-2943.333595894479
 20
1215.19346642218
 30
0.0
 11
-2943.333595894479
 21
1585.19346642218
 31
0.0
  0
LINE
  5
ED
330
1F
100
AcDbEntity
  8
0-0
  6
JWW_HOJO
 62
     7
370
     9
100
AcDbLine
 10
-2773.333595894479
 20
1215.19346642218
 30
0.0
 11
-2943.333595894479
 21
1215.19346642218
 31
0.0
  0
LINE
  5
EE
330
1F
100
AcDbEntity
  8
0-B
  6
Continuous
 62
   120
370
     5
100
AcDbLine
 10
-2843.333595894479
 20
1415.19346642218
 30
0.0
 11
-2843.333595894479
 21
1215.19346642218
 31
0.0
  0
LWPOLYLINE
  5
EF
330
1F
100
AcDbEntity
  8
0-B
  6
Continuous
 62
     7
370
     9
100
AcDbPolyline
 90
        4
 70
     1
 43
2.0
 10
-2842.333595894479
 20
1215.19346642218
 42
0.4142135623731
 10
-2843.333595894479
 20
1216.19346642218
 42
0.4142135623731
 10
-2844.333595894479
 20
1215.19346642218
 42
0.4142135623731
 10
-2843.333595894479
 20
1214.19346642218
 42
0.4142135623731
  0
LINE
  5
F0
330
1F
100
AcDbEntity
  8
0-B
  6
Continuous
 62
   120
370
     5
100
AcDbLine
 10
-2943.333595894479
 20
1215.19346642218
 30
0.0
 11
-2793.333595894479
 21
1215.19346642218
 31
0.0
  0
LINE
  5
F1
330
1F
100
AcDbEntity
  8
0-B
  6
Continuous
 62
   120
370
     5
100
AcDbLine
 10
-2943.333595894479
 20
1415.19346642218
 30
0.0
 11
-2943.333595894479
 21
1215.19346642218
 31
0.0
  0
LWPOLYLINE
  5
F2
330
1F
100
AcDbEntity
  8
0-B
  6
Continuous
 62
     7
370
     9
100
AcDbPolyline
 90
        4
 70
     1
 43
2.0
 10
-2942.333595894479
 20
1215.19346642218
 42
0.4142135623731
 10
-2943.333595894479
 20
1216.19346642218
 42
0.4142135623731
 10
-2944.333595894479
 20
1215.19346642218
 42
0.4142135623731
 10
-2943.333595894479
 20
1214.19346642218
 42
0.4142135623731
  0
LINE
  5
F3
330
1F
100
AcDbEntity
  8
0-4
  6
Continuous
 62
    92
370
    13
100
AcDbLine
 10
-2893.333595894479
 20
640.9077064779274
 30
0.0
 11
-2793.333595894479
 21
640.9077064779274
 31
0.0
  0
LINE
  5
F4
330
1F
100
AcDbEntity
  8
0-4
  6
Continuous
 62
    92
370
    13
100
AcDbLine
 10
-2893.333595894479
 20
550.9077064779274
 30
0.0
 11
-2793.333595894479
 21
550.9077064779274
 31
0.0
  0
LINE
  5
F5
330
1F
100
AcDbEntity
  8
0-4
  6
Continuous
 62
    92
370
    13
100
AcDbLine
 10
-2793.333595894479
 20
640.9077064779274
 30
0.0
 11
-2793.333595894479
 21
550.9077064779274
 31
0.0
  0
LINE
  5
F6
330
1F
100
AcDbEntity
  8
0-4
  6
Continuous
 62
    92
370
    13
100
AcDbLine
 10
-2893.333595894479
 20
640.9077064779274
 30
0.0
 11
-2893.333595894479
 21
700.9077064779274
 31
0.0
  0
LINE
  5
F7
330
1F
100
AcDbEntity
  8
0-4
  6
Continuous
 62
    92
370
    13
100
AcDbLine
 10
-2888.333595894479
 20
640.9077064779274
 30
0.0
 11
-2888.333595894479
 21
695.9077064779274
 31
0.0
  0
LINE
  5
F8
330
1F
100
AcDbEntity
  8
0-B
  6
Continuous
 62
   120
370
     5
100
AcDbLine
 10
-2893.333595894479
 20
770.9077064779274
 30
0.0
 11
-2793.333595894479
 21
770.9077064779274
 31
0.0
  0
LWPOLYLINE
  5
F9
330
1F
100
AcDbEntity
  8
0-B
  6
Continuous
 62
     7
370
     9
100
AcDbPolyline
 90
        4
 70
     1
 43
2.0
 10
-2892.333595894479
 20
770.9077064779274
 42
0.4142135623731
 10
-2893.333595894479
 20
771.9077064779274
 42
0.4142135623731
 10
-2894.333595894479
 20
770.9077064779274
 42
0.4142135623731
 10
-2893.333595894479
 20
769.9077064779274
 42
0.4142135623731
  0
LWPOLYLINE
  5
FA
330
1F
100
AcDbEntity
  8
0-B
  6
Continuous
 62
     7
370
     9
100
AcDbPolyline
 90
        4
 70
     1
 43
2.0
 10
-2792.333595894479
 20
770.9077064779274
 42
0.4142135623731
 10
-2793.333595894479
 20
771.9077064779274
 42
0.4142135623731
 10
-2794.333595894479
 20
770.9077064779274
 42
0.4142135623731
 10
-2793.333595894479
 20
769.9077064779274
 42
0.4142135623731
  0
LINE
  5
FB
330
1F
100
AcDbEntity
  8
0-B
  6
Continuous
 62
   120
370
     5
100
AcDbLine
 10
-2893.333595894479
 20
870.9077064779274
 30
0.0
 11
-2893.333595894479
 21
720.9077064779274
 31
0.0
  0
LINE
  5
FC
330
1F
100
AcDbEntity
  8
0-B
  6
Continuous
 62
   120
370
     5
100
AcDbLine
 10
-2793.333595894479
 20
770.9077064779274
 30
0.0
 11
-2793.333595894479
 21
720.9077064779274
 31
0.0
  0
LWPOLYLINE
  5
FD
330
1F
100
AcDbEntity
  8
0-B
  6
Continuous
 62
     7
370
     9
100
AcDbPolyline
 90
        4
 70
     1
 43
2.0
 10
-2892.333595894479
 20
870.9077064779274
 42
0.4142135623731
 10
-2893.333595894479
 20
871.9077064779274
 42
0.4142135623731
 10
-2894.333595894479
 20
870.9077064779274
 42
0.4142135623731
 10
-2893.333595894479
 20
869.9077064779274
 42
0.4142135623731
  0
LWPOLYLINE
  5
FE
330
1F
100
AcDbEntity
  8
0-B
  6
Continuous
 62
     7
370
     9
100
AcDbPolyline
 90
        4
 70
     1
 43
2.0
 10
-2962.333595894479
 20
700.9077064779274
 42
0.4142135623731
 10
-2963.333595894479
 20
701.9077064779274
 42
0.4142135623731
 10
-2964.333595894479
 20
700.9077064779274
 42
0.4142135623731
 10
-2963.333595894479
 20
699.9077064779274
 42
0.4142135623731
  0
LWPOLYLINE
  5
FF
330
1F
100
AcDbEntity
  8
0-B
  6
Continuous
 62
     7
370
     9
100
AcDbPolyline
 90
        4
 70
     1
 43
2.0
 10
-2962.333595894479
 20
640.9077064779274
 42
0.4142135623731
 10
-2963.333595894479
 20
641.9077064779274
 42
0.4142135623731
 10
-2964.333595894479
 20
640.9077064779274
 42
0.4142135623731
 10
-2963.333595894479
 20
639.9077064779274
 42
0.4142135623731
  0
LINE
  5
100
330
1F
100
AcDbEntity
  8
0-B
  6
Continuous
 62
   120
370
     5
100
AcDbLine
 10
-3063.333595894479
 20
700.9077064779274
 30
0.0
 11
-2913.333595894479
 21
700.9077064779274
 31
0.0
  0
LINE
  5
101
330
1F
100
AcDbEntity
  8
0-B
  6
Continuous
 62
   120
370
     5
100
AcDbLine
 10
-2963.333595894479
 20
640.9077064779274
 30
0.0
 11
-2913.333595894479
 21
640.9077064779274
 31
0.0
  0
LWPOLYLINE
  5
102
330
1F
100
AcDbEntity
  8
0-B
  6
Continuous
 62
     7
370
     9
100
AcDbPolyline
 90
        4
 70
     1
 43
2.0
 10
-2962.333595894479
 20
550.9077064779274
 42
0.4142135623731
 10
-2963.333595894479
 20
551.9077064779274
 42
0.4142135623731
 10
-2964.333595894479
 20
550.9077064779274
 42
0.4142135623731
 10
-2963.333595894479
 20
549.9077064779274
 42
0.4142135623731
  0
LINE
  5
103
330
1F
100
AcDbEntity
  8
0-B
  6
Continuous
 62
   120
370
     5
100
AcDbLine
 10
-2963.333595894479
 20
550.9077064779274
 30
0.0
 11
-2913.333595894479
 21
550.9077064779274
 31
0.0
  0
LWPOLYLINE
  5
104
330
1F
100
AcDbEntity
  8
0-B
  6
Continuous
 62
     7
370
     9
100
AcDbPolyline
 90
        4
 70
     1
 43
2.0
 10
-3062.333595894479
 20
700.9077064779274
 42
0.4142135623731
 10
-3063.333595894479
 20
701.9077064779274
 42
0.4142135623731
 10
-3064.333595894479
 20
700.9077064779274
 42
0.4142135623731
 10
-3063.333595894479
 20
699.9077064779274
 42
0.4142135623731
  0
LINE
  5
105
330
1F
100
AcDbEntity
  8
0-4
  6
Continuous
 62
    92
370
    13
100
AcDbLine
 10
-2893.333595894479
 20
550.9077064779274
 30
0.0
 11
-2893.333595894479
 21
500.9077064779274
 31
0.0
  0
LINE
  5
106
330
1F
100
AcDbEntity
  8
0-0
  6
JWW_HOJO
 62
     7
370
     9
100
AcDbLine
 10
-2913.333595894479
 20
500.9077064779274
 30
0.0
 11
-2913.333595894479
 21
720.9077064779274
 31
0.0
  0
LINE
  5
107
330
1F
100
AcDbEntity
  8
0-0
  6
JWW_HOJO
 62
     7
370
     9
100
AcDbLine
 10
-2963.333595894479
 20
500.9077064779274
 30
0.0
 11
-2963.333595894479
 21
770.9077064779274
 31
0.0
  0
LINE
  5
108
330
1F
100
AcDbEntity
  8
0-0
  6
JWW_HOJO
 62
     7
370
     9
100
AcDbLine
 10
-3063.333595894479
 20
500.9077064779274
 30
0.0
 11
-3063.333595894479
 21
870.9077064779274
 31
0.0
  0
LINE
  5
109
330
1F
100
AcDbEntity
  8
0-0
  6
JWW_HOJO
 62
     7
370
     9
100
AcDbLine
 10
-2893.333595894479
 20
500.9077064779274
 30
0.0
 11
-3063.333595894479
 21
500.9077064779274
 31
0.0
  0
LINE
  5
10A
330
1F
100
AcDbEntity
  8
0-B
  6
Continuous
 62
   120
370
     5
100
AcDbLine
 10
-2963.333595894479
 20
700.9077064779274
 30
0.0
 11
-2963.333595894479
 21
500.9077064779274
 31
0.0
  0
LWPOLYLINE
  5
10B
330
1F
100
AcDbEntity
  8
0-B
  6
Continuous
 62
     7
370
     9
100
AcDbPolyline
 90
        4
 70
     1
 43
2.0
 10
-2962.333595894479
 20
500.9077064779274
 42
0.4142135623731
 10
-2963.333595894479
 20
501.9077064779274
 42
0.4142135623731
 10
-2964.333595894479
 20
500.9077064779274
 42
0.4142135623731
 10
-2963.333595894479
 20
499.9077064779274
 42
0.4142135623731
  0
LINE
  5
10C
330
1F
100
AcDbEntity
  8
0-B
  6
Continuous
 62
   120
370
     5
100
AcDbLine
 10
-3063.333595894479
 20
500.9077064779274
 30
0.0
 11
-2913.333595894479
 21
500.9077064779274
 31
0.0
  0
LINE
  5
10D
330
1F
100
AcDbEntity
  8
0-B
  6
Continuous
 62
   120
370
     5
100
AcDbLine
 10
-3063.333595894479
 20
700.9077064779274
 30
0.0
 11
-3063.333595894479
 21
500.9077064779274
 31
0.0
  0
LWPOLYLINE
  5
10E
330
1F
100
AcDbEntity
  8
0-B
  6
Continuous
 62
     7
370
     9
100
AcDbPolyline
 90
        4
 70
     1
 43
2.0
 10
-3062.333595894479
 20
500.9077064779274
 42
0.4142135623731
 10
-3063.333595894479
 20
501.9077064779274
 42
0.4142135623731
 10
-3064.333595894479
 20
500.9077064779274
 42
0.4142135623731
 10
-3063.333595894479
 20
499.9077064779274
 42
0.4142135623731
  0
LINE
  5
10F
330
1F
100
AcDbEntity
  8
0-4
  6
Continuous
 62
    92
370
    13
100
AcDbLine
 10
-1833.333595894479
 20
700.9077064779274
 30
0.0
 11
-2893.333595894479
 21
700.9077064779274
 31
0.0
  0
LINE
  5
110
330
1F
100
AcDbEntity
  8
0-4
  6
Continuous
 62
    92
370
    13
100
AcDbLine
 10
-1833.333595894479
 20
695.9077064779274
 30
0.0
 11
-2888.333595894479
 21
695.9077064779274
 31
0.0
  0
LINE
  5
111
330
1F
100
AcDbEntity
  8
0-0
  6
JWW_HOJO
 62
     7
370
     9
100
AcDbLine
 10
-1833.333595894479
 20
700.9077064779274
 30
0.0
 11
-1833.333595894479
 21
870.9077064779274
 31
0.0
  0
LINE
  5
112
330
1F
100
AcDbEntity
  8
0-0
  6
JWW_HOJO
 62
     7
370
     9
100
AcDbLine
 10
-1833.333595894479
 20
720.9077064779274
 30
0.0
 11
-2913.333595894479
 21
720.9077064779274
 31
0.0
  0
LINE
  5
113
330
1F
100
AcDbEntity
  8
0-0
  6
JWW_HOJO
 62
     7
370
     9
100
AcDbLine
 10
-1833.333595894479
 20
770.9077064779274
 30
0.0
 11
-2963.333595894479
 21
770.9077064779274
 31
0.0
  0
LINE
  5
114
330
1F
100
AcDbEntity
  8
0-0
  6
JWW_HOJO
 62
     7
370
     9
100
AcDbLine
 10
-1833.333595894479
 20
870.9077064779274
 30
0.0
 11
-3063.333595894479
 21
870.9077064779274
 31
0.0
  0
LINE
  5
115
330
1F
100
AcDbEntity
  8
0-B
  6
Continuous
 62
   120
370
     5
100
AcDbLine
 10
-2893.333595894479
 20
870.9077064779274
 30
0.0
 11
-1833.333595894479
 21
870.9077064779274
 31
0.0
  0
LWPOLYLINE
  5
116
330
1F
100
AcDbEntity
  8
0-B
  6
Continuous
 62
     7
370
     9
100
AcDbPolyline
 90
        4
 70
     1
 43
2.0
 10
-1832.333595894479
 20
870.9077064779274
 42
0.4142135623731
 10
-1833.333595894479
 20
871.9077064779274
 42
0.4142135623731
 10
-1834.333595894479
 20
870.9077064779274
 42
0.4142135623731
 10
-1833.333595894479
 20
869.9077064779274
 42
0.4142135623731
  0
LINE
  5
117
330
1F
100
AcDbEntity
  8
0-B
  6
Continuous
 62
   120
370
     5
100
AcDbLine
 10
-1833.333595894479
 20
870.9077064779274
 30
0.0
 11
-1833.333595894479
 21
720.9077064779274
 31
0.0
  0
LINE
  5
118
330
1F
100
AcDbEntity
  8
0-4
  6
Continuous
 62
    92
370
    13
100
AcDbLine
 10
-1833.333595894479
 20
700.9077064779274
 30
0.0
 11
-1833.333595894479
 21
500.9077064779274
 31
0.0
  0
LINE
  5
119
330
1F
100
AcDbEntity
  8
0-4
  6
Continuous
 62
    92
370
    13
100
AcDbLine
 10
-1833.333595894479
 20
500.9077064779274
 30
0.0
 11
-2893.333595894479
 21
500.9077064779274
 31
0.0
  0
LINE
  5
11A
330
1F
100
AcDbEntity
  8
0-4
  6
Continuous
 62
    92
370
    13
100
AcDbLine
 10
-2938.333595894479
 20
-1507.391304426976
 30
0.0
 11
-2838.333595894479
 21
-1507.391304426976
 31
0.0
  0
LINE
  5
11B
330
1F
100
AcDbEntity
  8
0-4
  6
Continuous
 62
    92
370
    13
100
AcDbLine
 10
-2938.333595894479
 20
-1597.391304426976
 30
0.0
 11
-2838.333595894479
 21
-1597.391304426976
 31
0.0
  0
LINE
  5
11C
330
1F
100
AcDbEntity
  8
0-4
  6
Continuous
 62
    92
370
    13
100
AcDbLine
 10
-2838.333595894479
 20
-1507.391304426976
 30
0.0
 11
-2838.333595894479
 21
-1597.391304426976
 31
0.0
  0
LINE
  5
11D
330
1F
100
AcDbEntity
  8
0-4
  6
Continuous
 62
    92
370
    13
100
AcDbLine
 10
-2938.333595894479
 20
-1507.391304426976
 30
0.0
 11
-2938.333595894479
 21
-1447.391304426976
 31
0.0
  0
LINE
  5
11E
330
1F
100
AcDbEntity
  8
0-4
  6
Continuous
 62
    92
370
    13
100
AcDbLine
 10
-2933.333595894479
 20
-1507.391304426976
 30
0.0
 11
-2933.333595894479
 21
-1452.391304426976
 31
0.0
  0
LINE
  5
11F
330
1F
100
AcDbEntity
  8
0-B
  6
Continuous
 62
   120
370
     5
100
AcDbLine
 10
-2938.333595894479
 20
-1377.391304426976
 30
0.0
 11
-2838.333595894479
 21
-1377.391304426976
 31
0.0
  0
LWPOLYLINE
  5
120
330
1F
100
AcDbEntity
  8
0-B
  6
Continuous
 62
     7
370
     9
100
AcDbPolyline
 90
        4
 70
     1
 43
2.0
 10
-2937.333595894479
 20
-1377.391304426976
 42
0.4142135623731
 10
-2938.333595894479
 20
-1376.391304426976
 42
0.4142135623731
 10
-2939.333595894479
 20
-1377.391304426976
 42
0.4142135623731
 10
-2938.333595894479
 20
-1378.391304426976
 42
0.4142135623731
  0
LWPOLYLINE
  5
121
330
1F
100
AcDbEntity
  8
0-B
  6
Continuous
 62
     7
370
     9
100
AcDbPolyline
 90
        4
 70
     1
 43
2.0
 10
-2837.333595894479
 20
-1377.391304426976
 42
0.4142135623731
 10
-2838.333595894479
 20
-1376.391304426976
 42
0.4142135623731
 10
-2839.333595894479
 20
-1377.391304426976
 42
0.4142135623731
 10
-2838.333595894479
 20
-1378.391304426976
 42
0.4142135623731
  0
LINE
  5
122
330
1F
100
AcDbEntity
  8
0-B
  6
Continuous
 62
   120
370
     5
100
AcDbLine
 10
-2938.333595894479
 20
-1277.391304426976
 30
0.0
 11
-2938.333595894479
 21
-1427.391304426976
 31
0.0
  0
LINE
  5
123
330
1F
100
AcDbEntity
  8
0-B
  6
Continuous
 62
   120
370
     5
100
AcDbLine
 10
-2838.333595894479
 20
-1377.391304426976
 30
0.0
 11
-2838.333595894479
 21
-1427.391304426976
 31
0.0
  0
LWPOLYLINE
  5
124
330
1F
100
AcDbEntity
  8
0-B
  6
Continuous
 62
     7
370
     9
100
AcDbPolyline
 90
        4
 70
     1
 43
2.0
 10
-2937.333595894479
 20
-1277.391304426976
 42
0.4142135623731
 10
-2938.333595894479
 20
-1276.391304426976
 42
0.4142135623731
 10
-2939.333595894479
 20
-1277.391304426976
 42
0.4142135623731
 10
-2938.333595894479
 20
-1278.391304426976
 42
0.4142135623731
  0
LWPOLYLINE
  5
125
330
1F
100
AcDbEntity
  8
0-B
  6
Continuous
 62
     7
370
     9
100
AcDbPolyline
 90
        4
 70
     1
 43
2.0
 10
-3007.333595894479
 20
-1447.391304426976
 42
0.4142135623731
 10
-3008.333595894479
 20
-1446.391304426976
 42
0.4142135623731
 10
-3009.333595894479
 20
-1447.391304426976
 42
0.4142135623731
 10
-3008.333595894479
 20
-1448.391304426976
 42
0.4142135623731
  0
LWPOLYLINE
  5
126
330
1F
100
AcDbEntity
  8
0-B
  6
Continuous
 62
     7
370
     9
100
AcDbPolyline
 90
        4
 70
     1
 43
2.0
 10
-3007.333595894479
 20
-1507.391304426976
 42
0.4142135623731
 10
-3008.333595894479
 20
-1506.391304426976
 42
0.4142135623731
 10
-3009.333595894479
 20
-1507.391304426976
 42
0.4142135623731
 10
-3008.333595894479
 20
-1508.391304426976
 42
0.4142135623731
  0
LINE
  5
127
330
1F
100
AcDbEntity
  8
0-B
  6
Continuous
 62
   120
370
     5
100
AcDbLine
 10
-3108.333595894479
 20
-1447.391304426976
 30
0.0
 11
-2958.333595894479
 21
-1447.391304426976
 31
0.0
  0
LINE
  5
128
330
1F
100
AcDbEntity
  8
0-B
  6
Continuous
 62
   120
370
     5
100
AcDbLine
 10
-3008.333595894479
 20
-1507.391304426976
 30
0.0
 11
-2958.333595894479
 21
-1507.391304426976
 31
0.0
  0
LWPOLYLINE
  5
129
330
1F
100
AcDbEntity
  8
0-B
  6
Continuous
 62
     7
370
     9
100
AcDbPolyline
 90
        4
 70
     1
 43
2.0
 10
-3007.333595894479
 20
-1597.391304426976
 42
0.4142135623731
 10
-3008.333595894479
 20
-1596.391304426976
 42
0.4142135623731
 10
-3009.333595894479
 20
-1597.391304426976
 42
0.4142135623731
 10
-3008.333595894479
 20
-1598.391304426976
 42
0.4142135623731
  0
LINE
  5
12A
330
1F
100
AcDbEntity
  8
0-B
  6
Continuous
 62
   120
370
     5
100
AcDbLine
 10
-3008.333595894479
 20
-1597.391304426976
 30
0.0
 11
-2958.333595894479
 21
-1597.391304426976
 31
0.0
  0
LWPOLYLINE
  5
12B
330
1F
100
AcDbEntity
  8
0-B
  6
Continuous
 62
     7
370
     9
100
AcDbPolyline
 90
        4
 70
     1
 43
2.0
 10
-3107.333595894479
 20
-1447.391304426976
 42
0.4142135623731
 10
-3108.333595894479
 20
-1446.391304426976
 42
0.4142135623731
 10
-3109.333595894479
 20
-1447.391304426976
 42
0.4142135623731
 10
-3108.333595894479
 20
-1448.391304426976
 42
0.4142135623731
  0
LINE
  5
12C
330
1F
100
AcDbEntity
  8
0-0
  6
JWW_HOJO
 62
     7
370
     9
100
AcDbLine
 10
-1788.333595894479
 20
-1447.391304426976
 30
0.0
 11
-1788.333595894479
 21
-1277.391304426976
 31
0.0
  0
LINE
  5
12D
330
1F
100
AcDbEntity
  8
0-0
  6
JWW_HOJO
 62
     7
370
     9
100
AcDbLine
 10
-1788.333595894479
 20
-1427.391304426976
 30
0.0
 11
-2958.333595894479
 21
-1427.391304426976
 31
0.0
  0
LINE
  5
12E
330
1F
100
AcDbEntity
  8
0-0
  6
JWW_HOJO
 62
     7
370
     9
100
AcDbLine
 10
-1788.333595894479
 20
-1377.391304426976
 30
0.0
 11
-3008.333595894479
 21
-1377.391304426976
 31
0.0
  0
LINE
  5
12F
330
1F
100
AcDbEntity
  8
0-0
  6
JWW_HOJO
 62
     7
370
     9
100
AcDbLine
 10
-1788.333595894479
 20
-1277.391304426976
 30
0.0
 11
-3108.333595894479
 21
-1277.391304426976
 31
0.0
  0
LINE
  5
130
330
1F
100
AcDbEntity
  8
0-B
  6
Continuous
 62
   120
370
     5
100
AcDbLine
 10
-2938.333595894479
 20
-1277.391304426976
 30
0.0
 11
-1788.333595894479
 21
-1277.391304426976
 31
0.0
  0
LWPOLYLINE
  5
131
330
1F
100
AcDbEntity
  8
0-B
  6
Continuous
 62
     7
370
     9
100
AcDbPolyline
 90
        4
 70
     1
 43
2.0
 10
-1787.333595894479
 20
-1277.391304426976
 42
0.4142135623731
 10
-1788.333595894479
 20
-1276.391304426976
 42
0.4142135623731
 10
-1789.333595894479
 20
-1277.391304426976
 42
0.4142135623731
 10
-1788.333595894479
 20
-1278.391304426976
 42
0.4142135623731
  0
LINE
  5
132
330
1F
100
AcDbEntity
  8
0-B
  6
Continuous
 62
   120
370
     5
100
AcDbLine
 10
-1788.333595894479
 20
-1277.391304426976
 30
0.0
 11
-1788.333595894479
 21
-1427.391304426976
 31
0.0
  0
LINE
  5
133
330
1F
100
AcDbEntity
  8
0-A
  6
Continuous
 62
     7
370
     9
100
AcDbLine
 10
-2396.42425035132
 20
-1554.891304426976
 30
0.0
 11
-2360.833595894479
 21
-1554.891304426976
 31
0.0
  0
LINE
  5
134
330
1F
100
AcDbEntity
  8
0-A
  6
Continuous
 62
     7
370
     9
100
AcDbLine
 10
-2361.783234199943
 20
-1534.891304426976
 30
0.0
 11
-2326.192579743102
 21
-1534.891304426976
 31
0.0
  0
LINE
  5
135
330
1F
100
AcDbEntity
  8
0-A
  6
Continuous
 62
     7
370
     9
100
AcDbLine
 10
-2360.833595894479
 20
-1554.891304426976
 30
0.0
 11
-2448.879511945898
 21
-1707.391304426976
 31
0.0
  0
LINE
  5
136
330
1F
100
AcDbEntity
  8
0-A
  6
Continuous
 62
     7
370
     9
100
AcDbLine
 10
-2326.192579743102
 20
-1534.891304426976
 30
0.0
 11
-2425.785501178312
 21
-1707.391304426976
 31
0.0
  0
LINE
  5
137
330
1F
100
AcDbEntity
  8
0-A
  6
Continuous
 62
     7
370
     9
100
AcDbLine
 10
-2308.378334299901
 20
-1402.391304426976
 30
0.0
 11
-2396.42425035132
 21
-1554.891304426976
 31
0.0
  0
LINE
  5
138
330
1F
100
AcDbEntity
  8
0-A
  6
Continuous
 62
     7
370
     9
100
AcDbLine
 10
-2285.284323532317
 20
-1402.391304426976
 30
0.0
 11
-2361.783234199943
 21
-1534.891304426976
 31
0.0
  0
LINE
  5
139
330
1F
100
AcDbEntity
  8
0-4
  6
Continuous
 62
    92
370
    13
100
AcDbLine
 10
-1788.333595894479
 20
-1452.391304426976
 30
0.0
 11
-2314.151836991799
 21
-1452.391304426976
 31
0.0
  0
LINE
  5
13A
330
1F
100
AcDbEntity
  8
0-4
  6
Continuous
 62
    92
370
    13
100
AcDbLine
 10
-2337.245847759382
 20
-1452.391304426976
 30
0.0
 11
-2933.333595894479
 21
-1452.391304426976
 31
0.0
  0
LINE
  5
13B
330
1F
100
AcDbEntity
  8
0-4
  6
Continuous
 62
    92
370
    13
100
AcDbLine
 10
-1788.333595894479
 20
-1447.391304426976
 30
0.0
 11
-2311.265085645851
 21
-1447.391304426976
 31
0.0
  0
LINE
  5
13C
330
1F
100
AcDbEntity
  8
0-4
  6
Continuous
 62
    92
370
    13
100
AcDbLine
 10
-2334.359096413435
 20
-1447.391304426976
 30
0.0
 11
-2938.333595894479
 21
-1447.391304426976
 31
0.0
  0
LINE
  5
13D
330
1F
100
AcDbEntity
  8
0-4
  6
Continuous
 62
    92
370
    13
100
AcDbLine
 10
-2938.333595894479
 20
-1597.391304426976
 30
0.0
 11
-2938.333595894479
 21
-1647.391304426976
 31
0.0
  0
LINE
  5
13E
330
1F
100
AcDbEntity
  8
0-0
  6
JWW_HOJO
 62
     7
370
     9
100
AcDbLine
 10
-2958.333595894479
 20
-1647.391304426976
 30
0.0
 11
-2958.333595894479
 21
-1427.391304426976
 31
0.0
  0
LINE
  5
13F
330
1F
100
AcDbEntity
  8
0-0
  6
JWW_HOJO
 62
     7
370
     9
100
AcDbLine
 10
-3008.333595894479
 20
-1647.391304426976
 30
0.0
 11
-3008.333595894479
 21
-1377.391304426976
 31
0.0
  0
LINE
  5
140
330
1F
100
AcDbEntity
  8
0-0
  6
JWW_HOJO
 62
     7
370
     9
100
AcDbLine
 10
-3108.333595894479
 20
-1647.391304426976
 30
0.0
 11
-3108.333595894479
 21
-1277.391304426976
 31
0.0
  0
LINE
  5
141
330
1F
100
AcDbEntity
  8
0-0
  6
JWW_HOJO
 62
     7
370
     9
100
AcDbLine
 10
-2938.333595894479
 20
-1647.391304426976
 30
0.0
 11
-3108.333595894479
 21
-1647.391304426976
 31
0.0
  0
LINE
  5
142
330
1F
100
AcDbEntity
  8
0-B
  6
Continuous
 62
   120
370
     5
100
AcDbLine
 10
-3008.333595894479
 20
-1447.391304426976
 30
0.0
 11
-3008.333595894479
 21
-1647.391304426976
 31
0.0
  0
LWPOLYLINE
  5
143
330
1F
100
AcDbEntity
  8
0-B
  6
Continuous
 62
     7
370
     9
100
AcDbPolyline
 90
        4
 70
     1
 43
2.0
 10
-3007.333595894479
 20
-1647.391304426976
 42
0.4142135623731
 10
-3008.333595894479
 20
-1646.391304426976
 42
0.4142135623731
 10
-3009.333595894479
 20
-1647.391304426976
 42
0.4142135623731
 10
-3008.333595894479
 20
-1648.391304426976
 42
0.4142135623731
  0
LINE
  5
144
330
1F
100
AcDbEntity
  8
0-B
  6
Continuous
 62
   120
370
     5
100
AcDbLine
 10
-3108.333595894479
 20
-1647.391304426976
 30
0.0
 11
-2958.333595894479
 21
-1647.391304426976
 31
0.0
  0
LINE
  5
145
330
1F
100
AcDbEntity
  8
0-B
  6
Continuous
 62
   120
370
     5
100
AcDbLine
 10
-3108.333595894479
 20
-1447.391304426976
 30
0.0
 11
-3108.333595894479
 21
-1647.391304426976
 31
0.0
  0
LWPOLYLINE
  5
146
330
1F
100
AcDbEntity
  8
0-B
  6
Continuous
 62
     7
370
     9
100
AcDbPolyline
 90
        4
 70
     1
 43
2.0
 10
-3107.333595894479
 20
-1647.391304426976
 42
0.4142135623731
 10
-3108.333595894479
 20
-1646.391304426976
 42
0.4142135623731
 10
-3109.333595894479
 20
-1647.391304426976
 42
0.4142135623731
 10
-3108.333595894479
 20
-1648.391304426976
 42
0.4142135623731
  0
LINE
  5
147
330
1F
100
AcDbEntity
  8
0-4
  6
Continuous
 62
    92
370
    13
100
AcDbLine
 10
-1788.333595894479
 20
-1447.391304426976
 30
0.0
 11
-1788.333595894479
 21
-1647.391304426976
 31
0.0
  0
LINE
  5
148
330
1F
100
AcDbEntity
  8
0-4
  6
Continuous
 62
    92
370
    13
100
AcDbLine
 10
-1788.333595894479
 20
-1647.391304426976
 30
0.0
 11
-2391.144485026934
 21
-1647.391304426976
 31
0.0
  0
LINE
  5
149
330
1F
100
AcDbEntity
  8
0-4
  6
Continuous
 62
    92
370
    13
100
AcDbLine
 10
-2414.23849579452
 20
-1647.391304426976
 30
0.0
 11
-2938.333595894479
 21
-1647.391304426976
 31
0.0
  0
LINE
  5
14A
330
1F
100
AcDbEntity
  8
0-4
  6
Continuous
 62
    92
370
    13
100
AcDbLine
 10
-2938.333595894479
 20
-793.1055444827232
 30
0.0
 11
-2838.333595894479
 21
-793.1055444827232
 31
0.0
  0
LINE
  5
14B
330
1F
100
AcDbEntity
  8
0-4
  6
Continuous
 62
    92
370
    13
100
AcDbLine
 10
-2938.333595894479
 20
-883.1055444827232
 30
0.0
 11
-2838.333595894479
 21
-883.1055444827232
 31
0.0
  0
LINE
  5
14C
330
1F
100
AcDbEntity
  8
0-4
  6
Continuous
 62
    92
370
    13
100
AcDbLine
 10
-2838.333595894479
 20
-793.1055444827232
 30
0.0
 11
-2838.333595894479
 21
-883.1055444827232
 31
0.0
  0
LINE
  5
14D
330
1F
100
AcDbEntity
  8
0-4
  6
Continuous
 62
    92
370
    13
100
AcDbLine
 10
-2938.333595894479
 20
-793.1055444827232
 30
0.0
 11
-2938.333595894479
 21
-733.1055444827232
 31
0.0
  0
LINE
  5
14E
330
1F
100
AcDbEntity
  8
0-4
  6
Continuous
 62
    92
370
    13
100
AcDbLine
 10
-2933.333595894479
 20
-793.1055444827232
 30
0.0
 11
-2933.333595894479
 21
-738.1055444827232
 31
0.0
  0
LINE
  5
14F
330
1F
100
AcDbEntity
  8
0-B
  6
Continuous
 62
   120
370
     5
100
AcDbLine
 10
-2938.333595894479
 20
-663.1055444827232
 30
0.0
 11
-2838.333595894479
 21
-663.1055444827232
 31
0.0
  0
LWPOLYLINE
  5
150
330
1F
100
AcDbEntity
  8
0-B
  6
Continuous
 62
     7
370
     9
100
AcDbPolyline
 90
        4
 70
     1
 43
2.0
 10
-2937.333595894479
 20
-663.1055444827232
 42
0.4142135623731
 10
-2938.333595894479
 20
-662.1055444827232
 42
0.4142135623731
 10
-2939.333595894479
 20
-663.1055444827232
 42
0.4142135623731
 10
-2938.333595894479
 20
-664.1055444827231
 42
0.4142135623731
  0
LWPOLYLINE
  5
151
330
1F
100
AcDbEntity
  8
0-B
  6
Continuous
 62
     7
370
     9
100
AcDbPolyline
 90
        4
 70
     1
 43
2.0
 10
-2837.333595894479
 20
-663.1055444827232
 42
0.4142135623731
 10
-2838.333595894479
 20
-662.1055444827232
 42
0.4142135623731
 10
-2839.333595894479
 20
-663.1055444827232
 42
0.4142135623731
 10
-2838.333595894479
 20
-664.1055444827231
 42
0.4142135623731
  0
LINE
  5
152
330
1F
100
AcDbEntity
  8
0-B
  6
Continuous
 62
   120
370
     5
100
AcDbLine
 10
-2938.333595894479
 20
-563.1055444827232
 30
0.0
 11
-2938.333595894479
 21
-713.1055444827232
 31
0.0
  0
LINE
  5
153
330
1F
100
AcDbEntity
  8
0-B
  6
Continuous
 62
   120
370
     5
100
AcDbLine
 10
-2838.333595894479
 20
-663.1055444827232
 30
0.0
 11
-2838.333595894479
 21
-713.1055444827232
 31
0.0
  0
LWPOLYLINE
  5
154
330
1F
100
AcDbEntity
  8
0-B
  6
Continuous
 62
     7
370
     9
100
AcDbPolyline
 90
        4
 70
     1
 43
2.0
 10
-2937.333595894479
 20
-563.1055444827232
 42
0.4142135623731
 10
-2938.333595894479
 20
-562.1055444827231
 42
0.4142135623731
 10
-2939.333595894479
 20
-563.1055444827232
 42
0.4142135623731
 10
-2938.333595894479
 20
-564.1055444827232
 42
0.4142135623731
  0
LWPOLYLINE
  5
155
330
1F
100
AcDbEntity
  8
0-B
  6
Continuous
 62
     7
370
     9
100
AcDbPolyline
 90
        4
 70
     1
 43
2.0
 10
-3007.333595894479
 20
-733.1055444827232
 42
0.4142135623731
 10
-3008.333595894479
 20
-732.1055444827232
 42
0.4142135623731
 10
-3009.333595894479
 20
-733.1055444827232
 42
0.4142135623731
 10
-3008.333595894479
 20
-734.1055444827231
 42
0.4142135623731
  0
LWPOLYLINE
  5
156
330
1F
100
AcDbEntity
  8
0-B
  6
Continuous
 62
     7
370
     9
100
AcDbPolyline
 90
        4
 70
     1
 43
2.0
 10
-3007.333595894479
 20
-793.1055444827232
 42
0.4142135623731
 10
-3008.333595894479
 20
-792.1055444827232
 42
0.4142135623731
 10
-3009.333595894479
 20
-793.1055444827232
 42
0.4142135623731
 10
-3008.333595894479
 20
-794.1055444827231
 42
0.4142135623731
  0
LINE
  5
157
330
1F
100
AcDbEntity
  8
0-B
  6
Continuous
 62
   120
370
     5
100
AcDbLine
 10
-3108.333595894479
 20
-733.1055444827232
 30
0.0
 11
-2958.333595894479
 21
-733.1055444827232
 31
0.0
  0
LINE
  5
158
330
1F
100
AcDbEntity
  8
0-B
  6
Continuous
 62
   120
370
     5
100
AcDbLine
 10
-3008.333595894479
 20
-793.1055444827232
 30
0.0
 11
-2958.333595894479
 21
-793.1055444827232
 31
0.0
  0
LWPOLYLINE
  5
159
330
1F
100
AcDbEntity
  8
0-B
  6
Continuous
 62
     7
370
     9
100
AcDbPolyline
 90
        4
 70
     1
 43
2.0
 10
-3007.333595894479
 20
-883.1055444827232
 42
0.4142135623731
 10
-3008.333595894479
 20
-882.1055444827232
 42
0.4142135623731
 10
-3009.333595894479
 20
-883.1055444827232
 42
0.4142135623731
 10
-3008.333595894479
 20
-884.1055444827231
 42
0.4142135623731
  0
LINE
  5
15A
330
1F
100
AcDbEntity
  8
0-B
  6
Continuous
 62
   120
370
     5
100
AcDbLine
 10
-3008.333595894479
 20
-883.1055444827232
 30
0.0
 11
-2958.333595894479
 21
-883.1055444827232
 31
0.0
  0
LWPOLYLINE
  5
15B
330
1F
100
AcDbEntity
  8
0-B
  6
Continuous
 62
     7
370
     9
100
AcDbPolyline
 90
        4
 70
     1
 43
2.0
 10
-3107.333595894479
 20
-733.1055444827232
 42
0.4142135623731
 10
-3108.333595894479
 20
-732.1055444827232
 42
0.4142135623731
 10
-3109.333595894479
 20
-733.1055444827232
 42
0.4142135623731
 10
-3108.333595894479
 20
-734.1055444827231
 42
0.4142135623731
  0
LINE
  5
15C
330
1F
100
AcDbEntity
  8
0-0
  6
JWW_HOJO
 62
     7
370
     9
100
AcDbLine
 10
-1788.333595894479
 20
-733.1055444827232
 30
0.0
 11
-1788.333595894479
 21
-563.1055444827232
 31
0.0
  0
LINE
  5
15D
330
1F
100
AcDbEntity
  8
0-0
  6
JWW_HOJO
 62
     7
370
     9
100
AcDbLine
 10
-1788.333595894479
 20
-713.1055444827232
 30
0.0
 11
-2958.333595894479
 21
-713.1055444827232
 31
0.0
  0
LINE
  5
15E
330
1F
100
AcDbEntity
  8
0-0
  6
JWW_HOJO
 62
     7
370
     9
100
AcDbLine
 10
-1788.333595894479
 20
-663.1055444827232
 30
0.0
 11
-3008.333595894479
 21
-663.1055444827232
 31
0.0
  0
LINE
  5
15F
330
1F
100
AcDbEntity
  8
0-0
  6
JWW_HOJO
 62
     7
370
     9
100
AcDbLine
 10
-1788.333595894479
 20
-563.1055444827232
 30
0.0
 11
-3108.333595894479
 21
-563.1055444827232
 31
0.0
  0
LINE
  5
160
330
1F
100
AcDbEntity
  8
0-B
  6
Continuous
 62
   120
370
     5
100
AcDbLine
 10
-2938.333595894479
 20
-563.1055444827232
 30
0.0
 11
-1788.333595894479
 21
-563.1055444827232
 31
0.0
  0
LWPOLYLINE
  5
161
330
1F
100
AcDbEntity
  8
0-B
  6
Continuous
 62
     7
370
     9
100
AcDbPolyline
 90
        4
 70
     1
 43
2.0
 10
-1787.333595894479
 20
-563.1055444827232
 42
0.4142135623731
 10
-1788.333595894479
 20
-562.1055444827231
 42
0.4142135623731
 10
-1789.333595894479
 20
-563.1055444827232
 42
0.4142135623731
 10
-1788.333595894479
 20
-564.1055444827232
 42
0.4142135623731
  0
LINE
  5
162
330
1F
100
AcDbEntity
  8
0-B
  6
Continuous
 62
   120
370
     5
100
AcDbLine
 10
-1788.333595894479
 20
-563.1055444827232
 30
0.0
 11
-1788.333595894479
 21
-713.1055444827232
 31
0.0
  0
LINE
  5
163
330
1F
100
AcDbEntity
  8
0-A
  6
Continuous
 62
     7
370
     9
100
AcDbLine
 10
-2396.42425035132
 20
-840.6055444827232
 30
0.0
 11
-2360.833595894479
 21
-840.6055444827232
 31
0.0
  0
LINE
  5
164
330
1F
100
AcDbEntity
  8
0-A
  6
Continuous
 62
     7
370
     9
100
AcDbLine
 10
-2361.783234199943
 20
-820.6055444827232
 30
0.0
 11
-2326.192579743102
 21
-820.6055444827232
 31
0.0
  0
LINE
  5
165
330
1F
100
AcDbEntity
  8
0-A
  6
Continuous
 62
     7
370
     9
100
AcDbLine
 10
-2360.833595894479
 20
-840.6055444827232
 30
0.0
 11
-2448.879511945898
 21
-993.1055444827232
 31
0.0
  0
LINE
  5
166
330
1F
100
AcDbEntity
  8
0-A
  6
Continuous
 62
     7
370
     9
100
AcDbLine
 10
-2326.192579743102
 20
-820.6055444827232
 30
0.0
 11
-2425.785501178312
 21
-993.1055444827232
 31
0.0
  0
LINE
  5
167
330
1F
100
AcDbEntity
  8
0-A
  6
Continuous
 62
     7
370
     9
100
AcDbLine
 10
-2308.378334299901
 20
-688.1055444827232
 30
0.0
 11
-2396.42425035132
 21
-840.6055444827232
 31
0.0
  0
LINE
  5
168
330
1F
100
AcDbEntity
  8
0-A
  6
Continuous
 62
     7
370
     9
100
AcDbLine
 10
-2285.284323532317
 20
-688.1055444827232
 30
0.0
 11
-2361.783234199943
 21
-820.6055444827232
 31
0.0
  0
LINE
  5
169
330
1F
100
AcDbEntity
  8
0-4
  6
Continuous
 62
    92
370
    13
100
AcDbLine
 10
-1788.333595894479
 20
-738.1055444827232
 30
0.0
 11
-2314.151836991799
 21
-738.1055444827232
 31
0.0
  0
LINE
  5
16A
330
1F
100
AcDbEntity
  8
0-4
  6
Continuous
 62
    92
370
    13
100
AcDbLine
 10
-2337.245847759382
 20
-738.1055444827232
 30
0.0
 11
-2933.333595894479
 21
-738.1055444827232
 31
0.0
  0
LINE
  5
16B
330
1F
100
AcDbEntity
  8
0-4
  6
Continuous
 62
    92
370
    13
100
AcDbLine
 10
-1788.333595894479
 20
-733.1055444827232
 30
0.0
 11
-2311.265085645851
 21
-733.1055444827232
 31
0.0
  0
LINE
  5
16C
330
1F
100
AcDbEntity
  8
0-4
  6
Continuous
 62
    92
370
    13
100
AcDbLine
 10
-2334.359096413435
 20
-733.1055444827232
 30
0.0
 11
-2938.333595894479
 21
-733.1055444827232
 31
0.0
  0
LINE
  5
16D
330
1F
100
AcDbEntity
  8
0-4
  6
Continuous
 62
    92
370
    13
100
AcDbLine
 10
-2938.333595894479
 20
-883.1055444827232
 30
0.0
 11
-2938.333595894479
 21
-933.1055444827232
 31
0.0
  0
LINE
  5
16E
330
1F
100
AcDbEntity
  8
0-0
  6
JWW_HOJO
 62
     7
370
     9
100
AcDbLine
 10
-2958.333595894479
 20
-933.1055444827232
 30
0.0
 11
-2958.333595894479
 21
-713.1055444827232
 31
0.0
  0
LINE
  5
16F
330
1F
100
AcDbEntity
  8
0-0
  6
JWW_HOJO
 62
     7
370
     9
100
AcDbLine
 10
-3008.333595894479
 20
-933.1055444827232
 30
0.0
 11
-3008.333595894479
 21
-663.1055444827232
 31
0.0
  0
LINE
  5
170
330
1F
100
AcDbEntity
  8
0-0
  6
JWW_HOJO
 62
     7
370
     9
100
AcDbLine
 10
-3108.333595894479
 20
-933.1055444827232
 30
0.0
 11
-3108.333595894479
 21
-563.1055444827232
 31
0.0
  0
LINE
  5
171
330
1F
100
AcDbEntity
  8
0-0
  6
JWW_HOJO
 62
     7
370
     9
100
AcDbLine
 10
-2938.333595894479
 20
-933.1055444827232
 30
0.0
 11
-3108.333595894479
 21
-933.1055444827232
 31
0.0
  0
LINE
  5
172
330
1F
100
AcDbEntity
  8
0-B
  6
Continuous
 62
   120
370
     5
100
AcDbLine
 10
-3008.333595894479
 20
-733.1055444827232
 30
0.0
 11
-3008.333595894479
 21
-933.1055444827232
 31
0.0
  0
LWPOLYLINE
  5
173
330
1F
100
AcDbEntity
  8
0-B
  6
Continuous
 62
     7
370
     9
100
AcDbPolyline
 90
        4
 70
     1
 43
2.0
 10
-3007.333595894479
 20
-933.1055444827232
 42
0.4142135623731
 10
-3008.333595894479
 20
-932.1055444827232
 42
0.4142135623731
 10
-3009.333595894479
 20
-933.1055444827232
 42
0.4142135623731
 10
-3008.333595894479
 20
-934.1055444827231
 42
0.4142135623731
  0
LINE
  5
174
330
1F
100
AcDbEntity
  8
0-B
  6
Continuous
 62
   120
370
     5
100
AcDbLine
 10
-3108.333595894479
 20
-933.1055444827232
 30
0.0
 11
-2958.333595894479
 21
-933.1055444827232
 31
0.0
  0
LINE
  5
175
330
1F
100
AcDbEntity
  8
0-B
  6
Continuous
 62
   120
370
     5
100
AcDbLine
 10
-3108.333595894479
 20
-733.1055444827232
 30
0.0
 11
-3108.333595894479
 21
-933.1055444827232
 31
0.0
  0
LWPOLYLINE
  5
176
330
1F
100
AcDbEntity
  8
0-B
  6
Continuous
 62
     7
370
     9
100
AcDbPolyline
 90
        4
 70
     1
 43
2.0
 10
-3107.333595894479
 20
-933.1055444827232
 42
0.4142135623731
 10
-3108.333595894479
 20
-932.1055444827232
 42
0.4142135623731
 10
-3109.333595894479
 20
-933.1055444827232
 42
0.4142135623731
 10
-3108.333595894479
 20
-934.1055444827231
 42
0.4142135623731
  0
LINE
  5
177
330
1F
100
AcDbEntity
  8
0-4
  6
Continuous
 62
    92
370
    13
100
AcDbLine
 10
-1788.333595894479
 20
-733.1055444827232
 30
0.0
 11
-1788.333595894479
 21
-933.1055444827232
 31
0.0
  0
LINE
  5
178
330
1F
100
AcDbEntity
  8
0-4
  6
Continuous
 62
    92
370
    13
100
AcDbLine
 10
-1788.333595894479
 20
-933.1055444827232
 30
0.0
 11
-2391.144485026934
 21
-933.1055444827232
 31
0.0
  0
LINE
  5
179
330
1F
100
AcDbEntity
  8
0-4
  6
Continuous
 62
    92
370
    13
100
AcDbLine
 10
-2414.23849579452
 20
-933.1055444827232
 30
0.0
 11
-2938.333595894479
 21
-933.1055444827232
 31
0.0
  0
LINE
  5
17A
330
1F
100
AcDbEntity
  8
0-4
  6
Continuous
 62
    92
370
    13
100
AcDbLine
 10
-2938.333595894479
 20
-78.81978453847012
 30
0.0
 11
-2838.333595894479
 21
-78.81978453847012
 31
0.0
  0
LINE
  5
17B
330
1F
100
AcDbEntity
  8
0-4
  6
Continuous
 62
    92
370
    13
100
AcDbLine
 10
-2938.333595894479
 20
-168.8197845384701
 30
0.0
 11
-2838.333595894479
 21
-168.8197845384701
 31
0.0
  0
LINE
  5
17C
330
1F
100
AcDbEntity
  8
0-4
  6
Continuous
 62
    92
370
    13
100
AcDbLine
 10
-2838.333595894479
 20
-78.81978453847012
 30
0.0
 11
-2838.333595894479
 21
-168.8197845384701
 31
0.0
  0
LINE
  5
17D
330
1F
100
AcDbEntity
  8
0-4
  6
Continuous
 62
    92
370
    13
100
AcDbLine
 10
-2938.333595894479
 20
-78.81978453847012
 30
0.0
 11
-2938.333595894479
 21
-18.81978453847012
 31
0.0
  0
LINE
  5
17E
330
1F
100
AcDbEntity
  8
0-4
  6
Continuous
 62
    92
370
    13
100
AcDbLine
 10
-2933.333595894479
 20
-78.81978453847012
 30
0.0
 11
-2933.333595894479
 21
-23.81978453847012
 31
0.0
  0
LINE
  5
17F
330
1F
100
AcDbEntity
  8
0-B
  6
Continuous
 62
   120
370
     5
100
AcDbLine
 10
-2938.333595894479
 20
51.18021546152988
 30
0.0
 11
-2838.333595894479
 21
51.18021546152988
 31
0.0
  0
LWPOLYLINE
  5
180
330
1F
100
AcDbEntity
  8
0-B
  6
Continuous
 62
     7
370
     9
100
AcDbPolyline
 90
        4
 70
     1
 43
2.0
 10
-2937.333595894479
 20
51.18021546152988
 42
0.4142135623731
 10
-2938.333595894479
 20
52.18021546152988
 42
0.4142135623731
 10
-2939.333595894479
 20
51.18021546152988
 42
0.4142135623731
 10
-2938.333595894479
 20
50.18021546152988
 42
0.4142135623731
  0
LWPOLYLINE
  5
181
330
1F
100
AcDbEntity
  8
0-B
  6
Continuous
 62
     7
370
     9
100
AcDbPolyline
 90
        4
 70
     1
 43
2.0
 10
-2837.333595894479
 20
51.18021546152988
 42
0.4142135623731
 10
-2838.333595894479
 20
52.18021546152988
 42
0.4142135623731
 10
-2839.333595894479
 20
51.18021546152988
 42
0.4142135623731
 10
-2838.333595894479
 20
50.18021546152988
 42
0.4142135623731
  0
LINE
  5
182
330
1F
100
AcDbEntity
  8
0-B
  6
Continuous
 62
   120
370
     5
100
AcDbLine
 10
-2938.333595894479
 20
151.1802154615299
 30
0.0
 11
-2938.333595894479
 21
1.180215461529883
 31
0.0
  0
LINE
  5
183
330
1F
100
AcDbEntity
  8
0-B
  6
Continuous
 62
   120
370
     5
100
AcDbLine
 10
-2838.333595894479
 20
51.18021546152988
 30
0.0
 11
-2838.333595894479
 21
1.180215461529883
 31
0.0
  0
LWPOLYLINE
  5
184
330
1F
100
AcDbEntity
  8
0-B
  6
Continuous
 62
     7
370
     9
100
AcDbPolyline
 90
        4
 70
     1
 43
2.0
 10
-2937.333595894479
 20
151.1802154615299
 42
0.4142135623731
 10
-2938.333595894479
 20
152.1802154615299
 42
0.4142135623731
 10
-2939.333595894479
 20
151.1802154615299
 42
0.4142135623731
 10
-2938.333595894479
 20
150.1802154615299
 42
0.4142135623731
  0
LWPOLYLINE
  5
185
330
1F
100
AcDbEntity
  8
0-B
  6
Continuous
 62
     7
370
     9
100
AcDbPolyline
 90
        4
 70
     1
 43
2.0
 10
-3007.333595894479
 20
-18.81978453847012
 42
0.4142135623731
 10
-3008.333595894479
 20
-17.81978453847012
 42
0.4142135623731
 10
-3009.333595894479
 20
-18.81978453847012
 42
0.4142135623731
 10
-3008.333595894479
 20
-19.81978453847012
 42
0.4142135623731
  0
LWPOLYLINE
  5
186
330
1F
100
AcDbEntity
  8
0-B
  6
Continuous
 62
     7
370
     9
100
AcDbPolyline
 90
        4
 70
     1
 43
2.0
 10
-3007.333595894479
 20
-78.81978453847012
 42
0.4142135623731
 10
-3008.333595894479
 20
-77.81978453847012
 42
0.4142135623731
 10
-3009.333595894479
 20
-78.81978453847012
 42
0.4142135623731
 10
-3008.333595894479
 20
-79.81978453847012
 42
0.4142135623731
  0
LINE
  5
187
330
1F
100
AcDbEntity
  8
0-B
  6
Continuous
 62
   120
370
     5
100
AcDbLine
 10
-3108.333595894479
 20
-18.81978453847012
 30
0.0
 11
-2958.333595894479
 21
-18.81978453847012
 31
0.0
  0
LINE
  5
188
330
1F
100
AcDbEntity
  8
0-B
  6
Continuous
 62
   120
370
     5
100
AcDbLine
 10
-3008.333595894479
 20
-78.81978453847012
 30
0.0
 11
-2958.333595894479
 21
-78.81978453847012
 31
0.0
  0
LWPOLYLINE
  5
189
330
1F
100
AcDbEntity
  8
0-B
  6
Continuous
 62
     7
370
     9
100
AcDbPolyline
 90
        4
 70
     1
 43
2.0
 10
-3007.333595894479
 20
-168.8197845384701
 42
0.4142135623731
 10
-3008.333595894479
 20
-167.8197845384701
 42
0.4142135623731
 10
-3009.333595894479
 20
-168.8197845384701
 42
0.4142135623731
 10
-3008.333595894479
 20
-169.8197845384701
 42
0.4142135623731
  0
LINE
  5
18A
330
1F
100
AcDbEntity
  8
0-B
  6
Continuous
 62
   120
370
     5
100
AcDbLine
 10
-3008.333595894479
 20
-168.8197845384701
 30
0.0
 11
-2958.333595894479
 21
-168.8197845384701
 31
0.0
  0
LWPOLYLINE
  5
18B
330
1F
100
AcDbEntity
  8
0-B
  6
Continuous
 62
     7
370
     9
100
AcDbPolyline
 90
        4
 70
     1
 43
2.0
 10
-3107.333595894479
 20
-18.81978453847012
 42
0.4142135623731
 10
-3108.333595894479
 20
-17.81978453847012
 42
0.4142135623731
 10
-3109.333595894479
 20
-18.81978453847012
 42
0.4142135623731
 10
-3108.333595894479
 20
-19.81978453847012
 42
0.4142135623731
  0
LINE
  5
18C
330
1F
100
AcDbEntity
  8
0-0
  6
JWW_HOJO
 62
     7
370
     9
100
AcDbLine
 10
-1788.333595894479
 20
-18.81978453847012
 30
0.0
 11
-1788.333595894479
 21
151.1802154615299
 31
0.0
  0
LINE
  5
18D
330
1F
100
AcDbEntity
  8
0-0
  6
JWW_HOJO
 62
     7
370
     9
100
AcDbLine
 10
-1788.333595894479
 20
1.180215461529883
 30
0.0
 11
-2958.333595894479
 21
1.180215461529883
 31
0.0
  0
LINE
  5
18E
330
1F
100
AcDbEntity
  8
0-0
  6
JWW_HOJO
 62
     7
370
     9
100
AcDbLine
 10
-1788.333595894479
 20
51.18021546152988
 30
0.0
 11
-3008.333595894479
 21
51.18021546152988
 31
0.0
  0
LINE
  5
18F
330
1F
100
AcDbEntity
  8
0-0
  6
JWW_HOJO
 62
     7
370
     9
100
AcDbLine
 10
-1788.333595894479
 20
151.1802154615299
 30
0.0
 11
-3108.333595894479
 21
151.1802154615299
 31
0.0
  0
LINE
  5
190
330
1F
100
AcDbEntity
  8
0-B
  6
Continuous
 62
   120
370
     5
100
AcDbLine
 10
-2938.333595894479
 20
151.1802154615299
 30
0.0
 11
-1788.333595894479
 21
151.1802154615299
 31
0.0
  0
LWPOLYLINE
  5
191
330
1F
100
AcDbEntity
  8
0-B
  6
Continuous
 62
     7
370
     9
100
AcDbPolyline
 90
        4
 70
     1
 43
2.0
 10
-1787.333595894479
 20
151.1802154615299
 42
0.4142135623731
 10
-1788.333595894479
 20
152.1802154615299
 42
0.4142135623731
 10
-1789.333595894479
 20
151.1802154615299
 42
0.4142135623731
 10
-1788.333595894479
 20
150.1802154615299
 42
0.4142135623731
  0
LINE
  5
192
330
1F
100
AcDbEntity
  8
0-B
  6
Continuous
 62
   120
370
     5
100
AcDbLine
 10
-1788.333595894479
 20
151.1802154615299
 30
0.0
 11
-1788.333595894479
 21
1.180215461529883
 31
0.0
  0
LINE
  5
193
330
1F
100
AcDbEntity
  8
0-A
  6
Continuous
 62
     7
370
     9
100
AcDbLine
 10
-2396.42425035132
 20
-126.3197845384701
 30
0.0
 11
-2360.833595894479
 21
-126.3197845384701
 31
0.0
  0
LINE
  5
194
330
1F
100
AcDbEntity
  8
0-A
  6
Continuous
 62
     7
370
     9
100
AcDbLine
 10
-2361.783234199943
 20
-106.3197845384701
 30
0.0
 11
-2326.192579743102
 21
-106.3197845384701
 31
0.0
  0
LINE
  5
195
330
1F
100
AcDbEntity
  8
0-A
  6
Continuous
 62
     7
370
     9
100
AcDbLine
 10
-2360.833595894479
 20
-126.3197845384701
 30
0.0
 11
-2448.879511945898
 21
-278.8197845384701
 31
0.0
  0
LINE
  5
196
330
1F
100
AcDbEntity
  8
0-A
  6
Continuous
 62
     7
370
     9
100
AcDbLine
 10
-2326.192579743102
 20
-106.3197845384701
 30
0.0
 11
-2425.785501178312
 21
-278.8197845384701
 31
0.0
  0
LINE
  5
197
330
1F
100
AcDbEntity
  8
0-A
  6
Continuous
 62
     7
370
     9
100
AcDbLine
 10
-2308.378334299901
 20
26.18021546152988
 30
0.0
 11
-2396.42425035132
 21
-126.3197845384701
 31
0.0
  0
LINE
  5
198
330
1F
100
AcDbEntity
  8
0-A
  6
Continuous
 62
     7
370
     9
100
AcDbLine
 10
-2285.284323532317
 20
26.18021546152988
 30
0.0
 11
-2361.783234199943
 21
-106.3197845384701
 31
0.0
  0
LINE
  5
199
330
1F
100
AcDbEntity
  8
0-4
  6
Continuous
 62
    92
370
    13
100
AcDbLine
 10
-1788.333595894479
 20
-23.81978453847012
 30
0.0
 11
-2314.151836991799
 21
-23.81978453847012
 31
0.0
  0
LINE
  5
19A
330
1F
100
AcDbEntity
  8
0-4
  6
Continuous
 62
    92
370
    13
100
AcDbLine
 10
-2337.245847759382
 20
-23.81978453847012
 30
0.0
 11
-2933.333595894479
 21
-23.81978453847012
 31
0.0
  0
LINE
  5
19B
330
1F
100
AcDbEntity
  8
0-4
  6
Continuous
 62
    92
370
    13
100
AcDbLine
 10
-1788.333595894479
 20
-18.81978453847012
 30
0.0
 11
-2311.265085645851
 21
-18.81978453847012
 31
0.0
  0
LINE
  5
19C
330
1F
100
AcDbEntity
  8
0-4
  6
Continuous
 62
    92
370
    13
100
AcDbLine
 10
-2334.359096413435
 20
-18.81978453847012
 30
0.0
 11
-2938.333595894479
 21
-18.81978453847012
 31
0.0
  0
LINE
  5
19D
330
1F
100
AcDbEntity
  8
0-4
  6
Continuous
 62
    92
370
    13
100
AcDbLine
 10
-2938.333595894479
 20
-168.8197845384701
 30
0.0
 11
-2938.333595894479
 21
-218.8197845384701
 31
0.0
  0
LINE
  5
19E
330
1F
100
AcDbEntity
  8
0-0
  6
JWW_HOJO
 62
     7
370
     9
100
AcDbLine
 10
-2958.333595894479
 20
-218.8197845384701
 30
0.0
 11
-2958.333595894479
 21
1.180215461529883
 31
0.0
  0
LINE
  5
19F
330
1F
100
AcDbEntity
  8
0-0
  6
JWW_HOJO
 62
     7
370
     9
100
AcDbLine
 10
-3008.333595894479
 20
-218.8197845384701
 30
0.0
 11
-3008.333595894479
 21
51.18021546152988
 31
0.0
  0
LINE
  5
1A0
330
1F
100
AcDbEntity
  8
0-0
  6
JWW_HOJO
 62
     7
370
     9
100
AcDbLine
 10
-3108.333595894479
 20
-218.8197845384701
 30
0.0
 11
-3108.333595894479
 21
151.1802154615299
 31
0.0
  0
LINE
  5
1A1
330
1F
100
AcDbEntity
  8
0-0
  6
JWW_HOJO
 62
     7
370
     9
100
AcDbLine
 10
-2938.333595894479
 20
-218.8197845384701
 30
0.0
 11
-3108.333595894479
 21
-218.8197845384701
 31
0.0
  0
LINE
  5
1A2
330
1F
100
AcDbEntity
  8
0-B
  6
Continuous
 62
   120
370
     5
100
AcDbLine
 10
-3008.333595894479
 20
-18.81978453847012
 30
0.0
 11
-3008.333595894479
 21
-218.8197845384701
 31
0.0
  0
LWPOLYLINE
  5
1A3
330
1F
100
AcDbEntity
  8
0-B
  6
Continuous
 62
     7
370
     9
100
AcDbPolyline
 90
        4
 70
     1
 43
2.0
 10
-3007.333595894479
 20
-218.8197845384701
 42
0.4142135623731
 10
-3008.333595894479
 20
-217.8197845384701
 42
0.4142135623731
 10
-3009.333595894479
 20
-218.8197845384701
 42
0.4142135623731
 10
-3008.333595894479
 20
-219.8197845384701
 42
0.4142135623731
  0
LINE
  5
1A4
330
1F
100
AcDbEntity
  8
0-B
  6
Continuous
 62
   120
370
     5
100
AcDbLine
 10
-3108.333595894479
 20
-218.8197845384701
 30
0.0
 11
-2958.333595894479
 21
-218.8197845384701
 31
0.0
  0
LINE
  5
1A5
330
1F
100
AcDbEntity
  8
0-B
  6
Continuous
 62
   120
370
     5
100
AcDbLine
 10
-3108.333595894479
 20
-18.81978453847012
 30
0.0
 11
-3108.333595894479
 21
-218.8197845384701
 31
0.0
  0
LWPOLYLINE
  5
1A6
330
1F
100
AcDbEntity
  8
0-B
  6
Continuous
 62
     7
370
     9
100
AcDbPolyline
 90
        4
 70
     1
 43
2.0
 10
-3107.333595894479
 20
-218.8197845384701
 42
0.4142135623731
 10
-3108.333595894479
 20
-217.8197845384701
 42
0.4142135623731
 10
-3109.333595894479
 20
-218.8197845384701
 42
0.4142135623731
 10
-3108.333595894479
 20
-219.8197845384701
 42
0.4142135623731
  0
LINE
  5
1A7
330
1F
100
AcDbEntity
  8
0-4
  6
Continuous
 62
    92
370
    13
100
AcDbLine
 10
-1788.333595894479
 20
-18.81978453847012
 30
0.0
 11
-1788.333595894479
 21
-218.8197845384701
 31
0.0
  0
LINE
  5
1A8
330
1F
100
AcDbEntity
  8
0-4
  6
Continuous
 62
    92
370
    13
100
AcDbLine
 10
-1788.333595894479
 20
-218.8197845384701
 30
0.0
 11
-2391.144485026934
 21
-218.8197845384701
 31
0.0
  0
LINE
  5
1A9
330
1F
100
AcDbEntity
  8
0-4
  6
Continuous
 62
    92
370
    13
100
AcDbLine
 10
-2414.23849579452
 20
-218.8197845384701
 30
0.0
 11
-2938.333595894479
 21
-218.8197845384701
 31
0.0
  0
LINE
  5
1AA
330
1F
100
AcDbEntity
  8
0-4
  6
Continuous
 62
    92
370
    13
100
AcDbLine
 10
-2728.333595894479
 20
2069.479226366434
 30
0.0
 11
-2628.333595894479
 21
2069.479226366434
 31
0.0
  0
LINE
  5
1AB
330
1F
100
AcDbEntity
  8
0-4
  6
Continuous
 62
    92
370
    13
100
AcDbLine
 10
-2728.333595894479
 20
1979.479226366434
 30
0.0
 11
-2628.333595894479
 21
1979.479226366434
 31
0.0
  0
LINE
  5
1AC
330
1F
100
AcDbEntity
  8
0-4
  6
Continuous
 62
    92
370
    13
100
AcDbLine
 10
-2628.333595894479
 20
2069.479226366434
 30
0.0
 11
-2628.333595894479
 21
1979.479226366434
 31
0.0
  0
LINE
  5
1AD
330
1F
100
AcDbEntity
  8
0-4
  6
Continuous
 62
    92
370
    13
100
AcDbLine
 10
-2728.333595894479
 20
2069.479226366434
 30
0.0
 11
-2728.333595894479
 21
2129.479226366434
 31
0.0
  0
LINE
  5
1AE
330
1F
100
AcDbEntity
  8
0-4
  6
Continuous
 62
    92
370
    13
100
AcDbLine
 10
-2723.333595894479
 20
2069.479226366434
 30
0.0
 11
-2723.333595894479
 21
2124.479226366434
 31
0.0
  0
LINE
  5
1AF
330
1F
100
AcDbEntity
  8
0-B
  6
Continuous
 62
   120
370
     5
100
AcDbLine
 10
-2728.333595894479
 20
2199.479226366434
 30
0.0
 11
-2628.333595894479
 21
2199.479226366434
 31
0.0
  0
LWPOLYLINE
  5
1B0
330
1F
100
AcDbEntity
  8
0-B
  6
Continuous
 62
     7
370
     9
100
AcDbPolyline
 90
        4
 70
     1
 43
2.0
 10
-2727.333595894479
 20
2199.479226366434
 42
0.4142135623731
 10
-2728.333595894479
 20
2200.479226366434
 42
0.4142135623731
 10
-2729.333595894479
 20
2199.479226366434
 42
0.4142135623731
 10
-2728.333595894479
 20
2198.479226366434
 42
0.4142135623731
  0
LWPOLYLINE
  5
1B1
330
1F
100
AcDbEntity
  8
0-B
  6
Continuous
 62
     7
370
     9
100
AcDbPolyline
 90
        4
 70
     1
 43
2.0
 10
-2627.333595894479
 20
2199.479226366434
 42
0.4142135623731
 10
-2628.333595894479
 20
2200.479226366434
 42
0.4142135623731
 10
-2629.333595894479
 20
2199.479226366434
 42
0.4142135623731
 10
-2628.333595894479
 20
2198.479226366434
 42
0.4142135623731
  0
LINE
  5
1B2
330
1F
100
AcDbEntity
  8
0-B
  6
Continuous
 62
   120
370
     5
100
AcDbLine
 10
-2728.333595894479
 20
2299.479226366434
 30
0.0
 11
-2728.333595894479
 21
2149.479226366434
 31
0.0
  0
LINE
  5
1B3
330
1F
100
AcDbEntity
  8
0-B
  6
Continuous
 62
   120
370
     5
100
AcDbLine
 10
-2628.333595894479
 20
2199.479226366434
 30
0.0
 11
-2628.333595894479
 21
2149.479226366434
 31
0.0
  0
LWPOLYLINE
  5
1B4
330
1F
100
AcDbEntity
  8
0-B
  6
Continuous
 62
     7
370
     9
100
AcDbPolyline
 90
        4
 70
     1
 43
2.0
 10
-2727.333595894479
 20
2299.479226366434
 42
0.4142135623731
 10
-2728.333595894479
 20
2300.479226366434
 42
0.4142135623731
 10
-2729.333595894479
 20
2299.479226366434
 42
0.4142135623731
 10
-2728.333595894479
 20
2298.479226366434
 42
0.4142135623731
  0
LWPOLYLINE
  5
1B5
330
1F
100
AcDbEntity
  8
0-B
  6
Continuous
 62
     7
370
     9
100
AcDbPolyline
 90
        4
 70
     1
 43
2.0
 10
-2797.333595894479
 20
2129.479226366434
 42
0.4142135623731
 10
-2798.333595894479
 20
2130.479226366434
 42
0.4142135623731
 10
-2799.333595894479
 20
2129.479226366434
 42
0.4142135623731
 10
-2798.333595894479
 20
2128.479226366434
 42
0.4142135623731
  0
LWPOLYLINE
  5
1B6
330
1F
100
AcDbEntity
  8
0-B
  6
Continuous
 62
     7
370
     9
100
AcDbPolyline
 90
        4
 70
     1
 43
2.0
 10
-2797.333595894479
 20
2069.479226366434
 42
0.4142135623731
 10
-2798.333595894479
 20
2070.479226366434
 42
0.4142135623731
 10
-2799.333595894479
 20
2069.479226366434
 42
0.4142135623731
 10
-2798.333595894479
 20
2068.479226366434
 42
0.4142135623731
  0
LINE
  5
1B7
330
1F
100
AcDbEntity
  8
0-B
  6
Continuous
 62
   120
370
     5
100
AcDbLine
 10
-2898.333595894479
 20
2129.479226366434
 30
0.0
 11
-2748.333595894479
 21
2129.479226366434
 31
0.0
  0
LINE
  5
1B8
330
1F
100
AcDbEntity
  8
0-B
  6
Continuous
 62
   120
370
     5
100
AcDbLine
 10
-2798.333595894479
 20
2069.479226366434
 30
0.0
 11
-2748.333595894479
 21
2069.479226366434
 31
0.0
  0
LWPOLYLINE
  5
1B9
330
1F
100
AcDbEntity
  8
0-B
  6
Continuous
 62
     7
370
     9
100
AcDbPolyline
 90
        4
 70
     1
 43
2.0
 10
-2797.333595894479
 20
1979.479226366434
 42
0.4142135623731
 10
-2798.333595894479
 20
1980.479226366433
 42
0.4142135623731
 10
-2799.333595894479
 20
1979.479226366434
 42
0.4142135623731
 10
-2798.333595894479
 20
1978.479226366434
 42
0.4142135623731
  0
LINE
  5
1BA
330
1F
100
AcDbEntity
  8
0-B
  6
Continuous
 62
   120
370
     5
100
AcDbLine
 10
-2798.333595894479
 20
1979.479226366434
 30
0.0
 11
-2748.333595894479
 21
1979.479226366434
 31
0.0
  0
LWPOLYLINE
  5
1BB
330
1F
100
AcDbEntity
  8
0-B
  6
Continuous
 62
     7
370
     9
100
AcDbPolyline
 90
        4
 70
     1
 43
2.0
 10
-2897.333595894479
 20
2129.479226366434
 42
0.4142135623731
 10
-2898.333595894479
 20
2130.479226366434
 42
0.4142135623731
 10
-2899.333595894479
 20
2129.479226366434
 42
0.4142135623731
 10
-2898.333595894479
 20
2128.479226366434
 42
0.4142135623731
  0
LINE
  5
1BC
330
1F
100
AcDbEntity
  8
0-4
  6
Continuous
 62
    92
370
    13
100
AcDbLine
 10
-2728.333595894479
 20
1979.479226366434
 30
0.0
 11
-2728.333595894479
 21
1929.479226366434
 31
0.0
  0
LINE
  5
1BD
330
1F
100
AcDbEntity
  8
0-0
  6
JWW_HOJO
 62
     7
370
     9
100
AcDbLine
 10
-2748.333595894479
 20
1929.479226366434
 30
0.0
 11
-2748.333595894479
 21
2149.479226366434
 31
0.0
  0
LINE
  5
1BE
330
1F
100
AcDbEntity
  8
0-0
  6
JWW_HOJO
 62
     7
370
     9
100
AcDbLine
 10
-2798.333595894479
 20
1929.479226366434
 30
0.0
 11
-2798.333595894479
 21
2199.479226366434
 31
0.0
  0
LINE
  5
1BF
330
1F
100
AcDbEntity
  8
0-0
  6
JWW_HOJO
 62
     7
370
     9
100
AcDbLine
 10
-2898.333595894479
 20
1929.479226366434
 30
0.0
 11
-2898.333595894479
 21
2299.479226366434
 31
0.0
  0
LINE
  5
1C0
330
1F
100
AcDbEntity
  8
0-0
  6
JWW_HOJO
 62
     7
370
     9
100
AcDbLine
 10
-2728.333595894479
 20
1929.479226366434
 30
0.0
 11
-2898.333595894479
 21
1929.479226366434
 31
0.0
  0
LINE
  5
1C1
330
1F
100
AcDbEntity
  8
0-B
  6
Continuous
 62
   120
370
     5
100
AcDbLine
 10
-2798.333595894479
 20
2129.479226366434
 30
0.0
 11
-2798.333595894479
 21
1929.479226366434
 31
0.0
  0
LWPOLYLINE
  5
1C2
330
1F
100
AcDbEntity
  8
0-B
  6
Continuous
 62
     7
370
     9
100
AcDbPolyline
 90
        4
 70
     1
 43
2.0
 10
-2797.333595894479
 20
1929.479226366434
 42
0.4142135623731
 10
-2798.333595894479
 20
1930.479226366433
 42
0.4142135623731
 10
-2799.333595894479
 20
1929.479226366434
 42
0.4142135623731
 10
-2798.333595894479
 20
1928.479226366434
 42
0.4142135623731
  0
LINE
  5
1C3
330
1F
100
AcDbEntity
  8
0-B
  6
Continuous
 62
   120
370
     5
100
AcDbLine
 10
-2898.333595894479
 20
1929.479226366434
 30
0.0
 11
-2748.333595894479
 21
1929.479226366434
 31
0.0
  0
LINE
  5
1C4
330
1F
100
AcDbEntity
  8
0-B
  6
Continuous
 62
   120
370
     5
100
AcDbLine
 10
-2898.333595894479
 20
2129.479226366434
 30
0.0
 11
-2898.333595894479
 21
1929.479226366434
 31
0.0
  0
LWPOLYLINE
  5
1C5
330
1F
100
AcDbEntity
  8
0-B
  6
Continuous
 62
     7
370
     9
100
AcDbPolyline
 90
        4
 70
     1
 43
2.0
 10
-2897.333595894479
 20
1929.479226366434
 42
0.4142135623731
 10
-2898.333595894479
 20
1930.479226366433
 42
0.4142135623731
 10
-2899.333595894479
 20
1929.479226366434
 42
0.4142135623731
 10
-2898.333595894479
 20
1928.479226366434
 42
0.4142135623731
  0
LINE
  5
1C6
330
1F
100
AcDbEntity
  8
0-4
  6
Continuous
 62
    92
370
    13
100
AcDbLine
 10
-1998.333595894479
 20
2129.479226366434
 30
0.0
 11
-2728.333595894479
 21
2129.479226366434
 31
0.0
  0
LINE
  5
1C7
330
1F
100
AcDbEntity
  8
0-4
  6
Continuous
 62
    92
370
    13
100
AcDbLine
 10
-1998.333595894479
 20
2124.479226366434
 30
0.0
 11
-2723.333595894479
 21
2124.479226366434
 31
0.0
  0
LINE
  5
1C8
330
1F
100
AcDbEntity
  8
0-0
  6
JWW_HOJO
 62
     7
370
     9
100
AcDbLine
 10
-1998.333595894479
 20
2129.479226366434
 30
0.0
 11
-1998.333595894479
 21
2299.479226366434
 31
0.0
  0
LINE
  5
1C9
330
1F
100
AcDbEntity
  8
0-0
  6
JWW_HOJO
 62
     7
370
     9
100
AcDbLine
 10
-1998.333595894479
 20
2149.479226366434
 30
0.0
 11
-2748.333595894479
 21
2149.479226366434
 31
0.0
  0
LINE
  5
1CA
330
1F
100
AcDbEntity
  8
0-0
  6
JWW_HOJO
 62
     7
370
     9
100
AcDbLine
 10
-1998.333595894479
 20
2199.479226366434
 30
0.0
 11
-2798.333595894479
 21
2199.479226366434
 31
0.0
  0
LINE
  5
1CB
330
1F
100
AcDbEntity
  8
0-0
  6
JWW_HOJO
 62
     7
370
     9
100
AcDbLine
 10
-1998.333595894479
 20
2299.479226366434
 30
0.0
 11
-2898.333595894479
 21
2299.479226366434
 31
0.0
  0
LINE
  5
1CC
330
1F
100
AcDbEntity
  8
0-B
  6
Continuous
 62
   120
370
     5
100
AcDbLine
 10
-2728.333595894479
 20
2299.479226366434
 30
0.0
 11
-1998.333595894479
 21
2299.479226366434
 31
0.0
  0
LWPOLYLINE
  5
1CD
330
1F
100
AcDbEntity
  8
0-B
  6
Continuous
 62
     7
370
     9
100
AcDbPolyline
 90
        4
 70
     1
 43
2.0
 10
-1997.333595894479
 20
2299.479226366434
 42
0.4142135623731
 10
-1998.333595894479
 20
2300.479226366434
 42
0.4142135623731
 10
-1999.333595894479
 20
2299.479226366434
 42
0.4142135623731
 10
-1998.333595894479
 20
2298.479226366434
 42
0.4142135623731
  0
LINE
  5
1CE
330
1F
100
AcDbEntity
  8
0-B
  6
Continuous
 62
   120
370
     5
100
AcDbLine
 10
-1998.333595894479
 20
2299.479226366434
 30
0.0
 11
-1998.333595894479
 21
2149.479226366434
 31
0.0
  0
LINE
  5
1CF
330
1F
100
AcDbEntity
  8
0-4
  6
Continuous
 62
    92
370
    13
100
AcDbLine
 10
-1998.333595894479
 20
2129.479226366434
 30
0.0
 11
-1998.333595894479
 21
1929.479226366434
 31
0.0
  0
LINE
  5
1D0
330
1F
100
AcDbEntity
  8
0-4
  6
Continuous
 62
    92
370
    13
100
AcDbLine
 10
-1998.333595894479
 20
1929.479226366434
 30
0.0
 11
-2728.333595894479
 21
1929.479226366434
 31
0.0
  0
MTEXT
  5
1D1
330
1F
100
AcDbEntity
  8
0-A
  6
Continuous
 62
     7
370
     0
100
AcDbMText
 10
-368.3338392103042
 20
2376.669827929758
 30
0.0
 40
45.72
 41
210.0
 46
0.0
 71
     7
 72
     1
  1
{\fＭＳ ゴシック|b0|i0|c128|p49;2(偶数)}
 73
     1
 44
1.0
  0
MTEXT
  5
1D2
330
1F
100
AcDbEntity
  8
0-A
  6
Continuous
 62
     7
370
     9
100
AcDbMText
 10
-3256.334484029524
 20
2352.539518451968
 30
0.0
 40
64.77
 41
170.0
 46
0.0
 71
     7
 72
     1
  1
{\fＭＳ ゴシック|b0|i0|c128|p49;73幅}
 73
     1
 44
1.0
  0
MTEXT
  5
1D3
330
1F
100
AcDbEntity
  8
0-A
  6
Continuous
 62
     7
370
     9
100
AcDbMText
 10
-1498.333839210304
 20
2317.14601460107
 30
0.0
 40
45.71999999999999
 41
390.0
 46
0.0
 71
     7
 72
     1
  1
{\fＭＳ ゴシック|b0|i0|c128|p49;3,900×73×20}
 73
     1
 44
1.0
  0
MTEXT
  5
1D4
330
1F
100
AcDbEntity
  8
0-A
  6
Continuous
 62
     7
370
     0
100
AcDbMText
 10
-278.3338392103036
 20
2257.622201272382
 30
0.0
 40
45.72
 41
30.0
 46
0.0
 71
     7
 72
     1
  1
{\fＭＳ ゴシック|b0|i0|c128|p49;1}
 73
     1
 44
1.0
  0
MTEXT
  5
1D5
330
1F
100
AcDbEntity
  8
0-A
  6
Continuous
 62
     7
370
     0
100
AcDbMText
 10
-368.3338392103042
 20
1662.384067985505
 30
0.0
 40
45.72
 41
210.0
 46
0.0
 71
     7
 72
     1
  1
{\fＭＳ ゴシック|b0|i0|c128|p49;2(偶数)}
 73
     1
 44
1.0
  0
MTEXT
  5
1D6
330
1F
100
AcDbEntity
  8
0-A
  6
Continuous
 62
     7
370
     9
100
AcDbMText
 10
-3256.334484029524
 20
1638.253758507714
 30
0.0
 40
64.77
 41
170.0
 46
0.0
 71
     7
 72
     1
  1
{\fＭＳ ゴシック|b0|i0|c128|p49;82幅}
 73
     1
 44
1.0
  0
MTEXT
  5
1D7
330
1F
100
AcDbEntity
  8
0-A
  6
Continuous
 62
     7
370
     9
100
AcDbMText
 10
-1498.333839210304
 20
1602.860254656817
 30
0.0
 40
45.71999999999999
 41
390.0
 46
0.0
 71
     7
 72
     1
  1
{\fＭＳ ゴシック|b0|i0|c128|p49;3,900×82×20}
 73
     1
 44
1.0
  0
MTEXT
  5
1D8
330
1F
100
AcDbEntity
  8
0-A
  6
Continuous
 62
     7
370
     0
100
AcDbMText
 10
-278.3338392103036
 20
1543.336441328129
 30
0.0
 40
45.72
 41
30.0
 46
0.0
 71
     7
 72
     1
  1
{\fＭＳ ゴシック|b0|i0|c128|p49;1}
 73
     1
 44
1.0
  0
MTEXT
  5
1D9
330
1F
100
AcDbEntity
  8
0-A
  6
Continuous
 62
     7
370
     0
100
AcDbMText
 10
-368.3338392103042
 20
948.0983080412519
 30
0.0
 40
45.72
 41
210.0
 46
0.0
 71
     7
 72
     1
  1
{\fＭＳ ゴシック|b0|i0|c128|p49;2(偶数)}
 73
     1
 44
1.0
  0
MTEXT
  5
1DA
330
1F
100
AcDbEntity
  8
0-A
  6
Continuous
 62
     7
370
     9
100
AcDbMText
 10
-3256.334484029524
 20
924.348998563461
 30
0.0
 40
65.532
 41
215.0
 46
0.0
 71
     7
 72
     1
  1
{\fＭＳ ゴシック|b0|i0|c128|p49;106幅}
 73
     1
 44
1.0
  0
MTEXT
  5
1DB
330
1F
100
AcDbEntity
  8
0-A
  6
Continuous
 62
     7
370
     9
100
AcDbMText
 10
-1498.333839210304
 20
888.5744947125642
 30
0.0
 40
45.71999999999999
 41
420.0
 46
0.0
 71
     7
 72
     1
  1
{\fＭＳ ゴシック|b0|i0|c128|p49;3,900×106×20}
 73
     1
 44
1.0
  0
MTEXT
  5
1DC
330
1F
100
AcDbEntity
  8
0-A
  6
Continuous
 62
     7
370
     0
100
AcDbMText
 10
-278.3338392103036
 20
829.0506813838764
 30
0.0
 40
45.72
 41
30.0
 46
0.0
 71
     7
 72
     1
  1
{\fＭＳ ゴシック|b0|i0|c128|p49;1}
 73
     1
 44
1.0
  0
MTEXT
  5
1DD
330
1F
100
AcDbEntity
  8
0-A
  6
Continuous
 62
     7
370
     0
100
AcDbMText
 10
-368.3338392103042
 20
233.812548096999
 30
0.0
 40
45.72
 41
210.0
 46
0.0
 71
     7
 72
     1
  1
{\fＭＳ ゴシック|b0|i0|c128|p49;2(偶数)}
 73
     1
 44
1.0
  0
MTEXT
  5
1DE
330
1F
100
AcDbEntity
  8
0-A
  6
Continuous
 62
     7
370
     9
100
AcDbMText
 10
-3256.334484029524
 20
210.063238619208
 30
0.0
 40
65.532
 41
215.0
 46
0.0
 71
     7
 72
     1
  1
{\fＭＳ ゴシック|b0|i0|c128|p49;115幅}
 73
     1
 44
1.0
  0
MTEXT
  5
1DF
330
1F
100
AcDbEntity
  8
0-A
  6
Continuous
 62
     7
370
     9
100
AcDbMText
 10
-1498.333839210304
 20
174.2887347683111
 30
0.0
 40
45.71999999999999
 41
420.0
 46
0.0
 71
     7
 72
     1
  1
{\fＭＳ ゴシック|b0|i0|c128|p49;3,900×115×20}
 73
     1
 44
1.0
  0
MTEXT
  5
1E0
330
1F
100
AcDbEntity
  8
0-A
  6
Continuous
 62
     7
370
     0
100
AcDbMText
 10
-278.3338392103036
 20
114.7649214396233
 30
0.0
 40
45.72
 41
30.0
 46
0.0
 71
     7
 72
     1
  1
{\fＭＳ ゴシック|b0|i0|c128|p49;1}
 73
     1
 44
1.0
  0
MTEXT
  5
1E1
330
1F
100
AcDbEntity
  8
0-A
  6
Continuous
 62
     7
370
     9
100
AcDbMText
 10
-3773.333084518845
 20
66.35344020356038
 30
0.0
 40
66.04
 41
260.0
 46
0.0
 71
     7
 72
     1
  1
{\fＭＳ ゴシック|b0|i0|c128|p49;窓枠・}
 73
     1
 44
1.0
  0
MTEXT
  5
1E2
330
1F
100
AcDbEntity
  8
0-A
  6
Continuous
 62
     7
370
     9
100
AcDbMText
 10
-3773.333084518845
 20
-133.6464772964398
 30
0.0
 40
66.04
 41
260.0
 46
0.0
 71
     7
 72
     1
  1
{\fＭＳ ゴシック|b0|i0|c128|p49;Ｅ型・}
 73
     1
 44
1.0
  0
MTEXT
  5
1E3
330
1F
100
AcDbEntity
  8
0-A
  6
Continuous
 62
     7
370
     0
100
AcDbMText
 10
-368.3338392103042
 20
-480.473211847254
 30
0.0
 40
45.72
 41
210.0
 46
0.0
 71
     7
 72
     1
  1
{\fＭＳ ゴシック|b0|i0|c128|p49;2(偶数)}
 73
     1
 44
1.0
  0
MTEXT
  5
1E4
330
1F
100
AcDbEntity
  8
0-A
  6
Continuous
 62
     7
370
     9
100
AcDbMText
 10
-3256.334484029524
 20
-504.222521325045
 30
0.0
 40
65.532
 41
215.0
 46
0.0
 71
     7
 72
     1
  1
{\fＭＳ ゴシック|b0|i0|c128|p49;131幅}
 73
     1
 44
1.0
  0
MTEXT
  5
1E5
330
1F
100
AcDbEntity
  8
0-A
  6
Continuous
 62
     7
370
     9
100
AcDbMText
 10
-1498.333839210304
 20
-539.9970251759419
 30
0.0
 40
45.71999999999999
 41
420.0
 46
0.0
 71
     7
 72
     1
  1
{\fＭＳ ゴシック|b0|i0|c128|p49;3,900×131×20}
 73
     1
 44
1.0
  0
MTEXT
  5
1E6
330
1F
100
AcDbEntity
  8
0-A
  6
Continuous
 62
     7
370
     0
100
AcDbMText
 10
-278.3338392103036
 20
-599.5208385046298
 30
0.0
 40
45.72
 41
30.0
 46
0.0
 71
     7
 72
     1
  1
{\fＭＳ ゴシック|b0|i0|c128|p49;1}
 73
     1
 44
1.0
  0
MTEXT
  5
1E7
330
1F
100
AcDbEntity
  8
0-A
  6
Continuous
 62
     7
370
     0
100
AcDbMText
 10
-368.3338392103042
 20
-1194.758971791507
 30
0.0
 40
45.72
 41
210.0
 46
0.0
 71
     7
 72
     1
  1
{\fＭＳ ゴシック|b0|i0|c128|p49;2(偶数)}
 73
     1
 44
1.0
  0
MTEXT
  5
1E8
330
1F
100
AcDbEntity
  8
0-A
  6
Continuous
 62
     7
370
     9
100
AcDbMText
 10
-3256.334484029524
 20
-1218.508281269298
 30
0.0
 40
65.532
 41
215.0
 46
0.0
 71
     7
 72
     1
  1
{\fＭＳ ゴシック|b0|i0|c128|p49;140幅}
 73
     1
 44
1.0
  0
MTEXT
  5
1E9
330
1F
100
AcDbEntity
  8
0-A
  6
Continuous
 62
     7
370
     9
100
AcDbMText
 10
-1498.333839210304
 20
-1254.282785120195
 30
0.0
 40
45.71999999999999
 41
420.0
 46
0.0
 71
     7
 72
     1
  1
{\fＭＳ ゴシック|b0|i0|c128|p49;3,900×140×20}
 73
     1
 44
1.0
  0
MTEXT
  5
1EA
330
1F
100
AcDbEntity
  8
0-A
  6
Continuous
 62
     7
370
     0
100
AcDbMText
 10
-278.3338392103036
 20
-1313.806598448883
 30
0.0
 40
45.72
 41
30.0
 46
0.0
 71
     7
 72
     1
  1
{\fＭＳ ゴシック|b0|i0|c128|p49;1}
 73
     1
 44
1.0
  0
MTEXT
  5
1EB
330
1F
100
AcDbEntity
  8
0-B
  6
Continuous
 62
     7
370
   211
100
AcDbMText
 10
-2395.833595894479
 20
2304.244226366433
 30
0.0
 40
49.53
 41
65.0
 46
0.0
 71
     7
 72
     1
  1
{\fＭＳ ゴシック|b0|i0|c128|p49;73}
 73
     1
 44
1.0
  0
MTEXT
  5
1EC
330
1F
100
AcDbEntity
  8
0-B
  6
Continuous
 62
     7
370
   211
100
AcDbMText
 10
-2710.833595894479
 20
2204.244226366433
 30
0.0
 40
49.53
 41
65.0
 46
0.0
 71
     7
 72
     1
  1
{\fＭＳ ゴシック|b0|i0|c128|p49;10}
 73
     1
 44
1.0
  0
MTEXT
  5
1ED
330
1F
100
AcDbEntity
  8
0-B
  6
Continuous
 62
     7
370
   211
100
AcDbMText
 10
-2808.333595894479
 20
2077.339226366434
 30
0.0
 40
45.72
 41
30.0
 46
0.0
 71
     7
 72
     1
  1
{\fＭＳ ゴシック|b0|i0|c128|p49;6}
 11
6.123031769111886E-17
 21
1.0
 31
0.0
 73
     1
 44
1.0
  0
MTEXT
  5
1EE
330
1F
100
AcDbEntity
  8
0-B
  6
Continuous
 62
     7
370
   211
100
AcDbMText
 10
-2808.333595894479
 20
2002.339226366433
 30
0.0
 40
45.72
 41
30.0
 46
0.0
 71
     7
 72
     1
  1
{\fＭＳ ゴシック|b0|i0|c128|p49;9}
 11
6.123031769111886E-17
 21
1.0
 31
0.0
 73
     1
 44
1.0
  0
MTEXT
  5
1EF
330
1F
100
AcDbEntity
  8
0-B
  6
Continuous
 62
     7
370
   211
100
AcDbMText
 10
-2908.333595894479
 20
1991.744226366434
 30
0.0
 40
49.53
 41
65.0
 46
0.0
 71
     7
 72
     1
  1
{\fＭＳ ゴシック|b0|i0|c128|p49;20}
 11
6.123031769111886E-17
 21
1.0
 31
0.0
 73
     1
 44
1.0
  0
MTEXT
  5
1F0
330
1F
100
AcDbEntity
  8
0-B
  6
Continuous
 62
     7
370
   211
100
AcDbMText
 10
-2808.333595894479
 20
1932.339226366433
 30
0.0
 40
45.72
 41
30.0
 46
0.0
 71
     7
 72
     1
  1
{\fＭＳ ゴシック|b0|i0|c128|p49;5}
 11
6.123031769111886E-17
 21
1.0
 31
0.0
 73
     1
 44
1.0
  0
MTEXT
  5
1F1
330
1F
100
AcDbEntity
  8
0-B
  6
Continuous
 62
     7
370
   211
100
AcDbMText
 10
-2395.833595894479
 20
1589.95846642218
 30
0.0
 40
49.53
 41
65.0
 46
0.0
 71
     7
 72
     1
  1
{\fＭＳ ゴシック|b0|i0|c128|p49;82}
 73
     1
 44
1.0
  0
MTEXT
  5
1F2
330
1F
100
AcDbEntity
  8
0-B
  6
Continuous
 62
     7
370
   211
100
AcDbMText
 10
-2755.833595894479
 20
1489.95846642218
 30
0.0
 40
49.53
 41
65.0
 46
0.0
 71
     7
 72
     1
  1
{\fＭＳ ゴシック|b0|i0|c128|p49;10}
 73
     1
 44
1.0
  0
MTEXT
  5
1F3
330
1F
100
AcDbEntity
  8
0-B
  6
Continuous
 62
     7
370
   211
100
AcDbMText
 10
-2853.333595894479
 20
1363.05346642218
 30
0.0
 40
45.72
 41
30.0
 46
0.0
 71
     7
 72
     1
  1
{\fＭＳ ゴシック|b0|i0|c128|p49;6}
 11
6.123031769111886E-17
 21
1.0
 31
0.0
 73
     1
 44
1.0
  0
MTEXT
  5
1F4
330
1F
100
AcDbEntity
  8
0-B
  6
Continuous
 62
     7
370
   211
100
AcDbMText
 10
-2853.333595894479
 20
1288.05346642218
 30
0.0
 40
45.72
 41
30.0
 46
0.0
 71
     7
 72
     1
  1
{\fＭＳ ゴシック|b0|i0|c128|p49;9}
 11
6.123031769111886E-17
 21
1.0
 31
0.0
 73
     1
 44
1.0
  0
MTEXT
  5
1F5
330
1F
100
AcDbEntity
  8
0-B
  6
Continuous
 62
     7
370
   211
100
AcDbMText
 10
-2953.333595894479
 20
1277.45846642218
 30
0.0
 40
49.53
 41
65.0
 46
0.0
 71
     7
 72
     1
  1
{\fＭＳ ゴシック|b0|i0|c128|p49;20}
 11
6.123031769111886E-17
 21
1.0
 31
0.0
 73
     1
 44
1.0
  0
MTEXT
  5
1F6
330
1F
100
AcDbEntity
  8
0-B
  6
Continuous
 62
     7
370
   211
100
AcDbMText
 10
-2853.333595894479
 20
1218.05346642218
 30
0.0
 40
45.72
 41
30.0
 46
0.0
 71
     7
 72
     1
  1
{\fＭＳ ゴシック|b0|i0|c128|p49;5}
 11
6.123031769111886E-17
 21
1.0
 31
0.0
 73
     1
 44
1.0
  0
MTEXT
  5
1F7
330
1F
100
AcDbEntity
  8
0-B
  6
Continuous
 62
     7
370
   211
100
AcDbMText
 10
-2413.333595894479
 20
876.3077064779274
 30
0.0
 40
50.8
 41
100.0
 46
0.0
 71
     7
 72
     1
  1
{\fＭＳ ゴシック|b0|i0|c128|p49;106}
 73
     1
 44
1.0
  0
MTEXT
  5
1F8
330
1F
100
AcDbEntity
  8
0-B
  6
Continuous
 62
     7
370
   211
100
AcDbMText
 10
-2875.833595894479
 20
775.6727064779274
 30
0.0
 40
49.53
 41
65.0
 46
0.0
 71
     7
 72
     1
  1
{\fＭＳ ゴシック|b0|i0|c128|p49;10}
 73
     1
 44
1.0
  0
MTEXT
  5
1F9
330
1F
100
AcDbEntity
  8
0-B
  6
Continuous
 62
     7
370
   211
100
AcDbMText
 10
-2973.333595894479
 20
648.7677064779274
 30
0.0
 40
45.72
 41
30.0
 46
0.0
 71
     7
 72
     1
  1
{\fＭＳ ゴシック|b0|i0|c128|p49;6}
 11
6.123031769111886E-17
 21
1.0
 31
0.0
 73
     1
 44
1.0
  0
MTEXT
  5
1FA
330
1F
100
AcDbEntity
  8
0-B
  6
Continuous
 62
     7
370
   211
100
AcDbMText
 10
-2973.333595894479
 20
573.7677064779274
 30
0.0
 40
45.72
 41
30.0
 46
0.0
 71
     7
 72
     1
  1
{\fＭＳ ゴシック|b0|i0|c128|p49;9}
 11
6.123031769111886E-17
 21
1.0
 31
0.0
 73
     1
 44
1.0
  0
MTEXT
  5
1FB
330
1F
100
AcDbEntity
  8
0-B
  6
Continuous
 62
     7
370
   211
100
AcDbMText
 10
-3073.333595894479
 20
563.1727064779274
 30
0.0
 40
49.53
 41
65.0
 46
0.0
 71
     7
 72
     1
  1
{\fＭＳ ゴシック|b0|i0|c128|p49;20}
 11
6.123031769111886E-17
 21
1.0
 31
0.0
 73
     1
 44
1.0
  0
MTEXT
  5
1FC
330
1F
100
AcDbEntity
  8
0-B
  6
Continuous
 62
     7
370
   211
100
AcDbMText
 10
-2973.333595894479
 20
503.7677064779274
 30
0.0
 40
45.72
 41
30.0
 46
0.0
 71
     7
 72
     1
  1
{\fＭＳ ゴシック|b0|i0|c128|p49;5}
 11
6.123031769111886E-17
 21
1.0
 31
0.0
 73
     1
 44
1.0
  0
MTEXT
  5
1FD
330
1F
100
AcDbEntity
  8
0-B
  6
Continuous
 62
     7
370
   211
100
AcDbMText
 10
-2413.333595894479
 20
156.5802154615299
 30
0.0
 40
50.8
 41
100.0
 46
0.0
 71
     7
 72
     1
  1
{\fＭＳ ゴシック|b0|i0|c128|p49;115}
 73
     1
 44
1.0
  0
MTEXT
  5
1FE
330
1F
100
AcDbEntity
  8
0-B
  6
Continuous
 62
     7
370
   211
100
AcDbMText
 10
-2920.833595894479
 20
55.94521546152988
 30
0.0
 40
49.53
 41
65.0
 46
0.0
 71
     7
 72
     1
  1
{\fＭＳ ゴシック|b0|i0|c128|p49;10}
 73
     1
 44
1.0
  0
MTEXT
  5
1FF
330
1F
100
AcDbEntity
  8
0-B
  6
Continuous
 62
     7
370
   211
100
AcDbMText
 10
-3018.333595894479
 20
-70.95978453847012
 30
0.0
 40
45.72
 41
30.0
 46
0.0
 71
     7
 72
     1
  1
{\fＭＳ ゴシック|b0|i0|c128|p49;6}
 11
6.123031769111886E-17
 21
1.0
 31
0.0
 73
     1
 44
1.0
  0
MTEXT
  5
200
330
1F
100
AcDbEntity
  8
0-B
  6
Continuous
 62
     7
370
   211
100
AcDbMText
 10
-3018.333595894479
 20
-145.9597845384701
 30
0.0
 40
45.72
 41
30.0
 46
0.0
 71
     7
 72
     1
  1
{\fＭＳ ゴシック|b0|i0|c128|p49;9}
 11
6.123031769111886E-17
 21
1.0
 31
0.0
 73
     1
 44
1.0
  0
MTEXT
  5
201
330
1F
100
AcDbEntity
  8
0-B
  6
Continuous
 62
     7
370
   211
100
AcDbMText
 10
-3118.333595894479
 20
-156.5547845384701
 30
0.0
 40
49.53
 41
65.0
 46
0.0
 71
     7
 72
     1
  1
{\fＭＳ ゴシック|b0|i0|c128|p49;20}
 11
6.123031769111886E-17
 21
1.0
 31
0.0
 73
     1
 44
1.0
  0
MTEXT
  5
202
330
1F
100
AcDbEntity
  8
0-B
  6
Continuous
 62
     7
370
   211
100
AcDbMText
 10
-3018.333595894479
 20
-215.9597845384701
 30
0.0
 40
45.72
 41
30.0
 46
0.0
 71
     7
 72
     1
  1
{\fＭＳ ゴシック|b0|i0|c128|p49;5}
 11
6.123031769111886E-17
 21
1.0
 31
0.0
 73
     1
 44
1.0
  0
MTEXT
  5
203
330
1F
100
AcDbEntity
  8
0-B
  6
Continuous
 62
     7
370
   211
100
AcDbMText
 10
-2413.333595894479
 20
-557.7055444827232
 30
0.0
 40
50.8
 41
100.0
 46
0.0
 71
     7
 72
     1
  1
{\fＭＳ ゴシック|b0|i0|c128|p49;131}
 73
     1
 44
1.0
  0
MTEXT
  5
204
330
1F
100
AcDbEntity
  8
0-B
  6
Continuous
 62
     7
370
   211
100
AcDbMText
 10
-2920.833595894479
 20
-658.3405444827232
 30
0.0
 40
49.53
 41
65.0
 46
0.0
 71
     7
 72
     1
  1
{\fＭＳ ゴシック|b0|i0|c128|p49;10}
 73
     1
 44
1.0
  0
MTEXT
  5
205
330
1F
100
AcDbEntity
  8
0-B
  6
Continuous
 62
     7
370
   211
100
AcDbMText
 10
-3018.333595894479
 20
-785.2455444827232
 30
0.0
 40
45.72
 41
30.0
 46
0.0
 71
     7
 72
     1
  1
{\fＭＳ ゴシック|b0|i0|c128|p49;6}
 11
6.123031769111886E-17
 21
1.0
 31
0.0
 73
     1
 44
1.0
  0
MTEXT
  5
206
330
1F
100
AcDbEntity
  8
0-B
  6
Continuous
 62
     7
370
   211
100
AcDbMText
 10
-3018.333595894479
 20
-860.2455444827232
 30
0.0
 40
45.72
 41
30.0
 46
0.0
 71
     7
 72
     1
  1
{\fＭＳ ゴシック|b0|i0|c128|p49;9}
 11
6.123031769111886E-17
 21
1.0
 31
0.0
 73
     1
 44
1.0
  0
MTEXT
  5
207
330
1F
100
AcDbEntity
  8
0-B
  6
Continuous
 62
     7
370
   211
100
AcDbMText
 10
-3118.333595894479
 20
-870.8405444827232
 30
0.0
 40
49.53
 41
65.0
 46
0.0
 71
     7
 72
     1
  1
{\fＭＳ ゴシック|b0|i0|c128|p49;20}
 11
6.123031769111886E-17
 21
1.0
 31
0.0
 73
     1
 44
1.0
  0
MTEXT
  5
208
330
1F
100
AcDbEntity
  8
0-B
  6
Continuous
 62
     7
370
   211
100
AcDbMText
 10
-3018.333595894479
 20
-930.2455444827232
 30
0.0
 40
45.72
 41
30.0
 46
0.0
 71
     7
 72
     1
  1
{\fＭＳ ゴシック|b0|i0|c128|p49;5}
 11
6.123031769111886E-17
 21
1.0
 31
0.0
 73
     1
 44
1.0
  0
MTEXT
  5
209
330
1F
100
AcDbEntity
  8
0-B
  6
Continuous
 62
     7
370
   211
100
AcDbMText
 10
-2413.333595894479
 20
-1271.991304426976
 30
0.0
 40
50.8
 41
100.0
 46
0.0
 71
     7
 72
     1
  1
{\fＭＳ ゴシック|b0|i0|c128|p49;140}
 73
     1
 44
1.0
  0
MTEXT
  5
20A
330
1F
100
AcDbEntity
  8
0-B
  6
Continuous
 62
     7
370
   211
100
AcDbMText
 10
-2920.833595894479
 20
-1372.626304426976
 30
0.0
 40
49.53
 41
65.0
 46
0.0
 71
     7
 72
     1
  1
{\fＭＳ ゴシック|b0|i0|c128|p49;10}
 73
     1
 44
1.0
  0
MTEXT
  5
20B
330
1F
100
AcDbEntity
  8
0-B
  6
Continuous
 62
     7
370
   211
100
AcDbMText
 10
-3018.333595894479
 20
-1499.531304426976
 30
0.0
 40
45.72
 41
30.0
 46
0.0
 71
     7
 72
     1
  1
{\fＭＳ ゴシック|b0|i0|c128|p49;6}
 11
6.123031769111886E-17
 21
1.0
 31
0.0
 73
     1
 44
1.0
  0
MTEXT
  5
20C
330
1F
100
AcDbEntity
  8
0-B
  6
Continuous
 62
     7
370
   211
100
AcDbMText
 10
-3018.333595894479
 20
-1574.531304426976
 30
0.0
 40
45.72
 41
30.0
 46
0.0
 71
     7
 72
     1
  1
{\fＭＳ ゴシック|b0|i0|c128|p49;9}
 11
6.123031769111886E-17
 21
1.0
 31
0.0
 73
     1
 44
1.0
  0
MTEXT
  5
20D
330
1F
100
AcDbEntity
  8
0-B
  6
Continuous
 62
     7
370
   211
100
AcDbMText
 10
-3118.333595894479
 20
-1585.126304426976
 30
0.0
 40
49.53
 41
65.0
 46
0.0
 71
     7
 72
     1
  1
{\fＭＳ ゴシック|b0|i0|c128|p49;20}
 11
6.123031769111886E-17
 21
1.0
 31
0.0
 73
     1
 44
1.0
  0
MTEXT
  5
20E
330
1F
100
AcDbEntity
  8
0-B
  6
Continuous
 62
     7
370
   211
100
AcDbMText
 10
-3018.333595894479
 20
-1644.531304426976
 30
0.0
 40
45.72
 41
30.0
 46
0.0
 71
     7
 72
     1
  1
{\fＭＳ ゴシック|b0|i0|c128|p49;5}
 11
6.123031769111886E-17
 21
1.0
 31
0.0
 73
     1
 44
1.0
  0
MTEXT
  5
20F
330
1F
100
AcDbEntity
  8
F-A
  6
Continuous
 62
     7
370
     0
100
AcDbMText
 10
-1388.333839210304
 20
2656.551787637247
 30
0.0
 40
64.77
 41
170.0
 46
0.0
 71
     7
 72
     1
  1
{\fＭＳ ゴシック|b0|i0|c128|p49;寸法}
 73
     1
 44
1.0
  0
MTEXT
  5
210
330
1F
100
AcDbEntity
  8
F-A
  6
Continuous
 62
     7
370
     0
100
AcDbMText
 10
-348.3338392103036
 20
2656.551787637247
 30
0.0
 40
64.77
 41
170.0
 46
0.0
 71
     7
 72
     1
  1
{\fＭＳ ゴシック|b0|i0|c128|p49;発注}
 73
     1
 44
1.0
  0
MTEXT
  5
211
330
1F
100
AcDbEntity
  8
F-A
  6
Continuous
 62
     7
370
     0
100
AcDbMText
 10
2508.333146378801
 20
2656.519620460304
 30
0.0
 40
64.77
 41
170.0
 46
0.0
 71
     7
 72
     1
  1
{\fＭＳ ゴシック|b0|i0|c128|p49;寸法}
 73
     1
 44
1.0
  0
MTEXT
  5
212
330
1F
100
AcDbEntity
  8
F-A
  6
Continuous
 62
     7
370
     0
100
AcDbMText
 10
3548.333146378802
 20
2656.519620460304
 30
0.0
 40
64.77
 41
170.0
 46
0.0
 71
     7
 72
     1
  1
{\fＭＳ ゴシック|b0|i0|c128|p49;発注}
 73
     1
 44
1.0
  0
MTEXT
  5
213
330
1F
100
AcDbEntity
  8
F-A
  6
Continuous
 62
     7
370
     0
100
AcDbMText
 10
-3773.333208238756
 20
2584.686919605152
 30
0.0
 40
66.04
 41
260.0
 46
0.0
 71
     7
 72
     1
  1
{\fＭＳ ゴシック|b0|i0|c128|p49;部材名}
 73
     1
 44
1.0
  0
MTEXT
  5
214
330
1F
100
AcDbEntity
  8
F-A
  6
Continuous
 62
     7
370
     0
100
AcDbMText
 10
-798.333839210304
 20
2584.051919605152
 30
0.0
 40
64.77
 41
170.0
 46
0.0
 71
     7
 72
     1
  1
{\fＭＳ ゴシック|b0|i0|c128|p49;品番}
 73
     1
 44
1.0
  0
MTEXT
  5
215
330
1F
100
AcDbEntity
  8
F-A
  6
Continuous
 62
     7
370
     0
100
AcDbMText
 10
119.9995876002959
 20
2584.686919605152
 30
0.0
 40
66.04
 41
260.0
 46
0.0
 71
     7
 72
     1
  1
{\fＭＳ ゴシック|b0|i0|c128|p49;部材名}
 73
     1
 44
1.0
  0
MTEXT
  5
216
330
1F
100
AcDbEntity
  8
F-A
  6
Continuous
 62
     7
370
     0
100
AcDbMText
 10
-2623.333719614389
 20
2585.004287637247
 30
0.0
 40
66.675
 41
350.0
 46
0.0
 71
     7
 72
     1
  1
{\fＭＳ ゴシック|b0|i0|c128|p49;断面形状}
 73
     1
 44
1.0
  0
MTEXT
  5
217
330
1F
100
AcDbEntity
  8
F-A
  6
Continuous
 62
     7
370
     0
100
AcDbMText
 10
1273.333327834671
 20
2585.004287637247
 30
0.0
 40
66.675
 41
350.0
 46
0.0
 71
     7
 72
     1
  1
{\fＭＳ ゴシック|b0|i0|c128|p49;断面形状}
 73
     1
 44
1.0
  0
MTEXT
  5
218
330
1F
100
AcDbEntity
  8
F-A
  6
Continuous
 62
     7
370
     0
100
AcDbMText
 10
3098.333146378801
 20
2584.019752428209
 30
0.0
 40
64.77
 41
170.0
 46
0.0
 71
     7
 72
     1
  1
{\fＭＳ ゴシック|b0|i0|c128|p49;品番}
 73
     1
 44
1.0
  0
MTEXT
  5
219
330
1F
100
AcDbEntity
  8
F-A
  6
Continuous
 62
     7
370
     0
100
AcDbMText
 10
-1573.333839210304
 20
2498.693542282799
 30
0.0
 40
45.72
 41
540.0
 46
0.0
 71
     7
 72
     1
  1
{\fＭＳ ゴシック|b0|i0|c128|p49;長さ×幅×厚さ(㎜)}
 73
     1
 44
1.0
  0
MTEXT
  5
21A
330
1F
100
AcDbEntity
  8
F-A
  6
Continuous
 62
     7
370
     0
100
AcDbMText
 10
-348.3338392103036
 20
2508.218542282799
 30
0.0
 40
64.77
 41
170.0
 46
0.0
 71
     7
 72
     1
  1
{\fＭＳ ゴシック|b0|i0|c128|p49;単位}
 73
     1
 44
1.0
  0
MTEXT
  5
21B
330
1F
100
AcDbEntity
  8
F-A
  6
Continuous
 62
     7
370
     0
100
AcDbMText
 10
2323.333146378801
 20
2498.661375105857
 30
0.0
 40
45.72
 41
540.0
 46
0.0
 71
     7
 72
     1
  1
{\fＭＳ ゴシック|b0|i0|c128|p49;長さ×幅×厚さ(㎜)}
 73
     1
 44
1.0
  0
MTEXT
  5
21C
330
1F
100
AcDbEntity
  8
F-A
  6
Continuous
 62
     7
370
     0
100
AcDbMText
 10
3548.333146378802
 20
2508.186375105857
 30
0.0
 40
64.77
 41
170.0
 46
0.0
 71
     7
 72
     1
  1
{\fＭＳ ゴシック|b0|i0|c128|p49;単位}
 73
     1
 44
1.0
  0
MTEXT
  5
21D
330
1F
100
AcDbEntity
  8
F-A
  6
Continuous
 62
     7
370
     0
100
AcDbMText
 10
-40.0000824799406
 20
-2591.426547247957
 30
0.0
 40
30.48
 41
120.0
 46
0.0
 71
     7
 72
     1
  1
{\fＭＳ ゴシック|b0|i0|c128|p49;図面名}
 73
     1
 44
1.0
  0
MTEXT
  5
21E
330
1F
100
AcDbEntity
  8
F-A
  6
Continuous
 62
     7
370
     0
100
AcDbMText
 10
1853.332486539274
 20
-2591.428307078516
 30
0.0
 40
30.48
 41
200.0
 46
0.0
 71
     7
 72
     1
  1
{\fＭＳ ゴシック|b0|i0|c128|p49;ＳＣＡＬＥ}
 73
     1
 44
1.0
  0
MTEXT
  5
21F
330
1F
100
AcDbEntity
  8
F-A
  6
Continuous
 62
     7
370
     0
100
AcDbMText
 10
2853.332816459038
 20
-2591.429236567169
 30
0.0
 40
30.48
 41
160.0
 46
0.0
 71
     7
 72
     1
  1
{\fＭＳ ゴシック|b0|i0|c128|p49;ＤＡＴＥ}
 73
     1
 44
1.0
  0
MTEXT
  5
220
330
1F
100
AcDbEntity
  8
F-A
  6
Continuous
 62
     7
370
     0
100
AcDbMText
 10
786.9451346024795
 20
-2630.758774399892
 30
0.0
 40
51.816
 41
340.0
 46
0.0
 71
     7
 72
     1
  1
{\fＭＳ ゴシック|b0|i0|c128|p49;洋風造作材}
 73
     1
 44
1.0
  0
MTEXT
  5
221
330
1F
100
AcDbEntity
  8
F-A
  6
Continuous
 62
     7
370
     0
100
AcDbMText
 10
2273.332651499156
 20
-2631.268743938205
 30
0.0
 40
50.8
 41
100.0
 46
0.0
 71
     7
 72
     1
  1
{\fＭＳ ゴシック|b0|i0|c128|p49;1/2}
 73
     1
 44
1.0
  0
MTEXT
  5
222
330
1F
100
AcDbEntity
  8
F-A
  6
Continuous
 62
     7
370
     0
100
AcDbMText
 10
1853.332486539274
 20
-2724.761642118573
 30
0.0
 40
30.48
 41
160.0
 46
0.0
 71
     7
 72
     1
  1
{\fＭＳ ゴシック|b0|i0|c128|p49;ＦＩＬＥ}
 73
     1
 44
1.0
  0
MTEXT
  5
223
330
1F
100
AcDbEntity
  8
F-A
  6
Continuous
 62
     7
370
     0
100
AcDbMText
 10
2853.332816459038
 20
-2724.762571607227
 30
0.0
 40
30.48
 41
120.0
 46
0.0
 71
     7
 72
     1
  1
{\fＭＳ ゴシック|b0|i0|c128|p49;ＮＯ．}
 73
     1
 44
1.0
  0
MTEXT
  5
224
330
1F
100
AcDbEntity
  8
F-A
  6
Continuous
 62
     7
370
     0
100
AcDbMText
 10
823.332486539274
 20
-2730.760446177432
 30
0.0
 40
30.48
 41
80.0
 46
0.0
 71
     7
 72
     1
  1
{\fＭＳ ゴシック|b0|i0|c128|p49;株式}
 73
     1
 44
1.0
  0
MTEXT
  5
225
330
1F
100
AcDbEntity
  8
F-A
  6
Continuous
 62
     7
370
     0
100
AcDbMText
 10
963.332486539274
 20
-2776.187836349286
 30
0.0
 40
67.6275
 41
710.0
 46
0.0
 71
     7
 72
     1
  1
{\fＭＳ ゴシック|b0|i0|c128|p49;ウッドワン・・・}
 73
     1
 44
1.0
  0
MTEXT
  5
226
330
1F
100
AcDbEntity
  8
F-A
  6
Continuous
 62
     7
370
     0
100
AcDbMText
 10
823.332486539274
 20
-2778.760446177458
 30
0.0
 40
30.48
 41
80.0
 46
0.0
 71
     7
 72
     1
  1
{\fＭＳ ゴシック|b0|i0|c128|p49;会社}
 73
     1
 44
1.0
  0
LINE
  5
227
330
1F
100
AcDbEntity
  8
F-1
  6
Continuous
 62
     7
370
     9
100
AcDbLine
 10
603.3326587161497
 20
2783.333179370777
 30
0.0
 11
603.3326587161497
 21
-2526.666678351325
 31
0.0
  0
MTEXT
  5
228
330
1F
100
AcDbEntity
  8
F-A
  6
Continuous
 62
     7
370
     0
100
AcDbMText
 10
-3498.364917835225
 20
-2696.901415718927
 30
0.0
 40
52.86374999999998
 41
1110.0
 46
0.0
 71
     7
 72
     1
  1
{\fＭＳ ゴシック|b0|i0|c128|p49;ピノアース　洋風造作材　窓枠Ｅ型}
 73
     1
 44
1.0
  0
MTEXT
  5
229
330
1F
100
AcDbEntity
  8
0-A
  6
Continuous
 62
     7
370
     9
100
AcDbMText
 10
-983.3338392103042
 20
2376.669827929758
 30
0.0
 40
45.72
 41
420.0
 46
0.0
 71
     7
 72
     1
  1
{\fＭＳ ゴシック|b0|i0|c128|p49;ＥＷＮ073Ｅ-□}
 73
     1
 44
1.0
  0
MTEXT
  5
22A
330
1F
100
AcDbEntity
  8
0-A
  6
Continuous
 62
     7
370
     9
100
AcDbMText
 10
-983.3338392103042
 20
2257.622201272382
 30
0.0
 40
45.71999999999999
 41
450.0
 46
0.0
 71
     7
 72
     1
  1
{\fＭＳ ゴシック|b0|i0|c128|p49;ＥＷＮ073Ｅ1-□}
 73
     1
 44
1.0
  0
MTEXT
  5
22B
330
1F
100
AcDbEntity
  8
0-A
  6
Continuous
 62
     7
370
     9
100
AcDbMText
 10
-983.3338392103042
 20
1662.384067985505
 30
0.0
 40
45.72
 41
420.0
 46
0.0
 71
     7
 72
     1
  1
{\fＭＳ ゴシック|b0|i0|c128|p49;ＥＷＮ082Ｅ-□}
 73
     1
 44
1.0
  0
MTEXT
  5
22C
330
1F
100
AcDbEntity
  8
0-A
  6
Continuous
 62
     7
370
     9
100
AcDbMText
 10
-983.3338392103042
 20
1543.336441328129
 30
0.0
 40
45.71999999999999
 41
450.0
 46
0.0
 71
     7
 72
     1
  1
{\fＭＳ ゴシック|b0|i0|c128|p49;ＥＷＮ082Ｅ1-□}
 73
     1
 44
1.0
  0
MTEXT
  5
22D
330
1F
100
AcDbEntity
  8
0-A
  6
Continuous
 62
     7
370
     9
100
AcDbMText
 10
-983.3338392103042
 20
948.0983080412519
 30
0.0
 40
45.72
 41
420.0
 46
0.0
 71
     7
 72
     1
  1
{\fＭＳ ゴシック|b0|i0|c128|p49;ＥＷＮ106Ｅ-□}
 73
     1
 44
1.0
  0
MTEXT
  5
22E
330
1F
100
AcDbEntity
  8
0-A
  6
Continuous
 62
     7
370
     9
100
AcDbMText
 10
-983.3338392103042
 20
829.0506813838764
 30
0.0
 40
45.71999999999999
 41
450.0
 46
0.0
 71
     7
 72
     1
  1
{\fＭＳ ゴシック|b0|i0|c128|p49;ＥＷＮ106Ｅ1-□}
 73
     1
 44
1.0
  0
MTEXT
  5
22F
330
1F
100
AcDbEntity
  8
0-A
  6
Continuous
 62
     7
370
     9
100
AcDbMText
 10
-983.3338392103042
 20
233.812548096999
 30
0.0
 40
45.72
 41
420.0
 46
0.0
 71
     7
 72
     1
  1
{\fＭＳ ゴシック|b0|i0|c128|p49;ＥＷＮ115Ｅ-□}
 73
     1
 44
1.0
  0
MTEXT
  5
230
330
1F
100
AcDbEntity
  8
0-A
  6
Continuous
 62
     7
370
     9
100
AcDbMText
 10
-983.3338392103042
 20
114.7649214396233
 30
0.0
 40
45.71999999999999
 41
450.0
 46
0.0
 71
     7
 72
     1
  1
{\fＭＳ ゴシック|b0|i0|c128|p49;ＥＷＮ115Ｅ1-□}
 73
     1
 44
1.0
  0
MTEXT
  5
231
330
1F
100
AcDbEntity
  8
0-A
  6
Continuous
 62
     7
370
     9
100
AcDbMText
 10
-983.3338392103042
 20
-480.473211847254
 30
0.0
 40
45.72
 41
420.0
 46
0.0
 71
     7
 72
     1
  1
{\fＭＳ ゴシック|b0|i0|c128|p49;ＥＷＮ131Ｅ-□}
 73
     1
 44
1.0
  0
MTEXT
  5
232
330
1F
100
AcDbEntity
  8
0-A
  6
Continuous
 62
     7
370
     9
100
AcDbMText
 10
-983.3338392103042
 20
-599.5208385046298
 30
0.0
 40
45.71999999999999
 41
450.0
 46
0.0
 71
     7
 72
     1
  1
{\fＭＳ ゴシック|b0|i0|c128|p49;ＥＷＮ131Ｅ1-□}
 73
     1
 44
1.0
  0
MTEXT
  5
233
330
1F
100
AcDbEntity
  8
0-A
  6
Continuous
 62
     7
370
     9
100
AcDbMText
 10
-983.3338392103042
 20
-1194.758971791507
 30
0.0
 40
45.72
 41
420.0
 46
0.0
 71
     7
 72
     1
  1
{\fＭＳ ゴシック|b0|i0|c128|p49;ＥＷＮ140Ｅ-□}
 73
     1
 44
1.0
  0
MTEXT
  5
234
330
1F
100
AcDbEntity
  8
0-A
  6
Continuous
 62
     7
370
     9
100
AcDbMText
 10
-983.3338392103042
 20
-1313.806598448883
 30
0.0
 40
45.71999999999999
 41
450.0
 46
0.0
 71
     7
 72
     1
  1
{\fＭＳ ゴシック|b0|i0|c128|p49;ＥＷＮ140Ｅ1-□}
 73
     1
 44
1.0
  0
LINE
  5
235
330
1F
100
AcDbEntity
  8
F-1
  6
JWW_DASHED1
 62
     7
370
     9
100
AcDbLine
 10
-1603.333839210304
 20
-1931.428545064448
 30
0.0
 11
-103.3338392103036
 21
-1931.428545064448
 31
0.0
  0
MTEXT
  5
236
330
1F
100
AcDbEntity
  8
F-A
  6
Continuous
 62
     7
370
     0
100
AcDbMText
 10
3150.832733979097
 20
-2625.380673426644
 30
0.0
 40
52.57799999999999
 41
345.0
 46
0.0
 71
     7
 72
     1
  1
{\fＭＳ ゴシック|b0|i0|c128|p49;2021.04.01}
 73
     1
 44
1.0
  0
MTEXT
  5
237
330
1F
100
AcDbEntity
  8
F-A
  6
Continuous
 62
     7
370
     0
100
AcDbMText
 10
233.3332783467063
 20
-2638.141527915001
 30
0.0
 40
38.09999999999999
 41
450.0
 46
0.0
 71
     7
 72
     1
  1
{\fＭＳ ゴシック|b0|i0|c128|p49;ＰＩＮＯＥＡＲＴＨ}
 73
     1
 44
1.0
  0
MTEXT
  5
238
330
1F
100
AcDbEntity
  8
F-A
  6
Continuous
 62
     7
370
     9
100
AcDbMText
 10
3290.832689053887
 20
-2765.238008466657
 30
0.0
 40
49.53
 41
65.0
 46
0.0
 71
     7
 72
     1
  1
{\fＭＳ ゴシック|b0|i0|c128|p49;01}
 73
     1
 44
1.0
  0
ENDSEC
  0
SECTION
  2
OBJECTS
  0
DICTIONARY
  5
C
330
0
100
AcDbDictionary
281
     1
  3
ACAD_GROUP
350
D
  3
ACAD_LAYOUT
350
1A
  3
ACAD_MATERIAL
350
3B
  3
ACAD_MLEADERSTYLE
350
23A
  3
ACAD_MLINESTYLE
350
17
  3
ACAD_PLOTSETTINGS
350
19
  3
ACAD_PLOTSTYLENAME
350
E
  3
ACAD_TABLESTYLE
350
239
  3
ACAD_VISUALSTYLE
350
2A
  0
DICTIONARY
  5
D
102
{ACAD_REACTORS
330
C
102
}
330
C
100
AcDbDictionary
281
     1
  0
DICTIONARY
  5
1A
102
{ACAD_REACTORS
330
C
102
}
330
C
100
AcDbDictionary
281
     1
  3
Layout1
350
1E
  3
Layout2
350
26
  3
Model
350
22
  0
DICTIONARY
  5
3B
102
{ACAD_REACTORS
330
C
102
}
330
C
100
AcDbDictionary
281
     1
  3
ByBlock
350
3D
  3
ByLayer
350
3C
  3
Global
350
3E
  0
DICTIONARY
  5
23A
102
{ACAD_REACTORS
330
C
102
}
330
C
100
AcDbDictionary
281
     1
  0
DICTIONARY
  5
17
102
{ACAD_REACTORS
330
C
102
}
330
C
100
AcDbDictionary
281
     1
  3
Standard
350
18
  0
DICTIONARY
  5
19
102
{ACAD_REACTORS
330
C
102
}
330
C
100
AcDbDictionary
281
     1
  0
ACDBDICTIONARYWDFLT
  5
E
102
{ACAD_REACTORS
330
C
102
}
330
C
100
AcDbDictionary
281
     1
  3
Normal
350
F
100
AcDbDictionaryWithDefault
340
F
  0
DICTIONARY
  5
239
102
{ACAD_REACTORS
330
C
102
}
330
C
100
AcDbDictionary
281
     1
  0
DICTIONARY
  5
2A
102
{ACAD_REACTORS
330
C
102
}
330
C
100
AcDbDictionary
281
     1
  3
2dWireframe
350
2F
  3
3D Hidden
350
31
  3
3dWireframe
350
30
  3
Basic
350
32
  3
Brighten
350
36
  3
ColorChange
350
3A
  3
Conceptual
350
34
  3
Dim
350
35
  3
Facepattern
350
39
  3
Flat
350
2B
  3
FlatWithEdges
350
2C
  3
Gouraud
350
2D
  3
GouraudWithEdges
350
2E
  3
Linepattern
350
38
  3
Realistic
350
33
  3
Thicken
350
37
  0
LAYOUT
  5
1E
102
{ACAD_REACTORS
330
1A
102
}
330
1A
100
AcDbPlotSettings
  1

  2
none_device
  4

  6

 40
0.0
 41
0.0
 42
0.0
 43
0.0
 44
0.0
 45
0.0
 46
0.0
 47
0.0
 48
0.0
 49
0.0
140
0.0
141
0.0
142
1.0
143
1.0
 70
   688
 72
     0
 73
     0
 74
     5
  7

 75
    16
 76
     0
 77
     5
 78
   300
147
1.0
148
0.0
149
0.0
100
AcDbLayout
  1
Layout1
 70
     1
 71
     1
 10
0.0
 20
0.0
 11
420.0
 21
297.0
 12
0.0
 22
0.0
 32
0.0
 14
1.000000000000000E+20
 24
1.000000000000000E+20
 34
1.000000000000000E+20
 15
-1.000000000000000E+20
 25
-1.000000000000000E+20
 35
-1.000000000000000E+20
146
0.0
 13
0.0
 23
0.0
 33
0.0
 16
1.0
 26
0.0
 36
0.0
 17
0.0
 27
1.0
 37
0.0
 76
     0
330
1B
  0
LAYOUT
  5
26
102
{ACAD_REACTORS
330
1A
102
}
330
1A
100
AcDbPlotSettings
  1

  2
none_device
  4

  6

 40
0.0
 41
0.0
 42
0.0
 43
0.0
 44
0.0
 45
0.0
 46
0.0
 47
0.0
 48
0.0
 49
0.0
140
0.0
141
0.0
142
1.0
143
1.0
 70
   688
 72
     0
 73
     0
 74
     5
  7

 75
    16
 76
     0
 77
     5
 78
   300
147
1.0
148
0.0
149
0.0
100
AcDbLayout
  1
Layout2
 70
     1
 71
     2
 10
0.0
 20
0.0
 11
0.0
 21
0.0
 12
0.0
 22
0.0
 32
0.0
 14
0.0
 24
0.0
 34
0.0
 15
0.0
 25
0.0
 35
0.0
146
0.0
 13
0.0
 23
0.0
 33
0.0
 16
1.0
 26
0.0
 36
0.0
 17
0.0
 27
1.0
 37
0.0
 76
     0
330
23
  0
LAYOUT
  5
22
102
{ACAD_REACTORS
330
1A
102
}
330
1A
100
AcDbPlotSettings
  1

  2
none_device
  4

  6

 40
0.0
 41
0.0
 42
0.0
 43
0.0
 44
0.0
 45
0.0
 46
0.0
 47
0.0
 48
0.0
 49
0.0
140
0.0
141
0.0
142
1.0
143
1.0
 70
  1712
 72
     0
 73
     0
 74
     0
  7

 75
     0
 76
     0
 77
     5
 78
   300
147
1.0
148
0.0
149
0.0
100
AcDbLayout
  1
Model
 70
     1
 71
     0
 10
-4200.0
 20
-2970.0
 11
4200.0
 21
2970.0
 12
0.0
 22
0.0
 32
0.0
 14
-4200.0
 24
-2970.0
 34
0.0
 15
4200.0
 25
2970.0
 35
0.0
146
0.0
 13
0.0
 23
0.0
 33
0.0
 16
1.0
 26
0.0
 36
0.0
 17
0.0
 27
1.0
 37
0.0
 76
     0
330
1F
331
29
  0
MATERIAL
  5
3D
102
{ACAD_REACTORS
330
3B
102
}
330
3B
100
AcDbMaterial
  1
ByBlock
 72
     1
 94
      127
  0
MATERIAL
  5
3C
102
{ACAD_REACTORS
330
3B
102
}
330
3B
100
AcDbMaterial
  1
ByLayer
 72
     1
 94
      127
  0
MATERIAL
  5
3E
102
{ACAD_REACTORS
330
3B
102
}
330
3B
100
AcDbMaterial
  1
Global
 72
     1
 94
      127
  0
MLINESTYLE
  5
18
102
{ACAD_REACTORS
330
17
102
}
330
17
100
AcDbMlineStyle
  2
Standard
 70
     0
  3

 62
   256
 51
90.0
 52
90.0
 71
     2
 49
0.5
 62
   256
  6
BYLAYER
 49
-0.5
 62
   256
  6
BYLAYER
  0
ACDBPLACEHOLDER
  5
F
102
{ACAD_REACTORS
330
E
102
}
330
E
  0
VISUALSTYLE
  5
2F
102
{ACAD_REACTORS
330
2A
102
}
330
2A
100
AcDbVisualStyle
  2
2dWireframe
 70
     4
177
     2
291
     0
 71
     0
176
     1
 72
     2
176
     1
 73
     0
176
     1
 90
        0
176
     1
 40
-0.6
176
     1
 41
-30.0
176
     1
 62
     5
 63
     7
421
 16777215
176
     1
 74
     1
176
     1
 91
        4
176
     1
 64
     7
176
     1
 65
   257
176
     1
 75
     1
176
     1
175
     1
176
     1
 42
1.0
176
     1
 92
        0
176
     1
 66
   257
176
     1
 43
1.0
176
     1
 76
     1
176
     1
 77
     6
176
     1
 78
     2
176
     1
 67
     7
176
     1
 79
     5
176
     1
170
     0
176
     1
171
     0
176
     1
290
     0
176
     1
 93
        1
176
     1
 44
0.0
176
     1
173
     0
176
     1
  0
VISUALSTYLE
  5
31
102
{ACAD_REACTORS
330
2A
102
}
330
2A
100
AcDbVisualStyle
  2
3D Hidden
 70
     6
177
     2
291
     0
 71
     1
176
     1
 72
     2
176
     1
 73
     2
176
     1
 90
        0
176
     1
 40
-0.6
176
     1
 41
-30.0
176
     1
 62
     5
 63
     7
421
 16777215
176
     1
 74
     2
176
     1
 91
        2
176
     1
 64
     7
176
     1
 65
   257
176
     1
 75
     2
176
     1
175
     1
176
     1
 42
40.0
176
     1
 92
        0
176
     1
 66
   257
176
     1
 43
1.0
176
     1
 76
     1
176
     1
 77
     6
176
     1
 78
     2
176
     1
 67
     7
176
     1
 79
     3
176
     1
170
     0
176
     1
171
     0
176
     1
290
     0
176
     1
 93
        1
176
     1
 44
0.0
176
     1
173
     0
176
     1
  0
VISUALSTYLE
  5
30
102
{ACAD_REACTORS
330
2A
102
}
330
2A
100
AcDbVisualStyle
  2
3dWireframe
 70
     5
177
     2
291
     0
 71
     0
176
     1
 72
     2
176
     1
 73
     0
176
     1
 90
        0
176
     1
 40
-0.6
176
     1
 41
-30.0
176
     1
 62
     5
 63
     7
421
 16777215
176
     1
 74
     1
176
     1
 91
        4
176
     1
 64
     7
176
     1
 65
   257
176
     1
 75
     1
176
     1
175
     1
176
     1
 42
1.0
176
     1
 92
        0
176
     1
 66
   257
176
     1
 43
1.0
176
     1
 76
     1
176
     1
 77
     6
176
     1
 78
     2
176
     1
 67
     7
176
     1
 79
     5
176
     1
170
     0
176
     1
171
     0
176
     1
290
     0
176
     1
 93
        1
176
     1
 44
0.0
176
     1
173
     0
176
     1
  0
VISUALSTYLE
  5
32
102
{ACAD_REACTORS
330
2A
102
}
330
2A
100
AcDbVisualStyle
  2
Basic
 70
     7
177
     2
291
     1
 71
     1
176
     1
 72
     0
176
     1
 73
     1
176
     1
 90
        0
176
     1
 40
-0.6
176
     1
 41
-30.0
176
     1
 62
     5
 63
     7
421
 16777215
176
     1
 74
     0
176
     1
 91
        4
176
     1
 64
     7
176
     1
 65
   257
176
     1
 75
     1
176
     1
175
     1
176
     1
 42
1.0
176
     1
 92
        8
176
     1
 66
     7
176
     1
 43
1.0
176
     1
 76
     1
176
     1
 77
     6
176
     1
 78
     2
176
     1
 67
     7
176
     1
 79
     5
176
     1
170
     0
176
     1
171
     0
176
     1
290
     0
176
     1
 93
        1
176
     1
 44
0.0
176
     1
173
     0
176
     1
  0
VISUALSTYLE
  5
36
102
{ACAD_REACTORS
330
2A
102
}
330
2A
100
AcDbVisualStyle
  2
Brighten
 70
    12
177
     2
291
     1
 71
     2
176
     1
 72
     2
176
     1
 73
     0
176
     1
 90
        0
176
     1
 40
-0.6
176
     1
 41
-30.0
176
     1
 62
     5
 63
     7
421
 16777215
176
     1
 74
     1
176
     1
 91
        4
176
     1
 64
     7
176
     1
 65
   257
176
     1
 75
     1
176
     1
175
     1
176
     1
 42
1.0
176
     1
 92
        8
176
     1
 66
     7
176
     1
 43
1.0
176
     1
 76
     1
176
     1
 77
     6
176
     1
 78
     2
176
     1
 67
     7
176
     1
 79
     5
176
     1
170
     0
176
     1
171
     0
176
     1
290
     0
176
     1
 93
        1
176
     1
 44
50.0
176
     1
173
     0
176
     1
  0
VISUALSTYLE
  5
3A
102
{ACAD_REACTORS
330
2A
102
}
330
2A
100
AcDbVisualStyle
  2
ColorChange
 70
    16
177
     2
291
     1
 71
     2
176
     1
 72
     2
176
     1
 73
     3
176
     1
 90
        0
176
     1
 40
-0.6
176
     1
 41
-30.0
176
     1
 62
     5
 63
     8
421
  8421504
176
     1
 74
     1
176
     1
 91
        4
176
     1
 64
     7
176
     1
 65
   257
176
     1
 75
     1
176
     1
175
     1
176
     1
 42
1.0
176
     1
 92
        8
176
     1
 66
     8
424
  8421504
176
     1
 43
1.0
176
     1
 76
     1
176
     1
 77
     6
176
     1
 78
     2
176
     1
 67
     7
176
     1
 79
     5
176
     1
170
     0
176
     1
171
     0
176
     1
290
     0
176
     1
 93
        1
176
     1
 44
0.0
176
     1
173
     0
176
     1
  0
VISUALSTYLE
  5
34
102
{ACAD_REACTORS
330
2A
102
}
330
2A
100
AcDbVisualStyle
  2
Conceptual
 70
     9
177
     2
291
     0
 71
     3
176
     1
 72
     2
176
     1
 73
     0
176
     1
 90
        0
176
     1
 40
-0.6
176
     1
 41
-30.0
176
     1
 62
     5
 63
     7
421
 16777215
176
     1
 74
     2
176
     1
 91
        2
176
     1
 64
     7
176
     1
 65
   257
176
     1
 75
     1
176
     1
175
     1
176
     1
 42
40.0
176
     1
 92
        8
176
     1
 66
     7
176
     1
 43
1.0
176
     1
 76
     1
176
     1
 77
     6
176
     1
 78
     2
176
     1
 67
     7
176
     1
 79
     3
176
     1
170
     0
176
     1
171
     0
176
     1
290
     0
176
     1
 93
        1
176
     1
 44
0.0
176
     1
173
     0
176
     1
  0
VISUALSTYLE
  5
35
102
{ACAD_REACTORS
330
2A
102
}
330
2A
100
AcDbVisualStyle
  2
Dim
 70
    11
177
     2
291
     1
 71
     2
176
     1
 72
     2
176
     1
 73
     0
176
     1
 90
        0
176
     1
 40
-0.6
176
     1
 41
-30.0
176
     1
 62
     5
 63
     7
421
 16777215
176
     1
 74
     1
176
     1
 91
        4
176
     1
 64
     7
176
     1
 65
   257
176
     1
 75
     1
176
     1
175
     1
176
     1
 42
1.0
176
     1
 92
        8
176
     1
 66
     7
176
     1
 43
1.0
176
     1
 76
     1
176
     1
 77
     6
176
     1
 78
     2
176
     1
 67
     7
176
     1
 79
     5
176
     1
170
     0
176
     1
171
     0
176
     1
290
     0
176
     1
 93
        1
176
     1
 44
-50.0
176
     1
173
     0
176
     1
  0
VISUALSTYLE
  5
39
102
{ACAD_REACTORS
330
2A
102
}
330
2A
100
AcDbVisualStyle
  2
Facepattern
 70
    15
177
     2
291
     1
 71
     2
176
     1
 72
     2
176
     1
 73
     0
176
     1
 90
        0
176
     1
 40
-0.6
176
     1
 41
-30.0
176
     1
 62
     5
 63
     7
421
 16777215
176
     1
 74
     1
176
     1
 91
        4
176
     1
 64
     7
176
     1
 65
   257
176
     1
 75
     1
176
     1
175
     1
176
     1
 42
1.0
176
     1
 92
        8
176
     1
 66
     7
176
     1
 43
1.0
176
     1
 76
     1
176
     1
 77
     6
176
     1
 78
     2
176
     1
 67
     7
176
     1
 79
     5
176
     1
170
     0
176
     1
171
     0
176
     1
290
     0
176
     1
 93
        1
176
     1
 44
0.0
176
     1
173
     0
176
     1
  0
VISUALSTYLE
  5
2B
102
{ACAD_REACTORS
330
2A
102
}
330
2A
100
AcDbVisualStyle
  2
Flat
 70
     0
177
     2
291
     1
 71
     2
176
     1
 72
     1
176
     1
 73
     1
176
     1
 90
        2
176
     1
 40
-0.6
176
     1
 41
30.0
176
     1
 62
     5
 63
     7
421
 16777215
176
     1
 74
     0
176
     1
 91
        4
176
     1
 64
     7
176
     1
 65
   257
176
     1
 75
     1
176
     1
175
     1
176
     1
 42
1.0
176
     1
 92
        8
176
     1
 66
     7
176
     1
 43
1.0
176
     1
 76
     1
176
     1
 77
     6
176
     1
 78
     2
176
     1
 67
     7
176
     1
 79
     5
176
     1
170
     0
176
     1
171
     0
176
     1
290
     0
176
     1
 93
       13
176
     1
 44
0.0
176
     1
173
     0
176
     1
  0
VISUALSTYLE
  5
2C
102
{ACAD_REACTORS
330
2A
102
}
330
2A
100
AcDbVisualStyle
  2
FlatWithEdges
 70
     1
177
     2
291
     1
 71
     2
176
     1
 72
     1
176
     1
 73
     1
176
     1
 90
        2
176
     1
 40
-0.6
176
     1
 41
30.0
176
     1
 62
     5
 63
     7
421
 16777215
176
     1
 74
     1
176
     1
 91
        4
176
     1
 64
     7
176
     1
 65
   257
176
     1
 75
     1
176
     1
175
     1
176
     1
 42
1.0
176
     1
 92
        0
176
     1
 66
   257
176
     1
 43
1.0
176
     1
 76
     1
176
     1
 77
     6
176
     1
 78
     2
176
     1
 67
     7
176
     1
 79
     5
176
     1
170
     0
176
     1
171
     0
176
     1
290
     0
176
     1
 93
       13
176
     1
 44
0.0
176
     1
173
     0
176
     1
  0
VISUALSTYLE
  5
2D
102
{ACAD_REACTORS
330
2A
102
}
330
2A
100
AcDbVisualStyle
  2
Gouraud
 70
     2
177
     2
291
     1
 71
     2
176
     1
 72
     2
176
     1
 73
     1
176
     1
 90
        2
176
     1
 40
-0.6
176
     1
 41
30.0
176
     1
 62
     5
 63
     7
421
 16777215
176
     1
 74
     0
176
     1
 91
        4
176
     1
 64
     7
176
     1
 65
   257
176
     1
 75
     1
176
     1
175
     1
176
     1
 42
1.0
176
     1
 92
        0
176
     1
 66
     7
176
     1
 43
1.0
176
     1
 76
     1
176
     1
 77
     6
176
     1
 78
     2
176
     1
 67
     7
176
     1
 79
     5
176
     1
170
     0
176
     1
171
     0
176
     1
290
     0
176
     1
 93
       13
176
     1
 44
0.0
176
     1
173
     0
176
     1
  0
VISUALSTYLE
  5
2E
102
{ACAD_REACTORS
330
2A
102
}
330
2A
100
AcDbVisualStyle
  2
GouraudWithEdges
 70
     3
177
     2
291
     1
 71
     2
176
     1
 72
     2
176
     1
 73
     1
176
     1
 90
        2
176
     1
 40
-0.6
176
     1
 41
30.0
176
     1
 62
     5
 63
     7
421
 16777215
176
     1
 74
     1
176
     1
 91
        4
176
     1
 64
     7
176
     1
 65
   257
176
     1
 75
     1
176
     1
175
     1
176
     1
 42
1.0
176
     1
 92
        0
176
     1
 66
   257
176
     1
 43
1.0
176
     1
 76
     1
176
     1
 77
     6
176
     1
 78
     2
176
     1
 67
     7
176
     1
 79
     5
176
     1
170
     0
176
     1
171
     0
176
     1
290
     0
176
     1
 93
       13
176
     1
 44
0.0
176
     1
173
     0
176
     1
  0
VISUALSTYLE
  5
38
102
{ACAD_REACTORS
330
2A
102
}
330
2A
100
AcDbVisualStyle
  2
Linepattern
 70
    14
177
     2
291
     1
 71
     2
176
     1
 72
     2
176
     1
 73
     0
176
     1
 90
        0
176
     1
 40
-0.6
176
     1
 41
-30.0
176
     1
 62
     5
 63
     7
421
 16777215
176
     1
 74
     1
176
     1
 91
        4
176
     1
 64
     7
176
     1
 65
   257
176
     1
 75
     7
176
     1
175
     7
176
     1
 42
1.0
176
     1
 92
        8
176
     1
 66
     7
176
     1
 43
1.0
176
     1
 76
     1
176
     1
 77
     6
176
     1
 78
     2
176
     1
 67
     7
176
     1
 79
     5
176
     1
170
     0
176
     1
171
     0
176
     1
290
     0
176
     1
 93
        1
176
     1
 44
0.0
176
     1
173
     0
176
     1
  0
VISUALSTYLE
  5
33
102
{ACAD_REACTORS
330
2A
102
}
330
2A
100
AcDbVisualStyle
  2
Realistic
 70
     8
177
     2
291
     0
 71
     2
176
     1
 72
     2
176
     1
 73
     0
176
     1
 90
        0
176
     1
 40
-0.6
176
     1
 41
-30.0
176
     1
 62
     5
 63
     7
421
 16777215
176
     1
 74
     1
176
     1
 91
        0
176
     1
 64
     7
176
     1
 65
   257
176
     1
 75
     1
176
     1
175
     1
176
     1
 42
1.0
176
     1
 92
        8
176
     1
 66
     8
424
  7895160
176
     1
 43
1.0
176
     1
 76
     1
176
     1
 77
     6
176
     1
 78
     2
176
     1
 67
     7
176
     1
 79
     5
176
     1
170
     0
176
     1
171
     0
176
     1
290
     0
176
     1
 93
       13
176
     1
 44
0.0
176
     1
173
     0
176
     1
  0
VISUALSTYLE
  5
37
102
{ACAD_REACTORS
330
2A
102
}
330
2A
100
AcDbVisualStyle
  2
Thicken
 70
    13
177
     2
291
     1
 71
     2
176
     1
 72
     2
176
     1
 73
     0
176
     1
 90
        0
176
     1
 40
-0.6
176
     1
 41
-30.0
176
     1
 62
     5
 63
     7
421
 16777215
176
     1
 74
     1
176
     1
 91
        4
176
     1
 64
     7
176
     1
 65
   257
176
     1
 75
     1
176
     1
175
     1
176
     1
 42
1.0
176
     1
 92
       12
176
     1
 66
     7
176
     1
 43
1.0
176
     1
 76
     1
176
     1
 77
     6
176
     1
 78
     2
176
     1
 67
     7
176
     1
 79
     5
176
     1
170
     0
176
     1
171
     0
176
     1
290
     0
176
     1
 93
        1
176
     1
 44
0.0
176
     1
173
     0
176
     1
  0
ENDSEC
  0
EOF
