  0
SECTION
  2
HEADER
  9
$ACADVER
  1
AC1024
  9
$ACADMAINTVER
 70
     6
  9
$DWGCODEPAGE
  3
ANSI_932
  9
$INSBASE
 10
0.0
 20
0.0
 30
0.0
  9
$EXTMIN
 10
-6300.0
 20
-4455.0
 30
0.0
  9
$EXTMAX
 10
6300.0
 20
4455.0
 30
0.0
  9
$LIMMIN
 10
-6300.0
 20
-4455.0
  9
$LIMMAX
 10
6300.0
 20
4455.0
  9
$ORTHOMODE
 70
     0
  9
$REGENMODE
 70
     1
  9
$FILLMODE
 70
     1
  9
$QTEXTMODE
 70
     0
  9
$MIRRTEXT
 70
     1
  9
$LTSCALE
 40
30.0
  9
$ATTMODE
 70
     1
  9
$TEXTSIZE
 40
2.5
  9
$TRACEWID
 40
1.0
  9
$TEXTSTYLE
  7
Standard
  9
$CLAYER
  8
0
  9
$CELTYPE
  6
ByLayer
  9
$CECOLOR
 62
   256
  9
$CELTSCALE
 40
1.0
  9
$DISPSILH
 70
     0
  9
$DIMSCALE
 40
1.0
  9
$DIMASZ
 40
2.5
  9
$DIMEXO
 40
0.625
  9
$DIMDLI
 40
3.75
  9
$DIMRND
 40
0.0
  9
$DIMDLE
 40
0.0
  9
$DIMEXE
 40
1.25
  9
$DIMTP
 40
0.0
  9
$DIMTM
 40
0.0
  9
$DIMTXT
 40
2.5
  9
$DIMCEN
 40
2.5
  9
$DIMTSZ
 40
0.0
  9
$DIMTOL
 70
     0
  9
$DIMLIM
 70
     0
  9
$DIMTIH
 70
     0
  9
$DIMTOH
 70
     0
  9
$DIMSE1
 70
     0
  9
$DIMSE2
 70
     0
  9
$DIMTAD
 70
     1
  9
$DIMZIN
 70
     8
  9
$DIMBLK
  1

  9
$DIMASO
 70
     1
  9
$DIMSHO
 70
     1
  9
$DIMPOST
  1

  9
$DIMAPOST
  1

  9
$DIMALT
 70
     0
  9
$DIMALTD
 70
     3
  9
$DIMALTF
 40
0.03937007874016
  9
$DIMLFAC
 40
1.0
  9
$DIMTOFL
 70
     1
  9
$DIMTVP
 40
0.0
  9
$DIMTIX
 70
     0
  9
$DIMSOXD
 70
     0
  9
$DIMSAH
 70
     0
  9
$DIMBLK1
  1

  9
$DIMBLK2
  1

  9
$DIMSTYLE
  2
ISO-25
  9
$DIMCLRD
 70
     0
  9
$DIMCLRE
 70
     0
  9
$DIMCLRT
 70
     0
  9
$DIMTFAC
 40
1.0
  9
$DIMGAP
 40
0.625
  9
$DIMJUST
 70
     0
  9
$DIMSD1
 70
     0
  9
$DIMSD2
 70
     0
  9
$DIMTOLJ
 70
     0
  9
$DIMTZIN
 70
     8
  9
$DIMALTZ
 70
     0
  9
$DIMALTTZ
 70
     0
  9
$DIMUPT
 70
     0
  9
$DIMDEC
 70
     2
  9
$DIMTDEC
 70
     2
  9
$DIMALTU
 70
     2
  9
$DIMALTTD
 70
     3
  9
$DIMTXSTY
  7
Standard
  9
$DIMAUNIT
 70
     0
  9
$DIMADEC
 70
     0
  9
$DIMALTRND
 40
0.0
  9
$DIMAZIN
 70
     0
  9
$DIMDSEP
 70
    44
  9
$DIMATFIT
 70
     3
  9
$DIMFRAC
 70
     0
  9
$DIMLDRBLK
  1

  9
$DIMLUNIT
 70
     2
  9
$DIMLWD
 70
    -2
  9
$DIMLWE
 70
    -2
  9
$DIMTMOVE
 70
     0
  9
$DIMFXL
 40
1.0
  9
$DIMFXLON
 70
     0
  9
$DIMJOGANG
 40
0.7853981633974483
  9
$DIMTFILL
 70
     0
  9
$DIMTFILLCLR
 70
     0
  9
$DIMARCSYM
 70
     0
  9
$DIMLTYPE
  6

  9
$DIMLTEX1
  6

  9
$DIMLTEX2
  6

  9
$DIMTXTDIRECTION
 70
     0
  9
$LUNITS
 70
     2
  9
$LUPREC
 70
     4
  9
$SKETCHINC
 40
1.0
  9
$FILLETRAD
 40
10.0
  9
$AUNITS
 70
     0
  9
$AUPREC
 70
     0
  9
$MENU
  1
.
  9
$ELEVATION
 40
0.0
  9
$PELEVATION
 40
0.0
  9
$THICKNESS
 40
0.0
  9
$LIMCHECK
 70
     0
  9
$CHAMFERA
 40
10.0
  9
$CHAMFERB
 40
10.0
  9
$CHAMFERC
 40
20.0
  9
$CHAMFERD
 40
0.0
  9
$SKPOLY
 70
     0
  9
$TDCREATE
 40
2459432.482569097
  9
$TDUCREATE
 40
2459432.107569097
  9
$TDUPDATE
 40
2459432.482569109
  9
$TDUUPDATE
 40
2459432.107569109
  9
$TDINDWG
 40
0.0000000116
  9
$TDUSRTIMER
 40
0.0000000116
  9
$USRTIMER
 70
     1
  9
$ANGBASE
 50
0.0
  9
$ANGDIR
 70
     0
  9
$PDMODE
 70
     0
  9
$PDSIZE
 40
0.0
  9
$PLINEWID
 40
0.0
  9
$SPLFRAME
 70
     0
  9
$SPLINETYPE
 70
     6
  9
$SPLINESEGS
 70
     8
  9
$HANDSEED
  5
37C
  9
$SURFTAB1
 70
     6
  9
$SURFTAB2
 70
     6
  9
$SURFTYPE
 70
     6
  9
$SURFU
 70
     6
  9
$SURFV
 70
     6
  9
$UCSBASE
  2

  9
$UCSNAME
  2

  9
$UCSORG
 10
0.0
 20
0.0
 30
0.0
  9
$UCSXDIR
 10
1.0
 20
0.0
 30
0.0
  9
$UCSYDIR
 10
0.0
 20
1.0
 30
0.0
  9
$UCSORTHOREF
  2

  9
$UCSORTHOVIEW
 70
     0
  9
$UCSORGTOP
 10
0.0
 20
0.0
 30
0.0
  9
$UCSORGBOTTOM
 10
0.0
 20
0.0
 30
0.0
  9
$UCSORGLEFT
 10
0.0
 20
0.0
 30
0.0
  9
$UCSORGRIGHT
 10
0.0
 20
0.0
 30
0.0
  9
$UCSORGFRONT
 10
0.0
 20
0.0
 30
0.0
  9
$UCSORGBACK
 10
0.0
 20
0.0
 30
0.0
  9
$PUCSBASE
  2

  9
$PUCSNAME
  2

  9
$PUCSORG
 10
0.0
 20
0.0
 30
0.0
  9
$PUCSXDIR
 10
1.0
 20
0.0
 30
0.0
  9
$PUCSYDIR
 10
0.0
 20
1.0
 30
0.0
  9
$PUCSORTHOREF
  2

  9
$PUCSORTHOVIEW
 70
     0
  9
$PUCSORGTOP
 10
0.0
 20
0.0
 30
0.0
  9
$PUCSORGBOTTOM
 10
0.0
 20
0.0
 30
0.0
  9
$PUCSORGLEFT
 10
0.0
 20
0.0
 30
0.0
  9
$PUCSORGRIGHT
 10
0.0
 20
0.0
 30
0.0
  9
$PUCSORGFRONT
 10
0.0
 20
0.0
 30
0.0
  9
$PUCSORGBACK
 10
0.0
 20
0.0
 30
0.0
  9
$USERI1
 70
     0
  9
$USERI2
 70
     0
  9
$USERI3
 70
     0
  9
$USERI4
 70
     0
  9
$USERI5
 70
     0
  9
$USERR1
 40
0.0
  9
$USERR2
 40
0.0
  9
$USERR3
 40
0.0
  9
$USERR4
 40
0.0
  9
$USERR5
 40
0.0
  9
$WORLDVIEW
 70
     1
  9
$SHADEDGE
 70
     3
  9
$SHADEDIF
 70
    70
  9
$TILEMODE
 70
     1
  9
$MAXACTVP
 70
    64
  9
$PINSBASE
 10
0.0
 20
0.0
 30
0.0
  9
$PLIMCHECK
 70
     0
  9
$PEXTMIN
 10
1.000000000000000E+20
 20
1.000000000000000E+20
 30
1.000000000000000E+20
  9
$PEXTMAX
 10
-1.000000000000000E+20
 20
-1.000000000000000E+20
 30
-1.000000000000000E+20
  9
$PLIMMIN
 10
0.0
 20
0.0
  9
$PLIMMAX
 10
420.0
 20
297.0
  9
$UNITMODE
 70
     0
  9
$VISRETAIN
 70
     1
  9
$PLINEGEN
 70
     0
  9
$PSLTSCALE
 70
     1
  9
$TREEDEPTH
 70
  3020
  9
$CMLSTYLE
  2
Standard
  9
$CMLJUST
 70
     0
  9
$CMLSCALE
 40
20.0
  9
$PROXYGRAPHICS
 70
     1
  9
$MEASUREMENT
 70
     1
  9
$CELWEIGHT
370
    -1
  9
$ENDCAPS
280
     0
  9
$JOINSTYLE
280
     0
  9
$LWDISPLAY
290
     0
  9
$INSUNITS
 70
     4
  9
$HYPERLINKBASE
  1

  9
$STYLESHEET
  1

  9
$XEDIT
290
     1
  9
$CEPSNTYPE
380
     0
  9
$PSTYLEMODE
290
     1
  9
$FINGERPRINTGUID
  2
{2B7EAB1F-03F6-44D9-8D7F-7E57F399DF8D}
  9
$VERSIONGUID
  2
{FAEB1C32-E019-11D5-929B-00C0DF256EC4}
  9
$EXTNAMES
290
     1
  9
$PSVPSCALE
 40
0.0
  9
$OLESTARTUP
290
     0
  9
$SORTENTS
280
   127
  9
$INDEXCTL
280
     0
  9
$HIDETEXT
280
     1
  9
$XCLIPFRAME
280
     2
  9
$HALOGAP
280
     0
  9
$OBSCOLOR
 70
   257
  9
$OBSLTYPE
280
     0
  9
$INTERSECTIONDISPLAY
280
     0
  9
$INTERSECTIONCOLOR
 70
   257
  9
$DIMASSOC
280
     2
  9
$PROJECTNAME
  1

  9
$CAMERADISPLAY
290
     0
  9
$LENSLENGTH
 40
50.0
  9
$CAMERAHEIGHT
 40
0.0
  9
$STEPSPERSEC
 40
2.0
  9
$STEPSIZE
 40
6.0
  9
$3DDWFPREC
 40
2.0
  9
$PSOLWIDTH
 40
5.0
  9
$PSOLHEIGHT
 40
80.0
  9
$LOFTANG1
 40
1.570796326794897
  9
$LOFTANG2
 40
1.570796326794897
  9
$LOFTMAG1
 40
0.0
  9
$LOFTMAG2
 40
0.0
  9
$LOFTPARAM
 70
     7
  9
$LOFTNORMALS
280
     1
  9
$LATITUDE
 40
37.795
  9
$LONGITUDE
 40
-122.394
  9
$NORTHDIRECTION
 40
0.0
  9
$TIMEZONE
 70
 -8000
  9
$LIGHTGLYPHDISPLAY
280
     1
  9
$TILEMODELIGHTSYNCH
280
     1
  9
$SOLIDHIST
280
     1
  9
$SHOWHIST
280
     1
  9
$DWFFRAME
280
     2
  9
$DGNFRAME
280
     2
  9
$REALWORLDSCALE
290
     1
  9
$INTERFERECOLOR
 62
   256
  9
$CSHADOW
280
     0
  9
$SHADOWPLANELOCATION
 40
0.0
  0
ENDSEC
  0
SECTION
  2
CLASSES
  0
CLASS
  1
ACDBDICTIONARYWDFLT
  2
AcDbDictionaryWithDefault
  3
ObjectDBX Classes
 90
        0
 91
        4
280
     0
281
     0
  0
CLASS
  1
VISUALSTYLE
  2
AcDbVisualStyle
  3
ObjectDBX Classes
 90
     4095
 91
        4
280
     0
281
     0
  0
CLASS
  1
MATERIAL
  2
AcDbMaterial
  3
ObjectDBX Classes
 90
     1153
 91
        4
280
     0
281
     0
  0
ENDSEC
  0
SECTION
  2
TABLES
  0
TABLE
  2
VPORT
  5
8
330
0
100
AcDbSymbolTable
 70
     1
  0
VPORT
  5
29
330
8
100
AcDbSymbolTableRecord
100
AcDbViewportTableRecord
  2
*Active
 70
     0
 10
0.0
 20
0.0
 11
1.0
 21
1.0
 12
0.0
 22
0.0
 13
0.0
 23
0.0
 14
10.0
 24
10.0
 15
10.0
 25
10.0
 16
0.0
 26
0.0
 36
1.0
 17
0.0
 27
0.0
 37
0.0
 40
9801.0
 41
1.414141414141414
 42
50.0
 43
0.0
 44
0.0
 50
0.0
 51
0.0
 71
     0
 72
 10000
 73
     1
 74
     3
 75
     0
 76
     0
 77
     0
 78
     0
281
     0
 65
     1
110
0.0
120
0.0
130
0.0
111
1.0
121
0.0
131
0.0
112
0.0
122
1.0
132
0.0
 79
     0
146
0.0
 60
     3
 61
     5
292
     1
282
     1
141
0.0
142
0.0
 63
   250
  0
ENDTAB
  0
TABLE
  2
LTYPE
  5
5
330
0
100
AcDbSymbolTable
 70
     3
  0
LTYPE
  5
14
330
5
100
AcDbSymbolTableRecord
100
AcDbLinetypeTableRecord
  2
ByBlock
 70
     0
  3

 72
    65
 73
     0
 40
0.0
  0
LTYPE
  5
15
330
5
100
AcDbSymbolTableRecord
100
AcDbLinetypeTableRecord
  2
ByLayer
 70
     0
  3

 72
    65
 73
     0
 40
0.0
  0
LTYPE
  5
16
330
5
100
AcDbSymbolTableRecord
100
AcDbLinetypeTableRecord
  2
Continuous
 70
     0
  3
Solid line
 72
    65
 73
     0
 40
0.0
  0
LTYPE
  5
3F
330
5
100
AcDbSymbolTableRecord
100
AcDbLinetypeTableRecord
  2
JWW_HOJO
 70
     0
  3
  -   -   -   -   -   -   -   - 
 72
    65
 73
     2
 40
1.693333333333333
 49
-1.27
 74
     0
 49
0.4233333333333333
 74
     0
  0
LTYPE
  5
40
330
5
100
AcDbSymbolTableRecord
100
AcDbLinetypeTableRecord
  2
JWW_DASHED1
 70
     0
  3
-  --  --  --  --  --  --  --  -
 72
    65
 73
     2
 40
1.693333333333333
 49
0.8466666666666667
 74
     0
 49
-0.8466666666666667
 74
     0
  0
ENDTAB
  0
TABLE
  2
LAYER
  5
2
330
0
100
AcDbSymbolTable
 70
    11
  0
LAYER
  5
10
330
2
100
AcDbSymbolTableRecord
100
AcDbLayerTableRecord
  2
0
 70
     0
 62
     7
  6
Continuous
370
    -3
390
F
347
3E
  0
LAYER
  5
41
330
2
100
AcDbSymbolTableRecord
100
AcDbLayerTableRecord
  2
F-1_枠
 70
     0
 62
     7
  6
Continuous
370
    -3
390
F
347
3E
  0
LAYER
  5
42
330
2
100
AcDbSymbolTableRecord
100
AcDbLayerTableRecord
  2
F-0_補助線
 70
     0
 62
     7
  6
Continuous
370
    -3
390
F
347
3E
  0
LAYER
  5
43
330
2
100
AcDbSymbolTableRecord
100
AcDbLayerTableRecord
  2
0-B_寸法
 70
     0
 62
     7
  6
Continuous
370
    -3
390
F
347
3E
  0
LAYER
  5
44
330
2
100
AcDbSymbolTableRecord
100
AcDbLayerTableRecord
  2
0-0_補助線
 70
     0
 62
     7
  6
Continuous
370
    -3
390
F
347
3E
  0
LAYER
  5
45
330
2
100
AcDbSymbolTableRecord
100
AcDbLayerTableRecord
  2
F-A_文字
 70
     0
 62
     7
  6
Continuous
370
    -3
390
F
347
3E
  0
LAYER
  5
46
330
2
100
AcDbSymbolTableRecord
100
AcDbLayerTableRecord
  2
0-4_枠
 70
     0
 62
     7
  6
Continuous
370
    -3
390
F
347
3E
  0
LAYER
  5
47
330
2
100
AcDbSymbolTableRecord
100
AcDbLayerTableRecord
  2
0-2_扉
 70
     0
 62
     7
  6
Continuous
370
    -3
390
F
347
3E
  0
LAYER
  5
48
330
2
100
AcDbSymbolTableRecord
100
AcDbLayerTableRecord
  2
0-3_仕上げ
 70
     0
 62
     7
  6
Continuous
370
    -3
390
F
347
3E
  0
LAYER
  5
49
330
2
100
AcDbSymbolTableRecord
100
AcDbLayerTableRecord
  2
0-A_文字
 70
     0
 62
     7
  6
Continuous
370
    -3
390
F
347
3E
  0
LAYER
  5
4A
330
2
100
AcDbSymbolTableRecord
100
AcDbLayerTableRecord
  2
0-C_ハッチ
 70
     0
 62
     7
  6
Continuous
370
    -3
390
F
347
3E
  0
ENDTAB
  0
TABLE
  2
STYLE
  5
3
330
0
100
AcDbSymbolTable
 70
     1
  0
STYLE
  5
11
330
3
100
AcDbSymbolTableRecord
100
AcDbTextStyleTableRecord
  2
Standard
 70
     0
 40
0.0
 41
1.0
 50
0.0
 71
     0
 42
2.5
  3
txt
  4

  0
ENDTAB
  0
TABLE
  2
VIEW
  5
6
330
0
100
AcDbSymbolTable
 70
     0
  0
ENDTAB
  0
TABLE
  2
UCS
  5
7
330
0
100
AcDbSymbolTable
 70
     0
  0
ENDTAB
  0
TABLE
  2
APPID
  5
9
330
0
100
AcDbSymbolTable
 70
     1
  0
APPID
  5
12
330
9
100
AcDbSymbolTableRecord
100
AcDbRegAppTableRecord
  2
ACAD
 70
     0
  0
ENDTAB
  0
TABLE
  2
DIMSTYLE
  5
A
330
0
100
AcDbSymbolTable
 70
     1
100
AcDbDimStyleTable
  0
DIMSTYLE
105
27
330
A
100
AcDbSymbolTableRecord
100
AcDbDimStyleTableRecord
  2
ISO-25
 70
     0
 41
2.5
 42
0.625
 43
3.75
 44
1.25
 73
     0
 74
     0
 77
     1
 78
     8
140
2.5
141
2.5
143
0.03937007874016
147
0.625
171
     3
172
     1
178
     0
271
     2
272
     2
274
     3
278
    44
283
     0
284
     8
340
11
  0
ENDTAB
  0
TABLE
  2
BLOCK_RECORD
  5
1
330
0
100
AcDbSymbolTable
 70
     1
  0
BLOCK_RECORD
  5
1F
330
1
100
AcDbSymbolTableRecord
100
AcDbBlockTableRecord
  2
*Model_Space
340
22
 70
     0
280
     1
281
     0
  0
BLOCK_RECORD
  5
1B
330
1
100
AcDbSymbolTableRecord
100
AcDbBlockTableRecord
  2
*Paper_Space
340
1E
 70
     0
280
     1
281
     0
  0
BLOCK_RECORD
  5
23
330
1
100
AcDbSymbolTableRecord
100
AcDbBlockTableRecord
  2
*Paper_Space0
340
26
 70
     0
280
     1
281
     0
  0
ENDTAB
  0
ENDSEC
  0
SECTION
  2
BLOCKS
  0
BLOCK
  5
20
330
1F
100
AcDbEntity
  8
0
100
AcDbBlockBegin
  2
*Model_Space
 70
     0
 10
0.0
 20
0.0
 30
0.0
  3
*Model_Space
  1

  0
ENDBLK
  5
21
330
1F
100
AcDbEntity
  8
0
100
AcDbBlockEnd
  0
BLOCK
  5
1C
330
1B
100
AcDbEntity
 67
     1
  8
0
100
AcDbBlockBegin
  2
*Paper_Space
 70
     0
 10
0.0
 20
0.0
 30
0.0
  3
*Paper_Space
  1

  0
ENDBLK
  5
1D
330
1B
100
AcDbEntity
 67
     1
  8
0
100
AcDbBlockEnd
  0
BLOCK
  5
24
330
23
100
AcDbEntity
  8
0
100
AcDbBlockBegin
  2
*Paper_Space0
 70
     0
 10
0.0
 20
0.0
 30
0.0
  3
*Paper_Space0
  1

  0
ENDBLK
  5
25
330
23
100
AcDbEntity
  8
0
100
AcDbBlockEnd
  0
ENDSEC
  0
SECTION
  2
ENTITIES
  0
LINE
  5
4B
330
1F
100
AcDbEntity
  8
F-1_枠
  6
Continuous
 62
   200
370
    20
100
AcDbLine
 10
-5999.999752560178
 20
4174.999769056166
 30
0.0
 11
5699.998762800888
 21
4174.999769056166
 31
0.0
  0
LINE
  5
4C
330
1F
100
AcDbEntity
  8
F-0_補助線
  6
JWW_HOJO
 62
   120
370
     5
100
AcDbLine
 10
-6300.0
 20
-4455.0
 30
0.0
 11
-6300.0
 21
4424.999604096284
 31
0.0
  0
LINE
  5
4D
330
1F
100
AcDbEntity
  8
F-0_補助線
  6
JWW_HOJO
 62
   120
370
     5
100
AcDbLine
 10
5999.999010240709
 20
4424.999604096284
 30
0.0
 11
5999.999010240709
 21
-4455.0
 31
0.0
  0
LINE
  5
4E
330
1F
100
AcDbEntity
  8
F-0_補助線
  6
JWW_HOJO
 62
   120
370
     5
100
AcDbLine
 10
5999.999010240709
 20
-4455.0
 30
0.0
 11
-6300.0
 21
-4455.0
 31
0.0
  0
LINE
  5
4F
330
1F
100
AcDbEntity
  8
F-1_枠
  6
Continuous
 62
   200
370
    20
100
AcDbLine
 10
-5999.999752560178
 20
4164.999983504013
 30
0.0
 11
5699.998762800888
 21
4164.999983504013
 31
0.0
  0
LINE
  5
50
330
1F
100
AcDbEntity
  8
F-1_枠
  6
Continuous
 62
   200
370
    20
100
AcDbLine
 10
-5999.999752560178
 20
4169.999505120355
 30
0.0
 11
5699.998762800888
 21
4169.999505120355
 31
0.0
  0
LINE
  5
51
330
1F
100
AcDbEntity
  8
F-1_枠
  6
Continuous
 62
   200
370
    20
100
AcDbLine
 10
5689.998977248734
 20
4174.999769056166
 30
0.0
 11
5689.998977248734
 21
-4205.000164959882
 31
0.0
  0
LINE
  5
52
330
1F
100
AcDbEntity
  8
F-1_枠
  6
Continuous
 62
   200
370
    20
100
AcDbLine
 10
5694.998498865077
 20
4174.999769056166
 30
0.0
 11
5694.998498865077
 21
-4205.000164959882
 31
0.0
  0
LINE
  5
53
330
1F
100
AcDbEntity
  8
F-1_枠
  6
Continuous
 62
   200
370
    20
100
AcDbLine
 10
5699.998762800888
 20
4174.999769056166
 30
0.0
 11
5699.998762800888
 21
-4205.000164959882
 31
0.0
  0
LINE
  5
54
330
1F
100
AcDbEntity
  8
F-1_枠
  6
Continuous
 62
   200
370
    20
100
AcDbLine
 10
-5989.999990205507
 20
4174.999769056166
 30
0.0
 11
-5989.999990205507
 21
-4205.000164959882
 31
0.0
  0
LINE
  5
55
330
1F
100
AcDbEntity
  8
F-1_枠
  6
Continuous
 62
   200
370
    20
100
AcDbLine
 10
-5994.999975771518
 20
4174.999769056166
 30
0.0
 11
-5994.999975771518
 21
-4205.000164959882
 31
0.0
  0
LINE
  5
56
330
1F
100
AcDbEntity
  8
F-1_枠
  6
Continuous
 62
   200
370
    20
100
AcDbLine
 10
-5999.99998453501
 20
4174.999769056166
 30
0.0
 11
-5999.99998453501
 21
-4205.000164959882
 31
0.0
  0
LINE
  5
57
330
1F
100
AcDbEntity
  8
F-1_枠
  6
Continuous
 62
   200
370
    20
100
AcDbLine
 10
-5490.000018557986
 20
4174.999769056166
 30
0.0
 11
-5490.000018557986
 21
-3790.000179909372
 31
0.0
  0
LINE
  5
58
330
1F
100
AcDbEntity
  8
F-0_補助線
  6
JWW_HOJO
 62
   120
370
     5
100
AcDbLine
 10
-6300.0
 20
4424.999604096284
 30
0.0
 11
5999.999010240709
 21
4424.999604096284
 31
0.0
  0
LINE
  5
59
330
1F
100
AcDbEntity
  8
F-0_補助線
  6
JWW_HOJO
 62
     7
370
     9
100
AcDbLine
 10
849.9995876002961
 20
-3795.000003092998
 30
0.0
 11
849.9995876002961
 21
-4195.000008247994
 31
0.0
  0
LINE
  5
5A
330
1F
100
AcDbEntity
  8
F-0_補助線
  6
JWW_HOJO
 62
     7
370
     9
100
AcDbLine
 10
349.9999175200594
 20
-3795.000003092998
 30
0.0
 11
349.9999175200594
 21
-4195.000008247994
 31
0.0
  0
LINE
  5
5B
330
1F
100
AcDbEntity
  8
F-1_枠
  6
Continuous
 62
   200
370
    20
100
AcDbLine
 10
5699.998762800888
 20
-4205.000002577498
 30
0.0
 11
-5999.999752560178
 21
-4205.000002577498
 31
0.0
  0
LINE
  5
5C
330
1F
100
AcDbEntity
  8
F-1_枠
  6
Continuous
 62
   200
370
    20
100
AcDbLine
 10
5699.998762800888
 20
-4199.999993814004
 30
0.0
 11
-5999.999752560178
 21
-4199.999993814004
 31
0.0
  0
LINE
  5
5D
330
1F
100
AcDbEntity
  8
F-1_枠
  6
Continuous
 62
   200
370
    20
100
AcDbLine
 10
5699.998762800888
 20
-4195.000008247994
 30
0.0
 11
-5999.999752560178
 21
-4195.000008247994
 31
0.0
  0
LINE
  5
5E
330
1F
100
AcDbEntity
  8
F-1_枠
  6
Continuous
 62
   200
370
    20
100
AcDbLine
 10
4189.999224688556
 20
-3795.000003092998
 30
0.0
 11
4189.999224688556
 21
-4195.000008247994
 31
0.0
  0
LINE
  5
5F
330
1F
100
AcDbEntity
  8
F-1_枠
  6
Continuous
 62
   200
370
    20
100
AcDbLine
 10
2689.998729808911
 20
-3795.000003092998
 30
0.0
 11
2689.998729808911
 21
-4195.000008247994
 31
0.0
  0
LINE
  5
60
330
1F
100
AcDbEntity
  8
F-1_枠
  6
Continuous
 62
   200
370
    20
100
AcDbLine
 10
-150.0001237199109
 20
-3795.000003092998
 30
0.0
 11
-150.0001237199109
 21
-4195.000008247994
 31
0.0
  0
LINE
  5
61
330
1F
100
AcDbEntity
  8
F-1_枠
  6
Continuous
 62
   200
370
    20
100
AcDbLine
 10
-150.0001237199109
 20
-3994.999936078046
 30
0.0
 11
5689.998977248734
 21
-3995.005364289155
 31
0.0
  0
LINE
  5
62
330
1F
100
AcDbEntity
  8
F-0_補助線
  6
JWW_HOJO
 62
     7
370
     9
100
AcDbLine
 10
-5989.999990205507
 20
-3994.99993607839
 30
0.0
 11
-150.0001237199109
 21
-3994.99993607839
 31
0.0
  0
LINE
  5
63
330
1F
100
AcDbEntity
  8
F-0_補助線
  6
JWW_HOJO
 62
     7
370
     9
100
AcDbLine
 10
-5989.999990205507
 20
-3904.99993607839
 30
0.0
 11
-150.0001237199109
 21
-3904.99993607839
 31
0.0
  0
LINE
  5
64
330
1F
100
AcDbEntity
  8
F-0_補助線
  6
JWW_HOJO
 62
     7
370
     9
100
AcDbLine
 10
-5989.999990205507
 20
-4084.99993607839
 30
0.0
 11
-150.0001237199109
 21
-4084.99993607839
 31
0.0
  0
LINE
  5
65
330
1F
100
AcDbEntity
  8
F-0_補助線
  6
JWW_HOJO
 62
     7
370
     9
100
AcDbLine
 10
-150.0002584955388
 20
-4139.999739777983
 30
0.0
 11
5689.998842473105
 21
-4140.005167989091
 31
0.0
  0
LINE
  5
66
330
1F
100
AcDbEntity
  8
F-0_補助線
  6
JWW_HOJO
 62
     7
370
     9
100
AcDbLine
 10
-150.0001748415872
 20
-4049.999739778022
 30
0.0
 11
5689.998926127057
 21
-4050.005167989131
 31
0.0
  0
LINE
  5
67
330
1F
100
AcDbEntity
  8
F-0_補助線
  6
JWW_HOJO
 62
     7
370
     9
100
AcDbLine
 10
-150.0000725978671
 20
-3939.99973721807
 30
0.0
 11
5689.999028370777
 21
-3940.005165429179
 31
0.0
  0
LINE
  5
68
330
1F
100
AcDbEntity
  8
F-0_補助線
  6
JWW_HOJO
 62
     7
370
     9
100
AcDbLine
 10
-149.9999889439155
 20
-3849.999737218109
 30
0.0
 11
5689.999112024728
 21
-3850.005165429218
 31
0.0
  0
LINE
  5
69
330
1F
100
AcDbEntity
  8
F-0_補助線
  6
JWW_HOJO
 62
     7
370
     9
100
AcDbLine
 10
2779.998729808911
 20
-3795.000003092998
 30
0.0
 11
2779.998729808911
 21
-4195.000008247994
 31
0.0
  0
LINE
  5
6A
330
1F
100
AcDbEntity
  8
F-0_補助線
  6
JWW_HOJO
 62
     7
370
     9
100
AcDbLine
 10
-60.0001237199109
 20
-3795.000003092998
 30
0.0
 11
-60.0001237199109
 21
-4195.000008247994
 31
0.0
  0
LINE
  5
6B
330
1F
100
AcDbEntity
  8
F-0_補助線
  6
JWW_HOJO
 62
     7
370
     9
100
AcDbLine
 10
4279.999224688556
 20
-3795.000003092998
 30
0.0
 11
4279.999224688556
 21
-4195.000008247994
 31
0.0
  0
LINE
  5
6C
330
1F
100
AcDbEntity
  8
F-0_補助線
  6
JWW_HOJO
 62
     7
370
     9
100
AcDbLine
 10
-5247.547376752838
 20
-3795.000003092999
 30
0.0
 11
-5247.547376752838
 21
-4205.000164959882
 31
0.0
  0
LINE
  5
6D
330
1F
100
AcDbEntity
  8
F-0_補助線
  6
JWW_HOJO
 62
     7
370
     9
100
AcDbLine
 10
-210.0001237199109
 20
-3795.000003092998
 30
0.0
 11
-210.0001237199109
 21
-4195.000008247994
 31
0.0
  0
LINE
  5
6E
330
1F
100
AcDbEntity
  8
0-B_寸法
  6
Continuous
 62
   120
370
     5
100
AcDbLine
 10
-3093.000018557985
 20
1168.000148463893
 30
0.0
 11
-3993.000018557985
 21
1168.000148463893
 31
0.0
  0
LINE
  5
6F
330
1F
100
AcDbEntity
  8
0-B_寸法
  6
Continuous
 62
   120
370
     5
100
AcDbLine
 10
-3093.000018557985
 20
1168.000148463893
 30
0.0
 11
-3093.000018557985
 21
1368.000148463894
 31
0.0
  0
LINE
  5
70
330
1F
100
AcDbEntity
  8
0-B_寸法
  6
Continuous
 62
   120
370
     5
100
AcDbLine
 10
-3993.000018557985
 20
1168.000148463893
 30
0.0
 11
-3993.000018557985
 21
1368.000148463894
 31
0.0
  0
LWPOLYLINE
  5
71
330
1F
100
AcDbEntity
  8
0-B_寸法
  6
Continuous
 62
     7
370
     9
100
AcDbPolyline
 90
        4
 70
     1
 43
3.0
 10
-3091.500018557985
 20
1168.000148463893
 42
0.4142135623731
 10
-3093.000018557985
 20
1169.500148463893
 42
0.4142135623731
 10
-3094.500018557985
 20
1168.000148463893
 42
0.4142135623731
 10
-3093.000018557985
 20
1166.500148463893
 42
0.4142135623731
  0
LWPOLYLINE
  5
72
330
1F
100
AcDbEntity
  8
0-B_寸法
  6
Continuous
 62
     7
370
     9
100
AcDbPolyline
 90
        4
 70
     1
 43
3.0
 10
-3991.500018557985
 20
1168.000148463893
 42
0.4142135623731
 10
-3993.000018557985
 20
1169.500148463893
 42
0.4142135623731
 10
-3994.500018557985
 20
1168.000148463893
 42
0.4142135623731
 10
-3993.000018557985
 20
1166.500148463893
 42
0.4142135623731
  0
LINE
  5
73
330
1F
100
AcDbEntity
  8
0-B_寸法
  6
Continuous
 62
   120
370
     5
100
AcDbLine
 10
-1509.000018557983
 20
1168.000148463893
 30
0.0
 11
-1509.000018557983
 21
1368.000148463894
 31
0.0
  0
LINE
  5
74
330
1F
100
AcDbEntity
  8
0-B_寸法
  6
Continuous
 62
   120
370
     5
100
AcDbLine
 10
-699.0000185579828
 20
1168.000148463893
 30
0.0
 11
-699.0000185579828
 21
1368.000148463894
 31
0.0
  0
LINE
  5
75
330
1F
100
AcDbEntity
  8
0-B_寸法
  6
Continuous
 62
   120
370
     5
100
AcDbLine
 10
-699.0000185579828
 20
1168.000148463893
 30
0.0
 11
-1509.000018557983
 21
1168.000148463893
 31
0.0
  0
LWPOLYLINE
  5
76
330
1F
100
AcDbEntity
  8
0-B_寸法
  6
Continuous
 62
     7
370
     9
100
AcDbPolyline
 90
        4
 70
     1
 43
3.0
 10
-1507.500018557983
 20
1168.000148463893
 42
0.4142135623731
 10
-1509.000018557983
 20
1169.500148463893
 42
0.4142135623731
 10
-1510.500018557983
 20
1168.000148463893
 42
0.4142135623731
 10
-1509.000018557983
 20
1166.500148463893
 42
0.4142135623731
  0
LWPOLYLINE
  5
77
330
1F
100
AcDbEntity
  8
0-B_寸法
  6
Continuous
 62
     7
370
     9
100
AcDbPolyline
 90
        4
 70
     1
 43
3.0
 10
-697.5000185579828
 20
1168.000148463893
 42
0.4142135623731
 10
-699.0000185579828
 20
1169.500148463893
 42
0.4142135623731
 10
-700.5000185579828
 20
1168.000148463893
 42
0.4142135623731
 10
-699.0000185579828
 20
1166.500148463893
 42
0.4142135623731
  0
LINE
  5
78
330
1F
100
AcDbEntity
  8
0-B_寸法
  6
Continuous
 62
   120
370
     5
100
AcDbLine
 10
1500.999981442021
 20
1168.000148463893
 30
0.0
 11
1500.999981442021
 21
1368.000148463894
 31
0.0
  0
LWPOLYLINE
  5
79
330
1F
100
AcDbEntity
  8
0-B_寸法
  6
Continuous
 62
     7
370
     9
100
AcDbPolyline
 90
        4
 70
     1
 43
3.0
 10
1502.499981442021
 20
1168.000148463893
 42
0.4142135623731
 10
1500.999981442021
 20
1169.500148463893
 42
0.4142135623731
 10
1499.499981442021
 20
1168.000148463893
 42
0.4142135623731
 10
1500.999981442021
 20
1166.500148463893
 42
0.4142135623731
  0
LINE
  5
7A
330
1F
100
AcDbEntity
  8
0-B_寸法
  6
Continuous
 62
   120
370
     5
100
AcDbLine
 10
1500.999981442021
 20
1168.000148463893
 30
0.0
 11
787.9999814420205
 21
1168.000148463893
 31
0.0
  0
LINE
  5
7B
330
1F
100
AcDbEntity
  8
0-B_寸法
  6
Continuous
 62
   120
370
     5
100
AcDbLine
 10
787.9999814420205
 20
1168.000148463893
 30
0.0
 11
787.9999814420205
 21
1368.000148463894
 31
0.0
  0
LWPOLYLINE
  5
7C
330
1F
100
AcDbEntity
  8
0-B_寸法
  6
Continuous
 62
     7
370
     9
100
AcDbPolyline
 90
        4
 70
     1
 43
3.0
 10
789.4999814420205
 20
1168.000148463893
 42
0.4142135623731
 10
787.9999814420205
 20
1169.500148463893
 42
0.4142135623731
 10
786.4999814420205
 20
1168.000148463893
 42
0.4142135623731
 10
787.9999814420205
 20
1166.500148463893
 42
0.4142135623731
  0
LINE
  5
7D
330
1F
100
AcDbEntity
  8
0-0_補助線
  6
JWW_HOJO
 62
     7
370
     9
100
AcDbLine
 10
-5490.000018557986
 20
1418.000148463893
 30
0.0
 11
5689.998977248734
 21
1418.000148463893
 31
0.0
  0
LINE
  5
7E
330
1F
100
AcDbEntity
  8
0-0_補助線
  6
JWW_HOJO
 62
   120
370
     5
100
AcDbLine
 10
-5490.000018557986
 20
1368.000148463894
 30
0.0
 11
5689.998977248734
 21
1368.000148463894
 31
0.0
  0
LINE
  5
7F
330
1F
100
AcDbEntity
  8
0-0_補助線
  6
JWW_HOJO
 62
     7
370
     9
100
AcDbLine
 10
-5490.000018557986
 20
-2701.250083820241
 30
0.0
 11
5699.998762800888
 21
-2701.250083820241
 31
0.0
  0
LINE
  5
80
330
1F
100
AcDbEntity
  8
0-0_補助線
  6
JWW_HOJO
 62
   120
370
     5
100
AcDbLine
 10
-5490.000018557986
 20
-2751.250083820241
 30
0.0
 11
5699.998762800888
 21
-2751.250083820241
 31
0.0
  0
LINE
  5
81
330
1F
100
AcDbEntity
  8
F-1_枠
  6
Continuous
 62
   200
370
    20
100
AcDbLine
 10
-2916.000018557986
 20
-3790.000179909372
 30
0.0
 11
-2916.000018557986
 21
4174.999769056166
 31
0.0
  0
LINE
  5
82
330
1F
100
AcDbEntity
  8
F-1_枠
  6
Continuous
 62
   200
370
    20
100
AcDbLine
 10
-522.0000185579818
 20
-3790.000179909372
 30
0.0
 11
-522.0000185579818
 21
4174.999769056166
 31
0.0
  0
LINE
  5
83
330
1F
100
AcDbEntity
  8
F-1_枠
  6
Continuous
 62
   200
370
    20
100
AcDbLine
 10
1677.99998144202
 20
-3790.000179909372
 30
0.0
 11
1677.99998144202
 21
4174.999769056166
 31
0.0
  0
LINE
  5
84
330
1F
100
AcDbEntity
  8
F-1_枠
  6
Continuous
 62
   200
370
    20
100
AcDbLine
 10
3751.999981442023
 20
-3790.000179909372
 30
0.0
 11
3751.999981442023
 21
4174.999769056166
 31
0.0
  0
LINE
  5
85
330
1F
100
AcDbEntity
  8
0-0_補助線
  6
JWW_HOJO
 62
     7
370
     9
100
AcDbLine
 10
-4890.000018557986
 20
3964.999818544131
 30
0.0
 11
-4890.000018557986
 21
-3790.000179909372
 31
0.0
  0
LINE
  5
86
330
1F
100
AcDbEntity
  8
0-0_補助線
  6
JWW_HOJO
 62
   120
370
     5
100
AcDbLine
 10
-4940.000018557987
 20
3964.999818544131
 30
0.0
 11
-4940.000018557987
 21
-3790.000179909372
 31
0.0
  0
LINE
  5
87
330
1F
100
AcDbEntity
  8
0-0_補助線
  6
JWW_HOJO
 62
     7
370
     9
100
AcDbLine
 10
-2316.000018557984
 20
3964.999818544131
 30
0.0
 11
-2316.000018557984
 21
-3790.000179909372
 31
0.0
  0
LINE
  5
88
330
1F
100
AcDbEntity
  8
0-0_補助線
  6
JWW_HOJO
 62
   120
370
     5
100
AcDbLine
 10
-2366.000018557984
 20
3964.999818544131
 30
0.0
 11
-2366.000018557984
 21
-3790.000179909372
 31
0.0
  0
LINE
  5
89
330
1F
100
AcDbEntity
  8
0-0_補助線
  6
JWW_HOJO
 62
     7
370
     9
100
AcDbLine
 10
77.99998144201822
 20
3964.999818544131
 30
0.0
 11
77.99998144201822
 21
-3790.000179909372
 31
0.0
  0
LINE
  5
8A
330
1F
100
AcDbEntity
  8
0-0_補助線
  6
JWW_HOJO
 62
   120
370
     5
100
AcDbLine
 10
27.99998144201936
 20
3964.999818544131
 30
0.0
 11
27.99998144201936
 21
-3790.000179909372
 31
0.0
  0
LINE
  5
8B
330
1F
100
AcDbEntity
  8
0-0_補助線
  6
JWW_HOJO
 62
     7
370
     9
100
AcDbLine
 10
2277.999981442021
 20
3964.999818544131
 30
0.0
 11
2277.999981442021
 21
-3790.000179909372
 31
0.0
  0
LINE
  5
8C
330
1F
100
AcDbEntity
  8
0-0_補助線
  6
JWW_HOJO
 62
   120
370
     5
100
AcDbLine
 10
2227.999981442021
 20
3964.999818544131
 30
0.0
 11
2227.999981442021
 21
-3790.000179909372
 31
0.0
  0
LINE
  5
8D
330
1F
100
AcDbEntity
  8
0-0_補助線
  6
JWW_HOJO
 62
     7
370
     9
100
AcDbLine
 10
4351.999981442024
 20
3964.999818544131
 30
0.0
 11
4351.999981442024
 21
-3790.000179909372
 31
0.0
  0
LINE
  5
8E
330
1F
100
AcDbEntity
  8
0-0_補助線
  6
JWW_HOJO
 62
   120
370
     5
100
AcDbLine
 10
4301.999981442023
 20
3964.999818544131
 30
0.0
 11
4301.999981442023
 21
-3790.000179909372
 31
0.0
  0
LINE
  5
8F
330
1F
100
AcDbEntity
  8
0-0_補助線
  6
JWW_HOJO
 62
     7
370
     9
100
AcDbLine
 10
-5490.000018557986
 20
1168.000148463894
 30
0.0
 11
5689.998977248734
 21
1168.000148463894
 31
0.0
  0
LINE
  5
90
330
1F
100
AcDbEntity
  8
0-0_補助線
  6
JWW_HOJO
 62
     7
370
     9
100
AcDbLine
 10
-5490.000018557986
 20
-2951.250083820241
 30
0.0
 11
5699.998762800888
 21
-2951.250083820241
 31
0.0
  0
LINE
  5
91
330
1F
100
AcDbEntity
  8
F-A_文字
  6
Continuous
 62
     7
370
     9
100
AcDbLine
 10
-2916.000018557986
 20
184.5000148463899
 30
0.0
 11
-5490.000018557986
 21
-3790.000017526987
 31
0.0
  0
LINE
  5
92
330
1F
100
AcDbEntity
  8
F-A_文字
  6
Continuous
 62
     7
370
     9
100
AcDbLine
 10
-522.0000185579818
 20
184.5000148463899
 30
0.0
 11
-2916.000018557986
 21
-3790.000017526987
 31
0.0
  0
LINE
  5
93
330
1F
100
AcDbEntity
  8
F-A_文字
  6
Continuous
 62
     7
370
     9
100
AcDbLine
 10
1677.99998144202
 20
184.5000148463899
 30
0.0
 11
-522.0000185579818
 21
-3790.000179909372
 31
0.0
  0
LINE
  5
94
330
1F
100
AcDbEntity
  8
F-A_文字
  6
Continuous
 62
     7
370
     9
100
AcDbLine
 10
1677.99998144202
 20
-3790.000017526987
 30
0.0
 11
3751.999981442023
 21
184.5000148463899
 31
0.0
  0
LINE
  5
95
330
1F
100
AcDbEntity
  8
F-A_文字
  6
Continuous
 62
     7
370
     9
100
AcDbLine
 10
3751.999981442023
 20
-3790.000017526987
 30
0.0
 11
5689.998977248734
 21
184.5000148463899
 31
0.0
  0
LINE
  5
96
330
1F
100
AcDbEntity
  8
F-1_枠
  6
Continuous
 62
   200
370
    20
100
AcDbLine
 10
5699.998762800888
 20
-3795.000003092998
 30
0.0
 11
-5999.99998453501
 21
-3795.000003092998
 31
0.0
  0
LINE
  5
97
330
1F
100
AcDbEntity
  8
F-1_枠
  6
Continuous
 62
   200
370
    20
100
AcDbLine
 10
-5999.99998453501
 20
3964.999818544131
 30
0.0
 11
5699.998762800888
 21
3964.999818544131
 31
0.0
  0
LINE
  5
98
330
1F
100
AcDbEntity
  8
F-1_枠
  6
Continuous
 62
   200
370
    20
100
AcDbLine
 10
5699.998762800888
 20
-3790.000017526987
 30
0.0
 11
-5999.99998453501
 21
-3790.000017526987
 31
0.0
  0
LINE
  5
99
330
1F
100
AcDbEntity
  8
F-1_枠
  6
Continuous
 62
   200
370
    20
100
AcDbLine
 10
-5999.99998453501
 20
190.5001831054688
 30
0.0
 11
5699.998762800888
 21
190.5001831054688
 31
0.0
  0
LINE
  5
9A
330
1F
100
AcDbEntity
  8
F-1_枠
  6
Continuous
 62
   200
370
    20
100
AcDbLine
 10
-5999.99998453501
 20
-15.50015011349217
 30
0.0
 11
5699.998762800888
 21
-15.50015011349217
 31
0.0
  0
LINE
  5
9B
330
1F
100
AcDbEntity
  8
F-1_枠
  6
Continuous
 62
   200
370
    20
100
AcDbLine
 10
-5999.99998453501
 20
184.5000148463899
 30
0.0
 11
5699.998762800888
 21
184.5000148463899
 31
0.0
  0
LINE
  5
9C
330
1F
100
AcDbEntity
  8
F-1_枠
  6
Continuous
 62
   200
370
    20
100
AcDbLine
 10
-5999.99998453501
 20
187.5000989759289
 30
0.0
 11
5699.998762800888
 21
187.5000989759289
 31
0.0
  0
LINE
  5
9D
330
1F
100
AcDbEntity
  8
F-A_文字
  6
Continuous
 62
     7
370
     9
100
AcDbLine
 10
1677.99998144202
 20
190.499951130636
 30
0.0
 11
3751.999981442023
 21
4164.999983504013
 31
0.0
  0
LINE
  5
9E
330
1F
100
AcDbEntity
  8
F-A_文字
  6
Continuous
 62
     7
370
     9
100
AcDbLine
 10
3751.999981442023
 20
190.499951130636
 30
0.0
 11
5689.998977248734
 21
4164.999983504013
 31
0.0
  0
LINE
  5
9F
330
1F
100
AcDbEntity
  8
0-4_枠
  6
Continuous
 62
    92
370
    13
100
AcDbLine
 10
-4890.000018557986
 20
1418.000148463893
 30
0.0
 11
-4860.000018557986
 21
1418.000148463893
 31
0.0
  0
LINE
  5
A0
330
1F
100
AcDbEntity
  8
0-4_枠
  6
Continuous
 62
    92
370
    13
100
AcDbLine
 10
-3096.000018557984
 20
1418.000148463893
 30
0.0
 11
-3066.000018557984
 21
1418.000148463893
 31
0.0
  0
LINE
  5
A1
330
1F
100
AcDbEntity
  8
0-4_枠
  6
Continuous
 62
    92
370
    13
100
AcDbLine
 10
-2316.000018557984
 20
1418.000148463893
 30
0.0
 11
-2286.000018557984
 21
1418.000148463893
 31
0.0
  0
LINE
  5
A2
330
1F
100
AcDbEntity
  8
0-4_枠
  6
Continuous
 62
    92
370
    13
100
AcDbLine
 10
-702.0000185579827
 20
1418.000148463893
 30
0.0
 11
-672.0000185579827
 21
1418.000148463893
 31
0.0
  0
LINE
  5
A3
330
1F
100
AcDbEntity
  8
0-4_枠
  6
Continuous
 62
    92
370
    13
100
AcDbLine
 10
77.99998144201908
 20
1418.000148463893
 30
0.0
 11
107.9999814420191
 21
1418.000148463893
 31
0.0
  0
LINE
  5
A4
330
1F
100
AcDbEntity
  8
0-4_枠
  6
Continuous
 62
    92
370
    13
100
AcDbLine
 10
1497.99998144202
 20
1418.000148463893
 30
0.0
 11
1527.99998144202
 21
1418.000148463893
 31
0.0
  0
LWPOLYLINE
  5
A5
330
1F
100
AcDbEntity
  8
0-B_寸法
  6
Continuous
 62
     7
370
     9
100
AcDbPolyline
 90
        4
 70
     1
 43
3.0
 10
-5138.500018557985
 20
1426.500148463893
 42
0.4142135623731
 10
-5140.000018557986
 20
1428.000148463893
 42
0.4142135623731
 10
-5141.500018557986
 20
1426.500148463893
 42
0.4142135623731
 10
-5140.000018557986
 20
1425.000148463893
 42
0.4142135623731
  0
LINE
  5
A6
330
1F
100
AcDbEntity
  8
0-B_寸法
  6
Continuous
 62
   120
370
     5
100
AcDbLine
 10
-5140.000018557986
 20
3409.500148463893
 30
0.0
 11
-5140.000018557986
 21
1426.500148463893
 31
0.0
  0
LWPOLYLINE
  5
A7
330
1F
100
AcDbEntity
  8
0-B_寸法
  6
Continuous
 62
     7
370
     9
100
AcDbPolyline
 90
        4
 70
     1
 43
3.0
 10
-5138.500018557985
 20
3409.500148463893
 42
0.4142135623731
 10
-5140.000018557986
 20
3411.000148463893
 42
0.4142135623731
 10
-5141.500018557986
 20
3409.500148463893
 42
0.4142135623731
 10
-5140.000018557986
 20
3408.000148463893
 42
0.4142135623731
  0
LINE
  5
A8
330
1F
100
AcDbEntity
  8
0-B_寸法
  6
Continuous
 62
   120
370
     5
100
AcDbLine
 10
-5140.000018557986
 20
1426.500148463893
 30
0.0
 11
-4940.000018557985
 21
1426.500148463893
 31
0.0
  0
LINE
  5
A9
330
1F
100
AcDbEntity
  8
0-2_扉
  6
JWW_DASHED1
 62
   120
370
     5
100
AcDbLine
 10
-3096.000018557984
 20
1426.500148463893
 30
0.0
 11
-3093.000018557985
 21
1426.500148463893
 31
0.0
  0
LINE
  5
AA
330
1F
100
AcDbEntity
  8
0-B_寸法
  6
Continuous
 62
   120
370
     5
100
AcDbLine
 10
-5140.000018557986
 20
3409.500148463893
 30
0.0
 11
-4940.000018557985
 21
3409.500148463893
 31
0.0
  0
LINE
  5
AB
330
1F
100
AcDbEntity
  8
0-2_扉
  6
JWW_DASHED1
 62
   120
370
     5
100
AcDbLine
 10
-3993.000018557985
 20
3409.500148463893
 30
0.0
 11
-3993.000018557985
 21
3405.500148463893
 31
0.0
  0
LINE
  5
AC
330
1F
100
AcDbEntity
  8
0-2_扉
  6
JWW_DASHED1
 62
   120
370
     5
100
AcDbLine
 10
-3093.000018557985
 20
1426.500148463893
 30
0.0
 11
-3093.000018557985
 21
3409.500148463893
 31
0.0
  0
LINE
  5
AD
330
1F
100
AcDbEntity
  8
0-2_扉
  6
JWW_DASHED1
 62
   120
370
     5
100
AcDbLine
 10
-3096.000018557984
 20
3409.500148463893
 30
0.0
 11
-3093.000018557985
 21
3409.500148463893
 31
0.0
  0
LINE
  5
AE
330
1F
100
AcDbEntity
  8
0-2_扉
  6
Continuous
 62
    92
370
    13
100
AcDbLine
 10
-3096.000018557984
 20
3409.500148463893
 30
0.0
 11
-3993.000018557985
 21
3409.500148463893
 31
0.0
  0
LINE
  5
AF
330
1F
100
AcDbEntity
  8
0-2_扉
  6
Continuous
 62
    92
370
    13
100
AcDbLine
 10
-3096.000018557984
 20
1426.500148463893
 30
0.0
 11
-3993.000018557985
 21
1426.500148463893
 31
0.0
  0
LINE
  5
B0
330
1F
100
AcDbEntity
  8
0-2_扉
  6
Continuous
 62
    92
370
    13
100
AcDbLine
 10
-3993.000018557985
 20
3409.500148463893
 30
0.0
 11
-3993.000018557985
 21
1426.500148463893
 31
0.0
  0
LWPOLYLINE
  5
B1
330
1F
100
AcDbEntity
  8
0-B_寸法
  6
Continuous
 62
     7
370
     9
100
AcDbPolyline
 90
        4
 70
     1
 43
3.0
 10
-2564.500018557985
 20
1426.500148463893
 42
0.4142135623731
 10
-2566.000018557985
 20
1428.000148463893
 42
0.4142135623731
 10
-2567.500018557985
 20
1426.500148463893
 42
0.4142135623731
 10
-2566.000018557985
 20
1425.000148463893
 42
0.4142135623731
  0
LINE
  5
B2
330
1F
100
AcDbEntity
  8
0-B_寸法
  6
Continuous
 62
   120
370
     5
100
AcDbLine
 10
-2566.000018557985
 20
3409.500148463893
 30
0.0
 11
-2566.000018557985
 21
1426.500148463893
 31
0.0
  0
LWPOLYLINE
  5
B3
330
1F
100
AcDbEntity
  8
0-B_寸法
  6
Continuous
 62
     7
370
     9
100
AcDbPolyline
 90
        4
 70
     1
 43
3.0
 10
-2564.500018557985
 20
3409.500148463893
 42
0.4142135623731
 10
-2566.000018557985
 20
3411.000148463893
 42
0.4142135623731
 10
-2567.500018557985
 20
3409.500148463893
 42
0.4142135623731
 10
-2566.000018557985
 20
3408.000148463893
 42
0.4142135623731
  0
LINE
  5
B4
330
1F
100
AcDbEntity
  8
0-B_寸法
  6
Continuous
 62
   120
370
     5
100
AcDbLine
 10
-2566.000018557985
 20
1426.500148463893
 30
0.0
 11
-2366.000018557984
 21
1426.500148463893
 31
0.0
  0
LINE
  5
B5
330
1F
100
AcDbEntity
  8
0-B_寸法
  6
Continuous
 62
   120
370
     5
100
AcDbLine
 10
-2566.000018557985
 20
3409.500148463893
 30
0.0
 11
-2366.000018557984
 21
3409.500148463893
 31
0.0
  0
LINE
  5
B6
330
1F
100
AcDbEntity
  8
0-2_扉
  6
JWW_DASHED1
 62
   120
370
     5
100
AcDbLine
 10
-702.0000185579827
 20
1426.500148463893
 30
0.0
 11
-699.0000185579828
 21
1426.500148463893
 31
0.0
  0
LINE
  5
B7
330
1F
100
AcDbEntity
  8
0-2_扉
  6
JWW_DASHED1
 62
   120
370
     5
100
AcDbLine
 10
-699.0000185579828
 20
1426.500148463893
 30
0.0
 11
-699.0000185579828
 21
3409.500148463893
 31
0.0
  0
LINE
  5
B8
330
1F
100
AcDbEntity
  8
0-2_扉
  6
JWW_DASHED1
 62
   120
370
     5
100
AcDbLine
 10
-702.0000185579827
 20
3409.500148463893
 30
0.0
 11
-699.0000185579828
 21
3409.500148463893
 31
0.0
  0
LINE
  5
B9
330
1F
100
AcDbEntity
  8
0-2_扉
  6
JWW_DASHED1
 62
   120
370
     5
100
AcDbLine
 10
-1509.000018557983
 20
3409.500148463893
 30
0.0
 11
-1509.000018557983
 21
3405.500148463893
 31
0.0
  0
LINE
  5
BA
330
1F
100
AcDbEntity
  8
0-2_扉
  6
Continuous
 62
    92
370
    13
100
AcDbLine
 10
-1509.000018557983
 20
3409.500148463893
 30
0.0
 11
-1509.000018557983
 21
1426.500148463893
 31
0.0
  0
LINE
  5
BB
330
1F
100
AcDbEntity
  8
0-2_扉
  6
Continuous
 62
    92
370
    13
100
AcDbLine
 10
-702.0000185579827
 20
3409.500148463893
 30
0.0
 11
-1509.000018557983
 21
3409.500148463893
 31
0.0
  0
LINE
  5
BC
330
1F
100
AcDbEntity
  8
0-2_扉
  6
Continuous
 62
    92
370
    13
100
AcDbLine
 10
-702.0000185579827
 20
1426.500148463893
 30
0.0
 11
-1509.000018557983
 21
1426.500148463893
 31
0.0
  0
LWPOLYLINE
  5
BD
330
1F
100
AcDbEntity
  8
0-B_寸法
  6
Continuous
 62
     7
370
     9
100
AcDbPolyline
 90
        4
 70
     1
 43
3.0
 10
-170.5000185579812
 20
1426.500148463893
 42
0.4142135623731
 10
-172.0000185579812
 20
1428.000148463893
 42
0.4142135623731
 10
-173.5000185579812
 20
1426.500148463893
 42
0.4142135623731
 10
-172.0000185579812
 20
1425.000148463893
 42
0.4142135623731
  0
LINE
  5
BE
330
1F
100
AcDbEntity
  8
0-B_寸法
  6
Continuous
 62
   120
370
     5
100
AcDbLine
 10
-172.0000185579812
 20
3409.500148463893
 30
0.0
 11
-172.0000185579812
 21
1426.500148463893
 31
0.0
  0
LWPOLYLINE
  5
BF
330
1F
100
AcDbEntity
  8
0-B_寸法
  6
Continuous
 62
     7
370
     9
100
AcDbPolyline
 90
        4
 70
     1
 43
3.0
 10
-170.5000185579812
 20
3409.500148463893
 42
0.4142135623731
 10
-172.0000185579812
 20
3411.000148463893
 42
0.4142135623731
 10
-173.5000185579812
 20
3409.500148463893
 42
0.4142135623731
 10
-172.0000185579812
 20
3408.000148463893
 42
0.4142135623731
  0
LINE
  5
C0
330
1F
100
AcDbEntity
  8
0-2_扉
  6
JWW_DASHED1
 62
   120
370
     5
100
AcDbLine
 10
1497.99998144202
 20
1426.500148463893
 30
0.0
 11
1500.999981442021
 21
1426.500148463893
 31
0.0
  0
LINE
  5
C1
330
1F
100
AcDbEntity
  8
0-2_扉
  6
JWW_DASHED1
 62
   120
370
     5
100
AcDbLine
 10
1500.999981442021
 20
1426.500148463893
 30
0.0
 11
1500.999981442021
 21
3409.500148463893
 31
0.0
  0
LINE
  5
C2
330
1F
100
AcDbEntity
  8
0-2_扉
  6
JWW_DASHED1
 62
   120
370
     5
100
AcDbLine
 10
1497.99998144202
 20
3409.500148463893
 30
0.0
 11
1500.999981442021
 21
3409.500148463893
 31
0.0
  0
LINE
  5
C3
330
1F
100
AcDbEntity
  8
0-B_寸法
  6
Continuous
 62
   120
370
     5
100
AcDbLine
 10
-172.0000185579812
 20
1426.500148463893
 30
0.0
 11
27.99998144201936
 21
1426.500148463893
 31
0.0
  0
LINE
  5
C4
330
1F
100
AcDbEntity
  8
0-B_寸法
  6
Continuous
 62
   120
370
     5
100
AcDbLine
 10
-172.0000185579812
 20
3409.500148463893
 30
0.0
 11
27.99998144201936
 21
3409.500148463893
 31
0.0
  0
LINE
  5
C5
330
1F
100
AcDbEntity
  8
0-2_扉
  6
Continuous
 62
    92
370
    13
100
AcDbLine
 10
1497.99998144202
 20
3409.500148463893
 30
0.0
 11
787.9999814420205
 21
3409.500148463893
 31
0.0
  0
LINE
  5
C6
330
1F
100
AcDbEntity
  8
0-2_扉
  6
Continuous
 62
    92
370
    13
100
AcDbLine
 10
1497.99998144202
 20
1426.500148463893
 30
0.0
 11
787.9999814420205
 21
1426.500148463893
 31
0.0
  0
LINE
  5
C7
330
1F
100
AcDbEntity
  8
0-2_扉
  6
JWW_DASHED1
 62
   120
370
     5
100
AcDbLine
 10
787.9999814420205
 20
3409.500148463893
 30
0.0
 11
787.9999814420205
 21
3405.500148463893
 31
0.0
  0
LINE
  5
C8
330
1F
100
AcDbEntity
  8
0-2_扉
  6
Continuous
 62
    92
370
    13
100
AcDbLine
 10
787.9999814420205
 20
3409.500148463893
 30
0.0
 11
787.9999814420205
 21
1426.500148463893
 31
0.0
  0
LINE
  5
C9
330
1F
100
AcDbEntity
  8
0-0_補助線
  6
JWW_HOJO
 62
     7
370
     9
100
AcDbLine
 10
-5490.000018557986
 20
-465.7500838202401
 30
0.0
 11
5699.998762800888
 21
-465.7500838202401
 31
0.0
  0
LINE
  5
CA
330
1F
100
AcDbEntity
  8
0-4_枠
  6
Continuous
 62
    92
370
    13
100
AcDbLine
 10
787.9999814420205
 20
1426.500148463893
 30
0.0
 11
787.9999814420205
 21
1418.000148463893
 31
0.0
  0
LINE
  5
CB
330
1F
100
AcDbEntity
  8
0-4_枠
  6
Continuous
 62
    92
370
    13
100
AcDbLine
 10
817.9999814420205
 20
1426.500148463893
 30
0.0
 11
817.9999814420205
 21
1418.000148463893
 31
0.0
  0
LINE
  5
CC
330
1F
100
AcDbEntity
  8
0-4_枠
  6
Continuous
 62
    92
370
    13
100
AcDbLine
 10
787.9999814420205
 20
1418.000148463893
 30
0.0
 11
817.9999814420205
 21
1418.000148463893
 31
0.0
  0
LINE
  5
CD
330
1F
100
AcDbEntity
  8
0-4_枠
  6
Continuous
 62
    92
370
    13
100
AcDbLine
 10
-1509.000018557983
 20
1426.500148463893
 30
0.0
 11
-1509.000018557983
 21
1418.000148463893
 31
0.0
  0
LINE
  5
CE
330
1F
100
AcDbEntity
  8
0-4_枠
  6
Continuous
 62
    92
370
    13
100
AcDbLine
 10
-1479.000018557983
 20
1426.500148463893
 30
0.0
 11
-1479.000018557983
 21
1418.000148463893
 31
0.0
  0
LINE
  5
CF
330
1F
100
AcDbEntity
  8
0-4_枠
  6
Continuous
 62
    92
370
    13
100
AcDbLine
 10
-1509.000018557983
 20
1418.000148463893
 30
0.0
 11
-1479.000018557983
 21
1418.000148463893
 31
0.0
  0
LINE
  5
D0
330
1F
100
AcDbEntity
  8
0-4_枠
  6
Continuous
 62
    92
370
    13
100
AcDbLine
 10
-3993.000018557985
 20
1426.500148463893
 30
0.0
 11
-3993.000018557985
 21
1418.000148463893
 31
0.0
  0
LINE
  5
D1
330
1F
100
AcDbEntity
  8
0-4_枠
  6
Continuous
 62
    92
370
    13
100
AcDbLine
 10
-3963.000018557985
 20
1426.500148463893
 30
0.0
 11
-3963.000018557985
 21
1418.000148463893
 31
0.0
  0
LINE
  5
D2
330
1F
100
AcDbEntity
  8
0-4_枠
  6
Continuous
 62
    92
370
    13
100
AcDbLine
 10
-3993.000018557985
 20
1418.000148463893
 30
0.0
 11
-3963.000018557985
 21
1418.000148463893
 31
0.0
  0
MTEXT
  5
D3
330
1F
100
AcDbEntity
  8
0-B_寸法
  6
Continuous
 62
     7
370
    70
100
AcDbMText
 10
-5155.000018557986
 20
2208.825148463893
 30
0.0
 40
57.14999999999999
 41
412.5
 46
0.0
 71
     7
 72
     1
  1
{\fＭＳ ゴシック|b0|i0|c128|p49;ＤＨ＝1,983}
 11
6.123031769111886E-17
 21
1.0
 31
0.0
 73
     1
 44
1.0
  0
MTEXT
  5
D4
330
1F
100
AcDbEntity
  8
0-B_寸法
  6
Continuous
 62
     7
370
    70
100
AcDbMText
 10
-2581.000018557985
 20
2208.825148463893
 30
0.0
 40
57.14999999999999
 41
412.5
 46
0.0
 71
     7
 72
     1
  1
{\fＭＳ ゴシック|b0|i0|c128|p49;ＤＨ＝1,983}
 11
6.123031769111886E-17
 21
1.0
 31
0.0
 73
     1
 44
1.0
  0
MTEXT
  5
D5
330
1F
100
AcDbEntity
  8
0-B_寸法
  6
Continuous
 62
     7
370
    70
100
AcDbMText
 10
-187.0000185579812
 20
2208.825148463893
 30
0.0
 40
57.14999999999999
 41
412.5
 46
0.0
 71
     7
 72
     1
  1
{\fＭＳ ゴシック|b0|i0|c128|p49;ＤＨ＝1,983}
 11
6.123031769111886E-17
 21
1.0
 31
0.0
 73
     1
 44
1.0
  0
MTEXT
  5
D6
330
1F
100
AcDbEntity
  8
0-B_寸法
  6
Continuous
 62
     7
370
   211
100
AcDbMText
 10
-3711.750018557983
 20
1174.075148463893
 30
0.0
 40
57.15
 41
337.5
 46
0.0
 71
     7
 72
     1
  1
{\fＭＳ ゴシック|b0|i0|c128|p49;ＤＷ＝900}
 73
     1
 44
1.0
  0
MTEXT
  5
D7
330
1F
100
AcDbEntity
  8
0-B_寸法
  6
Continuous
 62
     7
370
   211
100
AcDbMText
 10
-1272.750018557983
 20
1174.075148463893
 30
0.0
 40
57.15
 41
337.5
 46
0.0
 71
     7
 72
     1
  1
{\fＭＳ ゴシック|b0|i0|c128|p49;ＤＷ＝810}
 73
     1
 44
1.0
  0
MTEXT
  5
D8
330
1F
100
AcDbEntity
  8
0-B_寸法
  6
Continuous
 62
     7
370
   211
100
AcDbMText
 10
975.749981442022
 20
1174.075148463893
 30
0.0
 40
57.15
 41
337.5
 46
0.0
 71
     7
 72
     1
  1
{\fＭＳ ゴシック|b0|i0|c128|p49;ＤＷ＝713}
 73
     1
 44
1.0
  0
MTEXT
  5
D9
330
1F
100
AcDbEntity
  8
F-A_文字
  6
Continuous
 62
     7
370
     9
100
AcDbMText
 10
-5890.000004381747
 20
4018.575148463894
 30
0.0
 40
57.15
 41
300.0
 46
0.0
 71
     7
 72
     1
  1
{\fＭＳ ゴシック|b0|i0|c128|p49;デザイン}
 73
     1
 44
1.0
  0
MTEXT
  5
DA
330
1F
100
AcDbEntity
  8
F-A_文字
  6
Continuous
 62
     7
370
     9
100
AcDbMText
 10
-5852.500004381747
 20
2031.325062684755
 30
0.0
 40
57.15
 41
225.0
 46
0.0
 71
     7
 72
     1
  1
{\fＭＳ ゴシック|b0|i0|c128|p49;姿　図}
 73
     1
 44
1.0
  0
MTEXT
  5
DB
330
1F
100
AcDbEntity
  8
F-A_文字
  6
Continuous
 62
     7
370
     9
100
AcDbMText
 10
-5890.000004381747
 20
38.07493236644844
 30
0.0
 40
57.15
 41
300.0
 46
0.0
 71
     7
 72
     1
  1
{\fＭＳ ゴシック|b0|i0|c128|p49;デザイン}
 73
     1
 44
1.0
  0
MTEXT
  5
DC
330
1F
100
AcDbEntity
  8
F-A_文字
  6
Continuous
 62
     7
370
     9
100
AcDbMText
 10
-5852.500004381747
 20
-1949.175091552734
 30
0.0
 40
57.15
 41
225.0
 46
0.0
 71
     7
 72
     1
  1
{\fＭＳ ゴシック|b0|i0|c128|p49;姿　図}
 73
     1
 44
1.0
  0
MTEXT
  5
DD
330
1F
100
AcDbEntity
  8
F-A_文字
  6
Continuous
 62
     7
370
     0
100
AcDbMText
 10
-60.0001237199109
 20
-3887.139820871936
 30
0.0
 40
45.72
 41
180.0
 46
0.0
 71
     7
 72
     1
  1
{\fＭＳ ゴシック|b0|i0|c128|p49;図面名}
 73
     1
 44
1.0
  0
MTEXT
  5
DE
330
1F
100
AcDbEntity
  8
F-A_文字
  6
Continuous
 62
     7
370
     0
100
AcDbMText
 10
2779.998729808911
 20
-3887.142460617774
 30
0.0
 40
45.72
 41
300.0
 46
0.0
 71
     7
 72
     1
  1
{\fＭＳ ゴシック|b0|i0|c128|p49;ＳＣＡＬＥ}
 73
     1
 44
1.0
  0
MTEXT
  5
DF
330
1F
100
AcDbEntity
  8
F-A_文字
  6
Continuous
 62
     7
370
     0
100
AcDbMText
 10
4279.999224688556
 20
-3887.143854850754
 30
0.0
 40
45.72
 41
240.0
 46
0.0
 71
     7
 72
     1
  1
{\fＭＳ ゴシック|b0|i0|c128|p49;ＤＡＴＥ}
 73
     1
 44
1.0
  0
MTEXT
  5
E0
330
1F
100
AcDbEntity
  8
F-A_文字
  6
Continuous
 62
     7
370
     0
100
AcDbMText
 10
1180.417701903718
 20
-3946.423911599839
 30
0.0
 40
77.15249999999999
 41
405.0
 46
0.0
 71
     7
 72
     1
  1
{\fＭＳ ゴシック|b0|i0|c128|p49;建具姿図}
 73
     1
 44
1.0
  0
MTEXT
  5
E1
330
1F
100
AcDbEntity
  8
F-A_文字
  6
Continuous
 62
     7
370
     0
100
AcDbMText
 10
3383.748977248734
 20
-3946.426865907308
 30
0.0
 40
77.15249999999999
 41
202.5
 46
0.0
 71
     7
 72
     1
  1
{\fＭＳ ゴシック|b0|i0|c128|p49;1/30}
 73
     1
 44
1.0
  0
MTEXT
  5
E2
330
1F
100
AcDbEntity
  8
F-A_文字
  6
Continuous
 62
     7
370
     0
100
AcDbMText
 10
2779.998729808911
 20
-4087.14246317786
 30
0.0
 40
45.72
 41
240.0
 46
0.0
 71
     7
 72
     1
  1
{\fＭＳ ゴシック|b0|i0|c128|p49;ＦＩＬＥ}
 73
     1
 44
1.0
  0
MTEXT
  5
E3
330
1F
100
AcDbEntity
  8
F-A_文字
  6
Continuous
 62
     7
370
     0
100
AcDbMText
 10
4279.999224688556
 20
-4087.143857410839
 30
0.0
 40
45.72
 41
180.0
 46
0.0
 71
     7
 72
     1
  1
{\fＭＳ ゴシック|b0|i0|c128|p49;ＮＯ．}
 73
     1
 44
1.0
  0
MTEXT
  5
E4
330
1F
100
AcDbEntity
  8
F-A_文字
  6
Continuous
 62
     7
370
     0
100
AcDbMText
 10
1234.998729808911
 20
-4096.140669266149
 30
0.0
 40
45.72
 41
120.0
 46
0.0
 71
     7
 72
     1
  1
{\fＭＳ ゴシック|b0|i0|c128|p49;株式}
 73
     1
 44
1.0
  0
MTEXT
  5
E5
330
1F
100
AcDbEntity
  8
F-A_文字
  6
Continuous
 62
     7
370
     0
100
AcDbMText
 10
1444.998729808911
 20
-4164.281754523929
 30
0.0
 40
101.44125
 41
1065.0
 46
0.0
 71
     7
 72
     1
  1
{\fＭＳ ゴシック|b0|i0|c128|p49;ウッドワン・・・}
 73
     1
 44
1.0
  0
MTEXT
  5
E6
330
1F
100
AcDbEntity
  8
F-A_文字
  6
Continuous
 62
     7
370
     0
100
AcDbMText
 10
1234.998729808911
 20
-4168.140669266187
 30
0.0
 40
45.72
 41
120.0
 46
0.0
 71
     7
 72
     1
  1
{\fＭＳ ゴシック|b0|i0|c128|p49;会社}
 73
     1
 44
1.0
  0
MTEXT
  5
E7
330
1F
100
AcDbEntity
  8
F-A_文字
  6
Continuous
 62
     7
370
     0
100
AcDbMText
 10
5608.403311109712
 20
-4314.841419020919
 30
0.0
 40
68.58
 41
90.0
 46
0.0
 71
     7
 72
     1
  1
{\fＭＳ ゴシック|b0|i0|c128|p49;）}
 73
     1
 44
1.0
  0
MTEXT
  5
E8
330
1F
100
AcDbEntity
  8
F-A_文字
  6
Continuous
 62
     7
370
     0
100
AcDbMText
 10
5190.195950842071
 20
-4316.235443869856
 30
0.0
 40
68.58
 41
45.0
 46
0.0
 71
     7
 72
     1
  1
{\fＭＳ ゴシック|b0|i0|c128|p49;,}
 73
     1
 44
1.0
  0
MTEXT
  5
E9
330
1F
100
AcDbEntity
  8
F-A_文字
  6
Continuous
 62
     7
370
     0
100
AcDbMText
 10
4923.937261915373
 20
-4314.771967288282
 30
0.0
 40
74.295
 41
97.5
 46
0.0
 71
     7
 72
     1
  1
{\fＭＳ ゴシック|b0|i0|c128|p49;$y}
 73
     1
 44
1.0
  0
MTEXT
  5
EA
330
1F
100
AcDbEntity
  8
F-A_文字
  6
Continuous
 62
     7
370
     0
100
AcDbMText
 10
5078.673982954195
 20
-4314.771967288282
 30
0.0
 40
74.295
 41
97.5
 46
0.0
 71
     7
 72
     1
  1
{\fＭＳ ゴシック|b0|i0|c128|p49;$m}
 73
     1
 44
1.0
  0
MTEXT
  5
EB
330
1F
100
AcDbEntity
  8
F-A_文字
  6
Continuous
 62
     7
370
     0
100
AcDbMText
 10
5233.410715437103
 20
-4314.771967288282
 30
0.0
 40
74.295
 41
97.5
 46
0.0
 71
     7
 72
     1
  1
{\fＭＳ ゴシック|b0|i0|c128|p49;$d}
 73
     1
 44
1.0
  0
MTEXT
  5
EC
330
1F
100
AcDbEntity
  8
F-A_文字
  6
Continuous
 62
     7
370
     0
100
AcDbMText
 10
5388.147447920011
 20
-4314.771967288282
 30
0.0
 40
74.295
 41
195.0
 46
0.0
 71
     7
 72
     1
  1
{\fＭＳ ゴシック|b0|i0|c128|p49;印刷}
 73
     1
 44
1.0
  0
MTEXT
  5
ED
330
1F
100
AcDbEntity
  8
F-A_文字
  6
Continuous
 62
     7
370
     0
100
AcDbMText
 10
4784.033374252999
 20
-4319.023493567732
 30
0.0
 40
68.58
 41
90.0
 46
0.0
 71
     7
 72
     1
  1
{\fＭＳ ゴシック|b0|i0|c128|p49;（}
 73
     1
 44
1.0
  0
MTEXT
  5
EE
330
1F
100
AcDbEntity
  8
F-A_文字
  6
Continuous
 62
     7
370
     0
100
AcDbMText
 10
5031.277143812345
 20
-4319.023493567732
 30
0.0
 40
68.58
 41
45.0
 46
0.0
 71
     7
 72
     1
  1
{\fＭＳ ゴシック|b0|i0|c128|p49;,}
 73
     1
 44
1.0
  0
LINE
  5
EF
330
1F
100
AcDbEntity
  8
0-3_仕上げ
  6
Continuous
 62
     7
370
     9
100
AcDbLine
 10
-3923.000018557985
 20
3409.500148463892
 30
0.0
 11
-3923.000018557985
 21
1426.500148463893
 31
0.0
  0
LINE
  5
F0
330
1F
100
AcDbEntity
  8
0-3_仕上げ
  6
Continuous
 62
     7
370
     9
100
AcDbLine
 10
-3163.000018557985
 20
1426.500148463893
 30
0.0
 11
-3163.000018557985
 21
3409.500148463892
 31
0.0
  0
LINE
  5
F1
330
1F
100
AcDbEntity
  8
0-3_仕上げ
  6
Continuous
 62
     7
370
     9
100
AcDbLine
 10
-3163.000018557985
 20
3333.500148463892
 30
0.0
 11
-3923.000018557985
 21
3333.500148463892
 31
0.0
  0
LINE
  5
F2
330
1F
100
AcDbEntity
  8
0-3_仕上げ
  6
Continuous
 62
     7
370
     9
100
AcDbLine
 10
-3163.000018557985
 20
1518.500148463893
 30
0.0
 11
-3923.000018557985
 21
1518.500148463893
 31
0.0
  0
LINE
  5
F3
330
1F
100
AcDbEntity
  8
0-3_仕上げ
  6
Continuous
 62
    92
370
    13
100
AcDbLine
 10
-3965.500018557985
 20
3409.500148463892
 30
0.0
 11
-3965.500018557985
 21
1426.500148463893
 31
0.0
  0
LINE
  5
F4
330
1F
100
AcDbEntity
  8
0-3_仕上げ
  6
Continuous
 62
    92
370
    13
100
AcDbLine
 10
-3950.500018557984
 20
3409.500148463892
 30
0.0
 11
-3950.500018557984
 21
1426.500148463893
 31
0.0
  0
LINE
  5
F5
330
1F
100
AcDbEntity
  8
0-3_仕上げ
  6
Continuous
 62
    92
370
    13
100
AcDbLine
 10
-3135.500018557985
 20
1426.500148463893
 30
0.0
 11
-3135.500018557985
 21
3409.500148463892
 31
0.0
  0
LINE
  5
F6
330
1F
100
AcDbEntity
  8
0-3_仕上げ
  6
Continuous
 62
    92
370
    13
100
AcDbLine
 10
-3120.500018557985
 20
1426.500148463893
 30
0.0
 11
-3120.500018557985
 21
3409.500148463892
 31
0.0
  0
LINE
  5
F7
330
1F
100
AcDbEntity
  8
0-3_仕上げ
  6
Continuous
 62
     7
370
     9
100
AcDbLine
 10
-1439.000018557982
 20
3409.500148463892
 30
0.0
 11
-1439.000018557982
 21
1426.500148463893
 31
0.0
  0
LINE
  5
F8
330
1F
100
AcDbEntity
  8
0-3_仕上げ
  6
Continuous
 62
    92
370
    13
100
AcDbLine
 10
-1481.500018557983
 20
3409.500148463892
 30
0.0
 11
-1481.500018557983
 21
1426.500148463893
 31
0.0
  0
LINE
  5
F9
330
1F
100
AcDbEntity
  8
0-3_仕上げ
  6
Continuous
 62
    92
370
    13
100
AcDbLine
 10
-1466.500018557982
 20
3409.500148463892
 30
0.0
 11
-1466.500018557982
 21
1426.500148463893
 31
0.0
  0
LINE
  5
FA
330
1F
100
AcDbEntity
  8
0-3_仕上げ
  6
Continuous
 62
     7
370
     9
100
AcDbLine
 10
-769.0000185579828
 20
1426.500148463893
 30
0.0
 11
-769.0000185579828
 21
3409.500148463892
 31
0.0
  0
LINE
  5
FB
330
1F
100
AcDbEntity
  8
0-3_仕上げ
  6
Continuous
 62
     7
370
     9
100
AcDbLine
 10
-769.0000185579828
 20
3333.500148463892
 30
0.0
 11
-1439.000018557982
 21
3333.500148463892
 31
0.0
  0
LINE
  5
FC
330
1F
100
AcDbEntity
  8
0-3_仕上げ
  6
Continuous
 62
     7
370
     9
100
AcDbLine
 10
-769.0000185579828
 20
1518.500148463893
 30
0.0
 11
-1439.000018557982
 21
1518.500148463893
 31
0.0
  0
LINE
  5
FD
330
1F
100
AcDbEntity
  8
0-3_仕上げ
  6
Continuous
 62
    92
370
    13
100
AcDbLine
 10
-741.5000185579826
 20
1426.500148463893
 30
0.0
 11
-741.5000185579826
 21
3409.500148463892
 31
0.0
  0
LINE
  5
FE
330
1F
100
AcDbEntity
  8
0-3_仕上げ
  6
Continuous
 62
    92
370
    13
100
AcDbLine
 10
-726.500018557983
 20
1426.500148463893
 30
0.0
 11
-726.500018557983
 21
3409.500148463892
 31
0.0
  0
LINE
  5
FF
330
1F
100
AcDbEntity
  8
0-3_仕上げ
  6
Continuous
 62
    92
370
    13
100
AcDbLine
 10
830.4999814420211
 20
3409.500148463892
 30
0.0
 11
830.4999814420211
 21
1426.500148463893
 31
0.0
  0
LINE
  5
100
330
1F
100
AcDbEntity
  8
0-3_仕上げ
  6
Continuous
 62
    92
370
    13
100
AcDbLine
 10
815.4999814420203
 20
3409.500148463892
 30
0.0
 11
815.4999814420203
 21
1426.500148463893
 31
0.0
  0
LINE
  5
101
330
1F
100
AcDbEntity
  8
0-3_仕上げ
  6
Continuous
 62
     7
370
     9
100
AcDbLine
 10
857.9999814420207
 20
3409.500148463892
 30
0.0
 11
857.9999814420207
 21
1426.500148463893
 31
0.0
  0
LINE
  5
102
330
1F
100
AcDbEntity
  8
0-3_仕上げ
  6
Continuous
 62
    92
370
    13
100
AcDbLine
 10
1473.49998144202
 20
1426.500148463893
 30
0.0
 11
1473.49998144202
 21
3409.500148463892
 31
0.0
  0
LINE
  5
103
330
1F
100
AcDbEntity
  8
0-3_仕上げ
  6
Continuous
 62
    92
370
    13
100
AcDbLine
 10
1458.499981442021
 20
1426.500148463893
 30
0.0
 11
1458.499981442021
 21
3409.500148463892
 31
0.0
  0
LINE
  5
104
330
1F
100
AcDbEntity
  8
0-3_仕上げ
  6
Continuous
 62
     7
370
     9
100
AcDbLine
 10
1430.999981442021
 20
1518.500148463893
 30
0.0
 11
857.9999814420207
 21
1518.500148463893
 31
0.0
  0
LINE
  5
105
330
1F
100
AcDbEntity
  8
0-3_仕上げ
  6
Continuous
 62
     7
370
     9
100
AcDbLine
 10
1430.999981442021
 20
3333.500148463892
 30
0.0
 11
857.9999814420207
 21
3333.500148463892
 31
0.0
  0
LINE
  5
106
330
1F
100
AcDbEntity
  8
0-3_仕上げ
  6
Continuous
 62
     7
370
     9
100
AcDbLine
 10
1430.999981442021
 20
1426.500148463893
 30
0.0
 11
1430.999981442021
 21
3409.500148463892
 31
0.0
  0
LINE
  5
107
330
1F
100
AcDbEntity
  8
F-0_補助線
  6
JWW_HOJO
 62
   200
370
    20
100
AcDbLine
 10
-5999.99998453501
 20
84.49993236644843
 30
0.0
 11
5694.998498865077
 21
84.49993236644843
 31
0.0
  0
LINE
  5
108
330
1F
100
AcDbEntity
  8
F-0_補助線
  6
JWW_HOJO
 62
   200
370
    20
100
AcDbLine
 10
-5999.99998453501
 20
4064.999901024072
 30
0.0
 11
5689.998977248734
 21
4064.999901024072
 31
0.0
  0
MTEXT
  5
109
330
1F
100
AcDbEntity
  8
F-A_文字
  6
Continuous
 62
     7
370
     0
100
AcDbMText
 10
4726.249100968646
 20
-3938.071010139966
 30
0.0
 40
78.86699999999999
 41
517.5
 46
0.0
 71
     7
 72
     1
  1
{\fＭＳ ゴシック|b0|i0|c128|p49;2021.04.01}
 73
     1
 44
1.0
  0
MTEXT
  5
10A
330
1F
100
AcDbEntity
  8
F-A_文字
  6
Continuous
 62
     7
370
     9
100
AcDbMText
 10
4936.249033580831
 20
-4147.857012699985
 30
0.0
 40
74.295
 41
97.5
 46
0.0
 71
     7
 72
     1
  1
{\fＭＳ ゴシック|b0|i0|c128|p49;01}
 73
     1
 44
1.0
  0
MTEXT
  5
10B
330
1F
100
AcDbEntity
  8
F-A_文字
  6
Continuous
 62
     7
370
     0
100
AcDbMText
 10
349.9999175200594
 20
-3945.630201962234
 30
0.0
 40
78.74000000000001
 41
465.0
 46
0.0
 71
     7
 72
     1
  1
{\fＭＳ ゴシック|b0|i0|c128|p49;PINOEARTH}
 73
     1
 44
1.0
  0
MTEXT
  5
10C
330
1F
100
AcDbEntity
  8
F-A_文字
  6
Continuous
 62
     7
370
     0
100
AcDbMText
 10
-5247.547376752838
 20
-4045.199043221247
 30
0.0
 40
79.60178571428573
 41
2925.0
 46
0.0
 71
     7
 72
     1
  1
{\fＭＳ ゴシック|b0|i0|c128|p49;ピノアース　片引き戸／引き込み戸　上吊りタイプ　Ｎ－ＷＧ}
 73
     1
 44
1.0
  0
MTEXT
  5
10D
330
1F
100
AcDbEntity
  8
0-A_文字
  6
Continuous
 62
     7
370
     9
100
AcDbMText
 10
-4405.500018557986
 20
4013.576151024072
 30
0.0
 40
77.15249999999999
 41
405.0
 46
0.0
 71
     7
 72
     1
  1
{\fＭＳ ゴシック|b0|i0|c128|p49;Ｎ－ＷＧ}
 73
     1
 44
1.0
  0
MTEXT
  5
10E
330
1F
100
AcDbEntity
  8
0-A_文字
  6
Continuous
 62
     7
370
     9
100
AcDbMText
 10
-1921.500018557984
 20
4013.576151024072
 30
0.0
 40
77.15249999999999
 41
405.0
 46
0.0
 71
     7
 72
     1
  1
{\fＭＳ ゴシック|b0|i0|c128|p49;Ｎ－ＷＧ}
 73
     1
 44
1.0
  0
MTEXT
  5
10F
330
1F
100
AcDbEntity
  8
0-A_文字
  6
Continuous
 62
     7
370
     9
100
AcDbMText
 10
375.4999814420196
 20
4013.576151024072
 30
0.0
 40
77.15249999999999
 41
405.0
 46
0.0
 71
     7
 72
     1
  1
{\fＭＳ ゴシック|b0|i0|c128|p49;Ｎ－ＷＧ}
 73
     1
 44
1.0
  0
LINE
  5
110
330
1F
100
AcDbEntity
  8
0-0_補助線
  6
JWW_HOJO
 62
   120
370
     5
100
AcDbLine
 10
-5999.99998453501
 20
790.5001831054692
 30
0.0
 11
5699.998762800888
 21
790.5001831054692
 31
0.0
  0
LINE
  5
111
330
1F
100
AcDbEntity
  8
0-0_補助線
  6
JWW_HOJO
 62
   120
370
     5
100
AcDbLine
 10
-5999.99998453501
 20
670.5001831054692
 30
0.0
 11
5699.998762800888
 21
670.5001831054692
 31
0.0
  0
LINE
  5
112
330
1F
100
AcDbEntity
  8
0-0_補助線
  6
JWW_HOJO
 62
   120
370
     5
100
AcDbLine
 10
-5999.99998453501
 20
550.5001831054688
 30
0.0
 11
5699.998762800888
 21
550.5001831054688
 31
0.0
  0
LINE
  5
113
330
1F
100
AcDbEntity
  8
0-0_補助線
  6
JWW_HOJO
 62
   120
370
     5
100
AcDbLine
 10
-5999.99998453501
 20
430.5001831054688
 30
0.0
 11
5699.998762800888
 21
430.5001831054688
 31
0.0
  0
LINE
  5
114
330
1F
100
AcDbEntity
  8
0-0_補助線
  6
JWW_HOJO
 62
   120
370
     5
100
AcDbLine
 10
-5999.99998453501
 20
310.5001831054688
 30
0.0
 11
5699.998762800888
 21
310.5001831054688
 31
0.0
  0
LINE
  5
115
330
1F
100
AcDbEntity
  8
0-0_補助線
  6
JWW_HOJO
 62
   120
370
     5
100
AcDbLine
 10
5699.998762800888
 20
-3310.000017526988
 30
0.0
 11
-5999.99998453501
 21
-3310.000017526988
 31
0.0
  0
LINE
  5
116
330
1F
100
AcDbEntity
  8
0-0_補助線
  6
JWW_HOJO
 62
   120
370
     5
100
AcDbLine
 10
5699.998762800888
 20
-3430.000017526988
 30
0.0
 11
-5999.99998453501
 21
-3430.000017526988
 31
0.0
  0
LINE
  5
117
330
1F
100
AcDbEntity
  8
0-0_補助線
  6
JWW_HOJO
 62
   120
370
     5
100
AcDbLine
 10
5699.998762800888
 20
-3550.000017526988
 30
0.0
 11
-5999.99998453501
 21
-3550.000017526988
 31
0.0
  0
LINE
  5
118
330
1F
100
AcDbEntity
  8
0-0_補助線
  6
JWW_HOJO
 62
   120
370
     5
100
AcDbLine
 10
5699.998762800888
 20
-3670.000017526988
 30
0.0
 11
-5999.99998453501
 21
-3670.000017526988
 31
0.0
  0
LINE
  5
119
330
1F
100
AcDbEntity
  8
0-0_補助線
  6
JWW_HOJO
 62
   120
370
     5
100
AcDbLine
 10
-5370.000018557986
 20
4174.999769056166
 30
0.0
 11
-5370.000018557986
 21
-3790.000179909371
 31
0.0
  0
MTEXT
  5
11A
330
1F
100
AcDbEntity
  8
0-A_文字
  6
Continuous
 62
     7
370
     9
100
AcDbMText
 10
-5370.000018557985
 20
661.5754150802939
 30
0.0
 40
57.15000000000003
 41
975.0000000000009
 46
0.0
 71
     7
 72
     1
  1
{\fＭＳ ゴシック|b0|i0|c128|p49;枠外幅 1,824mm（DW=900mm）}
 73
     1
 44
1.0
  0
LINE
  5
11B
330
1F
100
AcDbEntity
  8
0-0_補助線
  6
JWW_HOJO
 62
   120
370
     5
100
AcDbLine
 10
5699.998762800888
 20
-3190.000017526988
 30
0.0
 11
-5999.99998453501
 21
-3190.000017526988
 31
0.0
  0
LINE
  5
11C
330
1F
100
AcDbEntity
  8
0-0_補助線
  6
JWW_HOJO
 62
   120
370
     5
100
AcDbLine
 10
-2796.000018557986
 20
4174.999769056166
 30
0.0
 11
-2796.000018557986
 21
-3790.000179909371
 31
0.0
  0
LINE
  5
11D
330
1F
100
AcDbEntity
  8
0-0_補助線
  6
JWW_HOJO
 62
   120
370
     5
100
AcDbLine
 10
-402.0000185579826
 20
4174.999769056166
 30
0.0
 11
-402.0000185579826
 21
-3790.000179909371
 31
0.0
  0
LINE
  5
11E
330
1F
100
AcDbEntity
  8
0-0_補助線
  6
JWW_HOJO
 62
   120
370
     5
100
AcDbLine
 10
1797.99998144202
 20
4174.999769056166
 30
0.0
 11
1797.99998144202
 21
-3790.000179909371
 31
0.0
  0
LINE
  5
11F
330
1F
100
AcDbEntity
  8
0-0_補助線
  6
JWW_HOJO
 62
   120
370
     5
100
AcDbLine
 10
3871.999981442023
 20
4174.999769056166
 30
0.0
 11
3871.999981442023
 21
-3790.000179909371
 31
0.0
  0
MTEXT
  5
120
330
1F
100
AcDbEntity
  8
0-A_文字
  6
Continuous
 62
     7
370
     9
100
AcDbMText
 10
-2796.000018558
 20
661.5754150802946
 30
0.0
 40
57.15000000000158
 41
975.0000000000273
 46
0.0
 71
     7
 72
     1
  1
{\fＭＳ ゴシック|b0|i0|c128|p49;枠外幅 1,644mm（DW=810mm）}
 73
     1
 44
1.0
  0
MTEXT
  5
121
330
1F
100
AcDbEntity
  8
0-A_文字
  6
Continuous
 62
     7
370
     9
100
AcDbMText
 10
-402.0000185579894
 20
661.5754150802943
 30
0.0
 40
57.15000000000084
 41
975.0000000000146
 46
0.0
 71
     7
 72
     1
  1
{\fＭＳ ゴシック|b0|i0|c128|p49;枠外幅 1,450mm（DW=713mm）}
 73
     1
 44
1.0
  0
MTEXT
  5
122
330
1F
100
AcDbEntity
  8
0-A_文字
  6
Continuous
 62
     7
370
     9
100
AcDbMText
 10
-5370.000018557987
 20
541.5751831054607
 30
0.0
 40
57.1500000000001
 41
600.0000000000009
 46
0.0
 71
     7
 72
     1
  1
{\fＭＳ ゴシック|b0|i0|c128|p49;透明熱処理ガラス}
 73
     1
 44
1.0
  0
MTEXT
  5
123
330
1F
100
AcDbEntity
  8
0-A_文字
  6
Continuous
 62
     7
370
     9
100
AcDbMText
 10
-2796.000018557987
 20
541.5751831054607
 30
0.0
 40
57.1500000000001
 41
600.0000000000009
 46
0.0
 71
     7
 72
     1
  1
{\fＭＳ ゴシック|b0|i0|c128|p49;透明熱処理ガラス}
 73
     1
 44
1.0
  0
MTEXT
  5
124
330
1F
100
AcDbEntity
  8
0-A_文字
  6
Continuous
 62
     7
370
     9
100
AcDbMText
 10
-402.0000185579835
 20
541.5751831054607
 30
0.0
 40
57.1500000000001
 41
600.0000000000009
 46
0.0
 71
     7
 72
     1
  1
{\fＭＳ ゴシック|b0|i0|c128|p49;透明熱処理ガラス}
 73
     1
 44
1.0
  0
LINE
  5
125
330
1F
100
AcDbEntity
  8
0-A_文字
  6
Continuous
 62
     7
370
     9
100
AcDbLine
 10
-5450.000018557986
 20
3924.999818544131
 30
0.0
 11
-5450.000018557986
 21
3774.999818544131
 31
0.0
  0
LINE
  5
126
330
1F
100
AcDbEntity
  8
0-A_文字
  6
Continuous
 62
     7
370
     9
100
AcDbLine
 10
-5440.000018557986
 20
3914.999818544132
 30
0.0
 11
-5440.000018557986
 21
3784.999818544131
 31
0.0
  0
LINE
  5
127
330
1F
100
AcDbEntity
  8
0-A_文字
  6
Continuous
 62
     7
370
     9
100
AcDbLine
 10
-5450.000018557986
 20
3924.999818544131
 30
0.0
 11
-4818.966380964437
 21
3924.999818544131
 31
0.0
  0
LINE
  5
128
330
1F
100
AcDbEntity
  8
0-A_文字
  6
Continuous
 62
     7
370
     9
100
AcDbLine
 10
-4818.966380964437
 20
3924.999818544131
 30
0.0
 11
-4818.966380964437
 21
3774.999818544131
 31
0.0
  0
LINE
  5
129
330
1F
100
AcDbEntity
  8
0-A_文字
  6
Continuous
 62
     7
370
     9
100
AcDbLine
 10
-5450.000018557986
 20
3774.999818544131
 30
0.0
 11
-4818.966380964437
 21
3774.999818544131
 31
0.0
  0
LINE
  5
12A
330
1F
100
AcDbEntity
  8
0-A_文字
  6
Continuous
 62
     7
370
     9
100
AcDbLine
 10
-5440.000018557986
 20
3784.999818544131
 30
0.0
 11
-4828.966380964437
 21
3784.999818544131
 31
0.0
  0
LINE
  5
12B
330
1F
100
AcDbEntity
  8
0-A_文字
  6
Continuous
 62
     7
370
     9
100
AcDbLine
 10
-4828.966380964437
 20
3914.999818544132
 30
0.0
 11
-4828.966380964437
 21
3784.999818544131
 31
0.0
  0
LINE
  5
12C
330
1F
100
AcDbEntity
  8
0-A_文字
  6
Continuous
 62
     7
370
     9
100
AcDbLine
 10
-5440.000018557986
 20
3914.999818544132
 30
0.0
 11
-4828.966380964437
 21
3914.999818544132
 31
0.0
  0
MTEXT
  5
12D
330
1F
100
AcDbEntity
  8
0-A_文字
  6
Continuous
 62
     7
370
     9
100
AcDbMText
 10
-5336.983199761215
 20
3798.576068544132
 30
0.0
 40
77.15250000000162
 41
405.0000000000085
 46
0.0
 71
     7
 72
     1
  1
{\fＭＳ ゴシック|b0|i0|c128|p49;片引き戸}
 73
     1
 44
1.0
  0
LINE
  5
12E
330
1F
100
AcDbEntity
  8
0-A_文字
  6
Continuous
 62
     7
370
     9
100
AcDbLine
 10
-2876.000018557985
 20
3713.527553644068
 30
0.0
 11
-2876.000018557985
 21
3563.527553644069
 31
0.0
  0
LINE
  5
12F
330
1F
100
AcDbEntity
  8
0-A_文字
  6
Continuous
 62
     7
370
     9
100
AcDbLine
 10
-2866.000018557985
 20
3703.527553644069
 30
0.0
 11
-2866.000018557985
 21
3573.527553644069
 31
0.0
  0
LINE
  5
130
330
1F
100
AcDbEntity
  8
0-A_文字
  6
Continuous
 62
     7
370
     9
100
AcDbLine
 10
-2876.000018557985
 20
3713.527553644068
 30
0.0
 11
-2244.966380964436
 21
3713.527553644068
 31
0.0
  0
LINE
  5
131
330
1F
100
AcDbEntity
  8
0-A_文字
  6
Continuous
 62
     7
370
     9
100
AcDbLine
 10
-2244.966380964436
 20
3713.527553644068
 30
0.0
 11
-2244.966380964436
 21
3563.527553644069
 31
0.0
  0
LINE
  5
132
330
1F
100
AcDbEntity
  8
0-A_文字
  6
Continuous
 62
     7
370
     9
100
AcDbLine
 10
-2876.000018557985
 20
3563.527553644069
 30
0.0
 11
-2244.966380964436
 21
3563.527553644069
 31
0.0
  0
LINE
  5
133
330
1F
100
AcDbEntity
  8
0-A_文字
  6
Continuous
 62
     7
370
     9
100
AcDbLine
 10
-2866.000018557985
 20
3573.527553644069
 30
0.0
 11
-2254.966380964437
 21
3573.527553644069
 31
0.0
  0
LINE
  5
134
330
1F
100
AcDbEntity
  8
0-A_文字
  6
Continuous
 62
     7
370
     9
100
AcDbLine
 10
-2254.966380964437
 20
3703.527553644069
 30
0.0
 11
-2254.966380964437
 21
3573.527553644069
 31
0.0
  0
LINE
  5
135
330
1F
100
AcDbEntity
  8
0-A_文字
  6
Continuous
 62
     7
370
     9
100
AcDbLine
 10
-2866.000018557985
 20
3703.527553644069
 30
0.0
 11
-2254.966380964437
 21
3703.527553644069
 31
0.0
  0
LINE
  5
136
330
1F
100
AcDbEntity
  8
0-A_文字
  6
Continuous
 62
     7
370
     9
100
AcDbLine
 10
-2876.000018557985
 20
3924.999818544131
 30
0.0
 11
-2876.000018557985
 21
3774.999818544131
 31
0.0
  0
LINE
  5
137
330
1F
100
AcDbEntity
  8
0-A_文字
  6
Continuous
 62
     7
370
     9
100
AcDbLine
 10
-2866.000018557985
 20
3914.999818544132
 30
0.0
 11
-2866.000018557985
 21
3784.999818544131
 31
0.0
  0
LINE
  5
138
330
1F
100
AcDbEntity
  8
0-A_文字
  6
Continuous
 62
     7
370
     9
100
AcDbLine
 10
-2876.000018557985
 20
3924.999818544131
 30
0.0
 11
-2244.966380964436
 21
3924.999818544131
 31
0.0
  0
LINE
  5
139
330
1F
100
AcDbEntity
  8
0-A_文字
  6
Continuous
 62
     7
370
     9
100
AcDbLine
 10
-2244.966380964436
 20
3924.999818544131
 30
0.0
 11
-2244.966380964436
 21
3774.999818544131
 31
0.0
  0
LINE
  5
13A
330
1F
100
AcDbEntity
  8
0-A_文字
  6
Continuous
 62
     7
370
     9
100
AcDbLine
 10
-2876.000018557985
 20
3774.999818544131
 30
0.0
 11
-2244.966380964436
 21
3774.999818544131
 31
0.0
  0
LINE
  5
13B
330
1F
100
AcDbEntity
  8
0-A_文字
  6
Continuous
 62
     7
370
     9
100
AcDbLine
 10
-2866.000018557985
 20
3784.999818544131
 30
0.0
 11
-2254.966380964437
 21
3784.999818544131
 31
0.0
  0
LINE
  5
13C
330
1F
100
AcDbEntity
  8
0-A_文字
  6
Continuous
 62
     7
370
     9
100
AcDbLine
 10
-2254.966380964437
 20
3914.999818544132
 30
0.0
 11
-2254.966380964437
 21
3784.999818544131
 31
0.0
  0
LINE
  5
13D
330
1F
100
AcDbEntity
  8
0-A_文字
  6
Continuous
 62
     7
370
     9
100
AcDbLine
 10
-2866.000018557985
 20
3914.999818544132
 30
0.0
 11
-2254.966380964437
 21
3914.999818544132
 31
0.0
  0
MTEXT
  5
13E
330
1F
100
AcDbEntity
  8
0-A_文字
  6
Continuous
 62
     7
370
     9
100
AcDbMText
 10
-2762.983199761215
 20
3798.576068544132
 30
0.0
 40
77.15250000000171
 41
405.000000000009
 46
0.0
 71
     7
 72
     1
  1
{\fＭＳ ゴシック|b0|i0|c128|p49;片引き戸}
 73
     1
 44
1.0
  0
MTEXT
  5
13F
330
1F
100
AcDbEntity
  8
0-A_文字
  6
Continuous
 62
     7
370
     9
100
AcDbMText
 10
-2811.337310866295
 20
3587.389553644059
 30
0.0
 40
77.72399999999904
 41
509.9999999999936
 46
0.0
 71
     7
 72
     1
  1
{\fＭＳ ゴシック|b0|i0|c128|p49;引き込み戸}
 73
     1
 44
1.0
  0
LINE
  5
140
330
1F
100
AcDbEntity
  8
0-A_文字
  6
Continuous
 62
     7
370
     9
100
AcDbLine
 10
-482.0000185579815
 20
3713.527553644068
 30
0.0
 11
-482.0000185579815
 21
3563.527553644069
 31
0.0
  0
LINE
  5
141
330
1F
100
AcDbEntity
  8
0-A_文字
  6
Continuous
 62
     7
370
     9
100
AcDbLine
 10
-472.0000185579812
 20
3703.527553644069
 30
0.0
 11
-472.0000185579812
 21
3573.527553644069
 31
0.0
  0
LINE
  5
142
330
1F
100
AcDbEntity
  8
0-A_文字
  6
Continuous
 62
     7
370
     9
100
AcDbLine
 10
-482.0000185579815
 20
3713.527553644068
 30
0.0
 11
149.0336190355674
 21
3713.527553644068
 31
0.0
  0
LINE
  5
143
330
1F
100
AcDbEntity
  8
0-A_文字
  6
Continuous
 62
     7
370
     9
100
AcDbLine
 10
149.0336190355674
 20
3713.527553644068
 30
0.0
 11
149.0336190355674
 21
3563.527553644069
 31
0.0
  0
LINE
  5
144
330
1F
100
AcDbEntity
  8
0-A_文字
  6
Continuous
 62
     7
370
     9
100
AcDbLine
 10
-482.0000185579815
 20
3563.527553644069
 30
0.0
 11
149.0336190355674
 21
3563.527553644069
 31
0.0
  0
LINE
  5
145
330
1F
100
AcDbEntity
  8
0-A_文字
  6
Continuous
 62
     7
370
     9
100
AcDbLine
 10
-472.0000185579812
 20
3573.527553644069
 30
0.0
 11
139.0336190355671
 21
3573.527553644069
 31
0.0
  0
LINE
  5
146
330
1F
100
AcDbEntity
  8
0-A_文字
  6
Continuous
 62
     7
370
     9
100
AcDbLine
 10
139.0336190355671
 20
3703.527553644069
 30
0.0
 11
139.0336190355671
 21
3573.527553644069
 31
0.0
  0
LINE
  5
147
330
1F
100
AcDbEntity
  8
0-A_文字
  6
Continuous
 62
     7
370
     9
100
AcDbLine
 10
-472.0000185579812
 20
3703.527553644069
 30
0.0
 11
139.0336190355671
 21
3703.527553644069
 31
0.0
  0
LINE
  5
148
330
1F
100
AcDbEntity
  8
0-A_文字
  6
Continuous
 62
     7
370
     9
100
AcDbLine
 10
-482.0000185579815
 20
3924.999818544131
 30
0.0
 11
-482.0000185579815
 21
3774.999818544131
 31
0.0
  0
LINE
  5
149
330
1F
100
AcDbEntity
  8
0-A_文字
  6
Continuous
 62
     7
370
     9
100
AcDbLine
 10
-472.0000185579812
 20
3914.999818544132
 30
0.0
 11
-472.0000185579812
 21
3784.999818544131
 31
0.0
  0
LINE
  5
14A
330
1F
100
AcDbEntity
  8
0-A_文字
  6
Continuous
 62
     7
370
     9
100
AcDbLine
 10
-482.0000185579815
 20
3924.999818544131
 30
0.0
 11
149.0336190355674
 21
3924.999818544131
 31
0.0
  0
LINE
  5
14B
330
1F
100
AcDbEntity
  8
0-A_文字
  6
Continuous
 62
     7
370
     9
100
AcDbLine
 10
149.0336190355674
 20
3924.999818544131
 30
0.0
 11
149.0336190355674
 21
3774.999818544131
 31
0.0
  0
LINE
  5
14C
330
1F
100
AcDbEntity
  8
0-A_文字
  6
Continuous
 62
     7
370
     9
100
AcDbLine
 10
-482.0000185579815
 20
3774.999818544131
 30
0.0
 11
149.0336190355674
 21
3774.999818544131
 31
0.0
  0
LINE
  5
14D
330
1F
100
AcDbEntity
  8
0-A_文字
  6
Continuous
 62
     7
370
     9
100
AcDbLine
 10
-472.0000185579812
 20
3784.999818544131
 30
0.0
 11
139.0336190355671
 21
3784.999818544131
 31
0.0
  0
LINE
  5
14E
330
1F
100
AcDbEntity
  8
0-A_文字
  6
Continuous
 62
     7
370
     9
100
AcDbLine
 10
139.0336190355671
 20
3914.999818544132
 30
0.0
 11
139.0336190355671
 21
3784.999818544131
 31
0.0
  0
LINE
  5
14F
330
1F
100
AcDbEntity
  8
0-A_文字
  6
Continuous
 62
     7
370
     9
100
AcDbLine
 10
-472.0000185579812
 20
3914.999818544132
 30
0.0
 11
139.0336190355671
 21
3914.999818544132
 31
0.0
  0
MTEXT
  5
150
330
1F
100
AcDbEntity
  8
0-A_文字
  6
Continuous
 62
     7
370
     9
100
AcDbMText
 10
-368.9831997612112
 20
3798.576068544132
 30
0.0
 40
77.15250000000162
 41
405.0000000000086
 46
0.0
 71
     7
 72
     1
  1
{\fＭＳ ゴシック|b0|i0|c128|p49;片引き戸}
 73
     1
 44
1.0
  0
MTEXT
  5
151
330
1F
100
AcDbEntity
  8
0-A_文字
  6
Continuous
 62
     7
370
     9
100
AcDbMText
 10
-417.3373108662907
 20
3587.389553644059
 30
0.0
 40
77.72399999999905
 41
509.9999999999938
 46
0.0
 71
     7
 72
     1
  1
{\fＭＳ ゴシック|b0|i0|c128|p49;引き込み戸}
 73
     1
 44
1.0
  0
LINE
  5
152
330
1F
100
AcDbEntity
  8
0-0_補助線
  6
JWW_HOJO
 62
     7
370
     9
100
AcDbLine
 10
-5490.000018557986
 20
3453.000148463894
 30
0.0
 11
5689.998977248734
 21
3453.000148463894
 31
0.0
  0
LINE
  5
153
330
1F
100
AcDbEntity
  8
0-4_枠
  6
Continuous
 62
    92
370
    13
100
AcDbLine
 10
-4890.000018557986
 20
1418.000148463893
 30
0.0
 11
-4890.000018557986
 21
3453.000148463894
 31
0.0
  0
LINE
  5
154
330
1F
100
AcDbEntity
  8
0-4_枠
  6
Continuous
 62
    92
370
    13
100
AcDbLine
 10
-3066.000018557984
 20
1418.000148463893
 30
0.0
 11
-3066.000018557984
 21
3453.000148463894
 31
0.0
  0
LINE
  5
155
330
1F
100
AcDbEntity
  8
0-4_枠
  6
Continuous
 62
    92
370
    13
100
AcDbLine
 10
-4860.000018557986
 20
3423.000148463894
 30
0.0
 11
-3096.000018557984
 21
3423.000148463894
 31
0.0
  0
LINE
  5
156
330
1F
100
AcDbEntity
  8
0-4_枠
  6
Continuous
 62
    92
370
    13
100
AcDbLine
 10
-4890.000018557986
 20
3453.000148463894
 30
0.0
 11
-3066.000018557984
 21
3453.000148463894
 31
0.0
  0
LINE
  5
157
330
1F
100
AcDbEntity
  8
0-4_枠
  6
Continuous
 62
    92
370
    13
100
AcDbLine
 10
-2316.000018557984
 20
1418.000148463893
 30
0.0
 11
-2316.000018557984
 21
3453.000148463894
 31
0.0
  0
LINE
  5
158
330
1F
100
AcDbEntity
  8
0-4_枠
  6
Continuous
 62
    92
370
    13
100
AcDbLine
 10
-672.0000185579827
 20
1418.000148463893
 30
0.0
 11
-672.0000185579827
 21
3453.000148463894
 31
0.0
  0
LINE
  5
159
330
1F
100
AcDbEntity
  8
0-4_枠
  6
Continuous
 62
    92
370
    13
100
AcDbLine
 10
-2286.000018557984
 20
3423.000148463894
 30
0.0
 11
-702.0000185579827
 21
3423.000148463894
 31
0.0
  0
LINE
  5
15A
330
1F
100
AcDbEntity
  8
0-4_枠
  6
Continuous
 62
    92
370
    13
100
AcDbLine
 10
-2316.000018557984
 20
3453.000148463894
 30
0.0
 11
-672.0000185579827
 21
3453.000148463894
 31
0.0
  0
LINE
  5
15B
330
1F
100
AcDbEntity
  8
0-4_枠
  6
Continuous
 62
    92
370
    13
100
AcDbLine
 10
77.99998144201908
 20
1418.000148463893
 30
0.0
 11
77.99998144201908
 21
3453.000148463894
 31
0.0
  0
LINE
  5
15C
330
1F
100
AcDbEntity
  8
0-4_枠
  6
Continuous
 62
    92
370
    13
100
AcDbLine
 10
1527.99998144202
 20
1418.000148463893
 30
0.0
 11
1527.99998144202
 21
3453.000148463894
 31
0.0
  0
LINE
  5
15D
330
1F
100
AcDbEntity
  8
0-4_枠
  6
Continuous
 62
    92
370
    13
100
AcDbLine
 10
107.9999814420191
 20
3423.000148463894
 30
0.0
 11
1497.99998144202
 21
3423.000148463894
 31
0.0
  0
LINE
  5
15E
330
1F
100
AcDbEntity
  8
0-4_枠
  6
Continuous
 62
    92
370
    13
100
AcDbLine
 10
77.99998144201908
 20
3453.000148463894
 30
0.0
 11
1527.99998144202
 21
3453.000148463894
 31
0.0
  0
LINE
  5
15F
330
1F
100
AcDbEntity
  8
0-4_枠
  6
Continuous
 62
    92
370
    13
100
AcDbLine
 10
-4860.000018557986
 20
1418.000148463893
 30
0.0
 11
-4860.000018557986
 21
3423.000148463894
 31
0.0
  0
LINE
  5
160
330
1F
100
AcDbEntity
  8
0-4_枠
  6
Continuous
 62
    92
370
    13
100
AcDbLine
 10
-3096.000018557984
 20
1418.000148463893
 30
0.0
 11
-3096.000018557984
 21
3423.000148463894
 31
0.0
  0
LINE
  5
161
330
1F
100
AcDbEntity
  8
0-4_枠
  6
Continuous
 62
    92
370
    13
100
AcDbLine
 10
-2286.000018557984
 20
1418.000148463893
 30
0.0
 11
-2286.000018557984
 21
3423.000148463894
 31
0.0
  0
LINE
  5
162
330
1F
100
AcDbEntity
  8
0-4_枠
  6
Continuous
 62
    92
370
    13
100
AcDbLine
 10
-702.0000185579827
 20
1418.000148463893
 30
0.0
 11
-702.0000185579827
 21
3423.000148463894
 31
0.0
  0
LINE
  5
163
330
1F
100
AcDbEntity
  8
0-4_枠
  6
Continuous
 62
    92
370
    13
100
AcDbLine
 10
107.9999814420191
 20
1418.000148463893
 30
0.0
 11
107.9999814420191
 21
3423.000148463894
 31
0.0
  0
LINE
  5
164
330
1F
100
AcDbEntity
  8
0-4_枠
  6
Continuous
 62
    92
370
    13
100
AcDbLine
 10
1497.99998144202
 20
1418.000148463893
 30
0.0
 11
1497.99998144202
 21
3423.000148463894
 31
0.0
  0
LINE
  5
165
330
1F
100
AcDbEntity
  8
0-4_枠
  6
JWW_DASHED1
 62
   120
370
     5
100
AcDbLine
 10
-3993.000018557985
 20
1426.500148463893
 30
0.0
 11
-3993.000018557985
 21
3423.000148463894
 31
0.0
  0
LINE
  5
166
330
1F
100
AcDbEntity
  8
0-4_枠
  6
JWW_DASHED1
 62
   120
370
     5
100
AcDbLine
 10
-3963.000018557985
 20
1426.500148463893
 30
0.0
 11
-3963.000018557985
 21
3423.000148463894
 31
0.0
  0
LINE
  5
167
330
1F
100
AcDbEntity
  8
0-4_枠
  6
JWW_DASHED1
 62
   120
370
     5
100
AcDbLine
 10
-1509.000018557983
 20
1426.500148463893
 30
0.0
 11
-1509.000018557983
 21
3423.000148463894
 31
0.0
  0
LINE
  5
168
330
1F
100
AcDbEntity
  8
0-4_枠
  6
JWW_DASHED1
 62
   120
370
     5
100
AcDbLine
 10
-1479.000018557983
 20
1426.500148463893
 30
0.0
 11
-1479.000018557983
 21
3423.000148463894
 31
0.0
  0
LINE
  5
169
330
1F
100
AcDbEntity
  8
0-4_枠
  6
JWW_DASHED1
 62
   120
370
     5
100
AcDbLine
 10
787.9999814420205
 20
1426.500148463893
 30
0.0
 11
787.9999814420205
 21
3423.000148463894
 31
0.0
  0
LINE
  5
16A
330
1F
100
AcDbEntity
  8
0-4_枠
  6
JWW_DASHED1
 62
   120
370
     5
100
AcDbLine
 10
817.9999814420205
 20
1426.500148463893
 30
0.0
 11
817.9999814420205
 21
3423.000148463894
 31
0.0
  0
LINE
  5
16B
330
1F
100
AcDbEntity
  8
0-C_ハッチ
  6
JWW_DASHED1
 62
   120
370
     5
100
AcDbLine
 10
-3923.000018557981
 20
3312.701108714271
 30
0.0
 11
-3902.20097880836
 21
3333.500148463891
 31
0.0
  0
LINE
  5
16C
330
1F
100
AcDbEntity
  8
0-C_ハッチ
  6
JWW_DASHED1
 62
   120
370
     5
100
AcDbLine
 10
-3923.000018557992
 20
3298.558973090529
 30
0.0
 11
-3888.058843184623
 21
3333.500148463894
 31
0.0
  0
LINE
  5
16D
330
1F
100
AcDbEntity
  8
0-C_ハッチ
  6
JWW_DASHED1
 62
   120
370
     5
100
AcDbLine
 10
-3923.000018557974
 20
3270.274701843079
 30
0.0
 11
-3859.774571937163
 21
3333.500148463888
 31
0.0
  0
LINE
  5
16E
330
1F
100
AcDbEntity
  8
0-C_ハッチ
  6
JWW_DASHED1
 62
   120
370
     5
100
AcDbLine
 10
-3923.000018557988
 20
3256.13256621936
 30
0.0
 11
-3845.632436313457
 21
3333.500148463887
 31
0.0
  0
LINE
  5
16F
330
1F
100
AcDbEntity
  8
0-C_ハッチ
  6
JWW_DASHED1
 62
   120
370
     5
100
AcDbLine
 10
-3923.000018557978
 20
3284.416837466807
 30
0.0
 11
-3873.916707560903
 21
3333.500148463884
 31
0.0
  0
LINE
  5
170
330
1F
100
AcDbEntity
  8
0-C_ハッチ
  6
JWW_DASHED1
 62
   120
370
     5
100
AcDbLine
 10
-3923.000018557981
 20
3326.843244338005
 30
0.0
 11
-3916.3431144321
 21
3333.500148463886
 31
0.0
  0
LINE
  5
171
330
1F
100
AcDbEntity
  8
0-C_ハッチ
  6
JWW_DASHED1
 62
   120
370
     5
100
AcDbLine
 10
-3923.000018557985
 20
3241.990430595629
 30
0.0
 11
-3831.490300689723
 21
3333.500148463886
 31
0.0
  0
LINE
  5
172
330
1F
100
AcDbEntity
  8
0-C_ハッチ
  6
JWW_DASHED1
 62
   120
370
     5
100
AcDbLine
 10
-3923.000018557985
 20
3227.8482949719
 30
0.0
 11
-3817.348165065986
 21
3333.50014846389
 31
0.0
  0
LINE
  5
173
330
1F
100
AcDbEntity
  8
0-C_ハッチ
  6
JWW_DASHED1
 62
   120
370
     5
100
AcDbLine
 10
-3923.000018557985
 20
3199.56402372443
 30
0.0
 11
-3789.063893818527
 21
3333.500148463883
 31
0.0
  0
LINE
  5
174
330
1F
100
AcDbEntity
  8
0-C_ハッチ
  6
JWW_DASHED1
 62
   120
370
     5
100
AcDbLine
 10
-3923.000018557985
 20
3185.421888100724
 30
0.0
 11
-3774.921758194821
 21
3333.500148463883
 31
0.0
  0
LINE
  5
175
330
1F
100
AcDbEntity
  8
0-C_ハッチ
  6
JWW_DASHED1
 62
   120
370
     5
100
AcDbLine
 10
-3923.000018557985
 20
3213.706159348155
 30
0.0
 11
-3803.206029442267
 21
3333.500148463879
 31
0.0
  0
LINE
  5
176
330
1F
100
AcDbEntity
  8
0-C_ハッチ
  6
JWW_DASHED1
 62
   120
370
     5
100
AcDbLine
 10
-3923.000018557985
 20
3171.27975247699
 30
0.0
 11
-3760.779622571086
 21
3333.500148463881
 31
0.0
  0
LINE
  5
177
330
1F
100
AcDbEntity
  8
0-C_ハッチ
  6
JWW_DASHED1
 62
   120
370
     5
100
AcDbLine
 10
-3923.000018557985
 20
3157.137616853265
 30
0.0
 11
-3746.637486947349
 21
3333.500148463885
 31
0.0
  0
LINE
  5
178
330
1F
100
AcDbEntity
  8
0-C_ハッチ
  6
JWW_DASHED1
 62
   120
370
     5
100
AcDbLine
 10
-3923.000018557985
 20
3128.85334560579
 30
0.0
 11
-3718.353215699889
 21
3333.500148463879
 31
0.0
  0
LINE
  5
179
330
1F
100
AcDbEntity
  8
0-C_ハッチ
  6
JWW_DASHED1
 62
   120
370
     5
100
AcDbLine
 10
-3923.000018557985
 20
3114.711209982086
 30
0.0
 11
-3704.211080076183
 21
3333.500148463878
 31
0.0
  0
LINE
  5
17A
330
1F
100
AcDbEntity
  8
0-C_ハッチ
  6
JWW_DASHED1
 62
   120
370
     5
100
AcDbLine
 10
-3923.000018557985
 20
3142.99548122951
 30
0.0
 11
-3732.49535132363
 21
3333.500148463874
 31
0.0
  0
LINE
  5
17B
330
1F
100
AcDbEntity
  8
0-C_ハッチ
  6
JWW_DASHED1
 62
   120
370
     5
100
AcDbLine
 10
-3923.000018557985
 20
3100.569074358351
 30
0.0
 11
-3690.068944452436
 21
3333.500148463891
 31
0.0
  0
LINE
  5
17C
330
1F
100
AcDbEntity
  8
0-C_ハッチ
  6
JWW_DASHED1
 62
   120
370
     5
100
AcDbLine
 10
-3923.000018557985
 20
3086.42693873463
 30
0.0
 11
-3675.926808828699
 21
3333.500148463894
 31
0.0
  0
LINE
  5
17D
330
1F
100
AcDbEntity
  8
0-C_ハッチ
  6
JWW_DASHED1
 62
   120
370
     5
100
AcDbLine
 10
-3923.000018557985
 20
3058.142667487151
 30
0.0
 11
-3647.642537581239
 21
3333.500148463888
 31
0.0
  0
LINE
  5
17E
330
1F
100
AcDbEntity
  8
0-C_ハッチ
  6
JWW_DASHED1
 62
   120
370
     5
100
AcDbLine
 10
-3923.000018557985
 20
3044.000531863447
 30
0.0
 11
-3633.500401957533
 21
3333.500148463887
 31
0.0
  0
LINE
  5
17F
330
1F
100
AcDbEntity
  8
0-C_ハッチ
  6
JWW_DASHED1
 62
   120
370
     5
100
AcDbLine
 10
-3923.000018557985
 20
3072.284803110864
 30
0.0
 11
-3661.784673204979
 21
3333.500148463884
 31
0.0
  0
LINE
  5
180
330
1F
100
AcDbEntity
  8
0-C_ハッチ
  6
JWW_DASHED1
 62
   120
370
     5
100
AcDbLine
 10
-3923.000018557985
 20
3029.858396239713
 30
0.0
 11
-3619.358266333798
 21
3333.500148463886
 31
0.0
  0
LINE
  5
181
330
1F
100
AcDbEntity
  8
0-C_ハッチ
  6
JWW_DASHED1
 62
   120
370
     5
100
AcDbLine
 10
-3923.000018557985
 20
3015.716260615994
 30
0.0
 11
-3605.216130710062
 21
3333.50014846389
 31
0.0
  0
LINE
  5
182
330
1F
100
AcDbEntity
  8
0-C_ハッチ
  6
JWW_DASHED1
 62
   120
370
     5
100
AcDbLine
 10
-3923.000018557985
 20
2987.431989368512
 30
0.0
 11
-3576.931859462602
 21
3333.500148463883
 31
0.0
  0
LINE
  5
183
330
1F
100
AcDbEntity
  8
0-C_ハッチ
  6
JWW_DASHED1
 62
   120
370
     5
100
AcDbLine
 10
-3923.000018557985
 20
3001.574124992219
 30
0.0
 11
-3591.073995086342
 21
3333.500148463879
 31
0.0
  0
LINE
  5
184
330
1F
100
AcDbEntity
  8
0-C_ハッチ
  6
JWW_DASHED1
 62
   120
370
     5
100
AcDbLine
 10
-3921.149754595445
 20
1518.500148463893
 30
0.0
 11
-3163.000018557985
 21
2276.649884501329
 31
0.0
  0
LINE
  5
185
330
1F
100
AcDbEntity
  8
0-C_ハッチ
  6
JWW_DASHED1
 62
   120
370
     5
100
AcDbLine
 10
-3171.616566538241
 20
1518.500148463893
 30
0.0
 11
-3163.000018557985
 21
1527.11669644415
 31
0.0
  0
LINE
  5
186
330
1F
100
AcDbEntity
  8
0-C_ハッチ
  6
JWW_DASHED1
 62
   120
370
     5
100
AcDbLine
 10
-3907.007618971742
 20
1518.500148463893
 30
0.0
 11
-3163.000018557985
 21
2262.507748877623
 31
0.0
  0
LINE
  5
187
330
1F
100
AcDbEntity
  8
0-C_ハッチ
  6
JWW_DASHED1
 62
   120
370
     5
100
AcDbLine
 10
-3892.865483348003
 20
1518.500148463893
 30
0.0
 11
-3163.000018557985
 21
2248.365613253888
 31
0.0
  0
LINE
  5
188
330
1F
100
AcDbEntity
  8
0-C_ハッチ
  6
JWW_DASHED1
 62
   120
370
     5
100
AcDbLine
 10
-3878.723347724301
 20
1518.500148463893
 30
0.0
 11
-3163.000018557985
 21
2234.223477630182
 31
0.0
  0
LINE
  5
189
330
1F
100
AcDbEntity
  8
0-C_ハッチ
  6
JWW_DASHED1
 62
   120
370
     5
100
AcDbLine
 10
-3864.581212100562
 20
1518.500148463893
 30
0.0
 11
-3163.000018557985
 21
2220.081342006446
 31
0.0
  0
LINE
  5
18A
330
1F
100
AcDbEntity
  8
0-C_ハッチ
  6
JWW_DASHED1
 62
   120
370
     5
100
AcDbLine
 10
-3850.439076476858
 20
1518.500148463893
 30
0.0
 11
-3163.000018557985
 21
2205.93920638274
 31
0.0
  0
LINE
  5
18B
330
1F
100
AcDbEntity
  8
0-C_ハッチ
  6
JWW_DASHED1
 62
   120
370
     5
100
AcDbLine
 10
-3836.296940853118
 20
1518.500148463893
 30
0.0
 11
-3163.000018557985
 21
2191.797070759005
 31
0.0
  0
LINE
  5
18C
330
1F
100
AcDbEntity
  8
0-C_ハッチ
  6
JWW_DASHED1
 62
   120
370
     5
100
AcDbLine
 10
-3822.154805229416
 20
1518.500148463893
 30
0.0
 11
-3163.000018557985
 21
2177.654935135299
 31
0.0
  0
LINE
  5
18D
330
1F
100
AcDbEntity
  8
0-C_ハッチ
  6
JWW_DASHED1
 62
   120
370
     5
100
AcDbLine
 10
-3808.012669605677
 20
1518.500148463893
 30
0.0
 11
-3163.000018557985
 21
2163.512799511564
 31
0.0
  0
LINE
  5
18E
330
1F
100
AcDbEntity
  8
0-C_ハッチ
  6
JWW_DASHED1
 62
   120
370
     5
100
AcDbLine
 10
-3793.870533981973
 20
1518.500148463893
 30
0.0
 11
-3163.000018557985
 21
2149.370663887858
 31
0.0
  0
LINE
  5
18F
330
1F
100
AcDbEntity
  8
0-C_ハッチ
  6
JWW_DASHED1
 62
   120
370
     5
100
AcDbLine
 10
-3779.728398358235
 20
1518.500148463893
 30
0.0
 11
-3163.000018557985
 21
2135.228528264123
 31
0.0
  0
LINE
  5
190
330
1F
100
AcDbEntity
  8
0-C_ハッチ
  6
JWW_DASHED1
 62
   120
370
     5
100
AcDbLine
 10
-3765.586262734531
 20
1518.500148463893
 30
0.0
 11
-3163.000018557985
 21
2121.086392640417
 31
0.0
  0
LINE
  5
191
330
1F
100
AcDbEntity
  8
0-C_ハッチ
  6
JWW_DASHED1
 62
   120
370
     5
100
AcDbLine
 10
-3751.444127110793
 20
1518.500148463893
 30
0.0
 11
-3163.000018557985
 21
2106.944257016682
 31
0.0
  0
LINE
  5
192
330
1F
100
AcDbEntity
  8
0-C_ハッチ
  6
JWW_DASHED1
 62
   120
370
     5
100
AcDbLine
 10
-3737.301991487089
 20
1518.500148463893
 30
0.0
 11
-3163.000018557985
 21
2092.802121392976
 31
0.0
  0
LINE
  5
193
330
1F
100
AcDbEntity
  8
0-C_ハッチ
  6
JWW_DASHED1
 62
   120
370
     5
100
AcDbLine
 10
-3723.15985586335
 20
1518.500148463893
 30
0.0
 11
-3163.000018557985
 21
2078.659985769241
 31
0.0
  0
LINE
  5
194
330
1F
100
AcDbEntity
  8
0-C_ハッチ
  6
JWW_DASHED1
 62
   120
370
     5
100
AcDbLine
 10
-3709.017720239647
 20
1518.500148463893
 30
0.0
 11
-3163.000018557985
 21
2064.517850145535
 31
0.0
  0
LINE
  5
195
330
1F
100
AcDbEntity
  8
0-C_ハッチ
  6
JWW_DASHED1
 62
   120
370
     5
100
AcDbLine
 10
-3694.875584615908
 20
1518.500148463893
 30
0.0
 11
-3163.000018557985
 21
2050.375714521799
 31
0.0
  0
LINE
  5
196
330
1F
100
AcDbEntity
  8
0-C_ハッチ
  6
JWW_DASHED1
 62
   120
370
     5
100
AcDbLine
 10
-3680.733448992204
 20
1518.500148463893
 30
0.0
 11
-3163.000018557985
 21
2036.233578898093
 31
0.0
  0
LINE
  5
197
330
1F
100
AcDbEntity
  8
0-C_ハッチ
  6
JWW_DASHED1
 62
   120
370
     5
100
AcDbLine
 10
-3666.591313368466
 20
1518.500148463893
 30
0.0
 11
-3163.000018557985
 21
2022.091443274358
 31
0.0
  0
LINE
  5
198
330
1F
100
AcDbEntity
  8
0-C_ハッチ
  6
JWW_DASHED1
 62
   120
370
     5
100
AcDbLine
 10
-3652.449177744762
 20
1518.500148463893
 30
0.0
 11
-3163.000018557985
 21
2007.949307650652
 31
0.0
  0
LINE
  5
199
330
1F
100
AcDbEntity
  8
0-C_ハッチ
  6
JWW_DASHED1
 62
   120
370
     5
100
AcDbLine
 10
-3638.307042121024
 20
1518.500148463893
 30
0.0
 11
-3163.000018557985
 21
1993.807172026917
 31
0.0
  0
LINE
  5
19A
330
1F
100
AcDbEntity
  8
0-C_ハッチ
  6
JWW_DASHED1
 62
   120
370
     5
100
AcDbLine
 10
-3624.164906497319
 20
1518.500148463893
 30
0.0
 11
-3163.000018557985
 21
1979.665036403211
 31
0.0
  0
LINE
  5
19B
330
1F
100
AcDbEntity
  8
0-C_ハッチ
  6
JWW_DASHED1
 62
   120
370
     5
100
AcDbLine
 10
-3610.022770873582
 20
1518.500148463893
 30
0.0
 11
-3163.000018557985
 21
1965.522900779476
 31
0.0
  0
LINE
  5
19C
330
1F
100
AcDbEntity
  8
0-C_ハッチ
  6
JWW_DASHED1
 62
   120
370
     5
100
AcDbLine
 10
-3595.880635249877
 20
1518.500148463893
 30
0.0
 11
-3163.000018557985
 21
1951.380765155769
 31
0.0
  0
LINE
  5
19D
330
1F
100
AcDbEntity
  8
0-C_ハッチ
  6
JWW_DASHED1
 62
   120
370
     5
100
AcDbLine
 10
-3581.73849962614
 20
1518.500148463893
 30
0.0
 11
-3163.000018557985
 21
1937.238629532035
 31
0.0
  0
LINE
  5
19E
330
1F
100
AcDbEntity
  8
0-C_ハッチ
  6
JWW_DASHED1
 62
   120
370
     5
100
AcDbLine
 10
-3567.596364002435
 20
1518.500148463893
 30
0.0
 11
-3163.000018557985
 21
1923.096493908329
 31
0.0
  0
LINE
  5
19F
330
1F
100
AcDbEntity
  8
0-C_ハッチ
  6
JWW_DASHED1
 62
   120
370
     5
100
AcDbLine
 10
-3553.454228378697
 20
1518.500148463893
 30
0.0
 11
-3163.000018557985
 21
1908.954358284593
 31
0.0
  0
LINE
  5
1A0
330
1F
100
AcDbEntity
  8
0-C_ハッチ
  6
JWW_DASHED1
 62
   120
370
     5
100
AcDbLine
 10
-3539.312092754993
 20
1518.500148463893
 30
0.0
 11
-3163.000018557985
 21
1894.812222660887
 31
0.0
  0
LINE
  5
1A1
330
1F
100
AcDbEntity
  8
0-C_ハッチ
  6
JWW_DASHED1
 62
   120
370
     5
100
AcDbLine
 10
-3525.169957131256
 20
1518.500148463893
 30
0.0
 11
-3163.000018557985
 21
1880.670087037152
 31
0.0
  0
LINE
  5
1A2
330
1F
100
AcDbEntity
  8
0-C_ハッチ
  6
JWW_DASHED1
 62
   120
370
     5
100
AcDbLine
 10
-3511.02782150755
 20
1518.500148463893
 30
0.0
 11
-3163.000018557985
 21
1866.527951413446
 31
0.0
  0
LINE
  5
1A3
330
1F
100
AcDbEntity
  8
0-C_ハッチ
  6
JWW_DASHED1
 62
   120
370
     5
100
AcDbLine
 10
-3496.885685883813
 20
1518.500148463893
 30
0.0
 11
-3163.000018557985
 21
1852.38581578971
 31
0.0
  0
LINE
  5
1A4
330
1F
100
AcDbEntity
  8
0-C_ハッチ
  6
JWW_DASHED1
 62
   120
370
     5
100
AcDbLine
 10
-3482.743550260108
 20
1518.500148463893
 30
0.0
 11
-3163.000018557985
 21
1838.243680166004
 31
0.0
  0
LINE
  5
1A5
330
1F
100
AcDbEntity
  8
0-C_ハッチ
  6
JWW_DASHED1
 62
   120
370
     5
100
AcDbLine
 10
-3468.60141463637
 20
1518.500148463893
 30
0.0
 11
-3163.000018557985
 21
1824.101544542269
 31
0.0
  0
LINE
  5
1A6
330
1F
100
AcDbEntity
  8
0-C_ハッチ
  6
JWW_DASHED1
 62
   120
370
     5
100
AcDbLine
 10
-3454.459279012665
 20
1518.500148463893
 30
0.0
 11
-3163.000018557985
 21
1809.959408918563
 31
0.0
  0
LINE
  5
1A7
330
1F
100
AcDbEntity
  8
0-C_ハッチ
  6
JWW_DASHED1
 62
   120
370
     5
100
AcDbLine
 10
-3440.317143388929
 20
1518.500148463893
 30
0.0
 11
-3163.000018557985
 21
1795.817273294828
 31
0.0
  0
LINE
  5
1A8
330
1F
100
AcDbEntity
  8
0-C_ハッチ
  6
JWW_DASHED1
 62
   120
370
     5
100
AcDbLine
 10
-3426.175007765224
 20
1518.500148463893
 30
0.0
 11
-3163.000018557985
 21
1781.675137671122
 31
0.0
  0
LINE
  5
1A9
330
1F
100
AcDbEntity
  8
0-C_ハッチ
  6
JWW_DASHED1
 62
   120
370
     5
100
AcDbLine
 10
-3412.032872141486
 20
1518.500148463893
 30
0.0
 11
-3163.000018557985
 21
1767.533002047387
 31
0.0
  0
LINE
  5
1AA
330
1F
100
AcDbEntity
  8
0-C_ハッチ
  6
JWW_DASHED1
 62
   120
370
     5
100
AcDbLine
 10
-3397.890736517781
 20
1518.500148463893
 30
0.0
 11
-3163.000018557985
 21
1753.390866423681
 31
0.0
  0
LINE
  5
1AB
330
1F
100
AcDbEntity
  8
0-C_ハッチ
  6
JWW_DASHED1
 62
   120
370
     5
100
AcDbLine
 10
-3383.748600894044
 20
1518.500148463893
 30
0.0
 11
-3163.000018557985
 21
1739.248730799945
 31
0.0
  0
LINE
  5
1AC
330
1F
100
AcDbEntity
  8
0-C_ハッチ
  6
JWW_DASHED1
 62
   120
370
     5
100
AcDbLine
 10
-3369.606465270339
 20
1518.500148463893
 30
0.0
 11
-3163.000018557985
 21
1725.106595176239
 31
0.0
  0
LINE
  5
1AD
330
1F
100
AcDbEntity
  8
0-C_ハッチ
  6
JWW_DASHED1
 62
   120
370
     5
100
AcDbLine
 10
-3355.464329646602
 20
1518.500148463893
 30
0.0
 11
-3163.000018557985
 21
1710.964459552504
 31
0.0
  0
LINE
  5
1AE
330
1F
100
AcDbEntity
  8
0-C_ハッチ
  6
JWW_DASHED1
 62
   120
370
     5
100
AcDbLine
 10
-3341.322194022896
 20
1518.500148463893
 30
0.0
 11
-3163.000018557985
 21
1696.822323928798
 31
0.0
  0
LINE
  5
1AF
330
1F
100
AcDbEntity
  8
0-C_ハッチ
  6
JWW_DASHED1
 62
   120
370
     5
100
AcDbLine
 10
-3327.180058399159
 20
1518.500148463893
 30
0.0
 11
-3163.000018557985
 21
1682.680188305063
 31
0.0
  0
LINE
  5
1B0
330
1F
100
AcDbEntity
  8
0-C_ハッチ
  6
JWW_DASHED1
 62
   120
370
     5
100
AcDbLine
 10
-3313.037922775453
 20
1518.500148463893
 30
0.0
 11
-3163.000018557985
 21
1668.538052681357
 31
0.0
  0
LINE
  5
1B1
330
1F
100
AcDbEntity
  8
0-C_ハッチ
  6
JWW_DASHED1
 62
   120
370
     5
100
AcDbLine
 10
-3298.895787151717
 20
1518.500148463893
 30
0.0
 11
-3163.000018557985
 21
1654.395917057621
 31
0.0
  0
LINE
  5
1B2
330
1F
100
AcDbEntity
  8
0-C_ハッチ
  6
JWW_DASHED1
 62
   120
370
     5
100
AcDbLine
 10
-3284.753651528011
 20
1518.500148463893
 30
0.0
 11
-3163.000018557985
 21
1640.253781433915
 31
0.0
  0
LINE
  5
1B3
330
1F
100
AcDbEntity
  8
0-C_ハッチ
  6
JWW_DASHED1
 62
   120
370
     5
100
AcDbLine
 10
-3270.611515904275
 20
1518.500148463893
 30
0.0
 11
-3163.000018557985
 21
1626.11164581018
 31
0.0
  0
LINE
  5
1B4
330
1F
100
AcDbEntity
  8
0-C_ハッチ
  6
JWW_DASHED1
 62
   120
370
     5
100
AcDbLine
 10
-3256.469380280569
 20
1518.500148463893
 30
0.0
 11
-3163.000018557985
 21
1611.969510186474
 31
0.0
  0
LINE
  5
1B5
330
1F
100
AcDbEntity
  8
0-C_ハッチ
  6
JWW_DASHED1
 62
   120
370
     5
100
AcDbLine
 10
-3242.327244656833
 20
1518.500148463893
 30
0.0
 11
-3163.000018557985
 21
1597.827374562739
 31
0.0
  0
LINE
  5
1B6
330
1F
100
AcDbEntity
  8
0-C_ハッチ
  6
JWW_DASHED1
 62
   120
370
     5
100
AcDbLine
 10
-3228.185109033127
 20
1518.500148463893
 30
0.0
 11
-3163.000018557985
 21
1583.685238939033
 31
0.0
  0
LINE
  5
1B7
330
1F
100
AcDbEntity
  8
0-C_ハッチ
  6
JWW_DASHED1
 62
   120
370
     5
100
AcDbLine
 10
-3214.04297340939
 20
1518.500148463893
 30
0.0
 11
-3163.000018557985
 21
1569.543103315297
 31
0.0
  0
LINE
  5
1B8
330
1F
100
AcDbEntity
  8
0-C_ハッチ
  6
JWW_DASHED1
 62
   120
370
     5
100
AcDbLine
 10
-3199.900837785684
 20
1518.500148463893
 30
0.0
 11
-3163.000018557985
 21
1555.400967691591
 31
0.0
  0
LINE
  5
1B9
330
1F
100
AcDbEntity
  8
0-C_ハッチ
  6
JWW_DASHED1
 62
   120
370
     5
100
AcDbLine
 10
-3185.758702161948
 20
1518.500148463893
 30
0.0
 11
-3163.000018557985
 21
1541.258832067856
 31
0.0
  0
LINE
  5
1BA
330
1F
100
AcDbEntity
  8
0-C_ハッチ
  6
JWW_DASHED1
 62
   120
370
     5
100
AcDbLine
 10
-3923.000018557985
 20
1530.792020125093
 30
0.0
 11
-3163.000018557985
 21
2290.792020125064
 31
0.0
  0
LINE
  5
1BB
330
1F
100
AcDbEntity
  8
0-C_ハッチ
  6
JWW_DASHED1
 62
   120
370
     5
100
AcDbLine
 10
-3923.000018557985
 20
2973.289853744808
 30
0.0
 11
-3562.789723838896
 21
3333.500148463883
 31
0.0
  0
LINE
  5
1BC
330
1F
100
AcDbEntity
  8
0-C_ハッチ
  6
JWW_DASHED1
 62
   120
370
     5
100
AcDbLine
 10
-3923.000018557985
 20
2959.147718121074
 30
0.0
 11
-3548.647588215162
 21
3333.500148463881
 31
0.0
  0
LINE
  5
1BD
330
1F
100
AcDbEntity
  8
0-C_ハッチ
  6
JWW_DASHED1
 62
   120
370
     5
100
AcDbLine
 10
-3923.000018557985
 20
2945.005582497359
 30
0.0
 11
-3534.505452591425
 21
3333.500148463885
 31
0.0
  0
LINE
  5
1BE
330
1F
100
AcDbEntity
  8
0-C_ハッチ
  6
JWW_DASHED1
 62
   120
370
     5
100
AcDbLine
 10
-3923.000018557985
 20
2916.721311249873
 30
0.0
 11
-3506.221181343965
 21
3333.500148463879
 31
0.0
  0
LINE
  5
1BF
330
1F
100
AcDbEntity
  8
0-C_ハッチ
  6
JWW_DASHED1
 62
   120
370
     5
100
AcDbLine
 10
-3923.000018557985
 20
2902.579175626169
 30
0.0
 11
-3492.079045720259
 21
3333.500148463878
 31
0.0
  0
LINE
  5
1C0
330
1F
100
AcDbEntity
  8
0-C_ハッチ
  6
JWW_DASHED1
 62
   120
370
     5
100
AcDbLine
 10
-3923.000018557985
 20
2930.863446873574
 30
0.0
 11
-3520.363316967705
 21
3333.500148463874
 31
0.0
  0
LINE
  5
1C1
330
1F
100
AcDbEntity
  8
0-C_ハッチ
  6
JWW_DASHED1
 62
   120
370
     5
100
AcDbLine
 10
-3923.000018557985
 20
2888.437040002435
 30
0.0
 11
-3477.936910096525
 21
3333.500148463877
 31
0.0
  0
LINE
  5
1C2
330
1F
100
AcDbEntity
  8
0-C_ハッチ
  6
JWW_DASHED1
 62
   120
370
     5
100
AcDbLine
 10
-3923.000018557985
 20
2874.294904378723
 30
0.0
 11
-3463.794774472788
 21
3333.500148463881
 31
0.0
  0
LINE
  5
1C3
330
1F
100
AcDbEntity
  8
0-C_ハッチ
  6
JWW_DASHED1
 62
   120
370
     5
100
AcDbLine
 10
-3923.000018557985
 20
2846.010633131234
 30
0.0
 11
-3435.510503225328
 21
3333.500148463874
 31
0.0
  0
LINE
  5
1C4
330
1F
100
AcDbEntity
  8
0-C_ハッチ
  6
JWW_DASHED1
 62
   120
370
     5
100
AcDbLine
 10
-3923.000018557985
 20
2831.86849750753
 30
0.0
 11
-3421.368367601622
 21
3333.500148463873
 31
0.0
  0
LINE
  5
1C5
330
1F
100
AcDbEntity
  8
0-C_ハッチ
  6
JWW_DASHED1
 62
   120
370
     5
100
AcDbLine
 10
-3923.000018557985
 20
2860.152768754929
 30
0.0
 11
-3449.652638849068
 21
3333.50014846387
 31
0.0
  0
LINE
  5
1C6
330
1F
100
AcDbEntity
  8
0-C_ハッチ
  6
JWW_DASHED1
 62
   120
370
     5
100
AcDbLine
 10
-3923.000018557985
 20
2817.726361883796
 30
0.0
 11
-3407.226231977888
 21
3333.500148463872
 31
0.0
  0
LINE
  5
1C7
330
1F
100
AcDbEntity
  8
0-C_ハッチ
  6
JWW_DASHED1
 62
   120
370
     5
100
AcDbLine
 10
-3923.000018557985
 20
2803.584226260088
 30
0.0
 11
-3393.084096354151
 21
3333.500148463876
 31
0.0
  0
LINE
  5
1C8
330
1F
100
AcDbEntity
  8
0-C_ハッチ
  6
JWW_DASHED1
 62
   120
370
     5
100
AcDbLine
 10
-3923.000018557985
 20
2775.299955012595
 30
0.0
 11
-3364.799825106692
 21
3333.500148463869
 31
0.0
  0
LINE
  5
1C9
330
1F
100
AcDbEntity
  8
0-C_ハッチ
  6
JWW_DASHED1
 62
   120
370
     5
100
AcDbLine
 10
-3923.000018557985
 20
2761.157819388892
 30
0.0
 11
-3350.657689482985
 21
3333.500148463869
 31
0.0
  0
LINE
  5
1CA
330
1F
100
AcDbEntity
  8
0-C_ハッチ
  6
JWW_DASHED1
 62
   120
370
     5
100
AcDbLine
 10
-3923.000018557985
 20
2789.442090636283
 30
0.0
 11
-3378.941960730432
 21
3333.500148463865
 31
0.0
  0
LINE
  5
1CB
330
1F
100
AcDbEntity
  8
0-C_ハッチ
  6
JWW_DASHED1
 62
   120
370
     5
100
AcDbLine
 10
-3923.000018557985
 20
2747.015683765157
 30
0.0
 11
-3336.515553859251
 21
3333.500148463867
 31
0.0
  0
LINE
  5
1CC
330
1F
100
AcDbEntity
  8
0-C_ハッチ
  6
JWW_DASHED1
 62
   120
370
     5
100
AcDbLine
 10
-3923.000018557985
 20
2732.873548141452
 30
0.0
 11
-3322.373418235514
 21
3333.500148463871
 31
0.0
  0
LINE
  5
1CD
330
1F
100
AcDbEntity
  8
0-C_ハッチ
  6
JWW_DASHED1
 62
   120
370
     5
100
AcDbLine
 10
-3923.000018557985
 20
2704.589276893956
 30
0.0
 11
-3294.089146988054
 21
3333.500148463865
 31
0.0
  0
LINE
  5
1CE
330
1F
100
AcDbEntity
  8
0-C_ハッチ
  6
JWW_DASHED1
 62
   120
370
     5
100
AcDbLine
 10
-3923.000018557985
 20
2690.447141270252
 30
0.0
 11
-3279.947011364348
 21
3333.500148463864
 31
0.0
  0
LINE
  5
1CF
330
1F
100
AcDbEntity
  8
0-C_ハッチ
  6
JWW_DASHED1
 62
   120
370
     5
100
AcDbLine
 10
-3923.000018557985
 20
2718.731412517639
 30
0.0
 11
-3308.231282611795
 21
3333.50014846386
 31
0.0
  0
LINE
  5
1D0
330
1F
100
AcDbEntity
  8
0-C_ハッチ
  6
JWW_DASHED1
 62
   120
370
     5
100
AcDbLine
 10
-3923.000018557985
 20
2676.305005646518
 30
0.0
 11
-3265.804875740614
 21
3333.500148463863
 31
0.0
  0
LINE
  5
1D1
330
1F
100
AcDbEntity
  8
0-C_ハッチ
  6
JWW_DASHED1
 62
   120
370
     5
100
AcDbLine
 10
-3923.000018557985
 20
2662.162870022817
 30
0.0
 11
-3251.662740116878
 21
3333.500148463866
 31
0.0
  0
LINE
  5
1D2
330
1F
100
AcDbEntity
  8
0-C_ハッチ
  6
JWW_DASHED1
 62
   120
370
     5
100
AcDbLine
 10
-3923.000018557985
 20
2633.878598775316
 30
0.0
 11
-3223.378468869418
 21
3333.50014846386
 31
0.0
  0
LINE
  5
1D3
330
1F
100
AcDbEntity
  8
0-C_ハッチ
  6
JWW_DASHED1
 62
   120
370
     5
100
AcDbLine
 10
-3923.000018557985
 20
2619.736463151615
 30
0.0
 11
-3209.236333245712
 21
3333.50014846386
 31
0.0
  0
LINE
  5
1D4
330
1F
100
AcDbEntity
  8
0-C_ハッチ
  6
JWW_DASHED1
 62
   120
370
     5
100
AcDbLine
 10
-3923.000018557985
 20
2648.020734398992
 30
0.0
 11
-3237.520604493158
 21
3333.500148463856
 31
0.0
  0
LINE
  5
1D5
330
1F
100
AcDbEntity
  8
0-C_ハッチ
  6
JWW_DASHED1
 62
   120
370
     5
100
AcDbLine
 10
-3923.000018557985
 20
2605.59432752788
 30
0.0
 11
-3195.094197621977
 21
3333.500148463858
 31
0.0
  0
LINE
  5
1D6
330
1F
100
AcDbEntity
  8
0-C_ハッチ
  6
JWW_DASHED1
 62
   120
370
     5
100
AcDbLine
 10
-3923.000018557985
 20
2591.452191904181
 30
0.0
 11
-3180.95206199824
 21
3333.500148463861
 31
0.0
  0
LINE
  5
1D7
330
1F
100
AcDbEntity
  8
0-C_ハッチ
  6
JWW_DASHED1
 62
   120
370
     5
100
AcDbLine
 10
-3923.000018557985
 20
2577.310056280348
 30
0.0
 11
-3166.809926374521
 21
3333.500148463851
 31
0.0
  0
LINE
  5
1D8
330
1F
100
AcDbEntity
  8
0-C_ハッチ
  6
JWW_DASHED1
 62
   120
370
     5
100
AcDbLine
 10
-3923.000018557985
 20
2563.167920656677
 30
0.0
 11
-3163.000018557985
 21
3323.167920656652
 31
0.0
  0
LINE
  5
1D9
330
1F
100
AcDbEntity
  8
0-C_ハッチ
  6
JWW_DASHED1
 62
   120
370
     5
100
AcDbLine
 10
-3923.000018557985
 20
2549.025785032975
 30
0.0
 11
-3163.000018557985
 21
3309.025785032946
 31
0.0
  0
LINE
  5
1DA
330
1F
100
AcDbEntity
  8
0-C_ハッチ
  6
JWW_DASHED1
 62
   120
370
     5
100
AcDbLine
 10
-3923.000018557985
 20
2534.883649409236
 30
0.0
 11
-3163.000018557985
 21
3294.883649409211
 31
0.0
  0
LINE
  5
1DB
330
1F
100
AcDbEntity
  8
0-C_ハッチ
  6
JWW_DASHED1
 62
   120
370
     5
100
AcDbLine
 10
-3923.000018557985
 20
2520.741513785533
 30
0.0
 11
-3163.000018557985
 21
3280.741513785505
 31
0.0
  0
LINE
  5
1DC
330
1F
100
AcDbEntity
  8
0-C_ハッチ
  6
JWW_DASHED1
 62
   120
370
     5
100
AcDbLine
 10
-3923.000018557985
 20
2506.599378161794
 30
0.0
 11
-3163.000018557985
 21
3266.599378161769
 31
0.0
  0
LINE
  5
1DD
330
1F
100
AcDbEntity
  8
0-C_ハッチ
  6
JWW_DASHED1
 62
   120
370
     5
100
AcDbLine
 10
-3923.000018557985
 20
2492.457242538092
 30
0.0
 11
-3163.000018557985
 21
3252.457242538063
 31
0.0
  0
LINE
  5
1DE
330
1F
100
AcDbEntity
  8
0-C_ハッチ
  6
JWW_DASHED1
 62
   120
370
     5
100
AcDbLine
 10
-3923.000018557985
 20
2478.315106914353
 30
0.0
 11
-3163.000018557985
 21
3238.315106914328
 31
0.0
  0
LINE
  5
1DF
330
1F
100
AcDbEntity
  8
0-C_ハッチ
  6
JWW_DASHED1
 62
   120
370
     5
100
AcDbLine
 10
-3923.000018557985
 20
2464.172971290651
 30
0.0
 11
-3163.000018557985
 21
3224.172971290622
 31
0.0
  0
LINE
  5
1E0
330
1F
100
AcDbEntity
  8
0-C_ハッチ
  6
JWW_DASHED1
 62
   120
370
     5
100
AcDbLine
 10
-3923.000018557985
 20
2450.030835666912
 30
0.0
 11
-3163.000018557985
 21
3210.030835666887
 31
0.0
  0
LINE
  5
1E1
330
1F
100
AcDbEntity
  8
0-C_ハッチ
  6
JWW_DASHED1
 62
   120
370
     5
100
AcDbLine
 10
-3923.000018557985
 20
2435.88870004321
 30
0.0
 11
-3163.000018557985
 21
3195.888700043181
 31
0.0
  0
LINE
  5
1E2
330
1F
100
AcDbEntity
  8
0-C_ハッチ
  6
JWW_DASHED1
 62
   120
370
     5
100
AcDbLine
 10
-3923.000018557985
 20
2421.746564419471
 30
0.0
 11
-3163.000018557985
 21
3181.746564419446
 31
0.0
  0
LINE
  5
1E3
330
1F
100
AcDbEntity
  8
0-C_ハッチ
  6
JWW_DASHED1
 62
   120
370
     5
100
AcDbLine
 10
-3923.000018557985
 20
2407.604428795769
 30
0.0
 11
-3163.000018557985
 21
3167.60442879574
 31
0.0
  0
LINE
  5
1E4
330
1F
100
AcDbEntity
  8
0-C_ハッチ
  6
JWW_DASHED1
 62
   120
370
     5
100
AcDbLine
 10
-3923.000018557985
 20
2393.46229317203
 30
0.0
 11
-3163.000018557985
 21
3153.462293172005
 31
0.0
  0
LINE
  5
1E5
330
1F
100
AcDbEntity
  8
0-C_ハッチ
  6
JWW_DASHED1
 62
   120
370
     5
100
AcDbLine
 10
-3923.000018557985
 20
2379.320157548328
 30
0.0
 11
-3163.000018557985
 21
3139.320157548299
 31
0.0
  0
LINE
  5
1E6
330
1F
100
AcDbEntity
  8
0-C_ハッチ
  6
JWW_DASHED1
 62
   120
370
     5
100
AcDbLine
 10
-3923.000018557985
 20
2365.178021924589
 30
0.0
 11
-3163.000018557985
 21
3125.178021924564
 31
0.0
  0
LINE
  5
1E7
330
1F
100
AcDbEntity
  8
0-C_ハッチ
  6
JWW_DASHED1
 62
   120
370
     5
100
AcDbLine
 10
-3923.000018557985
 20
2351.035886300887
 30
0.0
 11
-3163.000018557985
 21
3111.035886300858
 31
0.0
  0
LINE
  5
1E8
330
1F
100
AcDbEntity
  8
0-C_ハッチ
  6
JWW_DASHED1
 62
   120
370
     5
100
AcDbLine
 10
-3923.000018557985
 20
2336.893750677148
 30
0.0
 11
-3163.000018557985
 21
3096.893750677123
 31
0.0
  0
LINE
  5
1E9
330
1F
100
AcDbEntity
  8
0-C_ハッチ
  6
JWW_DASHED1
 62
   120
370
     5
100
AcDbLine
 10
-3923.000018557985
 20
2322.751615053446
 30
0.0
 11
-3163.000018557985
 21
3082.751615053417
 31
0.0
  0
LINE
  5
1EA
330
1F
100
AcDbEntity
  8
0-C_ハッチ
  6
JWW_DASHED1
 62
   120
370
     5
100
AcDbLine
 10
-3923.000018557985
 20
2308.609479429707
 30
0.0
 11
-3163.000018557985
 21
3068.609479429681
 31
0.0
  0
LINE
  5
1EB
330
1F
100
AcDbEntity
  8
0-C_ハッチ
  6
JWW_DASHED1
 62
   120
370
     5
100
AcDbLine
 10
-3923.000018557985
 20
2294.467343806004
 30
0.0
 11
-3163.000018557985
 21
3054.467343805975
 31
0.0
  0
LINE
  5
1EC
330
1F
100
AcDbEntity
  8
0-C_ハッチ
  6
JWW_DASHED1
 62
   120
370
     5
100
AcDbLine
 10
-3923.000018557985
 20
2280.325208182265
 30
0.0
 11
-3163.000018557985
 21
3040.32520818224
 31
0.0
  0
LINE
  5
1ED
330
1F
100
AcDbEntity
  8
0-C_ハッチ
  6
JWW_DASHED1
 62
   120
370
     5
100
AcDbLine
 10
-3923.000018557985
 20
2266.183072558563
 30
0.0
 11
-3163.000018557985
 21
3026.183072558534
 31
0.0
  0
LINE
  5
1EE
330
1F
100
AcDbEntity
  8
0-C_ハッチ
  6
JWW_DASHED1
 62
   120
370
     5
100
AcDbLine
 10
-3923.000018557985
 20
2252.040936934824
 30
0.0
 11
-3163.000018557985
 21
3012.040936934799
 31
0.0
  0
LINE
  5
1EF
330
1F
100
AcDbEntity
  8
0-C_ハッチ
  6
JWW_DASHED1
 62
   120
370
     5
100
AcDbLine
 10
-3923.000018557985
 20
2237.898801311122
 30
0.0
 11
-3163.000018557985
 21
2997.898801311093
 31
0.0
  0
LINE
  5
1F0
330
1F
100
AcDbEntity
  8
0-C_ハッチ
  6
JWW_DASHED1
 62
   120
370
     5
100
AcDbLine
 10
-3923.000018557985
 20
2223.756665687382
 30
0.0
 11
-3163.000018557985
 21
2983.756665687358
 31
0.0
  0
LINE
  5
1F1
330
1F
100
AcDbEntity
  8
0-C_ハッチ
  6
JWW_DASHED1
 62
   120
370
     5
100
AcDbLine
 10
-3923.000018557985
 20
2209.61453006368
 30
0.0
 11
-3163.000018557985
 21
2969.614530063652
 31
0.0
  0
LINE
  5
1F2
330
1F
100
AcDbEntity
  8
0-C_ハッチ
  6
JWW_DASHED1
 62
   120
370
     5
100
AcDbLine
 10
-3923.000018557985
 20
2195.472394439942
 30
0.0
 11
-3163.000018557985
 21
2955.472394439917
 31
0.0
  0
LINE
  5
1F3
330
1F
100
AcDbEntity
  8
0-C_ハッチ
  6
JWW_DASHED1
 62
   120
370
     5
100
AcDbLine
 10
-3923.000018557985
 20
2181.330258816239
 30
0.0
 11
-3163.000018557985
 21
2941.330258816211
 31
0.0
  0
LINE
  5
1F4
330
1F
100
AcDbEntity
  8
0-C_ハッチ
  6
JWW_DASHED1
 62
   120
370
     5
100
AcDbLine
 10
-3923.000018557985
 20
2167.1881231925
 30
0.0
 11
-3163.000018557985
 21
2927.188123192475
 31
0.0
  0
LINE
  5
1F5
330
1F
100
AcDbEntity
  8
0-C_ハッチ
  6
JWW_DASHED1
 62
   120
370
     5
100
AcDbLine
 10
-3923.000018557985
 20
2153.045987568798
 30
0.0
 11
-3163.000018557985
 21
2913.045987568769
 31
0.0
  0
LINE
  5
1F6
330
1F
100
AcDbEntity
  8
0-C_ハッチ
  6
JWW_DASHED1
 62
   120
370
     5
100
AcDbLine
 10
-3923.000018557985
 20
2138.903851945059
 30
0.0
 11
-3163.000018557985
 21
2898.903851945034
 31
0.0
  0
LINE
  5
1F7
330
1F
100
AcDbEntity
  8
0-C_ハッチ
  6
JWW_DASHED1
 62
   120
370
     5
100
AcDbLine
 10
-3923.000018557985
 20
2124.761716321357
 30
0.0
 11
-3163.000018557985
 21
2884.761716321328
 31
0.0
  0
LINE
  5
1F8
330
1F
100
AcDbEntity
  8
0-C_ハッチ
  6
JWW_DASHED1
 62
   120
370
     5
100
AcDbLine
 10
-3923.000018557985
 20
2110.619580697618
 30
0.0
 11
-3163.000018557985
 21
2870.619580697593
 31
0.0
  0
LINE
  5
1F9
330
1F
100
AcDbEntity
  8
0-C_ハッチ
  6
JWW_DASHED1
 62
   120
370
     5
100
AcDbLine
 10
-3923.000018557985
 20
2096.477445073916
 30
0.0
 11
-3163.000018557985
 21
2856.477445073887
 31
0.0
  0
LINE
  5
1FA
330
1F
100
AcDbEntity
  8
0-C_ハッチ
  6
JWW_DASHED1
 62
   120
370
     5
100
AcDbLine
 10
-3923.000018557985
 20
2082.335309450177
 30
0.0
 11
-3163.000018557985
 21
2842.335309450152
 31
0.0
  0
LINE
  5
1FB
330
1F
100
AcDbEntity
  8
0-C_ハッチ
  6
JWW_DASHED1
 62
   120
370
     5
100
AcDbLine
 10
-3923.000018557985
 20
2068.193173826475
 30
0.0
 11
-3163.000018557985
 21
2828.193173826446
 31
0.0
  0
LINE
  5
1FC
330
1F
100
AcDbEntity
  8
0-C_ハッチ
  6
JWW_DASHED1
 62
   120
370
     5
100
AcDbLine
 10
-3923.000018557985
 20
2054.051038202736
 30
0.0
 11
-3163.000018557985
 21
2814.051038202711
 31
0.0
  0
LINE
  5
1FD
330
1F
100
AcDbEntity
  8
0-C_ハッチ
  6
JWW_DASHED1
 62
   120
370
     5
100
AcDbLine
 10
-3923.000018557985
 20
2039.908902579034
 30
0.0
 11
-3163.000018557985
 21
2799.908902579005
 31
0.0
  0
LINE
  5
1FE
330
1F
100
AcDbEntity
  8
0-C_ハッチ
  6
JWW_DASHED1
 62
   120
370
     5
100
AcDbLine
 10
-3923.000018557985
 20
2025.766766955295
 30
0.0
 11
-3163.000018557985
 21
2785.76676695527
 31
0.0
  0
LINE
  5
1FF
330
1F
100
AcDbEntity
  8
0-C_ハッチ
  6
JWW_DASHED1
 62
   120
370
     5
100
AcDbLine
 10
-3923.000018557985
 20
2011.624631331593
 30
0.0
 11
-3163.000018557985
 21
2771.624631331564
 31
0.0
  0
LINE
  5
200
330
1F
100
AcDbEntity
  8
0-C_ハッチ
  6
JWW_DASHED1
 62
   120
370
     5
100
AcDbLine
 10
-3923.000018557985
 20
1997.482495707854
 30
0.0
 11
-3163.000018557985
 21
2757.482495707829
 31
0.0
  0
LINE
  5
201
330
1F
100
AcDbEntity
  8
0-C_ハッチ
  6
JWW_DASHED1
 62
   120
370
     5
100
AcDbLine
 10
-3923.000018557985
 20
1983.340360084152
 30
0.0
 11
-3163.000018557985
 21
2743.340360084123
 31
0.0
  0
LINE
  5
202
330
1F
100
AcDbEntity
  8
0-C_ハッチ
  6
JWW_DASHED1
 62
   120
370
     5
100
AcDbLine
 10
-3923.000018557985
 20
1969.198224460413
 30
0.0
 11
-3163.000018557985
 21
2729.198224460388
 31
0.0
  0
LINE
  5
203
330
1F
100
AcDbEntity
  8
0-C_ハッチ
  6
JWW_DASHED1
 62
   120
370
     5
100
AcDbLine
 10
-3923.000018557985
 20
1955.05608883671
 30
0.0
 11
-3163.000018557985
 21
2715.056088836682
 31
0.0
  0
LINE
  5
204
330
1F
100
AcDbEntity
  8
0-C_ハッチ
  6
JWW_DASHED1
 62
   120
370
     5
100
AcDbLine
 10
-3923.000018557985
 20
1940.913953212972
 30
0.0
 11
-3163.000018557985
 21
2700.913953212947
 31
0.0
  0
LINE
  5
205
330
1F
100
AcDbEntity
  8
0-C_ハッチ
  6
JWW_DASHED1
 62
   120
370
     5
100
AcDbLine
 10
-3923.000018557985
 20
1926.771817589269
 30
0.0
 11
-3163.000018557985
 21
2686.771817589241
 31
0.0
  0
LINE
  5
206
330
1F
100
AcDbEntity
  8
0-C_ハッチ
  6
JWW_DASHED1
 62
   120
370
     5
100
AcDbLine
 10
-3923.000018557985
 20
1912.629681965531
 30
0.0
 11
-3163.000018557985
 21
2672.629681965505
 31
0.0
  0
LINE
  5
207
330
1F
100
AcDbEntity
  8
0-C_ハッチ
  6
JWW_DASHED1
 62
   120
370
     5
100
AcDbLine
 10
-3923.000018557985
 20
1898.487546341828
 30
0.0
 11
-3163.000018557985
 21
2658.487546341799
 31
0.0
  0
LINE
  5
208
330
1F
100
AcDbEntity
  8
0-C_ハッチ
  6
JWW_DASHED1
 62
   120
370
     5
100
AcDbLine
 10
-3923.000018557985
 20
1884.34541071809
 30
0.0
 11
-3163.000018557985
 21
2644.345410718065
 31
0.0
  0
LINE
  5
209
330
1F
100
AcDbEntity
  8
0-C_ハッチ
  6
JWW_DASHED1
 62
   120
370
     5
100
AcDbLine
 10
-3923.000018557985
 20
1870.203275094387
 30
0.0
 11
-3163.000018557985
 21
2630.203275094359
 31
0.0
  0
LINE
  5
20A
330
1F
100
AcDbEntity
  8
0-C_ハッチ
  6
JWW_DASHED1
 62
   120
370
     5
100
AcDbLine
 10
-3923.000018557985
 20
1856.061139470648
 30
0.0
 11
-3163.000018557985
 21
2616.061139470623
 31
0.0
  0
LINE
  5
20B
330
1F
100
AcDbEntity
  8
0-C_ハッチ
  6
JWW_DASHED1
 62
   120
370
     5
100
AcDbLine
 10
-3923.000018557985
 20
1841.919003846946
 30
0.0
 11
-3163.000018557985
 21
2601.919003846917
 31
0.0
  0
LINE
  5
20C
330
1F
100
AcDbEntity
  8
0-C_ハッチ
  6
JWW_DASHED1
 62
   120
370
     5
100
AcDbLine
 10
-3923.000018557985
 20
1827.776868223207
 30
0.0
 11
-3163.000018557985
 21
2587.776868223182
 31
0.0
  0
LINE
  5
20D
330
1F
100
AcDbEntity
  8
0-C_ハッチ
  6
JWW_DASHED1
 62
   120
370
     5
100
AcDbLine
 10
-3923.000018557985
 20
1813.634732599505
 30
0.0
 11
-3163.000018557985
 21
2573.634732599476
 31
0.0
  0
LINE
  5
20E
330
1F
100
AcDbEntity
  8
0-C_ハッチ
  6
JWW_DASHED1
 62
   120
370
     5
100
AcDbLine
 10
-3923.000018557985
 20
1799.492596975766
 30
0.0
 11
-3163.000018557985
 21
2559.492596975741
 31
0.0
  0
LINE
  5
20F
330
1F
100
AcDbEntity
  8
0-C_ハッチ
  6
JWW_DASHED1
 62
   120
370
     5
100
AcDbLine
 10
-3923.000018557985
 20
1785.350461352064
 30
0.0
 11
-3163.000018557985
 21
2545.350461352035
 31
0.0
  0
LINE
  5
210
330
1F
100
AcDbEntity
  8
0-C_ハッチ
  6
JWW_DASHED1
 62
   120
370
     5
100
AcDbLine
 10
-3923.000018557985
 20
1771.208325728325
 30
0.0
 11
-3163.000018557985
 21
2531.2083257283
 31
0.0
  0
LINE
  5
211
330
1F
100
AcDbEntity
  8
0-C_ハッチ
  6
JWW_DASHED1
 62
   120
370
     5
100
AcDbLine
 10
-3923.000018557985
 20
1757.066190104623
 30
0.0
 11
-3163.000018557985
 21
2517.066190104594
 31
0.0
  0
LINE
  5
212
330
1F
100
AcDbEntity
  8
0-C_ハッチ
  6
JWW_DASHED1
 62
   120
370
     5
100
AcDbLine
 10
-3923.000018557985
 20
1742.924054480884
 30
0.0
 11
-3163.000018557985
 21
2502.924054480859
 31
0.0
  0
LINE
  5
213
330
1F
100
AcDbEntity
  8
0-C_ハッチ
  6
JWW_DASHED1
 62
   120
370
     5
100
AcDbLine
 10
-3923.000018557985
 20
1728.781918857182
 30
0.0
 11
-3163.000018557985
 21
2488.781918857153
 31
0.0
  0
LINE
  5
214
330
1F
100
AcDbEntity
  8
0-C_ハッチ
  6
JWW_DASHED1
 62
   120
370
     5
100
AcDbLine
 10
-3923.000018557985
 20
1714.639783233443
 30
0.0
 11
-3163.000018557985
 21
2474.639783233417
 31
0.0
  0
LINE
  5
215
330
1F
100
AcDbEntity
  8
0-C_ハッチ
  6
JWW_DASHED1
 62
   120
370
     5
100
AcDbLine
 10
-3923.000018557985
 20
1700.49764760974
 30
0.0
 11
-3163.000018557985
 21
2460.497647609711
 31
0.0
  0
LINE
  5
216
330
1F
100
AcDbEntity
  8
0-C_ハッチ
  6
JWW_DASHED1
 62
   120
370
     5
100
AcDbLine
 10
-3923.000018557985
 20
1686.355511986001
 30
0.0
 11
-3163.000018557985
 21
2446.355511985976
 31
0.0
  0
LINE
  5
217
330
1F
100
AcDbEntity
  8
0-C_ハッチ
  6
JWW_DASHED1
 62
   120
370
     5
100
AcDbLine
 10
-3923.000018557985
 20
1672.213376362299
 30
0.0
 11
-3163.000018557985
 21
2432.21337636227
 31
0.0
  0
LINE
  5
218
330
1F
100
AcDbEntity
  8
0-C_ハッチ
  6
JWW_DASHED1
 62
   120
370
     5
100
AcDbLine
 10
-3923.000018557985
 20
1658.07124073856
 30
0.0
 11
-3163.000018557985
 21
2418.071240738535
 31
0.0
  0
LINE
  5
219
330
1F
100
AcDbEntity
  8
0-C_ハッチ
  6
JWW_DASHED1
 62
   120
370
     5
100
AcDbLine
 10
-3923.000018557985
 20
1643.929105114858
 30
0.0
 11
-3163.000018557985
 21
2403.929105114829
 31
0.0
  0
LINE
  5
21A
330
1F
100
AcDbEntity
  8
0-C_ハッチ
  6
JWW_DASHED1
 62
   120
370
     5
100
AcDbLine
 10
-3923.000018557985
 20
1629.786969491119
 30
0.0
 11
-3163.000018557985
 21
2389.786969491094
 31
0.0
  0
LINE
  5
21B
330
1F
100
AcDbEntity
  8
0-C_ハッチ
  6
JWW_DASHED1
 62
   120
370
     5
100
AcDbLine
 10
-3923.000018557985
 20
1615.644833867417
 30
0.0
 11
-3163.000018557985
 21
2375.644833867388
 31
0.0
  0
LINE
  5
21C
330
1F
100
AcDbEntity
  8
0-C_ハッチ
  6
JWW_DASHED1
 62
   120
370
     5
100
AcDbLine
 10
-3923.000018557985
 20
1601.502698243678
 30
0.0
 11
-3163.000018557985
 21
2361.502698243653
 31
0.0
  0
LINE
  5
21D
330
1F
100
AcDbEntity
  8
0-C_ハッチ
  6
JWW_DASHED1
 62
   120
370
     5
100
AcDbLine
 10
-3923.000018557985
 20
1587.360562619976
 30
0.0
 11
-3163.000018557985
 21
2347.360562619946
 31
0.0
  0
LINE
  5
21E
330
1F
100
AcDbEntity
  8
0-C_ハッチ
  6
JWW_DASHED1
 62
   120
370
     5
100
AcDbLine
 10
-3923.000018557985
 20
1573.218426996237
 30
0.0
 11
-3163.000018557985
 21
2333.218426996212
 31
0.0
  0
LINE
  5
21F
330
1F
100
AcDbEntity
  8
0-C_ハッチ
  6
JWW_DASHED1
 62
   120
370
     5
100
AcDbLine
 10
-3923.000018557985
 20
1559.076291372534
 30
0.0
 11
-3163.000018557985
 21
2319.076291372506
 31
0.0
  0
LINE
  5
220
330
1F
100
AcDbEntity
  8
0-C_ハッチ
  6
JWW_DASHED1
 62
   120
370
     5
100
AcDbLine
 10
-3923.000018557985
 20
1544.934155748796
 30
0.0
 11
-3163.000018557985
 21
2304.934155748771
 31
0.0
  0
LINE
  5
221
330
1F
100
AcDbEntity
  8
0-C_ハッチ
  6
JWW_DASHED1
 62
   120
370
     5
100
AcDbLine
 10
-1439.000018557979
 20
3312.701108714271
 30
0.0
 11
-1418.200978808358
 21
3333.500148463891
 31
0.0
  0
LINE
  5
222
330
1F
100
AcDbEntity
  8
0-C_ハッチ
  6
JWW_DASHED1
 62
   120
370
     5
100
AcDbLine
 10
-1439.000018557989
 20
3298.558973090529
 30
0.0
 11
-1404.058843184621
 21
3333.500148463894
 31
0.0
  0
LINE
  5
223
330
1F
100
AcDbEntity
  8
0-C_ハッチ
  6
JWW_DASHED1
 62
   120
370
     5
100
AcDbLine
 10
-1439.000018557972
 20
3270.274701843079
 30
0.0
 11
-1375.774571937161
 21
3333.500148463888
 31
0.0
  0
LINE
  5
224
330
1F
100
AcDbEntity
  8
0-C_ハッチ
  6
JWW_DASHED1
 62
   120
370
     5
100
AcDbLine
 10
-1439.000018557986
 20
3256.13256621936
 30
0.0
 11
-1361.632436313455
 21
3333.500148463887
 31
0.0
  0
LINE
  5
225
330
1F
100
AcDbEntity
  8
0-C_ハッチ
  6
JWW_DASHED1
 62
   120
370
     5
100
AcDbLine
 10
-1439.000018557976
 20
3284.416837466807
 30
0.0
 11
-1389.916707560901
 21
3333.500148463884
 31
0.0
  0
LINE
  5
226
330
1F
100
AcDbEntity
  8
0-C_ハッチ
  6
JWW_DASHED1
 62
   120
370
     5
100
AcDbLine
 10
-1439.000018557979
 20
3326.843244338005
 30
0.0
 11
-1432.343114432098
 21
3333.500148463886
 31
0.0
  0
LINE
  5
227
330
1F
100
AcDbEntity
  8
0-C_ハッチ
  6
JWW_DASHED1
 62
   120
370
     5
100
AcDbLine
 10
-1439.000018557982
 20
3241.990430595629
 30
0.0
 11
-1347.490300689721
 21
3333.500148463886
 31
0.0
  0
LINE
  5
228
330
1F
100
AcDbEntity
  8
0-C_ハッチ
  6
JWW_DASHED1
 62
   120
370
     5
100
AcDbLine
 10
-1439.000018557982
 20
3227.8482949719
 30
0.0
 11
-1333.348165065984
 21
3333.50014846389
 31
0.0
  0
LINE
  5
229
330
1F
100
AcDbEntity
  8
0-C_ハッチ
  6
JWW_DASHED1
 62
   120
370
     5
100
AcDbLine
 10
-1439.000018557982
 20
3199.56402372443
 30
0.0
 11
-1305.063893818524
 21
3333.500148463883
 31
0.0
  0
LINE
  5
22A
330
1F
100
AcDbEntity
  8
0-C_ハッチ
  6
JWW_DASHED1
 62
   120
370
     5
100
AcDbLine
 10
-1439.000018557982
 20
3185.421888100724
 30
0.0
 11
-1290.921758194818
 21
3333.500148463883
 31
0.0
  0
LINE
  5
22B
330
1F
100
AcDbEntity
  8
0-C_ハッチ
  6
JWW_DASHED1
 62
   120
370
     5
100
AcDbLine
 10
-1439.000018557982
 20
3213.706159348155
 30
0.0
 11
-1319.206029442264
 21
3333.500148463879
 31
0.0
  0
LINE
  5
22C
330
1F
100
AcDbEntity
  8
0-C_ハッチ
  6
JWW_DASHED1
 62
   120
370
     5
100
AcDbLine
 10
-1439.000018557982
 20
3171.27975247699
 30
0.0
 11
-1276.779622571084
 21
3333.500148463881
 31
0.0
  0
LINE
  5
22D
330
1F
100
AcDbEntity
  8
0-C_ハッチ
  6
JWW_DASHED1
 62
   120
370
     5
100
AcDbLine
 10
-1439.000018557982
 20
3157.137616853265
 30
0.0
 11
-1262.637486947347
 21
3333.500148463885
 31
0.0
  0
LINE
  5
22E
330
1F
100
AcDbEntity
  8
0-C_ハッチ
  6
JWW_DASHED1
 62
   120
370
     5
100
AcDbLine
 10
-1439.000018557982
 20
3128.85334560579
 30
0.0
 11
-1234.353215699888
 21
3333.500148463879
 31
0.0
  0
LINE
  5
22F
330
1F
100
AcDbEntity
  8
0-C_ハッチ
  6
JWW_DASHED1
 62
   120
370
     5
100
AcDbLine
 10
-1439.000018557982
 20
3114.711209982086
 30
0.0
 11
-1220.211080076182
 21
3333.500148463878
 31
0.0
  0
LINE
  5
230
330
1F
100
AcDbEntity
  8
0-C_ハッチ
  6
JWW_DASHED1
 62
   120
370
     5
100
AcDbLine
 10
-1439.000018557982
 20
3142.99548122951
 30
0.0
 11
-1248.495351323628
 21
3333.500148463874
 31
0.0
  0
LINE
  5
231
330
1F
100
AcDbEntity
  8
0-C_ハッチ
  6
JWW_DASHED1
 62
   120
370
     5
100
AcDbLine
 10
-1439.000018557982
 20
3100.569074358351
 30
0.0
 11
-1206.068944452433
 21
3333.500148463891
 31
0.0
  0
LINE
  5
232
330
1F
100
AcDbEntity
  8
0-C_ハッチ
  6
JWW_DASHED1
 62
   120
370
     5
100
AcDbLine
 10
-1439.000018557982
 20
3086.42693873463
 30
0.0
 11
-1191.926808828696
 21
3333.500148463894
 31
0.0
  0
LINE
  5
233
330
1F
100
AcDbEntity
  8
0-C_ハッチ
  6
JWW_DASHED1
 62
   120
370
     5
100
AcDbLine
 10
-1439.000018557982
 20
3058.142667487151
 30
0.0
 11
-1163.642537581237
 21
3333.500148463888
 31
0.0
  0
LINE
  5
234
330
1F
100
AcDbEntity
  8
0-C_ハッチ
  6
JWW_DASHED1
 62
   120
370
     5
100
AcDbLine
 10
-1439.000018557982
 20
3044.000531863447
 30
0.0
 11
-1149.500401957531
 21
3333.500148463887
 31
0.0
  0
LINE
  5
235
330
1F
100
AcDbEntity
  8
0-C_ハッチ
  6
JWW_DASHED1
 62
   120
370
     5
100
AcDbLine
 10
-1439.000018557982
 20
3072.284803110864
 30
0.0
 11
-1177.784673204977
 21
3333.500148463884
 31
0.0
  0
LINE
  5
236
330
1F
100
AcDbEntity
  8
0-C_ハッチ
  6
JWW_DASHED1
 62
   120
370
     5
100
AcDbLine
 10
-1439.000018557982
 20
3029.858396239713
 30
0.0
 11
-1135.358266333796
 21
3333.500148463886
 31
0.0
  0
LINE
  5
237
330
1F
100
AcDbEntity
  8
0-C_ハッチ
  6
JWW_DASHED1
 62
   120
370
     5
100
AcDbLine
 10
-1439.000018557982
 20
3015.716260615994
 30
0.0
 11
-1121.21613071006
 21
3333.50014846389
 31
0.0
  0
LINE
  5
238
330
1F
100
AcDbEntity
  8
0-C_ハッチ
  6
JWW_DASHED1
 62
   120
370
     5
100
AcDbLine
 10
-1439.000018557982
 20
2987.431989368512
 30
0.0
 11
-1092.9318594626
 21
3333.500148463883
 31
0.0
  0
LINE
  5
239
330
1F
100
AcDbEntity
  8
0-C_ハッチ
  6
JWW_DASHED1
 62
   120
370
     5
100
AcDbLine
 10
-1439.000018557982
 20
3001.574124992219
 30
0.0
 11
-1107.07399508634
 21
3333.500148463879
 31
0.0
  0
LINE
  5
23A
330
1F
100
AcDbEntity
  8
0-C_ハッチ
  6
JWW_DASHED1
 62
   120
370
     5
100
AcDbLine
 10
-1439.000018557982
 20
2973.289853744808
 30
0.0
 11
-1078.789723838894
 21
3333.500148463883
 31
0.0
  0
LINE
  5
23B
330
1F
100
AcDbEntity
  8
0-C_ハッチ
  6
JWW_DASHED1
 62
   120
370
     5
100
AcDbLine
 10
-1439.000018557982
 20
2959.147718121074
 30
0.0
 11
-1064.64758821516
 21
3333.500148463881
 31
0.0
  0
LINE
  5
23C
330
1F
100
AcDbEntity
  8
0-C_ハッチ
  6
JWW_DASHED1
 62
   120
370
     5
100
AcDbLine
 10
-1439.000018557982
 20
2945.005582497359
 30
0.0
 11
-1050.505452591423
 21
3333.500148463885
 31
0.0
  0
LINE
  5
23D
330
1F
100
AcDbEntity
  8
0-C_ハッチ
  6
JWW_DASHED1
 62
   120
370
     5
100
AcDbLine
 10
-1439.000018557982
 20
2916.721311249873
 30
0.0
 11
-1022.221181343963
 21
3333.500148463879
 31
0.0
  0
LINE
  5
23E
330
1F
100
AcDbEntity
  8
0-C_ハッチ
  6
JWW_DASHED1
 62
   120
370
     5
100
AcDbLine
 10
-1439.000018557982
 20
2902.579175626169
 30
0.0
 11
-1008.079045720257
 21
3333.500148463878
 31
0.0
  0
LINE
  5
23F
330
1F
100
AcDbEntity
  8
0-C_ハッチ
  6
JWW_DASHED1
 62
   120
370
     5
100
AcDbLine
 10
-1439.000018557982
 20
2930.863446873574
 30
0.0
 11
-1036.363316967703
 21
3333.500148463874
 31
0.0
  0
LINE
  5
240
330
1F
100
AcDbEntity
  8
0-C_ハッチ
  6
JWW_DASHED1
 62
   120
370
     5
100
AcDbLine
 10
-1439.000018557982
 20
2888.437040002435
 30
0.0
 11
-993.9369100965228
 21
3333.500148463877
 31
0.0
  0
LINE
  5
241
330
1F
100
AcDbEntity
  8
0-C_ハッチ
  6
JWW_DASHED1
 62
   120
370
     5
100
AcDbLine
 10
-1439.000018557982
 20
2874.294904378723
 30
0.0
 11
-979.794774472786
 21
3333.500148463881
 31
0.0
  0
LINE
  5
242
330
1F
100
AcDbEntity
  8
0-C_ハッチ
  6
JWW_DASHED1
 62
   120
370
     5
100
AcDbLine
 10
-1439.000018557982
 20
2846.010633131234
 30
0.0
 11
-951.5105032253261
 21
3333.500148463874
 31
0.0
  0
LINE
  5
243
330
1F
100
AcDbEntity
  8
0-C_ハッチ
  6
JWW_DASHED1
 62
   120
370
     5
100
AcDbLine
 10
-1439.000018557982
 20
2831.86849750753
 30
0.0
 11
-937.3683676016201
 21
3333.500148463873
 31
0.0
  0
LINE
  5
244
330
1F
100
AcDbEntity
  8
0-C_ハッチ
  6
JWW_DASHED1
 62
   120
370
     5
100
AcDbLine
 10
-1439.000018557982
 20
2860.152768754929
 30
0.0
 11
-965.6526388490663
 21
3333.50014846387
 31
0.0
  0
LINE
  5
245
330
1F
100
AcDbEntity
  8
0-C_ハッチ
  6
JWW_DASHED1
 62
   120
370
     5
100
AcDbLine
 10
-1439.000018557982
 20
2817.726361883796
 30
0.0
 11
-923.2262319778858
 21
3333.500148463872
 31
0.0
  0
LINE
  5
246
330
1F
100
AcDbEntity
  8
0-C_ハッチ
  6
JWW_DASHED1
 62
   120
370
     5
100
AcDbLine
 10
-1439.000018557982
 20
2803.584226260088
 30
0.0
 11
-909.0840963541491
 21
3333.500148463876
 31
0.0
  0
LINE
  5
247
330
1F
100
AcDbEntity
  8
0-C_ハッチ
  6
JWW_DASHED1
 62
   120
370
     5
100
AcDbLine
 10
-1439.000018557982
 20
2775.299955012595
 30
0.0
 11
-880.7998251066892
 21
3333.500148463869
 31
0.0
  0
LINE
  5
248
330
1F
100
AcDbEntity
  8
0-C_ハッチ
  6
JWW_DASHED1
 62
   120
370
     5
100
AcDbLine
 10
-1439.000018557982
 20
2761.157819388892
 30
0.0
 11
-866.6576894829832
 21
3333.500148463869
 31
0.0
  0
LINE
  5
249
330
1F
100
AcDbEntity
  8
0-C_ハッチ
  6
JWW_DASHED1
 62
   120
370
     5
100
AcDbLine
 10
-1439.000018557982
 20
2789.442090636283
 30
0.0
 11
-894.9419607304294
 21
3333.500148463865
 31
0.0
  0
LINE
  5
24A
330
1F
100
AcDbEntity
  8
0-C_ハッチ
  6
JWW_DASHED1
 62
   120
370
     5
100
AcDbLine
 10
-1439.000018557982
 20
2747.015683765157
 30
0.0
 11
-852.515553859249
 21
3333.500148463867
 31
0.0
  0
LINE
  5
24B
330
1F
100
AcDbEntity
  8
0-C_ハッチ
  6
JWW_DASHED1
 62
   120
370
     5
100
AcDbLine
 10
-1439.000018557982
 20
2732.873548141452
 30
0.0
 11
-838.3734182355123
 21
3333.500148463871
 31
0.0
  0
LINE
  5
24C
330
1F
100
AcDbEntity
  8
0-C_ハッチ
  6
JWW_DASHED1
 62
   120
370
     5
100
AcDbLine
 10
-1439.000018557982
 20
2704.589276893956
 30
0.0
 11
-810.0891469880524
 21
3333.500148463865
 31
0.0
  0
LINE
  5
24D
330
1F
100
AcDbEntity
  8
0-C_ハッチ
  6
JWW_DASHED1
 62
   120
370
     5
100
AcDbLine
 10
-1439.000018557982
 20
2690.447141270252
 30
0.0
 11
-795.9470113643464
 21
3333.500148463864
 31
0.0
  0
LINE
  5
24E
330
1F
100
AcDbEntity
  8
0-C_ハッチ
  6
JWW_DASHED1
 62
   120
370
     5
100
AcDbLine
 10
-1439.000018557982
 20
2718.731412517639
 30
0.0
 11
-824.2312826117926
 21
3333.50014846386
 31
0.0
  0
LINE
  5
24F
330
1F
100
AcDbEntity
  8
0-C_ハッチ
  6
JWW_DASHED1
 62
   120
370
     5
100
AcDbLine
 10
-1439.000018557982
 20
2676.305005646518
 30
0.0
 11
-781.8048757406121
 21
3333.500148463863
 31
0.0
  0
LINE
  5
250
330
1F
100
AcDbEntity
  8
0-C_ハッチ
  6
JWW_DASHED1
 62
   120
370
     5
100
AcDbLine
 10
857.9999814420241
 20
3312.701108714271
 30
0.0
 11
878.7990211916454
 21
3333.500148463891
 31
0.0
  0
LINE
  5
251
330
1F
100
AcDbEntity
  8
0-C_ハッチ
  6
JWW_DASHED1
 62
   120
370
     5
100
AcDbLine
 10
857.9999814420139
 20
3298.558973090529
 30
0.0
 11
892.9411568153821
 21
3333.500148463894
 31
0.0
  0
LINE
  5
252
330
1F
100
AcDbEntity
  8
0-C_ハッチ
  6
JWW_DASHED1
 62
   120
370
     5
100
AcDbLine
 10
857.999981442031
 20
3270.274701843079
 30
0.0
 11
921.225428062842
 21
3333.500148463888
 31
0.0
  0
LINE
  5
253
330
1F
100
AcDbEntity
  8
0-C_ハッチ
  6
JWW_DASHED1
 62
   120
370
     5
100
AcDbLine
 10
857.9999814420173
 20
3256.13256621936
 30
0.0
 11
935.367563686548
 21
3333.500148463887
 31
0.0
  0
LINE
  5
254
330
1F
100
AcDbEntity
  8
0-C_ハッチ
  6
JWW_DASHED1
 62
   120
370
     5
100
AcDbLine
 10
857.9999814420275
 20
3284.416837466807
 30
0.0
 11
907.0832924391018
 21
3333.500148463884
 31
0.0
  0
LINE
  5
255
330
1F
100
AcDbEntity
  8
0-C_ハッチ
  6
JWW_DASHED1
 62
   120
370
     5
100
AcDbLine
 10
857.9999814420241
 20
3326.843244338005
 30
0.0
 11
864.6568855679052
 21
3333.500148463886
 31
0.0
  0
LINE
  5
256
330
1F
100
AcDbEntity
  8
0-C_ハッチ
  6
JWW_DASHED1
 62
   120
370
     5
100
AcDbLine
 10
857.9999814420207
 20
3241.990430595629
 30
0.0
 11
949.5096993102823
 21
3333.500148463886
 31
0.0
  0
LINE
  5
257
330
1F
100
AcDbEntity
  8
0-C_ハッチ
  6
JWW_DASHED1
 62
   120
370
     5
100
AcDbLine
 10
857.9999814420207
 20
3227.8482949719
 30
0.0
 11
963.651834934019
 21
3333.50014846389
 31
0.0
  0
LINE
  5
258
330
1F
100
AcDbEntity
  8
0-C_ハッチ
  6
JWW_DASHED1
 62
   120
370
     5
100
AcDbLine
 10
857.9999814420207
 20
3199.56402372443
 30
0.0
 11
991.9361061814789
 21
3333.500148463883
 31
0.0
  0
LINE
  5
259
330
1F
100
AcDbEntity
  8
0-C_ハッチ
  6
JWW_DASHED1
 62
   120
370
     5
100
AcDbLine
 10
857.9999814420207
 20
3185.421888100724
 30
0.0
 11
1006.078241805185
 21
3333.500148463883
 31
0.0
  0
LINE
  5
25A
330
1F
100
AcDbEntity
  8
0-C_ハッチ
  6
JWW_DASHED1
 62
   120
370
     5
100
AcDbLine
 10
857.9999814420207
 20
3213.706159348155
 30
0.0
 11
977.7939705577387
 21
3333.500148463879
 31
0.0
  0
LINE
  5
25B
330
1F
100
AcDbEntity
  8
0-C_ハッチ
  6
JWW_DASHED1
 62
   120
370
     5
100
AcDbLine
 10
857.9999814420207
 20
3171.27975247699
 30
0.0
 11
1020.220377428919
 21
3333.500148463881
 31
0.0
  0
LINE
  5
25C
330
1F
100
AcDbEntity
  8
0-C_ハッチ
  6
JWW_DASHED1
 62
   120
370
     5
100
AcDbLine
 10
857.9999814420207
 20
3157.137616853265
 30
0.0
 11
1034.362513052656
 21
3333.500148463885
 31
0.0
  0
LINE
  5
25D
330
1F
100
AcDbEntity
  8
0-C_ハッチ
  6
JWW_DASHED1
 62
   120
370
     5
100
AcDbLine
 10
857.9999814420207
 20
3128.85334560579
 30
0.0
 11
1062.646784300116
 21
3333.500148463879
 31
0.0
  0
LINE
  5
25E
330
1F
100
AcDbEntity
  8
0-C_ハッチ
  6
JWW_DASHED1
 62
   120
370
     5
100
AcDbLine
 10
857.9999814420207
 20
3114.711209982086
 30
0.0
 11
1076.788919923822
 21
3333.500148463878
 31
0.0
  0
LINE
  5
25F
330
1F
100
AcDbEntity
  8
0-C_ハッチ
  6
JWW_DASHED1
 62
   120
370
     5
100
AcDbLine
 10
857.9999814420207
 20
3142.99548122951
 30
0.0
 11
1048.504648676376
 21
3333.500148463874
 31
0.0
  0
LINE
  5
260
330
1F
100
AcDbEntity
  8
0-C_ハッチ
  6
JWW_DASHED1
 62
   120
370
     5
100
AcDbLine
 10
857.9999814420207
 20
3100.569074358351
 30
0.0
 11
1090.93105554757
 21
3333.500148463891
 31
0.0
  0
LINE
  5
261
330
1F
100
AcDbEntity
  8
0-C_ハッチ
  6
JWW_DASHED1
 62
   120
370
     5
100
AcDbLine
 10
857.9999814420207
 20
3086.42693873463
 30
0.0
 11
1105.073191171307
 21
3333.500148463894
 31
0.0
  0
LINE
  5
262
330
1F
100
AcDbEntity
  8
0-C_ハッチ
  6
JWW_DASHED1
 62
   120
370
     5
100
AcDbLine
 10
857.9999814420207
 20
3058.142667487151
 30
0.0
 11
1133.357462418767
 21
3333.500148463888
 31
0.0
  0
LINE
  5
263
330
1F
100
AcDbEntity
  8
0-C_ハッチ
  6
JWW_DASHED1
 62
   120
370
     5
100
AcDbLine
 10
857.9999814420207
 20
3044.000531863447
 30
0.0
 11
1147.499598042473
 21
3333.500148463887
 31
0.0
  0
LINE
  5
264
330
1F
100
AcDbEntity
  8
0-C_ハッチ
  6
JWW_DASHED1
 62
   120
370
     5
100
AcDbLine
 10
857.9999814420207
 20
3072.284803110864
 30
0.0
 11
1119.215326795026
 21
3333.500148463884
 31
0.0
  0
LINE
  5
265
330
1F
100
AcDbEntity
  8
0-C_ハッチ
  6
JWW_DASHED1
 62
   120
370
     5
100
AcDbLine
 10
857.9999814420207
 20
3029.858396239713
 30
0.0
 11
1161.641733666207
 21
3333.500148463886
 31
0.0
  0
LINE
  5
266
330
1F
100
AcDbEntity
  8
0-C_ハッチ
  6
JWW_DASHED1
 62
   120
370
     5
100
AcDbLine
 10
857.9999814420207
 20
3015.716260615994
 30
0.0
 11
1175.783869289944
 21
3333.50014846389
 31
0.0
  0
LINE
  5
267
330
1F
100
AcDbEntity
  8
0-C_ハッチ
  6
JWW_DASHED1
 62
   120
370
     5
100
AcDbLine
 10
857.9999814420207
 20
2987.431989368512
 30
0.0
 11
1204.068140537403
 21
3333.500148463883
 31
0.0
  0
LINE
  5
268
330
1F
100
AcDbEntity
  8
0-C_ハッチ
  6
JWW_DASHED1
 62
   120
370
     5
100
AcDbLine
 10
857.9999814420207
 20
3001.574124992219
 30
0.0
 11
1189.926004913663
 21
3333.500148463879
 31
0.0
  0
LINE
  5
269
330
1F
100
AcDbEntity
  8
0-C_ハッチ
  6
JWW_DASHED1
 62
   120
370
     5
100
AcDbLine
 10
857.9999814420207
 20
2973.289853744808
 30
0.0
 11
1218.21027616111
 21
3333.500148463883
 31
0.0
  0
LINE
  5
26A
330
1F
100
AcDbEntity
  8
0-C_ハッチ
  6
JWW_DASHED1
 62
   120
370
     5
100
AcDbLine
 10
857.9999814420207
 20
2959.147718121074
 30
0.0
 11
1232.352411784844
 21
3333.500148463881
 31
0.0
  0
LINE
  5
26B
330
1F
100
AcDbEntity
  8
0-C_ハッチ
  6
JWW_DASHED1
 62
   120
370
     5
100
AcDbLine
 10
857.9999814420207
 20
2945.005582497359
 30
0.0
 11
1246.494547408581
 21
3333.500148463885
 31
0.0
  0
LINE
  5
26C
330
1F
100
AcDbEntity
  8
0-C_ハッチ
  6
JWW_DASHED1
 62
   120
370
     5
100
AcDbLine
 10
857.9999814420207
 20
2916.721311249873
 30
0.0
 11
1274.77881865604
 21
3333.500148463879
 31
0.0
  0
LINE
  5
26D
330
1F
100
AcDbEntity
  8
0-C_ハッチ
  6
JWW_DASHED1
 62
   120
370
     5
100
AcDbLine
 10
857.9999814420207
 20
2902.579175626169
 30
0.0
 11
1288.920954279746
 21
3333.500148463878
 31
0.0
  0
LINE
  5
26E
330
1F
100
AcDbEntity
  8
0-C_ハッチ
  6
JWW_DASHED1
 62
   120
370
     5
100
AcDbLine
 10
857.9999814420207
 20
2930.863446873574
 30
0.0
 11
1260.6366830323
 21
3333.500148463874
 31
0.0
  0
LINE
  5
26F
330
1F
100
AcDbEntity
  8
0-C_ハッチ
  6
JWW_DASHED1
 62
   120
370
     5
100
AcDbLine
 10
857.9999814420207
 20
2888.437040002435
 30
0.0
 11
1303.063089903481
 21
3333.500148463877
 31
0.0
  0
LINE
  5
270
330
1F
100
AcDbEntity
  8
0-C_ハッチ
  6
JWW_DASHED1
 62
   120
370
     5
100
AcDbLine
 10
857.9999814420207
 20
2874.294904378723
 30
0.0
 11
1317.205225527217
 21
3333.500148463881
 31
0.0
  0
LINE
  5
271
330
1F
100
AcDbEntity
  8
0-C_ハッチ
  6
JWW_DASHED1
 62
   120
370
     5
100
AcDbLine
 10
857.9999814420207
 20
2846.010633131234
 30
0.0
 11
1345.489496774677
 21
3333.500148463874
 31
0.0
  0
LINE
  5
272
330
1F
100
AcDbEntity
  8
0-C_ハッチ
  6
JWW_DASHED1
 62
   120
370
     5
100
AcDbLine
 10
857.9999814420207
 20
2831.86849750753
 30
0.0
 11
1359.631632398383
 21
3333.500148463873
 31
0.0
  0
LINE
  5
273
330
1F
100
AcDbEntity
  8
0-C_ハッチ
  6
JWW_DASHED1
 62
   120
370
     5
100
AcDbLine
 10
857.9999814420207
 20
2860.152768754929
 30
0.0
 11
1331.347361150937
 21
3333.50014846387
 31
0.0
  0
LINE
  5
274
330
1F
100
AcDbEntity
  8
0-C_ハッチ
  6
JWW_DASHED1
 62
   120
370
     5
100
AcDbLine
 10
857.9999814420207
 20
2817.726361883796
 30
0.0
 11
1373.773768022117
 21
3333.500148463872
 31
0.0
  0
LINE
  5
275
330
1F
100
AcDbEntity
  8
0-C_ハッチ
  6
JWW_DASHED1
 62
   120
370
     5
100
AcDbLine
 10
857.9999814420207
 20
2803.584226260088
 30
0.0
 11
1387.915903645854
 21
3333.500148463876
 31
0.0
  0
LINE
  5
276
330
1F
100
AcDbEntity
  8
0-C_ハッチ
  6
JWW_DASHED1
 62
   120
370
     5
100
AcDbLine
 10
857.9999814420207
 20
2775.299955012595
 30
0.0
 11
1416.200174893314
 21
3333.500148463869
 31
0.0
  0
LINE
  5
277
330
1F
100
AcDbEntity
  8
0-C_ハッチ
  6
JWW_DASHED1
 62
   120
370
     5
100
AcDbLine
 10
857.9999814420207
 20
2761.157819388892
 30
0.0
 11
1430.34231051702
 21
3333.500148463869
 31
0.0
  0
LINE
  5
278
330
1F
100
AcDbEntity
  8
0-C_ハッチ
  6
JWW_DASHED1
 62
   120
370
     5
100
AcDbLine
 10
857.9999814420207
 20
2789.442090636283
 30
0.0
 11
1402.058039269574
 21
3333.500148463865
 31
0.0
  0
LINE
  5
279
330
1F
100
AcDbEntity
  8
0-C_ハッチ
  6
JWW_DASHED1
 62
   120
370
     5
100
AcDbLine
 10
-1439.000018557982
 20
2662.162870022817
 30
0.0
 11
-769.0000185579828
 21
3332.162870022759
 31
0.0
  0
LINE
  5
27A
330
1F
100
AcDbEntity
  8
0-C_ハッチ
  6
JWW_DASHED1
 62
   120
370
     5
100
AcDbLine
 10
-772.4693802805667
 20
1518.500148463893
 30
0.0
 11
-769.0000185579828
 21
1521.969510186477
 31
0.0
  0
LINE
  5
27B
330
1F
100
AcDbEntity
  8
0-C_ハッチ
  6
JWW_DASHED1
 62
   120
370
     5
100
AcDbLine
 10
-1437.149754595443
 20
1518.500148463893
 30
0.0
 11
-769.0000185579828
 21
2186.649884501332
 31
0.0
  0
LINE
  5
27C
330
1F
100
AcDbEntity
  8
0-C_ハッチ
  6
JWW_DASHED1
 62
   120
370
     5
100
AcDbLine
 10
-1423.007618971741
 20
1518.500148463893
 30
0.0
 11
-769.0000185579828
 21
2172.507748877627
 31
0.0
  0
LINE
  5
27D
330
1F
100
AcDbEntity
  8
0-C_ハッチ
  6
JWW_DASHED1
 62
   120
370
     5
100
AcDbLine
 10
-1408.865483348001
 20
1518.500148463893
 30
0.0
 11
-769.0000185579828
 21
2158.365613253891
 31
0.0
  0
LINE
  5
27E
330
1F
100
AcDbEntity
  8
0-C_ハッチ
  6
JWW_DASHED1
 62
   120
370
     5
100
AcDbLine
 10
-1394.723347724298
 20
1518.500148463893
 30
0.0
 11
-769.0000185579828
 21
2144.223477630186
 31
0.0
  0
LINE
  5
27F
330
1F
100
AcDbEntity
  8
0-C_ハッチ
  6
JWW_DASHED1
 62
   120
370
     5
100
AcDbLine
 10
-1380.581212100559
 20
1518.500148463893
 30
0.0
 11
-769.0000185579828
 21
2130.081342006449
 31
0.0
  0
LINE
  5
280
330
1F
100
AcDbEntity
  8
0-C_ハッチ
  6
JWW_DASHED1
 62
   120
370
     5
100
AcDbLine
 10
-1366.439076476856
 20
1518.500148463893
 30
0.0
 11
-769.0000185579828
 21
2115.939206382744
 31
0.0
  0
LINE
  5
281
330
1F
100
AcDbEntity
  8
0-C_ハッチ
  6
JWW_DASHED1
 62
   120
370
     5
100
AcDbLine
 10
-1352.296940853116
 20
1518.500148463893
 30
0.0
 11
-769.0000185579828
 21
2101.797070759008
 31
0.0
  0
LINE
  5
282
330
1F
100
AcDbEntity
  8
0-C_ハッチ
  6
JWW_DASHED1
 62
   120
370
     5
100
AcDbLine
 10
-1338.154805229413
 20
1518.500148463893
 30
0.0
 11
-769.0000185579828
 21
2087.654935135302
 31
0.0
  0
LINE
  5
283
330
1F
100
AcDbEntity
  8
0-C_ハッチ
  6
JWW_DASHED1
 62
   120
370
     5
100
AcDbLine
 10
-1324.012669605675
 20
1518.500148463893
 30
0.0
 11
-769.0000185579828
 21
2073.512799511567
 31
0.0
  0
LINE
  5
284
330
1F
100
AcDbEntity
  8
0-C_ハッチ
  6
JWW_DASHED1
 62
   120
370
     5
100
AcDbLine
 10
-1309.870533981971
 20
1518.500148463893
 30
0.0
 11
-769.0000185579828
 21
2059.370663887862
 31
0.0
  0
LINE
  5
285
330
1F
100
AcDbEntity
  8
0-C_ハッチ
  6
JWW_DASHED1
 62
   120
370
     5
100
AcDbLine
 10
-1295.728398358233
 20
1518.500148463893
 30
0.0
 11
-769.0000185579828
 21
2045.228528264126
 31
0.0
  0
LINE
  5
286
330
1F
100
AcDbEntity
  8
0-C_ハッチ
  6
JWW_DASHED1
 62
   120
370
     5
100
AcDbLine
 10
-1281.586262734529
 20
1518.500148463893
 30
0.0
 11
-769.0000185579828
 21
2031.08639264042
 31
0.0
  0
LINE
  5
287
330
1F
100
AcDbEntity
  8
0-C_ハッチ
  6
JWW_DASHED1
 62
   120
370
     5
100
AcDbLine
 10
-1267.444127110791
 20
1518.500148463893
 30
0.0
 11
-769.0000185579828
 21
2016.944257016685
 31
0.0
  0
LINE
  5
288
330
1F
100
AcDbEntity
  8
0-C_ハッチ
  6
JWW_DASHED1
 62
   120
370
     5
100
AcDbLine
 10
-1253.301991487087
 20
1518.500148463893
 30
0.0
 11
-769.0000185579828
 21
2002.802121392979
 31
0.0
  0
LINE
  5
289
330
1F
100
AcDbEntity
  8
0-C_ハッチ
  6
JWW_DASHED1
 62
   120
370
     5
100
AcDbLine
 10
-1239.159855863348
 20
1518.500148463893
 30
0.0
 11
-769.0000185579828
 21
1988.659985769243
 31
0.0
  0
LINE
  5
28A
330
1F
100
AcDbEntity
  8
0-C_ハッチ
  6
JWW_DASHED1
 62
   120
370
     5
100
AcDbLine
 10
-1225.017720239645
 20
1518.500148463893
 30
0.0
 11
-769.0000185579828
 21
1974.517850145538
 31
0.0
  0
LINE
  5
28B
330
1F
100
AcDbEntity
  8
0-C_ハッチ
  6
JWW_DASHED1
 62
   120
370
     5
100
AcDbLine
 10
-1210.875584615906
 20
1518.500148463893
 30
0.0
 11
-769.0000185579828
 21
1960.375714521802
 31
0.0
  0
LINE
  5
28C
330
1F
100
AcDbEntity
  8
0-C_ハッチ
  6
JWW_DASHED1
 62
   120
370
     5
100
AcDbLine
 10
-1196.733448992202
 20
1518.500148463893
 30
0.0
 11
-769.0000185579828
 21
1946.233578898096
 31
0.0
  0
LINE
  5
28D
330
1F
100
AcDbEntity
  8
0-C_ハッチ
  6
JWW_DASHED1
 62
   120
370
     5
100
AcDbLine
 10
-1182.591313368463
 20
1518.500148463893
 30
0.0
 11
-769.0000185579828
 21
1932.091443274361
 31
0.0
  0
LINE
  5
28E
330
1F
100
AcDbEntity
  8
0-C_ハッチ
  6
JWW_DASHED1
 62
   120
370
     5
100
AcDbLine
 10
-1168.44917774476
 20
1518.500148463893
 30
0.0
 11
-769.0000185579828
 21
1917.949307650655
 31
0.0
  0
LINE
  5
28F
330
1F
100
AcDbEntity
  8
0-C_ハッチ
  6
JWW_DASHED1
 62
   120
370
     5
100
AcDbLine
 10
-1154.307042121022
 20
1518.500148463893
 30
0.0
 11
-769.0000185579828
 21
1903.807172026919
 31
0.0
  0
LINE
  5
290
330
1F
100
AcDbEntity
  8
0-C_ハッチ
  6
JWW_DASHED1
 62
   120
370
     5
100
AcDbLine
 10
-1140.164906497317
 20
1518.500148463893
 30
0.0
 11
-769.0000185579828
 21
1889.665036403214
 31
0.0
  0
LINE
  5
291
330
1F
100
AcDbEntity
  8
0-C_ハッチ
  6
JWW_DASHED1
 62
   120
370
     5
100
AcDbLine
 10
-1126.02277087358
 20
1518.500148463893
 30
0.0
 11
-769.0000185579828
 21
1875.522900779479
 31
0.0
  0
LINE
  5
292
330
1F
100
AcDbEntity
  8
0-C_ハッチ
  6
JWW_DASHED1
 62
   120
370
     5
100
AcDbLine
 10
-1111.880635249875
 20
1518.500148463893
 30
0.0
 11
-769.0000185579828
 21
1861.380765155773
 31
0.0
  0
LINE
  5
293
330
1F
100
AcDbEntity
  8
0-C_ハッチ
  6
JWW_DASHED1
 62
   120
370
     5
100
AcDbLine
 10
-1097.738499626138
 20
1518.500148463893
 30
0.0
 11
-769.0000185579828
 21
1847.238629532037
 31
0.0
  0
LINE
  5
294
330
1F
100
AcDbEntity
  8
0-C_ハッチ
  6
JWW_DASHED1
 62
   120
370
     5
100
AcDbLine
 10
-1083.596364002433
 20
1518.500148463893
 30
0.0
 11
-769.0000185579828
 21
1833.096493908332
 31
0.0
  0
LINE
  5
295
330
1F
100
AcDbEntity
  8
0-C_ハッチ
  6
JWW_DASHED1
 62
   120
370
     5
100
AcDbLine
 10
-1069.454228378695
 20
1518.500148463893
 30
0.0
 11
-769.0000185579828
 21
1818.954358284596
 31
0.0
  0
LINE
  5
296
330
1F
100
AcDbEntity
  8
0-C_ハッチ
  6
JWW_DASHED1
 62
   120
370
     5
100
AcDbLine
 10
-1055.312092754991
 20
1518.500148463893
 30
0.0
 11
-769.0000185579828
 21
1804.81222266089
 31
0.0
  0
LINE
  5
297
330
1F
100
AcDbEntity
  8
0-C_ハッチ
  6
JWW_DASHED1
 62
   120
370
     5
100
AcDbLine
 10
-1041.169957131253
 20
1518.500148463893
 30
0.0
 11
-769.0000185579828
 21
1790.670087037155
 31
0.0
  0
LINE
  5
298
330
1F
100
AcDbEntity
  8
0-C_ハッチ
  6
JWW_DASHED1
 62
   120
370
     5
100
AcDbLine
 10
-1027.027821507548
 20
1518.500148463893
 30
0.0
 11
-769.0000185579828
 21
1776.527951413449
 31
0.0
  0
LINE
  5
299
330
1F
100
AcDbEntity
  8
0-C_ハッチ
  6
JWW_DASHED1
 62
   120
370
     5
100
AcDbLine
 10
-1012.885685883811
 20
1518.500148463893
 30
0.0
 11
-769.0000185579828
 21
1762.385815789713
 31
0.0
  0
LINE
  5
29A
330
1F
100
AcDbEntity
  8
0-C_ハッチ
  6
JWW_DASHED1
 62
   120
370
     5
100
AcDbLine
 10
-998.7435502601062
 20
1518.500148463893
 30
0.0
 11
-769.0000185579828
 21
1748.243680166008
 31
0.0
  0
LINE
  5
29B
330
1F
100
AcDbEntity
  8
0-C_ハッチ
  6
JWW_DASHED1
 62
   120
370
     5
100
AcDbLine
 10
-984.6014146363686
 20
1518.500148463893
 30
0.0
 11
-769.0000185579828
 21
1734.101544542272
 31
0.0
  0
LINE
  5
29C
330
1F
100
AcDbEntity
  8
0-C_ハッチ
  6
JWW_DASHED1
 62
   120
370
     5
100
AcDbLine
 10
-970.4592790126634
 20
1518.500148463893
 30
0.0
 11
-769.0000185579828
 21
1719.959408918566
 31
0.0
  0
LINE
  5
29D
330
1F
100
AcDbEntity
  8
0-C_ハッチ
  6
JWW_DASHED1
 62
   120
370
     5
100
AcDbLine
 10
-956.3171433889266
 20
1518.500148463893
 30
0.0
 11
-769.0000185579828
 21
1705.817273294831
 31
0.0
  0
LINE
  5
29E
330
1F
100
AcDbEntity
  8
0-C_ハッチ
  6
JWW_DASHED1
 62
   120
370
     5
100
AcDbLine
 10
-942.1750077652214
 20
1518.500148463893
 30
0.0
 11
-769.0000185579828
 21
1691.675137671125
 31
0.0
  0
LINE
  5
29F
330
1F
100
AcDbEntity
  8
0-C_ハッチ
  6
JWW_DASHED1
 62
   120
370
     5
100
AcDbLine
 10
-928.0328721414843
 20
1518.500148463893
 30
0.0
 11
-769.0000185579828
 21
1677.53300204739
 31
0.0
  0
LINE
  5
2A0
330
1F
100
AcDbEntity
  8
0-C_ハッチ
  6
JWW_DASHED1
 62
   120
370
     5
100
AcDbLine
 10
-913.8907365177786
 20
1518.500148463893
 30
0.0
 11
-769.0000185579828
 21
1663.390866423684
 31
0.0
  0
LINE
  5
2A1
330
1F
100
AcDbEntity
  8
0-C_ハッチ
  6
JWW_DASHED1
 62
   120
370
     5
100
AcDbLine
 10
-899.7486008940418
 20
1518.500148463893
 30
0.0
 11
-769.0000185579828
 21
1649.248730799948
 31
0.0
  0
LINE
  5
2A2
330
1F
100
AcDbEntity
  8
0-C_ハッチ
  6
JWW_DASHED1
 62
   120
370
     5
100
AcDbLine
 10
-885.6064652703362
 20
1518.500148463893
 30
0.0
 11
-769.0000185579828
 21
1635.106595176243
 31
0.0
  0
LINE
  5
2A3
330
1F
100
AcDbEntity
  8
0-C_ハッチ
  6
JWW_DASHED1
 62
   120
370
     5
100
AcDbLine
 10
-871.4643296465999
 20
1518.500148463893
 30
0.0
 11
-769.0000185579828
 21
1620.964459552507
 31
0.0
  0
LINE
  5
2A4
330
1F
100
AcDbEntity
  8
0-C_ハッチ
  6
JWW_DASHED1
 62
   120
370
     5
100
AcDbLine
 10
-857.3221940228939
 20
1518.500148463893
 30
0.0
 11
-769.0000185579828
 21
1606.822323928801
 31
0.0
  0
LINE
  5
2A5
330
1F
100
AcDbEntity
  8
0-C_ハッチ
  6
JWW_DASHED1
 62
   120
370
     5
100
AcDbLine
 10
-843.1800583991576
 20
1518.500148463893
 30
0.0
 11
-769.0000185579828
 21
1592.680188305066
 31
0.0
  0
LINE
  5
2A6
330
1F
100
AcDbEntity
  8
0-C_ハッチ
  6
JWW_DASHED1
 62
   120
370
     5
100
AcDbLine
 10
-829.0379227754515
 20
1518.500148463893
 30
0.0
 11
-769.0000185579828
 21
1578.53805268136
 31
0.0
  0
LINE
  5
2A7
330
1F
100
AcDbEntity
  8
0-C_ハッチ
  6
JWW_DASHED1
 62
   120
370
     5
100
AcDbLine
 10
-814.8957871517152
 20
1518.500148463893
 30
0.0
 11
-769.0000185579828
 21
1564.395917057624
 31
0.0
  0
LINE
  5
2A8
330
1F
100
AcDbEntity
  8
0-C_ハッチ
  6
JWW_DASHED1
 62
   120
370
     5
100
AcDbLine
 10
-800.7536515280092
 20
1518.500148463893
 30
0.0
 11
-769.0000185579828
 21
1550.253781433918
 31
0.0
  0
LINE
  5
2A9
330
1F
100
AcDbEntity
  8
0-C_ハッチ
  6
JWW_DASHED1
 62
   120
370
     5
100
AcDbLine
 10
-786.6115159042728
 20
1518.500148463893
 30
0.0
 11
-769.0000185579828
 21
1536.111645810183
 31
0.0
  0
LINE
  5
2AA
330
1F
100
AcDbEntity
  8
0-C_ハッチ
  6
JWW_DASHED1
 62
   120
370
     5
100
AcDbLine
 10
-1439.000018557982
 20
1530.792020125093
 30
0.0
 11
-769.0000185579828
 21
2200.792020125068
 31
0.0
  0
LINE
  5
2AB
330
1F
100
AcDbEntity
  8
0-C_ハッチ
  6
JWW_DASHED1
 62
   120
370
     5
100
AcDbLine
 10
-1439.000018557982
 20
2633.878598775316
 30
0.0
 11
-769.0000185579828
 21
3303.878598775294
 31
0.0
  0
LINE
  5
2AC
330
1F
100
AcDbEntity
  8
0-C_ハッチ
  6
JWW_DASHED1
 62
   120
370
     5
100
AcDbLine
 10
-1439.000018557982
 20
2619.736463151615
 30
0.0
 11
-769.0000185579828
 21
3289.736463151588
 31
0.0
  0
LINE
  5
2AD
330
1F
100
AcDbEntity
  8
0-C_ハッチ
  6
JWW_DASHED1
 62
   120
370
     5
100
AcDbLine
 10
-1439.000018557982
 20
2648.020734398992
 30
0.0
 11
-769.0000185579828
 21
3318.020734399028
 31
0.0
  0
LINE
  5
2AE
330
1F
100
AcDbEntity
  8
0-C_ハッチ
  6
JWW_DASHED1
 62
   120
370
     5
100
AcDbLine
 10
-1439.000018557982
 20
2605.59432752788
 30
0.0
 11
-769.0000185579828
 21
3275.594327527853
 31
0.0
  0
LINE
  5
2AF
330
1F
100
AcDbEntity
  8
0-C_ハッチ
  6
JWW_DASHED1
 62
   120
370
     5
100
AcDbLine
 10
-1439.000018557982
 20
2591.452191904181
 30
0.0
 11
-769.0000185579828
 21
3261.452191904124
 31
0.0
  0
LINE
  5
2B0
330
1F
100
AcDbEntity
  8
0-C_ハッチ
  6
JWW_DASHED1
 62
   120
370
     5
100
AcDbLine
 10
-1439.000018557982
 20
2577.310056280348
 30
0.0
 11
-769.0000185579828
 21
3247.310056280382
 31
0.0
  0
LINE
  5
2B1
330
1F
100
AcDbEntity
  8
0-C_ハッチ
  6
JWW_DASHED1
 62
   120
370
     5
100
AcDbLine
 10
-1439.000018557982
 20
2563.167920656677
 30
0.0
 11
-769.0000185579828
 21
3233.167920656655
 31
0.0
  0
LINE
  5
2B2
330
1F
100
AcDbEntity
  8
0-C_ハッチ
  6
JWW_DASHED1
 62
   120
370
     5
100
AcDbLine
 10
-1439.000018557982
 20
2549.025785032975
 30
0.0
 11
-769.0000185579828
 21
3219.025785032949
 31
0.0
  0
LINE
  5
2B3
330
1F
100
AcDbEntity
  8
0-C_ハッチ
  6
JWW_DASHED1
 62
   120
370
     5
100
AcDbLine
 10
-1439.000018557982
 20
2534.883649409236
 30
0.0
 11
-769.0000185579828
 21
3204.883649409213
 31
0.0
  0
LINE
  5
2B4
330
1F
100
AcDbEntity
  8
0-C_ハッチ
  6
JWW_DASHED1
 62
   120
370
     5
100
AcDbLine
 10
-1439.000018557982
 20
2520.741513785533
 30
0.0
 11
-769.0000185579828
 21
3190.741513785508
 31
0.0
  0
LINE
  5
2B5
330
1F
100
AcDbEntity
  8
0-C_ハッチ
  6
JWW_DASHED1
 62
   120
370
     5
100
AcDbLine
 10
-1439.000018557982
 20
2506.599378161794
 30
0.0
 11
-769.0000185579828
 21
3176.599378161773
 31
0.0
  0
LINE
  5
2B6
330
1F
100
AcDbEntity
  8
0-C_ハッチ
  6
JWW_DASHED1
 62
   120
370
     5
100
AcDbLine
 10
-1439.000018557982
 20
2492.457242538092
 30
0.0
 11
-769.0000185579828
 21
3162.457242538067
 31
0.0
  0
LINE
  5
2B7
330
1F
100
AcDbEntity
  8
0-C_ハッチ
  6
JWW_DASHED1
 62
   120
370
     5
100
AcDbLine
 10
-1439.000018557982
 20
2478.315106914353
 30
0.0
 11
-769.0000185579828
 21
3148.315106914331
 31
0.0
  0
LINE
  5
2B8
330
1F
100
AcDbEntity
  8
0-C_ハッチ
  6
JWW_DASHED1
 62
   120
370
     5
100
AcDbLine
 10
-1439.000018557982
 20
2464.172971290651
 30
0.0
 11
-769.0000185579828
 21
3134.172971290626
 31
0.0
  0
LINE
  5
2B9
330
1F
100
AcDbEntity
  8
0-C_ハッチ
  6
JWW_DASHED1
 62
   120
370
     5
100
AcDbLine
 10
-1439.000018557982
 20
2450.030835666912
 30
0.0
 11
-769.0000185579828
 21
3120.03083566689
 31
0.0
  0
LINE
  5
2BA
330
1F
100
AcDbEntity
  8
0-C_ハッチ
  6
JWW_DASHED1
 62
   120
370
     5
100
AcDbLine
 10
-1439.000018557982
 20
2435.88870004321
 30
0.0
 11
-769.0000185579828
 21
3105.888700043185
 31
0.0
  0
LINE
  5
2BB
330
1F
100
AcDbEntity
  8
0-C_ハッチ
  6
JWW_DASHED1
 62
   120
370
     5
100
AcDbLine
 10
-1439.000018557982
 20
2421.746564419471
 30
0.0
 11
-769.0000185579828
 21
3091.746564419449
 31
0.0
  0
LINE
  5
2BC
330
1F
100
AcDbEntity
  8
0-C_ハッチ
  6
JWW_DASHED1
 62
   120
370
     5
100
AcDbLine
 10
-1439.000018557982
 20
2407.604428795769
 30
0.0
 11
-769.0000185579828
 21
3077.604428795743
 31
0.0
  0
LINE
  5
2BD
330
1F
100
AcDbEntity
  8
0-C_ハッチ
  6
JWW_DASHED1
 62
   120
370
     5
100
AcDbLine
 10
-1439.000018557982
 20
2393.46229317203
 30
0.0
 11
-769.0000185579828
 21
3063.462293172008
 31
0.0
  0
LINE
  5
2BE
330
1F
100
AcDbEntity
  8
0-C_ハッチ
  6
JWW_DASHED1
 62
   120
370
     5
100
AcDbLine
 10
-1439.000018557982
 20
2379.320157548328
 30
0.0
 11
-769.0000185579828
 21
3049.320157548303
 31
0.0
  0
LINE
  5
2BF
330
1F
100
AcDbEntity
  8
0-C_ハッチ
  6
JWW_DASHED1
 62
   120
370
     5
100
AcDbLine
 10
-1439.000018557982
 20
2365.178021924589
 30
0.0
 11
-769.0000185579828
 21
3035.178021924567
 31
0.0
  0
LINE
  5
2C0
330
1F
100
AcDbEntity
  8
0-C_ハッチ
  6
JWW_DASHED1
 62
   120
370
     5
100
AcDbLine
 10
-1439.000018557982
 20
2351.035886300887
 30
0.0
 11
-769.0000185579828
 21
3021.035886300861
 31
0.0
  0
LINE
  5
2C1
330
1F
100
AcDbEntity
  8
0-C_ハッチ
  6
JWW_DASHED1
 62
   120
370
     5
100
AcDbLine
 10
-1439.000018557982
 20
2336.893750677148
 30
0.0
 11
-769.0000185579828
 21
3006.893750677126
 31
0.0
  0
LINE
  5
2C2
330
1F
100
AcDbEntity
  8
0-C_ハッチ
  6
JWW_DASHED1
 62
   120
370
     5
100
AcDbLine
 10
-1439.000018557982
 20
2322.751615053446
 30
0.0
 11
-769.0000185579828
 21
2992.75161505342
 31
0.0
  0
LINE
  5
2C3
330
1F
100
AcDbEntity
  8
0-C_ハッチ
  6
JWW_DASHED1
 62
   120
370
     5
100
AcDbLine
 10
-1439.000018557982
 20
2308.609479429707
 30
0.0
 11
-769.0000185579828
 21
2978.609479429684
 31
0.0
  0
LINE
  5
2C4
330
1F
100
AcDbEntity
  8
0-C_ハッチ
  6
JWW_DASHED1
 62
   120
370
     5
100
AcDbLine
 10
-1439.000018557982
 20
2294.467343806004
 30
0.0
 11
-769.0000185579828
 21
2964.467343805979
 31
0.0
  0
LINE
  5
2C5
330
1F
100
AcDbEntity
  8
0-C_ハッチ
  6
JWW_DASHED1
 62
   120
370
     5
100
AcDbLine
 10
-1439.000018557982
 20
2280.325208182265
 30
0.0
 11
-769.0000185579828
 21
2950.325208182243
 31
0.0
  0
LINE
  5
2C6
330
1F
100
AcDbEntity
  8
0-C_ハッチ
  6
JWW_DASHED1
 62
   120
370
     5
100
AcDbLine
 10
-1439.000018557982
 20
2266.183072558563
 30
0.0
 11
-769.0000185579828
 21
2936.183072558537
 31
0.0
  0
LINE
  5
2C7
330
1F
100
AcDbEntity
  8
0-C_ハッチ
  6
JWW_DASHED1
 62
   120
370
     5
100
AcDbLine
 10
-1439.000018557982
 20
2252.040936934824
 30
0.0
 11
-769.0000185579828
 21
2922.040936934802
 31
0.0
  0
LINE
  5
2C8
330
1F
100
AcDbEntity
  8
0-C_ハッチ
  6
JWW_DASHED1
 62
   120
370
     5
100
AcDbLine
 10
-1439.000018557982
 20
2237.898801311122
 30
0.0
 11
-769.0000185579828
 21
2907.898801311096
 31
0.0
  0
LINE
  5
2C9
330
1F
100
AcDbEntity
  8
0-C_ハッチ
  6
JWW_DASHED1
 62
   120
370
     5
100
AcDbLine
 10
-1439.000018557982
 20
2223.756665687382
 30
0.0
 11
-769.0000185579828
 21
2893.756665687361
 31
0.0
  0
LINE
  5
2CA
330
1F
100
AcDbEntity
  8
0-C_ハッチ
  6
JWW_DASHED1
 62
   120
370
     5
100
AcDbLine
 10
-1439.000018557982
 20
2209.61453006368
 30
0.0
 11
-769.0000185579828
 21
2879.614530063655
 31
0.0
  0
LINE
  5
2CB
330
1F
100
AcDbEntity
  8
0-C_ハッチ
  6
JWW_DASHED1
 62
   120
370
     5
100
AcDbLine
 10
-1439.000018557982
 20
2195.472394439942
 30
0.0
 11
-769.0000185579828
 21
2865.47239443992
 31
0.0
  0
LINE
  5
2CC
330
1F
100
AcDbEntity
  8
0-C_ハッチ
  6
JWW_DASHED1
 62
   120
370
     5
100
AcDbLine
 10
-1439.000018557982
 20
2181.330258816239
 30
0.0
 11
-769.0000185579828
 21
2851.330258816214
 31
0.0
  0
LINE
  5
2CD
330
1F
100
AcDbEntity
  8
0-C_ハッチ
  6
JWW_DASHED1
 62
   120
370
     5
100
AcDbLine
 10
-1439.000018557982
 20
2167.1881231925
 30
0.0
 11
-769.0000185579828
 21
2837.188123192479
 31
0.0
  0
LINE
  5
2CE
330
1F
100
AcDbEntity
  8
0-C_ハッチ
  6
JWW_DASHED1
 62
   120
370
     5
100
AcDbLine
 10
-1439.000018557982
 20
2153.045987568798
 30
0.0
 11
-769.0000185579828
 21
2823.045987568773
 31
0.0
  0
LINE
  5
2CF
330
1F
100
AcDbEntity
  8
0-C_ハッチ
  6
JWW_DASHED1
 62
   120
370
     5
100
AcDbLine
 10
-1439.000018557982
 20
2138.903851945059
 30
0.0
 11
-769.0000185579828
 21
2808.903851945037
 31
0.0
  0
LINE
  5
2D0
330
1F
100
AcDbEntity
  8
0-C_ハッチ
  6
JWW_DASHED1
 62
   120
370
     5
100
AcDbLine
 10
-1439.000018557982
 20
2124.761716321357
 30
0.0
 11
-769.0000185579828
 21
2794.761716321332
 31
0.0
  0
LINE
  5
2D1
330
1F
100
AcDbEntity
  8
0-C_ハッチ
  6
JWW_DASHED1
 62
   120
370
     5
100
AcDbLine
 10
-1439.000018557982
 20
2110.619580697618
 30
0.0
 11
-769.0000185579828
 21
2780.619580697596
 31
0.0
  0
LINE
  5
2D2
330
1F
100
AcDbEntity
  8
0-C_ハッチ
  6
JWW_DASHED1
 62
   120
370
     5
100
AcDbLine
 10
-1439.000018557982
 20
2096.477445073916
 30
0.0
 11
-769.0000185579828
 21
2766.477445073891
 31
0.0
  0
LINE
  5
2D3
330
1F
100
AcDbEntity
  8
0-C_ハッチ
  6
JWW_DASHED1
 62
   120
370
     5
100
AcDbLine
 10
-1439.000018557982
 20
2082.335309450177
 30
0.0
 11
-769.0000185579828
 21
2752.335309450155
 31
0.0
  0
LINE
  5
2D4
330
1F
100
AcDbEntity
  8
0-C_ハッチ
  6
JWW_DASHED1
 62
   120
370
     5
100
AcDbLine
 10
-1439.000018557982
 20
2068.193173826475
 30
0.0
 11
-769.0000185579828
 21
2738.193173826449
 31
0.0
  0
LINE
  5
2D5
330
1F
100
AcDbEntity
  8
0-C_ハッチ
  6
JWW_DASHED1
 62
   120
370
     5
100
AcDbLine
 10
-1439.000018557982
 20
2054.051038202736
 30
0.0
 11
-769.0000185579828
 21
2724.051038202714
 31
0.0
  0
LINE
  5
2D6
330
1F
100
AcDbEntity
  8
0-C_ハッチ
  6
JWW_DASHED1
 62
   120
370
     5
100
AcDbLine
 10
-1439.000018557982
 20
2039.908902579034
 30
0.0
 11
-769.0000185579828
 21
2709.908902579009
 31
0.0
  0
LINE
  5
2D7
330
1F
100
AcDbEntity
  8
0-C_ハッチ
  6
JWW_DASHED1
 62
   120
370
     5
100
AcDbLine
 10
-1439.000018557982
 20
2025.766766955295
 30
0.0
 11
-769.0000185579828
 21
2695.766766955273
 31
0.0
  0
LINE
  5
2D8
330
1F
100
AcDbEntity
  8
0-C_ハッチ
  6
JWW_DASHED1
 62
   120
370
     5
100
AcDbLine
 10
-1439.000018557982
 20
2011.624631331593
 30
0.0
 11
-769.0000185579828
 21
2681.624631331567
 31
0.0
  0
LINE
  5
2D9
330
1F
100
AcDbEntity
  8
0-C_ハッチ
  6
JWW_DASHED1
 62
   120
370
     5
100
AcDbLine
 10
-1439.000018557982
 20
1997.482495707854
 30
0.0
 11
-769.0000185579828
 21
2667.482495707832
 31
0.0
  0
LINE
  5
2DA
330
1F
100
AcDbEntity
  8
0-C_ハッチ
  6
JWW_DASHED1
 62
   120
370
     5
100
AcDbLine
 10
-1439.000018557982
 20
1983.340360084152
 30
0.0
 11
-769.0000185579828
 21
2653.340360084126
 31
0.0
  0
LINE
  5
2DB
330
1F
100
AcDbEntity
  8
0-C_ハッチ
  6
JWW_DASHED1
 62
   120
370
     5
100
AcDbLine
 10
-1439.000018557982
 20
1969.198224460413
 30
0.0
 11
-769.0000185579828
 21
2639.198224460391
 31
0.0
  0
LINE
  5
2DC
330
1F
100
AcDbEntity
  8
0-C_ハッチ
  6
JWW_DASHED1
 62
   120
370
     5
100
AcDbLine
 10
-1439.000018557982
 20
1955.05608883671
 30
0.0
 11
-769.0000185579828
 21
2625.056088836685
 31
0.0
  0
LINE
  5
2DD
330
1F
100
AcDbEntity
  8
0-C_ハッチ
  6
JWW_DASHED1
 62
   120
370
     5
100
AcDbLine
 10
-1439.000018557982
 20
1940.913953212972
 30
0.0
 11
-769.0000185579828
 21
2610.91395321295
 31
0.0
  0
LINE
  5
2DE
330
1F
100
AcDbEntity
  8
0-C_ハッチ
  6
JWW_DASHED1
 62
   120
370
     5
100
AcDbLine
 10
-1439.000018557982
 20
1926.771817589269
 30
0.0
 11
-769.0000185579828
 21
2596.771817589244
 31
0.0
  0
LINE
  5
2DF
330
1F
100
AcDbEntity
  8
0-C_ハッチ
  6
JWW_DASHED1
 62
   120
370
     5
100
AcDbLine
 10
-1439.000018557982
 20
1912.629681965531
 30
0.0
 11
-769.0000185579828
 21
2582.629681965509
 31
0.0
  0
LINE
  5
2E0
330
1F
100
AcDbEntity
  8
0-C_ハッチ
  6
JWW_DASHED1
 62
   120
370
     5
100
AcDbLine
 10
-1439.000018557982
 20
1898.487546341828
 30
0.0
 11
-769.0000185579828
 21
2568.487546341803
 31
0.0
  0
LINE
  5
2E1
330
1F
100
AcDbEntity
  8
0-C_ハッチ
  6
JWW_DASHED1
 62
   120
370
     5
100
AcDbLine
 10
-1439.000018557982
 20
1884.34541071809
 30
0.0
 11
-769.0000185579828
 21
2554.345410718067
 31
0.0
  0
LINE
  5
2E2
330
1F
100
AcDbEntity
  8
0-C_ハッチ
  6
JWW_DASHED1
 62
   120
370
     5
100
AcDbLine
 10
-1439.000018557982
 20
1870.203275094387
 30
0.0
 11
-769.0000185579828
 21
2540.203275094362
 31
0.0
  0
LINE
  5
2E3
330
1F
100
AcDbEntity
  8
0-C_ハッチ
  6
JWW_DASHED1
 62
   120
370
     5
100
AcDbLine
 10
-1439.000018557982
 20
1856.061139470648
 30
0.0
 11
-769.0000185579828
 21
2526.061139470627
 31
0.0
  0
LINE
  5
2E4
330
1F
100
AcDbEntity
  8
0-C_ハッチ
  6
JWW_DASHED1
 62
   120
370
     5
100
AcDbLine
 10
-1439.000018557982
 20
1841.919003846946
 30
0.0
 11
-769.0000185579828
 21
2511.919003846921
 31
0.0
  0
LINE
  5
2E5
330
1F
100
AcDbEntity
  8
0-C_ハッチ
  6
JWW_DASHED1
 62
   120
370
     5
100
AcDbLine
 10
-1439.000018557982
 20
1827.776868223207
 30
0.0
 11
-769.0000185579828
 21
2497.776868223185
 31
0.0
  0
LINE
  5
2E6
330
1F
100
AcDbEntity
  8
0-C_ハッチ
  6
JWW_DASHED1
 62
   120
370
     5
100
AcDbLine
 10
-1439.000018557982
 20
1813.634732599505
 30
0.0
 11
-769.0000185579828
 21
2483.63473259948
 31
0.0
  0
LINE
  5
2E7
330
1F
100
AcDbEntity
  8
0-C_ハッチ
  6
JWW_DASHED1
 62
   120
370
     5
100
AcDbLine
 10
-1439.000018557982
 20
1799.492596975766
 30
0.0
 11
-769.0000185579828
 21
2469.492596975744
 31
0.0
  0
LINE
  5
2E8
330
1F
100
AcDbEntity
  8
0-C_ハッチ
  6
JWW_DASHED1
 62
   120
370
     5
100
AcDbLine
 10
-1439.000018557982
 20
1785.350461352064
 30
0.0
 11
-769.0000185579828
 21
2455.350461352039
 31
0.0
  0
LINE
  5
2E9
330
1F
100
AcDbEntity
  8
0-C_ハッチ
  6
JWW_DASHED1
 62
   120
370
     5
100
AcDbLine
 10
-1439.000018557982
 20
1771.208325728325
 30
0.0
 11
-769.0000185579828
 21
2441.208325728303
 31
0.0
  0
LINE
  5
2EA
330
1F
100
AcDbEntity
  8
0-C_ハッチ
  6
JWW_DASHED1
 62
   120
370
     5
100
AcDbLine
 10
-1439.000018557982
 20
1757.066190104623
 30
0.0
 11
-769.0000185579828
 21
2427.066190104597
 31
0.0
  0
LINE
  5
2EB
330
1F
100
AcDbEntity
  8
0-C_ハッチ
  6
JWW_DASHED1
 62
   120
370
     5
100
AcDbLine
 10
-1439.000018557982
 20
1742.924054480884
 30
0.0
 11
-769.0000185579828
 21
2412.924054480862
 31
0.0
  0
LINE
  5
2EC
330
1F
100
AcDbEntity
  8
0-C_ハッチ
  6
JWW_DASHED1
 62
   120
370
     5
100
AcDbLine
 10
-1439.000018557982
 20
1728.781918857182
 30
0.0
 11
-769.0000185579828
 21
2398.781918857157
 31
0.0
  0
LINE
  5
2ED
330
1F
100
AcDbEntity
  8
0-C_ハッチ
  6
JWW_DASHED1
 62
   120
370
     5
100
AcDbLine
 10
-1439.000018557982
 20
1714.639783233443
 30
0.0
 11
-769.0000185579828
 21
2384.63978323342
 31
0.0
  0
LINE
  5
2EE
330
1F
100
AcDbEntity
  8
0-C_ハッチ
  6
JWW_DASHED1
 62
   120
370
     5
100
AcDbLine
 10
-1439.000018557982
 20
1700.49764760974
 30
0.0
 11
-769.0000185579828
 21
2370.497647609714
 31
0.0
  0
LINE
  5
2EF
330
1F
100
AcDbEntity
  8
0-C_ハッチ
  6
JWW_DASHED1
 62
   120
370
     5
100
AcDbLine
 10
-1439.000018557982
 20
1686.355511986001
 30
0.0
 11
-769.0000185579828
 21
2356.355511985979
 31
0.0
  0
LINE
  5
2F0
330
1F
100
AcDbEntity
  8
0-C_ハッチ
  6
JWW_DASHED1
 62
   120
370
     5
100
AcDbLine
 10
-1439.000018557982
 20
1672.213376362299
 30
0.0
 11
-769.0000185579828
 21
2342.213376362273
 31
0.0
  0
LINE
  5
2F1
330
1F
100
AcDbEntity
  8
0-C_ハッチ
  6
JWW_DASHED1
 62
   120
370
     5
100
AcDbLine
 10
-1439.000018557982
 20
1658.07124073856
 30
0.0
 11
-769.0000185579828
 21
2328.071240738538
 31
0.0
  0
LINE
  5
2F2
330
1F
100
AcDbEntity
  8
0-C_ハッチ
  6
JWW_DASHED1
 62
   120
370
     5
100
AcDbLine
 10
-1439.000018557982
 20
1643.929105114858
 30
0.0
 11
-769.0000185579828
 21
2313.929105114832
 31
0.0
  0
LINE
  5
2F3
330
1F
100
AcDbEntity
  8
0-C_ハッチ
  6
JWW_DASHED1
 62
   120
370
     5
100
AcDbLine
 10
-1439.000018557982
 20
1629.786969491119
 30
0.0
 11
-769.0000185579828
 21
2299.786969491097
 31
0.0
  0
LINE
  5
2F4
330
1F
100
AcDbEntity
  8
0-C_ハッチ
  6
JWW_DASHED1
 62
   120
370
     5
100
AcDbLine
 10
-1439.000018557982
 20
1615.644833867417
 30
0.0
 11
-769.0000185579828
 21
2285.644833867391
 31
0.0
  0
LINE
  5
2F5
330
1F
100
AcDbEntity
  8
0-C_ハッチ
  6
JWW_DASHED1
 62
   120
370
     5
100
AcDbLine
 10
-1439.000018557982
 20
1601.502698243678
 30
0.0
 11
-769.0000185579828
 21
2271.502698243656
 31
0.0
  0
LINE
  5
2F6
330
1F
100
AcDbEntity
  8
0-C_ハッチ
  6
JWW_DASHED1
 62
   120
370
     5
100
AcDbLine
 10
-1439.000018557982
 20
1587.360562619976
 30
0.0
 11
-769.0000185579828
 21
2257.36056261995
 31
0.0
  0
LINE
  5
2F7
330
1F
100
AcDbEntity
  8
0-C_ハッチ
  6
JWW_DASHED1
 62
   120
370
     5
100
AcDbLine
 10
-1439.000018557982
 20
1573.218426996237
 30
0.0
 11
-769.0000185579828
 21
2243.218426996214
 31
0.0
  0
LINE
  5
2F8
330
1F
100
AcDbEntity
  8
0-C_ハッチ
  6
JWW_DASHED1
 62
   120
370
     5
100
AcDbLine
 10
-1439.000018557982
 20
1559.076291372534
 30
0.0
 11
-769.0000185579828
 21
2229.076291372509
 31
0.0
  0
LINE
  5
2F9
330
1F
100
AcDbEntity
  8
0-C_ハッチ
  6
JWW_DASHED1
 62
   120
370
     5
100
AcDbLine
 10
-1439.000018557982
 20
1544.934155748796
 30
0.0
 11
-769.0000185579828
 21
2214.934155748773
 31
0.0
  0
LINE
  5
2FA
330
1F
100
AcDbEntity
  8
0-C_ハッチ
  6
JWW_DASHED1
 62
   120
370
     5
100
AcDbLine
 10
857.9999814420207
 20
2747.015683765157
 30
0.0
 11
1430.999981442021
 21
3320.015683765135
 31
0.0
  0
LINE
  5
2FB
330
1F
100
AcDbEntity
  8
0-C_ハッチ
  6
JWW_DASHED1
 62
   120
370
     5
100
AcDbLine
 10
1425.535670353403
 20
1518.500148463893
 30
0.0
 11
1430.999981442021
 21
1523.964459552511
 31
0.0
  0
LINE
  5
2FC
330
1F
100
AcDbEntity
  8
0-C_ハッチ
  6
JWW_DASHED1
 62
   120
370
     5
100
AcDbLine
 10
859.8502454045602
 20
1518.500148463893
 30
0.0
 11
1430.999981442021
 21
2089.649884501336
 31
0.0
  0
LINE
  5
2FD
330
1F
100
AcDbEntity
  8
0-C_ハッチ
  6
JWW_DASHED1
 62
   120
370
     5
100
AcDbLine
 10
873.9923810282628
 20
1518.500148463893
 30
0.0
 11
1430.999981442021
 21
2075.507748877631
 31
0.0
  0
LINE
  5
2FE
330
1F
100
AcDbEntity
  8
0-C_ハッチ
  6
JWW_DASHED1
 62
   120
370
     5
100
AcDbLine
 10
888.134516652002
 20
1518.500148463893
 30
0.0
 11
1430.999981442021
 21
2061.365613253894
 31
0.0
  0
LINE
  5
2FF
330
1F
100
AcDbEntity
  8
0-C_ハッチ
  6
JWW_DASHED1
 62
   120
370
     5
100
AcDbLine
 10
902.2766522757047
 20
1518.500148463893
 30
0.0
 11
1430.999981442021
 21
2047.223477630189
 31
0.0
  0
LINE
  5
300
330
1F
100
AcDbEntity
  8
0-C_ハッチ
  6
JWW_DASHED1
 62
   120
370
     5
100
AcDbLine
 10
916.4187878994439
 20
1518.500148463893
 30
0.0
 11
1430.999981442021
 21
2033.081342006453
 31
0.0
  0
LINE
  5
301
330
1F
100
AcDbEntity
  8
0-C_ハッチ
  6
JWW_DASHED1
 62
   120
370
     5
100
AcDbLine
 10
930.5609235231475
 20
1518.500148463893
 30
0.0
 11
1430.999981442021
 21
2018.939206382747
 31
0.0
  0
LINE
  5
302
330
1F
100
AcDbEntity
  8
0-C_ハッチ
  6
JWW_DASHED1
 62
   120
370
     5
100
AcDbLine
 10
944.7030591468867
 20
1518.500148463893
 30
0.0
 11
1430.999981442021
 21
2004.797070759012
 31
0.0
  0
LINE
  5
303
330
1F
100
AcDbEntity
  8
0-C_ハッチ
  6
JWW_DASHED1
 62
   120
370
     5
100
AcDbLine
 10
958.8451947705898
 20
1518.500148463893
 30
0.0
 11
1430.999981442021
 21
1990.654935135306
 31
0.0
  0
LINE
  5
304
330
1F
100
AcDbEntity
  8
0-C_ハッチ
  6
JWW_DASHED1
 62
   120
370
     5
100
AcDbLine
 10
972.9873303943288
 20
1518.500148463893
 30
0.0
 11
1430.999981442021
 21
1976.51279951157
 31
0.0
  0
LINE
  5
305
330
1F
100
AcDbEntity
  8
0-C_ハッチ
  6
JWW_DASHED1
 62
   120
370
     5
100
AcDbLine
 10
987.1294660180322
 20
1518.500148463893
 30
0.0
 11
1430.999981442021
 21
1962.370663887865
 31
0.0
  0
LINE
  5
306
330
1F
100
AcDbEntity
  8
0-C_ハッチ
  6
JWW_DASHED1
 62
   120
370
     5
100
AcDbLine
 10
1001.271601641771
 20
1518.500148463893
 30
0.0
 11
1430.999981442021
 21
1948.228528264129
 31
0.0
  0
LINE
  5
307
330
1F
100
AcDbEntity
  8
0-C_ハッチ
  6
JWW_DASHED1
 62
   120
370
     5
100
AcDbLine
 10
1015.413737265474
 20
1518.500148463893
 30
0.0
 11
1430.999981442021
 21
1934.086392640424
 31
0.0
  0
LINE
  5
308
330
1F
100
AcDbEntity
  8
0-C_ハッチ
  6
JWW_DASHED1
 62
   120
370
     5
100
AcDbLine
 10
1029.555872889213
 20
1518.500148463893
 30
0.0
 11
1430.999981442021
 21
1919.944257016688
 31
0.0
  0
LINE
  5
309
330
1F
100
AcDbEntity
  8
0-C_ハッチ
  6
JWW_DASHED1
 62
   120
370
     5
100
AcDbLine
 10
1043.698008512917
 20
1518.500148463893
 30
0.0
 11
1430.999981442021
 21
1905.802121392983
 31
0.0
  0
LINE
  5
30A
330
1F
100
AcDbEntity
  8
0-C_ハッチ
  6
JWW_DASHED1
 62
   120
370
     5
100
AcDbLine
 10
1057.840144136655
 20
1518.500148463893
 30
0.0
 11
1430.999981442021
 21
1891.659985769247
 31
0.0
  0
LINE
  5
30B
330
1F
100
AcDbEntity
  8
0-C_ハッチ
  6
JWW_DASHED1
 62
   120
370
     5
100
AcDbLine
 10
1071.982279760359
 20
1518.500148463893
 30
0.0
 11
1430.999981442021
 21
1877.517850145542
 31
0.0
  0
LINE
  5
30C
330
1F
100
AcDbEntity
  8
0-C_ハッチ
  6
JWW_DASHED1
 62
   120
370
     5
100
AcDbLine
 10
1086.124415384097
 20
1518.500148463893
 30
0.0
 11
1430.999981442021
 21
1863.375714521805
 31
0.0
  0
LINE
  5
30D
330
1F
100
AcDbEntity
  8
0-C_ハッチ
  6
JWW_DASHED1
 62
   120
370
     5
100
AcDbLine
 10
1100.266551007801
 20
1518.500148463893
 30
0.0
 11
1430.999981442021
 21
1849.2335788981
 31
0.0
  0
LINE
  5
30E
330
1F
100
AcDbEntity
  8
0-C_ハッチ
  6
JWW_DASHED1
 62
   120
370
     5
100
AcDbLine
 10
1114.40868663154
 20
1518.500148463893
 30
0.0
 11
1430.999981442021
 21
1835.091443274364
 31
0.0
  0
LINE
  5
30F
330
1F
100
AcDbEntity
  8
0-C_ハッチ
  6
JWW_DASHED1
 62
   120
370
     5
100
AcDbLine
 10
1128.550822255244
 20
1518.500148463893
 30
0.0
 11
1430.999981442021
 21
1820.949307650659
 31
0.0
  0
LINE
  5
310
330
1F
100
AcDbEntity
  8
0-C_ハッチ
  6
JWW_DASHED1
 62
   120
370
     5
100
AcDbLine
 10
1142.692957878982
 20
1518.500148463893
 30
0.0
 11
1430.999981442021
 21
1806.807172026923
 31
0.0
  0
LINE
  5
311
330
1F
100
AcDbEntity
  8
0-C_ハッチ
  6
JWW_DASHED1
 62
   120
370
     5
100
AcDbLine
 10
1156.835093502686
 20
1518.500148463893
 30
0.0
 11
1430.999981442021
 21
1792.665036403218
 31
0.0
  0
LINE
  5
312
330
1F
100
AcDbEntity
  8
0-C_ハッチ
  6
JWW_DASHED1
 62
   120
370
     5
100
AcDbLine
 10
1170.977229126424
 20
1518.500148463893
 30
0.0
 11
1430.999981442021
 21
1778.522900779482
 31
0.0
  0
LINE
  5
313
330
1F
100
AcDbEntity
  8
0-C_ハッチ
  6
JWW_DASHED1
 62
   120
370
     5
100
AcDbLine
 10
1185.119364750128
 20
1518.500148463893
 30
0.0
 11
1430.999981442021
 21
1764.380765155777
 31
0.0
  0
LINE
  5
314
330
1F
100
AcDbEntity
  8
0-C_ハッチ
  6
JWW_DASHED1
 62
   120
370
     5
100
AcDbLine
 10
1199.261500373866
 20
1518.500148463893
 30
0.0
 11
1430.999981442021
 21
1750.238629532041
 31
0.0
  0
LINE
  5
315
330
1F
100
AcDbEntity
  8
0-C_ハッチ
  6
JWW_DASHED1
 62
   120
370
     5
100
AcDbLine
 10
1213.40363599757
 20
1518.500148463893
 30
0.0
 11
1430.999981442021
 21
1736.096493908336
 31
0.0
  0
LINE
  5
316
330
1F
100
AcDbEntity
  8
0-C_ハッチ
  6
JWW_DASHED1
 62
   120
370
     5
100
AcDbLine
 10
1227.545771621308
 20
1518.500148463893
 30
0.0
 11
1430.999981442021
 21
1721.954358284599
 31
0.0
  0
LINE
  5
317
330
1F
100
AcDbEntity
  8
0-C_ハッチ
  6
JWW_DASHED1
 62
   120
370
     5
100
AcDbLine
 10
1241.687907245012
 20
1518.500148463893
 30
0.0
 11
1430.999981442021
 21
1707.812222660895
 31
0.0
  0
LINE
  5
318
330
1F
100
AcDbEntity
  8
0-C_ハッチ
  6
JWW_DASHED1
 62
   120
370
     5
100
AcDbLine
 10
1255.83004286875
 20
1518.500148463893
 30
0.0
 11
1430.999981442021
 21
1693.670087037158
 31
0.0
  0
LINE
  5
319
330
1F
100
AcDbEntity
  8
0-C_ハッチ
  6
JWW_DASHED1
 62
   120
370
     5
100
AcDbLine
 10
1269.972178492455
 20
1518.500148463893
 30
0.0
 11
1430.999981442021
 21
1679.527951413453
 31
0.0
  0
LINE
  5
31A
330
1F
100
AcDbEntity
  8
0-C_ハッチ
  6
JWW_DASHED1
 62
   120
370
     5
100
AcDbLine
 10
1284.114314116192
 20
1518.500148463893
 30
0.0
 11
1430.999981442021
 21
1665.385815789717
 31
0.0
  0
LINE
  5
31B
330
1F
100
AcDbEntity
  8
0-C_ハッチ
  6
JWW_DASHED1
 62
   120
370
     5
100
AcDbLine
 10
1298.256449739897
 20
1518.500148463893
 30
0.0
 11
1430.999981442021
 21
1651.243680166012
 31
0.0
  0
LINE
  5
31C
330
1F
100
AcDbEntity
  8
0-C_ハッチ
  6
JWW_DASHED1
 62
   120
370
     5
100
AcDbLine
 10
1312.398585363635
 20
1518.500148463893
 30
0.0
 11
1430.999981442021
 21
1637.101544542276
 31
0.0
  0
LINE
  5
31D
330
1F
100
AcDbEntity
  8
0-C_ハッチ
  6
JWW_DASHED1
 62
   120
370
     5
100
AcDbLine
 10
1326.54072098734
 20
1518.500148463893
 30
0.0
 11
1430.999981442021
 21
1622.95940891857
 31
0.0
  0
LINE
  5
31E
330
1F
100
AcDbEntity
  8
0-C_ハッチ
  6
JWW_DASHED1
 62
   120
370
     5
100
AcDbLine
 10
1340.682856611077
 20
1518.500148463893
 30
0.0
 11
1430.999981442021
 21
1608.817273294835
 31
0.0
  0
LINE
  5
31F
330
1F
100
AcDbEntity
  8
0-C_ハッチ
  6
JWW_DASHED1
 62
   120
370
     5
100
AcDbLine
 10
1354.824992234782
 20
1518.500148463893
 30
0.0
 11
1430.999981442021
 21
1594.675137671129
 31
0.0
  0
LINE
  5
320
330
1F
100
AcDbEntity
  8
0-C_ハッチ
  6
JWW_DASHED1
 62
   120
370
     5
100
AcDbLine
 10
1368.967127858519
 20
1518.500148463893
 30
0.0
 11
1430.999981442021
 21
1580.533002047393
 31
0.0
  0
LINE
  5
321
330
1F
100
AcDbEntity
  8
0-C_ハッチ
  6
JWW_DASHED1
 62
   120
370
     5
100
AcDbLine
 10
1383.109263482225
 20
1518.500148463893
 30
0.0
 11
1430.999981442021
 21
1566.390866423688
 31
0.0
  0
LINE
  5
322
330
1F
100
AcDbEntity
  8
0-C_ハッチ
  6
JWW_DASHED1
 62
   120
370
     5
100
AcDbLine
 10
1397.251399105961
 20
1518.500148463893
 30
0.0
 11
1430.999981442021
 21
1552.248730799952
 31
0.0
  0
LINE
  5
323
330
1F
100
AcDbEntity
  8
0-C_ハッチ
  6
JWW_DASHED1
 62
   120
370
     5
100
AcDbLine
 10
1411.393534729667
 20
1518.500148463893
 30
0.0
 11
1430.999981442021
 21
1538.106595176246
 31
0.0
  0
LINE
  5
324
330
1F
100
AcDbEntity
  8
0-C_ハッチ
  6
JWW_DASHED1
 62
   120
370
     5
100
AcDbLine
 10
857.9999814420207
 20
1530.792020125093
 30
0.0
 11
1430.999981442021
 21
2103.792020125072
 31
0.0
  0
LINE
  5
325
330
1F
100
AcDbEntity
  8
0-C_ハッチ
  6
JWW_DASHED1
 62
   120
370
     5
100
AcDbLine
 10
857.9999814420207
 20
2732.873548141452
 30
0.0
 11
1430.999981442021
 21
3305.873548141403
 31
0.0
  0
LINE
  5
326
330
1F
100
AcDbEntity
  8
0-C_ハッチ
  6
JWW_DASHED1
 62
   120
370
     5
100
AcDbLine
 10
857.9999814420207
 20
2704.589276893956
 30
0.0
 11
1430.999981442021
 21
3277.589276893937
 31
0.0
  0
LINE
  5
327
330
1F
100
AcDbEntity
  8
0-C_ハッチ
  6
JWW_DASHED1
 62
   120
370
     5
100
AcDbLine
 10
857.9999814420207
 20
2690.447141270252
 30
0.0
 11
1430.999981442021
 21
3263.447141270231
 31
0.0
  0
LINE
  5
328
330
1F
100
AcDbEntity
  8
0-C_ハッチ
  6
JWW_DASHED1
 62
   120
370
     5
100
AcDbLine
 10
857.9999814420207
 20
2718.731412517639
 30
0.0
 11
1430.999981442021
 21
3291.731412517669
 31
0.0
  0
LINE
  5
329
330
1F
100
AcDbEntity
  8
0-C_ハッチ
  6
JWW_DASHED1
 62
   120
370
     5
100
AcDbLine
 10
857.9999814420207
 20
2676.305005646518
 30
0.0
 11
1430.999981442021
 21
3249.305005646496
 31
0.0
  0
LINE
  5
32A
330
1F
100
AcDbEntity
  8
0-C_ハッチ
  6
JWW_DASHED1
 62
   120
370
     5
100
AcDbLine
 10
857.9999814420207
 20
2662.162870022817
 30
0.0
 11
1430.999981442021
 21
3235.162870022767
 31
0.0
  0
LINE
  5
32B
330
1F
100
AcDbEntity
  8
0-C_ハッチ
  6
JWW_DASHED1
 62
   120
370
     5
100
AcDbLine
 10
857.9999814420207
 20
2633.878598775316
 30
0.0
 11
1430.999981442021
 21
3206.878598775298
 31
0.0
  0
LINE
  5
32C
330
1F
100
AcDbEntity
  8
0-C_ハッチ
  6
JWW_DASHED1
 62
   120
370
     5
100
AcDbLine
 10
857.9999814420207
 20
2619.736463151615
 30
0.0
 11
1430.999981442021
 21
3192.736463151592
 31
0.0
  0
LINE
  5
32D
330
1F
100
AcDbEntity
  8
0-C_ハッチ
  6
JWW_DASHED1
 62
   120
370
     5
100
AcDbLine
 10
857.9999814420207
 20
2648.020734398992
 30
0.0
 11
1430.999981442021
 21
3221.020734399023
 31
0.0
  0
LINE
  5
32E
330
1F
100
AcDbEntity
  8
0-C_ハッチ
  6
JWW_DASHED1
 62
   120
370
     5
100
AcDbLine
 10
857.9999814420207
 20
2605.59432752788
 30
0.0
 11
1430.999981442021
 21
3178.594327527857
 31
0.0
  0
LINE
  5
32F
330
1F
100
AcDbEntity
  8
0-C_ハッチ
  6
JWW_DASHED1
 62
   120
370
     5
100
AcDbLine
 10
857.9999814420207
 20
2591.452191904181
 30
0.0
 11
1430.999981442021
 21
3164.452191904133
 31
0.0
  0
LINE
  5
330
330
1F
100
AcDbEntity
  8
0-C_ハッチ
  6
JWW_DASHED1
 62
   120
370
     5
100
AcDbLine
 10
857.9999814420207
 20
2577.310056280348
 30
0.0
 11
1430.999981442021
 21
3150.310056280378
 31
0.0
  0
LINE
  5
331
330
1F
100
AcDbEntity
  8
0-C_ハッチ
  6
JWW_DASHED1
 62
   120
370
     5
100
AcDbLine
 10
857.9999814420207
 20
2563.167920656677
 30
0.0
 11
1430.999981442021
 21
3136.167920656658
 31
0.0
  0
LINE
  5
332
330
1F
100
AcDbEntity
  8
0-C_ハッチ
  6
JWW_DASHED1
 62
   120
370
     5
100
AcDbLine
 10
857.9999814420207
 20
2549.025785032975
 30
0.0
 11
1430.999981442021
 21
3122.025785032953
 31
0.0
  0
LINE
  5
333
330
1F
100
AcDbEntity
  8
0-C_ハッチ
  6
JWW_DASHED1
 62
   120
370
     5
100
AcDbLine
 10
857.9999814420207
 20
2534.883649409236
 30
0.0
 11
1430.999981442021
 21
3107.883649409217
 31
0.0
  0
LINE
  5
334
330
1F
100
AcDbEntity
  8
0-C_ハッチ
  6
JWW_DASHED1
 62
   120
370
     5
100
AcDbLine
 10
857.9999814420207
 20
2520.741513785533
 30
0.0
 11
1430.999981442021
 21
3093.741513785512
 31
0.0
  0
LINE
  5
335
330
1F
100
AcDbEntity
  8
0-C_ハッチ
  6
JWW_DASHED1
 62
   120
370
     5
100
AcDbLine
 10
857.9999814420207
 20
2506.599378161794
 30
0.0
 11
1430.999981442021
 21
3079.599378161776
 31
0.0
  0
LINE
  5
336
330
1F
100
AcDbEntity
  8
0-C_ハッチ
  6
JWW_DASHED1
 62
   120
370
     5
100
AcDbLine
 10
857.9999814420207
 20
2492.457242538092
 30
0.0
 11
1430.999981442021
 21
3065.457242538071
 31
0.0
  0
LINE
  5
337
330
1F
100
AcDbEntity
  8
0-C_ハッチ
  6
JWW_DASHED1
 62
   120
370
     5
100
AcDbLine
 10
857.9999814420207
 20
2478.315106914353
 30
0.0
 11
1430.999981442021
 21
3051.315106914335
 31
0.0
  0
LINE
  5
338
330
1F
100
AcDbEntity
  8
0-C_ハッチ
  6
JWW_DASHED1
 62
   120
370
     5
100
AcDbLine
 10
857.9999814420207
 20
2464.172971290651
 30
0.0
 11
1430.999981442021
 21
3037.172971290629
 31
0.0
  0
LINE
  5
339
330
1F
100
AcDbEntity
  8
0-C_ハッチ
  6
JWW_DASHED1
 62
   120
370
     5
100
AcDbLine
 10
857.9999814420207
 20
2450.030835666912
 30
0.0
 11
1430.999981442021
 21
3023.030835666894
 31
0.0
  0
LINE
  5
33A
330
1F
100
AcDbEntity
  8
0-C_ハッチ
  6
JWW_DASHED1
 62
   120
370
     5
100
AcDbLine
 10
857.9999814420207
 20
2435.88870004321
 30
0.0
 11
1430.999981442021
 21
3008.888700043189
 31
0.0
  0
LINE
  5
33B
330
1F
100
AcDbEntity
  8
0-C_ハッチ
  6
JWW_DASHED1
 62
   120
370
     5
100
AcDbLine
 10
857.9999814420207
 20
2421.746564419471
 30
0.0
 11
1430.999981442021
 21
2994.746564419453
 31
0.0
  0
LINE
  5
33C
330
1F
100
AcDbEntity
  8
0-C_ハッチ
  6
JWW_DASHED1
 62
   120
370
     5
100
AcDbLine
 10
857.9999814420207
 20
2407.604428795769
 30
0.0
 11
1430.999981442021
 21
2980.604428795747
 31
0.0
  0
LINE
  5
33D
330
1F
100
AcDbEntity
  8
0-C_ハッチ
  6
JWW_DASHED1
 62
   120
370
     5
100
AcDbLine
 10
857.9999814420207
 20
2393.46229317203
 30
0.0
 11
1430.999981442021
 21
2966.462293172011
 31
0.0
  0
LINE
  5
33E
330
1F
100
AcDbEntity
  8
0-C_ハッチ
  6
JWW_DASHED1
 62
   120
370
     5
100
AcDbLine
 10
857.9999814420207
 20
2379.320157548328
 30
0.0
 11
1430.999981442021
 21
2952.320157548306
 31
0.0
  0
LINE
  5
33F
330
1F
100
AcDbEntity
  8
0-C_ハッチ
  6
JWW_DASHED1
 62
   120
370
     5
100
AcDbLine
 10
857.9999814420207
 20
2365.178021924589
 30
0.0
 11
1430.999981442021
 21
2938.17802192457
 31
0.0
  0
LINE
  5
340
330
1F
100
AcDbEntity
  8
0-C_ハッチ
  6
JWW_DASHED1
 62
   120
370
     5
100
AcDbLine
 10
857.9999814420207
 20
2351.035886300887
 30
0.0
 11
1430.999981442021
 21
2924.035886300865
 31
0.0
  0
LINE
  5
341
330
1F
100
AcDbEntity
  8
0-C_ハッチ
  6
JWW_DASHED1
 62
   120
370
     5
100
AcDbLine
 10
857.9999814420207
 20
2336.893750677148
 30
0.0
 11
1430.999981442021
 21
2909.893750677129
 31
0.0
  0
LINE
  5
342
330
1F
100
AcDbEntity
  8
0-C_ハッチ
  6
JWW_DASHED1
 62
   120
370
     5
100
AcDbLine
 10
857.9999814420207
 20
2322.751615053446
 30
0.0
 11
1430.999981442021
 21
2895.751615053424
 31
0.0
  0
LINE
  5
343
330
1F
100
AcDbEntity
  8
0-C_ハッチ
  6
JWW_DASHED1
 62
   120
370
     5
100
AcDbLine
 10
857.9999814420207
 20
2308.609479429707
 30
0.0
 11
1430.999981442021
 21
2881.609479429687
 31
0.0
  0
LINE
  5
344
330
1F
100
AcDbEntity
  8
0-C_ハッチ
  6
JWW_DASHED1
 62
   120
370
     5
100
AcDbLine
 10
857.9999814420207
 20
2294.467343806004
 30
0.0
 11
1430.999981442021
 21
2867.467343805983
 31
0.0
  0
LINE
  5
345
330
1F
100
AcDbEntity
  8
0-C_ハッチ
  6
JWW_DASHED1
 62
   120
370
     5
100
AcDbLine
 10
857.9999814420207
 20
2280.325208182265
 30
0.0
 11
1430.999981442021
 21
2853.325208182246
 31
0.0
  0
LINE
  5
346
330
1F
100
AcDbEntity
  8
0-C_ハッチ
  6
JWW_DASHED1
 62
   120
370
     5
100
AcDbLine
 10
857.9999814420207
 20
2266.183072558563
 30
0.0
 11
1430.999981442021
 21
2839.183072558541
 31
0.0
  0
LINE
  5
347
330
1F
100
AcDbEntity
  8
0-C_ハッチ
  6
JWW_DASHED1
 62
   120
370
     5
100
AcDbLine
 10
857.9999814420207
 20
2252.040936934824
 30
0.0
 11
1430.999981442021
 21
2825.040936934805
 31
0.0
  0
LINE
  5
348
330
1F
100
AcDbEntity
  8
0-C_ハッチ
  6
JWW_DASHED1
 62
   120
370
     5
100
AcDbLine
 10
857.9999814420207
 20
2237.898801311122
 30
0.0
 11
1430.999981442021
 21
2810.8988013111
 31
0.0
  0
LINE
  5
349
330
1F
100
AcDbEntity
  8
0-C_ハッチ
  6
JWW_DASHED1
 62
   120
370
     5
100
AcDbLine
 10
857.9999814420207
 20
2223.756665687382
 30
0.0
 11
1430.999981442021
 21
2796.756665687364
 31
0.0
  0
LINE
  5
34A
330
1F
100
AcDbEntity
  8
0-C_ハッチ
  6
JWW_DASHED1
 62
   120
370
     5
100
AcDbLine
 10
857.9999814420207
 20
2209.61453006368
 30
0.0
 11
1430.999981442021
 21
2782.614530063659
 31
0.0
  0
LINE
  5
34B
330
1F
100
AcDbEntity
  8
0-C_ハッチ
  6
JWW_DASHED1
 62
   120
370
     5
100
AcDbLine
 10
857.9999814420207
 20
2195.472394439942
 30
0.0
 11
1430.999981442021
 21
2768.472394439923
 31
0.0
  0
LINE
  5
34C
330
1F
100
AcDbEntity
  8
0-C_ハッチ
  6
JWW_DASHED1
 62
   120
370
     5
100
AcDbLine
 10
857.9999814420207
 20
2181.330258816239
 30
0.0
 11
1430.999981442021
 21
2754.330258816218
 31
0.0
  0
LINE
  5
34D
330
1F
100
AcDbEntity
  8
0-C_ハッチ
  6
JWW_DASHED1
 62
   120
370
     5
100
AcDbLine
 10
857.9999814420207
 20
2167.1881231925
 30
0.0
 11
1430.999981442021
 21
2740.188123192482
 31
0.0
  0
LINE
  5
34E
330
1F
100
AcDbEntity
  8
0-C_ハッチ
  6
JWW_DASHED1
 62
   120
370
     5
100
AcDbLine
 10
857.9999814420207
 20
2153.045987568798
 30
0.0
 11
1430.999981442021
 21
2726.045987568777
 31
0.0
  0
LINE
  5
34F
330
1F
100
AcDbEntity
  8
0-C_ハッチ
  6
JWW_DASHED1
 62
   120
370
     5
100
AcDbLine
 10
857.9999814420207
 20
2138.903851945059
 30
0.0
 11
1430.999981442021
 21
2711.903851945041
 31
0.0
  0
LINE
  5
350
330
1F
100
AcDbEntity
  8
0-C_ハッチ
  6
JWW_DASHED1
 62
   120
370
     5
100
AcDbLine
 10
857.9999814420207
 20
2124.761716321357
 30
0.0
 11
1430.999981442021
 21
2697.761716321335
 31
0.0
  0
LINE
  5
351
330
1F
100
AcDbEntity
  8
0-C_ハッチ
  6
JWW_DASHED1
 62
   120
370
     5
100
AcDbLine
 10
857.9999814420207
 20
2110.619580697618
 30
0.0
 11
1430.999981442021
 21
2683.6195806976
 31
0.0
  0
LINE
  5
352
330
1F
100
AcDbEntity
  8
0-C_ハッチ
  6
JWW_DASHED1
 62
   120
370
     5
100
AcDbLine
 10
857.9999814420207
 20
2096.477445073916
 30
0.0
 11
1430.999981442021
 21
2669.477445073895
 31
0.0
  0
LINE
  5
353
330
1F
100
AcDbEntity
  8
0-C_ハッチ
  6
JWW_DASHED1
 62
   120
370
     5
100
AcDbLine
 10
857.9999814420207
 20
2082.335309450177
 30
0.0
 11
1430.999981442021
 21
2655.335309450159
 31
0.0
  0
LINE
  5
354
330
1F
100
AcDbEntity
  8
0-C_ハッチ
  6
JWW_DASHED1
 62
   120
370
     5
100
AcDbLine
 10
857.9999814420207
 20
2068.193173826475
 30
0.0
 11
1430.999981442021
 21
2641.193173826453
 31
0.0
  0
LINE
  5
355
330
1F
100
AcDbEntity
  8
0-C_ハッチ
  6
JWW_DASHED1
 62
   120
370
     5
100
AcDbLine
 10
857.9999814420207
 20
2054.051038202736
 30
0.0
 11
1430.999981442021
 21
2627.051038202717
 31
0.0
  0
LINE
  5
356
330
1F
100
AcDbEntity
  8
0-C_ハッチ
  6
JWW_DASHED1
 62
   120
370
     5
100
AcDbLine
 10
857.9999814420207
 20
2039.908902579034
 30
0.0
 11
1430.999981442021
 21
2612.908902579012
 31
0.0
  0
LINE
  5
357
330
1F
100
AcDbEntity
  8
0-C_ハッチ
  6
JWW_DASHED1
 62
   120
370
     5
100
AcDbLine
 10
857.9999814420207
 20
2025.766766955295
 30
0.0
 11
1430.999981442021
 21
2598.766766955277
 31
0.0
  0
LINE
  5
358
330
1F
100
AcDbEntity
  8
0-C_ハッチ
  6
JWW_DASHED1
 62
   120
370
     5
100
AcDbLine
 10
857.9999814420207
 20
2011.624631331593
 30
0.0
 11
1430.999981442021
 21
2584.624631331571
 31
0.0
  0
LINE
  5
359
330
1F
100
AcDbEntity
  8
0-C_ハッチ
  6
JWW_DASHED1
 62
   120
370
     5
100
AcDbLine
 10
857.9999814420207
 20
1997.482495707854
 30
0.0
 11
1430.999981442021
 21
2570.482495707835
 31
0.0
  0
LINE
  5
35A
330
1F
100
AcDbEntity
  8
0-C_ハッチ
  6
JWW_DASHED1
 62
   120
370
     5
100
AcDbLine
 10
857.9999814420207
 20
1983.340360084152
 30
0.0
 11
1430.999981442021
 21
2556.34036008413
 31
0.0
  0
LINE
  5
35B
330
1F
100
AcDbEntity
  8
0-C_ハッチ
  6
JWW_DASHED1
 62
   120
370
     5
100
AcDbLine
 10
857.9999814420207
 20
1969.198224460413
 30
0.0
 11
1430.999981442021
 21
2542.198224460394
 31
0.0
  0
LINE
  5
35C
330
1F
100
AcDbEntity
  8
0-C_ハッチ
  6
JWW_DASHED1
 62
   120
370
     5
100
AcDbLine
 10
857.9999814420207
 20
1955.05608883671
 30
0.0
 11
1430.999981442021
 21
2528.056088836689
 31
0.0
  0
LINE
  5
35D
330
1F
100
AcDbEntity
  8
0-C_ハッチ
  6
JWW_DASHED1
 62
   120
370
     5
100
AcDbLine
 10
857.9999814420207
 20
1940.913953212972
 30
0.0
 11
1430.999981442021
 21
2513.913953212953
 31
0.0
  0
LINE
  5
35E
330
1F
100
AcDbEntity
  8
0-C_ハッチ
  6
JWW_DASHED1
 62
   120
370
     5
100
AcDbLine
 10
857.9999814420207
 20
1926.771817589269
 30
0.0
 11
1430.999981442021
 21
2499.771817589248
 31
0.0
  0
LINE
  5
35F
330
1F
100
AcDbEntity
  8
0-C_ハッチ
  6
JWW_DASHED1
 62
   120
370
     5
100
AcDbLine
 10
857.9999814420207
 20
1912.629681965531
 30
0.0
 11
1430.999981442021
 21
2485.629681965512
 31
0.0
  0
LINE
  5
360
330
1F
100
AcDbEntity
  8
0-C_ハッチ
  6
JWW_DASHED1
 62
   120
370
     5
100
AcDbLine
 10
857.9999814420207
 20
1898.487546341828
 30
0.0
 11
1430.999981442021
 21
2471.487546341807
 31
0.0
  0
LINE
  5
361
330
1F
100
AcDbEntity
  8
0-C_ハッチ
  6
JWW_DASHED1
 62
   120
370
     5
100
AcDbLine
 10
857.9999814420207
 20
1884.34541071809
 30
0.0
 11
1430.999981442021
 21
2457.345410718071
 31
0.0
  0
LINE
  5
362
330
1F
100
AcDbEntity
  8
0-C_ハッチ
  6
JWW_DASHED1
 62
   120
370
     5
100
AcDbLine
 10
857.9999814420207
 20
1870.203275094387
 30
0.0
 11
1430.999981442021
 21
2443.203275094366
 31
0.0
  0
LINE
  5
363
330
1F
100
AcDbEntity
  8
0-C_ハッチ
  6
JWW_DASHED1
 62
   120
370
     5
100
AcDbLine
 10
857.9999814420207
 20
1856.061139470648
 30
0.0
 11
1430.999981442021
 21
2429.06113947063
 31
0.0
  0
LINE
  5
364
330
1F
100
AcDbEntity
  8
0-C_ハッチ
  6
JWW_DASHED1
 62
   120
370
     5
100
AcDbLine
 10
857.9999814420207
 20
1841.919003846946
 30
0.0
 11
1430.999981442021
 21
2414.919003846925
 31
0.0
  0
LINE
  5
365
330
1F
100
AcDbEntity
  8
0-C_ハッチ
  6
JWW_DASHED1
 62
   120
370
     5
100
AcDbLine
 10
857.9999814420207
 20
1827.776868223207
 30
0.0
 11
1430.999981442021
 21
2400.776868223189
 31
0.0
  0
LINE
  5
366
330
1F
100
AcDbEntity
  8
0-C_ハッチ
  6
JWW_DASHED1
 62
   120
370
     5
100
AcDbLine
 10
857.9999814420207
 20
1813.634732599505
 30
0.0
 11
1430.999981442021
 21
2386.634732599483
 31
0.0
  0
LINE
  5
367
330
1F
100
AcDbEntity
  8
0-C_ハッチ
  6
JWW_DASHED1
 62
   120
370
     5
100
AcDbLine
 10
857.9999814420207
 20
1799.492596975766
 30
0.0
 11
1430.999981442021
 21
2372.492596975748
 31
0.0
  0
LINE
  5
368
330
1F
100
AcDbEntity
  8
0-C_ハッチ
  6
JWW_DASHED1
 62
   120
370
     5
100
AcDbLine
 10
857.9999814420207
 20
1785.350461352064
 30
0.0
 11
1430.999981442021
 21
2358.350461352042
 31
0.0
  0
LINE
  5
369
330
1F
100
AcDbEntity
  8
0-C_ハッチ
  6
JWW_DASHED1
 62
   120
370
     5
100
AcDbLine
 10
857.9999814420207
 20
1771.208325728325
 30
0.0
 11
1430.999981442021
 21
2344.208325728307
 31
0.0
  0
LINE
  5
36A
330
1F
100
AcDbEntity
  8
0-C_ハッチ
  6
JWW_DASHED1
 62
   120
370
     5
100
AcDbLine
 10
857.9999814420207
 20
1757.066190104623
 30
0.0
 11
1430.999981442021
 21
2330.066190104601
 31
0.0
  0
LINE
  5
36B
330
1F
100
AcDbEntity
  8
0-C_ハッチ
  6
JWW_DASHED1
 62
   120
370
     5
100
AcDbLine
 10
857.9999814420207
 20
1742.924054480884
 30
0.0
 11
1430.999981442021
 21
2315.924054480865
 31
0.0
  0
LINE
  5
36C
330
1F
100
AcDbEntity
  8
0-C_ハッチ
  6
JWW_DASHED1
 62
   120
370
     5
100
AcDbLine
 10
857.9999814420207
 20
1728.781918857182
 30
0.0
 11
1430.999981442021
 21
2301.78191885716
 31
0.0
  0
LINE
  5
36D
330
1F
100
AcDbEntity
  8
0-C_ハッチ
  6
JWW_DASHED1
 62
   120
370
     5
100
AcDbLine
 10
857.9999814420207
 20
1714.639783233443
 30
0.0
 11
1430.999981442021
 21
2287.639783233423
 31
0.0
  0
LINE
  5
36E
330
1F
100
AcDbEntity
  8
0-C_ハッチ
  6
JWW_DASHED1
 62
   120
370
     5
100
AcDbLine
 10
857.9999814420207
 20
1700.49764760974
 30
0.0
 11
1430.999981442021
 21
2273.497647609718
 31
0.0
  0
LINE
  5
36F
330
1F
100
AcDbEntity
  8
0-C_ハッチ
  6
JWW_DASHED1
 62
   120
370
     5
100
AcDbLine
 10
857.9999814420207
 20
1686.355511986001
 30
0.0
 11
1430.999981442021
 21
2259.355511985983
 31
0.0
  0
LINE
  5
370
330
1F
100
AcDbEntity
  8
0-C_ハッチ
  6
JWW_DASHED1
 62
   120
370
     5
100
AcDbLine
 10
857.9999814420207
 20
1672.213376362299
 30
0.0
 11
1430.999981442021
 21
2245.213376362277
 31
0.0
  0
LINE
  5
371
330
1F
100
AcDbEntity
  8
0-C_ハッチ
  6
JWW_DASHED1
 62
   120
370
     5
100
AcDbLine
 10
857.9999814420207
 20
1658.07124073856
 30
0.0
 11
1430.999981442021
 21
2231.071240738541
 31
0.0
  0
LINE
  5
372
330
1F
100
AcDbEntity
  8
0-C_ハッチ
  6
JWW_DASHED1
 62
   120
370
     5
100
AcDbLine
 10
857.9999814420207
 20
1643.929105114858
 30
0.0
 11
1430.999981442021
 21
2216.929105114836
 31
0.0
  0
LINE
  5
373
330
1F
100
AcDbEntity
  8
0-C_ハッチ
  6
JWW_DASHED1
 62
   120
370
     5
100
AcDbLine
 10
857.9999814420207
 20
1629.786969491119
 30
0.0
 11
1430.999981442021
 21
2202.7869694911
 31
0.0
  0
LINE
  5
374
330
1F
100
AcDbEntity
  8
0-C_ハッチ
  6
JWW_DASHED1
 62
   120
370
     5
100
AcDbLine
 10
857.9999814420207
 20
1615.644833867417
 30
0.0
 11
1430.999981442021
 21
2188.644833867395
 31
0.0
  0
LINE
  5
375
330
1F
100
AcDbEntity
  8
0-C_ハッチ
  6
JWW_DASHED1
 62
   120
370
     5
100
AcDbLine
 10
857.9999814420207
 20
1601.502698243678
 30
0.0
 11
1430.999981442021
 21
2174.502698243659
 31
0.0
  0
LINE
  5
376
330
1F
100
AcDbEntity
  8
0-C_ハッチ
  6
JWW_DASHED1
 62
   120
370
     5
100
AcDbLine
 10
857.9999814420207
 20
1587.360562619976
 30
0.0
 11
1430.999981442021
 21
2160.360562619954
 31
0.0
  0
LINE
  5
377
330
1F
100
AcDbEntity
  8
0-C_ハッチ
  6
JWW_DASHED1
 62
   120
370
     5
100
AcDbLine
 10
857.9999814420207
 20
1573.218426996237
 30
0.0
 11
1430.999981442021
 21
2146.218426996218
 31
0.0
  0
LINE
  5
378
330
1F
100
AcDbEntity
  8
0-C_ハッチ
  6
JWW_DASHED1
 62
   120
370
     5
100
AcDbLine
 10
857.9999814420207
 20
1559.076291372534
 30
0.0
 11
1430.999981442021
 21
2132.076291372513
 31
0.0
  0
LINE
  5
379
330
1F
100
AcDbEntity
  8
0-C_ハッチ
  6
JWW_DASHED1
 62
   120
370
     5
100
AcDbLine
 10
857.9999814420207
 20
1544.934155748796
 30
0.0
 11
1430.999981442021
 21
2117.934155748777
 31
0.0
  0
ENDSEC
  0
SECTION
  2
OBJECTS
  0
DICTIONARY
  5
C
330
0
100
AcDbDictionary
281
     1
  3
ACAD_GROUP
350
D
  3
ACAD_LAYOUT
350
1A
  3
ACAD_MATERIAL
350
3B
  3
ACAD_MLEADERSTYLE
350
37B
  3
ACAD_MLINESTYLE
350
17
  3
ACAD_PLOTSETTINGS
350
19
  3
ACAD_PLOTSTYLENAME
350
E
  3
ACAD_TABLESTYLE
350
37A
  3
ACAD_VISUALSTYLE
350
2A
  0
DICTIONARY
  5
D
102
{ACAD_REACTORS
330
C
102
}
330
C
100
AcDbDictionary
281
     1
  0
DICTIONARY
  5
1A
102
{ACAD_REACTORS
330
C
102
}
330
C
100
AcDbDictionary
281
     1
  3
Layout1
350
1E
  3
Layout2
350
26
  3
Model
350
22
  0
DICTIONARY
  5
3B
102
{ACAD_REACTORS
330
C
102
}
330
C
100
AcDbDictionary
281
     1
  3
ByBlock
350
3D
  3
ByLayer
350
3C
  3
Global
350
3E
  0
DICTIONARY
  5
37B
102
{ACAD_REACTORS
330
C
102
}
330
C
100
AcDbDictionary
281
     1
  0
DICTIONARY
  5
17
102
{ACAD_REACTORS
330
C
102
}
330
C
100
AcDbDictionary
281
     1
  3
Standard
350
18
  0
DICTIONARY
  5
19
102
{ACAD_REACTORS
330
C
102
}
330
C
100
AcDbDictionary
281
     1
  0
ACDBDICTIONARYWDFLT
  5
E
102
{ACAD_REACTORS
330
C
102
}
330
C
100
AcDbDictionary
281
     1
  3
Normal
350
F
100
AcDbDictionaryWithDefault
340
F
  0
DICTIONARY
  5
37A
102
{ACAD_REACTORS
330
C
102
}
330
C
100
AcDbDictionary
281
     1
  0
DICTIONARY
  5
2A
102
{ACAD_REACTORS
330
C
102
}
330
C
100
AcDbDictionary
281
     1
  3
2dWireframe
350
2F
  3
3D Hidden
350
31
  3
3dWireframe
350
30
  3
Basic
350
32
  3
Brighten
350
36
  3
ColorChange
350
3A
  3
Conceptual
350
34
  3
Dim
350
35
  3
Facepattern
350
39
  3
Flat
350
2B
  3
FlatWithEdges
350
2C
  3
Gouraud
350
2D
  3
GouraudWithEdges
350
2E
  3
Linepattern
350
38
  3
Realistic
350
33
  3
Thicken
350
37
  0
LAYOUT
  5
1E
102
{ACAD_REACTORS
330
1A
102
}
330
1A
100
AcDbPlotSettings
  1

  2
none_device
  4

  6

 40
0.0
 41
0.0
 42
0.0
 43
0.0
 44
0.0
 45
0.0
 46
0.0
 47
0.0
 48
0.0
 49
0.0
140
0.0
141
0.0
142
1.0
143
1.0
 70
   688
 72
     0
 73
     0
 74
     5
  7

 75
    16
 76
     0
 77
     5
 78
   300
147
1.0
148
0.0
149
0.0
100
AcDbLayout
  1
Layout1
 70
     1
 71
     1
 10
0.0
 20
0.0
 11
420.0
 21
297.0
 12
0.0
 22
0.0
 32
0.0
 14
1.000000000000000E+20
 24
1.000000000000000E+20
 34
1.000000000000000E+20
 15
-1.000000000000000E+20
 25
-1.000000000000000E+20
 35
-1.000000000000000E+20
146
0.0
 13
0.0
 23
0.0
 33
0.0
 16
1.0
 26
0.0
 36
0.0
 17
0.0
 27
1.0
 37
0.0
 76
     0
330
1B
  0
LAYOUT
  5
26
102
{ACAD_REACTORS
330
1A
102
}
330
1A
100
AcDbPlotSettings
  1

  2
none_device
  4

  6

 40
0.0
 41
0.0
 42
0.0
 43
0.0
 44
0.0
 45
0.0
 46
0.0
 47
0.0
 48
0.0
 49
0.0
140
0.0
141
0.0
142
1.0
143
1.0
 70
   688
 72
     0
 73
     0
 74
     5
  7

 75
    16
 76
     0
 77
     5
 78
   300
147
1.0
148
0.0
149
0.0
100
AcDbLayout
  1
Layout2
 70
     1
 71
     2
 10
0.0
 20
0.0
 11
0.0
 21
0.0
 12
0.0
 22
0.0
 32
0.0
 14
0.0
 24
0.0
 34
0.0
 15
0.0
 25
0.0
 35
0.0
146
0.0
 13
0.0
 23
0.0
 33
0.0
 16
1.0
 26
0.0
 36
0.0
 17
0.0
 27
1.0
 37
0.0
 76
     0
330
23
  0
LAYOUT
  5
22
102
{ACAD_REACTORS
330
1A
102
}
330
1A
100
AcDbPlotSettings
  1

  2
none_device
  4

  6

 40
0.0
 41
0.0
 42
0.0
 43
0.0
 44
0.0
 45
0.0
 46
0.0
 47
0.0
 48
0.0
 49
0.0
140
0.0
141
0.0
142
1.0
143
1.0
 70
  1712
 72
     0
 73
     0
 74
     0
  7

 75
     0
 76
     0
 77
     5
 78
   300
147
1.0
148
0.0
149
0.0
100
AcDbLayout
  1
Model
 70
     1
 71
     0
 10
-6300.0
 20
-4455.0
 11
6300.0
 21
4455.0
 12
0.0
 22
0.0
 32
0.0
 14
-6300.0
 24
-4455.0
 34
0.0
 15
6300.0
 25
4455.0
 35
0.0
146
0.0
 13
0.0
 23
0.0
 33
0.0
 16
1.0
 26
0.0
 36
0.0
 17
0.0
 27
1.0
 37
0.0
 76
     0
330
1F
331
29
  0
MATERIAL
  5
3D
102
{ACAD_REACTORS
330
3B
102
}
330
3B
100
AcDbMaterial
  1
ByBlock
 72
     1
 94
      127
  0
MATERIAL
  5
3C
102
{ACAD_REACTORS
330
3B
102
}
330
3B
100
AcDbMaterial
  1
ByLayer
 72
     1
 94
      127
  0
MATERIAL
  5
3E
102
{ACAD_REACTORS
330
3B
102
}
330
3B
100
AcDbMaterial
  1
Global
 72
     1
 94
      127
  0
MLINESTYLE
  5
18
102
{ACAD_REACTORS
330
17
102
}
330
17
100
AcDbMlineStyle
  2
Standard
 70
     0
  3

 62
   256
 51
90.0
 52
90.0
 71
     2
 49
0.5
 62
   256
  6
BYLAYER
 49
-0.5
 62
   256
  6
BYLAYER
  0
ACDBPLACEHOLDER
  5
F
102
{ACAD_REACTORS
330
E
102
}
330
E
  0
VISUALSTYLE
  5
2F
102
{ACAD_REACTORS
330
2A
102
}
330
2A
100
AcDbVisualStyle
  2
2dWireframe
 70
     4
177
     2
291
     0
 71
     0
176
     1
 72
     2
176
     1
 73
     0
176
     1
 90
        0
176
     1
 40
-0.6
176
     1
 41
-30.0
176
     1
 62
     5
 63
     7
421
 16777215
176
     1
 74
     1
176
     1
 91
        4
176
     1
 64
     7
176
     1
 65
   257
176
     1
 75
     1
176
     1
175
     1
176
     1
 42
1.0
176
     1
 92
        0
176
     1
 66
   257
176
     1
 43
1.0
176
     1
 76
     1
176
     1
 77
     6
176
     1
 78
     2
176
     1
 67
     7
176
     1
 79
     5
176
     1
170
     0
176
     1
171
     0
176
     1
290
     0
176
     1
 93
        1
176
     1
 44
0.0
176
     1
173
     0
176
     1
  0
VISUALSTYLE
  5
31
102
{ACAD_REACTORS
330
2A
102
}
330
2A
100
AcDbVisualStyle
  2
3D Hidden
 70
     6
177
     2
291
     0
 71
     1
176
     1
 72
     2
176
     1
 73
     2
176
     1
 90
        0
176
     1
 40
-0.6
176
     1
 41
-30.0
176
     1
 62
     5
 63
     7
421
 16777215
176
     1
 74
     2
176
     1
 91
        2
176
     1
 64
     7
176
     1
 65
   257
176
     1
 75
     2
176
     1
175
     1
176
     1
 42
40.0
176
     1
 92
        0
176
     1
 66
   257
176
     1
 43
1.0
176
     1
 76
     1
176
     1
 77
     6
176
     1
 78
     2
176
     1
 67
     7
176
     1
 79
     3
176
     1
170
     0
176
     1
171
     0
176
     1
290
     0
176
     1
 93
        1
176
     1
 44
0.0
176
     1
173
     0
176
     1
  0
VISUALSTYLE
  5
30
102
{ACAD_REACTORS
330
2A
102
}
330
2A
100
AcDbVisualStyle
  2
3dWireframe
 70
     5
177
     2
291
     0
 71
     0
176
     1
 72
     2
176
     1
 73
     0
176
     1
 90
        0
176
     1
 40
-0.6
176
     1
 41
-30.0
176
     1
 62
     5
 63
     7
421
 16777215
176
     1
 74
     1
176
     1
 91
        4
176
     1
 64
     7
176
     1
 65
   257
176
     1
 75
     1
176
     1
175
     1
176
     1
 42
1.0
176
     1
 92
        0
176
     1
 66
   257
176
     1
 43
1.0
176
     1
 76
     1
176
     1
 77
     6
176
     1
 78
     2
176
     1
 67
     7
176
     1
 79
     5
176
     1
170
     0
176
     1
171
     0
176
     1
290
     0
176
     1
 93
        1
176
     1
 44
0.0
176
     1
173
     0
176
     1
  0
VISUALSTYLE
  5
32
102
{ACAD_REACTORS
330
2A
102
}
330
2A
100
AcDbVisualStyle
  2
Basic
 70
     7
177
     2
291
     1
 71
     1
176
     1
 72
     0
176
     1
 73
     1
176
     1
 90
        0
176
     1
 40
-0.6
176
     1
 41
-30.0
176
     1
 62
     5
 63
     7
421
 16777215
176
     1
 74
     0
176
     1
 91
        4
176
     1
 64
     7
176
     1
 65
   257
176
     1
 75
     1
176
     1
175
     1
176
     1
 42
1.0
176
     1
 92
        8
176
     1
 66
     7
176
     1
 43
1.0
176
     1
 76
     1
176
     1
 77
     6
176
     1
 78
     2
176
     1
 67
     7
176
     1
 79
     5
176
     1
170
     0
176
     1
171
     0
176
     1
290
     0
176
     1
 93
        1
176
     1
 44
0.0
176
     1
173
     0
176
     1
  0
VISUALSTYLE
  5
36
102
{ACAD_REACTORS
330
2A
102
}
330
2A
100
AcDbVisualStyle
  2
Brighten
 70
    12
177
     2
291
     1
 71
     2
176
     1
 72
     2
176
     1
 73
     0
176
     1
 90
        0
176
     1
 40
-0.6
176
     1
 41
-30.0
176
     1
 62
     5
 63
     7
421
 16777215
176
     1
 74
     1
176
     1
 91
        4
176
     1
 64
     7
176
     1
 65
   257
176
     1
 75
     1
176
     1
175
     1
176
     1
 42
1.0
176
     1
 92
        8
176
     1
 66
     7
176
     1
 43
1.0
176
     1
 76
     1
176
     1
 77
     6
176
     1
 78
     2
176
     1
 67
     7
176
     1
 79
     5
176
     1
170
     0
176
     1
171
     0
176
     1
290
     0
176
     1
 93
        1
176
     1
 44
50.0
176
     1
173
     0
176
     1
  0
VISUALSTYLE
  5
3A
102
{ACAD_REACTORS
330
2A
102
}
330
2A
100
AcDbVisualStyle
  2
ColorChange
 70
    16
177
     2
291
     1
 71
     2
176
     1
 72
     2
176
     1
 73
     3
176
     1
 90
        0
176
     1
 40
-0.6
176
     1
 41
-30.0
176
     1
 62
     5
 63
     8
421
  8421504
176
     1
 74
     1
176
     1
 91
        4
176
     1
 64
     7
176
     1
 65
   257
176
     1
 75
     1
176
     1
175
     1
176
     1
 42
1.0
176
     1
 92
        8
176
     1
 66
     8
424
  8421504
176
     1
 43
1.0
176
     1
 76
     1
176
     1
 77
     6
176
     1
 78
     2
176
     1
 67
     7
176
     1
 79
     5
176
     1
170
     0
176
     1
171
     0
176
     1
290
     0
176
     1
 93
        1
176
     1
 44
0.0
176
     1
173
     0
176
     1
  0
VISUALSTYLE
  5
34
102
{ACAD_REACTORS
330
2A
102
}
330
2A
100
AcDbVisualStyle
  2
Conceptual
 70
     9
177
     2
291
     0
 71
     3
176
     1
 72
     2
176
     1
 73
     0
176
     1
 90
        0
176
     1
 40
-0.6
176
     1
 41
-30.0
176
     1
 62
     5
 63
     7
421
 16777215
176
     1
 74
     2
176
     1
 91
        2
176
     1
 64
     7
176
     1
 65
   257
176
     1
 75
     1
176
     1
175
     1
176
     1
 42
40.0
176
     1
 92
        8
176
     1
 66
     7
176
     1
 43
1.0
176
     1
 76
     1
176
     1
 77
     6
176
     1
 78
     2
176
     1
 67
     7
176
     1
 79
     3
176
     1
170
     0
176
     1
171
     0
176
     1
290
     0
176
     1
 93
        1
176
     1
 44
0.0
176
     1
173
     0
176
     1
  0
VISUALSTYLE
  5
35
102
{ACAD_REACTORS
330
2A
102
}
330
2A
100
AcDbVisualStyle
  2
Dim
 70
    11
177
     2
291
     1
 71
     2
176
     1
 72
     2
176
     1
 73
     0
176
     1
 90
        0
176
     1
 40
-0.6
176
     1
 41
-30.0
176
     1
 62
     5
 63
     7
421
 16777215
176
     1
 74
     1
176
     1
 91
        4
176
     1
 64
     7
176
     1
 65
   257
176
     1
 75
     1
176
     1
175
     1
176
     1
 42
1.0
176
     1
 92
        8
176
     1
 66
     7
176
     1
 43
1.0
176
     1
 76
     1
176
     1
 77
     6
176
     1
 78
     2
176
     1
 67
     7
176
     1
 79
     5
176
     1
170
     0
176
     1
171
     0
176
     1
290
     0
176
     1
 93
        1
176
     1
 44
-50.0
176
     1
173
     0
176
     1
  0
VISUALSTYLE
  5
39
102
{ACAD_REACTORS
330
2A
102
}
330
2A
100
AcDbVisualStyle
  2
Facepattern
 70
    15
177
     2
291
     1
 71
     2
176
     1
 72
     2
176
     1
 73
     0
176
     1
 90
        0
176
     1
 40
-0.6
176
     1
 41
-30.0
176
     1
 62
     5
 63
     7
421
 16777215
176
     1
 74
     1
176
     1
 91
        4
176
     1
 64
     7
176
     1
 65
   257
176
     1
 75
     1
176
     1
175
     1
176
     1
 42
1.0
176
     1
 92
        8
176
     1
 66
     7
176
     1
 43
1.0
176
     1
 76
     1
176
     1
 77
     6
176
     1
 78
     2
176
     1
 67
     7
176
     1
 79
     5
176
     1
170
     0
176
     1
171
     0
176
     1
290
     0
176
     1
 93
        1
176
     1
 44
0.0
176
     1
173
     0
176
     1
  0
VISUALSTYLE
  5
2B
102
{ACAD_REACTORS
330
2A
102
}
330
2A
100
AcDbVisualStyle
  2
Flat
 70
     0
177
     2
291
     1
 71
     2
176
     1
 72
     1
176
     1
 73
     1
176
     1
 90
        2
176
     1
 40
-0.6
176
     1
 41
30.0
176
     1
 62
     5
 63
     7
421
 16777215
176
     1
 74
     0
176
     1
 91
        4
176
     1
 64
     7
176
     1
 65
   257
176
     1
 75
     1
176
     1
175
     1
176
     1
 42
1.0
176
     1
 92
        8
176
     1
 66
     7
176
     1
 43
1.0
176
     1
 76
     1
176
     1
 77
     6
176
     1
 78
     2
176
     1
 67
     7
176
     1
 79
     5
176
     1
170
     0
176
     1
171
     0
176
     1
290
     0
176
     1
 93
       13
176
     1
 44
0.0
176
     1
173
     0
176
     1
  0
VISUALSTYLE
  5
2C
102
{ACAD_REACTORS
330
2A
102
}
330
2A
100
AcDbVisualStyle
  2
FlatWithEdges
 70
     1
177
     2
291
     1
 71
     2
176
     1
 72
     1
176
     1
 73
     1
176
     1
 90
        2
176
     1
 40
-0.6
176
     1
 41
30.0
176
     1
 62
     5
 63
     7
421
 16777215
176
     1
 74
     1
176
     1
 91
        4
176
     1
 64
     7
176
     1
 65
   257
176
     1
 75
     1
176
     1
175
     1
176
     1
 42
1.0
176
     1
 92
        0
176
     1
 66
   257
176
     1
 43
1.0
176
     1
 76
     1
176
     1
 77
     6
176
     1
 78
     2
176
     1
 67
     7
176
     1
 79
     5
176
     1
170
     0
176
     1
171
     0
176
     1
290
     0
176
     1
 93
       13
176
     1
 44
0.0
176
     1
173
     0
176
     1
  0
VISUALSTYLE
  5
2D
102
{ACAD_REACTORS
330
2A
102
}
330
2A
100
AcDbVisualStyle
  2
Gouraud
 70
     2
177
     2
291
     1
 71
     2
176
     1
 72
     2
176
     1
 73
     1
176
     1
 90
        2
176
     1
 40
-0.6
176
     1
 41
30.0
176
     1
 62
     5
 63
     7
421
 16777215
176
     1
 74
     0
176
     1
 91
        4
176
     1
 64
     7
176
     1
 65
   257
176
     1
 75
     1
176
     1
175
     1
176
     1
 42
1.0
176
     1
 92
        0
176
     1
 66
     7
176
     1
 43
1.0
176
     1
 76
     1
176
     1
 77
     6
176
     1
 78
     2
176
     1
 67
     7
176
     1
 79
     5
176
     1
170
     0
176
     1
171
     0
176
     1
290
     0
176
     1
 93
       13
176
     1
 44
0.0
176
     1
173
     0
176
     1
  0
VISUALSTYLE
  5
2E
102
{ACAD_REACTORS
330
2A
102
}
330
2A
100
AcDbVisualStyle
  2
GouraudWithEdges
 70
     3
177
     2
291
     1
 71
     2
176
     1
 72
     2
176
     1
 73
     1
176
     1
 90
        2
176
     1
 40
-0.6
176
     1
 41
30.0
176
     1
 62
     5
 63
     7
421
 16777215
176
     1
 74
     1
176
     1
 91
        4
176
     1
 64
     7
176
     1
 65
   257
176
     1
 75
     1
176
     1
175
     1
176
     1
 42
1.0
176
     1
 92
        0
176
     1
 66
   257
176
     1
 43
1.0
176
     1
 76
     1
176
     1
 77
     6
176
     1
 78
     2
176
     1
 67
     7
176
     1
 79
     5
176
     1
170
     0
176
     1
171
     0
176
     1
290
     0
176
     1
 93
       13
176
     1
 44
0.0
176
     1
173
     0
176
     1
  0
VISUALSTYLE
  5
38
102
{ACAD_REACTORS
330
2A
102
}
330
2A
100
AcDbVisualStyle
  2
Linepattern
 70
    14
177
     2
291
     1
 71
     2
176
     1
 72
     2
176
     1
 73
     0
176
     1
 90
        0
176
     1
 40
-0.6
176
     1
 41
-30.0
176
     1
 62
     5
 63
     7
421
 16777215
176
     1
 74
     1
176
     1
 91
        4
176
     1
 64
     7
176
     1
 65
   257
176
     1
 75
     7
176
     1
175
     7
176
     1
 42
1.0
176
     1
 92
        8
176
     1
 66
     7
176
     1
 43
1.0
176
     1
 76
     1
176
     1
 77
     6
176
     1
 78
     2
176
     1
 67
     7
176
     1
 79
     5
176
     1
170
     0
176
     1
171
     0
176
     1
290
     0
176
     1
 93
        1
176
     1
 44
0.0
176
     1
173
     0
176
     1
  0
VISUALSTYLE
  5
33
102
{ACAD_REACTORS
330
2A
102
}
330
2A
100
AcDbVisualStyle
  2
Realistic
 70
     8
177
     2
291
     0
 71
     2
176
     1
 72
     2
176
     1
 73
     0
176
     1
 90
        0
176
     1
 40
-0.6
176
     1
 41
-30.0
176
     1
 62
     5
 63
     7
421
 16777215
176
     1
 74
     1
176
     1
 91
        0
176
     1
 64
     7
176
     1
 65
   257
176
     1
 75
     1
176
     1
175
     1
176
     1
 42
1.0
176
     1
 92
        8
176
     1
 66
     8
424
  7895160
176
     1
 43
1.0
176
     1
 76
     1
176
     1
 77
     6
176
     1
 78
     2
176
     1
 67
     7
176
     1
 79
     5
176
     1
170
     0
176
     1
171
     0
176
     1
290
     0
176
     1
 93
       13
176
     1
 44
0.0
176
     1
173
     0
176
     1
  0
VISUALSTYLE
  5
37
102
{ACAD_REACTORS
330
2A
102
}
330
2A
100
AcDbVisualStyle
  2
Thicken
 70
    13
177
     2
291
     1
 71
     2
176
     1
 72
     2
176
     1
 73
     0
176
     1
 90
        0
176
     1
 40
-0.6
176
     1
 41
-30.0
176
     1
 62
     5
 63
     7
421
 16777215
176
     1
 74
     1
176
     1
 91
        4
176
     1
 64
     7
176
     1
 65
   257
176
     1
 75
     1
176
     1
175
     1
176
     1
 42
1.0
176
     1
 92
       12
176
     1
 66
     7
176
     1
 43
1.0
176
     1
 76
     1
176
     1
 77
     6
176
     1
 78
     2
176
     1
 67
     7
176
     1
 79
     5
176
     1
170
     0
176
     1
171
     0
176
     1
290
     0
176
     1
 93
        1
176
     1
 44
0.0
176
     1
173
     0
176
     1
  0
ENDSEC
  0
EOF
