  0
SECTION
  2
HEADER
  9
$ACADVER
  1
AC1024
  9
$ACADMAINTVER
 70
     6
  9
$DWGCODEPAGE
  3
ANSI_932
  9
$INSBASE
 10
0.0
 20
0.0
 30
0.0
  9
$EXTMIN
 10
-6300.0
 20
-4455.0
 30
0.0
  9
$EXTMAX
 10
6300.0
 20
4455.0
 30
0.0
  9
$LIMMIN
 10
-6300.0
 20
-4455.0
  9
$LIMMAX
 10
6300.0
 20
4455.0
  9
$ORTHOMODE
 70
     0
  9
$REGENMODE
 70
     1
  9
$FILLMODE
 70
     1
  9
$QTEXTMODE
 70
     0
  9
$MIRRTEXT
 70
     1
  9
$LTSCALE
 40
30.0
  9
$ATTMODE
 70
     1
  9
$TEXTSIZE
 40
2.5
  9
$TRACEWID
 40
1.0
  9
$TEXTSTYLE
  7
Standard
  9
$CLAYER
  8
0
  9
$CELTYPE
  6
ByLayer
  9
$CECOLOR
 62
   256
  9
$CELTSCALE
 40
1.0
  9
$DISPSILH
 70
     0
  9
$DIMSCALE
 40
1.0
  9
$DIMASZ
 40
2.5
  9
$DIMEXO
 40
0.625
  9
$DIMDLI
 40
3.75
  9
$DIMRND
 40
0.0
  9
$DIMDLE
 40
0.0
  9
$DIMEXE
 40
1.25
  9
$DIMTP
 40
0.0
  9
$DIMTM
 40
0.0
  9
$DIMTXT
 40
2.5
  9
$DIMCEN
 40
2.5
  9
$DIMTSZ
 40
0.0
  9
$DIMTOL
 70
     0
  9
$DIMLIM
 70
     0
  9
$DIMTIH
 70
     0
  9
$DIMTOH
 70
     0
  9
$DIMSE1
 70
     0
  9
$DIMSE2
 70
     0
  9
$DIMTAD
 70
     1
  9
$DIMZIN
 70
     8
  9
$DIMBLK
  1

  9
$DIMASO
 70
     1
  9
$DIMSHO
 70
     1
  9
$DIMPOST
  1

  9
$DIMAPOST
  1

  9
$DIMALT
 70
     0
  9
$DIMALTD
 70
     3
  9
$DIMALTF
 40
0.03937007874016
  9
$DIMLFAC
 40
1.0
  9
$DIMTOFL
 70
     1
  9
$DIMTVP
 40
0.0
  9
$DIMTIX
 70
     0
  9
$DIMSOXD
 70
     0
  9
$DIMSAH
 70
     0
  9
$DIMBLK1
  1

  9
$DIMBLK2
  1

  9
$DIMSTYLE
  2
ISO-25
  9
$DIMCLRD
 70
     0
  9
$DIMCLRE
 70
     0
  9
$DIMCLRT
 70
     0
  9
$DIMTFAC
 40
1.0
  9
$DIMGAP
 40
0.625
  9
$DIMJUST
 70
     0
  9
$DIMSD1
 70
     0
  9
$DIMSD2
 70
     0
  9
$DIMTOLJ
 70
     0
  9
$DIMTZIN
 70
     8
  9
$DIMALTZ
 70
     0
  9
$DIMALTTZ
 70
     0
  9
$DIMUPT
 70
     0
  9
$DIMDEC
 70
     2
  9
$DIMTDEC
 70
     2
  9
$DIMALTU
 70
     2
  9
$DIMALTTD
 70
     3
  9
$DIMTXSTY
  7
Standard
  9
$DIMAUNIT
 70
     0
  9
$DIMADEC
 70
     0
  9
$DIMALTRND
 40
0.0
  9
$DIMAZIN
 70
     0
  9
$DIMDSEP
 70
    44
  9
$DIMATFIT
 70
     3
  9
$DIMFRAC
 70
     0
  9
$DIMLDRBLK
  1

  9
$DIMLUNIT
 70
     2
  9
$DIMLWD
 70
    -2
  9
$DIMLWE
 70
    -2
  9
$DIMTMOVE
 70
     0
  9
$DIMFXL
 40
1.0
  9
$DIMFXLON
 70
     0
  9
$DIMJOGANG
 40
0.7853981633974483
  9
$DIMTFILL
 70
     0
  9
$DIMTFILLCLR
 70
     0
  9
$DIMARCSYM
 70
     0
  9
$DIMLTYPE
  6

  9
$DIMLTEX1
  6

  9
$DIMLTEX2
  6

  9
$DIMTXTDIRECTION
 70
     0
  9
$LUNITS
 70
     2
  9
$LUPREC
 70
     4
  9
$SKETCHINC
 40
1.0
  9
$FILLETRAD
 40
10.0
  9
$AUNITS
 70
     0
  9
$AUPREC
 70
     0
  9
$MENU
  1
.
  9
$ELEVATION
 40
0.0
  9
$PELEVATION
 40
0.0
  9
$THICKNESS
 40
0.0
  9
$LIMCHECK
 70
     0
  9
$CHAMFERA
 40
10.0
  9
$CHAMFERB
 40
10.0
  9
$CHAMFERC
 40
20.0
  9
$CHAMFERD
 40
0.0
  9
$SKPOLY
 70
     0
  9
$TDCREATE
 40
2459432.490041655
  9
$TDUCREATE
 40
2459432.115041655
  9
$TDUPDATE
 40
2459432.490041667
  9
$TDUUPDATE
 40
2459432.115041667
  9
$TDINDWG
 40
0.0000000116
  9
$TDUSRTIMER
 40
0.0000000116
  9
$USRTIMER
 70
     1
  9
$ANGBASE
 50
0.0
  9
$ANGDIR
 70
     0
  9
$PDMODE
 70
     0
  9
$PDSIZE
 40
0.0
  9
$PLINEWID
 40
0.0
  9
$SPLFRAME
 70
     0
  9
$SPLINETYPE
 70
     6
  9
$SPLINESEGS
 70
     8
  9
$HANDSEED
  5
426
  9
$SURFTAB1
 70
     6
  9
$SURFTAB2
 70
     6
  9
$SURFTYPE
 70
     6
  9
$SURFU
 70
     6
  9
$SURFV
 70
     6
  9
$UCSBASE
  2

  9
$UCSNAME
  2

  9
$UCSORG
 10
0.0
 20
0.0
 30
0.0
  9
$UCSXDIR
 10
1.0
 20
0.0
 30
0.0
  9
$UCSYDIR
 10
0.0
 20
1.0
 30
0.0
  9
$UCSORTHOREF
  2

  9
$UCSORTHOVIEW
 70
     0
  9
$UCSORGTOP
 10
0.0
 20
0.0
 30
0.0
  9
$UCSORGBOTTOM
 10
0.0
 20
0.0
 30
0.0
  9
$UCSORGLEFT
 10
0.0
 20
0.0
 30
0.0
  9
$UCSORGRIGHT
 10
0.0
 20
0.0
 30
0.0
  9
$UCSORGFRONT
 10
0.0
 20
0.0
 30
0.0
  9
$UCSORGBACK
 10
0.0
 20
0.0
 30
0.0
  9
$PUCSBASE
  2

  9
$PUCSNAME
  2

  9
$PUCSORG
 10
0.0
 20
0.0
 30
0.0
  9
$PUCSXDIR
 10
1.0
 20
0.0
 30
0.0
  9
$PUCSYDIR
 10
0.0
 20
1.0
 30
0.0
  9
$PUCSORTHOREF
  2

  9
$PUCSORTHOVIEW
 70
     0
  9
$PUCSORGTOP
 10
0.0
 20
0.0
 30
0.0
  9
$PUCSORGBOTTOM
 10
0.0
 20
0.0
 30
0.0
  9
$PUCSORGLEFT
 10
0.0
 20
0.0
 30
0.0
  9
$PUCSORGRIGHT
 10
0.0
 20
0.0
 30
0.0
  9
$PUCSORGFRONT
 10
0.0
 20
0.0
 30
0.0
  9
$PUCSORGBACK
 10
0.0
 20
0.0
 30
0.0
  9
$USERI1
 70
     0
  9
$USERI2
 70
     0
  9
$USERI3
 70
     0
  9
$USERI4
 70
     0
  9
$USERI5
 70
     0
  9
$USERR1
 40
0.0
  9
$USERR2
 40
0.0
  9
$USERR3
 40
0.0
  9
$USERR4
 40
0.0
  9
$USERR5
 40
0.0
  9
$WORLDVIEW
 70
     1
  9
$SHADEDGE
 70
     3
  9
$SHADEDIF
 70
    70
  9
$TILEMODE
 70
     1
  9
$MAXACTVP
 70
    64
  9
$PINSBASE
 10
0.0
 20
0.0
 30
0.0
  9
$PLIMCHECK
 70
     0
  9
$PEXTMIN
 10
1.000000000000000E+20
 20
1.000000000000000E+20
 30
1.000000000000000E+20
  9
$PEXTMAX
 10
-1.000000000000000E+20
 20
-1.000000000000000E+20
 30
-1.000000000000000E+20
  9
$PLIMMIN
 10
0.0
 20
0.0
  9
$PLIMMAX
 10
420.0
 20
297.0
  9
$UNITMODE
 70
     0
  9
$VISRETAIN
 70
     1
  9
$PLINEGEN
 70
     0
  9
$PSLTSCALE
 70
     1
  9
$TREEDEPTH
 70
  3020
  9
$CMLSTYLE
  2
Standard
  9
$CMLJUST
 70
     0
  9
$CMLSCALE
 40
20.0
  9
$PROXYGRAPHICS
 70
     1
  9
$MEASUREMENT
 70
     1
  9
$CELWEIGHT
370
    -1
  9
$ENDCAPS
280
     0
  9
$JOINSTYLE
280
     0
  9
$LWDISPLAY
290
     0
  9
$INSUNITS
 70
     4
  9
$HYPERLINKBASE
  1

  9
$STYLESHEET
  1

  9
$XEDIT
290
     1
  9
$CEPSNTYPE
380
     0
  9
$PSTYLEMODE
290
     1
  9
$FINGERPRINTGUID
  2
{AD773055-3B81-4EC1-8116-AA3D9C39CA6E}
  9
$VERSIONGUID
  2
{FAEB1C32-E019-11D5-929B-00C0DF256EC4}
  9
$EXTNAMES
290
     1
  9
$PSVPSCALE
 40
0.0
  9
$OLESTARTUP
290
     0
  9
$SORTENTS
280
   127
  9
$INDEXCTL
280
     0
  9
$HIDETEXT
280
     1
  9
$XCLIPFRAME
280
     2
  9
$HALOGAP
280
     0
  9
$OBSCOLOR
 70
   257
  9
$OBSLTYPE
280
     0
  9
$INTERSECTIONDISPLAY
280
     0
  9
$INTERSECTIONCOLOR
 70
   257
  9
$DIMASSOC
280
     2
  9
$PROJECTNAME
  1

  9
$CAMERADISPLAY
290
     0
  9
$LENSLENGTH
 40
50.0
  9
$CAMERAHEIGHT
 40
0.0
  9
$STEPSPERSEC
 40
2.0
  9
$STEPSIZE
 40
6.0
  9
$3DDWFPREC
 40
2.0
  9
$PSOLWIDTH
 40
5.0
  9
$PSOLHEIGHT
 40
80.0
  9
$LOFTANG1
 40
1.570796326794897
  9
$LOFTANG2
 40
1.570796326794897
  9
$LOFTMAG1
 40
0.0
  9
$LOFTMAG2
 40
0.0
  9
$LOFTPARAM
 70
     7
  9
$LOFTNORMALS
280
     1
  9
$LATITUDE
 40
37.795
  9
$LONGITUDE
 40
-122.394
  9
$NORTHDIRECTION
 40
0.0
  9
$TIMEZONE
 70
 -8000
  9
$LIGHTGLYPHDISPLAY
280
     1
  9
$TILEMODELIGHTSYNCH
280
     1
  9
$SOLIDHIST
280
     1
  9
$SHOWHIST
280
     1
  9
$DWFFRAME
280
     2
  9
$DGNFRAME
280
     2
  9
$REALWORLDSCALE
290
     1
  9
$INTERFERECOLOR
 62
   256
  9
$CSHADOW
280
     0
  9
$SHADOWPLANELOCATION
 40
0.0
  0
ENDSEC
  0
SECTION
  2
CLASSES
  0
CLASS
  1
ACDBDICTIONARYWDFLT
  2
AcDbDictionaryWithDefault
  3
ObjectDBX Classes
 90
        0
 91
        4
280
     0
281
     0
  0
CLASS
  1
VISUALSTYLE
  2
AcDbVisualStyle
  3
ObjectDBX Classes
 90
     4095
 91
        4
280
     0
281
     0
  0
CLASS
  1
MATERIAL
  2
AcDbMaterial
  3
ObjectDBX Classes
 90
     1153
 91
        4
280
     0
281
     0
  0
ENDSEC
  0
SECTION
  2
TABLES
  0
TABLE
  2
VPORT
  5
8
330
0
100
AcDbSymbolTable
 70
     1
  0
VPORT
  5
29
330
8
100
AcDbSymbolTableRecord
100
AcDbViewportTableRecord
  2
*Active
 70
     0
 10
0.0
 20
0.0
 11
1.0
 21
1.0
 12
0.0
 22
0.0
 13
0.0
 23
0.0
 14
10.0
 24
10.0
 15
10.0
 25
10.0
 16
0.0
 26
0.0
 36
1.0
 17
0.0
 27
0.0
 37
0.0
 40
9801.0
 41
1.414141414141414
 42
50.0
 43
0.0
 44
0.0
 50
0.0
 51
0.0
 71
     0
 72
 10000
 73
     1
 74
     3
 75
     0
 76
     0
 77
     0
 78
     0
281
     0
 65
     1
110
0.0
120
0.0
130
0.0
111
1.0
121
0.0
131
0.0
112
0.0
122
1.0
132
0.0
 79
     0
146
0.0
 60
     3
 61
     5
292
     1
282
     1
141
0.0
142
0.0
 63
   250
  0
ENDTAB
  0
TABLE
  2
LTYPE
  5
5
330
0
100
AcDbSymbolTable
 70
     4
  0
LTYPE
  5
14
330
5
100
AcDbSymbolTableRecord
100
AcDbLinetypeTableRecord
  2
ByBlock
 70
     0
  3

 72
    65
 73
     0
 40
0.0
  0
LTYPE
  5
15
330
5
100
AcDbSymbolTableRecord
100
AcDbLinetypeTableRecord
  2
ByLayer
 70
     0
  3

 72
    65
 73
     0
 40
0.0
  0
LTYPE
  5
16
330
5
100
AcDbSymbolTableRecord
100
AcDbLinetypeTableRecord
  2
Continuous
 70
     0
  3
Solid line
 72
    65
 73
     0
 40
0.0
  0
LTYPE
  5
3F
330
5
100
AcDbSymbolTableRecord
100
AcDbLinetypeTableRecord
  2
JWW_HOJO
 70
     0
  3
  -   -   -   -   -   -   -   - 
 72
    65
 73
     2
 40
1.693333333333333
 49
-1.27
 74
     0
 49
0.4233333333333333
 74
     0
  0
LTYPE
  5
40
330
5
100
AcDbSymbolTableRecord
100
AcDbLinetypeTableRecord
  2
JWW_CENTER1
 70
     0
  3
-----  --  ----------  --  -----
 72
    65
 73
     4
 40
6.773333333333333
 49
4.233333333333333
 74
     0
 49
-0.8466666666666667
 74
     0
 49
0.8466666666666667
 74
     0
 49
-0.8466666666666667
 74
     0
  0
LTYPE
  5
41
330
5
100
AcDbSymbolTableRecord
100
AcDbLinetypeTableRecord
  2
JWW_DASHED1
 70
     0
  3
-  --  --  --  --  --  --  --  -
 72
    65
 73
     2
 40
1.693333333333333
 49
0.8466666666666667
 74
     0
 49
-0.8466666666666667
 74
     0
  0
ENDTAB
  0
TABLE
  2
LAYER
  5
2
330
0
100
AcDbSymbolTable
 70
    13
  0
LAYER
  5
10
330
2
100
AcDbSymbolTableRecord
100
AcDbLayerTableRecord
  2
0
 70
     0
 62
     7
  6
Continuous
370
    -3
390
F
347
3E
  0
LAYER
  5
42
330
2
100
AcDbSymbolTableRecord
100
AcDbLayerTableRecord
  2
0-0_補助線
 70
     0
 62
     7
  6
Continuous
370
    -3
390
F
347
3E
  0
LAYER
  5
43
330
2
100
AcDbSymbolTableRecord
100
AcDbLayerTableRecord
  2
F-1_枠
 70
     0
 62
     7
  6
Continuous
370
    -3
390
F
347
3E
  0
LAYER
  5
44
330
2
100
AcDbSymbolTableRecord
100
AcDbLayerTableRecord
  2
F-0_補助線
 70
     0
 62
     7
  6
Continuous
370
    -3
390
F
347
3E
  0
LAYER
  5
45
330
2
100
AcDbSymbolTableRecord
100
AcDbLayerTableRecord
  2
F-A_文字
 70
     0
 62
     7
  6
Continuous
370
    -3
390
F
347
3E
  0
LAYER
  5
46
330
2
100
AcDbSymbolTableRecord
100
AcDbLayerTableRecord
  2
0-B_寸法
 70
     0
 62
     7
  6
Continuous
370
    -3
390
F
347
3E
  0
LAYER
  5
47
330
2
100
AcDbSymbolTableRecord
100
AcDbLayerTableRecord
  2
0-1_通り芯
 70
     0
 62
     7
  6
Continuous
370
    -3
390
F
347
3E
  0
LAYER
  5
48
330
2
100
AcDbSymbolTableRecord
100
AcDbLayerTableRecord
  2
0-4_枠
 70
     0
 62
     7
  6
Continuous
370
    -3
390
F
347
3E
  0
LAYER
  5
49
330
2
100
AcDbSymbolTableRecord
100
AcDbLayerTableRecord
  2
0-2_扉
 70
     0
 62
     7
  6
Continuous
370
    -3
390
F
347
3E
  0
LAYER
  5
4A
330
2
100
AcDbSymbolTableRecord
100
AcDbLayerTableRecord
  2
0-3_仕上げ
 70
     0
 62
     7
  6
Continuous
370
    -3
390
F
347
3E
  0
LAYER
  5
4B
330
2
100
AcDbSymbolTableRecord
100
AcDbLayerTableRecord
  2
0-C_ハッチ
 70
     0
 62
     7
  6
Continuous
370
    -3
390
F
347
3E
  0
LAYER
  5
4C
330
2
100
AcDbSymbolTableRecord
100
AcDbLayerTableRecord
  2
0-A_文字
 70
     0
 62
     7
  6
Continuous
370
    -3
390
F
347
3E
  0
LAYER
  5
4D
330
2
100
AcDbSymbolTableRecord
100
AcDbLayerTableRecord
  2
引手
 70
     0
 62
     7
  6
Continuous
370
    -3
390
F
347
3E
  0
ENDTAB
  0
TABLE
  2
STYLE
  5
3
330
0
100
AcDbSymbolTable
 70
     1
  0
STYLE
  5
11
330
3
100
AcDbSymbolTableRecord
100
AcDbTextStyleTableRecord
  2
Standard
 70
     0
 40
0.0
 41
1.0
 50
0.0
 71
     0
 42
2.5
  3
txt
  4

  0
ENDTAB
  0
TABLE
  2
VIEW
  5
6
330
0
100
AcDbSymbolTable
 70
     0
  0
ENDTAB
  0
TABLE
  2
UCS
  5
7
330
0
100
AcDbSymbolTable
 70
     0
  0
ENDTAB
  0
TABLE
  2
APPID
  5
9
330
0
100
AcDbSymbolTable
 70
     1
  0
APPID
  5
12
330
9
100
AcDbSymbolTableRecord
100
AcDbRegAppTableRecord
  2
ACAD
 70
     0
  0
ENDTAB
  0
TABLE
  2
DIMSTYLE
  5
A
330
0
100
AcDbSymbolTable
 70
     1
100
AcDbDimStyleTable
  0
DIMSTYLE
105
27
330
A
100
AcDbSymbolTableRecord
100
AcDbDimStyleTableRecord
  2
ISO-25
 70
     0
 41
2.5
 42
0.625
 43
3.75
 44
1.25
 73
     0
 74
     0
 77
     1
 78
     8
140
2.5
141
2.5
143
0.03937007874016
147
0.625
171
     3
172
     1
178
     0
271
     2
272
     2
274
     3
278
    44
283
     0
284
     8
340
11
  0
ENDTAB
  0
TABLE
  2
BLOCK_RECORD
  5
1
330
0
100
AcDbSymbolTable
 70
     1
  0
BLOCK_RECORD
  5
1F
330
1
100
AcDbSymbolTableRecord
100
AcDbBlockTableRecord
  2
*Model_Space
340
22
 70
     0
280
     1
281
     0
  0
BLOCK_RECORD
  5
1B
330
1
100
AcDbSymbolTableRecord
100
AcDbBlockTableRecord
  2
*Paper_Space
340
1E
 70
     0
280
     1
281
     0
  0
BLOCK_RECORD
  5
23
330
1
100
AcDbSymbolTableRecord
100
AcDbBlockTableRecord
  2
*Paper_Space0
340
26
 70
     0
280
     1
281
     0
  0
ENDTAB
  0
ENDSEC
  0
SECTION
  2
BLOCKS
  0
BLOCK
  5
20
330
1F
100
AcDbEntity
  8
0
100
AcDbBlockBegin
  2
*Model_Space
 70
     0
 10
0.0
 20
0.0
 30
0.0
  3
*Model_Space
  1

  0
ENDBLK
  5
21
330
1F
100
AcDbEntity
  8
0
100
AcDbBlockEnd
  0
BLOCK
  5
1C
330
1B
100
AcDbEntity
 67
     1
  8
0
100
AcDbBlockBegin
  2
*Paper_Space
 70
     0
 10
0.0
 20
0.0
 30
0.0
  3
*Paper_Space
  1

  0
ENDBLK
  5
1D
330
1B
100
AcDbEntity
 67
     1
  8
0
100
AcDbBlockEnd
  0
BLOCK
  5
24
330
23
100
AcDbEntity
  8
0
100
AcDbBlockBegin
  2
*Paper_Space0
 70
     0
 10
0.0
 20
0.0
 30
0.0
  3
*Paper_Space0
  1

  0
ENDBLK
  5
25
330
23
100
AcDbEntity
  8
0
100
AcDbBlockEnd
  0
ENDSEC
  0
SECTION
  2
ENTITIES
  0
LINE
  5
4E
330
1F
100
AcDbEntity
  8
0-0_補助線
  6
JWW_HOJO
 62
     7
370
     9
100
AcDbLine
 10
-5490.000018557986
 20
-2701.250083820241
 30
0.0
 11
5699.998762800888
 21
-2701.250083820241
 31
0.0
  0
LINE
  5
4F
330
1F
100
AcDbEntity
  8
0-0_補助線
  6
JWW_HOJO
 62
   120
370
     5
100
AcDbLine
 10
-5490.000018557986
 20
-2751.250083820241
 30
0.0
 11
5699.998762800888
 21
-2751.250083820241
 31
0.0
  0
LINE
  5
50
330
1F
100
AcDbEntity
  8
0-0_補助線
  6
JWW_HOJO
 62
     7
370
     9
100
AcDbLine
 10
-5490.000018557986
 20
-2951.250083820241
 30
0.0
 11
5699.998762800888
 21
-2951.250083820241
 31
0.0
  0
LINE
  5
51
330
1F
100
AcDbEntity
  8
0-0_補助線
  6
JWW_HOJO
 62
     7
370
     9
100
AcDbLine
 10
-5490.000018557986
 20
-454.2500838202386
 30
0.0
 11
5699.998762800888
 21
-454.2500838202386
 31
0.0
  0
LINE
  5
52
330
1F
100
AcDbEntity
  8
F-1_枠
  6
Continuous
 62
   200
370
    20
100
AcDbLine
 10
-5999.999752560178
 20
4174.999769056166
 30
0.0
 11
5699.998762800888
 21
4174.999769056166
 31
0.0
  0
LINE
  5
53
330
1F
100
AcDbEntity
  8
F-0_補助線
  6
JWW_HOJO
 62
   120
370
     5
100
AcDbLine
 10
-6300.0
 20
-4455.0
 30
0.0
 11
-6300.0
 21
4424.999604096284
 31
0.0
  0
LINE
  5
54
330
1F
100
AcDbEntity
  8
F-0_補助線
  6
JWW_HOJO
 62
   120
370
     5
100
AcDbLine
 10
5999.999010240709
 20
4424.999604096284
 30
0.0
 11
5999.999010240709
 21
-4455.0
 31
0.0
  0
LINE
  5
55
330
1F
100
AcDbEntity
  8
F-0_補助線
  6
JWW_HOJO
 62
   120
370
     5
100
AcDbLine
 10
5999.999010240709
 20
-4455.0
 30
0.0
 11
-6300.0
 21
-4455.0
 31
0.0
  0
LINE
  5
56
330
1F
100
AcDbEntity
  8
F-1_枠
  6
Continuous
 62
   200
370
    20
100
AcDbLine
 10
-5999.999752560178
 20
4164.999983504013
 30
0.0
 11
5699.998762800888
 21
4164.999983504013
 31
0.0
  0
LINE
  5
57
330
1F
100
AcDbEntity
  8
F-1_枠
  6
Continuous
 62
   200
370
    20
100
AcDbLine
 10
-5999.999752560178
 20
4169.999505120355
 30
0.0
 11
5699.998762800888
 21
4169.999505120355
 31
0.0
  0
LINE
  5
58
330
1F
100
AcDbEntity
  8
F-1_枠
  6
Continuous
 62
   200
370
    20
100
AcDbLine
 10
5689.998977248734
 20
4174.999769056166
 30
0.0
 11
5689.998977248734
 21
-4205.000164959882
 31
0.0
  0
LINE
  5
59
330
1F
100
AcDbEntity
  8
F-1_枠
  6
Continuous
 62
   200
370
    20
100
AcDbLine
 10
5694.998498865077
 20
4174.999769056166
 30
0.0
 11
5694.998498865077
 21
-4205.000164959882
 31
0.0
  0
LINE
  5
5A
330
1F
100
AcDbEntity
  8
F-1_枠
  6
Continuous
 62
   200
370
    20
100
AcDbLine
 10
5699.998762800888
 20
4174.999769056166
 30
0.0
 11
5699.998762800888
 21
-4205.000164959882
 31
0.0
  0
LINE
  5
5B
330
1F
100
AcDbEntity
  8
F-1_枠
  6
Continuous
 62
   200
370
    20
100
AcDbLine
 10
-5989.999990205507
 20
4174.999769056166
 30
0.0
 11
-5989.999990205507
 21
-4205.000164959882
 31
0.0
  0
LINE
  5
5C
330
1F
100
AcDbEntity
  8
F-1_枠
  6
Continuous
 62
   200
370
    20
100
AcDbLine
 10
-5994.999975771518
 20
4174.999769056166
 30
0.0
 11
-5994.999975771518
 21
-4205.000164959882
 31
0.0
  0
LINE
  5
5D
330
1F
100
AcDbEntity
  8
F-1_枠
  6
Continuous
 62
   200
370
    20
100
AcDbLine
 10
-5999.99998453501
 20
4174.999769056166
 30
0.0
 11
-5999.99998453501
 21
-4205.000164959882
 31
0.0
  0
LINE
  5
5E
330
1F
100
AcDbEntity
  8
F-1_枠
  6
Continuous
 62
   200
370
    20
100
AcDbLine
 10
-5490.000018557986
 20
4174.999769056166
 30
0.0
 11
-5490.000018557986
 21
-3790.000179909372
 31
0.0
  0
LINE
  5
5F
330
1F
100
AcDbEntity
  8
F-0_補助線
  6
JWW_HOJO
 62
   120
370
     5
100
AcDbLine
 10
-6300.0
 20
4424.999604096284
 30
0.0
 11
5999.999010240709
 21
4424.999604096284
 31
0.0
  0
LINE
  5
60
330
1F
100
AcDbEntity
  8
F-0_補助線
  6
JWW_HOJO
 62
     7
370
     9
100
AcDbLine
 10
849.9995876002961
 20
-3795.000003092998
 30
0.0
 11
849.9995876002961
 21
-4195.000008247994
 31
0.0
  0
LINE
  5
61
330
1F
100
AcDbEntity
  8
F-0_補助線
  6
JWW_HOJO
 62
     7
370
     9
100
AcDbLine
 10
349.9999175200594
 20
-3795.000003092998
 30
0.0
 11
349.9999175200594
 21
-4195.000008247994
 31
0.0
  0
LINE
  5
62
330
1F
100
AcDbEntity
  8
F-1_枠
  6
Continuous
 62
   200
370
    20
100
AcDbLine
 10
5699.998762800888
 20
-4205.000002577498
 30
0.0
 11
-5999.999752560178
 21
-4205.000002577498
 31
0.0
  0
LINE
  5
63
330
1F
100
AcDbEntity
  8
F-1_枠
  6
Continuous
 62
   200
370
    20
100
AcDbLine
 10
5699.998762800888
 20
-4199.999993814004
 30
0.0
 11
-5999.999752560178
 21
-4199.999993814004
 31
0.0
  0
LINE
  5
64
330
1F
100
AcDbEntity
  8
F-1_枠
  6
Continuous
 62
   200
370
    20
100
AcDbLine
 10
5699.998762800888
 20
-4195.000008247994
 30
0.0
 11
-5999.999752560178
 21
-4195.000008247994
 31
0.0
  0
LINE
  5
65
330
1F
100
AcDbEntity
  8
F-1_枠
  6
Continuous
 62
   200
370
    20
100
AcDbLine
 10
4189.999224688556
 20
-3795.000003092998
 30
0.0
 11
4189.999224688556
 21
-4195.000008247994
 31
0.0
  0
LINE
  5
66
330
1F
100
AcDbEntity
  8
F-1_枠
  6
Continuous
 62
   200
370
    20
100
AcDbLine
 10
2689.998729808911
 20
-3795.000003092998
 30
0.0
 11
2689.998729808911
 21
-4195.000008247994
 31
0.0
  0
LINE
  5
67
330
1F
100
AcDbEntity
  8
F-1_枠
  6
Continuous
 62
   200
370
    20
100
AcDbLine
 10
-150.0001237199109
 20
-3795.000003092998
 30
0.0
 11
-150.0001237199109
 21
-4195.000008247994
 31
0.0
  0
LINE
  5
68
330
1F
100
AcDbEntity
  8
F-1_枠
  6
Continuous
 62
   200
370
    20
100
AcDbLine
 10
-150.0001237199109
 20
-3994.999936078046
 30
0.0
 11
5689.998977248734
 21
-3995.005364289155
 31
0.0
  0
LINE
  5
69
330
1F
100
AcDbEntity
  8
F-0_補助線
  6
JWW_HOJO
 62
     7
370
     9
100
AcDbLine
 10
-5989.999990205507
 20
-3994.99993607839
 30
0.0
 11
-150.0001237199109
 21
-3994.99993607839
 31
0.0
  0
LINE
  5
6A
330
1F
100
AcDbEntity
  8
F-0_補助線
  6
JWW_HOJO
 62
     7
370
     9
100
AcDbLine
 10
-5989.999990205507
 20
-3904.99993607839
 30
0.0
 11
-150.0001237199109
 21
-3904.99993607839
 31
0.0
  0
LINE
  5
6B
330
1F
100
AcDbEntity
  8
F-0_補助線
  6
JWW_HOJO
 62
     7
370
     9
100
AcDbLine
 10
-5989.999990205507
 20
-4084.99993607839
 30
0.0
 11
-150.0001237199109
 21
-4084.99993607839
 31
0.0
  0
LINE
  5
6C
330
1F
100
AcDbEntity
  8
F-0_補助線
  6
JWW_HOJO
 62
     7
370
     9
100
AcDbLine
 10
-150.0002584955388
 20
-4139.999739777983
 30
0.0
 11
5689.998842473105
 21
-4140.005167989091
 31
0.0
  0
LINE
  5
6D
330
1F
100
AcDbEntity
  8
F-0_補助線
  6
JWW_HOJO
 62
     7
370
     9
100
AcDbLine
 10
-150.0001748415872
 20
-4049.999739778022
 30
0.0
 11
5689.998926127057
 21
-4050.005167989131
 31
0.0
  0
LINE
  5
6E
330
1F
100
AcDbEntity
  8
F-0_補助線
  6
JWW_HOJO
 62
     7
370
     9
100
AcDbLine
 10
-150.0000725978671
 20
-3939.99973721807
 30
0.0
 11
5689.999028370777
 21
-3940.005165429179
 31
0.0
  0
LINE
  5
6F
330
1F
100
AcDbEntity
  8
F-0_補助線
  6
JWW_HOJO
 62
     7
370
     9
100
AcDbLine
 10
-149.9999889439155
 20
-3849.999737218109
 30
0.0
 11
5689.999112024728
 21
-3850.005165429218
 31
0.0
  0
LINE
  5
70
330
1F
100
AcDbEntity
  8
F-0_補助線
  6
JWW_HOJO
 62
     7
370
     9
100
AcDbLine
 10
2779.998729808911
 20
-3795.000003092998
 30
0.0
 11
2779.998729808911
 21
-4195.000008247994
 31
0.0
  0
LINE
  5
71
330
1F
100
AcDbEntity
  8
F-0_補助線
  6
JWW_HOJO
 62
     7
370
     9
100
AcDbLine
 10
-60.0001237199109
 20
-3795.000003092998
 30
0.0
 11
-60.0001237199109
 21
-4195.000008247994
 31
0.0
  0
LINE
  5
72
330
1F
100
AcDbEntity
  8
F-0_補助線
  6
JWW_HOJO
 62
     7
370
     9
100
AcDbLine
 10
4279.999224688556
 20
-3795.000003092998
 30
0.0
 11
4279.999224688556
 21
-4195.000008247994
 31
0.0
  0
MTEXT
  5
73
330
1F
100
AcDbEntity
  8
F-A_文字
  6
Continuous
 62
     7
370
     0
100
AcDbMText
 10
4279.999224688556
 20
-3887.143854850754
 30
0.0
 40
45.72
 41
240.0
 46
0.0
 71
     7
 72
     1
  1
{\fＭＳ ゴシック|b0|i0|c128|p49;ＤＡＴＥ}
 73
     1
 44
1.0
  0
MTEXT
  5
74
330
1F
100
AcDbEntity
  8
F-A_文字
  6
Continuous
 62
     7
370
     0
100
AcDbMText
 10
4279.999224688556
 20
-4087.143857410839
 30
0.0
 40
45.72
 41
180.0
 46
0.0
 71
     7
 72
     1
  1
{\fＭＳ ゴシック|b0|i0|c128|p49;ＮＯ．}
 73
     1
 44
1.0
  0
MTEXT
  5
75
330
1F
100
AcDbEntity
  8
F-A_文字
  6
Continuous
 62
     7
370
     0
100
AcDbMText
 10
2779.998729808911
 20
-3887.142460617774
 30
0.0
 40
45.72
 41
300.0
 46
0.0
 71
     7
 72
     1
  1
{\fＭＳ ゴシック|b0|i0|c128|p49;ＳＣＡＬＥ}
 73
     1
 44
1.0
  0
MTEXT
  5
76
330
1F
100
AcDbEntity
  8
F-A_文字
  6
Continuous
 62
     7
370
     0
100
AcDbMText
 10
2779.998729808911
 20
-4087.14246317786
 30
0.0
 40
45.72
 41
240.0
 46
0.0
 71
     7
 72
     1
  1
{\fＭＳ ゴシック|b0|i0|c128|p49;ＦＩＬＥ}
 73
     1
 44
1.0
  0
MTEXT
  5
77
330
1F
100
AcDbEntity
  8
F-A_文字
  6
Continuous
 62
     7
370
     0
100
AcDbMText
 10
-60.0001237199109
 20
-3887.139820871936
 30
0.0
 40
45.72
 41
180.0
 46
0.0
 71
     7
 72
     1
  1
{\fＭＳ ゴシック|b0|i0|c128|p49;図面名}
 73
     1
 44
1.0
  0
MTEXT
  5
78
330
1F
100
AcDbEntity
  8
F-A_文字
  6
Continuous
 62
     7
370
     0
100
AcDbMText
 10
1444.998729808911
 20
-4164.281754523929
 30
0.0
 40
101.44125
 41
1065.0
 46
0.0
 71
     7
 72
     1
  1
{\fＭＳ ゴシック|b0|i0|c128|p49;ウッドワン・・・}
 73
     1
 44
1.0
  0
MTEXT
  5
79
330
1F
100
AcDbEntity
  8
F-A_文字
  6
Continuous
 62
     7
370
     0
100
AcDbMText
 10
1234.998729808911
 20
-4096.140669266149
 30
0.0
 40
45.72
 41
120.0
 46
0.0
 71
     7
 72
     1
  1
{\fＭＳ ゴシック|b0|i0|c128|p49;株式}
 73
     1
 44
1.0
  0
MTEXT
  5
7A
330
1F
100
AcDbEntity
  8
F-A_文字
  6
Continuous
 62
     7
370
     0
100
AcDbMText
 10
1234.998729808911
 20
-4168.140669266187
 30
0.0
 40
45.72
 41
120.0
 46
0.0
 71
     7
 72
     1
  1
{\fＭＳ ゴシック|b0|i0|c128|p49;会社}
 73
     1
 44
1.0
  0
LINE
  5
7B
330
1F
100
AcDbEntity
  8
F-0_補助線
  6
JWW_HOJO
 62
     7
370
     9
100
AcDbLine
 10
-5247.547376752838
 20
-3795.000003092999
 30
0.0
 11
-5247.547376752838
 21
-4205.000164959882
 31
0.0
  0
LINE
  5
7C
330
1F
100
AcDbEntity
  8
F-0_補助線
  6
JWW_HOJO
 62
     7
370
     9
100
AcDbLine
 10
-210.0001237199109
 20
-3795.000003092998
 30
0.0
 11
-210.0001237199109
 21
-4195.000008247994
 31
0.0
  0
MTEXT
  5
7D
330
1F
100
AcDbEntity
  8
F-A_文字
  6
Continuous
 62
     7
370
     9
100
AcDbMText
 10
4936.249033580831
 20
-4147.857012699985
 30
0.0
 40
74.295
 41
97.5
 46
0.0
 71
     7
 72
     1
  1
{\fＭＳ ゴシック|b0|i0|c128|p49;01}
 73
     1
 44
1.0
  0
MTEXT
  5
7E
330
1F
100
AcDbEntity
  8
F-A_文字
  6
Continuous
 62
     7
370
     0
100
AcDbMText
 10
5608.403311109712
 20
-4314.841419020919
 30
0.0
 40
68.58
 41
90.0
 46
0.0
 71
     7
 72
     1
  1
{\fＭＳ ゴシック|b0|i0|c128|p49;）}
 73
     1
 44
1.0
  0
MTEXT
  5
7F
330
1F
100
AcDbEntity
  8
F-A_文字
  6
Continuous
 62
     7
370
     0
100
AcDbMText
 10
5190.195950842071
 20
-4316.235443869856
 30
0.0
 40
68.58
 41
45.0
 46
0.0
 71
     7
 72
     1
  1
{\fＭＳ ゴシック|b0|i0|c128|p49;,}
 73
     1
 44
1.0
  0
MTEXT
  5
80
330
1F
100
AcDbEntity
  8
F-A_文字
  6
Continuous
 62
     7
370
     0
100
AcDbMText
 10
4923.937261915373
 20
-4314.771967288282
 30
0.0
 40
74.295
 41
97.5
 46
0.0
 71
     7
 72
     1
  1
{\fＭＳ ゴシック|b0|i0|c128|p49;$y}
 73
     1
 44
1.0
  0
MTEXT
  5
81
330
1F
100
AcDbEntity
  8
F-A_文字
  6
Continuous
 62
     7
370
     0
100
AcDbMText
 10
5078.673982954195
 20
-4314.771967288282
 30
0.0
 40
74.295
 41
97.5
 46
0.0
 71
     7
 72
     1
  1
{\fＭＳ ゴシック|b0|i0|c128|p49;$m}
 73
     1
 44
1.0
  0
MTEXT
  5
82
330
1F
100
AcDbEntity
  8
F-A_文字
  6
Continuous
 62
     7
370
     0
100
AcDbMText
 10
5233.410715437103
 20
-4314.771967288282
 30
0.0
 40
74.295
 41
97.5
 46
0.0
 71
     7
 72
     1
  1
{\fＭＳ ゴシック|b0|i0|c128|p49;$d}
 73
     1
 44
1.0
  0
MTEXT
  5
83
330
1F
100
AcDbEntity
  8
F-A_文字
  6
Continuous
 62
     7
370
     0
100
AcDbMText
 10
5388.147447920011
 20
-4314.771967288282
 30
0.0
 40
74.295
 41
195.0
 46
0.0
 71
     7
 72
     1
  1
{\fＭＳ ゴシック|b0|i0|c128|p49;印刷}
 73
     1
 44
1.0
  0
MTEXT
  5
84
330
1F
100
AcDbEntity
  8
F-A_文字
  6
Continuous
 62
     7
370
     0
100
AcDbMText
 10
4784.033374252999
 20
-4319.023493567732
 30
0.0
 40
68.58
 41
90.0
 46
0.0
 71
     7
 72
     1
  1
{\fＭＳ ゴシック|b0|i0|c128|p49;（}
 73
     1
 44
1.0
  0
MTEXT
  5
85
330
1F
100
AcDbEntity
  8
F-A_文字
  6
Continuous
 62
     7
370
     0
100
AcDbMText
 10
5031.277143812345
 20
-4319.023493567732
 30
0.0
 40
68.58
 41
45.0
 46
0.0
 71
     7
 72
     1
  1
{\fＭＳ ゴシック|b0|i0|c128|p49;,}
 73
     1
 44
1.0
  0
LWPOLYLINE
  5
86
330
1F
100
AcDbEntity
  8
0-B_寸法
  6
Continuous
 62
     7
370
     9
100
AcDbPolyline
 90
        4
 70
     1
 43
3.0
 10
-2564.500018557985
 20
1438.000148463894
 42
0.4142135623731
 10
-2566.000018557985
 20
1439.500148463894
 42
0.4142135623731
 10
-2567.500018557985
 20
1438.000148463894
 42
0.4142135623731
 10
-2566.000018557985
 20
1436.500148463894
 42
0.4142135623731
  0
LINE
  5
87
330
1F
100
AcDbEntity
  8
0-B_寸法
  6
Continuous
 62
   120
370
     5
100
AcDbLine
 10
-2566.000018557985
 20
3421.000148463893
 30
0.0
 11
-2566.000018557985
 21
1438.000148463894
 31
0.0
  0
LWPOLYLINE
  5
88
330
1F
100
AcDbEntity
  8
0-B_寸法
  6
Continuous
 62
     7
370
     9
100
AcDbPolyline
 90
        4
 70
     1
 43
3.0
 10
-2564.500018557985
 20
3421.000148463893
 42
0.4142135623731
 10
-2566.000018557985
 20
3422.500148463893
 42
0.4142135623731
 10
-2567.500018557985
 20
3421.000148463893
 42
0.4142135623731
 10
-2566.000018557985
 20
3419.500148463893
 42
0.4142135623731
  0
LINE
  5
89
330
1F
100
AcDbEntity
  8
0-1_通り芯
  6
JWW_CENTER1
 62
   120
370
     5
100
AcDbLine
 10
-709.0000185579822
 20
2395.500148463894
 30
0.0
 11
-791.0000185579827
 21
2395.500148463894
 31
0.0
  0
LINE
  5
8A
330
1F
100
AcDbEntity
  8
0-1_通り芯
  6
JWW_CENTER1
 62
   120
370
     5
100
AcDbLine
 10
-750.0000185579825
 20
2476.500148463893
 30
0.0
 11
-750.0000185579825
 21
2314.500148463894
 31
0.0
  0
LINE
  5
8B
330
1F
100
AcDbEntity
  8
0-B_寸法
  6
Continuous
 62
   120
370
     5
100
AcDbLine
 10
-2566.000018557985
 20
1438.000148463894
 30
0.0
 11
-2366.000018557984
 21
1438.000148463894
 31
0.0
  0
LINE
  5
8C
330
1F
100
AcDbEntity
  8
0-B_寸法
  6
Continuous
 62
   120
370
     5
100
AcDbLine
 10
-2566.000018557985
 20
3421.000148463893
 30
0.0
 11
-2366.000018557984
 21
3421.000148463893
 31
0.0
  0
LINE
  5
8D
330
1F
100
AcDbEntity
  8
0-4_枠
  6
Continuous
 62
    92
370
    13
100
AcDbLine
 10
-2316.000018557984
 20
1418.000148463893
 30
0.0
 11
-672.0000185579827
 21
1418.000148463893
 31
0.0
  0
LINE
  5
8E
330
1F
100
AcDbEntity
  8
0-4_枠
  6
Continuous
 62
    92
370
    13
100
AcDbLine
 10
-2286.000018557984
 20
1433.000148463893
 30
0.0
 11
-702.0000185579827
 21
1433.000148463893
 31
0.0
  0
LINE
  5
8F
330
1F
100
AcDbEntity
  8
0-2_扉
  6
JWW_DASHED1
 62
   120
370
     5
100
AcDbLine
 10
-702.0000185579827
 20
1438.000148463894
 30
0.0
 11
-699.0000185579828
 21
1438.000148463894
 31
0.0
  0
LINE
  5
90
330
1F
100
AcDbEntity
  8
0-2_扉
  6
JWW_DASHED1
 62
   120
370
     5
100
AcDbLine
 10
-699.0000185579828
 20
1438.000148463894
 30
0.0
 11
-699.0000185579828
 21
3421.000148463893
 31
0.0
  0
LINE
  5
91
330
1F
100
AcDbEntity
  8
0-2_扉
  6
JWW_DASHED1
 62
   120
370
     5
100
AcDbLine
 10
-702.0000185579827
 20
3421.000148463893
 30
0.0
 11
-699.0000185579828
 21
3421.000148463893
 31
0.0
  0
LINE
  5
92
330
1F
100
AcDbEntity
  8
0-4_枠
  6
JWW_DASHED1
 62
   120
370
     5
100
AcDbLine
 10
-1509.000018557983
 20
1433.000148463893
 30
0.0
 11
-1509.000018557983
 21
3435.000148463894
 31
0.0
  0
LINE
  5
93
330
1F
100
AcDbEntity
  8
0-4_枠
  6
JWW_DASHED1
 62
   120
370
     5
100
AcDbLine
 10
-1479.000018557983
 20
1433.000148463893
 30
0.0
 11
-1479.000018557983
 21
3435.000148463894
 31
0.0
  0
LINE
  5
94
330
1F
100
AcDbEntity
  8
0-2_扉
  6
JWW_DASHED1
 62
   120
370
     5
100
AcDbLine
 10
-1509.000018557983
 20
3421.000148463893
 30
0.0
 11
-1509.000018557983
 21
3417.000148463893
 31
0.0
  0
LINE
  5
95
330
1F
100
AcDbEntity
  8
0-2_扉
  6
Continuous
 62
    92
370
    13
100
AcDbLine
 10
-1509.000018557983
 20
3421.000148463893
 30
0.0
 11
-1509.000018557983
 21
1438.000148463894
 31
0.0
  0
LINE
  5
96
330
1F
100
AcDbEntity
  8
0-2_扉
  6
Continuous
 62
    92
370
    13
100
AcDbLine
 10
-702.0000185579827
 20
3421.000148463893
 30
0.0
 11
-1509.000018557983
 21
3421.000148463893
 31
0.0
  0
LINE
  5
97
330
1F
100
AcDbEntity
  8
0-2_扉
  6
Continuous
 62
    92
370
    13
100
AcDbLine
 10
-702.0000185579827
 20
1438.000148463894
 30
0.0
 11
-1509.000018557983
 21
1438.000148463894
 31
0.0
  0
LWPOLYLINE
  5
98
330
1F
100
AcDbEntity
  8
0-B_寸法
  6
Continuous
 62
     7
370
     9
100
AcDbPolyline
 90
        4
 70
     1
 43
3.0
 10
-170.5000185579812
 20
1438.000148463894
 42
0.4142135623731
 10
-172.0000185579812
 20
1439.500148463894
 42
0.4142135623731
 10
-173.5000185579812
 20
1438.000148463894
 42
0.4142135623731
 10
-172.0000185579812
 20
1436.500148463894
 42
0.4142135623731
  0
LINE
  5
99
330
1F
100
AcDbEntity
  8
0-B_寸法
  6
Continuous
 62
   120
370
     5
100
AcDbLine
 10
-172.0000185579812
 20
3421.000148463893
 30
0.0
 11
-172.0000185579812
 21
1438.000148463894
 31
0.0
  0
LWPOLYLINE
  5
9A
330
1F
100
AcDbEntity
  8
0-B_寸法
  6
Continuous
 62
     7
370
     9
100
AcDbPolyline
 90
        4
 70
     1
 43
3.0
 10
-170.5000185579812
 20
3421.000148463893
 42
0.4142135623731
 10
-172.0000185579812
 20
3422.500148463893
 42
0.4142135623731
 10
-173.5000185579812
 20
3421.000148463893
 42
0.4142135623731
 10
-172.0000185579812
 20
3419.500148463893
 42
0.4142135623731
  0
LINE
  5
9B
330
1F
100
AcDbEntity
  8
0-1_通り芯
  6
JWW_CENTER1
 62
   120
370
     5
100
AcDbLine
 10
1490.999981442021
 20
2395.500148463894
 30
0.0
 11
1408.999981442022
 21
2395.500148463894
 31
0.0
  0
LINE
  5
9C
330
1F
100
AcDbEntity
  8
0-1_通り芯
  6
JWW_CENTER1
 62
   120
370
     5
100
AcDbLine
 10
1449.999981442022
 20
2476.500148463893
 30
0.0
 11
1449.999981442022
 21
2314.500148463894
 31
0.0
  0
LINE
  5
9D
330
1F
100
AcDbEntity
  8
0-4_枠
  6
Continuous
 62
    92
370
    13
100
AcDbLine
 10
77.99998144201908
 20
1418.000148463893
 30
0.0
 11
1527.99998144202
 21
1418.000148463893
 31
0.0
  0
LINE
  5
9E
330
1F
100
AcDbEntity
  8
0-4_枠
  6
Continuous
 62
    92
370
    13
100
AcDbLine
 10
107.9999814420191
 20
1433.000148463893
 30
0.0
 11
1497.99998144202
 21
1433.000148463893
 31
0.0
  0
LINE
  5
9F
330
1F
100
AcDbEntity
  8
0-2_扉
  6
JWW_DASHED1
 62
   120
370
     5
100
AcDbLine
 10
1497.99998144202
 20
1438.000148463894
 30
0.0
 11
1500.999981442021
 21
1438.000148463894
 31
0.0
  0
LINE
  5
A0
330
1F
100
AcDbEntity
  8
0-2_扉
  6
JWW_DASHED1
 62
   120
370
     5
100
AcDbLine
 10
1500.999981442021
 20
1438.000148463894
 30
0.0
 11
1500.999981442021
 21
3421.000148463893
 31
0.0
  0
LINE
  5
A1
330
1F
100
AcDbEntity
  8
0-2_扉
  6
JWW_DASHED1
 62
   120
370
     5
100
AcDbLine
 10
1497.99998144202
 20
3421.000148463893
 30
0.0
 11
1500.999981442021
 21
3421.000148463893
 31
0.0
  0
LINE
  5
A2
330
1F
100
AcDbEntity
  8
0-B_寸法
  6
Continuous
 62
   120
370
     5
100
AcDbLine
 10
-172.0000185579812
 20
1438.000148463894
 30
0.0
 11
27.99998144201936
 21
1438.000148463894
 31
0.0
  0
LINE
  5
A3
330
1F
100
AcDbEntity
  8
0-B_寸法
  6
Continuous
 62
   120
370
     5
100
AcDbLine
 10
-172.0000185579812
 20
3421.000148463893
 30
0.0
 11
27.99998144201936
 21
3421.000148463893
 31
0.0
  0
LINE
  5
A4
330
1F
100
AcDbEntity
  8
0-2_扉
  6
Continuous
 62
    92
370
    13
100
AcDbLine
 10
1497.99998144202
 20
3421.000148463893
 30
0.0
 11
787.9999814420205
 21
3421.000148463893
 31
0.0
  0
LINE
  5
A5
330
1F
100
AcDbEntity
  8
0-2_扉
  6
Continuous
 62
    92
370
    13
100
AcDbLine
 10
1497.99998144202
 20
1438.000148463894
 30
0.0
 11
787.9999814420205
 21
1438.000148463894
 31
0.0
  0
LINE
  5
A6
330
1F
100
AcDbEntity
  8
0-4_枠
  6
JWW_DASHED1
 62
   120
370
     5
100
AcDbLine
 10
787.9999814420205
 20
1433.000148463893
 30
0.0
 11
787.9999814420205
 21
3435.000148463894
 31
0.0
  0
LINE
  5
A7
330
1F
100
AcDbEntity
  8
0-4_枠
  6
JWW_DASHED1
 62
   120
370
     5
100
AcDbLine
 10
817.9999814420205
 20
1433.000148463893
 30
0.0
 11
817.9999814420205
 21
3435.000148463894
 31
0.0
  0
LINE
  5
A8
330
1F
100
AcDbEntity
  8
0-2_扉
  6
JWW_DASHED1
 62
   120
370
     5
100
AcDbLine
 10
787.9999814420205
 20
3421.000148463893
 30
0.0
 11
787.9999814420205
 21
3417.000148463893
 31
0.0
  0
LINE
  5
A9
330
1F
100
AcDbEntity
  8
0-2_扉
  6
Continuous
 62
    92
370
    13
100
AcDbLine
 10
787.9999814420205
 20
3421.000148463893
 30
0.0
 11
787.9999814420205
 21
1438.000148463894
 31
0.0
  0
MTEXT
  5
AA
330
1F
100
AcDbEntity
  8
F-A_文字
  6
Continuous
 62
     7
370
     9
100
AcDbMText
 10
-5890.000004381747
 20
4018.575148463894
 30
0.0
 40
57.15
 41
300.0
 46
0.0
 71
     7
 72
     1
  1
{\fＭＳ ゴシック|b0|i0|c128|p49;デザイン}
 73
     1
 44
1.0
  0
LINE
  5
AB
330
1F
100
AcDbEntity
  8
0-B_寸法
  6
Continuous
 62
   120
370
     5
100
AcDbLine
 10
-1509.000018557983
 20
1168.000148463893
 30
0.0
 11
-1509.000018557983
 21
1368.000148463894
 31
0.0
  0
LINE
  5
AC
330
1F
100
AcDbEntity
  8
0-B_寸法
  6
Continuous
 62
   120
370
     5
100
AcDbLine
 10
-699.0000185579828
 20
1168.000148463893
 30
0.0
 11
-699.0000185579828
 21
1368.000148463894
 31
0.0
  0
LINE
  5
AD
330
1F
100
AcDbEntity
  8
0-B_寸法
  6
Continuous
 62
   120
370
     5
100
AcDbLine
 10
-699.0000185579828
 20
1168.000148463893
 30
0.0
 11
-1509.000018557983
 21
1168.000148463893
 31
0.0
  0
LWPOLYLINE
  5
AE
330
1F
100
AcDbEntity
  8
0-B_寸法
  6
Continuous
 62
     7
370
     9
100
AcDbPolyline
 90
        4
 70
     1
 43
3.0
 10
-1507.500018557983
 20
1168.000148463893
 42
0.4142135623731
 10
-1509.000018557983
 20
1169.500148463893
 42
0.4142135623731
 10
-1510.500018557983
 20
1168.000148463893
 42
0.4142135623731
 10
-1509.000018557983
 20
1166.500148463893
 42
0.4142135623731
  0
LWPOLYLINE
  5
AF
330
1F
100
AcDbEntity
  8
0-B_寸法
  6
Continuous
 62
     7
370
     9
100
AcDbPolyline
 90
        4
 70
     1
 43
3.0
 10
-697.5000185579828
 20
1168.000148463893
 42
0.4142135623731
 10
-699.0000185579828
 20
1169.500148463893
 42
0.4142135623731
 10
-700.5000185579828
 20
1168.000148463893
 42
0.4142135623731
 10
-699.0000185579828
 20
1166.500148463893
 42
0.4142135623731
  0
LINE
  5
B0
330
1F
100
AcDbEntity
  8
0-B_寸法
  6
Continuous
 62
   120
370
     5
100
AcDbLine
 10
1500.999981442021
 20
1168.000148463893
 30
0.0
 11
1500.999981442021
 21
1368.000148463894
 31
0.0
  0
LWPOLYLINE
  5
B1
330
1F
100
AcDbEntity
  8
0-B_寸法
  6
Continuous
 62
     7
370
     9
100
AcDbPolyline
 90
        4
 70
     1
 43
3.0
 10
1502.499981442021
 20
1168.000148463893
 42
0.4142135623731
 10
1500.999981442021
 20
1169.500148463893
 42
0.4142135623731
 10
1499.499981442021
 20
1168.000148463893
 42
0.4142135623731
 10
1500.999981442021
 20
1166.500148463893
 42
0.4142135623731
  0
LINE
  5
B2
330
1F
100
AcDbEntity
  8
0-B_寸法
  6
Continuous
 62
   120
370
     5
100
AcDbLine
 10
1500.999981442021
 20
1168.000148463893
 30
0.0
 11
787.9999814420205
 21
1168.000148463893
 31
0.0
  0
LINE
  5
B3
330
1F
100
AcDbEntity
  8
0-B_寸法
  6
Continuous
 62
   120
370
     5
100
AcDbLine
 10
787.9999814420205
 20
1168.000148463893
 30
0.0
 11
787.9999814420205
 21
1368.000148463894
 31
0.0
  0
LWPOLYLINE
  5
B4
330
1F
100
AcDbEntity
  8
0-B_寸法
  6
Continuous
 62
     7
370
     9
100
AcDbPolyline
 90
        4
 70
     1
 43
3.0
 10
789.4999814420205
 20
1168.000148463893
 42
0.4142135623731
 10
787.9999814420205
 20
1169.500148463893
 42
0.4142135623731
 10
786.4999814420205
 20
1168.000148463893
 42
0.4142135623731
 10
787.9999814420205
 20
1166.500148463893
 42
0.4142135623731
  0
LINE
  5
B5
330
1F
100
AcDbEntity
  8
0-0_補助線
  6
JWW_HOJO
 62
     7
370
     9
100
AcDbLine
 10
-5490.000018557986
 20
3465.000148463894
 30
0.0
 11
5689.998977248734
 21
3465.000148463894
 31
0.0
  0
LINE
  5
B6
330
1F
100
AcDbEntity
  8
0-0_補助線
  6
JWW_HOJO
 62
     7
370
     9
100
AcDbLine
 10
-5490.000018557986
 20
1418.000148463893
 30
0.0
 11
5689.998977248734
 21
1418.000148463893
 31
0.0
  0
LINE
  5
B7
330
1F
100
AcDbEntity
  8
0-0_補助線
  6
JWW_HOJO
 62
   120
370
     5
100
AcDbLine
 10
-5490.000018557986
 20
1368.000148463894
 30
0.0
 11
5689.998977248734
 21
1368.000148463894
 31
0.0
  0
LINE
  5
B8
330
1F
100
AcDbEntity
  8
F-1_枠
  6
Continuous
 62
   200
370
    20
100
AcDbLine
 10
-2916.000018557986
 20
-3790.000179909372
 30
0.0
 11
-2916.000018557986
 21
4174.999769056166
 31
0.0
  0
LINE
  5
B9
330
1F
100
AcDbEntity
  8
F-1_枠
  6
Continuous
 62
   200
370
    20
100
AcDbLine
 10
-522.0000185579818
 20
-3790.000179909372
 30
0.0
 11
-522.0000185579818
 21
4174.999769056166
 31
0.0
  0
LINE
  5
BA
330
1F
100
AcDbEntity
  8
F-1_枠
  6
Continuous
 62
   200
370
    20
100
AcDbLine
 10
1677.99998144202
 20
-3790.000179909372
 30
0.0
 11
1677.99998144202
 21
4174.999769056166
 31
0.0
  0
LINE
  5
BB
330
1F
100
AcDbEntity
  8
F-1_枠
  6
Continuous
 62
   200
370
    20
100
AcDbLine
 10
3751.999981442023
 20
-3790.000179909372
 30
0.0
 11
3751.999981442023
 21
4174.999769056166
 31
0.0
  0
LINE
  5
BC
330
1F
100
AcDbEntity
  8
0-0_補助線
  6
JWW_HOJO
 62
     7
370
     9
100
AcDbLine
 10
-4890.000018557986
 20
3964.999818544131
 30
0.0
 11
-4890.000018557986
 21
-3790.000179909372
 31
0.0
  0
LINE
  5
BD
330
1F
100
AcDbEntity
  8
0-0_補助線
  6
JWW_HOJO
 62
   120
370
     5
100
AcDbLine
 10
-4940.000018557987
 20
3964.999818544131
 30
0.0
 11
-4940.000018557987
 21
-3790.000179909372
 31
0.0
  0
LINE
  5
BE
330
1F
100
AcDbEntity
  8
0-0_補助線
  6
JWW_HOJO
 62
     7
370
     9
100
AcDbLine
 10
-2316.000018557984
 20
3964.999818544131
 30
0.0
 11
-2316.000018557984
 21
-3790.000179909372
 31
0.0
  0
LINE
  5
BF
330
1F
100
AcDbEntity
  8
0-0_補助線
  6
JWW_HOJO
 62
   120
370
     5
100
AcDbLine
 10
-2366.000018557984
 20
3964.999818544131
 30
0.0
 11
-2366.000018557984
 21
-3790.000179909372
 31
0.0
  0
LINE
  5
C0
330
1F
100
AcDbEntity
  8
0-0_補助線
  6
JWW_HOJO
 62
     7
370
     9
100
AcDbLine
 10
77.99998144201822
 20
3964.999818544131
 30
0.0
 11
77.99998144201822
 21
-3790.000179909372
 31
0.0
  0
LINE
  5
C1
330
1F
100
AcDbEntity
  8
0-0_補助線
  6
JWW_HOJO
 62
   120
370
     5
100
AcDbLine
 10
27.99998144201851
 20
3964.999818544131
 30
0.0
 11
27.99998144201851
 21
-3790.000179909372
 31
0.0
  0
LINE
  5
C2
330
1F
100
AcDbEntity
  8
0-0_補助線
  6
JWW_HOJO
 62
     7
370
     9
100
AcDbLine
 10
2277.999981442021
 20
3964.999818544131
 30
0.0
 11
2277.999981442021
 21
-3790.000179909372
 31
0.0
  0
LINE
  5
C3
330
1F
100
AcDbEntity
  8
0-0_補助線
  6
JWW_HOJO
 62
   120
370
     5
100
AcDbLine
 10
2227.999981442021
 20
3964.999818544131
 30
0.0
 11
2227.999981442021
 21
-3790.000179909372
 31
0.0
  0
LINE
  5
C4
330
1F
100
AcDbEntity
  8
0-0_補助線
  6
JWW_HOJO
 62
     7
370
     9
100
AcDbLine
 10
4351.999981442024
 20
3964.999818544131
 30
0.0
 11
4351.999981442024
 21
-3790.000179909372
 31
0.0
  0
LINE
  5
C5
330
1F
100
AcDbEntity
  8
0-0_補助線
  6
JWW_HOJO
 62
   120
370
     5
100
AcDbLine
 10
4301.999981442023
 20
3964.999818544131
 30
0.0
 11
4301.999981442023
 21
-3790.000179909372
 31
0.0
  0
LINE
  5
C6
330
1F
100
AcDbEntity
  8
0-0_補助線
  6
JWW_HOJO
 62
     7
370
     9
100
AcDbLine
 10
-5490.000018557986
 20
1168.000148463894
 30
0.0
 11
5689.998977248734
 21
1168.000148463894
 31
0.0
  0
MTEXT
  5
C7
330
1F
100
AcDbEntity
  8
F-A_文字
  6
Continuous
 62
     7
370
     9
100
AcDbMText
 10
-5852.500004381747
 20
2031.325062684755
 30
0.0
 40
57.15
 41
225.0
 46
0.0
 71
     7
 72
     1
  1
{\fＭＳ ゴシック|b0|i0|c128|p49;姿　図}
 73
     1
 44
1.0
  0
MTEXT
  5
C8
330
1F
100
AcDbEntity
  8
F-A_文字
  6
Continuous
 62
     7
370
     9
100
AcDbMText
 10
-5890.000004381747
 20
38.07493236644844
 30
0.0
 40
57.15
 41
300.0
 46
0.0
 71
     7
 72
     1
  1
{\fＭＳ ゴシック|b0|i0|c128|p49;デザイン}
 73
     1
 44
1.0
  0
MTEXT
  5
C9
330
1F
100
AcDbEntity
  8
F-A_文字
  6
Continuous
 62
     7
370
     9
100
AcDbMText
 10
-5852.500004381747
 20
-1949.175091552734
 30
0.0
 40
57.15
 41
225.0
 46
0.0
 71
     7
 72
     1
  1
{\fＭＳ ゴシック|b0|i0|c128|p49;姿　図}
 73
     1
 44
1.0
  0
MTEXT
  5
CA
330
1F
100
AcDbEntity
  8
0-B_寸法
  6
Continuous
 62
     7
370
    70
100
AcDbMText
 10
-2581.000018557985
 20
2220.325148463894
 30
0.0
 40
57.14999999999999
 41
412.5
 46
0.0
 71
     7
 72
     1
  1
{\fＭＳ ゴシック|b0|i0|c128|p49;ＤＨ＝1,983}
 11
6.123031769111886E-17
 21
1.0
 31
0.0
 73
     1
 44
1.0
  0
MTEXT
  5
CB
330
1F
100
AcDbEntity
  8
0-B_寸法
  6
Continuous
 62
     7
370
    70
100
AcDbMText
 10
-187.0000185579812
 20
2220.325148463894
 30
0.0
 40
57.14999999999999
 41
412.5
 46
0.0
 71
     7
 72
     1
  1
{\fＭＳ ゴシック|b0|i0|c128|p49;ＤＨ＝1,983}
 11
6.123031769111886E-17
 21
1.0
 31
0.0
 73
     1
 44
1.0
  0
MTEXT
  5
CC
330
1F
100
AcDbEntity
  8
0-B_寸法
  6
Continuous
 62
     7
370
   211
100
AcDbMText
 10
-1272.750018557983
 20
1174.075148463893
 30
0.0
 40
57.15
 41
337.5
 46
0.0
 71
     7
 72
     1
  1
{\fＭＳ ゴシック|b0|i0|c128|p49;ＤＷ＝810}
 73
     1
 44
1.0
  0
MTEXT
  5
CD
330
1F
100
AcDbEntity
  8
0-B_寸法
  6
Continuous
 62
     7
370
   211
100
AcDbMText
 10
975.749981442022
 20
1174.075148463893
 30
0.0
 40
57.15
 41
337.5
 46
0.0
 71
     7
 72
     1
  1
{\fＭＳ ゴシック|b0|i0|c128|p49;ＤＷ＝713}
 73
     1
 44
1.0
  0
LINE
  5
CE
330
1F
100
AcDbEntity
  8
0-4_枠
  6
Continuous
 62
    92
370
    13
100
AcDbLine
 10
-2316.000018557984
 20
1418.000148463893
 30
0.0
 11
-2316.000018557984
 21
3465.000148463894
 31
0.0
  0
LINE
  5
CF
330
1F
100
AcDbEntity
  8
0-4_枠
  6
Continuous
 62
    92
370
    13
100
AcDbLine
 10
-2286.000018557984
 20
1418.000148463893
 30
0.0
 11
-2286.000018557984
 21
3435.000148463894
 31
0.0
  0
LINE
  5
D0
330
1F
100
AcDbEntity
  8
0-4_枠
  6
Continuous
 62
    92
370
    13
100
AcDbLine
 10
-672.0000185579827
 20
1418.000148463893
 30
0.0
 11
-672.0000185579827
 21
3465.000148463894
 31
0.0
  0
LINE
  5
D1
330
1F
100
AcDbEntity
  8
0-4_枠
  6
Continuous
 62
    92
370
    13
100
AcDbLine
 10
-702.0000185579827
 20
1418.000148463893
 30
0.0
 11
-702.0000185579827
 21
3435.000148463894
 31
0.0
  0
LINE
  5
D2
330
1F
100
AcDbEntity
  8
0-4_枠
  6
Continuous
 62
    92
370
    13
100
AcDbLine
 10
-2286.000018557984
 20
3435.000148463894
 30
0.0
 11
-702.0000185579827
 21
3435.000148463894
 31
0.0
  0
LINE
  5
D3
330
1F
100
AcDbEntity
  8
0-4_枠
  6
Continuous
 62
    92
370
    13
100
AcDbLine
 10
-2316.000018557984
 20
3465.000148463894
 30
0.0
 11
-672.0000185579827
 21
3465.000148463894
 31
0.0
  0
LINE
  5
D4
330
1F
100
AcDbEntity
  8
0-4_枠
  6
Continuous
 62
    92
370
    13
100
AcDbLine
 10
77.99998144201908
 20
1418.000148463893
 30
0.0
 11
77.99998144201908
 21
3465.000148463894
 31
0.0
  0
LINE
  5
D5
330
1F
100
AcDbEntity
  8
0-4_枠
  6
Continuous
 62
    92
370
    13
100
AcDbLine
 10
107.9999814420191
 20
1418.000148463893
 30
0.0
 11
107.9999814420191
 21
3435.000148463894
 31
0.0
  0
LINE
  5
D6
330
1F
100
AcDbEntity
  8
0-4_枠
  6
Continuous
 62
    92
370
    13
100
AcDbLine
 10
1527.99998144202
 20
1418.000148463893
 30
0.0
 11
1527.99998144202
 21
3465.000148463894
 31
0.0
  0
LINE
  5
D7
330
1F
100
AcDbEntity
  8
0-4_枠
  6
Continuous
 62
    92
370
    13
100
AcDbLine
 10
1497.99998144202
 20
1418.000148463893
 30
0.0
 11
1497.99998144202
 21
3435.000148463894
 31
0.0
  0
LINE
  5
D8
330
1F
100
AcDbEntity
  8
0-4_枠
  6
Continuous
 62
    92
370
    13
100
AcDbLine
 10
107.9999814420191
 20
3435.000148463894
 30
0.0
 11
1497.99998144202
 21
3435.000148463894
 31
0.0
  0
LINE
  5
D9
330
1F
100
AcDbEntity
  8
0-4_枠
  6
Continuous
 62
    92
370
    13
100
AcDbLine
 10
77.99998144201908
 20
3465.000148463894
 30
0.0
 11
1527.99998144202
 21
3465.000148463894
 31
0.0
  0
LINE
  5
DA
330
1F
100
AcDbEntity
  8
F-A_文字
  6
Continuous
 62
     7
370
     9
100
AcDbLine
 10
-2916.000018557986
 20
184.5000148463899
 30
0.0
 11
-5490.000018557986
 21
-3790.000017526987
 31
0.0
  0
LINE
  5
DB
330
1F
100
AcDbEntity
  8
F-A_文字
  6
Continuous
 62
     7
370
     9
100
AcDbLine
 10
-522.0000185579818
 20
184.5000148463899
 30
0.0
 11
-2916.000018557986
 21
-3790.000017526987
 31
0.0
  0
LINE
  5
DC
330
1F
100
AcDbEntity
  8
F-A_文字
  6
Continuous
 62
     7
370
     9
100
AcDbLine
 10
1677.99998144202
 20
184.5000148463899
 30
0.0
 11
-522.0000185579818
 21
-3790.000179909372
 31
0.0
  0
LINE
  5
DD
330
1F
100
AcDbEntity
  8
F-A_文字
  6
Continuous
 62
     7
370
     9
100
AcDbLine
 10
1677.99998144202
 20
-3790.000017526987
 30
0.0
 11
3751.999981442023
 21
184.5000148463899
 31
0.0
  0
LINE
  5
DE
330
1F
100
AcDbEntity
  8
F-A_文字
  6
Continuous
 62
     7
370
     9
100
AcDbLine
 10
3751.999981442023
 20
-3790.000017526987
 30
0.0
 11
5689.998977248734
 21
184.5000148463899
 31
0.0
  0
LINE
  5
DF
330
1F
100
AcDbEntity
  8
F-1_枠
  6
Continuous
 62
   200
370
    20
100
AcDbLine
 10
5699.998762800888
 20
-3795.000003092998
 30
0.0
 11
-5999.99998453501
 21
-3795.000003092998
 31
0.0
  0
LINE
  5
E0
330
1F
100
AcDbEntity
  8
F-1_枠
  6
Continuous
 62
   200
370
    20
100
AcDbLine
 10
-5999.99998453501
 20
3964.999818544131
 30
0.0
 11
5699.998762800888
 21
3964.999818544131
 31
0.0
  0
LINE
  5
E1
330
1F
100
AcDbEntity
  8
F-1_枠
  6
Continuous
 62
   200
370
    20
100
AcDbLine
 10
5699.998762800888
 20
-3790.000017526987
 30
0.0
 11
-5999.99998453501
 21
-3790.000017526987
 31
0.0
  0
LINE
  5
E2
330
1F
100
AcDbEntity
  8
F-1_枠
  6
Continuous
 62
   200
370
    20
100
AcDbLine
 10
-5999.99998453501
 20
190.5001831054688
 30
0.0
 11
5699.998762800888
 21
190.5001831054688
 31
0.0
  0
LINE
  5
E3
330
1F
100
AcDbEntity
  8
F-1_枠
  6
Continuous
 62
   200
370
    20
100
AcDbLine
 10
-5999.99998453501
 20
-15.50015011349217
 30
0.0
 11
5699.998762800888
 21
-15.50015011349217
 31
0.0
  0
LINE
  5
E4
330
1F
100
AcDbEntity
  8
F-1_枠
  6
Continuous
 62
   200
370
    20
100
AcDbLine
 10
-5999.99998453501
 20
184.5000148463899
 30
0.0
 11
5699.998762800888
 21
184.5000148463899
 31
0.0
  0
LINE
  5
E5
330
1F
100
AcDbEntity
  8
F-1_枠
  6
Continuous
 62
   200
370
    20
100
AcDbLine
 10
-5999.99998453501
 20
187.5000989759289
 30
0.0
 11
5699.998762800888
 21
187.5000989759289
 31
0.0
  0
MTEXT
  5
E6
330
1F
100
AcDbEntity
  8
F-A_文字
  6
Continuous
 62
     7
370
     0
100
AcDbMText
 10
1180.417701903718
 20
-3946.423911599839
 30
0.0
 40
77.15249999999999
 41
405.0
 46
0.0
 71
     7
 72
     1
  1
{\fＭＳ ゴシック|b0|i0|c128|p49;建具姿図}
 73
     1
 44
1.0
  0
LINE
  5
E7
330
1F
100
AcDbEntity
  8
F-A_文字
  6
Continuous
 62
     7
370
     9
100
AcDbLine
 10
1677.99998144202
 20
190.499951130636
 30
0.0
 11
3751.999981442023
 21
4164.999983504013
 31
0.0
  0
LINE
  5
E8
330
1F
100
AcDbEntity
  8
F-A_文字
  6
Continuous
 62
     7
370
     9
100
AcDbLine
 10
3751.999981442023
 20
190.499951130636
 30
0.0
 11
5689.998977248734
 21
4164.999983504013
 31
0.0
  0
LINE
  5
E9
330
1F
100
AcDbEntity
  8
0-3_仕上げ
  6
Continuous
 62
     7
370
     9
100
AcDbLine
 10
-1378.000018557982
 20
1438.000148463894
 30
0.0
 11
-1378.000018557982
 21
1634.000148463893
 31
0.0
  0
LINE
  5
EA
330
1F
100
AcDbEntity
  8
0-3_仕上げ
  6
Continuous
 62
    92
370
    13
100
AcDbLine
 10
-831.0000185579855
 20
1638.000148463893
 30
0.0
 11
-1377.000018557983
 21
1638.000148463893
 31
0.0
  0
LINE
  5
EB
330
1F
100
AcDbEntity
  8
0-3_仕上げ
  6
Continuous
 62
     7
370
     9
100
AcDbLine
 10
-830.000018557983
 20
1438.000148463894
 30
0.0
 11
-830.000018557983
 21
1634.000148463893
 31
0.0
  0
LINE
  5
EC
330
1F
100
AcDbEntity
  8
0-3_仕上げ
  6
Continuous
 62
     7
370
     9
100
AcDbLine
 10
-828.5000185579844
 20
1438.000148463894
 30
0.0
 11
-828.5000185579844
 21
1635.500148463894
 31
0.0
  0
LINE
  5
ED
330
1F
100
AcDbEntity
  8
0-3_仕上げ
  6
Continuous
 62
     7
370
     9
100
AcDbLine
 10
-830.000018557983
 20
1634.000148463893
 30
0.0
 11
-1378.000018557982
 21
1634.000148463893
 31
0.0
  0
LINE
  5
EE
330
1F
100
AcDbEntity
  8
0-3_仕上げ
  6
Continuous
 62
     7
370
     9
100
AcDbLine
 10
-1379.500018557981
 20
1438.000148463894
 30
0.0
 11
-1379.500018557981
 21
1635.500148463894
 31
0.0
  0
LINE
  5
EF
330
1F
100
AcDbEntity
  8
0-3_仕上げ
  6
Continuous
 62
     7
370
     9
100
AcDbLine
 10
-831.0000185579855
 20
1638.000148463894
 30
0.0
 11
-828.5000185579844
 21
1635.500148463894
 31
0.0
  0
LINE
  5
F0
330
1F
100
AcDbEntity
  8
0-3_仕上げ
  6
Continuous
 62
     7
370
     9
100
AcDbLine
 10
-830.000018557983
 20
1634.000148463893
 30
0.0
 11
-828.5000185579844
 21
1635.500148463894
 31
0.0
  0
LINE
  5
F1
330
1F
100
AcDbEntity
  8
0-3_仕上げ
  6
Continuous
 62
     7
370
     9
100
AcDbLine
 10
-1378.000018557982
 20
1634.000148463893
 30
0.0
 11
-1379.500018557981
 21
1635.500148463894
 31
0.0
  0
LINE
  5
F2
330
1F
100
AcDbEntity
  8
0-3_仕上げ
  6
Continuous
 62
     7
370
     9
100
AcDbLine
 10
-1379.500018557981
 20
1635.500148463894
 30
0.0
 11
-1377.000018557983
 21
1638.000148463894
 31
0.0
  0
LINE
  5
F3
330
1F
100
AcDbEntity
  8
0-C_ハッチ
  6
JWW_DASHED1
 62
   120
370
     5
100
AcDbLine
 10
-1377.000018557983
 20
3236.058973090535
 30
0.0
 11
-1342.058843184625
 21
3271.000148463893
 31
0.0
  0
LINE
  5
F4
330
1F
100
AcDbEntity
  8
0-C_ハッチ
  6
JWW_DASHED1
 62
   120
370
     5
100
AcDbLine
 10
-1377.000018557983
 20
3151.206159348135
 30
0.0
 11
-1257.206029442232
 21
3271.000148463886
 31
0.0
  0
LINE
  5
F5
330
1F
100
AcDbEntity
  8
0-C_ハッチ
  6
JWW_DASHED1
 62
   120
370
     5
100
AcDbLine
 10
-1377.000018557983
 20
3193.632566219336
 30
0.0
 11
-1299.632436313429
 21
3271.000148463889
 31
0.0
  0
LINE
  5
F6
330
1F
100
AcDbEntity
  8
0-3_仕上げ
  6
Continuous
 62
    92
370
    13
100
AcDbLine
 10
-1377.000018557983
 20
2213.000148463894
 30
0.0
 11
-1377.000018557983
 21
1638.000148463893
 31
0.0
  0
LINE
  5
F7
330
1F
100
AcDbEntity
  8
0-3_仕上げ
  6
Continuous
 62
    92
370
    13
100
AcDbLine
 10
-1377.000018557983
 20
2313.000148463894
 30
0.0
 11
-1377.000018557983
 21
3271.000148463894
 31
0.0
  0
LINE
  5
F8
330
1F
100
AcDbEntity
  8
0-3_仕上げ
  6
Continuous
 62
    92
370
    13
100
AcDbLine
 10
-831.0000185579855
 20
3271.000148463894
 30
0.0
 11
-1377.000018557983
 21
3271.000148463894
 31
0.0
  0
LINE
  5
F9
330
1F
100
AcDbEntity
  8
0-3_仕上げ
  6
Continuous
 62
    92
370
    13
100
AcDbLine
 10
-831.0000185579855
 20
2313.000148463894
 30
0.0
 11
-1377.000018557983
 21
2313.000148463894
 31
0.0
  0
LINE
  5
FA
330
1F
100
AcDbEntity
  8
0-3_仕上げ
  6
Continuous
 62
    92
370
    13
100
AcDbLine
 10
-1377.000018557983
 20
2213.000148463894
 30
0.0
 11
-831.0000185579855
 21
2213.000148463894
 31
0.0
  0
LINE
  5
FB
330
1F
100
AcDbEntity
  8
0-3_仕上げ
  6
Continuous
 62
    92
370
    13
100
AcDbLine
 10
-831.0000185579855
 20
2213.000148463894
 30
0.0
 11
-831.0000185579855
 21
1638.000148463893
 31
0.0
  0
LINE
  5
FC
330
1F
100
AcDbEntity
  8
0-3_仕上げ
  6
Continuous
 62
    92
370
    13
100
AcDbLine
 10
-831.0000185579855
 20
2313.000148463894
 30
0.0
 11
-831.0000185579855
 21
3271.000148463894
 31
0.0
  0
LINE
  5
FD
330
1F
100
AcDbEntity
  8
0-3_仕上げ
  6
Continuous
 62
     7
370
     9
100
AcDbLine
 10
-830.000018557983
 20
2217.000148463894
 30
0.0
 11
-830.000018557983
 21
2309.000148463894
 31
0.0
  0
LINE
  5
FE
330
1F
100
AcDbEntity
  8
0-C_ハッチ
  6
JWW_DASHED1
 62
   120
370
     5
100
AcDbLine
 10
-857.5610095640417
 20
2313.000148463894
 30
0.0
 11
-831.0000185579855
 21
2339.561139469952
 31
0.0
  0
LINE
  5
FF
330
1F
100
AcDbEntity
  8
0-C_ハッチ
  6
JWW_DASHED1
 62
   120
370
     5
100
AcDbLine
 10
-899.9874164352417
 20
2313.000148463894
 30
0.0
 11
-831.0000185579855
 21
2381.987546341153
 31
0.0
  0
LINE
  5
100
330
1F
100
AcDbEntity
  8
0-3_仕上げ
  6
Continuous
 62
     7
370
     9
100
AcDbLine
 10
-830.000018557983
 20
3275.000148463894
 30
0.0
 11
-1378.000018557982
 21
3275.000148463894
 31
0.0
  0
LINE
  5
101
330
1F
100
AcDbEntity
  8
0-3_仕上げ
  6
Continuous
 62
     7
370
     9
100
AcDbLine
 10
-1379.500018557981
 20
2215.500148463894
 30
0.0
 11
-1379.500018557981
 21
2310.500148463894
 31
0.0
  0
LINE
  5
102
330
1F
100
AcDbEntity
  8
0-3_仕上げ
  6
Continuous
 62
     7
370
     9
100
AcDbLine
 10
-1378.000018557982
 20
2217.000148463894
 30
0.0
 11
-1378.000018557982
 21
2309.000148463894
 31
0.0
  0
LINE
  5
103
330
1F
100
AcDbEntity
  8
0-3_仕上げ
  6
Continuous
 62
     7
370
     9
100
AcDbLine
 10
-1378.000018557982
 20
2217.000148463894
 30
0.0
 11
-830.000018557983
 21
2217.000148463894
 31
0.0
  0
LINE
  5
104
330
1F
100
AcDbEntity
  8
0-3_仕上げ
  6
Continuous
 62
     7
370
     9
100
AcDbLine
 10
-828.5000185579844
 20
2215.500148463894
 30
0.0
 11
-828.5000185579844
 21
2310.500148463894
 31
0.0
  0
LINE
  5
105
330
1F
100
AcDbEntity
  8
0-3_仕上げ
  6
Continuous
 62
     7
370
     9
100
AcDbLine
 10
-830.000018557983
 20
2309.000148463894
 30
0.0
 11
-1378.000018557982
 21
2309.000148463894
 31
0.0
  0
LINE
  5
106
330
1F
100
AcDbEntity
  8
0-C_ハッチ
  6
JWW_DASHED1
 62
   120
370
     5
100
AcDbLine
 10
-1377.000018557983
 20
2769.36849750739
 30
0.0
 11
-875.3683676014731
 21
3271.0001484639
 31
0.0
  0
LINE
  5
107
330
1F
100
AcDbEntity
  8
0-C_ハッチ
  6
JWW_DASHED1
 62
   120
370
     5
100
AcDbLine
 10
-1377.000018557983
 20
2811.79490437859
 30
0.0
 11
-917.7947744726697
 21
3271.000148463903
 31
0.0
  0
LINE
  5
108
330
1F
100
AcDbEntity
  8
0-C_ハッチ
  6
JWW_DASHED1
 62
   120
370
     5
100
AcDbLine
 10
-1377.000018557983
 20
2854.22131124979
 30
0.0
 11
-960.2211813438834
 21
3271.00014846389
 31
0.0
  0
LINE
  5
109
330
1F
100
AcDbEntity
  8
0-C_ハッチ
  6
JWW_DASHED1
 62
   120
370
     5
100
AcDbLine
 10
-1377.000018557983
 20
2896.64771812099
 30
0.0
 11
-1002.64758821508
 21
3271.000148463894
 31
0.0
  0
LINE
  5
10A
330
1F
100
AcDbEntity
  8
0-C_ハッチ
  6
JWW_DASHED1
 62
   120
370
     5
100
AcDbLine
 10
-1377.000018557983
 20
2939.07412499219
 30
0.0
 11
-1045.073995086277
 21
3271.000148463897
 31
0.0
  0
LINE
  5
10B
330
1F
100
AcDbEntity
  8
0-C_ハッチ
  6
JWW_DASHED1
 62
   120
370
     5
100
AcDbLine
 10
-1377.000018557983
 20
2981.50053186339
 30
0.0
 11
-1087.500401957484
 21
3271.000148463891
 31
0.0
  0
LINE
  5
10C
330
1F
100
AcDbEntity
  8
0-C_ハッチ
  6
JWW_DASHED1
 62
   120
370
     5
100
AcDbLine
 10
-1377.000018557983
 20
3023.926938734535
 30
0.0
 11
-1129.926808828619
 21
3271.0001484639
 31
0.0
  0
LINE
  5
10D
330
1F
100
AcDbEntity
  8
0-C_ハッチ
  6
JWW_DASHED1
 62
   120
370
     5
100
AcDbLine
 10
-1377.000018557983
 20
3066.353345605735
 30
0.0
 11
-1172.353215699815
 21
3271.000148463905
 31
0.0
  0
LINE
  5
10E
330
1F
100
AcDbEntity
  8
0-C_ハッチ
  6
JWW_DASHED1
 62
   120
370
     5
100
AcDbLine
 10
-1377.000018557983
 20
3108.779752476935
 30
0.0
 11
-1214.779622571009
 21
3271.00014846391
 31
0.0
  0
LINE
  5
10F
330
1F
100
AcDbEntity
  8
0-C_ハッチ
  6
JWW_DASHED1
 62
   120
370
     5
100
AcDbLine
 10
-1377.000018557983
 20
2726.942090636189
 30
0.0
 11
-832.9419607302799
 21
3271.000148463894
 31
0.0
  0
LINE
  5
110
330
1F
100
AcDbEntity
  8
0-C_ハッチ
  6
JWW_DASHED1
 62
   120
370
     5
100
AcDbLine
 10
-1377.000018557983
 20
2684.515683765044
 30
0.0
 11
-831.0000185579855
 21
3230.515683765042
 31
0.0
  0
LINE
  5
111
330
1F
100
AcDbEntity
  8
0-C_ハッチ
  6
JWW_DASHED1
 62
   120
370
     5
100
AcDbLine
 10
-1377.000018557983
 20
2345.1044287955
 30
0.0
 11
-831.0000185579855
 21
2891.104428795497
 31
0.0
  0
LINE
  5
112
330
1F
100
AcDbEntity
  8
0-C_ハッチ
  6
JWW_DASHED1
 62
   120
370
     5
100
AcDbLine
 10
-1377.000018557983
 20
2387.530835666644
 30
0.0
 11
-831.0000185579855
 21
2933.530835666642
 31
0.0
  0
LINE
  5
113
330
1F
100
AcDbEntity
  8
0-C_ハッチ
  6
JWW_DASHED1
 62
   120
370
     5
100
AcDbLine
 10
-1377.000018557983
 20
2429.957242537845
 30
0.0
 11
-831.0000185579855
 21
2975.957242537842
 31
0.0
  0
LINE
  5
114
330
1F
100
AcDbEntity
  8
0-C_ハッチ
  6
JWW_DASHED1
 62
   120
370
     5
100
AcDbLine
 10
-1377.000018557983
 20
2472.383649409045
 30
0.0
 11
-831.0000185579855
 21
3018.383649409042
 31
0.0
  0
LINE
  5
115
330
1F
100
AcDbEntity
  8
0-C_ハッチ
  6
JWW_DASHED1
 62
   120
370
     5
100
AcDbLine
 10
-1377.000018557983
 20
2514.810056280244
 30
0.0
 11
-831.0000185579855
 21
3060.810056280243
 31
0.0
  0
LINE
  5
116
330
1F
100
AcDbEntity
  8
0-C_ハッチ
  6
JWW_DASHED1
 62
   120
370
     5
100
AcDbLine
 10
-1377.000018557983
 20
2557.236463151445
 30
0.0
 11
-831.0000185579855
 21
3103.236463151443
 31
0.0
  0
LINE
  5
117
330
1F
100
AcDbEntity
  8
0-C_ハッチ
  6
JWW_DASHED1
 62
   120
370
     5
100
AcDbLine
 10
-1377.000018557983
 20
2599.662870022644
 30
0.0
 11
-831.0000185579855
 21
3145.662870022643
 31
0.0
  0
LINE
  5
118
330
1F
100
AcDbEntity
  8
0-C_ハッチ
  6
JWW_DASHED1
 62
   120
370
     5
100
AcDbLine
 10
-1377.000018557983
 20
2642.089276893844
 30
0.0
 11
-831.0000185579855
 21
3188.089276893842
 31
0.0
  0
LINE
  5
119
330
1F
100
AcDbEntity
  8
0-C_ハッチ
  6
JWW_DASHED1
 62
   120
370
     5
100
AcDbLine
 10
-1366.677892018387
 20
2313.000148463894
 30
0.0
 11
-831.0000185579855
 21
2848.678021924298
 31
0.0
  0
LINE
  5
11A
330
1F
100
AcDbEntity
  8
0-C_ハッチ
  6
JWW_DASHED1
 62
   120
370
     5
100
AcDbLine
 10
-1324.251485147187
 20
2313.000148463894
 30
0.0
 11
-831.0000185579855
 21
2806.251615053097
 31
0.0
  0
LINE
  5
11B
330
1F
100
AcDbEntity
  8
0-C_ハッチ
  6
JWW_DASHED1
 62
   120
370
     5
100
AcDbLine
 10
-942.4138233064417
 20
2313.000148463894
 30
0.0
 11
-831.0000185579855
 21
2424.413953212352
 31
0.0
  0
LINE
  5
11C
330
1F
100
AcDbEntity
  8
0-C_ハッチ
  6
JWW_DASHED1
 62
   120
370
     5
100
AcDbLine
 10
-984.8402301776417
 20
2313.000148463894
 30
0.0
 11
-831.0000185579855
 21
2466.840360083552
 31
0.0
  0
LINE
  5
11D
330
1F
100
AcDbEntity
  8
0-C_ハッチ
  6
JWW_DASHED1
 62
   120
370
     5
100
AcDbLine
 10
-1027.266637048842
 20
2313.000148463894
 30
0.0
 11
-831.0000185579855
 21
2509.266766954752
 31
0.0
  0
LINE
  5
11E
330
1F
100
AcDbEntity
  8
0-C_ハッチ
  6
JWW_DASHED1
 62
   120
370
     5
100
AcDbLine
 10
-1069.693043920042
 20
2313.000148463894
 30
0.0
 11
-831.0000185579855
 21
2551.693173825952
 31
0.0
  0
LINE
  5
11F
330
1F
100
AcDbEntity
  8
0-C_ハッチ
  6
JWW_DASHED1
 62
   120
370
     5
100
AcDbLine
 10
-1112.119450791242
 20
2313.000148463894
 30
0.0
 11
-831.0000185579855
 21
2594.119580697152
 31
0.0
  0
LINE
  5
120
330
1F
100
AcDbEntity
  8
0-C_ハッチ
  6
JWW_DASHED1
 62
   120
370
     5
100
AcDbLine
 10
-1154.545857662387
 20
2313.000148463894
 30
0.0
 11
-831.0000185579855
 21
2636.545987568297
 31
0.0
  0
LINE
  5
121
330
1F
100
AcDbEntity
  8
0-C_ハッチ
  6
JWW_DASHED1
 62
   120
370
     5
100
AcDbLine
 10
-1196.972264533587
 20
2313.000148463894
 30
0.0
 11
-831.0000185579855
 21
2678.972394439497
 31
0.0
  0
LINE
  5
122
330
1F
100
AcDbEntity
  8
0-C_ハッチ
  6
JWW_DASHED1
 62
   120
370
     5
100
AcDbLine
 10
-1239.398671404787
 20
2313.000148463894
 30
0.0
 11
-831.0000185579855
 21
2721.398801310697
 31
0.0
  0
LINE
  5
123
330
1F
100
AcDbEntity
  8
0-C_ハッチ
  6
JWW_DASHED1
 62
   120
370
     5
100
AcDbLine
 10
-1281.825078275987
 20
2313.000148463894
 30
0.0
 11
-831.0000185579855
 21
2763.825208181897
 31
0.0
  0
LINE
  5
124
330
1F
100
AcDbEntity
  8
0-3_仕上げ
  6
Continuous
 62
     7
370
     9
100
AcDbLine
 10
-1378.000018557982
 20
2217.000148463894
 30
0.0
 11
-1379.500018557981
 21
2215.500148463894
 31
0.0
  0
LINE
  5
125
330
1F
100
AcDbEntity
  8
0-3_仕上げ
  6
Continuous
 62
     7
370
     9
100
AcDbLine
 10
-1378.000018557982
 20
3275.000148463894
 30
0.0
 11
-1379.500018557981
 21
3273.500148463894
 31
0.0
  0
LINE
  5
126
330
1F
100
AcDbEntity
  8
0-3_仕上げ
  6
Continuous
 62
     7
370
     9
100
AcDbLine
 10
-830.000018557983
 20
3275.000148463894
 30
0.0
 11
-828.5000185579844
 21
3273.500148463894
 31
0.0
  0
LINE
  5
127
330
1F
100
AcDbEntity
  8
0-3_仕上げ
  6
Continuous
 62
     7
370
     9
100
AcDbLine
 10
-828.5000185579844
 20
3273.500148463894
 30
0.0
 11
-831.0000185579855
 21
3271.000148463894
 31
0.0
  0
LINE
  5
128
330
1F
100
AcDbEntity
  8
0-3_仕上げ
  6
Continuous
 62
     7
370
     9
100
AcDbLine
 10
-1377.000018557983
 20
3271.000148463894
 30
0.0
 11
-1379.500018557981
 21
3273.500148463894
 31
0.0
  0
LINE
  5
129
330
1F
100
AcDbEntity
  8
0-3_仕上げ
  6
Continuous
 62
     7
370
     9
100
AcDbLine
 10
-1378.000018557982
 20
2309.000148463894
 30
0.0
 11
-1379.500018557981
 21
2310.500148463894
 31
0.0
  0
LINE
  5
12A
330
1F
100
AcDbEntity
  8
0-3_仕上げ
  6
Continuous
 62
     7
370
     9
100
AcDbLine
 10
-1379.500018557981
 20
2310.500148463894
 30
0.0
 11
-1377.000018557983
 21
2313.000148463894
 31
0.0
  0
LINE
  5
12B
330
1F
100
AcDbEntity
  8
0-3_仕上げ
  6
Continuous
 62
     7
370
     9
100
AcDbLine
 10
-1377.000018557983
 20
2213.000148463894
 30
0.0
 11
-1379.500018557981
 21
2215.500148463894
 31
0.0
  0
LINE
  5
12C
330
1F
100
AcDbEntity
  8
0-3_仕上げ
  6
Continuous
 62
     7
370
     9
100
AcDbLine
 10
-830.000018557983
 20
2217.000148463894
 30
0.0
 11
-828.5000185579844
 21
2215.500148463894
 31
0.0
  0
LINE
  5
12D
330
1F
100
AcDbEntity
  8
0-3_仕上げ
  6
Continuous
 62
     7
370
     9
100
AcDbLine
 10
-828.5000185579844
 20
2215.500148463894
 30
0.0
 11
-831.0000185579855
 21
2213.000148463894
 31
0.0
  0
LINE
  5
12E
330
1F
100
AcDbEntity
  8
0-3_仕上げ
  6
Continuous
 62
     7
370
     9
100
AcDbLine
 10
-831.0000185579855
 20
2313.000148463894
 30
0.0
 11
-828.5000185579844
 21
2310.500148463894
 31
0.0
  0
LINE
  5
12F
330
1F
100
AcDbEntity
  8
0-3_仕上げ
  6
Continuous
 62
     7
370
     9
100
AcDbLine
 10
-830.000018557983
 20
2309.000148463894
 30
0.0
 11
-828.5000185579844
 21
2310.500148463894
 31
0.0
  0
ARC
  5
130
330
1F
100
AcDbEntity
  8
0-3_仕上げ
  6
JWW_CENTER1
 62
   120
370
     5
100
AcDbCircle
 10
-1094.12182319106
 20
3169.821368112185
 30
0.0
 40
60.0
100
AcDbArc
 50
183.6514672287091
 51
234.4577409694452
  0
LINE
  5
131
330
1F
100
AcDbEntity
  8
0-3_仕上げ
  6
JWW_CENTER1
 62
   120
370
     5
100
AcDbLine
 10
-1254.000018557983
 20
3166.000148463894
 30
0.0
 11
-1254.000018557983
 21
3271.000148463894
 31
0.0
  0
LINE
  5
132
330
1F
100
AcDbEntity
  8
0-3_仕上げ
  6
Continuous
 62
   120
370
     5
100
AcDbLine
 10
-1257.000018557983
 20
3166.191209446308
 30
0.0
 11
-1257.000018557983
 21
3271.000148463894
 31
0.0
  0
LINE
  5
133
330
1F
100
AcDbEntity
  8
0-3_仕上げ
  6
Continuous
 62
   120
370
     5
100
AcDbLine
 10
-1251.000018557982
 20
3166.000148463894
 30
0.0
 11
-1251.000018557982
 21
3271.000148463894
 31
0.0
  0
ARC
  5
134
330
1F
100
AcDbEntity
  8
0-3_仕上げ
  6
JWW_CENTER1
 62
   120
370
     5
100
AcDbCircle
 10
-1194.121823191061
 20
3169.821368112185
 30
0.0
 40
60.0
100
AcDbArc
 50
183.6514672287091
 51
234.4577409694452
  0
ARC
  5
135
330
1F
100
AcDbEntity
  8
0-3_仕上げ
  6
Continuous
 62
   120
370
     5
100
AcDbCircle
 10
-1194.121823191061
 20
3169.821368112185
 30
0.0
 40
57.0
100
AcDbArc
 50
183.6514672287091
 51
233.502329744074
  0
ARC
  5
136
330
1F
100
AcDbEntity
  8
0-3_仕上げ
  6
JWW_CENTER1
 62
   120
370
     5
100
AcDbCircle
 10
-1194.121823191061
 20
3072.178928815602
 30
0.0
 40
60.0
100
AcDbArc
 50
125.5422590305548
 51
176.3485327712908
  0
ARC
  5
137
330
1F
100
AcDbEntity
  8
0-3_仕上げ
  6
Continuous
 62
   120
370
     5
100
AcDbCircle
 10
-1194.121823191061
 20
3072.178928815602
 30
0.0
 40
63.0
100
AcDbArc
 50
129.200407421848
 51
161.8874291519458
  0
ARC
  5
138
330
1F
100
AcDbEntity
  8
0-3_仕上げ
  6
Continuous
 62
   120
370
     5
100
AcDbCircle
 10
-1194.121823191061
 20
3169.821368112185
 30
0.0
 40
63.0
100
AcDbArc
 50
198.1125708480542
 51
230.799592578152
  0
ARC
  5
139
330
1F
100
AcDbEntity
  8
0-3_仕上げ
  6
Continuous
 62
   120
370
     5
100
AcDbCircle
 10
-1313.878213924908
 20
3169.821368112185
 30
0.0
 40
63.0
100
AcDbArc
 50
309.200407421848
 51
341.8874291519458
  0
ARC
  5
13A
330
1F
100
AcDbEntity
  8
0-3_仕上げ
  6
Continuous
 62
   120
370
     5
100
AcDbCircle
 10
-1313.878213924908
 20
3072.178928815602
 30
0.0
 40
63.0
100
AcDbArc
 50
18.11257084805418
 51
50.79959257815202
  0
ARC
  5
13B
330
1F
100
AcDbEntity
  8
0-3_仕上げ
  6
Continuous
 62
   120
370
     5
100
AcDbCircle
 10
-1194.121823191061
 20
3072.178928815602
 30
0.0
 40
57.0
100
AcDbArc
 50
126.497670255926
 51
176.2536402876275
  0
ARC
  5
13C
330
1F
100
AcDbEntity
  8
0-3_仕上げ
  6
JWW_CENTER1
 62
   120
370
     5
100
AcDbCircle
 10
-1094.12182319106
 20
3072.178928815602
 30
0.0
 40
60.0
100
AcDbArc
 50
125.5422590305548
 51
176.3485327712908
  0
ARC
  5
13D
330
1F
100
AcDbEntity
  8
0-3_仕上げ
  6
Continuous
 62
   120
370
     5
100
AcDbCircle
 10
-1094.12182319106
 20
3072.178928815602
 30
0.0
 40
63.0
100
AcDbArc
 50
129.200407421848
 51
161.8874291519458
  0
ARC
  5
13E
330
1F
100
AcDbEntity
  8
0-3_仕上げ
  6
Continuous
 62
   120
370
     5
100
AcDbCircle
 10
-1094.12182319106
 20
3169.821368112185
 30
0.0
 40
63.0
100
AcDbArc
 50
198.1125708480542
 51
230.799592578152
  0
ARC
  5
13F
330
1F
100
AcDbEntity
  8
0-3_仕上げ
  6
Continuous
 62
   120
370
     5
100
AcDbCircle
 10
-1213.878213924907
 20
3169.821368112185
 30
0.0
 40
63.0
100
AcDbArc
 50
309.200407421848
 51
341.8874291519458
  0
ARC
  5
140
330
1F
100
AcDbEntity
  8
0-3_仕上げ
  6
Continuous
 62
   120
370
     5
100
AcDbCircle
 10
-1213.878213924907
 20
3072.178928815602
 30
0.0
 40
63.0
100
AcDbArc
 50
18.11257084805418
 51
50.79959257815202
  0
LINE
  5
141
330
1F
100
AcDbEntity
  8
0-3_仕上げ
  6
Continuous
 62
   120
370
     5
100
AcDbLine
 10
-1228.024858895007
 20
3124.000148463893
 30
0.0
 11
-1179.975178220961
 21
3124.000148463893
 31
0.0
  0
LINE
  5
142
330
1F
100
AcDbEntity
  8
0-3_仕上げ
  6
Continuous
 62
   120
370
     5
100
AcDbLine
 10
-1228.024858895007
 20
3118.000148463894
 30
0.0
 11
-1179.975178220961
 21
3118.000148463894
 31
0.0
  0
LINE
  5
143
330
1F
100
AcDbEntity
  8
0-3_仕上げ
  6
JWW_CENTER1
 62
   120
370
     5
100
AcDbLine
 10
-1229.000018557982
 20
3121.000148463894
 30
0.0
 11
-1179.000018557983
 21
3121.000148463894
 31
0.0
  0
ARC
  5
144
330
1F
100
AcDbEntity
  8
0-3_仕上げ
  6
Continuous
 62
   120
370
     5
100
AcDbCircle
 10
-1213.878213924907
 20
3169.821368112185
 30
0.0
 40
57.0
100
AcDbArc
 50
306.497670255926
 51
356.2536402876231
  0
LINE
  5
145
330
1F
100
AcDbEntity
  8
0-3_仕上げ
  6
Continuous
 62
   120
370
     5
100
AcDbLine
 10
-1157.000018557986
 20
3166.09700349496
 30
0.0
 11
-1157.000018557986
 21
3271.000148463894
 31
0.0
  0
LINE
  5
146
330
1F
100
AcDbEntity
  8
0-3_仕上げ
  6
JWW_CENTER1
 62
   120
370
     5
100
AcDbLine
 10
-1154.000018557982
 20
3166.000148463894
 30
0.0
 11
-1154.000018557982
 21
3271.000148463894
 31
0.0
  0
ARC
  5
147
330
1F
100
AcDbEntity
  8
0-3_仕上げ
  6
JWW_CENTER1
 62
   120
370
     5
100
AcDbCircle
 10
-1213.878213924907
 20
3169.821368112185
 30
0.0
 40
60.0
100
AcDbArc
 50
305.5422590305548
 51
356.3485327712913
  0
LINE
  5
148
330
1F
100
AcDbEntity
  8
0-3_仕上げ
  6
Continuous
 62
   120
370
     5
100
AcDbLine
 10
-1151.000018557984
 20
3166.097003494961
 30
0.0
 11
-1151.000018557984
 21
3271.000148463894
 31
0.0
  0
ARC
  5
149
330
1F
100
AcDbEntity
  8
0-3_仕上げ
  6
Continuous
 62
   120
370
     5
100
AcDbCircle
 10
-1213.878213924907
 20
3072.178928815602
 30
0.0
 40
57.0
100
AcDbArc
 50
3.746359712376933
 51
53.50232974407399
  0
ARC
  5
14A
330
1F
100
AcDbEntity
  8
0-3_仕上げ
  6
JWW_CENTER1
 62
   120
370
     5
100
AcDbCircle
 10
-1213.878213924907
 20
3072.178928815602
 30
0.0
 40
60.0
100
AcDbArc
 50
3.651467228708674
 51
54.45774096944522
  0
ARC
  5
14B
330
1F
100
AcDbEntity
  8
0-3_仕上げ
  6
JWW_CENTER1
 62
   120
370
     5
100
AcDbCircle
 10
-1194.121823191061
 20
2521.821368112185
 30
0.0
 40
60.0
100
AcDbArc
 50
183.6514672287091
 51
234.4577409694452
  0
ARC
  5
14C
330
1F
100
AcDbEntity
  8
0-3_仕上げ
  6
JWW_CENTER1
 62
   120
370
     5
100
AcDbCircle
 10
-1194.121823191061
 20
2424.178928815602
 30
0.0
 40
60.0
100
AcDbArc
 50
125.5422590305548
 51
176.3485327712908
  0
ARC
  5
14D
330
1F
100
AcDbEntity
  8
0-3_仕上げ
  6
Continuous
 62
   120
370
     5
100
AcDbCircle
 10
-1194.121823191061
 20
2424.178928815602
 30
0.0
 40
63.0
100
AcDbArc
 50
129.200407421848
 51
161.8874291519458
  0
ARC
  5
14E
330
1F
100
AcDbEntity
  8
0-3_仕上げ
  6
Continuous
 62
   120
370
     5
100
AcDbCircle
 10
-1194.121823191061
 20
2521.821368112185
 30
0.0
 40
63.0
100
AcDbArc
 50
198.1125708480542
 51
230.799592578152
  0
ARC
  5
14F
330
1F
100
AcDbEntity
  8
0-3_仕上げ
  6
Continuous
 62
   120
370
     5
100
AcDbCircle
 10
-1313.878213924908
 20
2521.821368112185
 30
0.0
 40
63.0
100
AcDbArc
 50
309.200407421848
 51
341.8874291519458
  0
ARC
  5
150
330
1F
100
AcDbEntity
  8
0-3_仕上げ
  6
Continuous
 62
   120
370
     5
100
AcDbCircle
 10
-1313.878213924908
 20
2424.178928815602
 30
0.0
 40
63.0
100
AcDbArc
 50
18.11257084805418
 51
50.79959257815202
  0
LINE
  5
151
330
1F
100
AcDbEntity
  8
0-3_仕上げ
  6
Continuous
 62
   120
370
     5
100
AcDbLine
 10
-1257.000018557983
 20
2313.000148463894
 30
0.0
 11
-1257.000018557983
 21
2427.903293432828
 31
0.0
  0
LINE
  5
152
330
1F
100
AcDbEntity
  8
0-3_仕上げ
  6
JWW_CENTER1
 62
   120
370
     5
100
AcDbLine
 10
-1254.000018557983
 20
2313.000148463894
 30
0.0
 11
-1254.000018557983
 21
2428.000148463893
 31
0.0
  0
LINE
  5
153
330
1F
100
AcDbEntity
  8
0-3_仕上げ
  6
Continuous
 62
   120
370
     5
100
AcDbLine
 10
-1251.000018557982
 20
2313.000148463894
 30
0.0
 11
-1251.000018557982
 21
2427.903293432823
 31
0.0
  0
ARC
  5
154
330
1F
100
AcDbEntity
  8
0-3_仕上げ
  6
Continuous
 62
   120
370
     5
100
AcDbCircle
 10
-1194.121823191061
 20
2424.178928815602
 30
0.0
 40
57.0
100
AcDbArc
 50
126.497670255926
 51
176.2536402876274
  0
LINE
  5
155
330
1F
100
AcDbEntity
  8
0-3_仕上げ
  6
Continuous
 62
   120
370
     5
100
AcDbLine
 10
-1257.000018557983
 20
2518.09700349496
 30
0.0
 11
-1257.000018557983
 21
3075.903293432828
 31
0.0
  0
LINE
  5
156
330
1F
100
AcDbEntity
  8
0-3_仕上げ
  6
JWW_CENTER1
 62
   120
370
     5
100
AcDbLine
 10
-1254.000018557983
 20
2518.000148463894
 30
0.0
 11
-1254.000018557983
 21
3076.000148463894
 31
0.0
  0
LINE
  5
157
330
1F
100
AcDbEntity
  8
0-3_仕上げ
  6
Continuous
 62
   120
370
     5
100
AcDbLine
 10
-1251.000018557982
 20
2518.097003494964
 30
0.0
 11
-1251.000018557982
 21
3075.903293432824
 31
0.0
  0
ARC
  5
158
330
1F
100
AcDbEntity
  8
0-3_仕上げ
  6
Continuous
 62
   120
370
     5
100
AcDbCircle
 10
-1194.121823191061
 20
2521.821368112185
 30
0.0
 40
57.0
100
AcDbArc
 50
183.7463597123725
 51
233.502329744074
  0
ARC
  5
159
330
1F
100
AcDbEntity
  8
0-3_仕上げ
  6
JWW_CENTER1
 62
   120
370
     5
100
AcDbCircle
 10
-1094.12182319106
 20
2521.821368112185
 30
0.0
 40
60.0
100
AcDbArc
 50
183.6514672287091
 51
234.4577409694452
  0
ARC
  5
15A
330
1F
100
AcDbEntity
  8
0-3_仕上げ
  6
Continuous
 62
   120
370
     5
100
AcDbCircle
 10
-1094.12182319106
 20
2424.178928815602
 30
0.0
 40
63.0
100
AcDbArc
 50
129.200407421848
 51
161.8874291519458
  0
ARC
  5
15B
330
1F
100
AcDbEntity
  8
0-3_仕上げ
  6
Continuous
 62
   120
370
     5
100
AcDbCircle
 10
-1094.12182319106
 20
2521.821368112185
 30
0.0
 40
63.0
100
AcDbArc
 50
198.1125708480542
 51
230.799592578152
  0
ARC
  5
15C
330
1F
100
AcDbEntity
  8
0-3_仕上げ
  6
Continuous
 62
   120
370
     5
100
AcDbCircle
 10
-1213.878213924907
 20
2521.821368112185
 30
0.0
 40
63.0
100
AcDbArc
 50
309.200407421848
 51
341.8874291519458
  0
ARC
  5
15D
330
1F
100
AcDbEntity
  8
0-3_仕上げ
  6
Continuous
 62
   120
370
     5
100
AcDbCircle
 10
-1213.878213924907
 20
2424.178928815602
 30
0.0
 40
63.0
100
AcDbArc
 50
18.11257084805418
 51
50.79959257815202
  0
LINE
  5
15E
330
1F
100
AcDbEntity
  8
0-3_仕上げ
  6
Continuous
 62
   120
370
     5
100
AcDbLine
 10
-1228.024858895007
 20
2476.000148463894
 30
0.0
 11
-1179.975178220961
 21
2476.000148463894
 31
0.0
  0
LINE
  5
15F
330
1F
100
AcDbEntity
  8
0-3_仕上げ
  6
Continuous
 62
   120
370
     5
100
AcDbLine
 10
-1228.024858895007
 20
2470.000148463894
 30
0.0
 11
-1179.975178220961
 21
2470.000148463894
 31
0.0
  0
LINE
  5
160
330
1F
100
AcDbEntity
  8
0-3_仕上げ
  6
JWW_CENTER1
 62
   120
370
     5
100
AcDbLine
 10
-1229.000018557982
 20
2473.000148463893
 30
0.0
 11
-1179.000018557983
 21
2473.000148463893
 31
0.0
  0
ARC
  5
161
330
1F
100
AcDbEntity
  8
0-3_仕上げ
  6
JWW_CENTER1
 62
   120
370
     5
100
AcDbCircle
 10
-1213.878213924907
 20
2424.178928815602
 30
0.0
 40
60.0
100
AcDbArc
 50
3.651467228708674
 51
54.45774096944522
  0
ARC
  5
162
330
1F
100
AcDbEntity
  8
0-3_仕上げ
  6
Continuous
 62
   120
370
     5
100
AcDbCircle
 10
-1213.878213924907
 20
2521.821368112185
 30
0.0
 40
57.0
100
AcDbArc
 50
306.497670255926
 51
356.2536402876231
  0
LINE
  5
163
330
1F
100
AcDbEntity
  8
0-3_仕上げ
  6
Continuous
 62
   120
370
     5
100
AcDbLine
 10
-1157.000018557986
 20
2518.09700349496
 30
0.0
 11
-1157.000018557986
 21
3075.903293432828
 31
0.0
  0
ARC
  5
164
330
1F
100
AcDbEntity
  8
0-3_仕上げ
  6
Continuous
 62
   120
370
     5
100
AcDbCircle
 10
-1213.878213924907
 20
2424.178928815602
 30
0.0
 40
57.0
100
AcDbArc
 50
3.74635971237695
 51
53.50232974407399
  0
LINE
  5
165
330
1F
100
AcDbEntity
  8
0-3_仕上げ
  6
Continuous
 62
   120
370
     5
100
AcDbLine
 10
-1157.000018557986
 20
2313.000148463894
 30
0.0
 11
-1157.000018557986
 21
2427.903293432828
 31
0.0
  0
LINE
  5
166
330
1F
100
AcDbEntity
  8
0-3_仕上げ
  6
Continuous
 62
   120
370
     5
100
AcDbLine
 10
-1128.024858895006
 20
2470.000148463894
 30
0.0
 11
-1079.97517822096
 21
2470.000148463894
 31
0.0
  0
LINE
  5
167
330
1F
100
AcDbEntity
  8
0-3_仕上げ
  6
JWW_CENTER1
 62
   120
370
     5
100
AcDbLine
 10
-1129.000018557984
 20
2473.000148463893
 30
0.0
 11
-1079.000018557982
 21
2473.000148463893
 31
0.0
  0
LINE
  5
168
330
1F
100
AcDbEntity
  8
0-3_仕上げ
  6
Continuous
 62
   120
370
     5
100
AcDbLine
 10
-1128.024858895006
 20
2476.000148463894
 30
0.0
 11
-1079.97517822096
 21
2476.000148463894
 31
0.0
  0
LINE
  5
169
330
1F
100
AcDbEntity
  8
0-3_仕上げ
  6
JWW_CENTER1
 62
   120
370
     5
100
AcDbLine
 10
-1154.000018557982
 20
2518.000148463894
 30
0.0
 11
-1154.000018557982
 21
3076.000148463893
 31
0.0
  0
ARC
  5
16A
330
1F
100
AcDbEntity
  8
0-3_仕上げ
  6
JWW_CENTER1
 62
   120
370
     5
100
AcDbCircle
 10
-1213.878213924907
 20
2521.821368112185
 30
0.0
 40
60.0
100
AcDbArc
 50
305.5422590305548
 51
356.3485327712913
  0
LINE
  5
16B
330
1F
100
AcDbEntity
  8
0-3_仕上げ
  6
Continuous
 62
   120
370
     5
100
AcDbLine
 10
-1151.000018557984
 20
2518.097003494961
 30
0.0
 11
-1151.000018557984
 21
3075.903293432825
 31
0.0
  0
ARC
  5
16C
330
1F
100
AcDbEntity
  8
0-3_仕上げ
  6
Continuous
 62
   120
370
     5
100
AcDbCircle
 10
-1094.12182319106
 20
2521.821368112185
 30
0.0
 40
57.0
100
AcDbArc
 50
183.7463597123748
 51
233.502329744074
  0
ARC
  5
16D
330
1F
100
AcDbEntity
  8
0-3_仕上げ
  6
Continuous
 62
   120
370
     5
100
AcDbCircle
 10
-1094.12182319106
 20
2424.178928815602
 30
0.0
 40
57.0
100
AcDbArc
 50
126.497670255926
 51
176.2536402876256
  0
LINE
  5
16E
330
1F
100
AcDbEntity
  8
0-3_仕上げ
  6
Continuous
 62
   120
370
     5
100
AcDbLine
 10
-1151.000018557984
 20
2313.000148463894
 30
0.0
 11
-1151.000018557984
 21
2427.903293432825
 31
0.0
  0
ARC
  5
16F
330
1F
100
AcDbEntity
  8
0-3_仕上げ
  6
JWW_CENTER1
 62
   120
370
     5
100
AcDbCircle
 10
-1094.12182319106
 20
2424.178928815602
 30
0.0
 40
60.0
100
AcDbArc
 50
125.5422590305548
 51
176.348532771291
  0
LINE
  5
170
330
1F
100
AcDbEntity
  8
0-3_仕上げ
  6
JWW_CENTER1
 62
   120
370
     5
100
AcDbLine
 10
-1154.000018557982
 20
2313.000148463894
 30
0.0
 11
-1154.000018557982
 21
2428.000148463893
 31
0.0
  0
LINE
  5
171
330
1F
100
AcDbEntity
  8
0-3_仕上げ
  6
Continuous
 62
   120
370
     5
100
AcDbLine
 10
-1128.024858895006
 20
3118.000148463894
 30
0.0
 11
-1079.97517822096
 21
3118.000148463894
 31
0.0
  0
LINE
  5
172
330
1F
100
AcDbEntity
  8
0-3_仕上げ
  6
Continuous
 62
   120
370
     5
100
AcDbLine
 10
-1128.024858895006
 20
3124.000148463893
 30
0.0
 11
-1079.97517822096
 21
3124.000148463893
 31
0.0
  0
LINE
  5
173
330
1F
100
AcDbEntity
  8
0-3_仕上げ
  6
JWW_CENTER1
 62
   120
370
     5
100
AcDbLine
 10
-1129.000018557984
 20
3121.000148463894
 30
0.0
 11
-1079.000018557982
 21
3121.000148463894
 31
0.0
  0
ARC
  5
174
330
1F
100
AcDbEntity
  8
0-3_仕上げ
  6
Continuous
 62
   120
370
     5
100
AcDbCircle
 10
-1094.12182319106
 20
3072.178928815602
 30
0.0
 40
57.0
100
AcDbArc
 50
126.497670255926
 51
176.2536402876275
  0
ARC
  5
175
330
1F
100
AcDbEntity
  8
0-3_仕上げ
  6
Continuous
 62
   120
370
     5
100
AcDbCircle
 10
-1094.12182319106
 20
3169.821368112185
 30
0.0
 40
57.0
100
AcDbArc
 50
183.6514672287091
 51
233.502329744074
  0
ARC
  5
176
330
1F
100
AcDbEntity
  8
0-3_仕上げ
  6
JWW_CENTER1
 62
   120
370
     5
100
AcDbCircle
 10
-994.1218231910585
 20
3169.821368112185
 30
0.0
 40
60.0
100
AcDbArc
 50
183.6514672287091
 51
234.4577409694452
  0
ARC
  5
177
330
1F
100
AcDbEntity
  8
0-3_仕上げ
  6
JWW_CENTER1
 62
   120
370
     5
100
AcDbCircle
 10
-994.1218231910585
 20
3072.178928815602
 30
0.0
 40
60.0
100
AcDbArc
 50
125.5422590305548
 51
176.3485327712908
  0
ARC
  5
178
330
1F
100
AcDbEntity
  8
0-3_仕上げ
  6
Continuous
 62
   120
370
     5
100
AcDbCircle
 10
-994.1218231910585
 20
3072.178928815602
 30
0.0
 40
63.0
100
AcDbArc
 50
129.200407421848
 51
161.8874291519458
  0
ARC
  5
179
330
1F
100
AcDbEntity
  8
0-3_仕上げ
  6
Continuous
 62
   120
370
     5
100
AcDbCircle
 10
-994.1218231910585
 20
3169.821368112185
 30
0.0
 40
63.0
100
AcDbArc
 50
198.1125708480542
 51
230.799592578152
  0
ARC
  5
17A
330
1F
100
AcDbEntity
  8
0-3_仕上げ
  6
Continuous
 62
   120
370
     5
100
AcDbCircle
 10
-1113.878213924909
 20
3169.821368112185
 30
0.0
 40
63.0
100
AcDbArc
 50
309.200407421848
 51
341.8874291519458
  0
ARC
  5
17B
330
1F
100
AcDbEntity
  8
0-3_仕上げ
  6
Continuous
 62
   120
370
     5
100
AcDbCircle
 10
-1113.878213924909
 20
3072.178928815602
 30
0.0
 40
63.0
100
AcDbArc
 50
18.11257084805418
 51
50.79959257815202
  0
ARC
  5
17C
330
1F
100
AcDbEntity
  8
0-3_仕上げ
  6
Continuous
 62
   120
370
     5
100
AcDbCircle
 10
-1113.878213924909
 20
3169.821368112185
 30
0.0
 40
57.0
100
AcDbArc
 50
306.497670255926
 51
356.2536402876231
  0
LINE
  5
17D
330
1F
100
AcDbEntity
  8
0-3_仕上げ
  6
Continuous
 62
   120
370
     5
100
AcDbLine
 10
-1057.000018557985
 20
3166.09700349496
 30
0.0
 11
-1057.000018557985
 21
3271.000148463894
 31
0.0
  0
LINE
  5
17E
330
1F
100
AcDbEntity
  8
0-3_仕上げ
  6
JWW_CENTER1
 62
   120
370
     5
100
AcDbLine
 10
-1054.000018557984
 20
3166.000148463894
 30
0.0
 11
-1054.000018557984
 21
3271.000148463894
 31
0.0
  0
ARC
  5
17F
330
1F
100
AcDbEntity
  8
0-3_仕上げ
  6
JWW_CENTER1
 62
   120
370
     5
100
AcDbCircle
 10
-1113.878213924909
 20
3169.821368112185
 30
0.0
 40
60.0
100
AcDbArc
 50
305.5422590305548
 51
356.3485327712913
  0
LINE
  5
180
330
1F
100
AcDbEntity
  8
0-3_仕上げ
  6
Continuous
 62
   120
370
     5
100
AcDbLine
 10
-1051.000018557983
 20
3166.097003494961
 30
0.0
 11
-1051.000018557983
 21
3271.000148463894
 31
0.0
  0
ARC
  5
181
330
1F
100
AcDbEntity
  8
0-3_仕上げ
  6
Continuous
 62
   120
370
     5
100
AcDbCircle
 10
-1113.878213924909
 20
3072.178928815602
 30
0.0
 40
57.0
100
AcDbArc
 50
3.746359712376933
 51
53.50232974407399
  0
ARC
  5
182
330
1F
100
AcDbEntity
  8
0-3_仕上げ
  6
JWW_CENTER1
 62
   120
370
     5
100
AcDbCircle
 10
-1113.878213924909
 20
3072.178928815602
 30
0.0
 40
60.0
100
AcDbArc
 50
3.651467228708674
 51
54.45774096944522
  0
ARC
  5
183
330
1F
100
AcDbEntity
  8
0-3_仕上げ
  6
JWW_CENTER1
 62
   120
370
     5
100
AcDbCircle
 10
-994.1218231910585
 20
2521.821368112185
 30
0.0
 40
60.0
100
AcDbArc
 50
183.6514672287091
 51
234.4577409694452
  0
ARC
  5
184
330
1F
100
AcDbEntity
  8
0-3_仕上げ
  6
Continuous
 62
   120
370
     5
100
AcDbCircle
 10
-994.1218231910585
 20
2424.178928815602
 30
0.0
 40
63.0
100
AcDbArc
 50
129.200407421848
 51
161.8874291519458
  0
ARC
  5
185
330
1F
100
AcDbEntity
  8
0-3_仕上げ
  6
Continuous
 62
   120
370
     5
100
AcDbCircle
 10
-994.1218231910585
 20
2521.821368112185
 30
0.0
 40
63.0
100
AcDbArc
 50
198.1125708480542
 51
230.799592578152
  0
ARC
  5
186
330
1F
100
AcDbEntity
  8
0-3_仕上げ
  6
Continuous
 62
   120
370
     5
100
AcDbCircle
 10
-1113.878213924909
 20
2521.821368112185
 30
0.0
 40
63.0
100
AcDbArc
 50
309.200407421848
 51
341.8874291519458
  0
ARC
  5
187
330
1F
100
AcDbEntity
  8
0-3_仕上げ
  6
Continuous
 62
   120
370
     5
100
AcDbCircle
 10
-1113.878213924909
 20
2424.178928815602
 30
0.0
 40
63.0
100
AcDbArc
 50
18.11257084805418
 51
50.79959257815202
  0
ARC
  5
188
330
1F
100
AcDbEntity
  8
0-3_仕上げ
  6
JWW_CENTER1
 62
   120
370
     5
100
AcDbCircle
 10
-1113.878213924909
 20
2424.178928815602
 30
0.0
 40
60.0
100
AcDbArc
 50
3.651467228708674
 51
54.45774096944522
  0
ARC
  5
189
330
1F
100
AcDbEntity
  8
0-3_仕上げ
  6
Continuous
 62
   120
370
     5
100
AcDbCircle
 10
-1113.878213924909
 20
2521.821368112185
 30
0.0
 40
57.0
100
AcDbArc
 50
306.497670255926
 51
356.2536402876231
  0
LINE
  5
18A
330
1F
100
AcDbEntity
  8
0-3_仕上げ
  6
Continuous
 62
   120
370
     5
100
AcDbLine
 10
-1057.000018557985
 20
2518.09700349496
 30
0.0
 11
-1057.000018557985
 21
3075.903293432828
 31
0.0
  0
ARC
  5
18B
330
1F
100
AcDbEntity
  8
0-3_仕上げ
  6
Continuous
 62
   120
370
     5
100
AcDbCircle
 10
-1113.878213924909
 20
2424.178928815602
 30
0.0
 40
57.0
100
AcDbArc
 50
3.74635971237695
 51
53.50232974407399
  0
LINE
  5
18C
330
1F
100
AcDbEntity
  8
0-3_仕上げ
  6
Continuous
 62
   120
370
     5
100
AcDbLine
 10
-1057.000018557985
 20
2313.000148463894
 30
0.0
 11
-1057.000018557985
 21
2427.903293432828
 31
0.0
  0
LINE
  5
18D
330
1F
100
AcDbEntity
  8
0-3_仕上げ
  6
Continuous
 62
   120
370
     5
100
AcDbLine
 10
-1028.024858895008
 20
2470.000148463894
 30
0.0
 11
-979.975178220962
 21
2470.000148463894
 31
0.0
  0
LINE
  5
18E
330
1F
100
AcDbEntity
  8
0-3_仕上げ
  6
JWW_CENTER1
 62
   120
370
     5
100
AcDbLine
 10
-1029.000018557983
 20
2473.000148463893
 30
0.0
 11
-979.0000185579839
 21
2473.000148463893
 31
0.0
  0
LINE
  5
18F
330
1F
100
AcDbEntity
  8
0-3_仕上げ
  6
Continuous
 62
   120
370
     5
100
AcDbLine
 10
-1028.024858895008
 20
2476.000148463894
 30
0.0
 11
-979.975178220962
 21
2476.000148463894
 31
0.0
  0
LINE
  5
190
330
1F
100
AcDbEntity
  8
0-3_仕上げ
  6
JWW_CENTER1
 62
   120
370
     5
100
AcDbLine
 10
-1054.000018557984
 20
2518.000148463894
 30
0.0
 11
-1054.000018557984
 21
3076.000148463893
 31
0.0
  0
ARC
  5
191
330
1F
100
AcDbEntity
  8
0-3_仕上げ
  6
JWW_CENTER1
 62
   120
370
     5
100
AcDbCircle
 10
-1113.878213924909
 20
2521.821368112185
 30
0.0
 40
60.0
100
AcDbArc
 50
305.5422590305548
 51
356.3485327712913
  0
LINE
  5
192
330
1F
100
AcDbEntity
  8
0-3_仕上げ
  6
Continuous
 62
   120
370
     5
100
AcDbLine
 10
-1051.000018557983
 20
2518.097003494961
 30
0.0
 11
-1051.000018557983
 21
3075.903293432825
 31
0.0
  0
ARC
  5
193
330
1F
100
AcDbEntity
  8
0-3_仕上げ
  6
Continuous
 62
   120
370
     5
100
AcDbCircle
 10
-994.1218231910585
 20
2521.821368112185
 30
0.0
 40
57.0
100
AcDbArc
 50
183.7463597123748
 51
233.502329744074
  0
ARC
  5
194
330
1F
100
AcDbEntity
  8
0-3_仕上げ
  6
Continuous
 62
   120
370
     5
100
AcDbCircle
 10
-994.1218231910585
 20
2424.178928815602
 30
0.0
 40
57.0
100
AcDbArc
 50
126.497670255926
 51
176.2536402876256
  0
LINE
  5
195
330
1F
100
AcDbEntity
  8
0-3_仕上げ
  6
Continuous
 62
   120
370
     5
100
AcDbLine
 10
-1051.000018557983
 20
2313.000148463894
 30
0.0
 11
-1051.000018557983
 21
2427.903293432825
 31
0.0
  0
ARC
  5
196
330
1F
100
AcDbEntity
  8
0-3_仕上げ
  6
JWW_CENTER1
 62
   120
370
     5
100
AcDbCircle
 10
-994.1218231910585
 20
2424.178928815602
 30
0.0
 40
60.0
100
AcDbArc
 50
125.5422590305548
 51
176.348532771291
  0
LINE
  5
197
330
1F
100
AcDbEntity
  8
0-3_仕上げ
  6
JWW_CENTER1
 62
   120
370
     5
100
AcDbLine
 10
-1054.000018557984
 20
2313.000148463894
 30
0.0
 11
-1054.000018557984
 21
2428.000148463893
 31
0.0
  0
LINE
  5
198
330
1F
100
AcDbEntity
  8
0-3_仕上げ
  6
Continuous
 62
   120
370
     5
100
AcDbLine
 10
-1028.024858895008
 20
3118.000148463894
 30
0.0
 11
-979.975178220962
 21
3118.000148463894
 31
0.0
  0
LINE
  5
199
330
1F
100
AcDbEntity
  8
0-3_仕上げ
  6
Continuous
 62
   120
370
     5
100
AcDbLine
 10
-1028.024858895008
 20
3124.000148463893
 30
0.0
 11
-979.975178220962
 21
3124.000148463893
 31
0.0
  0
LINE
  5
19A
330
1F
100
AcDbEntity
  8
0-3_仕上げ
  6
JWW_CENTER1
 62
   120
370
     5
100
AcDbLine
 10
-1029.000018557983
 20
3121.000148463894
 30
0.0
 11
-979.0000185579839
 21
3121.000148463894
 31
0.0
  0
ARC
  5
19B
330
1F
100
AcDbEntity
  8
0-3_仕上げ
  6
Continuous
 62
   120
370
     5
100
AcDbCircle
 10
-994.1218231910585
 20
3072.178928815602
 30
0.0
 40
57.0
100
AcDbArc
 50
126.497670255926
 51
176.2536402876275
  0
ARC
  5
19C
330
1F
100
AcDbEntity
  8
0-3_仕上げ
  6
Continuous
 62
   120
370
     5
100
AcDbCircle
 10
-994.1218231910585
 20
3169.821368112185
 30
0.0
 40
57.0
100
AcDbArc
 50
183.6514672287091
 51
233.502329744074
  0
ARC
  5
19D
330
1F
100
AcDbEntity
  8
0-3_仕上げ
  6
JWW_CENTER1
 62
   120
370
     5
100
AcDbCircle
 10
-894.1218231910608
 20
3169.821368112185
 30
0.0
 40
60.0
100
AcDbArc
 50
183.6514672287091
 51
234.4577409694452
  0
ARC
  5
19E
330
1F
100
AcDbEntity
  8
0-3_仕上げ
  6
JWW_CENTER1
 62
   120
370
     5
100
AcDbCircle
 10
-894.1218231910608
 20
3072.178928815602
 30
0.0
 40
60.0
100
AcDbArc
 50
125.5422590305548
 51
176.3485327712908
  0
ARC
  5
19F
330
1F
100
AcDbEntity
  8
0-3_仕上げ
  6
Continuous
 62
   120
370
     5
100
AcDbCircle
 10
-894.1218231910608
 20
3072.178928815602
 30
0.0
 40
63.0
100
AcDbArc
 50
129.200407421848
 51
161.8874291519458
  0
ARC
  5
1A0
330
1F
100
AcDbEntity
  8
0-3_仕上げ
  6
Continuous
 62
   120
370
     5
100
AcDbCircle
 10
-894.1218231910608
 20
3169.821368112185
 30
0.0
 40
63.0
100
AcDbArc
 50
198.1125708480542
 51
230.799592578152
  0
ARC
  5
1A1
330
1F
100
AcDbEntity
  8
0-3_仕上げ
  6
Continuous
 62
   120
370
     5
100
AcDbCircle
 10
-1013.878213924908
 20
3169.821368112185
 30
0.0
 40
63.0
100
AcDbArc
 50
309.200407421848
 51
341.8874291519458
  0
ARC
  5
1A2
330
1F
100
AcDbEntity
  8
0-3_仕上げ
  6
Continuous
 62
   120
370
     5
100
AcDbCircle
 10
-1013.878213924908
 20
3072.178928815602
 30
0.0
 40
63.0
100
AcDbArc
 50
18.11257084805418
 51
50.79959257815202
  0
ARC
  5
1A3
330
1F
100
AcDbEntity
  8
0-3_仕上げ
  6
Continuous
 62
   120
370
     5
100
AcDbCircle
 10
-1013.878213924908
 20
3169.821368112185
 30
0.0
 40
57.0
100
AcDbArc
 50
306.497670255926
 51
356.2536402876231
  0
LINE
  5
1A4
330
1F
100
AcDbEntity
  8
0-3_仕上げ
  6
Continuous
 62
   120
370
     5
100
AcDbLine
 10
-957.0000185579835
 20
3166.09700349496
 30
0.0
 11
-957.0000185579835
 21
3271.000148463894
 31
0.0
  0
LINE
  5
1A5
330
1F
100
AcDbEntity
  8
0-3_仕上げ
  6
JWW_CENTER1
 62
   120
370
     5
100
AcDbLine
 10
-954.0000185579828
 20
3166.000148463894
 30
0.0
 11
-954.0000185579828
 21
3271.000148463894
 31
0.0
  0
ARC
  5
1A6
330
1F
100
AcDbEntity
  8
0-3_仕上げ
  6
JWW_CENTER1
 62
   120
370
     5
100
AcDbCircle
 10
-1013.878213924908
 20
3169.821368112185
 30
0.0
 40
60.0
100
AcDbArc
 50
305.5422590305548
 51
356.3485327712913
  0
LINE
  5
1A7
330
1F
100
AcDbEntity
  8
0-3_仕上げ
  6
Continuous
 62
   120
370
     5
100
AcDbLine
 10
-951.0000185579821
 20
3166.097003494961
 30
0.0
 11
-951.0000185579821
 21
3271.000148463894
 31
0.0
  0
ARC
  5
1A8
330
1F
100
AcDbEntity
  8
0-3_仕上げ
  6
Continuous
 62
   120
370
     5
100
AcDbCircle
 10
-1013.878213924908
 20
3072.178928815602
 30
0.0
 40
57.0
100
AcDbArc
 50
3.746359712376933
 51
53.50232974407399
  0
ARC
  5
1A9
330
1F
100
AcDbEntity
  8
0-3_仕上げ
  6
JWW_CENTER1
 62
   120
370
     5
100
AcDbCircle
 10
-1013.878213924908
 20
3072.178928815602
 30
0.0
 40
60.0
100
AcDbArc
 50
3.651467228708674
 51
54.45774096944522
  0
ARC
  5
1AA
330
1F
100
AcDbEntity
  8
0-3_仕上げ
  6
JWW_CENTER1
 62
   120
370
     5
100
AcDbCircle
 10
-894.1218231910608
 20
2521.821368112185
 30
0.0
 40
60.0
100
AcDbArc
 50
183.6514672287091
 51
234.4577409694452
  0
ARC
  5
1AB
330
1F
100
AcDbEntity
  8
0-3_仕上げ
  6
Continuous
 62
   120
370
     5
100
AcDbCircle
 10
-894.1218231910608
 20
2424.178928815602
 30
0.0
 40
63.0
100
AcDbArc
 50
129.200407421848
 51
161.8874291519458
  0
ARC
  5
1AC
330
1F
100
AcDbEntity
  8
0-3_仕上げ
  6
Continuous
 62
   120
370
     5
100
AcDbCircle
 10
-894.1218231910608
 20
2521.821368112185
 30
0.0
 40
63.0
100
AcDbArc
 50
198.1125708480542
 51
230.799592578152
  0
ARC
  5
1AD
330
1F
100
AcDbEntity
  8
0-3_仕上げ
  6
Continuous
 62
   120
370
     5
100
AcDbCircle
 10
-1013.878213924908
 20
2521.821368112185
 30
0.0
 40
63.0
100
AcDbArc
 50
309.200407421848
 51
341.8874291519458
  0
ARC
  5
1AE
330
1F
100
AcDbEntity
  8
0-3_仕上げ
  6
Continuous
 62
   120
370
     5
100
AcDbCircle
 10
-1013.878213924908
 20
2424.178928815602
 30
0.0
 40
63.0
100
AcDbArc
 50
18.11257084805418
 51
50.79959257815202
  0
ARC
  5
1AF
330
1F
100
AcDbEntity
  8
0-3_仕上げ
  6
JWW_CENTER1
 62
   120
370
     5
100
AcDbCircle
 10
-1013.878213924908
 20
2424.178928815602
 30
0.0
 40
60.0
100
AcDbArc
 50
3.651467228708674
 51
54.45774096944522
  0
ARC
  5
1B0
330
1F
100
AcDbEntity
  8
0-3_仕上げ
  6
Continuous
 62
   120
370
     5
100
AcDbCircle
 10
-1013.878213924908
 20
2521.821368112185
 30
0.0
 40
57.0
100
AcDbArc
 50
306.497670255926
 51
356.2536402876231
  0
LINE
  5
1B1
330
1F
100
AcDbEntity
  8
0-3_仕上げ
  6
Continuous
 62
   120
370
     5
100
AcDbLine
 10
-957.0000185579835
 20
2518.09700349496
 30
0.0
 11
-957.0000185579835
 21
3075.903293432828
 31
0.0
  0
ARC
  5
1B2
330
1F
100
AcDbEntity
  8
0-3_仕上げ
  6
Continuous
 62
   120
370
     5
100
AcDbCircle
 10
-1013.878213924908
 20
2424.178928815602
 30
0.0
 40
57.0
100
AcDbArc
 50
3.74635971237695
 51
53.50232974407399
  0
LINE
  5
1B3
330
1F
100
AcDbEntity
  8
0-3_仕上げ
  6
Continuous
 62
   120
370
     5
100
AcDbLine
 10
-957.0000185579835
 20
2313.000148463894
 30
0.0
 11
-957.0000185579835
 21
2427.903293432828
 31
0.0
  0
LINE
  5
1B4
330
1F
100
AcDbEntity
  8
0-3_仕上げ
  6
JWW_CENTER1
 62
   120
370
     5
100
AcDbLine
 10
-954.0000185579828
 20
2518.000148463894
 30
0.0
 11
-954.0000185579828
 21
3076.000148463893
 31
0.0
  0
ARC
  5
1B5
330
1F
100
AcDbEntity
  8
0-3_仕上げ
  6
JWW_CENTER1
 62
   120
370
     5
100
AcDbCircle
 10
-1013.878213924908
 20
2521.821368112185
 30
0.0
 40
60.0
100
AcDbArc
 50
305.5422590305548
 51
356.3485327712913
  0
LINE
  5
1B6
330
1F
100
AcDbEntity
  8
0-3_仕上げ
  6
Continuous
 62
   120
370
     5
100
AcDbLine
 10
-951.0000185579821
 20
2518.097003494961
 30
0.0
 11
-951.0000185579821
 21
3075.903293432825
 31
0.0
  0
ARC
  5
1B7
330
1F
100
AcDbEntity
  8
0-3_仕上げ
  6
Continuous
 62
   120
370
     5
100
AcDbCircle
 10
-894.1218231910608
 20
2521.821368112185
 30
0.0
 40
57.0
100
AcDbArc
 50
183.7463597123748
 51
233.502329744074
  0
ARC
  5
1B8
330
1F
100
AcDbEntity
  8
0-3_仕上げ
  6
Continuous
 62
   120
370
     5
100
AcDbCircle
 10
-894.1218231910608
 20
2424.178928815602
 30
0.0
 40
57.0
100
AcDbArc
 50
126.497670255926
 51
176.2536402876256
  0
LINE
  5
1B9
330
1F
100
AcDbEntity
  8
0-3_仕上げ
  6
Continuous
 62
   120
370
     5
100
AcDbLine
 10
-951.0000185579821
 20
2313.000148463894
 30
0.0
 11
-951.0000185579821
 21
2427.903293432825
 31
0.0
  0
ARC
  5
1BA
330
1F
100
AcDbEntity
  8
0-3_仕上げ
  6
JWW_CENTER1
 62
   120
370
     5
100
AcDbCircle
 10
-894.1218231910608
 20
2424.178928815602
 30
0.0
 40
60.0
100
AcDbArc
 50
125.5422590305548
 51
176.348532771291
  0
LINE
  5
1BB
330
1F
100
AcDbEntity
  8
0-3_仕上げ
  6
JWW_CENTER1
 62
   120
370
     5
100
AcDbLine
 10
-954.0000185579828
 20
2313.000148463894
 30
0.0
 11
-954.0000185579828
 21
2428.000148463893
 31
0.0
  0
ARC
  5
1BC
330
1F
100
AcDbEntity
  8
0-3_仕上げ
  6
Continuous
 62
   120
370
     5
100
AcDbCircle
 10
-894.1218231910608
 20
3072.178928815602
 30
0.0
 40
57.0
100
AcDbArc
 50
126.497670255926
 51
176.2536402876275
  0
ARC
  5
1BD
330
1F
100
AcDbEntity
  8
0-3_仕上げ
  6
Continuous
 62
   120
370
     5
100
AcDbCircle
 10
-894.1218231910608
 20
3169.821368112185
 30
0.0
 40
57.0
100
AcDbArc
 50
183.6514672287091
 51
233.502329744074
  0
ARC
  5
1BE
330
1F
100
AcDbEntity
  8
0-3_仕上げ
  6
Continuous
 62
   120
370
     5
100
AcDbCircle
 10
-1313.878213924908
 20
3169.821368112185
 30
0.0
 40
57.0
100
AcDbArc
 50
306.497670255926
 51
356.3485327712909
  0
ARC
  5
1BF
330
1F
100
AcDbEntity
  8
0-3_仕上げ
  6
JWW_CENTER1
 62
   120
370
     5
100
AcDbCircle
 10
-1313.878213924908
 20
3169.821368112185
 30
0.0
 40
60.0
100
AcDbArc
 50
305.5422590305548
 51
356.3485327712909
  0
ARC
  5
1C0
330
1F
100
AcDbEntity
  8
0-3_仕上げ
  6
JWW_CENTER1
 62
   120
370
     5
100
AcDbCircle
 10
-1313.878213924908
 20
3072.178928815602
 30
0.0
 40
60.0
100
AcDbArc
 50
3.651467228709083
 51
54.45774096944522
  0
ARC
  5
1C1
330
1F
100
AcDbEntity
  8
0-3_仕上げ
  6
Continuous
 62
   120
370
     5
100
AcDbCircle
 10
-1313.878213924908
 20
3072.178928815602
 30
0.0
 40
57.0
100
AcDbArc
 50
3.746359712376933
 51
53.50232974407399
  0
ARC
  5
1C2
330
1F
100
AcDbEntity
  8
0-3_仕上げ
  6
Continuous
 62
   120
370
     5
100
AcDbCircle
 10
-1313.878213924908
 20
2424.178928815602
 30
0.0
 40
57.0
100
AcDbArc
 50
3.74635971237695
 51
53.50232974407398
  0
ARC
  5
1C3
330
1F
100
AcDbEntity
  8
0-3_仕上げ
  6
JWW_CENTER1
 62
   120
370
     5
100
AcDbCircle
 10
-1313.878213924908
 20
2424.178928815602
 30
0.0
 40
60.0
100
AcDbArc
 50
3.651467228708674
 51
54.45774096944522
  0
ARC
  5
1C4
330
1F
100
AcDbEntity
  8
0-3_仕上げ
  6
Continuous
 62
   120
370
     5
100
AcDbCircle
 10
-1313.878213924908
 20
2521.821368112185
 30
0.0
 40
57.0
100
AcDbArc
 50
306.497670255926
 51
356.2536402876231
  0
ARC
  5
1C5
330
1F
100
AcDbEntity
  8
0-3_仕上げ
  6
JWW_CENTER1
 62
   120
370
     5
100
AcDbCircle
 10
-1313.878213924908
 20
2521.821368112185
 30
0.0
 40
60.0
100
AcDbArc
 50
305.5422590305548
 51
356.3485327712913
  0
LINE
  5
1C6
330
1F
100
AcDbEntity
  8
0-3_仕上げ
  6
Continuous
 62
   120
370
     5
100
AcDbLine
 10
-1377.000018557983
 20
2476.000148463894
 30
0.0
 11
-1279.975178220962
 21
2476.000148463894
 31
0.0
  0
LINE
  5
1C7
330
1F
100
AcDbEntity
  8
0-3_仕上げ
  6
JWW_CENTER1
 62
   120
370
     5
100
AcDbLine
 10
-1377.000018557983
 20
2473.000148463893
 30
0.0
 11
-1279.000018557984
 21
2473.000148463893
 31
0.0
  0
LINE
  5
1C8
330
1F
100
AcDbEntity
  8
0-3_仕上げ
  6
Continuous
 62
   120
370
     5
100
AcDbLine
 10
-1377.000018557983
 20
2470.000148463894
 30
0.0
 11
-1279.975178220962
 21
2470.000148463894
 31
0.0
  0
LINE
  5
1C9
330
1F
100
AcDbEntity
  8
0-3_仕上げ
  6
Continuous
 62
   120
370
     5
100
AcDbLine
 10
-1377.000018557983
 20
3124.000148463893
 30
0.0
 11
-1279.975178220962
 21
3124.000148463893
 31
0.0
  0
LINE
  5
1CA
330
1F
100
AcDbEntity
  8
0-3_仕上げ
  6
JWW_CENTER1
 62
   120
370
     5
100
AcDbLine
 10
-1377.000018557983
 20
3121.000148463894
 30
0.0
 11
-1279.000018557984
 21
3121.000148463894
 31
0.0
  0
LINE
  5
1CB
330
1F
100
AcDbEntity
  8
0-3_仕上げ
  6
Continuous
 62
   120
370
     5
100
AcDbLine
 10
-1377.000018557983
 20
3118.000148463894
 30
0.0
 11
-1279.975178220962
 21
3118.000148463894
 31
0.0
  0
LINE
  5
1CC
330
1F
100
AcDbEntity
  8
0-3_仕上げ
  6
Continuous
 62
   120
370
     5
100
AcDbLine
 10
-928.024858895007
 20
2470.000148463894
 30
0.0
 11
-831.0000185579821
 21
2470.000148463894
 31
0.0
  0
LINE
  5
1CD
330
1F
100
AcDbEntity
  8
0-3_仕上げ
  6
JWW_CENTER1
 62
   120
370
     5
100
AcDbLine
 10
-929.0000185579817
 20
2473.000148463893
 30
0.0
 11
-831.0000185579821
 21
2473.000148463893
 31
0.0
  0
LINE
  5
1CE
330
1F
100
AcDbEntity
  8
0-3_仕上げ
  6
Continuous
 62
   120
370
     5
100
AcDbLine
 10
-928.024858895007
 20
2476.000148463894
 30
0.0
 11
-831.0000185579821
 21
2476.000148463894
 31
0.0
  0
LINE
  5
1CF
330
1F
100
AcDbEntity
  8
0-3_仕上げ
  6
Continuous
 62
   120
370
     5
100
AcDbLine
 10
-928.024858895007
 20
3118.000148463894
 30
0.0
 11
-831.0000185579821
 21
3118.000148463894
 31
0.0
  0
LINE
  5
1D0
330
1F
100
AcDbEntity
  8
0-3_仕上げ
  6
Continuous
 62
   120
370
     5
100
AcDbLine
 10
-928.024858895007
 20
3124.000148463893
 30
0.0
 11
-831.0000185579821
 21
3124.000148463893
 31
0.0
  0
LINE
  5
1D1
330
1F
100
AcDbEntity
  8
0-3_仕上げ
  6
JWW_CENTER1
 62
   120
370
     5
100
AcDbLine
 10
-929.0000185579817
 20
3121.000148463894
 30
0.0
 11
-831.0000185579821
 21
3121.000148463894
 31
0.0
  0
LINE
  5
1D2
330
1F
100
AcDbEntity
  8
0-3_仕上げ
  6
Continuous
 62
     7
370
     9
100
AcDbLine
 10
-1381.000018557983
 20
1438.000148463894
 30
0.0
 11
-1381.000018557983
 21
3421.000148463894
 31
0.0
  0
LINE
  5
1D3
330
1F
100
AcDbEntity
  8
0-3_仕上げ
  6
Continuous
 62
     7
370
     9
100
AcDbLine
 10
-827.0000185579858
 20
1438.000148463894
 30
0.0
 11
-827.0000185579858
 21
3421.000148463894
 31
0.0
  0
LINE
  5
1D4
330
1F
100
AcDbEntity
  8
0-3_仕上げ
  6
Continuous
 62
     7
370
     9
100
AcDbLine
 10
-830.000018557983
 20
3275.000148463894
 30
0.0
 11
-830.000018557983
 21
3421.000148463894
 31
0.0
  0
LINE
  5
1D5
330
1F
100
AcDbEntity
  8
0-3_仕上げ
  6
Continuous
 62
     7
370
     9
100
AcDbLine
 10
-828.5000185579844
 20
3273.500148463894
 30
0.0
 11
-828.5000185579844
 21
3421.000148463894
 31
0.0
  0
LINE
  5
1D6
330
1F
100
AcDbEntity
  8
0-3_仕上げ
  6
Continuous
 62
     7
370
     9
100
AcDbLine
 10
-1379.500018557981
 20
3273.500148463894
 30
0.0
 11
-1379.500018557981
 21
3421.000148463894
 31
0.0
  0
LINE
  5
1D7
330
1F
100
AcDbEntity
  8
0-3_仕上げ
  6
Continuous
 62
     7
370
     9
100
AcDbLine
 10
-1378.000018557982
 20
3275.000148463894
 30
0.0
 11
-1378.000018557982
 21
3421.000148463894
 31
0.0
  0
LINE
  5
1D8
330
1F
100
AcDbEntity
  8
0-3_仕上げ
  6
Continuous
 62
     7
370
     9
100
AcDbLine
 10
1385.999981442019
 20
1438.000148463894
 30
0.0
 11
1385.999981442019
 21
1634.000148463893
 31
0.0
  0
LINE
  5
1D9
330
1F
100
AcDbEntity
  8
0-3_仕上げ
  6
Continuous
 62
     7
370
     9
100
AcDbLine
 10
1387.499981442019
 20
1438.000148463894
 30
0.0
 11
1387.499981442019
 21
1635.500148463894
 31
0.0
  0
LINE
  5
1DA
330
1F
100
AcDbEntity
  8
0-3_仕上げ
  6
Continuous
 62
     7
370
     9
100
AcDbLine
 10
1384.999981442018
 20
1638.000148463894
 30
0.0
 11
1387.499981442019
 21
1635.500148463894
 31
0.0
  0
LINE
  5
1DB
330
1F
100
AcDbEntity
  8
0-3_仕上げ
  6
Continuous
 62
     7
370
     9
100
AcDbLine
 10
1385.999981442019
 20
1634.000148463893
 30
0.0
 11
1387.499981442019
 21
1635.500148463894
 31
0.0
  0
LINE
  5
1DC
330
1F
100
AcDbEntity
  8
0-3_仕上げ
  6
Continuous
 62
     7
370
     9
100
AcDbLine
 10
902.9999814420199
 20
1438.000148463894
 30
0.0
 11
902.9999814420199
 21
1634.000148463893
 31
0.0
  0
LINE
  5
1DD
330
1F
100
AcDbEntity
  8
0-3_仕上げ
  6
Continuous
 62
    92
370
    13
100
AcDbLine
 10
1384.999981442018
 20
1638.000148463893
 30
0.0
 11
903.9999814420207
 21
1638.000148463893
 31
0.0
  0
LINE
  5
1DE
330
1F
100
AcDbEntity
  8
0-3_仕上げ
  6
Continuous
 62
     7
370
     9
100
AcDbLine
 10
1385.999981442019
 20
1634.000148463893
 30
0.0
 11
902.9999814420199
 21
1634.000148463893
 31
0.0
  0
LINE
  5
1DF
330
1F
100
AcDbEntity
  8
0-3_仕上げ
  6
Continuous
 62
     7
370
     9
100
AcDbLine
 10
901.4999814420196
 20
1438.000148463894
 30
0.0
 11
901.4999814420196
 21
1635.500148463894
 31
0.0
  0
LINE
  5
1E0
330
1F
100
AcDbEntity
  8
0-3_仕上げ
  6
Continuous
 62
     7
370
     9
100
AcDbLine
 10
902.9999814420199
 20
1634.000148463893
 30
0.0
 11
901.4999814420196
 21
1635.500148463894
 31
0.0
  0
LINE
  5
1E1
330
1F
100
AcDbEntity
  8
0-3_仕上げ
  6
Continuous
 62
     7
370
     9
100
AcDbLine
 10
901.4999814420196
 20
1635.500148463894
 30
0.0
 11
903.9999814420207
 21
1638.000148463894
 31
0.0
  0
LINE
  5
1E2
330
1F
100
AcDbEntity
  8
0-3_仕上げ
  6
Continuous
 62
    92
370
    13
100
AcDbLine
 10
1384.999981442018
 20
2213.000148463894
 30
0.0
 11
1384.999981442018
 21
1638.000148463893
 31
0.0
  0
LINE
  5
1E3
330
1F
100
AcDbEntity
  8
0-3_仕上げ
  6
Continuous
 62
    92
370
    13
100
AcDbLine
 10
1384.999981442018
 20
2313.000148463894
 30
0.0
 11
1384.999981442018
 21
3271.000148463894
 31
0.0
  0
LINE
  5
1E4
330
1F
100
AcDbEntity
  8
0-3_仕上げ
  6
Continuous
 62
     7
370
     9
100
AcDbLine
 10
1385.999981442019
 20
2217.000148463894
 30
0.0
 11
1385.999981442019
 21
2309.000148463894
 31
0.0
  0
LINE
  5
1E5
330
1F
100
AcDbEntity
  8
0-C_ハッチ
  6
JWW_DASHED1
 62
   120
370
     5
100
AcDbLine
 10
1358.43899043596
 20
2313.000148463894
 30
0.0
 11
1384.999981442018
 21
2339.561139469952
 31
0.0
  0
LINE
  5
1E6
330
1F
100
AcDbEntity
  8
0-C_ハッチ
  6
JWW_DASHED1
 62
   120
370
     5
100
AcDbLine
 10
1316.01258356476
 20
2313.000148463894
 30
0.0
 11
1384.999981442018
 21
2381.987546341153
 31
0.0
  0
LINE
  5
1E7
330
1F
100
AcDbEntity
  8
0-3_仕上げ
  6
Continuous
 62
     7
370
     9
100
AcDbLine
 10
1387.499981442019
 20
2215.500148463894
 30
0.0
 11
1387.499981442019
 21
2310.500148463894
 31
0.0
  0
LINE
  5
1E8
330
1F
100
AcDbEntity
  8
0-C_ハッチ
  6
JWW_DASHED1
 62
   120
370
     5
100
AcDbLine
 10
1273.58617669356
 20
2313.000148463894
 30
0.0
 11
1384.999981442018
 21
2424.413953212352
 31
0.0
  0
LINE
  5
1E9
330
1F
100
AcDbEntity
  8
0-C_ハッチ
  6
JWW_DASHED1
 62
   120
370
     5
100
AcDbLine
 10
1231.15976982236
 20
2313.000148463894
 30
0.0
 11
1384.999981442018
 21
2466.840360083552
 31
0.0
  0
LINE
  5
1EA
330
1F
100
AcDbEntity
  8
0-C_ハッチ
  6
JWW_DASHED1
 62
   120
370
     5
100
AcDbLine
 10
1188.73336295116
 20
2313.000148463894
 30
0.0
 11
1384.999981442018
 21
2509.266766954752
 31
0.0
  0
LINE
  5
1EB
330
1F
100
AcDbEntity
  8
0-C_ハッチ
  6
JWW_DASHED1
 62
   120
370
     5
100
AcDbLine
 10
1146.30695607996
 20
2313.000148463894
 30
0.0
 11
1384.999981442018
 21
2551.693173825952
 31
0.0
  0
LINE
  5
1EC
330
1F
100
AcDbEntity
  8
0-C_ハッチ
  6
JWW_DASHED1
 62
   120
370
     5
100
AcDbLine
 10
1103.88054920876
 20
2313.000148463894
 30
0.0
 11
1384.999981442018
 21
2594.119580697152
 31
0.0
  0
LINE
  5
1ED
330
1F
100
AcDbEntity
  8
0-C_ハッチ
  6
JWW_DASHED1
 62
   120
370
     5
100
AcDbLine
 10
1061.454142337615
 20
2313.000148463894
 30
0.0
 11
1384.999981442018
 21
2636.545987568297
 31
0.0
  0
LINE
  5
1EE
330
1F
100
AcDbEntity
  8
0-C_ハッチ
  6
JWW_DASHED1
 62
   120
370
     5
100
AcDbLine
 10
1019.027735466415
 20
2313.000148463894
 30
0.0
 11
1384.999981442018
 21
2678.972394439497
 31
0.0
  0
LINE
  5
1EF
330
1F
100
AcDbEntity
  8
0-C_ハッチ
  6
JWW_DASHED1
 62
   120
370
     5
100
AcDbLine
 10
976.6013285952147
 20
2313.000148463894
 30
0.0
 11
1384.999981442018
 21
2721.398801310697
 31
0.0
  0
LINE
  5
1F0
330
1F
100
AcDbEntity
  8
0-C_ハッチ
  6
JWW_DASHED1
 62
   120
370
     5
100
AcDbLine
 10
934.1749217240147
 20
2313.000148463894
 30
0.0
 11
1384.999981442018
 21
2763.825208181897
 31
0.0
  0
LINE
  5
1F1
330
1F
100
AcDbEntity
  8
0-3_仕上げ
  6
Continuous
 62
     7
370
     9
100
AcDbLine
 10
1385.999981442019
 20
3275.000148463894
 30
0.0
 11
1387.499981442019
 21
3273.500148463894
 31
0.0
  0
LINE
  5
1F2
330
1F
100
AcDbEntity
  8
0-3_仕上げ
  6
Continuous
 62
     7
370
     9
100
AcDbLine
 10
1387.499981442019
 20
3273.500148463894
 30
0.0
 11
1384.999981442018
 21
3271.000148463894
 31
0.0
  0
LINE
  5
1F3
330
1F
100
AcDbEntity
  8
0-3_仕上げ
  6
Continuous
 62
     7
370
     9
100
AcDbLine
 10
1385.999981442019
 20
2217.000148463894
 30
0.0
 11
1387.499981442019
 21
2215.500148463894
 31
0.0
  0
LINE
  5
1F4
330
1F
100
AcDbEntity
  8
0-3_仕上げ
  6
Continuous
 62
     7
370
     9
100
AcDbLine
 10
1387.499981442019
 20
2215.500148463894
 30
0.0
 11
1384.999981442018
 21
2213.000148463894
 31
0.0
  0
LINE
  5
1F5
330
1F
100
AcDbEntity
  8
0-3_仕上げ
  6
Continuous
 62
     7
370
     9
100
AcDbLine
 10
1384.999981442018
 20
2313.000148463894
 30
0.0
 11
1387.499981442019
 21
2310.500148463894
 31
0.0
  0
LINE
  5
1F6
330
1F
100
AcDbEntity
  8
0-3_仕上げ
  6
Continuous
 62
     7
370
     9
100
AcDbLine
 10
1385.999981442019
 20
2309.000148463894
 30
0.0
 11
1387.499981442019
 21
2310.500148463894
 31
0.0
  0
LINE
  5
1F7
330
1F
100
AcDbEntity
  8
0-3_仕上げ
  6
Continuous
 62
    92
370
    13
100
AcDbLine
 10
903.9999814420207
 20
2213.000148463894
 30
0.0
 11
903.9999814420207
 21
1638.000148463893
 31
0.0
  0
LINE
  5
1F8
330
1F
100
AcDbEntity
  8
0-3_仕上げ
  6
Continuous
 62
    92
370
    13
100
AcDbLine
 10
903.9999814420207
 20
2313.000148463894
 30
0.0
 11
903.9999814420207
 21
3271.000148463894
 31
0.0
  0
LINE
  5
1F9
330
1F
100
AcDbEntity
  8
0-3_仕上げ
  6
Continuous
 62
    92
370
    13
100
AcDbLine
 10
1384.999981442018
 20
3271.000148463894
 30
0.0
 11
903.9999814420207
 21
3271.000148463894
 31
0.0
  0
LINE
  5
1FA
330
1F
100
AcDbEntity
  8
0-3_仕上げ
  6
Continuous
 62
    92
370
    13
100
AcDbLine
 10
1384.999981442018
 20
2313.000148463894
 30
0.0
 11
903.9999814420207
 21
2313.000148463894
 31
0.0
  0
LINE
  5
1FB
330
1F
100
AcDbEntity
  8
0-3_仕上げ
  6
Continuous
 62
    92
370
    13
100
AcDbLine
 10
903.9999814420207
 20
2213.000148463894
 30
0.0
 11
1384.999981442018
 21
2213.000148463894
 31
0.0
  0
LINE
  5
1FC
330
1F
100
AcDbEntity
  8
0-3_仕上げ
  6
Continuous
 62
     7
370
     9
100
AcDbLine
 10
1385.999981442019
 20
3275.000148463894
 30
0.0
 11
902.9999814420199
 21
3275.000148463894
 31
0.0
  0
LINE
  5
1FD
330
1F
100
AcDbEntity
  8
0-3_仕上げ
  6
Continuous
 62
     7
370
     9
100
AcDbLine
 10
901.4999814420196
 20
2215.500148463894
 30
0.0
 11
901.4999814420196
 21
2310.500148463894
 31
0.0
  0
LINE
  5
1FE
330
1F
100
AcDbEntity
  8
0-3_仕上げ
  6
Continuous
 62
     7
370
     9
100
AcDbLine
 10
902.9999814420199
 20
2217.000148463894
 30
0.0
 11
902.9999814420199
 21
2309.000148463894
 31
0.0
  0
LINE
  5
1FF
330
1F
100
AcDbEntity
  8
0-3_仕上げ
  6
Continuous
 62
     7
370
     9
100
AcDbLine
 10
902.9999814420199
 20
2217.000148463894
 30
0.0
 11
1385.999981442019
 21
2217.000148463894
 31
0.0
  0
LINE
  5
200
330
1F
100
AcDbEntity
  8
0-3_仕上げ
  6
Continuous
 62
     7
370
     9
100
AcDbLine
 10
1385.999981442019
 20
2309.000148463894
 30
0.0
 11
902.9999814420199
 21
2309.000148463894
 31
0.0
  0
LINE
  5
201
330
1F
100
AcDbEntity
  8
0-3_仕上げ
  6
Continuous
 62
     7
370
     9
100
AcDbLine
 10
902.9999814420199
 20
2217.000148463894
 30
0.0
 11
901.4999814420196
 21
2215.500148463894
 31
0.0
  0
LINE
  5
202
330
1F
100
AcDbEntity
  8
0-3_仕上げ
  6
Continuous
 62
     7
370
     9
100
AcDbLine
 10
902.9999814420199
 20
3275.000148463894
 30
0.0
 11
901.4999814420196
 21
3273.500148463894
 31
0.0
  0
LINE
  5
203
330
1F
100
AcDbEntity
  8
0-3_仕上げ
  6
Continuous
 62
     7
370
     9
100
AcDbLine
 10
903.9999814420207
 20
3271.000148463894
 30
0.0
 11
901.4999814420196
 21
3273.500148463894
 31
0.0
  0
LINE
  5
204
330
1F
100
AcDbEntity
  8
0-3_仕上げ
  6
Continuous
 62
     7
370
     9
100
AcDbLine
 10
902.9999814420199
 20
2309.000148463894
 30
0.0
 11
901.4999814420196
 21
2310.500148463894
 31
0.0
  0
LINE
  5
205
330
1F
100
AcDbEntity
  8
0-3_仕上げ
  6
Continuous
 62
     7
370
     9
100
AcDbLine
 10
901.4999814420196
 20
2310.500148463894
 30
0.0
 11
903.9999814420207
 21
2313.000148463894
 31
0.0
  0
LINE
  5
206
330
1F
100
AcDbEntity
  8
0-3_仕上げ
  6
Continuous
 62
     7
370
     9
100
AcDbLine
 10
903.9999814420207
 20
2213.000148463894
 30
0.0
 11
901.4999814420196
 21
2215.500148463894
 31
0.0
  0
ARC
  5
207
330
1F
100
AcDbEntity
  8
0-3_仕上げ
  6
JWW_CENTER1
 62
   120
370
     5
100
AcDbCircle
 10
1154.378176808945
 20
3169.821368112185
 30
0.0
 40
60.0
100
AcDbArc
 50
183.6514672287091
 51
234.4577409694452
  0
LINE
  5
208
330
1F
100
AcDbEntity
  8
0-3_仕上げ
  6
JWW_CENTER1
 62
   120
370
     5
100
AcDbLine
 10
994.4999814420203
 20
3166.000148463894
 30
0.0
 11
994.4999814420203
 21
3271.000148463894
 31
0.0
  0
LINE
  5
209
330
1F
100
AcDbEntity
  8
0-3_仕上げ
  6
Continuous
 62
   120
370
     5
100
AcDbLine
 10
991.4999814420213
 20
3166.191209446308
 30
0.0
 11
991.4999814420213
 21
3271.000148463894
 31
0.0
  0
LINE
  5
20A
330
1F
100
AcDbEntity
  8
0-3_仕上げ
  6
Continuous
 62
   120
370
     5
100
AcDbLine
 10
997.499981442021
 20
3166.000148463894
 30
0.0
 11
997.499981442021
 21
3271.000148463894
 31
0.0
  0
ARC
  5
20B
330
1F
100
AcDbEntity
  8
0-3_仕上げ
  6
JWW_CENTER1
 62
   120
370
     5
100
AcDbCircle
 10
1054.378176808944
 20
3169.821368112185
 30
0.0
 40
60.0
100
AcDbArc
 50
183.6514672287091
 51
234.4577409694452
  0
ARC
  5
20C
330
1F
100
AcDbEntity
  8
0-3_仕上げ
  6
Continuous
 62
   120
370
     5
100
AcDbCircle
 10
1054.378176808944
 20
3169.821368112185
 30
0.0
 40
57.0
100
AcDbArc
 50
183.6514672287091
 51
233.502329744074
  0
ARC
  5
20D
330
1F
100
AcDbEntity
  8
0-3_仕上げ
  6
JWW_CENTER1
 62
   120
370
     5
100
AcDbCircle
 10
1054.378176808944
 20
3072.178928815602
 30
0.0
 40
60.0
100
AcDbArc
 50
125.5422590305548
 51
176.3485327712908
  0
ARC
  5
20E
330
1F
100
AcDbEntity
  8
0-3_仕上げ
  6
Continuous
 62
   120
370
     5
100
AcDbCircle
 10
1054.378176808944
 20
3072.178928815602
 30
0.0
 40
63.0
100
AcDbArc
 50
129.200407421848
 51
161.8874291519458
  0
ARC
  5
20F
330
1F
100
AcDbEntity
  8
0-3_仕上げ
  6
Continuous
 62
   120
370
     5
100
AcDbCircle
 10
1054.378176808944
 20
3169.821368112185
 30
0.0
 40
63.0
100
AcDbArc
 50
198.1125708480542
 51
230.799592578152
  0
ARC
  5
210
330
1F
100
AcDbEntity
  8
0-3_仕上げ
  6
Continuous
 62
   120
370
     5
100
AcDbCircle
 10
934.6217860750966
 20
3169.821368112185
 30
0.0
 40
63.0
100
AcDbArc
 50
309.200407421848
 51
341.8874291519458
  0
ARC
  5
211
330
1F
100
AcDbEntity
  8
0-3_仕上げ
  6
Continuous
 62
   120
370
     5
100
AcDbCircle
 10
934.6217860750966
 20
3072.178928815602
 30
0.0
 40
63.0
100
AcDbArc
 50
18.11257084805418
 51
50.79959257815202
  0
ARC
  5
212
330
1F
100
AcDbEntity
  8
0-3_仕上げ
  6
Continuous
 62
   120
370
     5
100
AcDbCircle
 10
1054.378176808944
 20
3072.178928815602
 30
0.0
 40
57.0
100
AcDbArc
 50
126.497670255926
 51
176.2536402876275
  0
ARC
  5
213
330
1F
100
AcDbEntity
  8
0-3_仕上げ
  6
JWW_CENTER1
 62
   120
370
     5
100
AcDbCircle
 10
1154.378176808945
 20
3072.178928815602
 30
0.0
 40
60.0
100
AcDbArc
 50
125.5422590305548
 51
176.3485327712908
  0
ARC
  5
214
330
1F
100
AcDbEntity
  8
0-3_仕上げ
  6
Continuous
 62
   120
370
     5
100
AcDbCircle
 10
1154.378176808945
 20
3072.178928815602
 30
0.0
 40
63.0
100
AcDbArc
 50
129.200407421848
 51
161.8874291519458
  0
ARC
  5
215
330
1F
100
AcDbEntity
  8
0-3_仕上げ
  6
Continuous
 62
   120
370
     5
100
AcDbCircle
 10
1154.378176808945
 20
3169.821368112185
 30
0.0
 40
63.0
100
AcDbArc
 50
198.1125708480542
 51
230.799592578152
  0
ARC
  5
216
330
1F
100
AcDbEntity
  8
0-3_仕上げ
  6
Continuous
 62
   120
370
     5
100
AcDbCircle
 10
1034.621786075096
 20
3169.821368112185
 30
0.0
 40
63.0
100
AcDbArc
 50
309.200407421848
 51
341.8874291519458
  0
ARC
  5
217
330
1F
100
AcDbEntity
  8
0-3_仕上げ
  6
Continuous
 62
   120
370
     5
100
AcDbCircle
 10
1034.621786075096
 20
3072.178928815602
 30
0.0
 40
63.0
100
AcDbArc
 50
18.11257084805418
 51
50.79959257815202
  0
LINE
  5
218
330
1F
100
AcDbEntity
  8
0-3_仕上げ
  6
Continuous
 62
   120
370
     5
100
AcDbLine
 10
1020.475141104998
 20
3124.000148463893
 30
0.0
 11
1068.524821779044
 21
3124.000148463893
 31
0.0
  0
LINE
  5
219
330
1F
100
AcDbEntity
  8
0-3_仕上げ
  6
Continuous
 62
   120
370
     5
100
AcDbLine
 10
1020.475141104998
 20
3118.000148463894
 30
0.0
 11
1068.524821779044
 21
3118.000148463894
 31
0.0
  0
LINE
  5
21A
330
1F
100
AcDbEntity
  8
0-3_仕上げ
  6
JWW_CENTER1
 62
   120
370
     5
100
AcDbLine
 10
1019.499981442021
 20
3121.000148463894
 30
0.0
 11
1069.49998144202
 21
3121.000148463894
 31
0.0
  0
ARC
  5
21B
330
1F
100
AcDbEntity
  8
0-3_仕上げ
  6
Continuous
 62
   120
370
     5
100
AcDbCircle
 10
1034.621786075096
 20
3169.821368112185
 30
0.0
 40
57.0
100
AcDbArc
 50
306.497670255926
 51
356.2536402876231
  0
LINE
  5
21C
330
1F
100
AcDbEntity
  8
0-3_仕上げ
  6
Continuous
 62
   120
370
     5
100
AcDbLine
 10
1091.499981442021
 20
3166.09700349496
 30
0.0
 11
1091.499981442021
 21
3271.000148463894
 31
0.0
  0
LINE
  5
21D
330
1F
100
AcDbEntity
  8
0-3_仕上げ
  6
JWW_CENTER1
 62
   120
370
     5
100
AcDbLine
 10
1094.499981442021
 20
3166.000148463894
 30
0.0
 11
1094.499981442021
 21
3271.000148463894
 31
0.0
  0
ARC
  5
21E
330
1F
100
AcDbEntity
  8
0-3_仕上げ
  6
JWW_CENTER1
 62
   120
370
     5
100
AcDbCircle
 10
1034.621786075096
 20
3169.821368112185
 30
0.0
 40
60.0
100
AcDbArc
 50
305.5422590305548
 51
356.3485327712913
  0
LINE
  5
21F
330
1F
100
AcDbEntity
  8
0-3_仕上げ
  6
Continuous
 62
   120
370
     5
100
AcDbLine
 10
1097.499981442022
 20
3166.097003494961
 30
0.0
 11
1097.499981442022
 21
3271.000148463894
 31
0.0
  0
ARC
  5
220
330
1F
100
AcDbEntity
  8
0-3_仕上げ
  6
Continuous
 62
   120
370
     5
100
AcDbCircle
 10
1034.621786075096
 20
3072.178928815602
 30
0.0
 40
57.0
100
AcDbArc
 50
3.746359712376933
 51
53.50232974407399
  0
ARC
  5
221
330
1F
100
AcDbEntity
  8
0-3_仕上げ
  6
JWW_CENTER1
 62
   120
370
     5
100
AcDbCircle
 10
1034.621786075096
 20
3072.178928815602
 30
0.0
 40
60.0
100
AcDbArc
 50
3.651467228708674
 51
54.45774096944522
  0
ARC
  5
222
330
1F
100
AcDbEntity
  8
0-3_仕上げ
  6
JWW_CENTER1
 62
   120
370
     5
100
AcDbCircle
 10
1054.378176808944
 20
2521.821368112185
 30
0.0
 40
60.0
100
AcDbArc
 50
183.6514672287091
 51
234.4577409694452
  0
ARC
  5
223
330
1F
100
AcDbEntity
  8
0-3_仕上げ
  6
JWW_CENTER1
 62
   120
370
     5
100
AcDbCircle
 10
1054.378176808944
 20
2424.178928815602
 30
0.0
 40
60.0
100
AcDbArc
 50
125.5422590305548
 51
176.3485327712908
  0
ARC
  5
224
330
1F
100
AcDbEntity
  8
0-3_仕上げ
  6
Continuous
 62
   120
370
     5
100
AcDbCircle
 10
1054.378176808944
 20
2424.178928815602
 30
0.0
 40
63.0
100
AcDbArc
 50
129.200407421848
 51
161.8874291519458
  0
ARC
  5
225
330
1F
100
AcDbEntity
  8
0-3_仕上げ
  6
Continuous
 62
   120
370
     5
100
AcDbCircle
 10
1054.378176808944
 20
2521.821368112185
 30
0.0
 40
63.0
100
AcDbArc
 50
198.1125708480542
 51
230.799592578152
  0
ARC
  5
226
330
1F
100
AcDbEntity
  8
0-3_仕上げ
  6
Continuous
 62
   120
370
     5
100
AcDbCircle
 10
934.6217860750966
 20
2521.821368112185
 30
0.0
 40
63.0
100
AcDbArc
 50
309.200407421848
 51
341.8874291519458
  0
ARC
  5
227
330
1F
100
AcDbEntity
  8
0-3_仕上げ
  6
Continuous
 62
   120
370
     5
100
AcDbCircle
 10
934.6217860750966
 20
2424.178928815602
 30
0.0
 40
63.0
100
AcDbArc
 50
18.11257084805418
 51
50.79959257815202
  0
LINE
  5
228
330
1F
100
AcDbEntity
  8
0-3_仕上げ
  6
Continuous
 62
   120
370
     5
100
AcDbLine
 10
991.4999814420213
 20
2313.000148463894
 30
0.0
 11
991.4999814420213
 21
2427.903293432828
 31
0.0
  0
LINE
  5
229
330
1F
100
AcDbEntity
  8
0-3_仕上げ
  6
JWW_CENTER1
 62
   120
370
     5
100
AcDbLine
 10
994.4999814420203
 20
2313.000148463894
 30
0.0
 11
994.4999814420203
 21
2428.000148463893
 31
0.0
  0
LINE
  5
22A
330
1F
100
AcDbEntity
  8
0-3_仕上げ
  6
Continuous
 62
   120
370
     5
100
AcDbLine
 10
997.499981442021
 20
2313.000148463894
 30
0.0
 11
997.499981442021
 21
2427.903293432823
 31
0.0
  0
ARC
  5
22B
330
1F
100
AcDbEntity
  8
0-3_仕上げ
  6
Continuous
 62
   120
370
     5
100
AcDbCircle
 10
1054.378176808944
 20
2424.178928815602
 30
0.0
 40
57.0
100
AcDbArc
 50
126.497670255926
 51
176.2536402876274
  0
LINE
  5
22C
330
1F
100
AcDbEntity
  8
0-3_仕上げ
  6
Continuous
 62
   120
370
     5
100
AcDbLine
 10
991.4999814420213
 20
2518.09700349496
 30
0.0
 11
991.4999814420213
 21
3075.903293432828
 31
0.0
  0
LINE
  5
22D
330
1F
100
AcDbEntity
  8
0-3_仕上げ
  6
JWW_CENTER1
 62
   120
370
     5
100
AcDbLine
 10
994.4999814420203
 20
2518.000148463894
 30
0.0
 11
994.4999814420203
 21
3076.000148463894
 31
0.0
  0
LINE
  5
22E
330
1F
100
AcDbEntity
  8
0-3_仕上げ
  6
Continuous
 62
   120
370
     5
100
AcDbLine
 10
997.499981442021
 20
2518.097003494964
 30
0.0
 11
997.499981442021
 21
3075.903293432824
 31
0.0
  0
ARC
  5
22F
330
1F
100
AcDbEntity
  8
0-3_仕上げ
  6
Continuous
 62
   120
370
     5
100
AcDbCircle
 10
1054.378176808944
 20
2521.821368112185
 30
0.0
 40
57.0
100
AcDbArc
 50
183.7463597123725
 51
233.502329744074
  0
ARC
  5
230
330
1F
100
AcDbEntity
  8
0-3_仕上げ
  6
JWW_CENTER1
 62
   120
370
     5
100
AcDbCircle
 10
1154.378176808945
 20
2521.821368112185
 30
0.0
 40
60.0
100
AcDbArc
 50
183.6514672287091
 51
234.4577409694452
  0
ARC
  5
231
330
1F
100
AcDbEntity
  8
0-3_仕上げ
  6
Continuous
 62
   120
370
     5
100
AcDbCircle
 10
1154.378176808945
 20
2424.178928815602
 30
0.0
 40
63.0
100
AcDbArc
 50
129.200407421848
 51
161.8874291519458
  0
ARC
  5
232
330
1F
100
AcDbEntity
  8
0-3_仕上げ
  6
Continuous
 62
   120
370
     5
100
AcDbCircle
 10
1154.378176808945
 20
2521.821368112185
 30
0.0
 40
63.0
100
AcDbArc
 50
198.1125708480542
 51
230.799592578152
  0
ARC
  5
233
330
1F
100
AcDbEntity
  8
0-3_仕上げ
  6
Continuous
 62
   120
370
     5
100
AcDbCircle
 10
1034.621786075096
 20
2521.821368112185
 30
0.0
 40
63.0
100
AcDbArc
 50
309.200407421848
 51
341.8874291519458
  0
ARC
  5
234
330
1F
100
AcDbEntity
  8
0-3_仕上げ
  6
Continuous
 62
   120
370
     5
100
AcDbCircle
 10
1034.621786075096
 20
2424.178928815602
 30
0.0
 40
63.0
100
AcDbArc
 50
18.11257084805418
 51
50.79959257815202
  0
LINE
  5
235
330
1F
100
AcDbEntity
  8
0-3_仕上げ
  6
Continuous
 62
   120
370
     5
100
AcDbLine
 10
1020.475141104998
 20
2476.000148463894
 30
0.0
 11
1068.524821779044
 21
2476.000148463894
 31
0.0
  0
LINE
  5
236
330
1F
100
AcDbEntity
  8
0-3_仕上げ
  6
Continuous
 62
   120
370
     5
100
AcDbLine
 10
1020.475141104998
 20
2470.000148463894
 30
0.0
 11
1068.524821779044
 21
2470.000148463894
 31
0.0
  0
LINE
  5
237
330
1F
100
AcDbEntity
  8
0-3_仕上げ
  6
JWW_CENTER1
 62
   120
370
     5
100
AcDbLine
 10
1019.499981442021
 20
2473.000148463893
 30
0.0
 11
1069.49998144202
 21
2473.000148463893
 31
0.0
  0
ARC
  5
238
330
1F
100
AcDbEntity
  8
0-3_仕上げ
  6
JWW_CENTER1
 62
   120
370
     5
100
AcDbCircle
 10
1034.621786075096
 20
2424.178928815602
 30
0.0
 40
60.0
100
AcDbArc
 50
3.651467228708674
 51
54.45774096944522
  0
ARC
  5
239
330
1F
100
AcDbEntity
  8
0-3_仕上げ
  6
Continuous
 62
   120
370
     5
100
AcDbCircle
 10
1034.621786075096
 20
2521.821368112185
 30
0.0
 40
57.0
100
AcDbArc
 50
306.497670255926
 51
356.2536402876231
  0
LINE
  5
23A
330
1F
100
AcDbEntity
  8
0-3_仕上げ
  6
Continuous
 62
   120
370
     5
100
AcDbLine
 10
1091.499981442021
 20
2518.09700349496
 30
0.0
 11
1091.499981442021
 21
3075.903293432828
 31
0.0
  0
ARC
  5
23B
330
1F
100
AcDbEntity
  8
0-3_仕上げ
  6
Continuous
 62
   120
370
     5
100
AcDbCircle
 10
1034.621786075096
 20
2424.178928815602
 30
0.0
 40
57.0
100
AcDbArc
 50
3.74635971237695
 51
53.50232974407399
  0
LINE
  5
23C
330
1F
100
AcDbEntity
  8
0-3_仕上げ
  6
Continuous
 62
   120
370
     5
100
AcDbLine
 10
1091.499981442021
 20
2313.000148463894
 30
0.0
 11
1091.499981442021
 21
2427.903293432828
 31
0.0
  0
LINE
  5
23D
330
1F
100
AcDbEntity
  8
0-3_仕上げ
  6
Continuous
 62
   120
370
     5
100
AcDbLine
 10
1120.475141104997
 20
2470.000148463894
 30
0.0
 11
1168.524821779043
 21
2470.000148463894
 31
0.0
  0
LINE
  5
23E
330
1F
100
AcDbEntity
  8
0-3_仕上げ
  6
JWW_CENTER1
 62
   120
370
     5
100
AcDbLine
 10
1119.499981442021
 20
2473.000148463893
 30
0.0
 11
1169.499981442021
 21
2473.000148463893
 31
0.0
  0
LINE
  5
23F
330
1F
100
AcDbEntity
  8
0-3_仕上げ
  6
Continuous
 62
   120
370
     5
100
AcDbLine
 10
1120.475141104997
 20
2476.000148463894
 30
0.0
 11
1168.524821779043
 21
2476.000148463894
 31
0.0
  0
LINE
  5
240
330
1F
100
AcDbEntity
  8
0-3_仕上げ
  6
JWW_CENTER1
 62
   120
370
     5
100
AcDbLine
 10
1094.499981442021
 20
2518.000148463894
 30
0.0
 11
1094.499981442021
 21
3076.000148463893
 31
0.0
  0
ARC
  5
241
330
1F
100
AcDbEntity
  8
0-3_仕上げ
  6
JWW_CENTER1
 62
   120
370
     5
100
AcDbCircle
 10
1034.621786075096
 20
2521.821368112185
 30
0.0
 40
60.0
100
AcDbArc
 50
305.5422590305548
 51
356.3485327712913
  0
LINE
  5
242
330
1F
100
AcDbEntity
  8
0-3_仕上げ
  6
Continuous
 62
   120
370
     5
100
AcDbLine
 10
1097.499981442022
 20
2518.097003494961
 30
0.0
 11
1097.499981442022
 21
3075.903293432825
 31
0.0
  0
ARC
  5
243
330
1F
100
AcDbEntity
  8
0-3_仕上げ
  6
Continuous
 62
   120
370
     5
100
AcDbCircle
 10
1154.378176808945
 20
2521.821368112185
 30
0.0
 40
57.0
100
AcDbArc
 50
183.7463597123748
 51
233.502329744074
  0
ARC
  5
244
330
1F
100
AcDbEntity
  8
0-3_仕上げ
  6
Continuous
 62
   120
370
     5
100
AcDbCircle
 10
1154.378176808945
 20
2424.178928815602
 30
0.0
 40
57.0
100
AcDbArc
 50
126.497670255926
 51
176.2536402876256
  0
LINE
  5
245
330
1F
100
AcDbEntity
  8
0-3_仕上げ
  6
Continuous
 62
   120
370
     5
100
AcDbLine
 10
1097.499981442022
 20
2313.000148463894
 30
0.0
 11
1097.499981442022
 21
2427.903293432825
 31
0.0
  0
ARC
  5
246
330
1F
100
AcDbEntity
  8
0-3_仕上げ
  6
JWW_CENTER1
 62
   120
370
     5
100
AcDbCircle
 10
1154.378176808945
 20
2424.178928815602
 30
0.0
 40
60.0
100
AcDbArc
 50
125.5422590305548
 51
176.348532771291
  0
LINE
  5
247
330
1F
100
AcDbEntity
  8
0-3_仕上げ
  6
JWW_CENTER1
 62
   120
370
     5
100
AcDbLine
 10
1094.499981442021
 20
2313.000148463894
 30
0.0
 11
1094.499981442021
 21
2428.000148463893
 31
0.0
  0
LINE
  5
248
330
1F
100
AcDbEntity
  8
0-3_仕上げ
  6
Continuous
 62
   120
370
     5
100
AcDbLine
 10
1120.475141104997
 20
3118.000148463894
 30
0.0
 11
1168.524821779043
 21
3118.000148463894
 31
0.0
  0
LINE
  5
249
330
1F
100
AcDbEntity
  8
0-3_仕上げ
  6
Continuous
 62
   120
370
     5
100
AcDbLine
 10
1120.475141104997
 20
3124.000148463893
 30
0.0
 11
1168.524821779043
 21
3124.000148463893
 31
0.0
  0
LINE
  5
24A
330
1F
100
AcDbEntity
  8
0-3_仕上げ
  6
JWW_CENTER1
 62
   120
370
     5
100
AcDbLine
 10
1119.499981442021
 20
3121.000148463894
 30
0.0
 11
1169.499981442021
 21
3121.000148463894
 31
0.0
  0
ARC
  5
24B
330
1F
100
AcDbEntity
  8
0-3_仕上げ
  6
Continuous
 62
   120
370
     5
100
AcDbCircle
 10
1154.378176808945
 20
3072.178928815602
 30
0.0
 40
57.0
100
AcDbArc
 50
126.497670255926
 51
176.2536402876275
  0
ARC
  5
24C
330
1F
100
AcDbEntity
  8
0-3_仕上げ
  6
Continuous
 62
   120
370
     5
100
AcDbCircle
 10
1154.378176808945
 20
3169.821368112185
 30
0.0
 40
57.0
100
AcDbArc
 50
183.6514672287091
 51
233.502329744074
  0
ARC
  5
24D
330
1F
100
AcDbEntity
  8
0-3_仕上げ
  6
JWW_CENTER1
 62
   120
370
     5
100
AcDbCircle
 10
1254.378176808945
 20
3169.821368112185
 30
0.0
 40
60.0
100
AcDbArc
 50
183.6514672287091
 51
234.4577409694452
  0
ARC
  5
24E
330
1F
100
AcDbEntity
  8
0-3_仕上げ
  6
JWW_CENTER1
 62
   120
370
     5
100
AcDbCircle
 10
1254.378176808945
 20
3072.178928815602
 30
0.0
 40
60.0
100
AcDbArc
 50
125.5422590305548
 51
176.3485327712908
  0
ARC
  5
24F
330
1F
100
AcDbEntity
  8
0-3_仕上げ
  6
Continuous
 62
   120
370
     5
100
AcDbCircle
 10
1254.378176808945
 20
3072.178928815602
 30
0.0
 40
63.0
100
AcDbArc
 50
129.200407421848
 51
161.8874291519458
  0
ARC
  5
250
330
1F
100
AcDbEntity
  8
0-3_仕上げ
  6
Continuous
 62
   120
370
     5
100
AcDbCircle
 10
1254.378176808945
 20
3169.821368112185
 30
0.0
 40
63.0
100
AcDbArc
 50
198.1125708480542
 51
230.799592578152
  0
ARC
  5
251
330
1F
100
AcDbEntity
  8
0-3_仕上げ
  6
Continuous
 62
   120
370
     5
100
AcDbCircle
 10
1134.621786075097
 20
3169.821368112185
 30
0.0
 40
63.0
100
AcDbArc
 50
309.200407421848
 51
341.8874291519458
  0
ARC
  5
252
330
1F
100
AcDbEntity
  8
0-3_仕上げ
  6
Continuous
 62
   120
370
     5
100
AcDbCircle
 10
1134.621786075097
 20
3072.178928815602
 30
0.0
 40
63.0
100
AcDbArc
 50
18.11257084805418
 51
50.79959257815202
  0
ARC
  5
253
330
1F
100
AcDbEntity
  8
0-3_仕上げ
  6
Continuous
 62
   120
370
     5
100
AcDbCircle
 10
1134.621786075097
 20
3169.821368112185
 30
0.0
 40
57.0
100
AcDbArc
 50
306.497670255926
 51
356.2536402876231
  0
LINE
  5
254
330
1F
100
AcDbEntity
  8
0-3_仕上げ
  6
Continuous
 62
   120
370
     5
100
AcDbLine
 10
1191.49998144202
 20
3166.09700349496
 30
0.0
 11
1191.49998144202
 21
3271.000148463894
 31
0.0
  0
LINE
  5
255
330
1F
100
AcDbEntity
  8
0-3_仕上げ
  6
JWW_CENTER1
 62
   120
370
     5
100
AcDbLine
 10
1194.499981442021
 20
3166.000148463894
 30
0.0
 11
1194.499981442021
 21
3271.000148463894
 31
0.0
  0
ARC
  5
256
330
1F
100
AcDbEntity
  8
0-3_仕上げ
  6
JWW_CENTER1
 62
   120
370
     5
100
AcDbCircle
 10
1134.621786075097
 20
3169.821368112185
 30
0.0
 40
60.0
100
AcDbArc
 50
305.5422590305548
 51
356.3485327712913
  0
LINE
  5
257
330
1F
100
AcDbEntity
  8
0-3_仕上げ
  6
Continuous
 62
   120
370
     5
100
AcDbLine
 10
1197.499981442022
 20
3166.097003494961
 30
0.0
 11
1197.499981442022
 21
3271.000148463894
 31
0.0
  0
ARC
  5
258
330
1F
100
AcDbEntity
  8
0-3_仕上げ
  6
Continuous
 62
   120
370
     5
100
AcDbCircle
 10
1134.621786075097
 20
3072.178928815602
 30
0.0
 40
57.0
100
AcDbArc
 50
3.746359712376933
 51
53.50232974407399
  0
ARC
  5
259
330
1F
100
AcDbEntity
  8
0-3_仕上げ
  6
JWW_CENTER1
 62
   120
370
     5
100
AcDbCircle
 10
1134.621786075097
 20
3072.178928815602
 30
0.0
 40
60.0
100
AcDbArc
 50
3.651467228708674
 51
54.45774096944522
  0
ARC
  5
25A
330
1F
100
AcDbEntity
  8
0-3_仕上げ
  6
JWW_CENTER1
 62
   120
370
     5
100
AcDbCircle
 10
1254.378176808945
 20
2521.821368112185
 30
0.0
 40
60.0
100
AcDbArc
 50
183.6514672287091
 51
234.4577409694452
  0
ARC
  5
25B
330
1F
100
AcDbEntity
  8
0-3_仕上げ
  6
Continuous
 62
   120
370
     5
100
AcDbCircle
 10
1254.378176808945
 20
2424.178928815602
 30
0.0
 40
63.0
100
AcDbArc
 50
129.200407421848
 51
161.8874291519458
  0
ARC
  5
25C
330
1F
100
AcDbEntity
  8
0-3_仕上げ
  6
Continuous
 62
   120
370
     5
100
AcDbCircle
 10
1254.378176808945
 20
2521.821368112185
 30
0.0
 40
63.0
100
AcDbArc
 50
198.1125708480542
 51
230.799592578152
  0
ARC
  5
25D
330
1F
100
AcDbEntity
  8
0-3_仕上げ
  6
Continuous
 62
   120
370
     5
100
AcDbCircle
 10
1134.621786075097
 20
2521.821368112185
 30
0.0
 40
63.0
100
AcDbArc
 50
309.200407421848
 51
341.8874291519458
  0
ARC
  5
25E
330
1F
100
AcDbEntity
  8
0-3_仕上げ
  6
Continuous
 62
   120
370
     5
100
AcDbCircle
 10
1134.621786075097
 20
2424.178928815602
 30
0.0
 40
63.0
100
AcDbArc
 50
18.11257084805418
 51
50.79959257815202
  0
ARC
  5
25F
330
1F
100
AcDbEntity
  8
0-3_仕上げ
  6
JWW_CENTER1
 62
   120
370
     5
100
AcDbCircle
 10
1134.621786075097
 20
2424.178928815602
 30
0.0
 40
60.0
100
AcDbArc
 50
3.651467228708674
 51
54.45774096944522
  0
ARC
  5
260
330
1F
100
AcDbEntity
  8
0-3_仕上げ
  6
Continuous
 62
   120
370
     5
100
AcDbCircle
 10
1134.621786075097
 20
2521.821368112185
 30
0.0
 40
57.0
100
AcDbArc
 50
306.497670255926
 51
356.2536402876231
  0
LINE
  5
261
330
1F
100
AcDbEntity
  8
0-3_仕上げ
  6
Continuous
 62
   120
370
     5
100
AcDbLine
 10
1191.49998144202
 20
2518.09700349496
 30
0.0
 11
1191.49998144202
 21
3075.903293432828
 31
0.0
  0
ARC
  5
262
330
1F
100
AcDbEntity
  8
0-3_仕上げ
  6
Continuous
 62
   120
370
     5
100
AcDbCircle
 10
1134.621786075097
 20
2424.178928815602
 30
0.0
 40
57.0
100
AcDbArc
 50
3.74635971237695
 51
53.50232974407399
  0
LINE
  5
263
330
1F
100
AcDbEntity
  8
0-3_仕上げ
  6
Continuous
 62
   120
370
     5
100
AcDbLine
 10
1191.49998144202
 20
2313.000148463894
 30
0.0
 11
1191.49998144202
 21
2427.903293432828
 31
0.0
  0
LINE
  5
264
330
1F
100
AcDbEntity
  8
0-3_仕上げ
  6
Continuous
 62
   120
370
     5
100
AcDbLine
 10
1220.475141104998
 20
2470.000148463894
 30
0.0
 11
1268.524821779044
 21
2470.000148463894
 31
0.0
  0
LINE
  5
265
330
1F
100
AcDbEntity
  8
0-3_仕上げ
  6
JWW_CENTER1
 62
   120
370
     5
100
AcDbLine
 10
1219.49998144202
 20
2473.000148463893
 30
0.0
 11
1269.499981442021
 21
2473.000148463893
 31
0.0
  0
LINE
  5
266
330
1F
100
AcDbEntity
  8
0-3_仕上げ
  6
Continuous
 62
   120
370
     5
100
AcDbLine
 10
1220.475141104998
 20
2476.000148463894
 30
0.0
 11
1268.524821779044
 21
2476.000148463894
 31
0.0
  0
LINE
  5
267
330
1F
100
AcDbEntity
  8
0-3_仕上げ
  6
JWW_CENTER1
 62
   120
370
     5
100
AcDbLine
 10
1194.499981442021
 20
2518.000148463894
 30
0.0
 11
1194.499981442021
 21
3076.000148463893
 31
0.0
  0
ARC
  5
268
330
1F
100
AcDbEntity
  8
0-3_仕上げ
  6
JWW_CENTER1
 62
   120
370
     5
100
AcDbCircle
 10
1134.621786075097
 20
2521.821368112185
 30
0.0
 40
60.0
100
AcDbArc
 50
305.5422590305548
 51
356.3485327712913
  0
LINE
  5
269
330
1F
100
AcDbEntity
  8
0-3_仕上げ
  6
Continuous
 62
   120
370
     5
100
AcDbLine
 10
1197.499981442022
 20
2518.097003494961
 30
0.0
 11
1197.499981442022
 21
3075.903293432825
 31
0.0
  0
ARC
  5
26A
330
1F
100
AcDbEntity
  8
0-3_仕上げ
  6
Continuous
 62
   120
370
     5
100
AcDbCircle
 10
1254.378176808945
 20
2521.821368112185
 30
0.0
 40
57.0
100
AcDbArc
 50
183.7463597123748
 51
233.502329744074
  0
ARC
  5
26B
330
1F
100
AcDbEntity
  8
0-3_仕上げ
  6
Continuous
 62
   120
370
     5
100
AcDbCircle
 10
1254.378176808945
 20
2424.178928815602
 30
0.0
 40
57.0
100
AcDbArc
 50
126.497670255926
 51
176.2536402876256
  0
LINE
  5
26C
330
1F
100
AcDbEntity
  8
0-3_仕上げ
  6
Continuous
 62
   120
370
     5
100
AcDbLine
 10
1197.499981442022
 20
2313.000148463894
 30
0.0
 11
1197.499981442022
 21
2427.903293432825
 31
0.0
  0
ARC
  5
26D
330
1F
100
AcDbEntity
  8
0-3_仕上げ
  6
JWW_CENTER1
 62
   120
370
     5
100
AcDbCircle
 10
1254.378176808945
 20
2424.178928815602
 30
0.0
 40
60.0
100
AcDbArc
 50
125.5422590305548
 51
176.348532771291
  0
LINE
  5
26E
330
1F
100
AcDbEntity
  8
0-3_仕上げ
  6
JWW_CENTER1
 62
   120
370
     5
100
AcDbLine
 10
1194.499981442021
 20
2313.000148463894
 30
0.0
 11
1194.499981442021
 21
2428.000148463893
 31
0.0
  0
LINE
  5
26F
330
1F
100
AcDbEntity
  8
0-3_仕上げ
  6
Continuous
 62
   120
370
     5
100
AcDbLine
 10
1220.475141104998
 20
3118.000148463894
 30
0.0
 11
1268.524821779044
 21
3118.000148463894
 31
0.0
  0
LINE
  5
270
330
1F
100
AcDbEntity
  8
0-3_仕上げ
  6
Continuous
 62
   120
370
     5
100
AcDbLine
 10
1220.475141104998
 20
3124.000148463893
 30
0.0
 11
1268.524821779044
 21
3124.000148463893
 31
0.0
  0
LINE
  5
271
330
1F
100
AcDbEntity
  8
0-3_仕上げ
  6
JWW_CENTER1
 62
   120
370
     5
100
AcDbLine
 10
1219.49998144202
 20
3121.000148463894
 30
0.0
 11
1269.499981442021
 21
3121.000148463894
 31
0.0
  0
ARC
  5
272
330
1F
100
AcDbEntity
  8
0-3_仕上げ
  6
Continuous
 62
   120
370
     5
100
AcDbCircle
 10
1254.378176808945
 20
3072.178928815602
 30
0.0
 40
57.0
100
AcDbArc
 50
126.497670255926
 51
176.2536402876275
  0
ARC
  5
273
330
1F
100
AcDbEntity
  8
0-3_仕上げ
  6
Continuous
 62
   120
370
     5
100
AcDbCircle
 10
1254.378176808945
 20
3169.821368112185
 30
0.0
 40
57.0
100
AcDbArc
 50
183.6514672287091
 51
233.502329744074
  0
ARC
  5
274
330
1F
100
AcDbEntity
  8
0-3_仕上げ
  6
JWW_CENTER1
 62
   120
370
     5
100
AcDbCircle
 10
1354.378176808946
 20
3169.821368112185
 30
0.0
 40
60.0
100
AcDbArc
 50
183.6514672287091
 51
234.4577409694452
  0
ARC
  5
275
330
1F
100
AcDbEntity
  8
0-3_仕上げ
  6
JWW_CENTER1
 62
   120
370
     5
100
AcDbCircle
 10
1354.378176808946
 20
3072.178928815602
 30
0.0
 40
60.0
100
AcDbArc
 50
125.5422590305548
 51
176.3485327712908
  0
ARC
  5
276
330
1F
100
AcDbEntity
  8
0-3_仕上げ
  6
Continuous
 62
   120
370
     5
100
AcDbCircle
 10
1354.378176808946
 20
3072.178928815602
 30
0.0
 40
63.0
100
AcDbArc
 50
129.200407421848
 51
161.8874291519458
  0
ARC
  5
277
330
1F
100
AcDbEntity
  8
0-3_仕上げ
  6
Continuous
 62
   120
370
     5
100
AcDbCircle
 10
1354.378176808946
 20
3169.821368112185
 30
0.0
 40
63.0
100
AcDbArc
 50
198.1125708480542
 51
230.799592578152
  0
ARC
  5
278
330
1F
100
AcDbEntity
  8
0-3_仕上げ
  6
Continuous
 62
   120
370
     5
100
AcDbCircle
 10
1234.621786075097
 20
3169.821368112185
 30
0.0
 40
63.0
100
AcDbArc
 50
309.200407421848
 51
341.8874291519458
  0
ARC
  5
279
330
1F
100
AcDbEntity
  8
0-3_仕上げ
  6
Continuous
 62
   120
370
     5
100
AcDbCircle
 10
1234.621786075097
 20
3072.178928815602
 30
0.0
 40
63.0
100
AcDbArc
 50
18.11257084805418
 51
50.79959257815202
  0
ARC
  5
27A
330
1F
100
AcDbEntity
  8
0-3_仕上げ
  6
Continuous
 62
   120
370
     5
100
AcDbCircle
 10
1234.621786075097
 20
3169.821368112185
 30
0.0
 40
57.0
100
AcDbArc
 50
306.497670255926
 51
356.2536402876231
  0
LINE
  5
27B
330
1F
100
AcDbEntity
  8
0-3_仕上げ
  6
Continuous
 62
   120
370
     5
100
AcDbLine
 10
1291.49998144202
 20
3166.09700349496
 30
0.0
 11
1291.49998144202
 21
3271.000148463894
 31
0.0
  0
LINE
  5
27C
330
1F
100
AcDbEntity
  8
0-3_仕上げ
  6
JWW_CENTER1
 62
   120
370
     5
100
AcDbLine
 10
1294.49998144202
 20
3166.000148463894
 30
0.0
 11
1294.49998144202
 21
3271.000148463894
 31
0.0
  0
ARC
  5
27D
330
1F
100
AcDbEntity
  8
0-3_仕上げ
  6
JWW_CENTER1
 62
   120
370
     5
100
AcDbCircle
 10
1234.621786075097
 20
3169.821368112185
 30
0.0
 40
60.0
100
AcDbArc
 50
305.5422590305548
 51
356.3485327712913
  0
LINE
  5
27E
330
1F
100
AcDbEntity
  8
0-3_仕上げ
  6
Continuous
 62
   120
370
     5
100
AcDbLine
 10
1297.499981442021
 20
3166.097003494961
 30
0.0
 11
1297.499981442021
 21
3271.000148463894
 31
0.0
  0
ARC
  5
27F
330
1F
100
AcDbEntity
  8
0-3_仕上げ
  6
Continuous
 62
   120
370
     5
100
AcDbCircle
 10
1234.621786075097
 20
3072.178928815602
 30
0.0
 40
57.0
100
AcDbArc
 50
3.746359712376933
 51
53.50232974407399
  0
ARC
  5
280
330
1F
100
AcDbEntity
  8
0-3_仕上げ
  6
JWW_CENTER1
 62
   120
370
     5
100
AcDbCircle
 10
1234.621786075097
 20
3072.178928815602
 30
0.0
 40
60.0
100
AcDbArc
 50
3.651467228708674
 51
54.45774096944522
  0
ARC
  5
281
330
1F
100
AcDbEntity
  8
0-3_仕上げ
  6
JWW_CENTER1
 62
   120
370
     5
100
AcDbCircle
 10
1354.378176808946
 20
2521.821368112185
 30
0.0
 40
60.0
100
AcDbArc
 50
183.6514672287091
 51
234.4577409694452
  0
ARC
  5
282
330
1F
100
AcDbEntity
  8
0-3_仕上げ
  6
Continuous
 62
   120
370
     5
100
AcDbCircle
 10
1354.378176808946
 20
2424.178928815602
 30
0.0
 40
63.0
100
AcDbArc
 50
129.200407421848
 51
161.8874291519458
  0
ARC
  5
283
330
1F
100
AcDbEntity
  8
0-3_仕上げ
  6
Continuous
 62
   120
370
     5
100
AcDbCircle
 10
1354.378176808946
 20
2521.821368112185
 30
0.0
 40
63.0
100
AcDbArc
 50
198.1125708480542
 51
230.799592578152
  0
ARC
  5
284
330
1F
100
AcDbEntity
  8
0-3_仕上げ
  6
Continuous
 62
   120
370
     5
100
AcDbCircle
 10
1234.621786075097
 20
2521.821368112185
 30
0.0
 40
63.0
100
AcDbArc
 50
309.200407421848
 51
341.8874291519458
  0
ARC
  5
285
330
1F
100
AcDbEntity
  8
0-3_仕上げ
  6
Continuous
 62
   120
370
     5
100
AcDbCircle
 10
1234.621786075097
 20
2424.178928815602
 30
0.0
 40
63.0
100
AcDbArc
 50
18.11257084805418
 51
50.79959257815202
  0
ARC
  5
286
330
1F
100
AcDbEntity
  8
0-3_仕上げ
  6
JWW_CENTER1
 62
   120
370
     5
100
AcDbCircle
 10
1234.621786075097
 20
2424.178928815602
 30
0.0
 40
60.0
100
AcDbArc
 50
3.651467228708674
 51
54.45774096944522
  0
ARC
  5
287
330
1F
100
AcDbEntity
  8
0-3_仕上げ
  6
Continuous
 62
   120
370
     5
100
AcDbCircle
 10
1234.621786075097
 20
2521.821368112185
 30
0.0
 40
57.0
100
AcDbArc
 50
306.497670255926
 51
356.2536402876231
  0
LINE
  5
288
330
1F
100
AcDbEntity
  8
0-3_仕上げ
  6
Continuous
 62
   120
370
     5
100
AcDbLine
 10
1291.49998144202
 20
2518.09700349496
 30
0.0
 11
1291.49998144202
 21
3075.903293432828
 31
0.0
  0
ARC
  5
289
330
1F
100
AcDbEntity
  8
0-3_仕上げ
  6
Continuous
 62
   120
370
     5
100
AcDbCircle
 10
1234.621786075097
 20
2424.178928815602
 30
0.0
 40
57.0
100
AcDbArc
 50
3.74635971237695
 51
53.50232974407399
  0
LINE
  5
28A
330
1F
100
AcDbEntity
  8
0-3_仕上げ
  6
Continuous
 62
   120
370
     5
100
AcDbLine
 10
1291.49998144202
 20
2313.000148463894
 30
0.0
 11
1291.49998144202
 21
2427.903293432828
 31
0.0
  0
LINE
  5
28B
330
1F
100
AcDbEntity
  8
0-3_仕上げ
  6
JWW_CENTER1
 62
   120
370
     5
100
AcDbLine
 10
1294.49998144202
 20
2518.000148463894
 30
0.0
 11
1294.49998144202
 21
3076.000148463893
 31
0.0
  0
ARC
  5
28C
330
1F
100
AcDbEntity
  8
0-3_仕上げ
  6
JWW_CENTER1
 62
   120
370
     5
100
AcDbCircle
 10
1234.621786075097
 20
2521.821368112185
 30
0.0
 40
60.0
100
AcDbArc
 50
305.5422590305548
 51
356.3485327712913
  0
LINE
  5
28D
330
1F
100
AcDbEntity
  8
0-3_仕上げ
  6
Continuous
 62
   120
370
     5
100
AcDbLine
 10
1297.499981442021
 20
2518.097003494961
 30
0.0
 11
1297.499981442021
 21
3075.903293432825
 31
0.0
  0
ARC
  5
28E
330
1F
100
AcDbEntity
  8
0-3_仕上げ
  6
Continuous
 62
   120
370
     5
100
AcDbCircle
 10
1354.378176808946
 20
2521.821368112185
 30
0.0
 40
57.0
100
AcDbArc
 50
183.7463597123748
 51
233.502329744074
  0
ARC
  5
28F
330
1F
100
AcDbEntity
  8
0-3_仕上げ
  6
Continuous
 62
   120
370
     5
100
AcDbCircle
 10
1354.378176808946
 20
2424.178928815602
 30
0.0
 40
57.0
100
AcDbArc
 50
126.497670255926
 51
176.2536402876256
  0
LINE
  5
290
330
1F
100
AcDbEntity
  8
0-3_仕上げ
  6
Continuous
 62
   120
370
     5
100
AcDbLine
 10
1297.499981442021
 20
2313.000148463894
 30
0.0
 11
1297.499981442021
 21
2427.903293432825
 31
0.0
  0
ARC
  5
291
330
1F
100
AcDbEntity
  8
0-3_仕上げ
  6
JWW_CENTER1
 62
   120
370
     5
100
AcDbCircle
 10
1354.378176808946
 20
2424.178928815602
 30
0.0
 40
60.0
100
AcDbArc
 50
125.5422590305548
 51
176.348532771291
  0
LINE
  5
292
330
1F
100
AcDbEntity
  8
0-3_仕上げ
  6
JWW_CENTER1
 62
   120
370
     5
100
AcDbLine
 10
1294.49998144202
 20
2313.000148463894
 30
0.0
 11
1294.49998144202
 21
2428.000148463893
 31
0.0
  0
ARC
  5
293
330
1F
100
AcDbEntity
  8
0-3_仕上げ
  6
Continuous
 62
   120
370
     5
100
AcDbCircle
 10
1354.378176808946
 20
3072.178928815602
 30
0.0
 40
57.0
100
AcDbArc
 50
126.497670255926
 51
176.2536402876275
  0
ARC
  5
294
330
1F
100
AcDbEntity
  8
0-3_仕上げ
  6
Continuous
 62
   120
370
     5
100
AcDbCircle
 10
1354.378176808946
 20
3169.821368112185
 30
0.0
 40
57.0
100
AcDbArc
 50
183.6514672287091
 51
233.502329744074
  0
ARC
  5
295
330
1F
100
AcDbEntity
  8
0-3_仕上げ
  6
Continuous
 62
   120
370
     5
100
AcDbCircle
 10
934.6217860750966
 20
3169.821368112185
 30
0.0
 40
57.0
100
AcDbArc
 50
306.497670255926
 51
356.3485327712909
  0
ARC
  5
296
330
1F
100
AcDbEntity
  8
0-3_仕上げ
  6
JWW_CENTER1
 62
   120
370
     5
100
AcDbCircle
 10
934.6217860750966
 20
3169.821368112185
 30
0.0
 40
60.0
100
AcDbArc
 50
305.5422590305548
 51
356.3485327712909
  0
ARC
  5
297
330
1F
100
AcDbEntity
  8
0-3_仕上げ
  6
JWW_CENTER1
 62
   120
370
     5
100
AcDbCircle
 10
934.6217860750966
 20
3072.178928815602
 30
0.0
 40
60.0
100
AcDbArc
 50
3.651467228709083
 51
54.45774096944522
  0
ARC
  5
298
330
1F
100
AcDbEntity
  8
0-3_仕上げ
  6
Continuous
 62
   120
370
     5
100
AcDbCircle
 10
934.6217860750966
 20
3072.178928815602
 30
0.0
 40
57.0
100
AcDbArc
 50
3.746359712376933
 51
53.50232974407399
  0
ARC
  5
299
330
1F
100
AcDbEntity
  8
0-3_仕上げ
  6
Continuous
 62
   120
370
     5
100
AcDbCircle
 10
934.6217860750966
 20
2424.178928815602
 30
0.0
 40
57.0
100
AcDbArc
 50
3.74635971237695
 51
53.50232974407398
  0
ARC
  5
29A
330
1F
100
AcDbEntity
  8
0-3_仕上げ
  6
JWW_CENTER1
 62
   120
370
     5
100
AcDbCircle
 10
934.6217860750966
 20
2424.178928815602
 30
0.0
 40
60.0
100
AcDbArc
 50
3.651467228708674
 51
54.45774096944522
  0
ARC
  5
29B
330
1F
100
AcDbEntity
  8
0-3_仕上げ
  6
Continuous
 62
   120
370
     5
100
AcDbCircle
 10
934.6217860750966
 20
2521.821368112185
 30
0.0
 40
57.0
100
AcDbArc
 50
306.497670255926
 51
356.2536402876231
  0
ARC
  5
29C
330
1F
100
AcDbEntity
  8
0-3_仕上げ
  6
JWW_CENTER1
 62
   120
370
     5
100
AcDbCircle
 10
934.6217860750966
 20
2521.821368112185
 30
0.0
 40
60.0
100
AcDbArc
 50
305.5422590305548
 51
356.3485327712913
  0
LINE
  5
29D
330
1F
100
AcDbEntity
  8
0-3_仕上げ
  6
Continuous
 62
   120
370
     5
100
AcDbLine
 10
1320.475141104998
 20
3124.000148463893
 30
0.0
 11
1384.999981442018
 21
3124.000148463893
 31
0.0
  0
LINE
  5
29E
330
1F
100
AcDbEntity
  8
0-3_仕上げ
  6
Continuous
 62
   120
370
     5
100
AcDbLine
 10
1320.475141104998
 20
2470.000148463894
 30
0.0
 11
1384.999981442018
 21
2470.000148463894
 31
0.0
  0
LINE
  5
29F
330
1F
100
AcDbEntity
  8
0-3_仕上げ
  6
JWW_CENTER1
 62
   120
370
     5
100
AcDbLine
 10
1319.499981442021
 20
2473.000148463893
 30
0.0
 11
1384.999981442018
 21
2473.000148463893
 31
0.0
  0
LINE
  5
2A0
330
1F
100
AcDbEntity
  8
0-3_仕上げ
  6
Continuous
 62
   120
370
     5
100
AcDbLine
 10
1320.475141104998
 20
2476.000148463894
 30
0.0
 11
1384.999981442018
 21
2476.000148463894
 31
0.0
  0
LINE
  5
2A1
330
1F
100
AcDbEntity
  8
0-3_仕上げ
  6
Continuous
 62
   120
370
     5
100
AcDbLine
 10
1320.475141104998
 20
3118.000148463894
 30
0.0
 11
1384.999981442018
 21
3118.000148463894
 31
0.0
  0
LINE
  5
2A2
330
1F
100
AcDbEntity
  8
0-3_仕上げ
  6
JWW_CENTER1
 62
   120
370
     5
100
AcDbLine
 10
1319.499981442021
 20
3121.000148463894
 30
0.0
 11
1384.999981442018
 21
3121.000148463894
 31
0.0
  0
LINE
  5
2A3
330
1F
100
AcDbEntity
  8
0-C_ハッチ
  6
JWW_DASHED1
 62
   120
370
     5
100
AcDbLine
 10
903.9999814420207
 20
3258.632566219336
 30
0.0
 11
916.367563686573
 21
3271.000148463889
 31
0.0
  0
LINE
  5
2A4
330
1F
100
AcDbEntity
  8
0-C_ハッチ
  6
JWW_DASHED1
 62
   120
370
     5
100
AcDbLine
 10
903.9999814420207
 20
2325.251615053099
 30
0.0
 11
1384.999981442018
 21
2806.251615053097
 31
0.0
  0
LINE
  5
2A5
330
1F
100
AcDbEntity
  8
0-C_ハッチ
  6
JWW_DASHED1
 62
   120
370
     5
100
AcDbLine
 10
903.9999814420207
 20
3216.206159348136
 30
0.0
 11
958.7939705577696
 21
3271.000148463886
 31
0.0
  0
LINE
  5
2A6
330
1F
100
AcDbEntity
  8
0-C_ハッチ
  6
JWW_DASHED1
 62
   120
370
     5
100
AcDbLine
 10
903.9999814420207
 20
2834.36849750739
 30
0.0
 11
1340.631632398529
 21
3271.0001484639
 31
0.0
  0
LINE
  5
2A7
330
1F
100
AcDbEntity
  8
0-C_ハッチ
  6
JWW_DASHED1
 62
   120
370
     5
100
AcDbLine
 10
903.9999814420207
 20
2876.79490437859
 30
0.0
 11
1298.205225527332
 21
3271.000148463903
 31
0.0
  0
LINE
  5
2A8
330
1F
100
AcDbEntity
  8
0-C_ハッチ
  6
JWW_DASHED1
 62
   120
370
     5
100
AcDbLine
 10
903.9999814420207
 20
2919.22131124979
 30
0.0
 11
1255.77881865612
 21
3271.00014846389
 31
0.0
  0
LINE
  5
2A9
330
1F
100
AcDbEntity
  8
0-C_ハッチ
  6
JWW_DASHED1
 62
   120
370
     5
100
AcDbLine
 10
903.9999814420207
 20
2961.64771812099
 30
0.0
 11
1213.352411784924
 21
3271.000148463894
 31
0.0
  0
LINE
  5
2AA
330
1F
100
AcDbEntity
  8
0-C_ハッチ
  6
JWW_DASHED1
 62
   120
370
     5
100
AcDbLine
 10
903.9999814420207
 20
3004.07412499219
 30
0.0
 11
1170.926004913727
 21
3271.000148463897
 31
0.0
  0
LINE
  5
2AB
330
1F
100
AcDbEntity
  8
0-C_ハッチ
  6
JWW_DASHED1
 62
   120
370
     5
100
AcDbLine
 10
903.9999814420207
 20
3046.500531863391
 30
0.0
 11
1128.49959804252
 21
3271.000148463891
 31
0.0
  0
LINE
  5
2AC
330
1F
100
AcDbEntity
  8
0-C_ハッチ
  6
JWW_DASHED1
 62
   120
370
     5
100
AcDbLine
 10
903.9999814420207
 20
3088.926938734535
 30
0.0
 11
1086.073191171385
 21
3271.0001484639
 31
0.0
  0
LINE
  5
2AD
330
1F
100
AcDbEntity
  8
0-C_ハッチ
  6
JWW_DASHED1
 62
   120
370
     5
100
AcDbLine
 10
903.9999814420207
 20
3131.353345605736
 30
0.0
 11
1043.646784300188
 21
3271.000148463905
 31
0.0
  0
LINE
  5
2AE
330
1F
100
AcDbEntity
  8
0-C_ハッチ
  6
JWW_DASHED1
 62
   120
370
     5
100
AcDbLine
 10
903.9999814420207
 20
3173.779752476936
 30
0.0
 11
1001.220377428994
 21
3271.00014846391
 31
0.0
  0
LINE
  5
2AF
330
1F
100
AcDbEntity
  8
0-C_ハッチ
  6
JWW_DASHED1
 62
   120
370
     5
100
AcDbLine
 10
903.9999814420207
 20
2791.94209063619
 30
0.0
 11
1383.058039269724
 21
3271.000148463894
 31
0.0
  0
LINE
  5
2B0
330
1F
100
AcDbEntity
  8
0-C_ハッチ
  6
JWW_DASHED1
 62
   120
370
     5
100
AcDbLine
 10
903.9999814420207
 20
2749.515683765045
 30
0.0
 11
1384.999981442018
 21
3230.515683765042
 31
0.0
  0
LINE
  5
2B1
330
1F
100
AcDbEntity
  8
0-C_ハッチ
  6
JWW_DASHED1
 62
   120
370
     5
100
AcDbLine
 10
903.9999814420207
 20
2410.1044287955
 30
0.0
 11
1384.999981442018
 21
2891.104428795497
 31
0.0
  0
LINE
  5
2B2
330
1F
100
AcDbEntity
  8
0-C_ハッチ
  6
JWW_DASHED1
 62
   120
370
     5
100
AcDbLine
 10
903.9999814420207
 20
2452.530835666645
 30
0.0
 11
1384.999981442018
 21
2933.530835666642
 31
0.0
  0
LINE
  5
2B3
330
1F
100
AcDbEntity
  8
0-C_ハッチ
  6
JWW_DASHED1
 62
   120
370
     5
100
AcDbLine
 10
903.9999814420207
 20
2494.957242537845
 30
0.0
 11
1384.999981442018
 21
2975.957242537842
 31
0.0
  0
LINE
  5
2B4
330
1F
100
AcDbEntity
  8
0-C_ハッチ
  6
JWW_DASHED1
 62
   120
370
     5
100
AcDbLine
 10
903.9999814420207
 20
2537.383649409045
 30
0.0
 11
1384.999981442018
 21
3018.383649409042
 31
0.0
  0
LINE
  5
2B5
330
1F
100
AcDbEntity
  8
0-C_ハッチ
  6
JWW_DASHED1
 62
   120
370
     5
100
AcDbLine
 10
903.9999814420207
 20
2579.810056280245
 30
0.0
 11
1384.999981442018
 21
3060.810056280243
 31
0.0
  0
LINE
  5
2B6
330
1F
100
AcDbEntity
  8
0-C_ハッチ
  6
JWW_DASHED1
 62
   120
370
     5
100
AcDbLine
 10
903.9999814420207
 20
2622.236463151445
 30
0.0
 11
1384.999981442018
 21
3103.236463151443
 31
0.0
  0
LINE
  5
2B7
330
1F
100
AcDbEntity
  8
0-C_ハッチ
  6
JWW_DASHED1
 62
   120
370
     5
100
AcDbLine
 10
903.9999814420207
 20
2664.662870022645
 30
0.0
 11
1384.999981442018
 21
3145.662870022643
 31
0.0
  0
LINE
  5
2B8
330
1F
100
AcDbEntity
  8
0-C_ハッチ
  6
JWW_DASHED1
 62
   120
370
     5
100
AcDbLine
 10
903.9999814420207
 20
2707.089276893845
 30
0.0
 11
1384.999981442018
 21
3188.089276893842
 31
0.0
  0
LINE
  5
2B9
330
1F
100
AcDbEntity
  8
0-C_ハッチ
  6
JWW_DASHED1
 62
   120
370
     5
100
AcDbLine
 10
903.9999814420207
 20
2367.678021924299
 30
0.0
 11
1384.999981442018
 21
2848.678021924298
 31
0.0
  0
LINE
  5
2BA
330
1F
100
AcDbEntity
  8
0-3_仕上げ
  6
Continuous
 62
   120
370
     5
100
AcDbLine
 10
903.9999814420207
 20
3124.000148463893
 30
0.0
 11
968.5248217790428
 21
3124.000148463893
 31
0.0
  0
LINE
  5
2BB
330
1F
100
AcDbEntity
  8
0-3_仕上げ
  6
Continuous
 62
   120
370
     5
100
AcDbLine
 10
903.9999814420207
 20
2470.000148463894
 30
0.0
 11
968.5248217790428
 21
2470.000148463894
 31
0.0
  0
LINE
  5
2BC
330
1F
100
AcDbEntity
  8
0-3_仕上げ
  6
Continuous
 62
   120
370
     5
100
AcDbLine
 10
903.9999814420207
 20
2476.000148463894
 30
0.0
 11
968.5248217790428
 21
2476.000148463894
 31
0.0
  0
LINE
  5
2BD
330
1F
100
AcDbEntity
  8
0-3_仕上げ
  6
JWW_CENTER1
 62
   120
370
     5
100
AcDbLine
 10
903.9999814420207
 20
2473.000148463893
 30
0.0
 11
969.4999814420208
 21
2473.000148463893
 31
0.0
  0
LINE
  5
2BE
330
1F
100
AcDbEntity
  8
0-3_仕上げ
  6
JWW_CENTER1
 62
   120
370
     5
100
AcDbLine
 10
903.9999814420207
 20
3121.000148463894
 30
0.0
 11
969.4999814420208
 21
3121.000148463894
 31
0.0
  0
LINE
  5
2BF
330
1F
100
AcDbEntity
  8
0-3_仕上げ
  6
Continuous
 62
   120
370
     5
100
AcDbLine
 10
903.9999814420207
 20
3118.000148463894
 30
0.0
 11
968.5248217790428
 21
3118.000148463894
 31
0.0
  0
LINE
  5
2C0
330
1F
100
AcDbEntity
  8
0-3_仕上げ
  6
Continuous
 62
     7
370
     9
100
AcDbLine
 10
899.9999814420192
 20
1438.000148463894
 30
0.0
 11
899.9999814420192
 21
3421.000148463894
 31
0.0
  0
LINE
  5
2C1
330
1F
100
AcDbEntity
  8
0-3_仕上げ
  6
Continuous
 62
     7
370
     9
100
AcDbLine
 10
1387.499981442019
 20
3273.500148463894
 30
0.0
 11
1387.499981442019
 21
3421.000148463894
 31
0.0
  0
LINE
  5
2C2
330
1F
100
AcDbEntity
  8
0-3_仕上げ
  6
Continuous
 62
     7
370
     9
100
AcDbLine
 10
1385.999981442019
 20
3275.000148463894
 30
0.0
 11
1385.999981442019
 21
3421.000148463894
 31
0.0
  0
LINE
  5
2C3
330
1F
100
AcDbEntity
  8
0-3_仕上げ
  6
Continuous
 62
     7
370
     9
100
AcDbLine
 10
901.4999814420196
 20
3273.500148463894
 30
0.0
 11
901.4999814420196
 21
3421.000148463894
 31
0.0
  0
LINE
  5
2C4
330
1F
100
AcDbEntity
  8
0-3_仕上げ
  6
Continuous
 62
     7
370
     9
100
AcDbLine
 10
902.9999814420199
 20
3275.000148463894
 30
0.0
 11
902.9999814420199
 21
3421.000148463894
 31
0.0
  0
LINE
  5
2C5
330
1F
100
AcDbEntity
  8
0-3_仕上げ
  6
Continuous
 62
     7
370
     9
100
AcDbLine
 10
1388.99998144202
 20
1438.000148463894
 30
0.0
 11
1388.99998144202
 21
3421.000148463894
 31
0.0
  0
MTEXT
  5
2C6
330
1F
100
AcDbEntity
  8
F-A_文字
  6
Continuous
 62
     7
370
     0
100
AcDbMText
 10
3383.748977248734
 20
-3946.426865907308
 30
0.0
 40
77.15249999999999
 41
202.5
 46
0.0
 71
     7
 72
     1
  1
{\fＭＳ ゴシック|b0|i0|c128|p49;1/30}
 73
     1
 44
1.0
  0
LWPOLYLINE
  5
2C7
330
1F
100
AcDbEntity
  8
0-B_寸法
  6
Continuous
 62
     7
370
     9
100
AcDbPolyline
 90
        4
 70
     1
 43
3.0
 10
-5138.500018557985
 20
1438.000148463894
 42
0.4142135623731
 10
-5140.000018557986
 20
1439.500148463894
 42
0.4142135623731
 10
-5141.500018557986
 20
1438.000148463894
 42
0.4142135623731
 10
-5140.000018557986
 20
1436.500148463894
 42
0.4142135623731
  0
LINE
  5
2C8
330
1F
100
AcDbEntity
  8
0-B_寸法
  6
Continuous
 62
   120
370
     5
100
AcDbLine
 10
-5140.000018557986
 20
3421.000148463893
 30
0.0
 11
-5140.000018557986
 21
1438.000148463894
 31
0.0
  0
LWPOLYLINE
  5
2C9
330
1F
100
AcDbEntity
  8
0-B_寸法
  6
Continuous
 62
     7
370
     9
100
AcDbPolyline
 90
        4
 70
     1
 43
3.0
 10
-5138.500018557985
 20
3421.000148463893
 42
0.4142135623731
 10
-5140.000018557986
 20
3422.500148463893
 42
0.4142135623731
 10
-5141.500018557986
 20
3421.000148463893
 42
0.4142135623731
 10
-5140.000018557986
 20
3419.500148463893
 42
0.4142135623731
  0
LINE
  5
2CA
330
1F
100
AcDbEntity
  8
0-B_寸法
  6
Continuous
 62
   120
370
     5
100
AcDbLine
 10
-5140.000018557986
 20
1438.000148463894
 30
0.0
 11
-4940.000018557985
 21
1438.000148463894
 31
0.0
  0
LINE
  5
2CB
330
1F
100
AcDbEntity
  8
0-4_枠
  6
Continuous
 62
    92
370
    13
100
AcDbLine
 10
-4890.000018557986
 20
1418.000148463893
 30
0.0
 11
-3066.000018557984
 21
1418.000148463893
 31
0.0
  0
LINE
  5
2CC
330
1F
100
AcDbEntity
  8
0-4_枠
  6
Continuous
 62
    92
370
    13
100
AcDbLine
 10
-4860.000018557986
 20
1433.000148463893
 30
0.0
 11
-3096.000018557984
 21
1433.000148463893
 31
0.0
  0
LINE
  5
2CD
330
1F
100
AcDbEntity
  8
0-2_扉
  6
JWW_DASHED1
 62
   120
370
     5
100
AcDbLine
 10
-3096.000018557984
 20
1438.000148463894
 30
0.0
 11
-3093.000018557985
 21
1438.000148463894
 31
0.0
  0
LINE
  5
2CE
330
1F
100
AcDbEntity
  8
0-1_通り芯
  6
JWW_CENTER1
 62
   120
370
     5
100
AcDbLine
 10
-3103.000018557984
 20
2395.500148463894
 30
0.0
 11
-3185.000018557985
 21
2395.500148463894
 31
0.0
  0
LINE
  5
2CF
330
1F
100
AcDbEntity
  8
0-1_通り芯
  6
JWW_CENTER1
 62
   120
370
     5
100
AcDbLine
 10
-3144.000018557985
 20
2476.500148463893
 30
0.0
 11
-3144.000018557985
 21
2314.500148463894
 31
0.0
  0
LINE
  5
2D0
330
1F
100
AcDbEntity
  8
0-B_寸法
  6
Continuous
 62
   120
370
     5
100
AcDbLine
 10
-5140.000018557986
 20
3421.000148463893
 30
0.0
 11
-4940.000018557985
 21
3421.000148463893
 31
0.0
  0
LINE
  5
2D1
330
1F
100
AcDbEntity
  8
0-4_枠
  6
JWW_DASHED1
 62
   120
370
     5
100
AcDbLine
 10
-3993.000018557985
 20
1433.000148463893
 30
0.0
 11
-3993.000018557985
 21
3435.000148463894
 31
0.0
  0
LINE
  5
2D2
330
1F
100
AcDbEntity
  8
0-4_枠
  6
JWW_DASHED1
 62
   120
370
     5
100
AcDbLine
 10
-3963.000018557985
 20
1433.000148463893
 30
0.0
 11
-3963.000018557985
 21
3435.000148463894
 31
0.0
  0
LINE
  5
2D3
330
1F
100
AcDbEntity
  8
0-2_扉
  6
JWW_DASHED1
 62
   120
370
     5
100
AcDbLine
 10
-3993.000018557985
 20
3421.000148463893
 30
0.0
 11
-3993.000018557985
 21
3417.000148463893
 31
0.0
  0
LINE
  5
2D4
330
1F
100
AcDbEntity
  8
0-2_扉
  6
JWW_DASHED1
 62
   120
370
     5
100
AcDbLine
 10
-3093.000018557985
 20
1438.000148463894
 30
0.0
 11
-3093.000018557985
 21
3421.000148463893
 31
0.0
  0
LINE
  5
2D5
330
1F
100
AcDbEntity
  8
0-2_扉
  6
JWW_DASHED1
 62
   120
370
     5
100
AcDbLine
 10
-3096.000018557984
 20
3421.000148463893
 30
0.0
 11
-3093.000018557985
 21
3421.000148463893
 31
0.0
  0
LINE
  5
2D6
330
1F
100
AcDbEntity
  8
0-2_扉
  6
Continuous
 62
    92
370
    13
100
AcDbLine
 10
-3096.000018557984
 20
3421.000148463893
 30
0.0
 11
-3993.000018557985
 21
3421.000148463893
 31
0.0
  0
LINE
  5
2D7
330
1F
100
AcDbEntity
  8
0-2_扉
  6
Continuous
 62
    92
370
    13
100
AcDbLine
 10
-3096.000018557984
 20
1438.000148463894
 30
0.0
 11
-3993.000018557985
 21
1438.000148463894
 31
0.0
  0
LINE
  5
2D8
330
1F
100
AcDbEntity
  8
0-2_扉
  6
Continuous
 62
    92
370
    13
100
AcDbLine
 10
-3993.000018557985
 20
3421.000148463893
 30
0.0
 11
-3993.000018557985
 21
1438.000148463894
 31
0.0
  0
LINE
  5
2D9
330
1F
100
AcDbEntity
  8
0-B_寸法
  6
Continuous
 62
   120
370
     5
100
AcDbLine
 10
-3093.000018557985
 20
1168.000148463893
 30
0.0
 11
-3993.000018557985
 21
1168.000148463893
 31
0.0
  0
LINE
  5
2DA
330
1F
100
AcDbEntity
  8
0-B_寸法
  6
Continuous
 62
   120
370
     5
100
AcDbLine
 10
-3093.000018557985
 20
1168.000148463893
 30
0.0
 11
-3093.000018557985
 21
1368.000148463894
 31
0.0
  0
LINE
  5
2DB
330
1F
100
AcDbEntity
  8
0-B_寸法
  6
Continuous
 62
   120
370
     5
100
AcDbLine
 10
-3993.000018557985
 20
1168.000148463893
 30
0.0
 11
-3993.000018557985
 21
1368.000148463894
 31
0.0
  0
LWPOLYLINE
  5
2DC
330
1F
100
AcDbEntity
  8
0-B_寸法
  6
Continuous
 62
     7
370
     9
100
AcDbPolyline
 90
        4
 70
     1
 43
3.0
 10
-3091.500018557985
 20
1168.000148463893
 42
0.4142135623731
 10
-3093.000018557985
 20
1169.500148463893
 42
0.4142135623731
 10
-3094.500018557985
 20
1168.000148463893
 42
0.4142135623731
 10
-3093.000018557985
 20
1166.500148463893
 42
0.4142135623731
  0
LWPOLYLINE
  5
2DD
330
1F
100
AcDbEntity
  8
0-B_寸法
  6
Continuous
 62
     7
370
     9
100
AcDbPolyline
 90
        4
 70
     1
 43
3.0
 10
-3991.500018557985
 20
1168.000148463893
 42
0.4142135623731
 10
-3993.000018557985
 20
1169.500148463893
 42
0.4142135623731
 10
-3994.500018557985
 20
1168.000148463893
 42
0.4142135623731
 10
-3993.000018557985
 20
1166.500148463893
 42
0.4142135623731
  0
MTEXT
  5
2DE
330
1F
100
AcDbEntity
  8
0-B_寸法
  6
Continuous
 62
     7
370
    70
100
AcDbMText
 10
-5155.000018557986
 20
2220.325148463894
 30
0.0
 40
57.14999999999999
 41
412.5
 46
0.0
 71
     7
 72
     1
  1
{\fＭＳ ゴシック|b0|i0|c128|p49;ＤＨ＝1,983}
 11
6.123031769111886E-17
 21
1.0
 31
0.0
 73
     1
 44
1.0
  0
MTEXT
  5
2DF
330
1F
100
AcDbEntity
  8
0-B_寸法
  6
Continuous
 62
     7
370
   211
100
AcDbMText
 10
-3711.750018557983
 20
1174.075148463893
 30
0.0
 40
57.15
 41
337.5
 46
0.0
 71
     7
 72
     1
  1
{\fＭＳ ゴシック|b0|i0|c128|p49;ＤＷ＝900}
 73
     1
 44
1.0
  0
LINE
  5
2E0
330
1F
100
AcDbEntity
  8
0-4_枠
  6
Continuous
 62
    92
370
    13
100
AcDbLine
 10
-4890.000018557986
 20
1418.000148463893
 30
0.0
 11
-4890.000018557986
 21
3465.000148463894
 31
0.0
  0
LINE
  5
2E1
330
1F
100
AcDbEntity
  8
0-4_枠
  6
Continuous
 62
    92
370
    13
100
AcDbLine
 10
-4860.000018557986
 20
1418.000148463893
 30
0.0
 11
-4860.000018557986
 21
3435.000148463894
 31
0.0
  0
LINE
  5
2E2
330
1F
100
AcDbEntity
  8
0-4_枠
  6
Continuous
 62
    92
370
    13
100
AcDbLine
 10
-3066.000018557984
 20
1418.000148463893
 30
0.0
 11
-3066.000018557984
 21
3465.000148463894
 31
0.0
  0
LINE
  5
2E3
330
1F
100
AcDbEntity
  8
0-4_枠
  6
Continuous
 62
    92
370
    13
100
AcDbLine
 10
-3096.000018557984
 20
1418.000148463893
 30
0.0
 11
-3096.000018557984
 21
3435.000148463894
 31
0.0
  0
LINE
  5
2E4
330
1F
100
AcDbEntity
  8
0-4_枠
  6
Continuous
 62
    92
370
    13
100
AcDbLine
 10
-4860.000018557986
 20
3435.000148463894
 30
0.0
 11
-3096.000018557984
 21
3435.000148463894
 31
0.0
  0
LINE
  5
2E5
330
1F
100
AcDbEntity
  8
0-4_枠
  6
Continuous
 62
    92
370
    13
100
AcDbLine
 10
-4890.000018557986
 20
3465.000148463894
 30
0.0
 11
-3066.000018557984
 21
3465.000148463894
 31
0.0
  0
LINE
  5
2E6
330
1F
100
AcDbEntity
  8
0-3_仕上げ
  6
Continuous
 62
     7
370
     9
100
AcDbLine
 10
-3221.000018557984
 20
1438.000148463894
 30
0.0
 11
-3221.000018557984
 21
3421.000148463895
 31
0.0
  0
LINE
  5
2E7
330
1F
100
AcDbEntity
  8
0-3_仕上げ
  6
Continuous
 62
     7
370
     9
100
AcDbLine
 10
-3865.000018557985
 20
1438.000148463894
 30
0.0
 11
-3865.000018557985
 21
3421.000148463895
 31
0.0
  0
LINE
  5
2E8
330
1F
100
AcDbEntity
  8
0-3_仕上げ
  6
Continuous
 62
     7
370
     9
100
AcDbLine
 10
-3222.500018557987
 20
1438.000148463894
 30
0.0
 11
-3222.500018557987
 21
1635.500148463894
 31
0.0
  0
LINE
  5
2E9
330
1F
100
AcDbEntity
  8
0-3_仕上げ
  6
Continuous
 62
     7
370
     9
100
AcDbLine
 10
-3224.000018557985
 20
1438.000148463894
 30
0.0
 11
-3224.000018557985
 21
1634.000148463893
 31
0.0
  0
LINE
  5
2EA
330
1F
100
AcDbEntity
  8
0-3_仕上げ
  6
Continuous
 62
     7
370
     9
100
AcDbLine
 10
-3225.000018557984
 20
1638.000148463893
 30
0.0
 11
-3222.500018557987
 21
1635.500148463894
 31
0.0
  0
LINE
  5
2EB
330
1F
100
AcDbEntity
  8
0-3_仕上げ
  6
Continuous
 62
     7
370
     9
100
AcDbLine
 10
-3224.000018557985
 20
1634.000148463893
 30
0.0
 11
-3222.500018557987
 21
1635.500148463894
 31
0.0
  0
LINE
  5
2EC
330
1F
100
AcDbEntity
  8
0-3_仕上げ
  6
Continuous
 62
     7
370
     9
100
AcDbLine
 10
-3863.500018557983
 20
1438.000148463894
 30
0.0
 11
-3863.500018557983
 21
1635.500148463894
 31
0.0
  0
LINE
  5
2ED
330
1F
100
AcDbEntity
  8
0-3_仕上げ
  6
Continuous
 62
     7
370
     9
100
AcDbLine
 10
-3862.000018557985
 20
1438.000148463894
 30
0.0
 11
-3862.000018557985
 21
1634.000148463893
 31
0.0
  0
LINE
  5
2EE
330
1F
100
AcDbEntity
  8
0-3_仕上げ
  6
Continuous
 62
     7
370
     9
100
AcDbLine
 10
-3863.500018557983
 20
1635.500148463894
 30
0.0
 11
-3861.000018557986
 21
1638.000148463893
 31
0.0
  0
LINE
  5
2EF
330
1F
100
AcDbEntity
  8
0-3_仕上げ
  6
Continuous
 62
     7
370
     9
100
AcDbLine
 10
-3862.000018557985
 20
1634.000148463893
 30
0.0
 11
-3863.500018557983
 21
1635.500148463894
 31
0.0
  0
LINE
  5
2F0
330
1F
100
AcDbEntity
  8
0-3_仕上げ
  6
Continuous
 62
     7
370
     9
100
AcDbLine
 10
-3224.000018557985
 20
1634.000148463893
 30
0.0
 11
-3862.000018557985
 21
1634.000148463893
 31
0.0
  0
LINE
  5
2F1
330
1F
100
AcDbEntity
  8
0-3_仕上げ
  6
Continuous
 62
    92
370
    13
100
AcDbLine
 10
-3225.000018557984
 20
1638.000148463893
 30
0.0
 11
-3861.000018557986
 21
1638.000148463893
 31
0.0
  0
LINE
  5
2F2
330
1F
100
AcDbEntity
  8
0-3_仕上げ
  6
Continuous
 62
    92
370
    13
100
AcDbLine
 10
-3225.000018557984
 20
2313.000148463894
 30
0.0
 11
-3225.000018557984
 21
3271.000148463894
 31
0.0
  0
LINE
  5
2F3
330
1F
100
AcDbEntity
  8
0-3_仕上げ
  6
Continuous
 62
     7
370
     9
100
AcDbLine
 10
-3224.000018557985
 20
3275.000148463893
 30
0.0
 11
-3222.500018557987
 21
3273.500148463893
 31
0.0
  0
LINE
  5
2F4
330
1F
100
AcDbEntity
  8
0-3_仕上げ
  6
Continuous
 62
     7
370
     9
100
AcDbLine
 10
-3222.500018557987
 20
3273.500148463893
 30
0.0
 11
-3225.000018557984
 21
3271.000148463894
 31
0.0
  0
LINE
  5
2F5
330
1F
100
AcDbEntity
  8
0-3_仕上げ
  6
Continuous
 62
     7
370
     9
100
AcDbLine
 10
-3224.000018557985
 20
2309.000148463894
 30
0.0
 11
-3222.500018557987
 21
2310.500148463894
 31
0.0
  0
LINE
  5
2F6
330
1F
100
AcDbEntity
  8
0-3_仕上げ
  6
Continuous
 62
     7
370
     9
100
AcDbLine
 10
-3225.000018557984
 20
2313.000148463894
 30
0.0
 11
-3222.500018557987
 21
2310.500148463894
 31
0.0
  0
LINE
  5
2F7
330
1F
100
AcDbEntity
  8
0-3_仕上げ
  6
Continuous
 62
     7
370
     9
100
AcDbLine
 10
-3224.000018557985
 20
3275.000148463893
 30
0.0
 11
-3224.000018557985
 21
3421.000148463895
 31
0.0
  0
LINE
  5
2F8
330
1F
100
AcDbEntity
  8
0-3_仕上げ
  6
Continuous
 62
     7
370
     9
100
AcDbLine
 10
-3222.500018557987
 20
3273.500148463893
 30
0.0
 11
-3222.500018557987
 21
3421.000148463895
 31
0.0
  0
LINE
  5
2F9
330
1F
100
AcDbEntity
  8
0-3_仕上げ
  6
Continuous
 62
    92
370
    13
100
AcDbLine
 10
-3861.000018557986
 20
2313.000148463894
 30
0.0
 11
-3861.000018557986
 21
3271.000148463894
 31
0.0
  0
LINE
  5
2FA
330
1F
100
AcDbEntity
  8
0-3_仕上げ
  6
Continuous
 62
    92
370
    13
100
AcDbLine
 10
-3225.000018557984
 20
3271.000148463894
 30
0.0
 11
-3861.000018557986
 21
3271.000148463894
 31
0.0
  0
LINE
  5
2FB
330
1F
100
AcDbEntity
  8
0-3_仕上げ
  6
Continuous
 62
    92
370
    13
100
AcDbLine
 10
-3225.000018557984
 20
2313.000148463894
 30
0.0
 11
-3861.000018557986
 21
2313.000148463894
 31
0.0
  0
LINE
  5
2FC
330
1F
100
AcDbEntity
  8
0-3_仕上げ
  6
Continuous
 62
     7
370
     9
100
AcDbLine
 10
-3862.000018557985
 20
3275.000148463893
 30
0.0
 11
-3863.500018557983
 21
3273.500148463893
 31
0.0
  0
LINE
  5
2FD
330
1F
100
AcDbEntity
  8
0-3_仕上げ
  6
Continuous
 62
     7
370
     9
100
AcDbLine
 10
-3861.000018557986
 20
3271.000148463894
 30
0.0
 11
-3863.500018557983
 21
3273.500148463893
 31
0.0
  0
LINE
  5
2FE
330
1F
100
AcDbEntity
  8
0-3_仕上げ
  6
Continuous
 62
     7
370
     9
100
AcDbLine
 10
-3224.000018557985
 20
3275.000148463893
 30
0.0
 11
-3862.000018557985
 21
3275.000148463893
 31
0.0
  0
LINE
  5
2FF
330
1F
100
AcDbEntity
  8
0-3_仕上げ
  6
Continuous
 62
     7
370
     9
100
AcDbLine
 10
-3224.000018557985
 20
2309.000148463894
 30
0.0
 11
-3862.000018557985
 21
2309.000148463894
 31
0.0
  0
LINE
  5
300
330
1F
100
AcDbEntity
  8
0-3_仕上げ
  6
Continuous
 62
     7
370
     9
100
AcDbLine
 10
-3862.000018557985
 20
2309.000148463894
 30
0.0
 11
-3863.500018557983
 21
2310.500148463894
 31
0.0
  0
LINE
  5
301
330
1F
100
AcDbEntity
  8
0-3_仕上げ
  6
Continuous
 62
     7
370
     9
100
AcDbLine
 10
-3863.500018557983
 20
2310.500148463894
 30
0.0
 11
-3861.000018557986
 21
2313.000148463894
 31
0.0
  0
LINE
  5
302
330
1F
100
AcDbEntity
  8
0-3_仕上げ
  6
Continuous
 62
     7
370
     9
100
AcDbLine
 10
-3863.500018557983
 20
3273.500148463893
 30
0.0
 11
-3863.500018557983
 21
3421.000148463895
 31
0.0
  0
LINE
  5
303
330
1F
100
AcDbEntity
  8
0-3_仕上げ
  6
Continuous
 62
     7
370
     9
100
AcDbLine
 10
-3862.000018557985
 20
3275.000148463893
 30
0.0
 11
-3862.000018557985
 21
3421.000148463895
 31
0.0
  0
ARC
  5
304
330
1F
100
AcDbEntity
  8
0-3_仕上げ
  6
JWW_CENTER1
 62
   120
370
     5
100
AcDbCircle
 10
-3752.878213924909
 20
2521.821368112185
 30
0.0
 40
60.0
100
AcDbArc
 50
305.5422590305548
 51
356.3485327712913
  0
ARC
  5
305
330
1F
100
AcDbEntity
  8
0-3_仕上げ
  6
Continuous
 62
   120
370
     5
100
AcDbCircle
 10
-3752.878213924909
 20
2521.821368112185
 30
0.0
 40
57.0
100
AcDbArc
 50
306.497670255926
 51
356.2536402876231
  0
ARC
  5
306
330
1F
100
AcDbEntity
  8
0-3_仕上げ
  6
JWW_CENTER1
 62
   120
370
     5
100
AcDbCircle
 10
-3752.878213924909
 20
2424.178928815601
 30
0.0
 40
60.0
100
AcDbArc
 50
3.651467228708674
 51
54.45774096944522
  0
ARC
  5
307
330
1F
100
AcDbEntity
  8
0-3_仕上げ
  6
Continuous
 62
   120
370
     5
100
AcDbCircle
 10
-3752.878213924909
 20
2424.178928815601
 30
0.0
 40
57.0
100
AcDbArc
 50
3.74635971237695
 51
53.50232974407398
  0
ARC
  5
308
330
1F
100
AcDbEntity
  8
0-3_仕上げ
  6
Continuous
 62
   120
370
     5
100
AcDbCircle
 10
-3752.878213924909
 20
3072.178928815604
 30
0.0
 40
57.0
100
AcDbArc
 50
3.746359712376933
 51
53.50232974407399
  0
ARC
  5
309
330
1F
100
AcDbEntity
  8
0-3_仕上げ
  6
JWW_CENTER1
 62
   120
370
     5
100
AcDbCircle
 10
-3752.878213924909
 20
3072.178928815604
 30
0.0
 40
60.0
100
AcDbArc
 50
3.651467228709083
 51
54.45774096944522
  0
ARC
  5
30A
330
1F
100
AcDbEntity
  8
0-3_仕上げ
  6
JWW_CENTER1
 62
   120
370
     5
100
AcDbCircle
 10
-3752.878213924909
 20
3169.821368112185
 30
0.0
 40
60.0
100
AcDbArc
 50
305.5422590305548
 51
356.3485327712909
  0
ARC
  5
30B
330
1F
100
AcDbEntity
  8
0-3_仕上げ
  6
Continuous
 62
   120
370
     5
100
AcDbCircle
 10
-3752.878213924909
 20
3169.821368112185
 30
0.0
 40
57.0
100
AcDbArc
 50
306.497670255926
 51
356.3485327712909
  0
ARC
  5
30C
330
1F
100
AcDbEntity
  8
0-3_仕上げ
  6
Continuous
 62
   120
370
     5
100
AcDbCircle
 10
-3333.121823191062
 20
3169.821368112185
 30
0.0
 40
57.0
100
AcDbArc
 50
183.6514672287091
 51
233.502329744074
  0
ARC
  5
30D
330
1F
100
AcDbEntity
  8
0-3_仕上げ
  6
Continuous
 62
   120
370
     5
100
AcDbCircle
 10
-3333.121823191062
 20
3072.178928815604
 30
0.0
 40
57.0
100
AcDbArc
 50
126.497670255926
 51
176.2536402876275
  0
LINE
  5
30E
330
1F
100
AcDbEntity
  8
0-3_仕上げ
  6
JWW_CENTER1
 62
   120
370
     5
100
AcDbLine
 10
-3393.000018557983
 20
2313.000148463894
 30
0.0
 11
-3393.000018557983
 21
2428.000148463894
 31
0.0
  0
ARC
  5
30F
330
1F
100
AcDbEntity
  8
0-3_仕上げ
  6
JWW_CENTER1
 62
   120
370
     5
100
AcDbCircle
 10
-3333.121823191062
 20
2424.178928815601
 30
0.0
 40
60.0
100
AcDbArc
 50
125.5422590305548
 51
176.348532771291
  0
LINE
  5
310
330
1F
100
AcDbEntity
  8
0-3_仕上げ
  6
Continuous
 62
   120
370
     5
100
AcDbLine
 10
-3390.000018557982
 20
2313.000148463894
 30
0.0
 11
-3390.000018557982
 21
2427.903293432824
 31
0.0
  0
ARC
  5
311
330
1F
100
AcDbEntity
  8
0-3_仕上げ
  6
Continuous
 62
   120
370
     5
100
AcDbCircle
 10
-3333.121823191062
 20
2424.178928815601
 30
0.0
 40
57.0
100
AcDbArc
 50
126.497670255926
 51
176.2536402876256
  0
ARC
  5
312
330
1F
100
AcDbEntity
  8
0-3_仕上げ
  6
Continuous
 62
   120
370
     5
100
AcDbCircle
 10
-3333.121823191062
 20
2521.821368112185
 30
0.0
 40
57.0
100
AcDbArc
 50
183.7463597123748
 51
233.502329744074
  0
LINE
  5
313
330
1F
100
AcDbEntity
  8
0-3_仕上げ
  6
Continuous
 62
   120
370
     5
100
AcDbLine
 10
-3390.000018557982
 20
2518.097003494962
 30
0.0
 11
-3390.000018557982
 21
3075.903293432826
 31
0.0
  0
ARC
  5
314
330
1F
100
AcDbEntity
  8
0-3_仕上げ
  6
JWW_CENTER1
 62
   120
370
     5
100
AcDbCircle
 10
-3452.878213924909
 20
2521.821368112185
 30
0.0
 40
60.0
100
AcDbArc
 50
305.5422590305548
 51
356.3485327712913
  0
LINE
  5
315
330
1F
100
AcDbEntity
  8
0-3_仕上げ
  6
JWW_CENTER1
 62
   120
370
     5
100
AcDbLine
 10
-3393.000018557983
 20
2518.000148463896
 30
0.0
 11
-3393.000018557983
 21
3076.000148463893
 31
0.0
  0
LINE
  5
316
330
1F
100
AcDbEntity
  8
0-3_仕上げ
  6
Continuous
 62
   120
370
     5
100
AcDbLine
 10
-3396.000018557984
 20
2313.000148463894
 30
0.0
 11
-3396.000018557984
 21
2427.903293432827
 31
0.0
  0
ARC
  5
317
330
1F
100
AcDbEntity
  8
0-3_仕上げ
  6
Continuous
 62
   120
370
     5
100
AcDbCircle
 10
-3452.878213924909
 20
2424.178928815601
 30
0.0
 40
57.0
100
AcDbArc
 50
3.74635971237695
 51
53.50232974407399
  0
LINE
  5
318
330
1F
100
AcDbEntity
  8
0-3_仕上げ
  6
Continuous
 62
   120
370
     5
100
AcDbLine
 10
-3396.000018557984
 20
2518.097003494959
 30
0.0
 11
-3396.000018557984
 21
3075.90329343283
 31
0.0
  0
ARC
  5
319
330
1F
100
AcDbEntity
  8
0-3_仕上げ
  6
Continuous
 62
   120
370
     5
100
AcDbCircle
 10
-3452.878213924909
 20
2521.821368112185
 30
0.0
 40
57.0
100
AcDbArc
 50
306.497670255926
 51
356.2536402876231
  0
ARC
  5
31A
330
1F
100
AcDbEntity
  8
0-3_仕上げ
  6
JWW_CENTER1
 62
   120
370
     5
100
AcDbCircle
 10
-3452.878213924909
 20
2424.178928815601
 30
0.0
 40
60.0
100
AcDbArc
 50
3.651467228708674
 51
54.45774096944522
  0
ARC
  5
31B
330
1F
100
AcDbEntity
  8
0-3_仕上げ
  6
Continuous
 62
   120
370
     5
100
AcDbCircle
 10
-3452.878213924909
 20
2424.178928815601
 30
0.0
 40
63.0
100
AcDbArc
 50
18.11257084805418
 51
50.79959257815202
  0
ARC
  5
31C
330
1F
100
AcDbEntity
  8
0-3_仕上げ
  6
Continuous
 62
   120
370
     5
100
AcDbCircle
 10
-3452.878213924909
 20
2521.821368112185
 30
0.0
 40
63.0
100
AcDbArc
 50
309.200407421848
 51
341.8874291519458
  0
ARC
  5
31D
330
1F
100
AcDbEntity
  8
0-3_仕上げ
  6
Continuous
 62
   120
370
     5
100
AcDbCircle
 10
-3333.121823191062
 20
2521.821368112185
 30
0.0
 40
63.0
100
AcDbArc
 50
198.1125708480542
 51
230.799592578152
  0
ARC
  5
31E
330
1F
100
AcDbEntity
  8
0-3_仕上げ
  6
Continuous
 62
   120
370
     5
100
AcDbCircle
 10
-3333.121823191062
 20
2424.178928815601
 30
0.0
 40
63.0
100
AcDbArc
 50
129.200407421848
 51
161.8874291519458
  0
ARC
  5
31F
330
1F
100
AcDbEntity
  8
0-3_仕上げ
  6
JWW_CENTER1
 62
   120
370
     5
100
AcDbCircle
 10
-3333.121823191062
 20
2521.821368112185
 30
0.0
 40
60.0
100
AcDbArc
 50
183.6514672287091
 51
234.4577409694452
  0
ARC
  5
320
330
1F
100
AcDbEntity
  8
0-3_仕上げ
  6
JWW_CENTER1
 62
   120
370
     5
100
AcDbCircle
 10
-3452.878213924909
 20
3072.178928815604
 30
0.0
 40
60.0
100
AcDbArc
 50
3.651467228708674
 51
54.45774096944522
  0
ARC
  5
321
330
1F
100
AcDbEntity
  8
0-3_仕上げ
  6
Continuous
 62
   120
370
     5
100
AcDbCircle
 10
-3452.878213924909
 20
3072.178928815604
 30
0.0
 40
57.0
100
AcDbArc
 50
3.746359712376933
 51
53.50232974407399
  0
LINE
  5
322
330
1F
100
AcDbEntity
  8
0-3_仕上げ
  6
Continuous
 62
   120
370
     5
100
AcDbLine
 10
-3390.000018557982
 20
3166.097003494963
 30
0.0
 11
-3390.000018557982
 21
3271.000148463893
 31
0.0
  0
ARC
  5
323
330
1F
100
AcDbEntity
  8
0-3_仕上げ
  6
JWW_CENTER1
 62
   120
370
     5
100
AcDbCircle
 10
-3452.878213924909
 20
3169.821368112185
 30
0.0
 40
60.0
100
AcDbArc
 50
305.5422590305548
 51
356.3485327712913
  0
LINE
  5
324
330
1F
100
AcDbEntity
  8
0-3_仕上げ
  6
JWW_CENTER1
 62
   120
370
     5
100
AcDbLine
 10
-3393.000018557983
 20
3166.000148463893
 30
0.0
 11
-3393.000018557983
 21
3271.000148463893
 31
0.0
  0
LINE
  5
325
330
1F
100
AcDbEntity
  8
0-3_仕上げ
  6
Continuous
 62
   120
370
     5
100
AcDbLine
 10
-3396.000018557984
 20
3166.09700349496
 30
0.0
 11
-3396.000018557984
 21
3271.000148463893
 31
0.0
  0
ARC
  5
326
330
1F
100
AcDbEntity
  8
0-3_仕上げ
  6
Continuous
 62
   120
370
     5
100
AcDbCircle
 10
-3452.878213924909
 20
3169.821368112185
 30
0.0
 40
57.0
100
AcDbArc
 50
306.497670255926
 51
356.2536402876231
  0
ARC
  5
327
330
1F
100
AcDbEntity
  8
0-3_仕上げ
  6
Continuous
 62
   120
370
     5
100
AcDbCircle
 10
-3452.878213924909
 20
3072.178928815604
 30
0.0
 40
63.0
100
AcDbArc
 50
18.11257084805418
 51
50.79959257815202
  0
ARC
  5
328
330
1F
100
AcDbEntity
  8
0-3_仕上げ
  6
Continuous
 62
   120
370
     5
100
AcDbCircle
 10
-3452.878213924909
 20
3169.821368112185
 30
0.0
 40
63.0
100
AcDbArc
 50
309.200407421848
 51
341.8874291519458
  0
ARC
  5
329
330
1F
100
AcDbEntity
  8
0-3_仕上げ
  6
Continuous
 62
   120
370
     5
100
AcDbCircle
 10
-3333.121823191062
 20
3169.821368112185
 30
0.0
 40
63.0
100
AcDbArc
 50
198.1125708480542
 51
230.799592578152
  0
ARC
  5
32A
330
1F
100
AcDbEntity
  8
0-3_仕上げ
  6
Continuous
 62
   120
370
     5
100
AcDbCircle
 10
-3333.121823191062
 20
3072.178928815604
 30
0.0
 40
63.0
100
AcDbArc
 50
129.200407421848
 51
161.8874291519458
  0
ARC
  5
32B
330
1F
100
AcDbEntity
  8
0-3_仕上げ
  6
JWW_CENTER1
 62
   120
370
     5
100
AcDbCircle
 10
-3333.121823191062
 20
3072.178928815604
 30
0.0
 40
60.0
100
AcDbArc
 50
125.5422590305548
 51
176.3485327712908
  0
ARC
  5
32C
330
1F
100
AcDbEntity
  8
0-3_仕上げ
  6
JWW_CENTER1
 62
   120
370
     5
100
AcDbCircle
 10
-3333.121823191062
 20
3169.821368112185
 30
0.0
 40
60.0
100
AcDbArc
 50
183.6514672287091
 51
234.4577409694452
  0
ARC
  5
32D
330
1F
100
AcDbEntity
  8
0-3_仕上げ
  6
Continuous
 62
   120
370
     5
100
AcDbCircle
 10
-3433.121823191059
 20
3169.821368112185
 30
0.0
 40
57.0
100
AcDbArc
 50
183.6514672287091
 51
233.502329744074
  0
ARC
  5
32E
330
1F
100
AcDbEntity
  8
0-3_仕上げ
  6
Continuous
 62
   120
370
     5
100
AcDbCircle
 10
-3433.121823191059
 20
3072.178928815604
 30
0.0
 40
57.0
100
AcDbArc
 50
126.497670255926
 51
176.2536402876275
  0
LINE
  5
32F
330
1F
100
AcDbEntity
  8
0-3_仕上げ
  6
JWW_CENTER1
 62
   120
370
     5
100
AcDbLine
 10
-3468.000018557983
 20
3121.000148463893
 30
0.0
 11
-3418.000018557984
 21
3121.000148463893
 31
0.0
  0
LINE
  5
330
330
1F
100
AcDbEntity
  8
0-3_仕上げ
  6
Continuous
 62
   120
370
     5
100
AcDbLine
 10
-3467.024858895008
 20
3124.000148463893
 30
0.0
 11
-3418.975178220962
 21
3124.000148463893
 31
0.0
  0
LINE
  5
331
330
1F
100
AcDbEntity
  8
0-3_仕上げ
  6
Continuous
 62
   120
370
     5
100
AcDbLine
 10
-3467.024858895008
 20
3118.000148463896
 30
0.0
 11
-3418.975178220962
 21
3118.000148463896
 31
0.0
  0
LINE
  5
332
330
1F
100
AcDbEntity
  8
0-3_仕上げ
  6
JWW_CENTER1
 62
   120
370
     5
100
AcDbLine
 10
-3493.000018557984
 20
2313.000148463894
 30
0.0
 11
-3493.000018557984
 21
2428.000148463894
 31
0.0
  0
ARC
  5
333
330
1F
100
AcDbEntity
  8
0-3_仕上げ
  6
JWW_CENTER1
 62
   120
370
     5
100
AcDbCircle
 10
-3433.121823191059
 20
2424.178928815601
 30
0.0
 40
60.0
100
AcDbArc
 50
125.5422590305548
 51
176.348532771291
  0
LINE
  5
334
330
1F
100
AcDbEntity
  8
0-3_仕上げ
  6
Continuous
 62
   120
370
     5
100
AcDbLine
 10
-3490.000018557984
 20
2313.000148463894
 30
0.0
 11
-3490.000018557984
 21
2427.903293432824
 31
0.0
  0
ARC
  5
335
330
1F
100
AcDbEntity
  8
0-3_仕上げ
  6
Continuous
 62
   120
370
     5
100
AcDbCircle
 10
-3433.121823191059
 20
2424.178928815601
 30
0.0
 40
57.0
100
AcDbArc
 50
126.497670255926
 51
176.2536402876256
  0
ARC
  5
336
330
1F
100
AcDbEntity
  8
0-3_仕上げ
  6
Continuous
 62
   120
370
     5
100
AcDbCircle
 10
-3433.121823191059
 20
2521.821368112185
 30
0.0
 40
57.0
100
AcDbArc
 50
183.7463597123748
 51
233.502329744074
  0
LINE
  5
337
330
1F
100
AcDbEntity
  8
0-3_仕上げ
  6
Continuous
 62
   120
370
     5
100
AcDbLine
 10
-3490.000018557984
 20
2518.097003494962
 30
0.0
 11
-3490.000018557984
 21
3075.903293432826
 31
0.0
  0
ARC
  5
338
330
1F
100
AcDbEntity
  8
0-3_仕上げ
  6
JWW_CENTER1
 62
   120
370
     5
100
AcDbCircle
 10
-3552.87821392491
 20
2521.821368112185
 30
0.0
 40
60.0
100
AcDbArc
 50
305.5422590305548
 51
356.3485327712913
  0
LINE
  5
339
330
1F
100
AcDbEntity
  8
0-3_仕上げ
  6
JWW_CENTER1
 62
   120
370
     5
100
AcDbLine
 10
-3493.000018557984
 20
2518.000148463896
 30
0.0
 11
-3493.000018557984
 21
3076.000148463893
 31
0.0
  0
LINE
  5
33A
330
1F
100
AcDbEntity
  8
0-3_仕上げ
  6
Continuous
 62
   120
370
     5
100
AcDbLine
 10
-3467.024858895008
 20
2476.000148463893
 30
0.0
 11
-3418.975178220962
 21
2476.000148463893
 31
0.0
  0
LINE
  5
33B
330
1F
100
AcDbEntity
  8
0-3_仕上げ
  6
JWW_CENTER1
 62
   120
370
     5
100
AcDbLine
 10
-3468.000018557983
 20
2473.000148463892
 30
0.0
 11
-3418.000018557984
 21
2473.000148463892
 31
0.0
  0
LINE
  5
33C
330
1F
100
AcDbEntity
  8
0-3_仕上げ
  6
Continuous
 62
   120
370
     5
100
AcDbLine
 10
-3467.024858895008
 20
2470.000148463895
 30
0.0
 11
-3418.975178220962
 21
2470.000148463895
 31
0.0
  0
LINE
  5
33D
330
1F
100
AcDbEntity
  8
0-3_仕上げ
  6
Continuous
 62
   120
370
     5
100
AcDbLine
 10
-3496.000018557985
 20
2313.000148463894
 30
0.0
 11
-3496.000018557985
 21
2427.903293432827
 31
0.0
  0
ARC
  5
33E
330
1F
100
AcDbEntity
  8
0-3_仕上げ
  6
Continuous
 62
   120
370
     5
100
AcDbCircle
 10
-3552.87821392491
 20
2424.178928815601
 30
0.0
 40
57.0
100
AcDbArc
 50
3.74635971237695
 51
53.50232974407399
  0
LINE
  5
33F
330
1F
100
AcDbEntity
  8
0-3_仕上げ
  6
Continuous
 62
   120
370
     5
100
AcDbLine
 10
-3496.000018557985
 20
2518.097003494959
 30
0.0
 11
-3496.000018557985
 21
3075.90329343283
 31
0.0
  0
ARC
  5
340
330
1F
100
AcDbEntity
  8
0-3_仕上げ
  6
Continuous
 62
   120
370
     5
100
AcDbCircle
 10
-3552.87821392491
 20
2521.821368112185
 30
0.0
 40
57.0
100
AcDbArc
 50
306.497670255926
 51
356.2536402876231
  0
ARC
  5
341
330
1F
100
AcDbEntity
  8
0-3_仕上げ
  6
JWW_CENTER1
 62
   120
370
     5
100
AcDbCircle
 10
-3552.87821392491
 20
2424.178928815601
 30
0.0
 40
60.0
100
AcDbArc
 50
3.651467228708674
 51
54.45774096944522
  0
ARC
  5
342
330
1F
100
AcDbEntity
  8
0-3_仕上げ
  6
Continuous
 62
   120
370
     5
100
AcDbCircle
 10
-3552.87821392491
 20
2424.178928815601
 30
0.0
 40
63.0
100
AcDbArc
 50
18.11257084805418
 51
50.79959257815202
  0
ARC
  5
343
330
1F
100
AcDbEntity
  8
0-3_仕上げ
  6
Continuous
 62
   120
370
     5
100
AcDbCircle
 10
-3552.87821392491
 20
2521.821368112185
 30
0.0
 40
63.0
100
AcDbArc
 50
309.200407421848
 51
341.8874291519458
  0
ARC
  5
344
330
1F
100
AcDbEntity
  8
0-3_仕上げ
  6
Continuous
 62
   120
370
     5
100
AcDbCircle
 10
-3433.121823191059
 20
2521.821368112185
 30
0.0
 40
63.0
100
AcDbArc
 50
198.1125708480542
 51
230.799592578152
  0
ARC
  5
345
330
1F
100
AcDbEntity
  8
0-3_仕上げ
  6
Continuous
 62
   120
370
     5
100
AcDbCircle
 10
-3433.121823191059
 20
2424.178928815601
 30
0.0
 40
63.0
100
AcDbArc
 50
129.200407421848
 51
161.8874291519458
  0
ARC
  5
346
330
1F
100
AcDbEntity
  8
0-3_仕上げ
  6
JWW_CENTER1
 62
   120
370
     5
100
AcDbCircle
 10
-3433.121823191059
 20
2521.821368112185
 30
0.0
 40
60.0
100
AcDbArc
 50
183.6514672287091
 51
234.4577409694452
  0
ARC
  5
347
330
1F
100
AcDbEntity
  8
0-3_仕上げ
  6
JWW_CENTER1
 62
   120
370
     5
100
AcDbCircle
 10
-3552.87821392491
 20
3072.178928815604
 30
0.0
 40
60.0
100
AcDbArc
 50
3.651467228708674
 51
54.45774096944522
  0
ARC
  5
348
330
1F
100
AcDbEntity
  8
0-3_仕上げ
  6
Continuous
 62
   120
370
     5
100
AcDbCircle
 10
-3552.87821392491
 20
3072.178928815604
 30
0.0
 40
57.0
100
AcDbArc
 50
3.746359712376933
 51
53.50232974407399
  0
LINE
  5
349
330
1F
100
AcDbEntity
  8
0-3_仕上げ
  6
Continuous
 62
   120
370
     5
100
AcDbLine
 10
-3490.000018557984
 20
3166.097003494963
 30
0.0
 11
-3490.000018557984
 21
3271.000148463893
 31
0.0
  0
ARC
  5
34A
330
1F
100
AcDbEntity
  8
0-3_仕上げ
  6
JWW_CENTER1
 62
   120
370
     5
100
AcDbCircle
 10
-3552.87821392491
 20
3169.821368112185
 30
0.0
 40
60.0
100
AcDbArc
 50
305.5422590305548
 51
356.3485327712913
  0
LINE
  5
34B
330
1F
100
AcDbEntity
  8
0-3_仕上げ
  6
JWW_CENTER1
 62
   120
370
     5
100
AcDbLine
 10
-3493.000018557984
 20
3166.000148463893
 30
0.0
 11
-3493.000018557984
 21
3271.000148463893
 31
0.0
  0
LINE
  5
34C
330
1F
100
AcDbEntity
  8
0-3_仕上げ
  6
Continuous
 62
   120
370
     5
100
AcDbLine
 10
-3496.000018557985
 20
3166.09700349496
 30
0.0
 11
-3496.000018557985
 21
3271.000148463893
 31
0.0
  0
ARC
  5
34D
330
1F
100
AcDbEntity
  8
0-3_仕上げ
  6
Continuous
 62
   120
370
     5
100
AcDbCircle
 10
-3552.87821392491
 20
3169.821368112185
 30
0.0
 40
57.0
100
AcDbArc
 50
306.497670255926
 51
356.2536402876231
  0
ARC
  5
34E
330
1F
100
AcDbEntity
  8
0-3_仕上げ
  6
Continuous
 62
   120
370
     5
100
AcDbCircle
 10
-3552.87821392491
 20
3072.178928815604
 30
0.0
 40
63.0
100
AcDbArc
 50
18.11257084805418
 51
50.79959257815202
  0
ARC
  5
34F
330
1F
100
AcDbEntity
  8
0-3_仕上げ
  6
Continuous
 62
   120
370
     5
100
AcDbCircle
 10
-3552.87821392491
 20
3169.821368112185
 30
0.0
 40
63.0
100
AcDbArc
 50
309.200407421848
 51
341.8874291519458
  0
ARC
  5
350
330
1F
100
AcDbEntity
  8
0-3_仕上げ
  6
Continuous
 62
   120
370
     5
100
AcDbCircle
 10
-3433.121823191059
 20
3169.821368112185
 30
0.0
 40
63.0
100
AcDbArc
 50
198.1125708480542
 51
230.799592578152
  0
ARC
  5
351
330
1F
100
AcDbEntity
  8
0-3_仕上げ
  6
Continuous
 62
   120
370
     5
100
AcDbCircle
 10
-3433.121823191059
 20
3072.178928815604
 30
0.0
 40
63.0
100
AcDbArc
 50
129.200407421848
 51
161.8874291519458
  0
ARC
  5
352
330
1F
100
AcDbEntity
  8
0-3_仕上げ
  6
JWW_CENTER1
 62
   120
370
     5
100
AcDbCircle
 10
-3433.121823191059
 20
3072.178928815604
 30
0.0
 40
60.0
100
AcDbArc
 50
125.5422590305548
 51
176.3485327712908
  0
ARC
  5
353
330
1F
100
AcDbEntity
  8
0-3_仕上げ
  6
JWW_CENTER1
 62
   120
370
     5
100
AcDbCircle
 10
-3433.121823191059
 20
3169.821368112185
 30
0.0
 40
60.0
100
AcDbArc
 50
183.6514672287091
 51
234.4577409694452
  0
ARC
  5
354
330
1F
100
AcDbEntity
  8
0-3_仕上げ
  6
Continuous
 62
   120
370
     5
100
AcDbCircle
 10
-3533.12182319106
 20
3169.821368112185
 30
0.0
 40
57.0
100
AcDbArc
 50
183.6514672287091
 51
233.502329744074
  0
ARC
  5
355
330
1F
100
AcDbEntity
  8
0-3_仕上げ
  6
Continuous
 62
   120
370
     5
100
AcDbCircle
 10
-3533.12182319106
 20
3072.178928815604
 30
0.0
 40
57.0
100
AcDbArc
 50
126.497670255926
 51
176.2536402876275
  0
LINE
  5
356
330
1F
100
AcDbEntity
  8
0-3_仕上げ
  6
JWW_CENTER1
 62
   120
370
     5
100
AcDbLine
 10
-3568.000018557984
 20
3121.000148463893
 30
0.0
 11
-3518.000018557986
 21
3121.000148463893
 31
0.0
  0
LINE
  5
357
330
1F
100
AcDbEntity
  8
0-3_仕上げ
  6
Continuous
 62
   120
370
     5
100
AcDbLine
 10
-3567.024858895006
 20
3124.000148463893
 30
0.0
 11
-3518.97517822096
 21
3124.000148463893
 31
0.0
  0
LINE
  5
358
330
1F
100
AcDbEntity
  8
0-3_仕上げ
  6
Continuous
 62
   120
370
     5
100
AcDbLine
 10
-3567.024858895006
 20
3118.000148463896
 30
0.0
 11
-3518.97517822096
 21
3118.000148463896
 31
0.0
  0
LINE
  5
359
330
1F
100
AcDbEntity
  8
0-3_仕上げ
  6
JWW_CENTER1
 62
   120
370
     5
100
AcDbLine
 10
-3593.000018557986
 20
2313.000148463894
 30
0.0
 11
-3593.000018557986
 21
2428.000148463894
 31
0.0
  0
ARC
  5
35A
330
1F
100
AcDbEntity
  8
0-3_仕上げ
  6
JWW_CENTER1
 62
   120
370
     5
100
AcDbCircle
 10
-3533.12182319106
 20
2424.178928815601
 30
0.0
 40
60.0
100
AcDbArc
 50
125.5422590305548
 51
176.348532771291
  0
LINE
  5
35B
330
1F
100
AcDbEntity
  8
0-3_仕上げ
  6
Continuous
 62
   120
370
     5
100
AcDbLine
 10
-3590.000018557985
 20
2313.000148463894
 30
0.0
 11
-3590.000018557985
 21
2427.903293432824
 31
0.0
  0
ARC
  5
35C
330
1F
100
AcDbEntity
  8
0-3_仕上げ
  6
Continuous
 62
   120
370
     5
100
AcDbCircle
 10
-3533.12182319106
 20
2424.178928815601
 30
0.0
 40
57.0
100
AcDbArc
 50
126.497670255926
 51
176.2536402876256
  0
ARC
  5
35D
330
1F
100
AcDbEntity
  8
0-3_仕上げ
  6
Continuous
 62
   120
370
     5
100
AcDbCircle
 10
-3533.12182319106
 20
2521.821368112185
 30
0.0
 40
57.0
100
AcDbArc
 50
183.7463597123748
 51
233.502329744074
  0
LINE
  5
35E
330
1F
100
AcDbEntity
  8
0-3_仕上げ
  6
Continuous
 62
   120
370
     5
100
AcDbLine
 10
-3590.000018557985
 20
2518.097003494962
 30
0.0
 11
-3590.000018557985
 21
3075.903293432826
 31
0.0
  0
ARC
  5
35F
330
1F
100
AcDbEntity
  8
0-3_仕上げ
  6
JWW_CENTER1
 62
   120
370
     5
100
AcDbCircle
 10
-3652.878213924907
 20
2521.821368112185
 30
0.0
 40
60.0
100
AcDbArc
 50
305.5422590305548
 51
356.3485327712913
  0
LINE
  5
360
330
1F
100
AcDbEntity
  8
0-3_仕上げ
  6
JWW_CENTER1
 62
   120
370
     5
100
AcDbLine
 10
-3593.000018557986
 20
2518.000148463896
 30
0.0
 11
-3593.000018557986
 21
3076.000148463893
 31
0.0
  0
LINE
  5
361
330
1F
100
AcDbEntity
  8
0-3_仕上げ
  6
Continuous
 62
   120
370
     5
100
AcDbLine
 10
-3567.024858895006
 20
2476.000148463893
 30
0.0
 11
-3518.97517822096
 21
2476.000148463893
 31
0.0
  0
LINE
  5
362
330
1F
100
AcDbEntity
  8
0-3_仕上げ
  6
JWW_CENTER1
 62
   120
370
     5
100
AcDbLine
 10
-3568.000018557984
 20
2473.000148463892
 30
0.0
 11
-3518.000018557986
 21
2473.000148463892
 31
0.0
  0
LINE
  5
363
330
1F
100
AcDbEntity
  8
0-3_仕上げ
  6
Continuous
 62
   120
370
     5
100
AcDbLine
 10
-3567.024858895006
 20
2470.000148463895
 30
0.0
 11
-3518.97517822096
 21
2470.000148463895
 31
0.0
  0
LINE
  5
364
330
1F
100
AcDbEntity
  8
0-3_仕上げ
  6
Continuous
 62
   120
370
     5
100
AcDbLine
 10
-3596.000018557986
 20
2313.000148463894
 30
0.0
 11
-3596.000018557986
 21
2427.903293432827
 31
0.0
  0
ARC
  5
365
330
1F
100
AcDbEntity
  8
0-3_仕上げ
  6
Continuous
 62
   120
370
     5
100
AcDbCircle
 10
-3652.878213924907
 20
2424.178928815601
 30
0.0
 40
57.0
100
AcDbArc
 50
3.74635971237695
 51
53.50232974407399
  0
LINE
  5
366
330
1F
100
AcDbEntity
  8
0-3_仕上げ
  6
Continuous
 62
   120
370
     5
100
AcDbLine
 10
-3596.000018557986
 20
2518.097003494959
 30
0.0
 11
-3596.000018557986
 21
3075.90329343283
 31
0.0
  0
ARC
  5
367
330
1F
100
AcDbEntity
  8
0-3_仕上げ
  6
Continuous
 62
   120
370
     5
100
AcDbCircle
 10
-3652.878213924907
 20
2521.821368112185
 30
0.0
 40
57.0
100
AcDbArc
 50
306.497670255926
 51
356.2536402876231
  0
ARC
  5
368
330
1F
100
AcDbEntity
  8
0-3_仕上げ
  6
JWW_CENTER1
 62
   120
370
     5
100
AcDbCircle
 10
-3652.878213924907
 20
2424.178928815601
 30
0.0
 40
60.0
100
AcDbArc
 50
3.651467228708674
 51
54.45774096944522
  0
LINE
  5
369
330
1F
100
AcDbEntity
  8
0-3_仕上げ
  6
JWW_CENTER1
 62
   120
370
     5
100
AcDbLine
 10
-3668.000018557986
 20
2473.000148463892
 30
0.0
 11
-3618.000018557983
 21
2473.000148463892
 31
0.0
  0
LINE
  5
36A
330
1F
100
AcDbEntity
  8
0-3_仕上げ
  6
Continuous
 62
   120
370
     5
100
AcDbLine
 10
-3667.024858895007
 20
2470.000148463895
 30
0.0
 11
-3618.975178220961
 21
2470.000148463895
 31
0.0
  0
LINE
  5
36B
330
1F
100
AcDbEntity
  8
0-3_仕上げ
  6
Continuous
 62
   120
370
     5
100
AcDbLine
 10
-3667.024858895007
 20
2476.000148463893
 30
0.0
 11
-3618.975178220961
 21
2476.000148463893
 31
0.0
  0
ARC
  5
36C
330
1F
100
AcDbEntity
  8
0-3_仕上げ
  6
Continuous
 62
   120
370
     5
100
AcDbCircle
 10
-3652.878213924907
 20
2424.178928815601
 30
0.0
 40
63.0
100
AcDbArc
 50
18.11257084805418
 51
50.79959257815202
  0
ARC
  5
36D
330
1F
100
AcDbEntity
  8
0-3_仕上げ
  6
Continuous
 62
   120
370
     5
100
AcDbCircle
 10
-3652.878213924907
 20
2521.821368112185
 30
0.0
 40
63.0
100
AcDbArc
 50
309.200407421848
 51
341.8874291519458
  0
ARC
  5
36E
330
1F
100
AcDbEntity
  8
0-3_仕上げ
  6
Continuous
 62
   120
370
     5
100
AcDbCircle
 10
-3533.12182319106
 20
2521.821368112185
 30
0.0
 40
63.0
100
AcDbArc
 50
198.1125708480542
 51
230.799592578152
  0
ARC
  5
36F
330
1F
100
AcDbEntity
  8
0-3_仕上げ
  6
Continuous
 62
   120
370
     5
100
AcDbCircle
 10
-3533.12182319106
 20
2424.178928815601
 30
0.0
 40
63.0
100
AcDbArc
 50
129.200407421848
 51
161.8874291519458
  0
ARC
  5
370
330
1F
100
AcDbEntity
  8
0-3_仕上げ
  6
JWW_CENTER1
 62
   120
370
     5
100
AcDbCircle
 10
-3533.12182319106
 20
2521.821368112185
 30
0.0
 40
60.0
100
AcDbArc
 50
183.6514672287091
 51
234.4577409694452
  0
ARC
  5
371
330
1F
100
AcDbEntity
  8
0-3_仕上げ
  6
Continuous
 62
   120
370
     5
100
AcDbCircle
 10
-3633.121823191061
 20
2521.821368112185
 30
0.0
 40
57.0
100
AcDbArc
 50
183.7463597123725
 51
233.502329744074
  0
LINE
  5
372
330
1F
100
AcDbEntity
  8
0-3_仕上げ
  6
Continuous
 62
   120
370
     5
100
AcDbLine
 10
-3690.000018557986
 20
2518.097003494966
 30
0.0
 11
-3690.000018557986
 21
3075.903293432823
 31
0.0
  0
LINE
  5
373
330
1F
100
AcDbEntity
  8
0-3_仕上げ
  6
JWW_CENTER1
 62
   120
370
     5
100
AcDbLine
 10
-3693.000018557983
 20
2518.000148463896
 30
0.0
 11
-3693.000018557983
 21
3076.000148463893
 31
0.0
  0
LINE
  5
374
330
1F
100
AcDbEntity
  8
0-3_仕上げ
  6
Continuous
 62
   120
370
     5
100
AcDbLine
 10
-3696.000018557984
 20
2518.097003494959
 30
0.0
 11
-3696.000018557984
 21
3075.90329343283
 31
0.0
  0
ARC
  5
375
330
1F
100
AcDbEntity
  8
0-3_仕上げ
  6
Continuous
 62
   120
370
     5
100
AcDbCircle
 10
-3633.121823191061
 20
2424.178928815601
 30
0.0
 40
57.0
100
AcDbArc
 50
126.497670255926
 51
176.2536402876274
  0
LINE
  5
376
330
1F
100
AcDbEntity
  8
0-3_仕上げ
  6
Continuous
 62
   120
370
     5
100
AcDbLine
 10
-3690.000018557986
 20
2313.000148463894
 30
0.0
 11
-3690.000018557986
 21
2427.903293432824
 31
0.0
  0
LINE
  5
377
330
1F
100
AcDbEntity
  8
0-3_仕上げ
  6
JWW_CENTER1
 62
   120
370
     5
100
AcDbLine
 10
-3693.000018557983
 20
2313.000148463894
 30
0.0
 11
-3693.000018557983
 21
2428.000148463894
 31
0.0
  0
LINE
  5
378
330
1F
100
AcDbEntity
  8
0-3_仕上げ
  6
Continuous
 62
   120
370
     5
100
AcDbLine
 10
-3696.000018557984
 20
2313.000148463894
 30
0.0
 11
-3696.000018557984
 21
2427.903293432827
 31
0.0
  0
ARC
  5
379
330
1F
100
AcDbEntity
  8
0-3_仕上げ
  6
Continuous
 62
   120
370
     5
100
AcDbCircle
 10
-3752.878213924909
 20
2424.178928815601
 30
0.0
 40
63.0
100
AcDbArc
 50
18.11257084805418
 51
50.79959257815202
  0
ARC
  5
37A
330
1F
100
AcDbEntity
  8
0-3_仕上げ
  6
Continuous
 62
   120
370
     5
100
AcDbCircle
 10
-3752.878213924909
 20
2521.821368112185
 30
0.0
 40
63.0
100
AcDbArc
 50
309.200407421848
 51
341.8874291519458
  0
ARC
  5
37B
330
1F
100
AcDbEntity
  8
0-3_仕上げ
  6
Continuous
 62
   120
370
     5
100
AcDbCircle
 10
-3633.121823191061
 20
2521.821368112185
 30
0.0
 40
63.0
100
AcDbArc
 50
198.1125708480542
 51
230.799592578152
  0
ARC
  5
37C
330
1F
100
AcDbEntity
  8
0-3_仕上げ
  6
Continuous
 62
   120
370
     5
100
AcDbCircle
 10
-3633.121823191061
 20
2424.178928815601
 30
0.0
 40
63.0
100
AcDbArc
 50
129.200407421848
 51
161.8874291519458
  0
ARC
  5
37D
330
1F
100
AcDbEntity
  8
0-3_仕上げ
  6
JWW_CENTER1
 62
   120
370
     5
100
AcDbCircle
 10
-3633.121823191061
 20
2424.178928815601
 30
0.0
 40
60.0
100
AcDbArc
 50
125.5422590305548
 51
176.3485327712908
  0
ARC
  5
37E
330
1F
100
AcDbEntity
  8
0-3_仕上げ
  6
JWW_CENTER1
 62
   120
370
     5
100
AcDbCircle
 10
-3633.121823191061
 20
2521.821368112185
 30
0.0
 40
60.0
100
AcDbArc
 50
183.6514672287091
 51
234.4577409694452
  0
ARC
  5
37F
330
1F
100
AcDbEntity
  8
0-3_仕上げ
  6
JWW_CENTER1
 62
   120
370
     5
100
AcDbCircle
 10
-3652.878213924907
 20
3072.178928815604
 30
0.0
 40
60.0
100
AcDbArc
 50
3.651467228708674
 51
54.45774096944522
  0
ARC
  5
380
330
1F
100
AcDbEntity
  8
0-3_仕上げ
  6
Continuous
 62
   120
370
     5
100
AcDbCircle
 10
-3652.878213924907
 20
3072.178928815604
 30
0.0
 40
57.0
100
AcDbArc
 50
3.746359712376933
 51
53.50232974407399
  0
LINE
  5
381
330
1F
100
AcDbEntity
  8
0-3_仕上げ
  6
Continuous
 62
   120
370
     5
100
AcDbLine
 10
-3590.000018557985
 20
3166.097003494963
 30
0.0
 11
-3590.000018557985
 21
3271.000148463893
 31
0.0
  0
ARC
  5
382
330
1F
100
AcDbEntity
  8
0-3_仕上げ
  6
JWW_CENTER1
 62
   120
370
     5
100
AcDbCircle
 10
-3652.878213924907
 20
3169.821368112185
 30
0.0
 40
60.0
100
AcDbArc
 50
305.5422590305548
 51
356.3485327712913
  0
LINE
  5
383
330
1F
100
AcDbEntity
  8
0-3_仕上げ
  6
JWW_CENTER1
 62
   120
370
     5
100
AcDbLine
 10
-3593.000018557986
 20
3166.000148463893
 30
0.0
 11
-3593.000018557986
 21
3271.000148463893
 31
0.0
  0
LINE
  5
384
330
1F
100
AcDbEntity
  8
0-3_仕上げ
  6
Continuous
 62
   120
370
     5
100
AcDbLine
 10
-3596.000018557986
 20
3166.09700349496
 30
0.0
 11
-3596.000018557986
 21
3271.000148463893
 31
0.0
  0
ARC
  5
385
330
1F
100
AcDbEntity
  8
0-3_仕上げ
  6
Continuous
 62
   120
370
     5
100
AcDbCircle
 10
-3652.878213924907
 20
3169.821368112185
 30
0.0
 40
57.0
100
AcDbArc
 50
306.497670255926
 51
356.2536402876231
  0
LINE
  5
386
330
1F
100
AcDbEntity
  8
0-3_仕上げ
  6
JWW_CENTER1
 62
   120
370
     5
100
AcDbLine
 10
-3668.000018557986
 20
3121.000148463893
 30
0.0
 11
-3618.000018557983
 21
3121.000148463893
 31
0.0
  0
LINE
  5
387
330
1F
100
AcDbEntity
  8
0-3_仕上げ
  6
Continuous
 62
   120
370
     5
100
AcDbLine
 10
-3667.024858895007
 20
3118.000148463896
 30
0.0
 11
-3618.975178220961
 21
3118.000148463896
 31
0.0
  0
LINE
  5
388
330
1F
100
AcDbEntity
  8
0-3_仕上げ
  6
Continuous
 62
   120
370
     5
100
AcDbLine
 10
-3667.024858895007
 20
3124.000148463893
 30
0.0
 11
-3618.975178220961
 21
3124.000148463893
 31
0.0
  0
ARC
  5
389
330
1F
100
AcDbEntity
  8
0-3_仕上げ
  6
Continuous
 62
   120
370
     5
100
AcDbCircle
 10
-3652.878213924907
 20
3072.178928815604
 30
0.0
 40
63.0
100
AcDbArc
 50
18.11257084805418
 51
50.79959257815202
  0
ARC
  5
38A
330
1F
100
AcDbEntity
  8
0-3_仕上げ
  6
Continuous
 62
   120
370
     5
100
AcDbCircle
 10
-3652.878213924907
 20
3169.821368112185
 30
0.0
 40
63.0
100
AcDbArc
 50
309.200407421848
 51
341.8874291519458
  0
ARC
  5
38B
330
1F
100
AcDbEntity
  8
0-3_仕上げ
  6
Continuous
 62
   120
370
     5
100
AcDbCircle
 10
-3533.12182319106
 20
3169.821368112185
 30
0.0
 40
63.0
100
AcDbArc
 50
198.1125708480542
 51
230.799592578152
  0
ARC
  5
38C
330
1F
100
AcDbEntity
  8
0-3_仕上げ
  6
Continuous
 62
   120
370
     5
100
AcDbCircle
 10
-3533.12182319106
 20
3072.178928815604
 30
0.0
 40
63.0
100
AcDbArc
 50
129.200407421848
 51
161.8874291519458
  0
ARC
  5
38D
330
1F
100
AcDbEntity
  8
0-3_仕上げ
  6
JWW_CENTER1
 62
   120
370
     5
100
AcDbCircle
 10
-3533.12182319106
 20
3072.178928815604
 30
0.0
 40
60.0
100
AcDbArc
 50
125.5422590305548
 51
176.3485327712908
  0
ARC
  5
38E
330
1F
100
AcDbEntity
  8
0-3_仕上げ
  6
Continuous
 62
   120
370
     5
100
AcDbCircle
 10
-3633.121823191061
 20
3072.178928815604
 30
0.0
 40
57.0
100
AcDbArc
 50
126.497670255926
 51
176.2536402876275
  0
ARC
  5
38F
330
1F
100
AcDbEntity
  8
0-3_仕上げ
  6
Continuous
 62
   120
370
     5
100
AcDbCircle
 10
-3752.878213924909
 20
3072.178928815604
 30
0.0
 40
63.0
100
AcDbArc
 50
18.11257084805418
 51
50.79959257815202
  0
ARC
  5
390
330
1F
100
AcDbEntity
  8
0-3_仕上げ
  6
Continuous
 62
   120
370
     5
100
AcDbCircle
 10
-3752.878213924909
 20
3169.821368112185
 30
0.0
 40
63.0
100
AcDbArc
 50
309.200407421848
 51
341.8874291519458
  0
ARC
  5
391
330
1F
100
AcDbEntity
  8
0-3_仕上げ
  6
Continuous
 62
   120
370
     5
100
AcDbCircle
 10
-3633.121823191061
 20
3169.821368112185
 30
0.0
 40
63.0
100
AcDbArc
 50
198.1125708480542
 51
230.799592578152
  0
ARC
  5
392
330
1F
100
AcDbEntity
  8
0-3_仕上げ
  6
Continuous
 62
   120
370
     5
100
AcDbCircle
 10
-3633.121823191061
 20
3072.178928815604
 30
0.0
 40
63.0
100
AcDbArc
 50
129.200407421848
 51
161.8874291519458
  0
ARC
  5
393
330
1F
100
AcDbEntity
  8
0-3_仕上げ
  6
JWW_CENTER1
 62
   120
370
     5
100
AcDbCircle
 10
-3633.121823191061
 20
3072.178928815604
 30
0.0
 40
60.0
100
AcDbArc
 50
125.5422590305548
 51
176.3485327712908
  0
ARC
  5
394
330
1F
100
AcDbEntity
  8
0-3_仕上げ
  6
Continuous
 62
   120
370
     5
100
AcDbCircle
 10
-3633.121823191061
 20
3169.821368112185
 30
0.0
 40
57.0
100
AcDbArc
 50
183.6514672287091
 51
233.502329744074
  0
ARC
  5
395
330
1F
100
AcDbEntity
  8
0-3_仕上げ
  6
JWW_CENTER1
 62
   120
370
     5
100
AcDbCircle
 10
-3633.121823191061
 20
3169.821368112185
 30
0.0
 40
60.0
100
AcDbArc
 50
183.6514672287091
 51
234.4577409694452
  0
LINE
  5
396
330
1F
100
AcDbEntity
  8
0-3_仕上げ
  6
Continuous
 62
   120
370
     5
100
AcDbLine
 10
-3690.000018557986
 20
3166.000148463893
 30
0.0
 11
-3690.000018557986
 21
3271.000148463893
 31
0.0
  0
LINE
  5
397
330
1F
100
AcDbEntity
  8
0-3_仕上げ
  6
Continuous
 62
   120
370
     5
100
AcDbLine
 10
-3696.000018557984
 20
3166.19120944631
 30
0.0
 11
-3696.000018557984
 21
3271.000148463893
 31
0.0
  0
LINE
  5
398
330
1F
100
AcDbEntity
  8
0-3_仕上げ
  6
JWW_CENTER1
 62
   120
370
     5
100
AcDbLine
 10
-3693.000018557983
 20
3166.000148463893
 30
0.0
 11
-3693.000018557983
 21
3271.000148463893
 31
0.0
  0
ARC
  5
399
330
1F
100
AcDbEntity
  8
0-3_仕上げ
  6
JWW_CENTER1
 62
   120
370
     5
100
AcDbCircle
 10
-3533.12182319106
 20
3169.821368112185
 30
0.0
 40
60.0
100
AcDbArc
 50
183.6514672287091
 51
234.4577409694452
  0
LINE
  5
39A
330
1F
100
AcDbEntity
  8
0-3_仕上げ
  6
Continuous
 62
   120
370
     5
100
AcDbLine
 10
-3861.000018557986
 20
3124.000148463893
 30
0.0
 11
-3718.975178220962
 21
3124.000148463893
 31
0.0
  0
LINE
  5
39B
330
1F
100
AcDbEntity
  8
0-3_仕上げ
  6
Continuous
 62
   120
370
     5
100
AcDbLine
 10
-3861.000018557986
 20
2470.000148463895
 30
0.0
 11
-3718.975178220962
 21
2470.000148463895
 31
0.0
  0
LINE
  5
39C
330
1F
100
AcDbEntity
  8
0-3_仕上げ
  6
Continuous
 62
   120
370
     5
100
AcDbLine
 10
-3861.000018557986
 20
3118.000148463896
 30
0.0
 11
-3718.975178220962
 21
3118.000148463896
 31
0.0
  0
LINE
  5
39D
330
1F
100
AcDbEntity
  8
0-3_仕上げ
  6
JWW_CENTER1
 62
   120
370
     5
100
AcDbLine
 10
-3861.000018557986
 20
3121.000148463893
 30
0.0
 11
-3718.000018557984
 21
3121.000148463893
 31
0.0
  0
LINE
  5
39E
330
1F
100
AcDbEntity
  8
0-3_仕上げ
  6
JWW_CENTER1
 62
   120
370
     5
100
AcDbLine
 10
-3861.000018557986
 20
2473.000148463892
 30
0.0
 11
-3718.000018557984
 21
2473.000148463892
 31
0.0
  0
LINE
  5
39F
330
1F
100
AcDbEntity
  8
0-3_仕上げ
  6
Continuous
 62
   120
370
     5
100
AcDbLine
 10
-3861.000018557986
 20
2476.000148463893
 30
0.0
 11
-3718.975178220962
 21
2476.000148463893
 31
0.0
  0
LINE
  5
3A0
330
1F
100
AcDbEntity
  8
0-3_仕上げ
  6
Continuous
 62
   120
370
     5
100
AcDbLine
 10
-3367.024858895008
 20
2470.000148463895
 30
0.0
 11
-3225.000018557984
 21
2470.000148463895
 31
0.0
  0
LINE
  5
3A1
330
1F
100
AcDbEntity
  8
0-3_仕上げ
  6
Continuous
 62
   120
370
     5
100
AcDbLine
 10
-3367.024858895008
 20
3124.000148463893
 30
0.0
 11
-3225.000018557984
 21
3124.000148463893
 31
0.0
  0
LINE
  5
3A2
330
1F
100
AcDbEntity
  8
0-3_仕上げ
  6
JWW_CENTER1
 62
   120
370
     5
100
AcDbLine
 10
-3368.000018557986
 20
3121.000148463893
 30
0.0
 11
-3225.000018557984
 21
3121.000148463893
 31
0.0
  0
LINE
  5
3A3
330
1F
100
AcDbEntity
  8
0-3_仕上げ
  6
Continuous
 62
   120
370
     5
100
AcDbLine
 10
-3367.024858895008
 20
3118.000148463896
 30
0.0
 11
-3225.000018557984
 21
3118.000148463896
 31
0.0
  0
LINE
  5
3A4
330
1F
100
AcDbEntity
  8
0-3_仕上げ
  6
Continuous
 62
   120
370
     5
100
AcDbLine
 10
-3367.024858895008
 20
2476.000148463893
 30
0.0
 11
-3225.000018557984
 21
2476.000148463893
 31
0.0
  0
LINE
  5
3A5
330
1F
100
AcDbEntity
  8
0-3_仕上げ
  6
JWW_CENTER1
 62
   120
370
     5
100
AcDbLine
 10
-3368.000018557986
 20
2473.000148463892
 30
0.0
 11
-3225.000018557984
 21
2473.000148463892
 31
0.0
  0
LINE
  5
3A6
330
1F
100
AcDbEntity
  8
0-C_ハッチ
  6
JWW_DASHED1
 62
   120
370
     5
100
AcDbLine
 10
-3258.324694876485
 20
2313.000148463901
 30
0.0
 11
-3225.000018557992
 21
2346.324824782393
 31
0.0
  0
LINE
  5
3A7
330
1F
100
AcDbEntity
  8
0-C_ハッチ
  6
JWW_DASHED1
 62
   120
370
     5
100
AcDbLine
 10
-3300.751101747681
 20
2313.000148463905
 30
0.0
 11
-3225.000018557996
 21
2388.751231653589
 31
0.0
  0
LINE
  5
3A8
330
1F
100
AcDbEntity
  8
0-C_ハッチ
  6
JWW_DASHED1
 62
   120
370
     5
100
AcDbLine
 10
-3343.177508618891
 20
2313.000148463894
 30
0.0
 11
-3225.000018557983
 21
2431.177638524802
 31
0.0
  0
LINE
  5
3A9
330
1F
100
AcDbEntity
  8
0-C_ハッチ
  6
JWW_DASHED1
 62
   120
370
     5
100
AcDbLine
 10
-3385.60391549009
 20
2313.000148463895
 30
0.0
 11
-3225.000018557987
 21
2473.604045395999
 31
0.0
  0
LINE
  5
3AA
330
1F
100
AcDbEntity
  8
0-C_ハッチ
  6
JWW_DASHED1
 62
   120
370
     5
100
AcDbLine
 10
-3428.030322361303
 20
2313.000148463882
 30
0.0
 11
-3225.000018557975
 21
2516.030452267211
 31
0.0
  0
LINE
  5
3AB
330
1F
100
AcDbEntity
  8
0-C_ハッチ
  6
JWW_DASHED1
 62
   120
370
     5
100
AcDbLine
 10
-3470.4567292325
 20
2313.000148463886
 30
0.0
 11
-3225.000018557979
 21
2558.456859138407
 31
0.0
  0
LINE
  5
3AC
330
1F
100
AcDbEntity
  8
0-C_ハッチ
  6
JWW_DASHED1
 62
   120
370
     5
100
AcDbLine
 10
-3512.883136103697
 20
2313.000148463889
 30
0.0
 11
-3225.000018557982
 21
2600.883266009603
 31
0.0
  0
LINE
  5
3AD
330
1F
100
AcDbEntity
  8
0-C_ハッチ
  6
JWW_DASHED1
 62
   120
370
     5
100
AcDbLine
 10
-3555.309542974835
 20
2313.000148463896
 30
0.0
 11
-3225.00001855799
 21
2643.309672880741
 31
0.0
  0
LINE
  5
3AE
330
1F
100
AcDbEntity
  8
0-C_ハッチ
  6
JWW_DASHED1
 62
   120
370
     5
100
AcDbLine
 10
-3597.735949846032
 20
2313.0001484639
 30
0.0
 11
-3225.000018557993
 21
2685.736079751938
 31
0.0
  0
LINE
  5
3AF
330
1F
100
AcDbEntity
  8
0-C_ハッチ
  6
JWW_DASHED1
 62
   120
370
     5
100
AcDbLine
 10
-3640.162356717228
 20
2313.000148463903
 30
0.0
 11
-3225.000018557997
 21
2728.162486623134
 31
0.0
  0
LINE
  5
3B0
330
1F
100
AcDbEntity
  8
0-C_ハッチ
  6
JWW_DASHED1
 62
   120
370
     5
100
AcDbLine
 10
-3682.58876358843
 20
2313.000148463901
 30
0.0
 11
-3225.000018557985
 21
2770.588893494346
 31
0.0
  0
LINE
  5
3B1
330
1F
100
AcDbEntity
  8
0-C_ハッチ
  6
JWW_DASHED1
 62
   120
370
     5
100
AcDbLine
 10
-3725.015170459654
 20
2313.000148463877
 30
0.0
 11
-3225.000018557981
 21
2813.015300365551
 31
0.0
  0
LINE
  5
3B2
330
1F
100
AcDbEntity
  8
0-C_ハッチ
  6
JWW_DASHED1
 62
   120
370
     5
100
AcDbLine
 10
-3767.441577330851
 20
2313.000148463881
 30
0.0
 11
-3225.000018557977
 21
2855.441707236755
 31
0.0
  0
LINE
  5
3B3
330
1F
100
AcDbEntity
  8
0-C_ハッチ
  6
JWW_DASHED1
 62
   120
370
     5
100
AcDbLine
 10
-3809.867984202047
 20
2313.000148463884
 30
0.0
 11
-3225.00001855798
 21
2897.868114107951
 31
0.0
  0
LINE
  5
3B4
330
1F
100
AcDbEntity
  8
0-C_ハッチ
  6
JWW_DASHED1
 62
   120
370
     5
100
AcDbLine
 10
-3852.294391073244
 20
2313.000148463888
 30
0.0
 11
-3225.000018557983
 21
2940.294520979148
 31
0.0
  0
LINE
  5
3B5
330
1F
100
AcDbEntity
  8
0-C_ハッチ
  6
JWW_DASHED1
 62
   120
370
     5
100
AcDbLine
 10
-3861.000018557987
 20
2346.72092785029
 30
0.0
 11
-3225.000018557992
 21
2982.720927850285
 31
0.0
  0
LINE
  5
3B6
330
1F
100
AcDbEntity
  8
0-C_ハッチ
  6
JWW_DASHED1
 62
   120
370
     5
100
AcDbLine
 10
-3861.000018557991
 20
2389.147334721487
 30
0.0
 11
-3225.000018557995
 21
3025.147334721482
 31
0.0
  0
LINE
  5
3B7
330
1F
100
AcDbEntity
  8
0-C_ハッチ
  6
JWW_DASHED1
 62
   120
370
     5
100
AcDbLine
 10
-3861.000018557994
 20
2431.573741592683
 30
0.0
 11
-3225.000018557982
 21
3067.573741592694
 31
0.0
  0
LINE
  5
3B8
330
1F
100
AcDbEntity
  8
0-C_ハッチ
  6
JWW_DASHED1
 62
   120
370
     5
100
AcDbLine
 10
-3861.000018557997
 20
2474.000148463879
 30
0.0
 11
-3225.000018557986
 21
3110.000148463891
 31
0.0
  0
LINE
  5
3B9
330
1F
100
AcDbEntity
  8
0-C_ハッチ
  6
JWW_DASHED1
 62
   120
370
     5
100
AcDbLine
 10
-3861.000018557969
 20
2516.426555335107
 30
0.0
 11
-3225.000018557974
 21
3152.426555335103
 31
0.0
  0
LINE
  5
3BA
330
1F
100
AcDbEntity
  8
0-C_ハッチ
  6
JWW_DASHED1
 62
   120
370
     5
100
AcDbLine
 10
-3861.000018557974
 20
2558.852962206303
 30
0.0
 11
-3225.000018557978
 21
3194.852962206299
 31
0.0
  0
LINE
  5
3BB
330
1F
100
AcDbEntity
  8
0-C_ハッチ
  6
JWW_DASHED1
 62
   120
370
     5
100
AcDbLine
 10
-3861.000018557977
 20
2601.2793690775
 30
0.0
 11
-3225.000018557981
 21
3237.279369077495
 31
0.0
  0
LINE
  5
3BC
330
1F
100
AcDbEntity
  8
0-C_ハッチ
  6
JWW_DASHED1
 62
   120
370
     5
100
AcDbLine
 10
-3861.000018557985
 20
2643.705775948637
 30
0.0
 11
-3233.705646042723
 21
3271.000148463899
 31
0.0
  0
LINE
  5
3BD
330
1F
100
AcDbEntity
  8
0-C_ハッチ
  6
JWW_DASHED1
 62
   120
370
     5
100
AcDbLine
 10
-3861.000018557988
 20
2686.132182819834
 30
0.0
 11
-3276.132052913921
 21
3271.000148463901
 31
0.0
  0
LINE
  5
3BE
330
1F
100
AcDbEntity
  8
0-C_ハッチ
  6
JWW_DASHED1
 62
   120
370
     5
100
AcDbLine
 10
-3861.000018557992
 20
2728.558589691031
 30
0.0
 11
-3318.558459785118
 21
3271.000148463905
 31
0.0
  0
LINE
  5
3BF
330
1F
100
AcDbEntity
  8
0-C_ハッチ
  6
JWW_DASHED1
 62
   120
370
     5
100
AcDbLine
 10
-3861.000018557996
 20
2770.984996562227
 30
0.0
 11
-3360.984866656327
 21
3271.000148463896
 31
0.0
  0
LINE
  5
3C0
330
1F
100
AcDbEntity
  8
0-C_ハッチ
  6
JWW_DASHED1
 62
   120
370
     5
100
AcDbLine
 10
-3861.000018557975
 20
2813.411403433447
 30
0.0
 11
-3403.411273527527
 21
3271.000148463896
 31
0.0
  0
LINE
  5
3C1
330
1F
100
AcDbEntity
  8
0-C_ハッチ
  6
JWW_DASHED1
 62
   120
370
     5
100
AcDbLine
 10
-3861.000018557971
 20
2855.837810304651
 30
0.0
 11
-3445.83768039874
 21
3271.000148463882
 31
0.0
  0
LINE
  5
3C2
330
1F
100
AcDbEntity
  8
0-C_ハッチ
  6
JWW_DASHED1
 62
   120
370
     5
100
AcDbLine
 10
-3861.000018557974
 20
2898.264217175848
 30
0.0
 11
-3488.264087269936
 21
3271.000148463886
 31
0.0
  0
LINE
  5
3C3
330
1F
100
AcDbEntity
  8
0-C_ハッチ
  6
JWW_DASHED1
 62
   120
370
     5
100
AcDbLine
 10
-3861.000018557978
 20
2940.690624047044
 30
0.0
 11
-3530.690494141133
 21
3271.00014846389
 31
0.0
  0
LINE
  5
3C4
330
1F
100
AcDbEntity
  8
0-C_ハッチ
  6
JWW_DASHED1
 62
   120
370
     5
100
AcDbLine
 10
-3861.000018557987
 20
2983.117030918183
 30
0.0
 11
-3573.116901012271
 21
3271.000148463896
 31
0.0
  0
LINE
  5
3C5
330
1F
100
AcDbEntity
  8
0-C_ハッチ
  6
JWW_DASHED1
 62
   120
370
     5
100
AcDbLine
 10
-3861.000018557989
 20
3025.543437789379
 30
0.0
 11
-3615.543307883468
 21
3271.0001484639
 31
0.0
  0
LINE
  5
3C6
330
1F
100
AcDbEntity
  8
0-C_ハッチ
  6
JWW_DASHED1
 62
   120
370
     5
100
AcDbLine
 10
-3861.000018557993
 20
3067.969844660575
 30
0.0
 11
-3657.96971475467
 21
3271.000148463898
 31
0.0
  0
LINE
  5
3C7
330
1F
100
AcDbEntity
  8
0-C_ハッチ
  6
JWW_DASHED1
 62
   120
370
     5
100
AcDbLine
 10
-3861.000018557997
 20
3110.396251531771
 30
0.0
 11
-3700.396121625865
 21
3271.000148463902
 31
0.0
  0
LINE
  5
3C8
330
1F
100
AcDbEntity
  8
0-C_ハッチ
  6
JWW_DASHED1
 62
   120
370
     5
100
AcDbLine
 10
-3861.000018557982
 20
3152.822658402985
 30
0.0
 11
-3742.822528497074
 21
3271.000148463894
 31
0.0
  0
LINE
  5
3C9
330
1F
100
AcDbEntity
  8
0-C_ハッチ
  6
JWW_DASHED1
 62
   120
370
     5
100
AcDbLine
 10
-3861.000018557972
 20
3195.249065274196
 30
0.0
 11
-3785.248935368287
 21
3271.000148463881
 31
0.0
  0
LINE
  5
3CA
330
1F
100
AcDbEntity
  8
0-C_ハッチ
  6
JWW_DASHED1
 62
   120
370
     5
100
AcDbLine
 10
-3861.000018557975
 20
3237.675472145392
 30
0.0
 11
-3827.675342239484
 21
3271.000148463884
 31
0.0
  0
LINE
  5
3CB
330
1F
100
AcDbEntity
  8
0-3_仕上げ
  6
Continuous
 62
    92
370
    13
100
AcDbLine
 10
-3225.000018557984
 20
2213.000148463894
 30
0.0
 11
-3225.000018557984
 21
1638.000148463893
 31
0.0
  0
LINE
  5
3CC
330
1F
100
AcDbEntity
  8
0-3_仕上げ
  6
Continuous
 62
     7
370
     9
100
AcDbLine
 10
-3224.000018557985
 20
2217.000148463894
 30
0.0
 11
-3222.500018557987
 21
2215.500148463893
 31
0.0
  0
LINE
  5
3CD
330
1F
100
AcDbEntity
  8
0-3_仕上げ
  6
Continuous
 62
     7
370
     9
100
AcDbLine
 10
-3222.500018557987
 20
2215.500148463893
 30
0.0
 11
-3225.000018557984
 21
2213.000148463894
 31
0.0
  0
LINE
  5
3CE
330
1F
100
AcDbEntity
  8
0-3_仕上げ
  6
Continuous
 62
    92
370
    13
100
AcDbLine
 10
-3861.000018557986
 20
2213.000148463894
 30
0.0
 11
-3861.000018557986
 21
1638.000148463893
 31
0.0
  0
LINE
  5
3CF
330
1F
100
AcDbEntity
  8
0-3_仕上げ
  6
Continuous
 62
    92
370
    13
100
AcDbLine
 10
-3861.000018557986
 20
2213.000148463894
 30
0.0
 11
-3225.000018557984
 21
2213.000148463894
 31
0.0
  0
LINE
  5
3D0
330
1F
100
AcDbEntity
  8
0-3_仕上げ
  6
Continuous
 62
     7
370
     9
100
AcDbLine
 10
-3862.000018557985
 20
2217.000148463894
 30
0.0
 11
-3224.000018557985
 21
2217.000148463894
 31
0.0
  0
LINE
  5
3D1
330
1F
100
AcDbEntity
  8
0-3_仕上げ
  6
Continuous
 62
     7
370
     9
100
AcDbLine
 10
-3862.000018557985
 20
2217.000148463894
 30
0.0
 11
-3863.500018557983
 21
2215.500148463893
 31
0.0
  0
LINE
  5
3D2
330
1F
100
AcDbEntity
  8
0-3_仕上げ
  6
Continuous
 62
     7
370
     9
100
AcDbLine
 10
-3861.000018557986
 20
2213.000148463894
 30
0.0
 11
-3863.500018557983
 21
2215.500148463893
 31
0.0
  0
LINE
  5
3D3
330
1F
100
AcDbEntity
  8
0-3_仕上げ
  6
Continuous
 62
     7
370
     9
100
AcDbLine
 10
-3224.000018557985
 20
2217.000148463894
 30
0.0
 11
-3224.000018557985
 21
2309.000148463894
 31
0.0
  0
LINE
  5
3D4
330
1F
100
AcDbEntity
  8
0-3_仕上げ
  6
Continuous
 62
     7
370
     9
100
AcDbLine
 10
-3222.500018557987
 20
2215.500148463893
 30
0.0
 11
-3222.500018557987
 21
2310.500148463894
 31
0.0
  0
LINE
  5
3D5
330
1F
100
AcDbEntity
  8
0-3_仕上げ
  6
Continuous
 62
     7
370
     9
100
AcDbLine
 10
-3862.000018557985
 20
2217.000148463894
 30
0.0
 11
-3862.000018557985
 21
2309.000148463894
 31
0.0
  0
LINE
  5
3D6
330
1F
100
AcDbEntity
  8
0-3_仕上げ
  6
Continuous
 62
     7
370
     9
100
AcDbLine
 10
-3863.500018557983
 20
2215.500148463893
 30
0.0
 11
-3863.500018557983
 21
2310.500148463894
 31
0.0
  0
LINE
  5
3D7
330
1F
100
AcDbEntity
  8
F-0_補助線
  6
JWW_HOJO
 62
   200
370
    20
100
AcDbLine
 10
-5999.99998453501
 20
4064.999901024072
 30
0.0
 11
5689.998977248734
 21
4064.999901024072
 31
0.0
  0
LINE
  5
3D8
330
1F
100
AcDbEntity
  8
F-0_補助線
  6
JWW_HOJO
 62
   200
370
    20
100
AcDbLine
 10
-5999.99998453501
 20
84.49993236644843
 30
0.0
 11
5699.998762800888
 21
84.49993236644843
 31
0.0
  0
MTEXT
  5
3D9
330
1F
100
AcDbEntity
  8
0-A_文字
  6
Continuous
 62
     7
370
     9
100
AcDbMText
 10
-4405.500018557986
 20
4013.576151024072
 30
0.0
 40
77.15249999999999
 41
405.0
 46
0.0
 71
     7
 72
     1
  1
{\fＭＳ ゴシック|b0|i0|c128|p49;Ｎ－ＶＭ}
 73
     1
 44
1.0
  0
MTEXT
  5
3DA
330
1F
100
AcDbEntity
  8
0-A_文字
  6
Continuous
 62
     7
370
     9
100
AcDbMText
 10
-1921.500018557984
 20
4013.576151024072
 30
0.0
 40
77.15249999999999
 41
405.0
 46
0.0
 71
     7
 72
     1
  1
{\fＭＳ ゴシック|b0|i0|c128|p49;Ｎ－ＶＭ}
 73
     1
 44
1.0
  0
MTEXT
  5
3DB
330
1F
100
AcDbEntity
  8
0-A_文字
  6
Continuous
 62
     7
370
     9
100
AcDbMText
 10
375.4999814420196
 20
4013.576151024072
 30
0.0
 40
77.15249999999999
 41
405.0
 46
0.0
 71
     7
 72
     1
  1
{\fＭＳ ゴシック|b0|i0|c128|p49;Ｎ－ＶＭ}
 73
     1
 44
1.0
  0
ARC
  5
3DC
330
1F
100
AcDbEntity
  8
引手
  6
Continuous
 62
    92
370
    13
100
AcDbCircle
 10
-730.5000185579822
 20
2449.000148463893
 30
0.0
 40
1.5
100
AcDbArc
 50
0.0
 51
90.0
  0
LINE
  5
3DD
330
1F
100
AcDbEntity
  8
引手
  6
Continuous
 62
    92
370
    13
100
AcDbLine
 10
-729.0000185579828
 20
2342.000148463892
 30
0.0
 11
-729.0000185579828
 21
2449.000148463893
 31
0.0
  0
ARC
  5
3DE
330
1F
100
AcDbEntity
  8
引手
  6
Continuous
 62
    92
370
    13
100
AcDbCircle
 10
-730.5000185579822
 20
2342.000148463892
 30
0.0
 40
1.5
100
AcDbArc
 50
270.0
 51
0.0
  0
LINE
  5
3DF
330
1F
100
AcDbEntity
  8
引手
  6
Continuous
 62
    92
370
    13
100
AcDbLine
 10
-769.5000185579818
 20
2340.500148463894
 30
0.0
 11
-730.5000185579822
 21
2340.500148463894
 31
0.0
  0
ARC
  5
3E0
330
1F
100
AcDbEntity
  8
引手
  6
Continuous
 62
    92
370
    13
100
AcDbCircle
 10
-769.5000185579818
 20
2342.000148463892
 30
0.0
 40
1.5
100
AcDbArc
 50
180.0
 51
270.0
  0
LINE
  5
3E1
330
1F
100
AcDbEntity
  8
引手
  6
Continuous
 62
    92
370
    13
100
AcDbLine
 10
-771.0000185579821
 20
2449.000148463893
 30
0.0
 11
-771.0000185579821
 21
2342.000148463892
 31
0.0
  0
LINE
  5
3E2
330
1F
100
AcDbEntity
  8
引手
  6
Continuous
 62
    92
370
    13
100
AcDbLine
 10
-769.5000185579818
 20
2450.500148463894
 30
0.0
 11
-730.5000185579822
 21
2450.500148463894
 31
0.0
  0
ARC
  5
3E3
330
1F
100
AcDbEntity
  8
引手
  6
Continuous
 62
    92
370
    13
100
AcDbCircle
 10
-769.5000185579818
 20
2449.000148463893
 30
0.0
 40
1.5
100
AcDbArc
 50
90.0
 51
180.0
  0
ARC
  5
3E4
330
1F
100
AcDbEntity
  8
引手
  6
Continuous
 62
     7
370
     9
100
AcDbCircle
 10
-739.0000185579822
 20
2433.000148463894
 30
0.0
 40
1.5
100
AcDbArc
 50
0.0
 51
90.0
  0
LINE
  5
3E5
330
1F
100
AcDbEntity
  8
引手
  6
Continuous
 62
     7
370
     9
100
AcDbLine
 10
-737.5000185579819
 20
2358.000148463894
 30
0.0
 11
-737.5000185579819
 21
2433.000148463894
 31
0.0
  0
ARC
  5
3E6
330
1F
100
AcDbEntity
  8
引手
  6
Continuous
 62
     7
370
     9
100
AcDbCircle
 10
-739.0000185579822
 20
2358.000148463894
 30
0.0
 40
1.5
100
AcDbArc
 50
270.0
 51
0.0
  0
LINE
  5
3E7
330
1F
100
AcDbEntity
  8
引手
  6
Continuous
 62
     7
370
     9
100
AcDbLine
 10
-761.0000185579827
 20
2356.500148463894
 30
0.0
 11
-739.0000185579822
 21
2356.500148463894
 31
0.0
  0
ARC
  5
3E8
330
1F
100
AcDbEntity
  8
引手
  6
Continuous
 62
     7
370
     9
100
AcDbCircle
 10
-761.0000185579827
 20
2358.000148463894
 30
0.0
 40
1.5
100
AcDbArc
 50
180.0
 51
270.0
  0
LINE
  5
3E9
330
1F
100
AcDbEntity
  8
引手
  6
Continuous
 62
     7
370
     9
100
AcDbLine
 10
-762.500018557983
 20
2433.000148463894
 30
0.0
 11
-762.500018557983
 21
2358.000148463894
 31
0.0
  0
LINE
  5
3EA
330
1F
100
AcDbEntity
  8
引手
  6
Continuous
 62
     7
370
     9
100
AcDbLine
 10
-761.0000185579827
 20
2434.500148463894
 30
0.0
 11
-739.0000185579822
 21
2434.500148463894
 31
0.0
  0
ARC
  5
3EB
330
1F
100
AcDbEntity
  8
引手
  6
Continuous
 62
     7
370
     9
100
AcDbCircle
 10
-761.0000185579827
 20
2433.000148463894
 30
0.0
 40
1.5
100
AcDbArc
 50
90.0
 51
180.0
  0
ARC
  5
3EC
330
1F
100
AcDbEntity
  8
引手
  6
Continuous
 62
    92
370
    13
100
AcDbCircle
 10
1469.499981442021
 20
2449.000148463893
 30
0.0
 40
1.5
100
AcDbArc
 50
0.0
 51
90.0
  0
LINE
  5
3ED
330
1F
100
AcDbEntity
  8
引手
  6
Continuous
 62
    92
370
    13
100
AcDbLine
 10
1470.999981442021
 20
2342.000148463892
 30
0.0
 11
1470.999981442021
 21
2449.000148463893
 31
0.0
  0
ARC
  5
3EE
330
1F
100
AcDbEntity
  8
引手
  6
Continuous
 62
    92
370
    13
100
AcDbCircle
 10
1469.499981442021
 20
2342.000148463892
 30
0.0
 40
1.5
100
AcDbArc
 50
270.0
 51
0.0
  0
LINE
  5
3EF
330
1F
100
AcDbEntity
  8
引手
  6
Continuous
 62
    92
370
    13
100
AcDbLine
 10
1430.499981442021
 20
2340.500148463894
 30
0.0
 11
1469.499981442021
 21
2340.500148463894
 31
0.0
  0
ARC
  5
3F0
330
1F
100
AcDbEntity
  8
引手
  6
Continuous
 62
    92
370
    13
100
AcDbCircle
 10
1430.499981442021
 20
2342.000148463892
 30
0.0
 40
1.5
100
AcDbArc
 50
180.0
 51
270.0
  0
LINE
  5
3F1
330
1F
100
AcDbEntity
  8
引手
  6
Continuous
 62
    92
370
    13
100
AcDbLine
 10
1428.999981442022
 20
2449.000148463893
 30
0.0
 11
1428.999981442022
 21
2342.000148463892
 31
0.0
  0
LINE
  5
3F2
330
1F
100
AcDbEntity
  8
引手
  6
Continuous
 62
    92
370
    13
100
AcDbLine
 10
1430.499981442021
 20
2450.500148463894
 30
0.0
 11
1469.499981442021
 21
2450.500148463894
 31
0.0
  0
ARC
  5
3F3
330
1F
100
AcDbEntity
  8
引手
  6
Continuous
 62
    92
370
    13
100
AcDbCircle
 10
1430.499981442021
 20
2449.000148463893
 30
0.0
 40
1.5
100
AcDbArc
 50
90.0
 51
180.0
  0
ARC
  5
3F4
330
1F
100
AcDbEntity
  8
引手
  6
Continuous
 62
     7
370
     9
100
AcDbCircle
 10
1460.999981442021
 20
2433.000148463894
 30
0.0
 40
1.5
100
AcDbArc
 50
0.0
 51
90.0
  0
LINE
  5
3F5
330
1F
100
AcDbEntity
  8
引手
  6
Continuous
 62
     7
370
     9
100
AcDbLine
 10
1462.499981442022
 20
2358.000148463894
 30
0.0
 11
1462.499981442022
 21
2433.000148463894
 31
0.0
  0
ARC
  5
3F6
330
1F
100
AcDbEntity
  8
引手
  6
Continuous
 62
     7
370
     9
100
AcDbCircle
 10
1460.999981442021
 20
2358.000148463894
 30
0.0
 40
1.5
100
AcDbArc
 50
270.0
 51
0.0
  0
LINE
  5
3F7
330
1F
100
AcDbEntity
  8
引手
  6
Continuous
 62
     7
370
     9
100
AcDbLine
 10
1438.999981442022
 20
2356.500148463894
 30
0.0
 11
1460.999981442021
 21
2356.500148463894
 31
0.0
  0
ARC
  5
3F8
330
1F
100
AcDbEntity
  8
引手
  6
Continuous
 62
     7
370
     9
100
AcDbCircle
 10
1438.999981442022
 20
2358.000148463894
 30
0.0
 40
1.5
100
AcDbArc
 50
180.0
 51
270.0
  0
LINE
  5
3F9
330
1F
100
AcDbEntity
  8
引手
  6
Continuous
 62
     7
370
     9
100
AcDbLine
 10
1437.499981442021
 20
2433.000148463894
 30
0.0
 11
1437.499981442021
 21
2358.000148463894
 31
0.0
  0
LINE
  5
3FA
330
1F
100
AcDbEntity
  8
引手
  6
Continuous
 62
     7
370
     9
100
AcDbLine
 10
1438.999981442022
 20
2434.500148463894
 30
0.0
 11
1460.999981442021
 21
2434.500148463894
 31
0.0
  0
ARC
  5
3FB
330
1F
100
AcDbEntity
  8
引手
  6
Continuous
 62
     7
370
     9
100
AcDbCircle
 10
1438.999981442022
 20
2433.000148463894
 30
0.0
 40
1.5
100
AcDbArc
 50
90.0
 51
180.0
  0
ARC
  5
3FC
330
1F
100
AcDbEntity
  8
引手
  6
Continuous
 62
    92
370
    13
100
AcDbCircle
 10
-3124.500018557985
 20
2449.000148463893
 30
0.0
 40
1.5
100
AcDbArc
 50
0.0
 51
90.0
  0
LINE
  5
3FD
330
1F
100
AcDbEntity
  8
引手
  6
Continuous
 62
    92
370
    13
100
AcDbLine
 10
-3123.000018557985
 20
2342.000148463892
 30
0.0
 11
-3123.000018557985
 21
2449.000148463893
 31
0.0
  0
ARC
  5
3FE
330
1F
100
AcDbEntity
  8
引手
  6
Continuous
 62
    92
370
    13
100
AcDbCircle
 10
-3124.500018557985
 20
2342.000148463892
 30
0.0
 40
1.5
100
AcDbArc
 50
270.0
 51
0.0
  0
LINE
  5
3FF
330
1F
100
AcDbEntity
  8
引手
  6
Continuous
 62
    92
370
    13
100
AcDbLine
 10
-3163.500018557984
 20
2340.500148463894
 30
0.0
 11
-3124.500018557985
 21
2340.500148463894
 31
0.0
  0
ARC
  5
400
330
1F
100
AcDbEntity
  8
引手
  6
Continuous
 62
    92
370
    13
100
AcDbCircle
 10
-3163.500018557984
 20
2342.000148463892
 30
0.0
 40
1.5
100
AcDbArc
 50
180.0
 51
270.0
  0
LINE
  5
401
330
1F
100
AcDbEntity
  8
引手
  6
Continuous
 62
    92
370
    13
100
AcDbLine
 10
-3165.000018557984
 20
2449.000148463893
 30
0.0
 11
-3165.000018557984
 21
2342.000148463892
 31
0.0
  0
LINE
  5
402
330
1F
100
AcDbEntity
  8
引手
  6
Continuous
 62
    92
370
    13
100
AcDbLine
 10
-3163.500018557984
 20
2450.500148463894
 30
0.0
 11
-3124.500018557985
 21
2450.500148463894
 31
0.0
  0
ARC
  5
403
330
1F
100
AcDbEntity
  8
引手
  6
Continuous
 62
    92
370
    13
100
AcDbCircle
 10
-3163.500018557984
 20
2449.000148463893
 30
0.0
 40
1.5
100
AcDbArc
 50
90.0
 51
180.0
  0
ARC
  5
404
330
1F
100
AcDbEntity
  8
引手
  6
Continuous
 62
     7
370
     9
100
AcDbCircle
 10
-3133.000018557984
 20
2433.000148463894
 30
0.0
 40
1.5
100
AcDbArc
 50
0.0
 51
90.0
  0
LINE
  5
405
330
1F
100
AcDbEntity
  8
引手
  6
Continuous
 62
     7
370
     9
100
AcDbLine
 10
-3131.500018557984
 20
2358.000148463894
 30
0.0
 11
-3131.500018557984
 21
2433.000148463894
 31
0.0
  0
ARC
  5
406
330
1F
100
AcDbEntity
  8
引手
  6
Continuous
 62
     7
370
     9
100
AcDbCircle
 10
-3133.000018557984
 20
2358.000148463894
 30
0.0
 40
1.5
100
AcDbArc
 50
270.0
 51
0.0
  0
LINE
  5
407
330
1F
100
AcDbEntity
  8
引手
  6
Continuous
 62
     7
370
     9
100
AcDbLine
 10
-3155.000018557985
 20
2356.500148463894
 30
0.0
 11
-3133.000018557984
 21
2356.500148463894
 31
0.0
  0
ARC
  5
408
330
1F
100
AcDbEntity
  8
引手
  6
Continuous
 62
     7
370
     9
100
AcDbCircle
 10
-3155.000018557985
 20
2358.000148463894
 30
0.0
 40
1.5
100
AcDbArc
 50
180.0
 51
270.0
  0
LINE
  5
409
330
1F
100
AcDbEntity
  8
引手
  6
Continuous
 62
     7
370
     9
100
AcDbLine
 10
-3156.500018557983
 20
2433.000148463894
 30
0.0
 11
-3156.500018557983
 21
2358.000148463894
 31
0.0
  0
LINE
  5
40A
330
1F
100
AcDbEntity
  8
引手
  6
Continuous
 62
     7
370
     9
100
AcDbLine
 10
-3155.000018557985
 20
2434.500148463894
 30
0.0
 11
-3133.000018557984
 21
2434.500148463894
 31
0.0
  0
ARC
  5
40B
330
1F
100
AcDbEntity
  8
引手
  6
Continuous
 62
     7
370
     9
100
AcDbCircle
 10
-3155.000018557985
 20
2433.000148463894
 30
0.0
 40
1.5
100
AcDbArc
 50
90.0
 51
180.0
  0
MTEXT
  5
40C
330
1F
100
AcDbEntity
  8
F-A_文字
  6
Continuous
 62
     7
370
     0
100
AcDbMText
 10
-5247.547376752839
 20
-4045.254708805663
 30
0.0
 40
79.49045454545451
 41
2294.999999999999
 46
0.0
 71
     7
 72
     1
  1
{\fＭＳ ゴシック|b0|i0|c128|p49;ピノアース　片引き戸　レールタイプ　Ｎ－ＶＭ}
 73
     1
 44
1.0
  0
MTEXT
  5
40D
330
1F
100
AcDbEntity
  8
F-A_文字
  6
Continuous
 62
     7
370
     0
100
AcDbMText
 10
4778.749126529666
 20
-3938.071010139966
 30
0.0
 40
78.86699999999999
 41
517.5
 46
0.0
 71
     7
 72
     1
  1
{\fＭＳ ゴシック|b0|i0|c128|p49;2021.04.01}
 73
     1
 44
1.0
  0
MTEXT
  5
40E
330
1F
100
AcDbEntity
  8
F-A_文字
  6
Continuous
 62
     7
370
     0
100
AcDbMText
 10
349.9999175200594
 20
-3945.630201962234
 30
0.0
 40
78.74000000000001
 41
465.0
 46
0.0
 71
     7
 72
     1
  1
{\fＭＳ ゴシック|b0|i0|c128|p49;PINOEARTH}
 73
     1
 44
1.0
  0
LINE
  5
40F
330
1F
100
AcDbEntity
  8
0-0_補助線
  6
JWW_HOJO
 62
   120
370
     5
100
AcDbLine
 10
-5999.99998453501
 20
790.5001831054692
 30
0.0
 11
5699.998762800888
 21
790.5001831054692
 31
0.0
  0
LINE
  5
410
330
1F
100
AcDbEntity
  8
0-0_補助線
  6
JWW_HOJO
 62
   120
370
     5
100
AcDbLine
 10
-5999.99998453501
 20
670.5001831054692
 30
0.0
 11
5699.998762800888
 21
670.5001831054692
 31
0.0
  0
LINE
  5
411
330
1F
100
AcDbEntity
  8
0-0_補助線
  6
JWW_HOJO
 62
   120
370
     5
100
AcDbLine
 10
-5999.99998453501
 20
550.5001831054688
 30
0.0
 11
5699.998762800888
 21
550.5001831054688
 31
0.0
  0
LINE
  5
412
330
1F
100
AcDbEntity
  8
0-0_補助線
  6
JWW_HOJO
 62
   120
370
     5
100
AcDbLine
 10
-5999.99998453501
 20
430.5001831054688
 30
0.0
 11
5699.998762800888
 21
430.5001831054688
 31
0.0
  0
LINE
  5
413
330
1F
100
AcDbEntity
  8
0-0_補助線
  6
JWW_HOJO
 62
   120
370
     5
100
AcDbLine
 10
-5999.99998453501
 20
310.5001831054688
 30
0.0
 11
5699.998762800888
 21
310.5001831054688
 31
0.0
  0
LINE
  5
414
330
1F
100
AcDbEntity
  8
0-0_補助線
  6
JWW_HOJO
 62
   120
370
     5
100
AcDbLine
 10
5699.998762800888
 20
-3310.000017526988
 30
0.0
 11
-5999.99998453501
 21
-3310.000017526988
 31
0.0
  0
LINE
  5
415
330
1F
100
AcDbEntity
  8
0-0_補助線
  6
JWW_HOJO
 62
   120
370
     5
100
AcDbLine
 10
5699.998762800888
 20
-3430.000017526988
 30
0.0
 11
-5999.99998453501
 21
-3430.000017526988
 31
0.0
  0
LINE
  5
416
330
1F
100
AcDbEntity
  8
0-0_補助線
  6
JWW_HOJO
 62
   120
370
     5
100
AcDbLine
 10
5699.998762800888
 20
-3550.000017526988
 30
0.0
 11
-5999.99998453501
 21
-3550.000017526988
 31
0.0
  0
LINE
  5
417
330
1F
100
AcDbEntity
  8
0-0_補助線
  6
JWW_HOJO
 62
   120
370
     5
100
AcDbLine
 10
5699.998762800888
 20
-3670.000017526988
 30
0.0
 11
-5999.99998453501
 21
-3670.000017526988
 31
0.0
  0
LINE
  5
418
330
1F
100
AcDbEntity
  8
0-0_補助線
  6
JWW_HOJO
 62
   120
370
     5
100
AcDbLine
 10
-5370.000018557986
 20
4174.999769056166
 30
0.0
 11
-5370.000018557986
 21
-3790.000179909371
 31
0.0
  0
MTEXT
  5
419
330
1F
100
AcDbEntity
  8
0-A_文字
  6
Continuous
 62
     7
370
     9
100
AcDbMText
 10
-5370.000018557984
 20
661.5754150802805
 30
0.0
 40
57.14999999999991
 41
974.9999999999991
 46
0.0
 71
     7
 72
     1
  1
{\fＭＳ ゴシック|b0|i0|c128|p49;枠外幅 1,824mm（DW=900mm）}
 73
     1
 44
1.0
  0
MTEXT
  5
41A
330
1F
100
AcDbEntity
  8
0-A_文字
  6
Continuous
 62
     7
370
     9
100
AcDbMText
 10
-2796.000018558003
 20
661.5754150802817
 30
0.0
 40
57.15000000000197
 41
975.0000000000341
 46
0.0
 71
     7
 72
     1
  1
{\fＭＳ ゴシック|b0|i0|c128|p49;枠外幅 1,644mm（DW=810mm）}
 73
     1
 44
1.0
  0
LINE
  5
41B
330
1F
100
AcDbEntity
  8
0-0_補助線
  6
JWW_HOJO
 62
   120
370
     5
100
AcDbLine
 10
5699.998762800888
 20
-3190.000017526988
 30
0.0
 11
-5999.99998453501
 21
-3190.000017526988
 31
0.0
  0
LINE
  5
41C
330
1F
100
AcDbEntity
  8
0-0_補助線
  6
JWW_HOJO
 62
   120
370
     5
100
AcDbLine
 10
-2796.000018557986
 20
4174.999769056166
 30
0.0
 11
-2796.000018557986
 21
-3790.000179909371
 31
0.0
  0
LINE
  5
41D
330
1F
100
AcDbEntity
  8
0-0_補助線
  6
JWW_HOJO
 62
   120
370
     5
100
AcDbLine
 10
-402.0000185579826
 20
4174.999769056166
 30
0.0
 11
-402.0000185579826
 21
-3790.000179909371
 31
0.0
  0
LINE
  5
41E
330
1F
100
AcDbEntity
  8
0-0_補助線
  6
JWW_HOJO
 62
   120
370
     5
100
AcDbLine
 10
1797.99998144202
 20
4174.999769056166
 30
0.0
 11
1797.99998144202
 21
-3790.000179909371
 31
0.0
  0
LINE
  5
41F
330
1F
100
AcDbEntity
  8
0-0_補助線
  6
JWW_HOJO
 62
   120
370
     5
100
AcDbLine
 10
3871.999981442023
 20
4174.999769056166
 30
0.0
 11
3871.999981442023
 21
-3790.000179909371
 31
0.0
  0
MTEXT
  5
420
330
1F
100
AcDbEntity
  8
0-A_文字
  6
Continuous
 62
     7
370
     9
100
AcDbMText
 10
-402.0000185579937
 20
661.5754150802813
 30
0.0
 40
57.15000000000131
 41
975.000000000023
 46
0.0
 71
     7
 72
     1
  1
{\fＭＳ ゴシック|b0|i0|c128|p49;枠外幅 1,450mm（DW=713mm）}
 73
     1
 44
1.0
  0
MTEXT
  5
421
330
1F
100
AcDbEntity
  8
0-A_文字
  6
Continuous
 62
     7
370
     9
100
AcDbMText
 10
-5370.000018557987
 20
541.5751831054479
 30
0.0
 40
57.15000000000011
 41
825.0000000000017
 46
0.0
 71
     7
 72
     1
  1
{\fＭＳ ゴシック|b0|i0|c128|p49;ステンド調熱処理ガラス}
 73
     1
 44
1.0
  0
MTEXT
  5
422
330
1F
100
AcDbEntity
  8
0-A_文字
  6
Continuous
 62
     7
370
     9
100
AcDbMText
 10
-2796.000018557982
 20
541.5751831054476
 30
0.0
 40
57.14999999999947
 41
824.9999999999923
 46
0.0
 71
     7
 72
     1
  1
{\fＭＳ ゴシック|b0|i0|c128|p49;ステンド調熱処理ガラス}
 73
     1
 44
1.0
  0
MTEXT
  5
423
330
1F
100
AcDbEntity
  8
0-A_文字
  6
Continuous
 62
     7
370
     9
100
AcDbMText
 10
-402.0000185579784
 20
541.5751831054476
 30
0.0
 40
57.14999999999947
 41
824.9999999999923
 46
0.0
 71
     7
 72
     1
  1
{\fＭＳ ゴシック|b0|i0|c128|p49;ステンド調熱処理ガラス}
 73
     1
 44
1.0
  0
ENDSEC
  0
SECTION
  2
OBJECTS
  0
DICTIONARY
  5
C
330
0
100
AcDbDictionary
281
     1
  3
ACAD_GROUP
350
D
  3
ACAD_LAYOUT
350
1A
  3
ACAD_MATERIAL
350
3B
  3
ACAD_MLEADERSTYLE
350
425
  3
ACAD_MLINESTYLE
350
17
  3
ACAD_PLOTSETTINGS
350
19
  3
ACAD_PLOTSTYLENAME
350
E
  3
ACAD_TABLESTYLE
350
424
  3
ACAD_VISUALSTYLE
350
2A
  0
DICTIONARY
  5
D
102
{ACAD_REACTORS
330
C
102
}
330
C
100
AcDbDictionary
281
     1
  0
DICTIONARY
  5
1A
102
{ACAD_REACTORS
330
C
102
}
330
C
100
AcDbDictionary
281
     1
  3
Layout1
350
1E
  3
Layout2
350
26
  3
Model
350
22
  0
DICTIONARY
  5
3B
102
{ACAD_REACTORS
330
C
102
}
330
C
100
AcDbDictionary
281
     1
  3
ByBlock
350
3D
  3
ByLayer
350
3C
  3
Global
350
3E
  0
DICTIONARY
  5
425
102
{ACAD_REACTORS
330
C
102
}
330
C
100
AcDbDictionary
281
     1
  0
DICTIONARY
  5
17
102
{ACAD_REACTORS
330
C
102
}
330
C
100
AcDbDictionary
281
     1
  3
Standard
350
18
  0
DICTIONARY
  5
19
102
{ACAD_REACTORS
330
C
102
}
330
C
100
AcDbDictionary
281
     1
  0
ACDBDICTIONARYWDFLT
  5
E
102
{ACAD_REACTORS
330
C
102
}
330
C
100
AcDbDictionary
281
     1
  3
Normal
350
F
100
AcDbDictionaryWithDefault
340
F
  0
DICTIONARY
  5
424
102
{ACAD_REACTORS
330
C
102
}
330
C
100
AcDbDictionary
281
     1
  0
DICTIONARY
  5
2A
102
{ACAD_REACTORS
330
C
102
}
330
C
100
AcDbDictionary
281
     1
  3
2dWireframe
350
2F
  3
3D Hidden
350
31
  3
3dWireframe
350
30
  3
Basic
350
32
  3
Brighten
350
36
  3
ColorChange
350
3A
  3
Conceptual
350
34
  3
Dim
350
35
  3
Facepattern
350
39
  3
Flat
350
2B
  3
FlatWithEdges
350
2C
  3
Gouraud
350
2D
  3
GouraudWithEdges
350
2E
  3
Linepattern
350
38
  3
Realistic
350
33
  3
Thicken
350
37
  0
LAYOUT
  5
1E
102
{ACAD_REACTORS
330
1A
102
}
330
1A
100
AcDbPlotSettings
  1

  2
none_device
  4

  6

 40
0.0
 41
0.0
 42
0.0
 43
0.0
 44
0.0
 45
0.0
 46
0.0
 47
0.0
 48
0.0
 49
0.0
140
0.0
141
0.0
142
1.0
143
1.0
 70
   688
 72
     0
 73
     0
 74
     5
  7

 75
    16
 76
     0
 77
     5
 78
   300
147
1.0
148
0.0
149
0.0
100
AcDbLayout
  1
Layout1
 70
     1
 71
     1
 10
0.0
 20
0.0
 11
420.0
 21
297.0
 12
0.0
 22
0.0
 32
0.0
 14
1.000000000000000E+20
 24
1.000000000000000E+20
 34
1.000000000000000E+20
 15
-1.000000000000000E+20
 25
-1.000000000000000E+20
 35
-1.000000000000000E+20
146
0.0
 13
0.0
 23
0.0
 33
0.0
 16
1.0
 26
0.0
 36
0.0
 17
0.0
 27
1.0
 37
0.0
 76
     0
330
1B
  0
LAYOUT
  5
26
102
{ACAD_REACTORS
330
1A
102
}
330
1A
100
AcDbPlotSettings
  1

  2
none_device
  4

  6

 40
0.0
 41
0.0
 42
0.0
 43
0.0
 44
0.0
 45
0.0
 46
0.0
 47
0.0
 48
0.0
 49
0.0
140
0.0
141
0.0
142
1.0
143
1.0
 70
   688
 72
     0
 73
     0
 74
     5
  7

 75
    16
 76
     0
 77
     5
 78
   300
147
1.0
148
0.0
149
0.0
100
AcDbLayout
  1
Layout2
 70
     1
 71
     2
 10
0.0
 20
0.0
 11
0.0
 21
0.0
 12
0.0
 22
0.0
 32
0.0
 14
0.0
 24
0.0
 34
0.0
 15
0.0
 25
0.0
 35
0.0
146
0.0
 13
0.0
 23
0.0
 33
0.0
 16
1.0
 26
0.0
 36
0.0
 17
0.0
 27
1.0
 37
0.0
 76
     0
330
23
  0
LAYOUT
  5
22
102
{ACAD_REACTORS
330
1A
102
}
330
1A
100
AcDbPlotSettings
  1

  2
none_device
  4

  6

 40
0.0
 41
0.0
 42
0.0
 43
0.0
 44
0.0
 45
0.0
 46
0.0
 47
0.0
 48
0.0
 49
0.0
140
0.0
141
0.0
142
1.0
143
1.0
 70
  1712
 72
     0
 73
     0
 74
     0
  7

 75
     0
 76
     0
 77
     5
 78
   300
147
1.0
148
0.0
149
0.0
100
AcDbLayout
  1
Model
 70
     1
 71
     0
 10
-6300.0
 20
-4455.0
 11
6300.0
 21
4455.0
 12
0.0
 22
0.0
 32
0.0
 14
-6300.0
 24
-4455.0
 34
0.0
 15
6300.0
 25
4455.0
 35
0.0
146
0.0
 13
0.0
 23
0.0
 33
0.0
 16
1.0
 26
0.0
 36
0.0
 17
0.0
 27
1.0
 37
0.0
 76
     0
330
1F
331
29
  0
MATERIAL
  5
3D
102
{ACAD_REACTORS
330
3B
102
}
330
3B
100
AcDbMaterial
  1
ByBlock
 72
     1
 94
      127
  0
MATERIAL
  5
3C
102
{ACAD_REACTORS
330
3B
102
}
330
3B
100
AcDbMaterial
  1
ByLayer
 72
     1
 94
      127
  0
MATERIAL
  5
3E
102
{ACAD_REACTORS
330
3B
102
}
330
3B
100
AcDbMaterial
  1
Global
 72
     1
 94
      127
  0
MLINESTYLE
  5
18
102
{ACAD_REACTORS
330
17
102
}
330
17
100
AcDbMlineStyle
  2
Standard
 70
     0
  3

 62
   256
 51
90.0
 52
90.0
 71
     2
 49
0.5
 62
   256
  6
BYLAYER
 49
-0.5
 62
   256
  6
BYLAYER
  0
ACDBPLACEHOLDER
  5
F
102
{ACAD_REACTORS
330
E
102
}
330
E
  0
VISUALSTYLE
  5
2F
102
{ACAD_REACTORS
330
2A
102
}
330
2A
100
AcDbVisualStyle
  2
2dWireframe
 70
     4
177
     2
291
     0
 71
     0
176
     1
 72
     2
176
     1
 73
     0
176
     1
 90
        0
176
     1
 40
-0.6
176
     1
 41
-30.0
176
     1
 62
     5
 63
     7
421
 16777215
176
     1
 74
     1
176
     1
 91
        4
176
     1
 64
     7
176
     1
 65
   257
176
     1
 75
     1
176
     1
175
     1
176
     1
 42
1.0
176
     1
 92
        0
176
     1
 66
   257
176
     1
 43
1.0
176
     1
 76
     1
176
     1
 77
     6
176
     1
 78
     2
176
     1
 67
     7
176
     1
 79
     5
176
     1
170
     0
176
     1
171
     0
176
     1
290
     0
176
     1
 93
        1
176
     1
 44
0.0
176
     1
173
     0
176
     1
  0
VISUALSTYLE
  5
31
102
{ACAD_REACTORS
330
2A
102
}
330
2A
100
AcDbVisualStyle
  2
3D Hidden
 70
     6
177
     2
291
     0
 71
     1
176
     1
 72
     2
176
     1
 73
     2
176
     1
 90
        0
176
     1
 40
-0.6
176
     1
 41
-30.0
176
     1
 62
     5
 63
     7
421
 16777215
176
     1
 74
     2
176
     1
 91
        2
176
     1
 64
     7
176
     1
 65
   257
176
     1
 75
     2
176
     1
175
     1
176
     1
 42
40.0
176
     1
 92
        0
176
     1
 66
   257
176
     1
 43
1.0
176
     1
 76
     1
176
     1
 77
     6
176
     1
 78
     2
176
     1
 67
     7
176
     1
 79
     3
176
     1
170
     0
176
     1
171
     0
176
     1
290
     0
176
     1
 93
        1
176
     1
 44
0.0
176
     1
173
     0
176
     1
  0
VISUALSTYLE
  5
30
102
{ACAD_REACTORS
330
2A
102
}
330
2A
100
AcDbVisualStyle
  2
3dWireframe
 70
     5
177
     2
291
     0
 71
     0
176
     1
 72
     2
176
     1
 73
     0
176
     1
 90
        0
176
     1
 40
-0.6
176
     1
 41
-30.0
176
     1
 62
     5
 63
     7
421
 16777215
176
     1
 74
     1
176
     1
 91
        4
176
     1
 64
     7
176
     1
 65
   257
176
     1
 75
     1
176
     1
175
     1
176
     1
 42
1.0
176
     1
 92
        0
176
     1
 66
   257
176
     1
 43
1.0
176
     1
 76
     1
176
     1
 77
     6
176
     1
 78
     2
176
     1
 67
     7
176
     1
 79
     5
176
     1
170
     0
176
     1
171
     0
176
     1
290
     0
176
     1
 93
        1
176
     1
 44
0.0
176
     1
173
     0
176
     1
  0
VISUALSTYLE
  5
32
102
{ACAD_REACTORS
330
2A
102
}
330
2A
100
AcDbVisualStyle
  2
Basic
 70
     7
177
     2
291
     1
 71
     1
176
     1
 72
     0
176
     1
 73
     1
176
     1
 90
        0
176
     1
 40
-0.6
176
     1
 41
-30.0
176
     1
 62
     5
 63
     7
421
 16777215
176
     1
 74
     0
176
     1
 91
        4
176
     1
 64
     7
176
     1
 65
   257
176
     1
 75
     1
176
     1
175
     1
176
     1
 42
1.0
176
     1
 92
        8
176
     1
 66
     7
176
     1
 43
1.0
176
     1
 76
     1
176
     1
 77
     6
176
     1
 78
     2
176
     1
 67
     7
176
     1
 79
     5
176
     1
170
     0
176
     1
171
     0
176
     1
290
     0
176
     1
 93
        1
176
     1
 44
0.0
176
     1
173
     0
176
     1
  0
VISUALSTYLE
  5
36
102
{ACAD_REACTORS
330
2A
102
}
330
2A
100
AcDbVisualStyle
  2
Brighten
 70
    12
177
     2
291
     1
 71
     2
176
     1
 72
     2
176
     1
 73
     0
176
     1
 90
        0
176
     1
 40
-0.6
176
     1
 41
-30.0
176
     1
 62
     5
 63
     7
421
 16777215
176
     1
 74
     1
176
     1
 91
        4
176
     1
 64
     7
176
     1
 65
   257
176
     1
 75
     1
176
     1
175
     1
176
     1
 42
1.0
176
     1
 92
        8
176
     1
 66
     7
176
     1
 43
1.0
176
     1
 76
     1
176
     1
 77
     6
176
     1
 78
     2
176
     1
 67
     7
176
     1
 79
     5
176
     1
170
     0
176
     1
171
     0
176
     1
290
     0
176
     1
 93
        1
176
     1
 44
50.0
176
     1
173
     0
176
     1
  0
VISUALSTYLE
  5
3A
102
{ACAD_REACTORS
330
2A
102
}
330
2A
100
AcDbVisualStyle
  2
ColorChange
 70
    16
177
     2
291
     1
 71
     2
176
     1
 72
     2
176
     1
 73
     3
176
     1
 90
        0
176
     1
 40
-0.6
176
     1
 41
-30.0
176
     1
 62
     5
 63
     8
421
  8421504
176
     1
 74
     1
176
     1
 91
        4
176
     1
 64
     7
176
     1
 65
   257
176
     1
 75
     1
176
     1
175
     1
176
     1
 42
1.0
176
     1
 92
        8
176
     1
 66
     8
424
  8421504
176
     1
 43
1.0
176
     1
 76
     1
176
     1
 77
     6
176
     1
 78
     2
176
     1
 67
     7
176
     1
 79
     5
176
     1
170
     0
176
     1
171
     0
176
     1
290
     0
176
     1
 93
        1
176
     1
 44
0.0
176
     1
173
     0
176
     1
  0
VISUALSTYLE
  5
34
102
{ACAD_REACTORS
330
2A
102
}
330
2A
100
AcDbVisualStyle
  2
Conceptual
 70
     9
177
     2
291
     0
 71
     3
176
     1
 72
     2
176
     1
 73
     0
176
     1
 90
        0
176
     1
 40
-0.6
176
     1
 41
-30.0
176
     1
 62
     5
 63
     7
421
 16777215
176
     1
 74
     2
176
     1
 91
        2
176
     1
 64
     7
176
     1
 65
   257
176
     1
 75
     1
176
     1
175
     1
176
     1
 42
40.0
176
     1
 92
        8
176
     1
 66
     7
176
     1
 43
1.0
176
     1
 76
     1
176
     1
 77
     6
176
     1
 78
     2
176
     1
 67
     7
176
     1
 79
     3
176
     1
170
     0
176
     1
171
     0
176
     1
290
     0
176
     1
 93
        1
176
     1
 44
0.0
176
     1
173
     0
176
     1
  0
VISUALSTYLE
  5
35
102
{ACAD_REACTORS
330
2A
102
}
330
2A
100
AcDbVisualStyle
  2
Dim
 70
    11
177
     2
291
     1
 71
     2
176
     1
 72
     2
176
     1
 73
     0
176
     1
 90
        0
176
     1
 40
-0.6
176
     1
 41
-30.0
176
     1
 62
     5
 63
     7
421
 16777215
176
     1
 74
     1
176
     1
 91
        4
176
     1
 64
     7
176
     1
 65
   257
176
     1
 75
     1
176
     1
175
     1
176
     1
 42
1.0
176
     1
 92
        8
176
     1
 66
     7
176
     1
 43
1.0
176
     1
 76
     1
176
     1
 77
     6
176
     1
 78
     2
176
     1
 67
     7
176
     1
 79
     5
176
     1
170
     0
176
     1
171
     0
176
     1
290
     0
176
     1
 93
        1
176
     1
 44
-50.0
176
     1
173
     0
176
     1
  0
VISUALSTYLE
  5
39
102
{ACAD_REACTORS
330
2A
102
}
330
2A
100
AcDbVisualStyle
  2
Facepattern
 70
    15
177
     2
291
     1
 71
     2
176
     1
 72
     2
176
     1
 73
     0
176
     1
 90
        0
176
     1
 40
-0.6
176
     1
 41
-30.0
176
     1
 62
     5
 63
     7
421
 16777215
176
     1
 74
     1
176
     1
 91
        4
176
     1
 64
     7
176
     1
 65
   257
176
     1
 75
     1
176
     1
175
     1
176
     1
 42
1.0
176
     1
 92
        8
176
     1
 66
     7
176
     1
 43
1.0
176
     1
 76
     1
176
     1
 77
     6
176
     1
 78
     2
176
     1
 67
     7
176
     1
 79
     5
176
     1
170
     0
176
     1
171
     0
176
     1
290
     0
176
     1
 93
        1
176
     1
 44
0.0
176
     1
173
     0
176
     1
  0
VISUALSTYLE
  5
2B
102
{ACAD_REACTORS
330
2A
102
}
330
2A
100
AcDbVisualStyle
  2
Flat
 70
     0
177
     2
291
     1
 71
     2
176
     1
 72
     1
176
     1
 73
     1
176
     1
 90
        2
176
     1
 40
-0.6
176
     1
 41
30.0
176
     1
 62
     5
 63
     7
421
 16777215
176
     1
 74
     0
176
     1
 91
        4
176
     1
 64
     7
176
     1
 65
   257
176
     1
 75
     1
176
     1
175
     1
176
     1
 42
1.0
176
     1
 92
        8
176
     1
 66
     7
176
     1
 43
1.0
176
     1
 76
     1
176
     1
 77
     6
176
     1
 78
     2
176
     1
 67
     7
176
     1
 79
     5
176
     1
170
     0
176
     1
171
     0
176
     1
290
     0
176
     1
 93
       13
176
     1
 44
0.0
176
     1
173
     0
176
     1
  0
VISUALSTYLE
  5
2C
102
{ACAD_REACTORS
330
2A
102
}
330
2A
100
AcDbVisualStyle
  2
FlatWithEdges
 70
     1
177
     2
291
     1
 71
     2
176
     1
 72
     1
176
     1
 73
     1
176
     1
 90
        2
176
     1
 40
-0.6
176
     1
 41
30.0
176
     1
 62
     5
 63
     7
421
 16777215
176
     1
 74
     1
176
     1
 91
        4
176
     1
 64
     7
176
     1
 65
   257
176
     1
 75
     1
176
     1
175
     1
176
     1
 42
1.0
176
     1
 92
        0
176
     1
 66
   257
176
     1
 43
1.0
176
     1
 76
     1
176
     1
 77
     6
176
     1
 78
     2
176
     1
 67
     7
176
     1
 79
     5
176
     1
170
     0
176
     1
171
     0
176
     1
290
     0
176
     1
 93
       13
176
     1
 44
0.0
176
     1
173
     0
176
     1
  0
VISUALSTYLE
  5
2D
102
{ACAD_REACTORS
330
2A
102
}
330
2A
100
AcDbVisualStyle
  2
Gouraud
 70
     2
177
     2
291
     1
 71
     2
176
     1
 72
     2
176
     1
 73
     1
176
     1
 90
        2
176
     1
 40
-0.6
176
     1
 41
30.0
176
     1
 62
     5
 63
     7
421
 16777215
176
     1
 74
     0
176
     1
 91
        4
176
     1
 64
     7
176
     1
 65
   257
176
     1
 75
     1
176
     1
175
     1
176
     1
 42
1.0
176
     1
 92
        0
176
     1
 66
     7
176
     1
 43
1.0
176
     1
 76
     1
176
     1
 77
     6
176
     1
 78
     2
176
     1
 67
     7
176
     1
 79
     5
176
     1
170
     0
176
     1
171
     0
176
     1
290
     0
176
     1
 93
       13
176
     1
 44
0.0
176
     1
173
     0
176
     1
  0
VISUALSTYLE
  5
2E
102
{ACAD_REACTORS
330
2A
102
}
330
2A
100
AcDbVisualStyle
  2
GouraudWithEdges
 70
     3
177
     2
291
     1
 71
     2
176
     1
 72
     2
176
     1
 73
     1
176
     1
 90
        2
176
     1
 40
-0.6
176
     1
 41
30.0
176
     1
 62
     5
 63
     7
421
 16777215
176
     1
 74
     1
176
     1
 91
        4
176
     1
 64
     7
176
     1
 65
   257
176
     1
 75
     1
176
     1
175
     1
176
     1
 42
1.0
176
     1
 92
        0
176
     1
 66
   257
176
     1
 43
1.0
176
     1
 76
     1
176
     1
 77
     6
176
     1
 78
     2
176
     1
 67
     7
176
     1
 79
     5
176
     1
170
     0
176
     1
171
     0
176
     1
290
     0
176
     1
 93
       13
176
     1
 44
0.0
176
     1
173
     0
176
     1
  0
VISUALSTYLE
  5
38
102
{ACAD_REACTORS
330
2A
102
}
330
2A
100
AcDbVisualStyle
  2
Linepattern
 70
    14
177
     2
291
     1
 71
     2
176
     1
 72
     2
176
     1
 73
     0
176
     1
 90
        0
176
     1
 40
-0.6
176
     1
 41
-30.0
176
     1
 62
     5
 63
     7
421
 16777215
176
     1
 74
     1
176
     1
 91
        4
176
     1
 64
     7
176
     1
 65
   257
176
     1
 75
     7
176
     1
175
     7
176
     1
 42
1.0
176
     1
 92
        8
176
     1
 66
     7
176
     1
 43
1.0
176
     1
 76
     1
176
     1
 77
     6
176
     1
 78
     2
176
     1
 67
     7
176
     1
 79
     5
176
     1
170
     0
176
     1
171
     0
176
     1
290
     0
176
     1
 93
        1
176
     1
 44
0.0
176
     1
173
     0
176
     1
  0
VISUALSTYLE
  5
33
102
{ACAD_REACTORS
330
2A
102
}
330
2A
100
AcDbVisualStyle
  2
Realistic
 70
     8
177
     2
291
     0
 71
     2
176
     1
 72
     2
176
     1
 73
     0
176
     1
 90
        0
176
     1
 40
-0.6
176
     1
 41
-30.0
176
     1
 62
     5
 63
     7
421
 16777215
176
     1
 74
     1
176
     1
 91
        0
176
     1
 64
     7
176
     1
 65
   257
176
     1
 75
     1
176
     1
175
     1
176
     1
 42
1.0
176
     1
 92
        8
176
     1
 66
     8
424
  7895160
176
     1
 43
1.0
176
     1
 76
     1
176
     1
 77
     6
176
     1
 78
     2
176
     1
 67
     7
176
     1
 79
     5
176
     1
170
     0
176
     1
171
     0
176
     1
290
     0
176
     1
 93
       13
176
     1
 44
0.0
176
     1
173
     0
176
     1
  0
VISUALSTYLE
  5
37
102
{ACAD_REACTORS
330
2A
102
}
330
2A
100
AcDbVisualStyle
  2
Thicken
 70
    13
177
     2
291
     1
 71
     2
176
     1
 72
     2
176
     1
 73
     0
176
     1
 90
        0
176
     1
 40
-0.6
176
     1
 41
-30.0
176
     1
 62
     5
 63
     7
421
 16777215
176
     1
 74
     1
176
     1
 91
        4
176
     1
 64
     7
176
     1
 65
   257
176
     1
 75
     1
176
     1
175
     1
176
     1
 42
1.0
176
     1
 92
       12
176
     1
 66
     7
176
     1
 43
1.0
176
     1
 76
     1
176
     1
 77
     6
176
     1
 78
     2
176
     1
 67
     7
176
     1
 79
     5
176
     1
170
     0
176
     1
171
     0
176
     1
290
     0
176
     1
 93
        1
176
     1
 44
0.0
176
     1
173
     0
176
     1
  0
ENDSEC
  0
EOF
