  0
SECTION
  2
HEADER
  9
$ACADVER
  1
AC1024
  9
$ACADMAINTVER
 70
     6
  9
$DWGCODEPAGE
  3
ANSI_932
  9
$INSBASE
 10
0.0
 20
0.0
 30
0.0
  9
$EXTMIN
 10
-6300.0
 20
-4455.0
 30
0.0
  9
$EXTMAX
 10
6300.0
 20
4455.0
 30
0.0
  9
$LIMMIN
 10
-6300.0
 20
-4455.0
  9
$LIMMAX
 10
6300.0
 20
4455.0
  9
$ORTHOMODE
 70
     0
  9
$REGENMODE
 70
     1
  9
$FILLMODE
 70
     1
  9
$QTEXTMODE
 70
     0
  9
$MIRRTEXT
 70
     1
  9
$LTSCALE
 40
30.0
  9
$ATTMODE
 70
     1
  9
$TEXTSIZE
 40
2.5
  9
$TRACEWID
 40
1.0
  9
$TEXTSTYLE
  7
Standard
  9
$CLAYER
  8
0
  9
$CELTYPE
  6
ByLayer
  9
$CECOLOR
 62
   256
  9
$CELTSCALE
 40
1.0
  9
$DISPSILH
 70
     0
  9
$DIMSCALE
 40
1.0
  9
$DIMASZ
 40
2.5
  9
$DIMEXO
 40
0.625
  9
$DIMDLI
 40
3.75
  9
$DIMRND
 40
0.0
  9
$DIMDLE
 40
0.0
  9
$DIMEXE
 40
1.25
  9
$DIMTP
 40
0.0
  9
$DIMTM
 40
0.0
  9
$DIMTXT
 40
2.5
  9
$DIMCEN
 40
2.5
  9
$DIMTSZ
 40
0.0
  9
$DIMTOL
 70
     0
  9
$DIMLIM
 70
     0
  9
$DIMTIH
 70
     0
  9
$DIMTOH
 70
     0
  9
$DIMSE1
 70
     0
  9
$DIMSE2
 70
     0
  9
$DIMTAD
 70
     1
  9
$DIMZIN
 70
     8
  9
$DIMBLK
  1

  9
$DIMASO
 70
     1
  9
$DIMSHO
 70
     1
  9
$DIMPOST
  1

  9
$DIMAPOST
  1

  9
$DIMALT
 70
     0
  9
$DIMALTD
 70
     3
  9
$DIMALTF
 40
0.03937007874016
  9
$DIMLFAC
 40
1.0
  9
$DIMTOFL
 70
     1
  9
$DIMTVP
 40
0.0
  9
$DIMTIX
 70
     0
  9
$DIMSOXD
 70
     0
  9
$DIMSAH
 70
     0
  9
$DIMBLK1
  1

  9
$DIMBLK2
  1

  9
$DIMSTYLE
  2
ISO-25
  9
$DIMCLRD
 70
     0
  9
$DIMCLRE
 70
     0
  9
$DIMCLRT
 70
     0
  9
$DIMTFAC
 40
1.0
  9
$DIMGAP
 40
0.625
  9
$DIMJUST
 70
     0
  9
$DIMSD1
 70
     0
  9
$DIMSD2
 70
     0
  9
$DIMTOLJ
 70
     0
  9
$DIMTZIN
 70
     8
  9
$DIMALTZ
 70
     0
  9
$DIMALTTZ
 70
     0
  9
$DIMUPT
 70
     0
  9
$DIMDEC
 70
     2
  9
$DIMTDEC
 70
     2
  9
$DIMALTU
 70
     2
  9
$DIMALTTD
 70
     3
  9
$DIMTXSTY
  7
Standard
  9
$DIMAUNIT
 70
     0
  9
$DIMADEC
 70
     0
  9
$DIMALTRND
 40
0.0
  9
$DIMAZIN
 70
     0
  9
$DIMDSEP
 70
    44
  9
$DIMATFIT
 70
     3
  9
$DIMFRAC
 70
     0
  9
$DIMLDRBLK
  1

  9
$DIMLUNIT
 70
     2
  9
$DIMLWD
 70
    -2
  9
$DIMLWE
 70
    -2
  9
$DIMTMOVE
 70
     0
  9
$DIMFXL
 40
1.0
  9
$DIMFXLON
 70
     0
  9
$DIMJOGANG
 40
0.7853981633974483
  9
$DIMTFILL
 70
     0
  9
$DIMTFILLCLR
 70
     0
  9
$DIMARCSYM
 70
     0
  9
$DIMLTYPE
  6

  9
$DIMLTEX1
  6

  9
$DIMLTEX2
  6

  9
$DIMTXTDIRECTION
 70
     0
  9
$LUNITS
 70
     2
  9
$LUPREC
 70
     4
  9
$SKETCHINC
 40
1.0
  9
$FILLETRAD
 40
10.0
  9
$AUNITS
 70
     0
  9
$AUPREC
 70
     0
  9
$MENU
  1
.
  9
$ELEVATION
 40
0.0
  9
$PELEVATION
 40
0.0
  9
$THICKNESS
 40
0.0
  9
$LIMCHECK
 70
     0
  9
$CHAMFERA
 40
10.0
  9
$CHAMFERB
 40
10.0
  9
$CHAMFERC
 40
20.0
  9
$CHAMFERD
 40
0.0
  9
$SKPOLY
 70
     0
  9
$TDCREATE
 40
2459432.490005718
  9
$TDUCREATE
 40
2459432.115005718
  9
$TDUPDATE
 40
2459432.490005729
  9
$TDUUPDATE
 40
2459432.115005729
  9
$TDINDWG
 40
0.0000000116
  9
$TDUSRTIMER
 40
0.0000000116
  9
$USRTIMER
 70
     1
  9
$ANGBASE
 50
0.0
  9
$ANGDIR
 70
     0
  9
$PDMODE
 70
     0
  9
$PDSIZE
 40
0.0
  9
$PLINEWID
 40
0.0
  9
$SPLFRAME
 70
     0
  9
$SPLINETYPE
 70
     6
  9
$SPLINESEGS
 70
     8
  9
$HANDSEED
  5
343
  9
$SURFTAB1
 70
     6
  9
$SURFTAB2
 70
     6
  9
$SURFTYPE
 70
     6
  9
$SURFU
 70
     6
  9
$SURFV
 70
     6
  9
$UCSBASE
  2

  9
$UCSNAME
  2

  9
$UCSORG
 10
0.0
 20
0.0
 30
0.0
  9
$UCSXDIR
 10
1.0
 20
0.0
 30
0.0
  9
$UCSYDIR
 10
0.0
 20
1.0
 30
0.0
  9
$UCSORTHOREF
  2

  9
$UCSORTHOVIEW
 70
     0
  9
$UCSORGTOP
 10
0.0
 20
0.0
 30
0.0
  9
$UCSORGBOTTOM
 10
0.0
 20
0.0
 30
0.0
  9
$UCSORGLEFT
 10
0.0
 20
0.0
 30
0.0
  9
$UCSORGRIGHT
 10
0.0
 20
0.0
 30
0.0
  9
$UCSORGFRONT
 10
0.0
 20
0.0
 30
0.0
  9
$UCSORGBACK
 10
0.0
 20
0.0
 30
0.0
  9
$PUCSBASE
  2

  9
$PUCSNAME
  2

  9
$PUCSORG
 10
0.0
 20
0.0
 30
0.0
  9
$PUCSXDIR
 10
1.0
 20
0.0
 30
0.0
  9
$PUCSYDIR
 10
0.0
 20
1.0
 30
0.0
  9
$PUCSORTHOREF
  2

  9
$PUCSORTHOVIEW
 70
     0
  9
$PUCSORGTOP
 10
0.0
 20
0.0
 30
0.0
  9
$PUCSORGBOTTOM
 10
0.0
 20
0.0
 30
0.0
  9
$PUCSORGLEFT
 10
0.0
 20
0.0
 30
0.0
  9
$PUCSORGRIGHT
 10
0.0
 20
0.0
 30
0.0
  9
$PUCSORGFRONT
 10
0.0
 20
0.0
 30
0.0
  9
$PUCSORGBACK
 10
0.0
 20
0.0
 30
0.0
  9
$USERI1
 70
     0
  9
$USERI2
 70
     0
  9
$USERI3
 70
     0
  9
$USERI4
 70
     0
  9
$USERI5
 70
     0
  9
$USERR1
 40
0.0
  9
$USERR2
 40
0.0
  9
$USERR3
 40
0.0
  9
$USERR4
 40
0.0
  9
$USERR5
 40
0.0
  9
$WORLDVIEW
 70
     1
  9
$SHADEDGE
 70
     3
  9
$SHADEDIF
 70
    70
  9
$TILEMODE
 70
     1
  9
$MAXACTVP
 70
    64
  9
$PINSBASE
 10
0.0
 20
0.0
 30
0.0
  9
$PLIMCHECK
 70
     0
  9
$PEXTMIN
 10
1.000000000000000E+20
 20
1.000000000000000E+20
 30
1.000000000000000E+20
  9
$PEXTMAX
 10
-1.000000000000000E+20
 20
-1.000000000000000E+20
 30
-1.000000000000000E+20
  9
$PLIMMIN
 10
0.0
 20
0.0
  9
$PLIMMAX
 10
420.0
 20
297.0
  9
$UNITMODE
 70
     0
  9
$VISRETAIN
 70
     1
  9
$PLINEGEN
 70
     0
  9
$PSLTSCALE
 70
     1
  9
$TREEDEPTH
 70
  3020
  9
$CMLSTYLE
  2
Standard
  9
$CMLJUST
 70
     0
  9
$CMLSCALE
 40
20.0
  9
$PROXYGRAPHICS
 70
     1
  9
$MEASUREMENT
 70
     1
  9
$CELWEIGHT
370
    -1
  9
$ENDCAPS
280
     0
  9
$JOINSTYLE
280
     0
  9
$LWDISPLAY
290
     0
  9
$INSUNITS
 70
     4
  9
$HYPERLINKBASE
  1

  9
$STYLESHEET
  1

  9
$XEDIT
290
     1
  9
$CEPSNTYPE
380
     0
  9
$PSTYLEMODE
290
     1
  9
$FINGERPRINTGUID
  2
{D269DB82-3E14-4059-A7CE-73B7DB124E12}
  9
$VERSIONGUID
  2
{FAEB1C32-E019-11D5-929B-00C0DF256EC4}
  9
$EXTNAMES
290
     1
  9
$PSVPSCALE
 40
0.0
  9
$OLESTARTUP
290
     0
  9
$SORTENTS
280
   127
  9
$INDEXCTL
280
     0
  9
$HIDETEXT
280
     1
  9
$XCLIPFRAME
280
     2
  9
$HALOGAP
280
     0
  9
$OBSCOLOR
 70
   257
  9
$OBSLTYPE
280
     0
  9
$INTERSECTIONDISPLAY
280
     0
  9
$INTERSECTIONCOLOR
 70
   257
  9
$DIMASSOC
280
     2
  9
$PROJECTNAME
  1

  9
$CAMERADISPLAY
290
     0
  9
$LENSLENGTH
 40
50.0
  9
$CAMERAHEIGHT
 40
0.0
  9
$STEPSPERSEC
 40
2.0
  9
$STEPSIZE
 40
6.0
  9
$3DDWFPREC
 40
2.0
  9
$PSOLWIDTH
 40
5.0
  9
$PSOLHEIGHT
 40
80.0
  9
$LOFTANG1
 40
1.570796326794897
  9
$LOFTANG2
 40
1.570796326794897
  9
$LOFTMAG1
 40
0.0
  9
$LOFTMAG2
 40
0.0
  9
$LOFTPARAM
 70
     7
  9
$LOFTNORMALS
280
     1
  9
$LATITUDE
 40
37.795
  9
$LONGITUDE
 40
-122.394
  9
$NORTHDIRECTION
 40
0.0
  9
$TIMEZONE
 70
 -8000
  9
$LIGHTGLYPHDISPLAY
280
     1
  9
$TILEMODELIGHTSYNCH
280
     1
  9
$SOLIDHIST
280
     1
  9
$SHOWHIST
280
     1
  9
$DWFFRAME
280
     2
  9
$DGNFRAME
280
     2
  9
$REALWORLDSCALE
290
     1
  9
$INTERFERECOLOR
 62
   256
  9
$CSHADOW
280
     0
  9
$SHADOWPLANELOCATION
 40
0.0
  0
ENDSEC
  0
SECTION
  2
CLASSES
  0
CLASS
  1
ACDBDICTIONARYWDFLT
  2
AcDbDictionaryWithDefault
  3
ObjectDBX Classes
 90
        0
 91
        4
280
     0
281
     0
  0
CLASS
  1
VISUALSTYLE
  2
AcDbVisualStyle
  3
ObjectDBX Classes
 90
     4095
 91
        4
280
     0
281
     0
  0
CLASS
  1
MATERIAL
  2
AcDbMaterial
  3
ObjectDBX Classes
 90
     1153
 91
        4
280
     0
281
     0
  0
ENDSEC
  0
SECTION
  2
TABLES
  0
TABLE
  2
VPORT
  5
8
330
0
100
AcDbSymbolTable
 70
     1
  0
VPORT
  5
29
330
8
100
AcDbSymbolTableRecord
100
AcDbViewportTableRecord
  2
*Active
 70
     0
 10
0.0
 20
0.0
 11
1.0
 21
1.0
 12
0.0
 22
0.0
 13
0.0
 23
0.0
 14
10.0
 24
10.0
 15
10.0
 25
10.0
 16
0.0
 26
0.0
 36
1.0
 17
0.0
 27
0.0
 37
0.0
 40
9801.0
 41
1.414141414141414
 42
50.0
 43
0.0
 44
0.0
 50
0.0
 51
0.0
 71
     0
 72
 10000
 73
     1
 74
     3
 75
     0
 76
     0
 77
     0
 78
     0
281
     0
 65
     1
110
0.0
120
0.0
130
0.0
111
1.0
121
0.0
131
0.0
112
0.0
122
1.0
132
0.0
 79
     0
146
0.0
 60
     3
 61
     5
292
     1
282
     1
141
0.0
142
0.0
 63
   250
  0
ENDTAB
  0
TABLE
  2
LTYPE
  5
5
330
0
100
AcDbSymbolTable
 70
     4
  0
LTYPE
  5
14
330
5
100
AcDbSymbolTableRecord
100
AcDbLinetypeTableRecord
  2
ByBlock
 70
     0
  3

 72
    65
 73
     0
 40
0.0
  0
LTYPE
  5
15
330
5
100
AcDbSymbolTableRecord
100
AcDbLinetypeTableRecord
  2
ByLayer
 70
     0
  3

 72
    65
 73
     0
 40
0.0
  0
LTYPE
  5
16
330
5
100
AcDbSymbolTableRecord
100
AcDbLinetypeTableRecord
  2
Continuous
 70
     0
  3
Solid line
 72
    65
 73
     0
 40
0.0
  0
LTYPE
  5
3F
330
5
100
AcDbSymbolTableRecord
100
AcDbLinetypeTableRecord
  2
JWW_HOJO
 70
     0
  3
  -   -   -   -   -   -   -   - 
 72
    65
 73
     2
 40
1.693333333333333
 49
-1.27
 74
     0
 49
0.4233333333333333
 74
     0
  0
LTYPE
  5
40
330
5
100
AcDbSymbolTableRecord
100
AcDbLinetypeTableRecord
  2
JWW_CENTER1
 70
     0
  3
-----  --  ----------  --  -----
 72
    65
 73
     4
 40
6.773333333333333
 49
4.233333333333333
 74
     0
 49
-0.8466666666666667
 74
     0
 49
0.8466666666666667
 74
     0
 49
-0.8466666666666667
 74
     0
  0
LTYPE
  5
41
330
5
100
AcDbSymbolTableRecord
100
AcDbLinetypeTableRecord
  2
JWW_DASHED1
 70
     0
  3
-  --  --  --  --  --  --  --  -
 72
    65
 73
     2
 40
1.693333333333333
 49
0.8466666666666667
 74
     0
 49
-0.8466666666666667
 74
     0
  0
ENDTAB
  0
TABLE
  2
LAYER
  5
2
330
0
100
AcDbSymbolTable
 70
    13
  0
LAYER
  5
10
330
2
100
AcDbSymbolTableRecord
100
AcDbLayerTableRecord
  2
0
 70
     0
 62
     7
  6
Continuous
370
    -3
390
F
347
3E
  0
LAYER
  5
42
330
2
100
AcDbSymbolTableRecord
100
AcDbLayerTableRecord
  2
F-1_枠
 70
     0
 62
     7
  6
Continuous
370
    -3
390
F
347
3E
  0
LAYER
  5
43
330
2
100
AcDbSymbolTableRecord
100
AcDbLayerTableRecord
  2
F-0_補助線
 70
     0
 62
     7
  6
Continuous
370
    -3
390
F
347
3E
  0
LAYER
  5
44
330
2
100
AcDbSymbolTableRecord
100
AcDbLayerTableRecord
  2
0-B_寸法
 70
     0
 62
     7
  6
Continuous
370
    -3
390
F
347
3E
  0
LAYER
  5
45
330
2
100
AcDbSymbolTableRecord
100
AcDbLayerTableRecord
  2
0-1_通り芯
 70
     0
 62
     7
  6
Continuous
370
    -3
390
F
347
3E
  0
LAYER
  5
46
330
2
100
AcDbSymbolTableRecord
100
AcDbLayerTableRecord
  2
0-4_枠
 70
     0
 62
     7
  6
Continuous
370
    -3
390
F
347
3E
  0
LAYER
  5
47
330
2
100
AcDbSymbolTableRecord
100
AcDbLayerTableRecord
  2
0-2_扉
 70
     0
 62
     7
  6
Continuous
370
    -3
390
F
347
3E
  0
LAYER
  5
48
330
2
100
AcDbSymbolTableRecord
100
AcDbLayerTableRecord
  2
0-0_補助線
 70
     0
 62
     7
  6
Continuous
370
    -3
390
F
347
3E
  0
LAYER
  5
49
330
2
100
AcDbSymbolTableRecord
100
AcDbLayerTableRecord
  2
F-A_文字
 70
     0
 62
     7
  6
Continuous
370
    -3
390
F
347
3E
  0
LAYER
  5
4A
330
2
100
AcDbSymbolTableRecord
100
AcDbLayerTableRecord
  2
0-3_仕上げ
 70
     0
 62
     7
  6
Continuous
370
    -3
390
F
347
3E
  0
LAYER
  5
4B
330
2
100
AcDbSymbolTableRecord
100
AcDbLayerTableRecord
  2
0-C_ハッチ
 70
     0
 62
     7
  6
Continuous
370
    -3
390
F
347
3E
  0
LAYER
  5
4C
330
2
100
AcDbSymbolTableRecord
100
AcDbLayerTableRecord
  2
0-A_文字
 70
     0
 62
     7
  6
Continuous
370
    -3
390
F
347
3E
  0
LAYER
  5
4D
330
2
100
AcDbSymbolTableRecord
100
AcDbLayerTableRecord
  2
引手
 70
     0
 62
     7
  6
Continuous
370
    -3
390
F
347
3E
  0
ENDTAB
  0
TABLE
  2
STYLE
  5
3
330
0
100
AcDbSymbolTable
 70
     1
  0
STYLE
  5
11
330
3
100
AcDbSymbolTableRecord
100
AcDbTextStyleTableRecord
  2
Standard
 70
     0
 40
0.0
 41
1.0
 50
0.0
 71
     0
 42
2.5
  3
txt
  4

  0
ENDTAB
  0
TABLE
  2
VIEW
  5
6
330
0
100
AcDbSymbolTable
 70
     0
  0
ENDTAB
  0
TABLE
  2
UCS
  5
7
330
0
100
AcDbSymbolTable
 70
     0
  0
ENDTAB
  0
TABLE
  2
APPID
  5
9
330
0
100
AcDbSymbolTable
 70
     1
  0
APPID
  5
12
330
9
100
AcDbSymbolTableRecord
100
AcDbRegAppTableRecord
  2
ACAD
 70
     0
  0
ENDTAB
  0
TABLE
  2
DIMSTYLE
  5
A
330
0
100
AcDbSymbolTable
 70
     1
100
AcDbDimStyleTable
  0
DIMSTYLE
105
27
330
A
100
AcDbSymbolTableRecord
100
AcDbDimStyleTableRecord
  2
ISO-25
 70
     0
 41
2.5
 42
0.625
 43
3.75
 44
1.25
 73
     0
 74
     0
 77
     1
 78
     8
140
2.5
141
2.5
143
0.03937007874016
147
0.625
171
     3
172
     1
178
     0
271
     2
272
     2
274
     3
278
    44
283
     0
284
     8
340
11
  0
ENDTAB
  0
TABLE
  2
BLOCK_RECORD
  5
1
330
0
100
AcDbSymbolTable
 70
     1
  0
BLOCK_RECORD
  5
1F
330
1
100
AcDbSymbolTableRecord
100
AcDbBlockTableRecord
  2
*Model_Space
340
22
 70
     0
280
     1
281
     0
  0
BLOCK_RECORD
  5
1B
330
1
100
AcDbSymbolTableRecord
100
AcDbBlockTableRecord
  2
*Paper_Space
340
1E
 70
     0
280
     1
281
     0
  0
BLOCK_RECORD
  5
23
330
1
100
AcDbSymbolTableRecord
100
AcDbBlockTableRecord
  2
*Paper_Space0
340
26
 70
     0
280
     1
281
     0
  0
ENDTAB
  0
ENDSEC
  0
SECTION
  2
BLOCKS
  0
BLOCK
  5
20
330
1F
100
AcDbEntity
  8
0
100
AcDbBlockBegin
  2
*Model_Space
 70
     0
 10
0.0
 20
0.0
 30
0.0
  3
*Model_Space
  1

  0
ENDBLK
  5
21
330
1F
100
AcDbEntity
  8
0
100
AcDbBlockEnd
  0
BLOCK
  5
1C
330
1B
100
AcDbEntity
 67
     1
  8
0
100
AcDbBlockBegin
  2
*Paper_Space
 70
     0
 10
0.0
 20
0.0
 30
0.0
  3
*Paper_Space
  1

  0
ENDBLK
  5
1D
330
1B
100
AcDbEntity
 67
     1
  8
0
100
AcDbBlockEnd
  0
BLOCK
  5
24
330
23
100
AcDbEntity
  8
0
100
AcDbBlockBegin
  2
*Paper_Space0
 70
     0
 10
0.0
 20
0.0
 30
0.0
  3
*Paper_Space0
  1

  0
ENDBLK
  5
25
330
23
100
AcDbEntity
  8
0
100
AcDbBlockEnd
  0
ENDSEC
  0
SECTION
  2
ENTITIES
  0
LINE
  5
4E
330
1F
100
AcDbEntity
  8
F-1_枠
  6
Continuous
 62
   200
370
    20
100
AcDbLine
 10
-5999.999752560178
 20
4174.999769056166
 30
0.0
 11
5699.998762800888
 21
4174.999769056166
 31
0.0
  0
LINE
  5
4F
330
1F
100
AcDbEntity
  8
F-0_補助線
  6
JWW_HOJO
 62
   120
370
     5
100
AcDbLine
 10
-6300.0
 20
-4455.0
 30
0.0
 11
-6300.0
 21
4424.999604096284
 31
0.0
  0
LINE
  5
50
330
1F
100
AcDbEntity
  8
F-0_補助線
  6
JWW_HOJO
 62
   120
370
     5
100
AcDbLine
 10
5999.999010240709
 20
4424.999604096284
 30
0.0
 11
5999.999010240709
 21
-4455.0
 31
0.0
  0
LINE
  5
51
330
1F
100
AcDbEntity
  8
F-0_補助線
  6
JWW_HOJO
 62
   120
370
     5
100
AcDbLine
 10
5999.999010240709
 20
-4455.0
 30
0.0
 11
-6300.0
 21
-4455.0
 31
0.0
  0
LINE
  5
52
330
1F
100
AcDbEntity
  8
F-1_枠
  6
Continuous
 62
   200
370
    20
100
AcDbLine
 10
-5999.999752560178
 20
4164.999983504013
 30
0.0
 11
5699.998762800888
 21
4164.999983504013
 31
0.0
  0
LINE
  5
53
330
1F
100
AcDbEntity
  8
F-1_枠
  6
Continuous
 62
   200
370
    20
100
AcDbLine
 10
-5999.999752560178
 20
4169.999505120355
 30
0.0
 11
5699.998762800888
 21
4169.999505120355
 31
0.0
  0
LINE
  5
54
330
1F
100
AcDbEntity
  8
F-1_枠
  6
Continuous
 62
   200
370
    20
100
AcDbLine
 10
5689.998977248734
 20
4174.999769056166
 30
0.0
 11
5689.998977248734
 21
-4205.000164959882
 31
0.0
  0
LINE
  5
55
330
1F
100
AcDbEntity
  8
F-1_枠
  6
Continuous
 62
   200
370
    20
100
AcDbLine
 10
5694.998498865077
 20
4174.999769056166
 30
0.0
 11
5694.998498865077
 21
-4205.000164959882
 31
0.0
  0
LINE
  5
56
330
1F
100
AcDbEntity
  8
F-1_枠
  6
Continuous
 62
   200
370
    20
100
AcDbLine
 10
5699.998762800888
 20
4174.999769056166
 30
0.0
 11
5699.998762800888
 21
-4205.000164959882
 31
0.0
  0
LINE
  5
57
330
1F
100
AcDbEntity
  8
F-1_枠
  6
Continuous
 62
   200
370
    20
100
AcDbLine
 10
-5989.999990205507
 20
4174.999769056166
 30
0.0
 11
-5989.999990205507
 21
-4205.000164959882
 31
0.0
  0
LINE
  5
58
330
1F
100
AcDbEntity
  8
F-1_枠
  6
Continuous
 62
   200
370
    20
100
AcDbLine
 10
-5994.999975771518
 20
4174.999769056166
 30
0.0
 11
-5994.999975771518
 21
-4205.000164959882
 31
0.0
  0
LINE
  5
59
330
1F
100
AcDbEntity
  8
F-1_枠
  6
Continuous
 62
   200
370
    20
100
AcDbLine
 10
-5999.99998453501
 20
4174.999769056166
 30
0.0
 11
-5999.99998453501
 21
-4205.000164959882
 31
0.0
  0
LINE
  5
5A
330
1F
100
AcDbEntity
  8
F-1_枠
  6
Continuous
 62
   200
370
    20
100
AcDbLine
 10
-5490.000018557986
 20
4174.999769056166
 30
0.0
 11
-5490.000018557986
 21
-3790.000179909372
 31
0.0
  0
LINE
  5
5B
330
1F
100
AcDbEntity
  8
F-0_補助線
  6
JWW_HOJO
 62
   120
370
     5
100
AcDbLine
 10
-6300.0
 20
4424.999604096284
 30
0.0
 11
5999.999010240709
 21
4424.999604096284
 31
0.0
  0
LINE
  5
5C
330
1F
100
AcDbEntity
  8
F-0_補助線
  6
JWW_HOJO
 62
     7
370
     9
100
AcDbLine
 10
849.9995876002961
 20
-3795.000003092998
 30
0.0
 11
849.9995876002961
 21
-4195.000008247994
 31
0.0
  0
LINE
  5
5D
330
1F
100
AcDbEntity
  8
F-0_補助線
  6
JWW_HOJO
 62
     7
370
     9
100
AcDbLine
 10
349.9999175200594
 20
-3795.000003092998
 30
0.0
 11
349.9999175200594
 21
-4195.000008247994
 31
0.0
  0
LINE
  5
5E
330
1F
100
AcDbEntity
  8
F-1_枠
  6
Continuous
 62
   200
370
    20
100
AcDbLine
 10
5699.998762800888
 20
-4205.000002577498
 30
0.0
 11
-5999.999752560178
 21
-4205.000002577498
 31
0.0
  0
LINE
  5
5F
330
1F
100
AcDbEntity
  8
F-1_枠
  6
Continuous
 62
   200
370
    20
100
AcDbLine
 10
5699.998762800888
 20
-4199.999993814004
 30
0.0
 11
-5999.999752560178
 21
-4199.999993814004
 31
0.0
  0
LINE
  5
60
330
1F
100
AcDbEntity
  8
F-1_枠
  6
Continuous
 62
   200
370
    20
100
AcDbLine
 10
5699.998762800888
 20
-4195.000008247994
 30
0.0
 11
-5999.999752560178
 21
-4195.000008247994
 31
0.0
  0
LINE
  5
61
330
1F
100
AcDbEntity
  8
F-1_枠
  6
Continuous
 62
   200
370
    20
100
AcDbLine
 10
4189.999224688556
 20
-3795.000003092998
 30
0.0
 11
4189.999224688556
 21
-4195.000008247994
 31
0.0
  0
LINE
  5
62
330
1F
100
AcDbEntity
  8
F-1_枠
  6
Continuous
 62
   200
370
    20
100
AcDbLine
 10
2689.998729808911
 20
-3795.000003092998
 30
0.0
 11
2689.998729808911
 21
-4195.000008247994
 31
0.0
  0
LINE
  5
63
330
1F
100
AcDbEntity
  8
F-1_枠
  6
Continuous
 62
   200
370
    20
100
AcDbLine
 10
-150.0001237199109
 20
-3795.000003092998
 30
0.0
 11
-150.0001237199109
 21
-4195.000008247994
 31
0.0
  0
LINE
  5
64
330
1F
100
AcDbEntity
  8
F-1_枠
  6
Continuous
 62
   200
370
    20
100
AcDbLine
 10
-150.0001237199109
 20
-3994.999936078046
 30
0.0
 11
5689.998977248734
 21
-3995.005364289155
 31
0.0
  0
LINE
  5
65
330
1F
100
AcDbEntity
  8
F-0_補助線
  6
JWW_HOJO
 62
     7
370
     9
100
AcDbLine
 10
-5989.999990205507
 20
-3994.99993607839
 30
0.0
 11
-150.0001237199109
 21
-3994.99993607839
 31
0.0
  0
LINE
  5
66
330
1F
100
AcDbEntity
  8
F-0_補助線
  6
JWW_HOJO
 62
     7
370
     9
100
AcDbLine
 10
-5989.999990205507
 20
-3904.99993607839
 30
0.0
 11
-150.0001237199109
 21
-3904.99993607839
 31
0.0
  0
LINE
  5
67
330
1F
100
AcDbEntity
  8
F-0_補助線
  6
JWW_HOJO
 62
     7
370
     9
100
AcDbLine
 10
-5989.999990205507
 20
-4084.99993607839
 30
0.0
 11
-150.0001237199109
 21
-4084.99993607839
 31
0.0
  0
LINE
  5
68
330
1F
100
AcDbEntity
  8
F-0_補助線
  6
JWW_HOJO
 62
     7
370
     9
100
AcDbLine
 10
-150.0002584955388
 20
-4139.999739777983
 30
0.0
 11
5689.998842473105
 21
-4140.005167989091
 31
0.0
  0
LINE
  5
69
330
1F
100
AcDbEntity
  8
F-0_補助線
  6
JWW_HOJO
 62
     7
370
     9
100
AcDbLine
 10
-150.0001748415872
 20
-4049.999739778022
 30
0.0
 11
5689.998926127057
 21
-4050.005167989131
 31
0.0
  0
LINE
  5
6A
330
1F
100
AcDbEntity
  8
F-0_補助線
  6
JWW_HOJO
 62
     7
370
     9
100
AcDbLine
 10
-150.0000725978671
 20
-3939.99973721807
 30
0.0
 11
5689.999028370777
 21
-3940.005165429179
 31
0.0
  0
LINE
  5
6B
330
1F
100
AcDbEntity
  8
F-0_補助線
  6
JWW_HOJO
 62
     7
370
     9
100
AcDbLine
 10
-149.9999889439155
 20
-3849.999737218109
 30
0.0
 11
5689.999112024728
 21
-3850.005165429218
 31
0.0
  0
LINE
  5
6C
330
1F
100
AcDbEntity
  8
F-0_補助線
  6
JWW_HOJO
 62
     7
370
     9
100
AcDbLine
 10
2779.998729808911
 20
-3795.000003092998
 30
0.0
 11
2779.998729808911
 21
-4195.000008247994
 31
0.0
  0
LINE
  5
6D
330
1F
100
AcDbEntity
  8
F-0_補助線
  6
JWW_HOJO
 62
     7
370
     9
100
AcDbLine
 10
-60.0001237199109
 20
-3795.000003092998
 30
0.0
 11
-60.0001237199109
 21
-4195.000008247994
 31
0.0
  0
LINE
  5
6E
330
1F
100
AcDbEntity
  8
F-0_補助線
  6
JWW_HOJO
 62
     7
370
     9
100
AcDbLine
 10
4279.999224688556
 20
-3795.000003092998
 30
0.0
 11
4279.999224688556
 21
-4195.000008247994
 31
0.0
  0
LINE
  5
6F
330
1F
100
AcDbEntity
  8
F-0_補助線
  6
JWW_HOJO
 62
     7
370
     9
100
AcDbLine
 10
-5247.547376752838
 20
-3795.000003092999
 30
0.0
 11
-5247.547376752838
 21
-4205.000164959882
 31
0.0
  0
LINE
  5
70
330
1F
100
AcDbEntity
  8
F-0_補助線
  6
JWW_HOJO
 62
     7
370
     9
100
AcDbLine
 10
-210.0001237199109
 20
-3795.000003092998
 30
0.0
 11
-210.0001237199109
 21
-4195.000008247994
 31
0.0
  0
LWPOLYLINE
  5
71
330
1F
100
AcDbEntity
  8
0-B_寸法
  6
Continuous
 62
     7
370
     9
100
AcDbPolyline
 90
        4
 70
     1
 43
3.0
 10
-2564.500018557985
 20
1438.000148463894
 42
0.4142135623731
 10
-2566.000018557985
 20
1439.500148463894
 42
0.4142135623731
 10
-2567.500018557985
 20
1438.000148463894
 42
0.4142135623731
 10
-2566.000018557985
 20
1436.500148463894
 42
0.4142135623731
  0
LINE
  5
72
330
1F
100
AcDbEntity
  8
0-B_寸法
  6
Continuous
 62
   120
370
     5
100
AcDbLine
 10
-2566.000018557985
 20
3421.000148463893
 30
0.0
 11
-2566.000018557985
 21
1438.000148463894
 31
0.0
  0
LWPOLYLINE
  5
73
330
1F
100
AcDbEntity
  8
0-B_寸法
  6
Continuous
 62
     7
370
     9
100
AcDbPolyline
 90
        4
 70
     1
 43
3.0
 10
-2564.500018557985
 20
3421.000148463893
 42
0.4142135623731
 10
-2566.000018557985
 20
3422.500148463893
 42
0.4142135623731
 10
-2567.500018557985
 20
3421.000148463893
 42
0.4142135623731
 10
-2566.000018557985
 20
3419.500148463893
 42
0.4142135623731
  0
LINE
  5
74
330
1F
100
AcDbEntity
  8
0-1_通り芯
  6
JWW_CENTER1
 62
   120
370
     5
100
AcDbLine
 10
-709.0000185579822
 20
2395.500148463894
 30
0.0
 11
-791.0000185579827
 21
2395.500148463894
 31
0.0
  0
LINE
  5
75
330
1F
100
AcDbEntity
  8
0-1_通り芯
  6
JWW_CENTER1
 62
   120
370
     5
100
AcDbLine
 10
-750.0000185579825
 20
2476.500148463893
 30
0.0
 11
-750.0000185579825
 21
2314.500148463894
 31
0.0
  0
LINE
  5
76
330
1F
100
AcDbEntity
  8
0-B_寸法
  6
Continuous
 62
   120
370
     5
100
AcDbLine
 10
-2566.000018557985
 20
1438.000148463894
 30
0.0
 11
-2366.000018557984
 21
1438.000148463894
 31
0.0
  0
LINE
  5
77
330
1F
100
AcDbEntity
  8
0-B_寸法
  6
Continuous
 62
   120
370
     5
100
AcDbLine
 10
-2566.000018557985
 20
3421.000148463893
 30
0.0
 11
-2366.000018557984
 21
3421.000148463893
 31
0.0
  0
LINE
  5
78
330
1F
100
AcDbEntity
  8
0-4_枠
  6
Continuous
 62
    92
370
    13
100
AcDbLine
 10
-2316.000018557984
 20
1418.000148463893
 30
0.0
 11
-672.0000185579827
 21
1418.000148463893
 31
0.0
  0
LINE
  5
79
330
1F
100
AcDbEntity
  8
0-4_枠
  6
Continuous
 62
    92
370
    13
100
AcDbLine
 10
-2286.000018557984
 20
1433.000148463893
 30
0.0
 11
-702.0000185579827
 21
1433.000148463893
 31
0.0
  0
LINE
  5
7A
330
1F
100
AcDbEntity
  8
0-2_扉
  6
JWW_DASHED1
 62
   120
370
     5
100
AcDbLine
 10
-702.0000185579827
 20
1438.000148463894
 30
0.0
 11
-699.0000185579828
 21
1438.000148463894
 31
0.0
  0
LINE
  5
7B
330
1F
100
AcDbEntity
  8
0-2_扉
  6
JWW_DASHED1
 62
   120
370
     5
100
AcDbLine
 10
-699.0000185579828
 20
1438.000148463894
 30
0.0
 11
-699.0000185579828
 21
3421.000148463893
 31
0.0
  0
LINE
  5
7C
330
1F
100
AcDbEntity
  8
0-2_扉
  6
JWW_DASHED1
 62
   120
370
     5
100
AcDbLine
 10
-702.0000185579827
 20
3421.000148463893
 30
0.0
 11
-699.0000185579828
 21
3421.000148463893
 31
0.0
  0
LINE
  5
7D
330
1F
100
AcDbEntity
  8
0-4_枠
  6
JWW_DASHED1
 62
   120
370
     5
100
AcDbLine
 10
-1509.000018557983
 20
1433.000148463893
 30
0.0
 11
-1509.000018557983
 21
3435.000148463894
 31
0.0
  0
LINE
  5
7E
330
1F
100
AcDbEntity
  8
0-4_枠
  6
JWW_DASHED1
 62
   120
370
     5
100
AcDbLine
 10
-1479.000018557983
 20
1433.000148463893
 30
0.0
 11
-1479.000018557983
 21
3435.000148463894
 31
0.0
  0
LINE
  5
7F
330
1F
100
AcDbEntity
  8
0-2_扉
  6
JWW_DASHED1
 62
   120
370
     5
100
AcDbLine
 10
-1509.000018557983
 20
3421.000148463893
 30
0.0
 11
-1509.000018557983
 21
3417.000148463893
 31
0.0
  0
LINE
  5
80
330
1F
100
AcDbEntity
  8
0-2_扉
  6
Continuous
 62
    92
370
    13
100
AcDbLine
 10
-1509.000018557983
 20
3421.000148463893
 30
0.0
 11
-1509.000018557983
 21
1438.000148463894
 31
0.0
  0
LINE
  5
81
330
1F
100
AcDbEntity
  8
0-2_扉
  6
Continuous
 62
    92
370
    13
100
AcDbLine
 10
-702.0000185579827
 20
3421.000148463893
 30
0.0
 11
-1509.000018557983
 21
3421.000148463893
 31
0.0
  0
LINE
  5
82
330
1F
100
AcDbEntity
  8
0-2_扉
  6
Continuous
 62
    92
370
    13
100
AcDbLine
 10
-702.0000185579827
 20
1438.000148463894
 30
0.0
 11
-1509.000018557983
 21
1438.000148463894
 31
0.0
  0
LWPOLYLINE
  5
83
330
1F
100
AcDbEntity
  8
0-B_寸法
  6
Continuous
 62
     7
370
     9
100
AcDbPolyline
 90
        4
 70
     1
 43
3.0
 10
-170.5000185579812
 20
1438.000148463894
 42
0.4142135623731
 10
-172.0000185579812
 20
1439.500148463894
 42
0.4142135623731
 10
-173.5000185579812
 20
1438.000148463894
 42
0.4142135623731
 10
-172.0000185579812
 20
1436.500148463894
 42
0.4142135623731
  0
LINE
  5
84
330
1F
100
AcDbEntity
  8
0-B_寸法
  6
Continuous
 62
   120
370
     5
100
AcDbLine
 10
-172.0000185579812
 20
3421.000148463893
 30
0.0
 11
-172.0000185579812
 21
1438.000148463894
 31
0.0
  0
LWPOLYLINE
  5
85
330
1F
100
AcDbEntity
  8
0-B_寸法
  6
Continuous
 62
     7
370
     9
100
AcDbPolyline
 90
        4
 70
     1
 43
3.0
 10
-170.5000185579812
 20
3421.000148463893
 42
0.4142135623731
 10
-172.0000185579812
 20
3422.500148463893
 42
0.4142135623731
 10
-173.5000185579812
 20
3421.000148463893
 42
0.4142135623731
 10
-172.0000185579812
 20
3419.500148463893
 42
0.4142135623731
  0
LINE
  5
86
330
1F
100
AcDbEntity
  8
0-1_通り芯
  6
JWW_CENTER1
 62
   120
370
     5
100
AcDbLine
 10
1490.999981442021
 20
2395.500148463894
 30
0.0
 11
1408.999981442022
 21
2395.500148463894
 31
0.0
  0
LINE
  5
87
330
1F
100
AcDbEntity
  8
0-1_通り芯
  6
JWW_CENTER1
 62
   120
370
     5
100
AcDbLine
 10
1449.999981442022
 20
2476.500148463893
 30
0.0
 11
1449.999981442022
 21
2314.500148463894
 31
0.0
  0
LINE
  5
88
330
1F
100
AcDbEntity
  8
0-4_枠
  6
Continuous
 62
    92
370
    13
100
AcDbLine
 10
77.99998144201908
 20
1418.000148463893
 30
0.0
 11
1527.99998144202
 21
1418.000148463893
 31
0.0
  0
LINE
  5
89
330
1F
100
AcDbEntity
  8
0-4_枠
  6
Continuous
 62
    92
370
    13
100
AcDbLine
 10
107.9999814420191
 20
1433.000148463893
 30
0.0
 11
1497.99998144202
 21
1433.000148463893
 31
0.0
  0
LINE
  5
8A
330
1F
100
AcDbEntity
  8
0-2_扉
  6
JWW_DASHED1
 62
   120
370
     5
100
AcDbLine
 10
1497.99998144202
 20
1438.000148463894
 30
0.0
 11
1500.999981442021
 21
1438.000148463894
 31
0.0
  0
LINE
  5
8B
330
1F
100
AcDbEntity
  8
0-2_扉
  6
JWW_DASHED1
 62
   120
370
     5
100
AcDbLine
 10
1500.999981442021
 20
1438.000148463894
 30
0.0
 11
1500.999981442021
 21
3421.000148463893
 31
0.0
  0
LINE
  5
8C
330
1F
100
AcDbEntity
  8
0-2_扉
  6
JWW_DASHED1
 62
   120
370
     5
100
AcDbLine
 10
1497.99998144202
 20
3421.000148463893
 30
0.0
 11
1500.999981442021
 21
3421.000148463893
 31
0.0
  0
LINE
  5
8D
330
1F
100
AcDbEntity
  8
0-B_寸法
  6
Continuous
 62
   120
370
     5
100
AcDbLine
 10
-172.0000185579812
 20
1438.000148463894
 30
0.0
 11
27.99998144201936
 21
1438.000148463894
 31
0.0
  0
LINE
  5
8E
330
1F
100
AcDbEntity
  8
0-B_寸法
  6
Continuous
 62
   120
370
     5
100
AcDbLine
 10
-172.0000185579812
 20
3421.000148463893
 30
0.0
 11
27.99998144201936
 21
3421.000148463893
 31
0.0
  0
LINE
  5
8F
330
1F
100
AcDbEntity
  8
0-2_扉
  6
Continuous
 62
    92
370
    13
100
AcDbLine
 10
1497.99998144202
 20
3421.000148463893
 30
0.0
 11
787.9999814420205
 21
3421.000148463893
 31
0.0
  0
LINE
  5
90
330
1F
100
AcDbEntity
  8
0-2_扉
  6
Continuous
 62
    92
370
    13
100
AcDbLine
 10
1497.99998144202
 20
1438.000148463894
 30
0.0
 11
787.9999814420205
 21
1438.000148463894
 31
0.0
  0
LINE
  5
91
330
1F
100
AcDbEntity
  8
0-4_枠
  6
JWW_DASHED1
 62
   120
370
     5
100
AcDbLine
 10
787.9999814420205
 20
1433.000148463893
 30
0.0
 11
787.9999814420205
 21
3435.000148463894
 31
0.0
  0
LINE
  5
92
330
1F
100
AcDbEntity
  8
0-4_枠
  6
JWW_DASHED1
 62
   120
370
     5
100
AcDbLine
 10
817.9999814420205
 20
1433.000148463893
 30
0.0
 11
817.9999814420205
 21
3435.000148463894
 31
0.0
  0
LINE
  5
93
330
1F
100
AcDbEntity
  8
0-2_扉
  6
JWW_DASHED1
 62
   120
370
     5
100
AcDbLine
 10
787.9999814420205
 20
3421.000148463893
 30
0.0
 11
787.9999814420205
 21
3417.000148463893
 31
0.0
  0
LINE
  5
94
330
1F
100
AcDbEntity
  8
0-2_扉
  6
Continuous
 62
    92
370
    13
100
AcDbLine
 10
787.9999814420205
 20
3421.000148463893
 30
0.0
 11
787.9999814420205
 21
1438.000148463894
 31
0.0
  0
LWPOLYLINE
  5
95
330
1F
100
AcDbEntity
  8
0-B_寸法
  6
Continuous
 62
     7
370
     9
100
AcDbPolyline
 90
        4
 70
     1
 43
3.0
 10
4103.499981442023
 20
1438.000148463894
 42
0.4142135623731
 10
4101.999981442023
 20
1439.500148463894
 42
0.4142135623731
 10
4100.499981442023
 20
1438.000148463894
 42
0.4142135623731
 10
4101.999981442023
 20
1436.500148463894
 42
0.4142135623731
  0
LINE
  5
96
330
1F
100
AcDbEntity
  8
0-B_寸法
  6
Continuous
 62
   120
370
     5
100
AcDbLine
 10
4101.999981442023
 20
3421.000148463893
 30
0.0
 11
4101.999981442023
 21
1438.000148463894
 31
0.0
  0
LWPOLYLINE
  5
97
330
1F
100
AcDbEntity
  8
0-B_寸法
  6
Continuous
 62
     7
370
     9
100
AcDbPolyline
 90
        4
 70
     1
 43
3.0
 10
4103.499981442023
 20
3421.000148463893
 42
0.4142135623731
 10
4101.999981442023
 20
3422.500148463893
 42
0.4142135623731
 10
4100.499981442023
 20
3421.000148463893
 42
0.4142135623731
 10
4101.999981442023
 20
3419.500148463893
 42
0.4142135623731
  0
LINE
  5
98
330
1F
100
AcDbEntity
  8
0-B_寸法
  6
Continuous
 62
   120
370
     5
100
AcDbLine
 10
4101.999981442023
 20
1438.000148463894
 30
0.0
 11
4301.999981442023
 21
1438.000148463894
 31
0.0
  0
LINE
  5
99
330
1F
100
AcDbEntity
  8
0-B_寸法
  6
Continuous
 62
   120
370
     5
100
AcDbLine
 10
4101.999981442023
 20
3421.000148463893
 30
0.0
 11
4301.999981442023
 21
3421.000148463893
 31
0.0
  0
LINE
  5
9A
330
1F
100
AcDbEntity
  8
0-1_通り芯
  6
JWW_CENTER1
 62
   120
370
     5
100
AcDbLine
 10
5504.999981442026
 20
2395.500148463894
 30
0.0
 11
5422.999981442025
 21
2395.500148463894
 31
0.0
  0
LINE
  5
9B
330
1F
100
AcDbEntity
  8
0-1_通り芯
  6
JWW_CENTER1
 62
   120
370
     5
100
AcDbLine
 10
5463.999981442026
 20
2476.500148463893
 30
0.0
 11
5463.999981442026
 21
2314.500148463894
 31
0.0
  0
LINE
  5
9C
330
1F
100
AcDbEntity
  8
0-4_枠
  6
Continuous
 62
    92
370
    13
100
AcDbLine
 10
4351.999981442024
 20
1418.000148463893
 30
0.0
 11
5541.999981442023
 21
1418.000148463893
 31
0.0
  0
LINE
  5
9D
330
1F
100
AcDbEntity
  8
0-4_枠
  6
Continuous
 62
    92
370
    13
100
AcDbLine
 10
4381.999981442024
 20
1433.000148463893
 30
0.0
 11
5511.999981442023
 21
1433.000148463893
 31
0.0
  0
LINE
  5
9E
330
1F
100
AcDbEntity
  8
0-2_扉
  6
JWW_DASHED1
 62
   120
370
     5
100
AcDbLine
 10
5511.999981442023
 20
1438.000148463894
 30
0.0
 11
5514.999981442023
 21
1438.000148463894
 31
0.0
  0
LINE
  5
9F
330
1F
100
AcDbEntity
  8
0-2_扉
  6
JWW_DASHED1
 62
   120
370
     5
100
AcDbLine
 10
5514.999981442023
 20
1438.000148463894
 30
0.0
 11
5514.999981442023
 21
3421.000148463893
 31
0.0
  0
LINE
  5
A0
330
1F
100
AcDbEntity
  8
0-2_扉
  6
JWW_DASHED1
 62
   120
370
     5
100
AcDbLine
 10
5511.999981442023
 20
3421.000148463893
 30
0.0
 11
5514.999981442023
 21
3421.000148463893
 31
0.0
  0
LINE
  5
A1
330
1F
100
AcDbEntity
  8
0-2_扉
  6
Continuous
 62
    92
370
    13
100
AcDbLine
 10
5511.999981442023
 20
3421.000148463893
 30
0.0
 11
4931.999981442025
 21
3421.000148463893
 31
0.0
  0
LINE
  5
A2
330
1F
100
AcDbEntity
  8
0-2_扉
  6
Continuous
 62
    92
370
    13
100
AcDbLine
 10
5511.999981442023
 20
1438.000148463894
 30
0.0
 11
4931.999981442025
 21
1438.000148463894
 31
0.0
  0
LINE
  5
A3
330
1F
100
AcDbEntity
  8
0-4_枠
  6
JWW_DASHED1
 62
   120
370
     5
100
AcDbLine
 10
4931.999981442025
 20
1433.000148463893
 30
0.0
 11
4931.999981442025
 21
3435.000148463894
 31
0.0
  0
LINE
  5
A4
330
1F
100
AcDbEntity
  8
0-4_枠
  6
JWW_DASHED1
 62
   120
370
     5
100
AcDbLine
 10
4961.999981442025
 20
1433.000148463893
 30
0.0
 11
4961.999981442025
 21
3435.000148463894
 31
0.0
  0
LINE
  5
A5
330
1F
100
AcDbEntity
  8
0-2_扉
  6
JWW_DASHED1
 62
   120
370
     5
100
AcDbLine
 10
4931.999981442025
 20
3421.000148463893
 30
0.0
 11
4931.999981442025
 21
3417.000148463893
 31
0.0
  0
LINE
  5
A6
330
1F
100
AcDbEntity
  8
0-2_扉
  6
Continuous
 62
    92
370
    13
100
AcDbLine
 10
4931.999981442025
 20
3421.000148463893
 30
0.0
 11
4931.999981442025
 21
1438.000148463894
 31
0.0
  0
LINE
  5
A7
330
1F
100
AcDbEntity
  8
0-B_寸法
  6
Continuous
 62
   120
370
     5
100
AcDbLine
 10
-1509.000018557983
 20
1168.000148463893
 30
0.0
 11
-1509.000018557983
 21
1368.000148463894
 31
0.0
  0
LINE
  5
A8
330
1F
100
AcDbEntity
  8
0-B_寸法
  6
Continuous
 62
   120
370
     5
100
AcDbLine
 10
-699.0000185579828
 20
1168.000148463893
 30
0.0
 11
-699.0000185579828
 21
1368.000148463894
 31
0.0
  0
LINE
  5
A9
330
1F
100
AcDbEntity
  8
0-B_寸法
  6
Continuous
 62
   120
370
     5
100
AcDbLine
 10
-699.0000185579828
 20
1168.000148463893
 30
0.0
 11
-1509.000018557983
 21
1168.000148463893
 31
0.0
  0
LWPOLYLINE
  5
AA
330
1F
100
AcDbEntity
  8
0-B_寸法
  6
Continuous
 62
     7
370
     9
100
AcDbPolyline
 90
        4
 70
     1
 43
3.0
 10
-1507.500018557983
 20
1168.000148463893
 42
0.4142135623731
 10
-1509.000018557983
 20
1169.500148463893
 42
0.4142135623731
 10
-1510.500018557983
 20
1168.000148463893
 42
0.4142135623731
 10
-1509.000018557983
 20
1166.500148463893
 42
0.4142135623731
  0
LWPOLYLINE
  5
AB
330
1F
100
AcDbEntity
  8
0-B_寸法
  6
Continuous
 62
     7
370
     9
100
AcDbPolyline
 90
        4
 70
     1
 43
3.0
 10
-697.5000185579828
 20
1168.000148463893
 42
0.4142135623731
 10
-699.0000185579828
 20
1169.500148463893
 42
0.4142135623731
 10
-700.5000185579828
 20
1168.000148463893
 42
0.4142135623731
 10
-699.0000185579828
 20
1166.500148463893
 42
0.4142135623731
  0
LINE
  5
AC
330
1F
100
AcDbEntity
  8
0-B_寸法
  6
Continuous
 62
   120
370
     5
100
AcDbLine
 10
1500.999981442021
 20
1168.000148463893
 30
0.0
 11
1500.999981442021
 21
1368.000148463894
 31
0.0
  0
LWPOLYLINE
  5
AD
330
1F
100
AcDbEntity
  8
0-B_寸法
  6
Continuous
 62
     7
370
     9
100
AcDbPolyline
 90
        4
 70
     1
 43
3.0
 10
1502.499981442021
 20
1168.000148463893
 42
0.4142135623731
 10
1500.999981442021
 20
1169.500148463893
 42
0.4142135623731
 10
1499.499981442021
 20
1168.000148463893
 42
0.4142135623731
 10
1500.999981442021
 20
1166.500148463893
 42
0.4142135623731
  0
LINE
  5
AE
330
1F
100
AcDbEntity
  8
0-B_寸法
  6
Continuous
 62
   120
370
     5
100
AcDbLine
 10
1500.999981442021
 20
1168.000148463893
 30
0.0
 11
787.9999814420205
 21
1168.000148463893
 31
0.0
  0
LINE
  5
AF
330
1F
100
AcDbEntity
  8
0-B_寸法
  6
Continuous
 62
   120
370
     5
100
AcDbLine
 10
787.9999814420205
 20
1168.000148463893
 30
0.0
 11
787.9999814420205
 21
1368.000148463894
 31
0.0
  0
LWPOLYLINE
  5
B0
330
1F
100
AcDbEntity
  8
0-B_寸法
  6
Continuous
 62
     7
370
     9
100
AcDbPolyline
 90
        4
 70
     1
 43
3.0
 10
789.4999814420205
 20
1168.000148463893
 42
0.4142135623731
 10
787.9999814420205
 20
1169.500148463893
 42
0.4142135623731
 10
786.4999814420205
 20
1168.000148463893
 42
0.4142135623731
 10
787.9999814420205
 20
1166.500148463893
 42
0.4142135623731
  0
LINE
  5
B1
330
1F
100
AcDbEntity
  8
0-B_寸法
  6
Continuous
 62
   120
370
     5
100
AcDbLine
 10
5514.999981442023
 20
1168.000148463894
 30
0.0
 11
5514.999981442023
 21
1368.000148463894
 31
0.0
  0
LWPOLYLINE
  5
B2
330
1F
100
AcDbEntity
  8
0-B_寸法
  6
Continuous
 62
     7
370
     9
100
AcDbPolyline
 90
        4
 70
     1
 43
3.0
 10
5516.499981442024
 20
1168.000148463894
 42
0.4142135623731
 10
5514.999981442023
 20
1169.500148463894
 42
0.4142135623731
 10
5513.499981442023
 20
1168.000148463894
 42
0.4142135623731
 10
5514.999981442023
 20
1166.500148463894
 42
0.4142135623731
  0
LINE
  5
B3
330
1F
100
AcDbEntity
  8
0-B_寸法
  6
Continuous
 62
   120
370
     5
100
AcDbLine
 10
5514.999981442023
 20
1168.000148463894
 30
0.0
 11
4931.999981442025
 21
1168.000148463894
 31
0.0
  0
LINE
  5
B4
330
1F
100
AcDbEntity
  8
0-B_寸法
  6
Continuous
 62
   120
370
     5
100
AcDbLine
 10
4931.999981442025
 20
1168.000148463894
 30
0.0
 11
4931.999981442025
 21
1368.000148463894
 31
0.0
  0
LWPOLYLINE
  5
B5
330
1F
100
AcDbEntity
  8
0-B_寸法
  6
Continuous
 62
     7
370
     9
100
AcDbPolyline
 90
        4
 70
     1
 43
3.0
 10
4933.499981442026
 20
1168.000148463894
 42
0.4142135623731
 10
4931.999981442025
 20
1169.500148463894
 42
0.4142135623731
 10
4930.499981442025
 20
1168.000148463894
 42
0.4142135623731
 10
4931.999981442025
 20
1166.500148463894
 42
0.4142135623731
  0
LINE
  5
B6
330
1F
100
AcDbEntity
  8
0-0_補助線
  6
JWW_HOJO
 62
     7
370
     9
100
AcDbLine
 10
-5490.000018557986
 20
3465.000148463894
 30
0.0
 11
5689.998977248734
 21
3465.000148463894
 31
0.0
  0
LINE
  5
B7
330
1F
100
AcDbEntity
  8
0-0_補助線
  6
JWW_HOJO
 62
     7
370
     9
100
AcDbLine
 10
-5490.000018557986
 20
1418.000148463893
 30
0.0
 11
5689.998977248734
 21
1418.000148463893
 31
0.0
  0
LINE
  5
B8
330
1F
100
AcDbEntity
  8
0-0_補助線
  6
JWW_HOJO
 62
   120
370
     5
100
AcDbLine
 10
-5490.000018557986
 20
1368.000148463894
 30
0.0
 11
5689.998977248734
 21
1368.000148463894
 31
0.0
  0
LINE
  5
B9
330
1F
100
AcDbEntity
  8
0-0_補助線
  6
JWW_HOJO
 62
     7
370
     9
100
AcDbLine
 10
-5490.000018557986
 20
-2701.250083820241
 30
0.0
 11
5699.998762800888
 21
-2701.250083820241
 31
0.0
  0
LINE
  5
BA
330
1F
100
AcDbEntity
  8
0-0_補助線
  6
JWW_HOJO
 62
   120
370
     5
100
AcDbLine
 10
-5490.000018557986
 20
-2751.250083820241
 30
0.0
 11
5699.998762800888
 21
-2751.250083820241
 31
0.0
  0
LINE
  5
BB
330
1F
100
AcDbEntity
  8
F-1_枠
  6
Continuous
 62
   200
370
    20
100
AcDbLine
 10
-2916.000018557986
 20
-3790.000179909372
 30
0.0
 11
-2916.000018557986
 21
4174.999769056166
 31
0.0
  0
LINE
  5
BC
330
1F
100
AcDbEntity
  8
F-1_枠
  6
Continuous
 62
   200
370
    20
100
AcDbLine
 10
-522.0000185579818
 20
-3790.000179909372
 30
0.0
 11
-522.0000185579818
 21
4174.999769056166
 31
0.0
  0
LINE
  5
BD
330
1F
100
AcDbEntity
  8
F-1_枠
  6
Continuous
 62
   200
370
    20
100
AcDbLine
 10
1677.99998144202
 20
-3790.000179909372
 30
0.0
 11
1677.99998144202
 21
4174.999769056166
 31
0.0
  0
LINE
  5
BE
330
1F
100
AcDbEntity
  8
F-1_枠
  6
Continuous
 62
   200
370
    20
100
AcDbLine
 10
3751.999981442023
 20
-3790.000179909372
 30
0.0
 11
3751.999981442023
 21
4174.999769056166
 31
0.0
  0
LINE
  5
BF
330
1F
100
AcDbEntity
  8
0-0_補助線
  6
JWW_HOJO
 62
     7
370
     9
100
AcDbLine
 10
-4890.000018557986
 20
3964.999818544131
 30
0.0
 11
-4890.000018557986
 21
-3790.000179909372
 31
0.0
  0
LINE
  5
C0
330
1F
100
AcDbEntity
  8
0-0_補助線
  6
JWW_HOJO
 62
   120
370
     5
100
AcDbLine
 10
-4940.000018557987
 20
3964.999818544131
 30
0.0
 11
-4940.000018557987
 21
-3790.000179909372
 31
0.0
  0
LINE
  5
C1
330
1F
100
AcDbEntity
  8
0-0_補助線
  6
JWW_HOJO
 62
     7
370
     9
100
AcDbLine
 10
-2316.000018557984
 20
3964.999818544131
 30
0.0
 11
-2316.000018557984
 21
-3790.000179909372
 31
0.0
  0
LINE
  5
C2
330
1F
100
AcDbEntity
  8
0-0_補助線
  6
JWW_HOJO
 62
   120
370
     5
100
AcDbLine
 10
-2366.000018557984
 20
3964.999818544131
 30
0.0
 11
-2366.000018557984
 21
-3790.000179909372
 31
0.0
  0
LINE
  5
C3
330
1F
100
AcDbEntity
  8
0-0_補助線
  6
JWW_HOJO
 62
     7
370
     9
100
AcDbLine
 10
77.99998144201822
 20
3964.999818544131
 30
0.0
 11
77.99998144201822
 21
-3790.000179909372
 31
0.0
  0
LINE
  5
C4
330
1F
100
AcDbEntity
  8
0-0_補助線
  6
JWW_HOJO
 62
   120
370
     5
100
AcDbLine
 10
27.99998144201851
 20
3964.999818544131
 30
0.0
 11
27.99998144201851
 21
-3790.000179909372
 31
0.0
  0
LINE
  5
C5
330
1F
100
AcDbEntity
  8
0-0_補助線
  6
JWW_HOJO
 62
     7
370
     9
100
AcDbLine
 10
2277.999981442021
 20
3964.999818544131
 30
0.0
 11
2277.999981442021
 21
-3790.000179909372
 31
0.0
  0
LINE
  5
C6
330
1F
100
AcDbEntity
  8
0-0_補助線
  6
JWW_HOJO
 62
   120
370
     5
100
AcDbLine
 10
2227.999981442021
 20
3964.999818544131
 30
0.0
 11
2227.999981442021
 21
-3790.000179909372
 31
0.0
  0
LINE
  5
C7
330
1F
100
AcDbEntity
  8
0-0_補助線
  6
JWW_HOJO
 62
     7
370
     9
100
AcDbLine
 10
4351.999981442024
 20
3964.999818544131
 30
0.0
 11
4351.999981442024
 21
-3790.000179909372
 31
0.0
  0
LINE
  5
C8
330
1F
100
AcDbEntity
  8
0-0_補助線
  6
JWW_HOJO
 62
   120
370
     5
100
AcDbLine
 10
4301.999981442023
 20
3964.999818544131
 30
0.0
 11
4301.999981442023
 21
-3790.000179909372
 31
0.0
  0
LINE
  5
C9
330
1F
100
AcDbEntity
  8
0-0_補助線
  6
JWW_HOJO
 62
     7
370
     9
100
AcDbLine
 10
-5490.000018557986
 20
1168.000148463894
 30
0.0
 11
5689.998977248734
 21
1168.000148463894
 31
0.0
  0
LINE
  5
CA
330
1F
100
AcDbEntity
  8
0-0_補助線
  6
JWW_HOJO
 62
     7
370
     9
100
AcDbLine
 10
-5490.000018557986
 20
-2951.250083820241
 30
0.0
 11
5699.998762800888
 21
-2951.250083820241
 31
0.0
  0
LINE
  5
CB
330
1F
100
AcDbEntity
  8
0-0_補助線
  6
JWW_HOJO
 62
     7
370
     9
100
AcDbLine
 10
-5490.000018557986
 20
-454.2500838202386
 30
0.0
 11
5699.998762800888
 21
-454.2500838202386
 31
0.0
  0
LINE
  5
CC
330
1F
100
AcDbEntity
  8
0-4_枠
  6
Continuous
 62
    92
370
    13
100
AcDbLine
 10
-2316.000018557984
 20
1418.000148463893
 30
0.0
 11
-2316.000018557984
 21
3465.000148463894
 31
0.0
  0
LINE
  5
CD
330
1F
100
AcDbEntity
  8
0-4_枠
  6
Continuous
 62
    92
370
    13
100
AcDbLine
 10
-2286.000018557984
 20
1418.000148463893
 30
0.0
 11
-2286.000018557984
 21
3435.000148463894
 31
0.0
  0
LINE
  5
CE
330
1F
100
AcDbEntity
  8
0-4_枠
  6
Continuous
 62
    92
370
    13
100
AcDbLine
 10
-672.0000185579827
 20
1418.000148463893
 30
0.0
 11
-672.0000185579827
 21
3465.000148463894
 31
0.0
  0
LINE
  5
CF
330
1F
100
AcDbEntity
  8
0-4_枠
  6
Continuous
 62
    92
370
    13
100
AcDbLine
 10
-702.0000185579827
 20
1418.000148463893
 30
0.0
 11
-702.0000185579827
 21
3435.000148463894
 31
0.0
  0
LINE
  5
D0
330
1F
100
AcDbEntity
  8
0-4_枠
  6
Continuous
 62
    92
370
    13
100
AcDbLine
 10
-2286.000018557984
 20
3435.000148463894
 30
0.0
 11
-702.0000185579827
 21
3435.000148463894
 31
0.0
  0
LINE
  5
D1
330
1F
100
AcDbEntity
  8
0-4_枠
  6
Continuous
 62
    92
370
    13
100
AcDbLine
 10
-2316.000018557984
 20
3465.000148463894
 30
0.0
 11
-672.0000185579827
 21
3465.000148463894
 31
0.0
  0
LINE
  5
D2
330
1F
100
AcDbEntity
  8
0-4_枠
  6
Continuous
 62
    92
370
    13
100
AcDbLine
 10
77.99998144201908
 20
1418.000148463893
 30
0.0
 11
77.99998144201908
 21
3465.000148463894
 31
0.0
  0
LINE
  5
D3
330
1F
100
AcDbEntity
  8
0-4_枠
  6
Continuous
 62
    92
370
    13
100
AcDbLine
 10
107.9999814420191
 20
1418.000148463893
 30
0.0
 11
107.9999814420191
 21
3435.000148463894
 31
0.0
  0
LINE
  5
D4
330
1F
100
AcDbEntity
  8
0-4_枠
  6
Continuous
 62
    92
370
    13
100
AcDbLine
 10
1527.99998144202
 20
1418.000148463893
 30
0.0
 11
1527.99998144202
 21
3465.000148463894
 31
0.0
  0
LINE
  5
D5
330
1F
100
AcDbEntity
  8
0-4_枠
  6
Continuous
 62
    92
370
    13
100
AcDbLine
 10
1497.99998144202
 20
1418.000148463893
 30
0.0
 11
1497.99998144202
 21
3435.000148463894
 31
0.0
  0
LINE
  5
D6
330
1F
100
AcDbEntity
  8
0-4_枠
  6
Continuous
 62
    92
370
    13
100
AcDbLine
 10
107.9999814420191
 20
3435.000148463894
 30
0.0
 11
1497.99998144202
 21
3435.000148463894
 31
0.0
  0
LINE
  5
D7
330
1F
100
AcDbEntity
  8
0-4_枠
  6
Continuous
 62
    92
370
    13
100
AcDbLine
 10
77.99998144201908
 20
3465.000148463894
 30
0.0
 11
1527.99998144202
 21
3465.000148463894
 31
0.0
  0
LINE
  5
D8
330
1F
100
AcDbEntity
  8
0-4_枠
  6
Continuous
 62
    92
370
    13
100
AcDbLine
 10
4351.999981442024
 20
1418.000148463893
 30
0.0
 11
4351.999981442024
 21
3465.000148463894
 31
0.0
  0
LINE
  5
D9
330
1F
100
AcDbEntity
  8
0-4_枠
  6
Continuous
 62
    92
370
    13
100
AcDbLine
 10
4381.999981442024
 20
1418.000148463893
 30
0.0
 11
4381.999981442024
 21
3435.000148463894
 31
0.0
  0
LINE
  5
DA
330
1F
100
AcDbEntity
  8
0-4_枠
  6
Continuous
 62
    92
370
    13
100
AcDbLine
 10
5541.999981442023
 20
1418.000148463893
 30
0.0
 11
5541.999981442023
 21
3465.000148463894
 31
0.0
  0
LINE
  5
DB
330
1F
100
AcDbEntity
  8
0-4_枠
  6
Continuous
 62
    92
370
    13
100
AcDbLine
 10
5511.999981442023
 20
1418.000148463893
 30
0.0
 11
5511.999981442023
 21
3435.000148463894
 31
0.0
  0
LINE
  5
DC
330
1F
100
AcDbEntity
  8
0-4_枠
  6
Continuous
 62
    92
370
    13
100
AcDbLine
 10
4381.999981442024
 20
3435.000148463894
 30
0.0
 11
5511.999981442023
 21
3435.000148463894
 31
0.0
  0
LINE
  5
DD
330
1F
100
AcDbEntity
  8
0-4_枠
  6
Continuous
 62
    92
370
    13
100
AcDbLine
 10
4351.999981442024
 20
3465.000148463894
 30
0.0
 11
5541.999981442023
 21
3465.000148463894
 31
0.0
  0
LINE
  5
DE
330
1F
100
AcDbEntity
  8
F-A_文字
  6
Continuous
 62
     7
370
     9
100
AcDbLine
 10
-2916.000018557986
 20
184.5000148463899
 30
0.0
 11
-5490.000018557986
 21
-3790.000017526987
 31
0.0
  0
LINE
  5
DF
330
1F
100
AcDbEntity
  8
F-A_文字
  6
Continuous
 62
     7
370
     9
100
AcDbLine
 10
-522.0000185579818
 20
184.5000148463899
 30
0.0
 11
-2916.000018557986
 21
-3790.000017526987
 31
0.0
  0
LINE
  5
E0
330
1F
100
AcDbEntity
  8
F-A_文字
  6
Continuous
 62
     7
370
     9
100
AcDbLine
 10
1677.99998144202
 20
184.5000148463899
 30
0.0
 11
-522.0000185579818
 21
-3790.000179909372
 31
0.0
  0
LINE
  5
E1
330
1F
100
AcDbEntity
  8
F-A_文字
  6
Continuous
 62
     7
370
     9
100
AcDbLine
 10
1677.99998144202
 20
-3790.000017526987
 30
0.0
 11
3751.999981442023
 21
184.5000148463899
 31
0.0
  0
LINE
  5
E2
330
1F
100
AcDbEntity
  8
F-A_文字
  6
Continuous
 62
     7
370
     9
100
AcDbLine
 10
3751.999981442023
 20
-3790.000017526987
 30
0.0
 11
5689.998977248734
 21
184.5000148463899
 31
0.0
  0
LINE
  5
E3
330
1F
100
AcDbEntity
  8
F-1_枠
  6
Continuous
 62
   200
370
    20
100
AcDbLine
 10
5699.998762800888
 20
-3795.000003092998
 30
0.0
 11
-5999.99998453501
 21
-3795.000003092998
 31
0.0
  0
LINE
  5
E4
330
1F
100
AcDbEntity
  8
F-1_枠
  6
Continuous
 62
   200
370
    20
100
AcDbLine
 10
-5999.99998453501
 20
3964.999818544131
 30
0.0
 11
5699.998762800888
 21
3964.999818544131
 31
0.0
  0
LINE
  5
E5
330
1F
100
AcDbEntity
  8
F-1_枠
  6
Continuous
 62
   200
370
    20
100
AcDbLine
 10
5699.998762800888
 20
-3790.000017526987
 30
0.0
 11
-5999.99998453501
 21
-3790.000017526987
 31
0.0
  0
LINE
  5
E6
330
1F
100
AcDbEntity
  8
F-1_枠
  6
Continuous
 62
   200
370
    20
100
AcDbLine
 10
-5999.99998453501
 20
190.5001831054688
 30
0.0
 11
5699.998762800888
 21
190.5001831054688
 31
0.0
  0
LINE
  5
E7
330
1F
100
AcDbEntity
  8
F-1_枠
  6
Continuous
 62
   200
370
    20
100
AcDbLine
 10
-5999.99998453501
 20
-15.50015011349217
 30
0.0
 11
5699.998762800888
 21
-15.50015011349217
 31
0.0
  0
LINE
  5
E8
330
1F
100
AcDbEntity
  8
F-1_枠
  6
Continuous
 62
   200
370
    20
100
AcDbLine
 10
-5999.99998453501
 20
184.5000148463899
 30
0.0
 11
5699.998762800888
 21
184.5000148463899
 31
0.0
  0
LINE
  5
E9
330
1F
100
AcDbEntity
  8
F-1_枠
  6
Continuous
 62
   200
370
    20
100
AcDbLine
 10
-5999.99998453501
 20
187.5000989759289
 30
0.0
 11
5699.998762800888
 21
187.5000989759289
 31
0.0
  0
LINE
  5
EA
330
1F
100
AcDbEntity
  8
F-A_文字
  6
Continuous
 62
     7
370
     9
100
AcDbLine
 10
1677.99998144202
 20
190.499951130636
 30
0.0
 11
3751.999981442023
 21
4164.999983504013
 31
0.0
  0
LINE
  5
EB
330
1F
100
AcDbEntity
  8
F-A_文字
  6
Continuous
 62
     7
370
     9
100
AcDbLine
 10
-2916.000018557986
 20
4164.999983504013
 30
0.0
 11
-5490.000018557986
 21
190.4999511306352
 31
0.0
  0
LINE
  5
EC
330
1F
100
AcDbEntity
  8
0-3_仕上げ
  6
Continuous
 62
     7
370
     9
100
AcDbLine
 10
899.9999814420199
 20
1438.000148463894
 30
0.0
 11
899.9999814420199
 21
3421.000148463893
 31
0.0
  0
LINE
  5
ED
330
1F
100
AcDbEntity
  8
0-3_仕上げ
  6
Continuous
 62
     7
370
     9
100
AcDbLine
 10
1388.999981442021
 20
1438.000148463894
 30
0.0
 11
1388.999981442021
 21
3421.000148463893
 31
0.0
  0
LINE
  5
EE
330
1F
100
AcDbEntity
  8
0-3_仕上げ
  6
Continuous
 62
     7
370
     9
100
AcDbLine
 10
901.9999814420204
 20
3281.000148463894
 30
0.0
 11
900.999981442019
 21
3280.000148463894
 31
0.0
  0
LINE
  5
EF
330
1F
100
AcDbEntity
  8
0-3_仕上げ
  6
Continuous
 62
     7
370
     9
100
AcDbLine
 10
900.999981442019
 20
3280.000148463894
 30
0.0
 11
903.999981442021
 21
3277.000148463894
 31
0.0
  0
LINE
  5
F0
330
1F
100
AcDbEntity
  8
0-3_仕上げ
  6
Continuous
 62
     7
370
     9
100
AcDbLine
 10
1386.999981442021
 20
3281.000148463894
 30
0.0
 11
1387.99998144202
 21
3280.000148463894
 31
0.0
  0
LINE
  5
F1
330
1F
100
AcDbEntity
  8
0-3_仕上げ
  6
Continuous
 62
     7
370
     9
100
AcDbLine
 10
1384.99998144202
 20
3277.000148463894
 30
0.0
 11
1387.99998144202
 21
3280.000148463894
 31
0.0
  0
LINE
  5
F2
330
1F
100
AcDbEntity
  8
0-3_仕上げ
  6
Continuous
 62
     7
370
     9
100
AcDbLine
 10
901.9999814420204
 20
3281.000148463894
 30
0.0
 11
1386.999981442021
 21
3281.000148463894
 31
0.0
  0
LINE
  5
F3
330
1F
100
AcDbEntity
  8
0-3_仕上げ
  6
Continuous
 62
     7
370
     9
100
AcDbLine
 10
900.9999814420203
 20
2904.000148463894
 30
0.0
 11
903.999981442021
 21
2907.000148463894
 31
0.0
  0
LINE
  5
F4
330
1F
100
AcDbEntity
  8
0-3_仕上げ
  6
Continuous
 62
     7
370
     9
100
AcDbLine
 10
900.9999814420203
 20
2904.000148463894
 30
0.0
 11
901.9999814420204
 21
2903.000148463894
 31
0.0
  0
LINE
  5
F5
330
1F
100
AcDbEntity
  8
0-3_仕上げ
  6
Continuous
 62
     7
370
     9
100
AcDbLine
 10
901.9999814420204
 20
2811.000148463894
 30
0.0
 11
900.9999814420203
 21
2810.000148463894
 31
0.0
  0
LINE
  5
F6
330
1F
100
AcDbEntity
  8
0-3_仕上げ
  6
Continuous
 62
     7
370
     9
100
AcDbLine
 10
900.9999814420203
 20
2810.000148463894
 30
0.0
 11
903.999981442021
 21
2807.000148463894
 31
0.0
  0
LINE
  5
F7
330
1F
100
AcDbEntity
  8
0-3_仕上げ
  6
Continuous
 62
     7
370
     9
100
AcDbLine
 10
900.9999814420203
 20
2904.000148463894
 30
0.0
 11
900.9999814420203
 21
2810.000148463894
 31
0.0
  0
LINE
  5
F8
330
1F
100
AcDbEntity
  8
0-3_仕上げ
  6
Continuous
 62
     7
370
     9
100
AcDbLine
 10
901.9999814420204
 20
2811.000148463894
 30
0.0
 11
901.9999814420204
 21
2903.000148463894
 31
0.0
  0
LINE
  5
F9
330
1F
100
AcDbEntity
  8
0-3_仕上げ
  6
Continuous
 62
     7
370
     9
100
AcDbLine
 10
901.9999814420204
 20
2903.000148463894
 30
0.0
 11
1387.99998144202
 21
2903.000148463894
 31
0.0
  0
LINE
  5
FA
330
1F
100
AcDbEntity
  8
0-3_仕上げ
  6
Continuous
 62
     7
370
     9
100
AcDbLine
 10
901.9999814420204
 20
2811.000148463894
 30
0.0
 11
1387.99998144202
 21
2811.000148463894
 31
0.0
  0
LINE
  5
FB
330
1F
100
AcDbEntity
  8
0-3_仕上げ
  6
Continuous
 62
     7
370
     9
100
AcDbLine
 10
1384.99998144202
 20
2907.000148463894
 30
0.0
 11
1387.99998144202
 21
2904.000148463894
 31
0.0
  0
LINE
  5
FC
330
1F
100
AcDbEntity
  8
0-3_仕上げ
  6
Continuous
 62
     7
370
     9
100
AcDbLine
 10
1387.99998144202
 20
2904.000148463894
 30
0.0
 11
1386.999981442021
 21
2903.000148463894
 31
0.0
  0
LINE
  5
FD
330
1F
100
AcDbEntity
  8
0-3_仕上げ
  6
Continuous
 62
     7
370
     9
100
AcDbLine
 10
1386.999981442021
 20
2811.000148463894
 30
0.0
 11
1387.99998144202
 21
2810.000148463894
 31
0.0
  0
LINE
  5
FE
330
1F
100
AcDbEntity
  8
0-3_仕上げ
  6
Continuous
 62
     7
370
     9
100
AcDbLine
 10
1384.99998144202
 20
2807.000148463894
 30
0.0
 11
1387.99998144202
 21
2810.000148463894
 31
0.0
  0
LINE
  5
FF
330
1F
100
AcDbEntity
  8
0-3_仕上げ
  6
Continuous
 62
     7
370
     9
100
AcDbLine
 10
1387.99998144202
 20
2904.000148463894
 30
0.0
 11
1387.99998144202
 21
2810.000148463894
 31
0.0
  0
LINE
  5
100
330
1F
100
AcDbEntity
  8
0-3_仕上げ
  6
Continuous
 62
     7
370
     9
100
AcDbLine
 10
1386.999981442021
 20
2811.000148463894
 30
0.0
 11
1386.999981442021
 21
2903.000148463894
 31
0.0
  0
LINE
  5
101
330
1F
100
AcDbEntity
  8
0-3_仕上げ
  6
Continuous
 62
     7
370
     9
100
AcDbLine
 10
900.999981442019
 20
1629.000148463894
 30
0.0
 11
903.999981442021
 21
1632.000148463894
 31
0.0
  0
LINE
  5
102
330
1F
100
AcDbEntity
  8
0-3_仕上げ
  6
Continuous
 62
     7
370
     9
100
AcDbLine
 10
900.999981442019
 20
1629.000148463894
 30
0.0
 11
901.9999814420204
 21
1628.000148463894
 31
0.0
  0
LINE
  5
103
330
1F
100
AcDbEntity
  8
0-3_仕上げ
  6
Continuous
 62
     7
370
     9
100
AcDbLine
 10
1384.99998144202
 20
1632.000148463894
 30
0.0
 11
1387.99998144202
 21
1629.000148463894
 31
0.0
  0
LINE
  5
104
330
1F
100
AcDbEntity
  8
0-3_仕上げ
  6
Continuous
 62
     7
370
     9
100
AcDbLine
 10
1387.99998144202
 20
1629.000148463894
 30
0.0
 11
1386.999981442021
 21
1628.000148463894
 31
0.0
  0
LINE
  5
105
330
1F
100
AcDbEntity
  8
0-3_仕上げ
  6
Continuous
 62
     7
370
     9
100
AcDbLine
 10
901.9999814420204
 20
1628.000148463894
 30
0.0
 11
1386.999981442021
 21
1628.000148463894
 31
0.0
  0
LINE
  5
106
330
1F
100
AcDbEntity
  8
0-3_仕上げ
  6
Continuous
 62
     7
370
     9
100
AcDbLine
 10
1386.999981442021
 20
3281.000148463894
 30
0.0
 11
1386.999981442021
 21
3421.000148463894
 31
0.0
  0
LINE
  5
107
330
1F
100
AcDbEntity
  8
0-3_仕上げ
  6
Continuous
 62
     7
370
     9
100
AcDbLine
 10
1387.99998144202
 20
3280.000148463894
 30
0.0
 11
1387.99998144202
 21
3421.000148463894
 31
0.0
  0
LINE
  5
108
330
1F
100
AcDbEntity
  8
0-3_仕上げ
  6
Continuous
 62
     7
370
     9
100
AcDbLine
 10
900.999981442019
 20
3280.000148463894
 30
0.0
 11
900.999981442019
 21
3421.000148463894
 31
0.0
  0
LINE
  5
109
330
1F
100
AcDbEntity
  8
0-3_仕上げ
  6
Continuous
 62
     7
370
     9
100
AcDbLine
 10
901.9999814420204
 20
3281.000148463894
 30
0.0
 11
901.9999814420204
 21
3421.000148463894
 31
0.0
  0
LINE
  5
10A
330
1F
100
AcDbEntity
  8
0-3_仕上げ
  6
Continuous
 62
     7
370
     9
100
AcDbLine
 10
900.999981442019
 20
1438.000148463894
 30
0.0
 11
900.999981442019
 21
1629.000148463894
 31
0.0
  0
LINE
  5
10B
330
1F
100
AcDbEntity
  8
0-3_仕上げ
  6
Continuous
 62
     7
370
     9
100
AcDbLine
 10
901.9999814420204
 20
1438.000148463894
 30
0.0
 11
901.9999814420204
 21
1628.000148463894
 31
0.0
  0
LINE
  5
10C
330
1F
100
AcDbEntity
  8
0-3_仕上げ
  6
Continuous
 62
     7
370
     9
100
AcDbLine
 10
1386.999981442021
 20
1438.000148463894
 30
0.0
 11
1386.999981442021
 21
1628.000148463894
 31
0.0
  0
LINE
  5
10D
330
1F
100
AcDbEntity
  8
0-3_仕上げ
  6
Continuous
 62
     7
370
     9
100
AcDbLine
 10
1387.99998144202
 20
1438.000148463894
 30
0.0
 11
1387.99998144202
 21
1629.000148463894
 31
0.0
  0
LINE
  5
10E
330
1F
100
AcDbEntity
  8
0-3_仕上げ
  6
Continuous
 62
     7
370
     9
100
AcDbLine
 10
5043.999981442025
 20
1438.000148463893
 30
0.0
 11
5043.999981442025
 21
3421.000148463892
 31
0.0
  0
LINE
  5
10F
330
1F
100
AcDbEntity
  8
0-3_仕上げ
  6
Continuous
 62
     7
370
     9
100
AcDbLine
 10
5402.999981442024
 20
1438.000148463893
 30
0.0
 11
5402.999981442024
 21
3421.000148463892
 31
0.0
  0
LINE
  5
110
330
1F
100
AcDbEntity
  8
0-3_仕上げ
  6
Continuous
 62
     7
370
     9
100
AcDbLine
 10
5045.999981442026
 20
3281.000148463893
 30
0.0
 11
5044.999981442024
 21
3280.000148463893
 31
0.0
  0
LINE
  5
111
330
1F
100
AcDbEntity
  8
0-3_仕上げ
  6
Continuous
 62
     7
370
     9
100
AcDbLine
 10
5044.999981442024
 20
3280.000148463893
 30
0.0
 11
5047.999981442025
 21
3277.000148463893
 31
0.0
  0
LINE
  5
112
330
1F
100
AcDbEntity
  8
0-3_仕上げ
  6
Continuous
 62
     7
370
     9
100
AcDbLine
 10
5044.999981442025
 20
2904.000148463893
 30
0.0
 11
5047.999981442025
 21
2907.000148463893
 31
0.0
  0
LINE
  5
113
330
1F
100
AcDbEntity
  8
0-3_仕上げ
  6
Continuous
 62
     7
370
     9
100
AcDbLine
 10
5044.999981442025
 20
2904.000148463893
 30
0.0
 11
5045.999981442026
 21
2903.000148463893
 31
0.0
  0
LINE
  5
114
330
1F
100
AcDbEntity
  8
0-3_仕上げ
  6
Continuous
 62
     7
370
     9
100
AcDbLine
 10
5045.999981442026
 20
2811.000148463893
 30
0.0
 11
5044.999981442025
 21
2810.000148463893
 31
0.0
  0
LINE
  5
115
330
1F
100
AcDbEntity
  8
0-3_仕上げ
  6
Continuous
 62
     7
370
     9
100
AcDbLine
 10
5044.999981442025
 20
2810.000148463893
 30
0.0
 11
5047.999981442025
 21
2807.000148463893
 31
0.0
  0
LINE
  5
116
330
1F
100
AcDbEntity
  8
0-3_仕上げ
  6
Continuous
 62
     7
370
     9
100
AcDbLine
 10
5044.999981442025
 20
2904.000148463893
 30
0.0
 11
5044.999981442025
 21
2810.000148463893
 31
0.0
  0
LINE
  5
117
330
1F
100
AcDbEntity
  8
0-3_仕上げ
  6
Continuous
 62
     7
370
     9
100
AcDbLine
 10
5045.999981442026
 20
2811.000148463893
 30
0.0
 11
5045.999981442026
 21
2903.000148463893
 31
0.0
  0
LINE
  5
118
330
1F
100
AcDbEntity
  8
0-3_仕上げ
  6
Continuous
 62
     7
370
     9
100
AcDbLine
 10
5400.999981442023
 20
3281.000148463893
 30
0.0
 11
5401.999981442023
 21
3280.000148463893
 31
0.0
  0
LINE
  5
119
330
1F
100
AcDbEntity
  8
0-3_仕上げ
  6
Continuous
 62
     7
370
     9
100
AcDbLine
 10
5398.999981442023
 20
3277.000148463893
 30
0.0
 11
5401.999981442023
 21
3280.000148463893
 31
0.0
  0
LINE
  5
11A
330
1F
100
AcDbEntity
  8
0-3_仕上げ
  6
Continuous
 62
     7
370
     9
100
AcDbLine
 10
5398.999981442023
 20
2907.000148463893
 30
0.0
 11
5401.999981442023
 21
2904.000148463893
 31
0.0
  0
LINE
  5
11B
330
1F
100
AcDbEntity
  8
0-3_仕上げ
  6
Continuous
 62
     7
370
     9
100
AcDbLine
 10
5401.999981442023
 20
2904.000148463893
 30
0.0
 11
5400.999981442023
 21
2903.000148463893
 31
0.0
  0
LINE
  5
11C
330
1F
100
AcDbEntity
  8
0-3_仕上げ
  6
Continuous
 62
     7
370
     9
100
AcDbLine
 10
5400.999981442023
 20
2811.000148463893
 30
0.0
 11
5401.999981442023
 21
2810.000148463893
 31
0.0
  0
LINE
  5
11D
330
1F
100
AcDbEntity
  8
0-3_仕上げ
  6
Continuous
 62
     7
370
     9
100
AcDbLine
 10
5398.999981442023
 20
2807.000148463893
 30
0.0
 11
5401.999981442023
 21
2810.000148463893
 31
0.0
  0
LINE
  5
11E
330
1F
100
AcDbEntity
  8
0-3_仕上げ
  6
Continuous
 62
     7
370
     9
100
AcDbLine
 10
5401.999981442023
 20
2904.000148463893
 30
0.0
 11
5401.999981442023
 21
2810.000148463893
 31
0.0
  0
LINE
  5
11F
330
1F
100
AcDbEntity
  8
0-3_仕上げ
  6
Continuous
 62
     7
370
     9
100
AcDbLine
 10
5400.999981442023
 20
2811.000148463893
 30
0.0
 11
5400.999981442023
 21
2903.000148463893
 31
0.0
  0
LINE
  5
120
330
1F
100
AcDbEntity
  8
0-3_仕上げ
  6
Continuous
 62
     7
370
     9
100
AcDbLine
 10
5045.999981442026
 20
3281.000148463893
 30
0.0
 11
5400.999981442023
 21
3281.000148463893
 31
0.0
  0
LINE
  5
121
330
1F
100
AcDbEntity
  8
0-3_仕上げ
  6
Continuous
 62
     7
370
     9
100
AcDbLine
 10
5045.999981442026
 20
2903.000148463893
 30
0.0
 11
5400.999981442023
 21
2903.000148463893
 31
0.0
  0
LINE
  5
122
330
1F
100
AcDbEntity
  8
0-3_仕上げ
  6
Continuous
 62
     7
370
     9
100
AcDbLine
 10
5045.999981442026
 20
2811.000148463893
 30
0.0
 11
5400.999981442023
 21
2811.000148463893
 31
0.0
  0
LINE
  5
123
330
1F
100
AcDbEntity
  8
0-3_仕上げ
  6
Continuous
 62
     7
370
     9
100
AcDbLine
 10
5044.999981442024
 20
1629.000148463893
 30
0.0
 11
5047.999981442025
 21
1632.000148463893
 31
0.0
  0
LINE
  5
124
330
1F
100
AcDbEntity
  8
0-3_仕上げ
  6
Continuous
 62
     7
370
     9
100
AcDbLine
 10
5044.999981442024
 20
1629.000148463893
 30
0.0
 11
5045.999981442026
 21
1628.000148463893
 31
0.0
  0
LINE
  5
125
330
1F
100
AcDbEntity
  8
0-3_仕上げ
  6
Continuous
 62
     7
370
     9
100
AcDbLine
 10
5398.999981442023
 20
1632.000148463893
 30
0.0
 11
5401.999981442023
 21
1629.000148463893
 31
0.0
  0
LINE
  5
126
330
1F
100
AcDbEntity
  8
0-3_仕上げ
  6
Continuous
 62
     7
370
     9
100
AcDbLine
 10
5401.999981442023
 20
1629.000148463893
 30
0.0
 11
5400.999981442023
 21
1628.000148463893
 31
0.0
  0
LINE
  5
127
330
1F
100
AcDbEntity
  8
0-3_仕上げ
  6
Continuous
 62
     7
370
     9
100
AcDbLine
 10
5045.999981442026
 20
1628.000148463893
 30
0.0
 11
5400.999981442023
 21
1628.000148463893
 31
0.0
  0
LINE
  5
128
330
1F
100
AcDbEntity
  8
0-3_仕上げ
  6
Continuous
 62
     7
370
     9
100
AcDbLine
 10
5045.999981442026
 20
1438.000148463893
 30
0.0
 11
5045.999981442026
 21
1628.000148463893
 31
0.0
  0
LINE
  5
129
330
1F
100
AcDbEntity
  8
0-3_仕上げ
  6
Continuous
 62
     7
370
     9
100
AcDbLine
 10
5044.999981442024
 20
1438.000148463893
 30
0.0
 11
5044.999981442024
 21
1629.000148463893
 31
0.0
  0
LINE
  5
12A
330
1F
100
AcDbEntity
  8
0-3_仕上げ
  6
Continuous
 62
     7
370
     9
100
AcDbLine
 10
5400.999981442023
 20
1438.000148463893
 30
0.0
 11
5400.999981442023
 21
1628.000148463893
 31
0.0
  0
LINE
  5
12B
330
1F
100
AcDbEntity
  8
0-3_仕上げ
  6
Continuous
 62
     7
370
     9
100
AcDbLine
 10
5401.999981442023
 20
1438.000148463893
 30
0.0
 11
5401.999981442023
 21
1629.000148463893
 31
0.0
  0
LINE
  5
12C
330
1F
100
AcDbEntity
  8
0-3_仕上げ
  6
Continuous
 62
     7
370
     9
100
AcDbLine
 10
5044.999981442024
 20
3280.000148463893
 30
0.0
 11
5044.999981442024
 21
3421.000148463893
 31
0.0
  0
LINE
  5
12D
330
1F
100
AcDbEntity
  8
0-3_仕上げ
  6
Continuous
 62
     7
370
     9
100
AcDbLine
 10
5045.999981442026
 20
3281.000148463893
 30
0.0
 11
5045.999981442026
 21
3421.000148463893
 31
0.0
  0
LINE
  5
12E
330
1F
100
AcDbEntity
  8
0-3_仕上げ
  6
Continuous
 62
     7
370
     9
100
AcDbLine
 10
5400.999981442023
 20
3281.000148463893
 30
0.0
 11
5400.999981442023
 21
3421.000148463893
 31
0.0
  0
LINE
  5
12F
330
1F
100
AcDbEntity
  8
0-3_仕上げ
  6
Continuous
 62
     7
370
     9
100
AcDbLine
 10
5401.999981442023
 20
3280.000148463893
 30
0.0
 11
5401.999981442023
 21
3421.000148463893
 31
0.0
  0
LINE
  5
130
330
1F
100
AcDbEntity
  8
0-3_仕上げ
  6
Continuous
 62
     7
370
     9
100
AcDbLine
 10
-1381.000018557983
 20
1438.000148463894
 30
0.0
 11
-1381.000018557983
 21
3421.000148463893
 31
0.0
  0
LINE
  5
131
330
1F
100
AcDbEntity
  8
0-3_仕上げ
  6
Continuous
 62
     7
370
     9
100
AcDbLine
 10
-827.000018557983
 20
1438.000148463894
 30
0.0
 11
-827.000018557983
 21
3421.000148463893
 31
0.0
  0
LINE
  5
132
330
1F
100
AcDbEntity
  8
0-3_仕上げ
  6
Continuous
 62
     7
370
     9
100
AcDbLine
 10
-1379.000018557982
 20
3281.000148463894
 30
0.0
 11
-1380.000018557983
 21
3280.000148463894
 31
0.0
  0
LINE
  5
133
330
1F
100
AcDbEntity
  8
0-3_仕上げ
  6
Continuous
 62
     7
370
     9
100
AcDbLine
 10
-1380.000018557983
 20
3280.000148463894
 30
0.0
 11
-1377.000018557983
 21
3277.000148463894
 31
0.0
  0
LINE
  5
134
330
1F
100
AcDbEntity
  8
0-3_仕上げ
  6
Continuous
 62
     7
370
     9
100
AcDbLine
 10
-829.0000185579835
 20
3281.000148463894
 30
0.0
 11
-828.0000185579821
 21
3280.000148463894
 31
0.0
  0
LINE
  5
135
330
1F
100
AcDbEntity
  8
0-3_仕上げ
  6
Continuous
 62
     7
370
     9
100
AcDbLine
 10
-831.0000185579828
 20
3277.000148463894
 30
0.0
 11
-828.0000185579821
 21
3280.000148463894
 31
0.0
  0
LINE
  5
136
330
1F
100
AcDbEntity
  8
0-3_仕上げ
  6
Continuous
 62
     7
370
     9
100
AcDbLine
 10
-1379.000018557982
 20
3281.000148463894
 30
0.0
 11
-829.0000185579835
 21
3281.000148463894
 31
0.0
  0
LINE
  5
137
330
1F
100
AcDbEntity
  8
0-3_仕上げ
  6
Continuous
 62
     7
370
     9
100
AcDbLine
 10
-1380.000018557983
 20
2904.000148463894
 30
0.0
 11
-1377.000018557983
 21
2907.000148463894
 31
0.0
  0
LINE
  5
138
330
1F
100
AcDbEntity
  8
0-3_仕上げ
  6
Continuous
 62
     7
370
     9
100
AcDbLine
 10
-1380.000018557983
 20
2904.000148463894
 30
0.0
 11
-1379.000018557982
 21
2903.000148463894
 31
0.0
  0
LINE
  5
139
330
1F
100
AcDbEntity
  8
0-3_仕上げ
  6
Continuous
 62
     7
370
     9
100
AcDbLine
 10
-1379.000018557982
 20
2811.000148463894
 30
0.0
 11
-1380.000018557983
 21
2810.000148463894
 31
0.0
  0
LINE
  5
13A
330
1F
100
AcDbEntity
  8
0-3_仕上げ
  6
Continuous
 62
     7
370
     9
100
AcDbLine
 10
-1380.000018557983
 20
2810.000148463894
 30
0.0
 11
-1377.000018557983
 21
2807.000148463894
 31
0.0
  0
LINE
  5
13B
330
1F
100
AcDbEntity
  8
0-3_仕上げ
  6
Continuous
 62
     7
370
     9
100
AcDbLine
 10
-1380.000018557983
 20
2904.000148463894
 30
0.0
 11
-1380.000018557983
 21
2810.000148463894
 31
0.0
  0
LINE
  5
13C
330
1F
100
AcDbEntity
  8
0-3_仕上げ
  6
Continuous
 62
     7
370
     9
100
AcDbLine
 10
-1379.000018557982
 20
2811.000148463894
 30
0.0
 11
-1379.000018557982
 21
2903.000148463894
 31
0.0
  0
LINE
  5
13D
330
1F
100
AcDbEntity
  8
0-3_仕上げ
  6
Continuous
 62
     7
370
     9
100
AcDbLine
 10
-831.0000185579828
 20
2907.000148463894
 30
0.0
 11
-828.0000185579821
 21
2904.000148463894
 31
0.0
  0
LINE
  5
13E
330
1F
100
AcDbEntity
  8
0-3_仕上げ
  6
Continuous
 62
     7
370
     9
100
AcDbLine
 10
-828.0000185579821
 20
2904.000148463894
 30
0.0
 11
-829.0000185579835
 21
2903.000148463894
 31
0.0
  0
LINE
  5
13F
330
1F
100
AcDbEntity
  8
0-3_仕上げ
  6
Continuous
 62
     7
370
     9
100
AcDbLine
 10
-829.0000185579835
 20
2811.000148463894
 30
0.0
 11
-828.0000185579821
 21
2810.000148463894
 31
0.0
  0
LINE
  5
140
330
1F
100
AcDbEntity
  8
0-3_仕上げ
  6
Continuous
 62
     7
370
     9
100
AcDbLine
 10
-831.0000185579828
 20
2807.000148463894
 30
0.0
 11
-828.0000185579821
 21
2810.000148463894
 31
0.0
  0
LINE
  5
141
330
1F
100
AcDbEntity
  8
0-3_仕上げ
  6
Continuous
 62
     7
370
     9
100
AcDbLine
 10
-828.0000185579821
 20
2904.000148463894
 30
0.0
 11
-828.0000185579821
 21
2810.000148463894
 31
0.0
  0
LINE
  5
142
330
1F
100
AcDbEntity
  8
0-3_仕上げ
  6
Continuous
 62
     7
370
     9
100
AcDbLine
 10
-1379.000018557982
 20
2903.000148463894
 30
0.0
 11
-829.0000185579835
 21
2903.000148463894
 31
0.0
  0
LINE
  5
143
330
1F
100
AcDbEntity
  8
0-3_仕上げ
  6
Continuous
 62
     7
370
     9
100
AcDbLine
 10
-829.0000185579835
 20
2811.000148463894
 30
0.0
 11
-829.0000185579835
 21
2903.000148463894
 31
0.0
  0
LINE
  5
144
330
1F
100
AcDbEntity
  8
0-3_仕上げ
  6
Continuous
 62
     7
370
     9
100
AcDbLine
 10
-1379.000018557982
 20
2811.000148463894
 30
0.0
 11
-829.0000185579835
 21
2811.000148463894
 31
0.0
  0
LINE
  5
145
330
1F
100
AcDbEntity
  8
0-3_仕上げ
  6
Continuous
 62
     7
370
     9
100
AcDbLine
 10
-1380.000018557983
 20
1629.000148463894
 30
0.0
 11
-1377.000018557983
 21
1632.000148463894
 31
0.0
  0
LINE
  5
146
330
1F
100
AcDbEntity
  8
0-3_仕上げ
  6
Continuous
 62
     7
370
     9
100
AcDbLine
 10
-1380.000018557983
 20
1629.000148463894
 30
0.0
 11
-1379.000018557982
 21
1628.000148463894
 31
0.0
  0
LINE
  5
147
330
1F
100
AcDbEntity
  8
0-3_仕上げ
  6
Continuous
 62
     7
370
     9
100
AcDbLine
 10
-831.0000185579828
 20
1632.000148463894
 30
0.0
 11
-828.0000185579821
 21
1629.000148463894
 31
0.0
  0
LINE
  5
148
330
1F
100
AcDbEntity
  8
0-3_仕上げ
  6
Continuous
 62
     7
370
     9
100
AcDbLine
 10
-828.0000185579821
 20
1629.000148463894
 30
0.0
 11
-829.0000185579835
 21
1628.000148463894
 31
0.0
  0
LINE
  5
149
330
1F
100
AcDbEntity
  8
0-3_仕上げ
  6
Continuous
 62
     7
370
     9
100
AcDbLine
 10
-1379.000018557982
 20
1628.000148463894
 30
0.0
 11
-829.0000185579835
 21
1628.000148463894
 31
0.0
  0
LINE
  5
14A
330
1F
100
AcDbEntity
  8
0-3_仕上げ
  6
Continuous
 62
     7
370
     9
100
AcDbLine
 10
-1379.000018557982
 20
3281.000148463894
 30
0.0
 11
-1379.000018557982
 21
3421.000148463894
 31
0.0
  0
LINE
  5
14B
330
1F
100
AcDbEntity
  8
0-3_仕上げ
  6
Continuous
 62
     7
370
     9
100
AcDbLine
 10
-1380.000018557983
 20
3280.000148463894
 30
0.0
 11
-1380.000018557983
 21
3421.000148463894
 31
0.0
  0
LINE
  5
14C
330
1F
100
AcDbEntity
  8
0-3_仕上げ
  6
Continuous
 62
     7
370
     9
100
AcDbLine
 10
-829.0000185579835
 20
3281.000148463894
 30
0.0
 11
-829.0000185579835
 21
3421.000148463894
 31
0.0
  0
LINE
  5
14D
330
1F
100
AcDbEntity
  8
0-3_仕上げ
  6
Continuous
 62
     7
370
     9
100
AcDbLine
 10
-828.0000185579821
 20
3280.000148463894
 30
0.0
 11
-828.0000185579821
 21
3421.000148463894
 31
0.0
  0
LINE
  5
14E
330
1F
100
AcDbEntity
  8
0-3_仕上げ
  6
Continuous
 62
     7
370
     9
100
AcDbLine
 10
-1379.000018557982
 20
1438.000148463894
 30
0.0
 11
-1379.000018557982
 21
1628.000148463894
 31
0.0
  0
LINE
  5
14F
330
1F
100
AcDbEntity
  8
0-3_仕上げ
  6
Continuous
 62
     7
370
     9
100
AcDbLine
 10
-1380.000018557983
 20
1438.000148463894
 30
0.0
 11
-1380.000018557983
 21
1629.000148463894
 31
0.0
  0
LINE
  5
150
330
1F
100
AcDbEntity
  8
0-3_仕上げ
  6
Continuous
 62
     7
370
     9
100
AcDbLine
 10
-829.0000185579835
 20
1438.000148463894
 30
0.0
 11
-829.0000185579835
 21
1628.000148463894
 31
0.0
  0
LINE
  5
151
330
1F
100
AcDbEntity
  8
0-3_仕上げ
  6
Continuous
 62
     7
370
     9
100
AcDbLine
 10
-828.0000185579821
 20
1438.000148463894
 30
0.0
 11
-828.0000185579821
 21
1629.000148463894
 31
0.0
  0
LINE
  5
152
330
1F
100
AcDbEntity
  8
0-C_ハッチ
  6
Continuous
 62
    92
370
    13
100
AcDbLine
 10
-1102.164259352007
 20
3157.552951751543
 30
0.0
 11
-1121.803493015442
 21
3137.913718088108
 31
0.0
  0
LINE
  5
153
330
1F
100
AcDbEntity
  8
0-C_ハッチ
  6
Continuous
 62
    92
370
    13
100
AcDbLine
 10
-1098.699667399664
 20
3152.532262329648
 30
0.0
 11
-1126.022727908625
 21
3125.209201820687
 31
0.0
  0
LINE
  5
154
330
1F
100
AcDbEntity
  8
0-C_ハッチ
  6
Continuous
 62
    92
370
    13
100
AcDbLine
 10
-1094.550267031812
 20
3148.196381323261
 30
0.0
 11
-1126.207284600117
 21
3116.539363754956
 31
0.0
  0
LINE
  5
155
330
1F
100
AcDbEntity
  8
0-C_ハッチ
  6
Continuous
 62
    92
370
    13
100
AcDbLine
 10
-1090.327387331858
 20
3143.933979648977
 30
0.0
 11
-1124.813942547407
 21
3109.447424433428
 31
0.0
  0
LINE
  5
156
330
1F
100
AcDbEntity
  8
0-C_ハッチ
  6
Continuous
 62
    92
370
    13
100
AcDbLine
 10
-1086.802211550024
 20
3138.973874056571
 30
0.0
 11
-1122.391296023633
 21
3103.384789582962
 31
0.0
  0
LINE
  5
157
330
1F
100
AcDbEntity
  8
0-C_ハッチ
  6
Continuous
 62
    92
370
    13
100
AcDbLine
 10
-1084.040486824986
 20
3133.250317407372
 30
0.0
 11
-1119.15751190911
 21
3098.133292323248
 31
0.0
  0
LINE
  5
158
330
1F
100
AcDbEntity
  8
0-C_ハッチ
  6
Continuous
 62
    92
370
    13
100
AcDbLine
 10
-1082.199631080064
 20
3126.605891778056
 30
0.0
 11
-1115.206600320075
 21
3093.598922538044
 31
0.0
  0
LINE
  5
159
330
1F
100
AcDbEntity
  8
0-C_ハッチ
  6
Continuous
 62
    92
370
    13
100
AcDbLine
 10
-1081.649076179574
 20
3118.671165304307
 30
0.0
 11
-1111.203555515238
 21
3089.116685968642
 31
0.0
  0
LINE
  5
15A
330
1F
100
AcDbEntity
  8
0-C_ハッチ
  6
Continuous
 62
    92
370
    13
100
AcDbLine
 10
-1083.559498178644
 20
3108.275461930999
 30
0.0
 11
-1107.744267018343
 21
3084.090693091298
 31
0.0
  0
LINE
  5
15B
330
1F
100
AcDbEntity
  8
0-C_ハッチ
  6
Continuous
 62
    40
370
    15
100
AcDbLine
 10
-1131.630029155385
 20
3097.714319211994
 30
0.0
 11
-1110.663666714932
 21
3076.74795677154
 31
0.0
  0
LINE
  5
15C
330
1F
100
AcDbEntity
  8
0-C_ハッチ
  6
Continuous
 62
    40
370
    15
100
AcDbLine
 10
-1143.491295012746
 20
3101.090303695116
 30
0.0
 11
-1109.482148749866
 21
3067.081157432236
 31
0.0
  0
LINE
  5
15D
330
1F
100
AcDbEntity
  8
0-C_ハッチ
  6
Continuous
 62
    40
370
    15
100
AcDbLine
 10
-1152.203210380092
 20
3101.316937688223
 30
0.0
 11
-1136.034978607283
 21
3085.148705915415
 31
0.0
  0
LINE
  5
15E
330
1F
100
AcDbEntity
  8
0-C_ハッチ
  6
Continuous
 62
    40
370
    15
100
AcDbLine
 10
-1165.776230486795
 20
3097.91939504645
 30
0.0
 11
-1161.111471922351
 21
3093.254636482007
 31
0.0
  0
LINE
  5
15F
330
1F
100
AcDbEntity
  8
0-C_ハッチ
  6
Continuous
 62
    40
370
    15
100
AcDbLine
 10
-1159.472270007294
 20
3100.100715941187
 30
0.0
 11
-1149.867541626246
 21
3090.495987560138
 31
0.0
  0
LINE
  5
160
330
1F
100
AcDbEntity
  8
0-C_ハッチ
  6
Continuous
 62
    40
370
    15
100
AcDbLine
 10
-1084.586274868394
 20
3092.802133444167
 30
0.0
 11
-1075.289945653072
 21
3083.505804228845
 31
0.0
  0
LINE
  5
161
330
1F
100
AcDbEntity
  8
0-C_ハッチ
  6
Continuous
 62
    40
370
    15
100
AcDbLine
 10
-1089.086855955951
 20
3088.817433157485
 30
0.0
 11
-1080.744148310622
 21
3080.474725512157
 31
0.0
  0
LINE
  5
162
330
1F
100
AcDbEntity
  8
0-C_ハッチ
  6
Continuous
 62
    40
370
    15
100
AcDbLine
 10
-1092.978110415329
 20
3084.223406242626
 30
0.0
 11
-1085.926763567928
 21
3077.172059395224
 31
0.0
  0
LINE
  5
163
330
1F
100
AcDbEntity
  8
0-C_ハッチ
  6
Continuous
 62
    40
370
    15
100
AcDbLine
 10
-1096.237399818892
 20
3078.997414271949
 30
0.0
 11
-1090.848395947787
 21
3073.608410400844
 31
0.0
  0
LINE
  5
164
330
1F
100
AcDbEntity
  8
0-C_ハッチ
  6
Continuous
 62
    40
370
    15
100
AcDbLine
 10
-1098.794929804034
 20
3073.069662882853
 30
0.0
 11
-1095.516363272391
 21
3069.79109635121
 31
0.0
  0
LINE
  5
165
330
1F
100
AcDbEntity
  8
0-C_ハッチ
  6
Continuous
 62
    40
370
    15
100
AcDbLine
 10
-1049.757521348985
 20
3100.399786795951
 30
0.0
 11
-1043.22709565373
 21
3093.869361100696
 31
0.0
  0
LINE
  5
166
330
1F
100
AcDbEntity
  8
0-C_ハッチ
  6
Continuous
 62
    40
370
    15
100
AcDbLine
 10
-1059.286835847968
 20
3101.443819920696
 30
0.0
 11
-1050.383155044918
 21
3092.540139117645
 31
0.0
  0
LINE
  5
167
330
1F
100
AcDbEntity
  8
0-C_ハッチ
  6
Continuous
 62
    40
370
    15
100
AcDbLine
 10
-1067.013910922735
 20
3100.685613621224
 30
0.0
 11
-1057.126405434349
 21
3090.798108132838
 31
0.0
  0
LINE
  5
168
330
1F
100
AcDbEntity
  8
0-C_ハッチ
  6
Continuous
 62
    40
370
    15
100
AcDbLine
 10
-1073.646188372056
 20
3098.832609696306
 30
0.0
 11
-1063.503718578496
 21
3088.690139902747
 31
0.0
  0
LINE
  5
169
330
1F
100
AcDbEntity
  8
0-C_ハッチ
  6
Continuous
 62
    40
370
    15
100
AcDbLine
 10
-1079.4598595877
 20
3096.160999537712
 30
0.0
 11
-1069.549618400434
 21
3086.250758350445
 31
0.0
  0
LINE
  5
16A
330
1F
100
AcDbEntity
  8
0-C_ハッチ
  6
Continuous
 62
    92
370
    13
100
AcDbLine
 10
1146.335740647995
 20
3157.552951751543
 30
0.0
 11
1126.69650698456
 21
3137.913718088108
 31
0.0
  0
LINE
  5
16B
330
1F
100
AcDbEntity
  8
0-C_ハッチ
  6
Continuous
 62
    92
370
    13
100
AcDbLine
 10
1149.800332600338
 20
3152.532262329648
 30
0.0
 11
1122.477272091377
 21
3125.209201820687
 31
0.0
  0
LINE
  5
16C
330
1F
100
AcDbEntity
  8
0-C_ハッチ
  6
Continuous
 62
    92
370
    13
100
AcDbLine
 10
1153.94973296819
 20
3148.196381323261
 30
0.0
 11
1122.292715399885
 21
3116.539363754956
 31
0.0
  0
LINE
  5
16D
330
1F
100
AcDbEntity
  8
0-C_ハッチ
  6
Continuous
 62
    92
370
    13
100
AcDbLine
 10
1158.172612668144
 20
3143.933979648977
 30
0.0
 11
1123.686057452595
 21
3109.447424433428
 31
0.0
  0
LINE
  5
16E
330
1F
100
AcDbEntity
  8
0-C_ハッチ
  6
Continuous
 62
    92
370
    13
100
AcDbLine
 10
1161.697788449977
 20
3138.973874056571
 30
0.0
 11
1126.108703976368
 21
3103.384789582962
 31
0.0
  0
LINE
  5
16F
330
1F
100
AcDbEntity
  8
0-C_ハッチ
  6
Continuous
 62
    92
370
    13
100
AcDbLine
 10
1164.459513175016
 20
3133.250317407372
 30
0.0
 11
1129.342488090892
 21
3098.133292323248
 31
0.0
  0
LINE
  5
170
330
1F
100
AcDbEntity
  8
0-C_ハッチ
  6
Continuous
 62
    92
370
    13
100
AcDbLine
 10
1166.300368919938
 20
3126.605891778056
 30
0.0
 11
1133.293399679927
 21
3093.598922538044
 31
0.0
  0
LINE
  5
171
330
1F
100
AcDbEntity
  8
0-C_ハッチ
  6
Continuous
 62
    92
370
    13
100
AcDbLine
 10
1166.850923820428
 20
3118.671165304307
 30
0.0
 11
1137.296444484764
 21
3089.116685968642
 31
0.0
  0
LINE
  5
172
330
1F
100
AcDbEntity
  8
0-C_ハッチ
  6
Continuous
 62
    92
370
    13
100
AcDbLine
 10
1164.940501821358
 20
3108.275461930999
 30
0.0
 11
1140.755732981658
 21
3084.090693091298
 31
0.0
  0
LINE
  5
173
330
1F
100
AcDbEntity
  8
0-C_ハッチ
  6
Continuous
 62
    92
370
    13
100
AcDbLine
 10
5225.335740648
 20
3157.552951751542
 30
0.0
 11
5205.696506984566
 21
3137.913718088107
 31
0.0
  0
LINE
  5
174
330
1F
100
AcDbEntity
  8
0-C_ハッチ
  6
Continuous
 62
    92
370
    13
100
AcDbLine
 10
5228.800332600343
 20
3152.532262329647
 30
0.0
 11
5201.477272091382
 21
3125.209201820686
 31
0.0
  0
LINE
  5
175
330
1F
100
AcDbEntity
  8
0-C_ハッチ
  6
Continuous
 62
    92
370
    13
100
AcDbLine
 10
5232.949732968195
 20
3148.19638132326
 30
0.0
 11
5201.292715399891
 21
3116.539363754956
 31
0.0
  0
LINE
  5
176
330
1F
100
AcDbEntity
  8
0-C_ハッチ
  6
Continuous
 62
    92
370
    13
100
AcDbLine
 10
5237.172612668149
 20
3143.933979648976
 30
0.0
 11
5202.686057452601
 21
3109.447424433427
 31
0.0
  0
LINE
  5
177
330
1F
100
AcDbEntity
  8
0-C_ハッチ
  6
Continuous
 62
    92
370
    13
100
AcDbLine
 10
5240.697788449983
 20
3138.97387405657
 30
0.0
 11
5205.108703976373
 21
3103.384789582961
 31
0.0
  0
LINE
  5
178
330
1F
100
AcDbEntity
  8
0-C_ハッチ
  6
Continuous
 62
    92
370
    13
100
AcDbLine
 10
5243.459513175021
 20
3133.250317407371
 30
0.0
 11
5208.342488090897
 21
3098.133292323247
 31
0.0
  0
LINE
  5
179
330
1F
100
AcDbEntity
  8
0-C_ハッチ
  6
Continuous
 62
    92
370
    13
100
AcDbLine
 10
5245.300368919942
 20
3126.605891778054
 30
0.0
 11
5212.293399679931
 21
3093.598922538043
 31
0.0
  0
LINE
  5
17A
330
1F
100
AcDbEntity
  8
0-C_ハッチ
  6
Continuous
 62
    92
370
    13
100
AcDbLine
 10
5245.850923820433
 20
3118.671165304306
 30
0.0
 11
5216.296444484768
 21
3089.116685968641
 31
0.0
  0
LINE
  5
17B
330
1F
100
AcDbEntity
  8
0-C_ハッチ
  6
Continuous
 62
    92
370
    13
100
AcDbLine
 10
5243.940501821364
 20
3108.275461930997
 30
0.0
 11
5219.755732981664
 21
3084.090693091297
 31
0.0
  0
LINE
  5
17C
330
1F
100
AcDbEntity
  8
0-C_ハッチ
  6
Continuous
 62
    40
370
    15
100
AcDbLine
 10
1116.869970844617
 20
3097.714319211994
 30
0.0
 11
1137.83633328507
 21
3076.74795677154
 31
0.0
  0
LINE
  5
17D
330
1F
100
AcDbEntity
  8
0-C_ハッチ
  6
Continuous
 62
    40
370
    15
100
AcDbLine
 10
1105.008704987256
 20
3101.090303695116
 30
0.0
 11
1139.017851250135
 21
3067.081157432236
 31
0.0
  0
LINE
  5
17E
330
1F
100
AcDbEntity
  8
0-C_ハッチ
  6
Continuous
 62
    40
370
    15
100
AcDbLine
 10
1096.29678961991
 20
3101.316937688223
 30
0.0
 11
1112.465021392719
 21
3085.148705915415
 31
0.0
  0
LINE
  5
17F
330
1F
100
AcDbEntity
  8
0-C_ハッチ
  6
Continuous
 62
    40
370
    15
100
AcDbLine
 10
1082.723769513206
 20
3097.91939504645
 30
0.0
 11
1087.38852807765
 21
3093.254636482007
 31
0.0
  0
LINE
  5
180
330
1F
100
AcDbEntity
  8
0-C_ハッチ
  6
Continuous
 62
    40
370
    15
100
AcDbLine
 10
1089.027729992707
 20
3100.100715941187
 30
0.0
 11
1098.632458373756
 21
3090.495987560138
 31
0.0
  0
LINE
  5
181
330
1F
100
AcDbEntity
  8
0-C_ハッチ
  6
Continuous
 62
    40
370
    15
100
AcDbLine
 10
1163.913725131608
 20
3092.802133444167
 30
0.0
 11
1173.21005434693
 21
3083.505804228845
 31
0.0
  0
LINE
  5
182
330
1F
100
AcDbEntity
  8
0-C_ハッチ
  6
Continuous
 62
    40
370
    15
100
AcDbLine
 10
1159.413144044051
 20
3088.817433157485
 30
0.0
 11
1167.75585168938
 21
3080.474725512157
 31
0.0
  0
LINE
  5
183
330
1F
100
AcDbEntity
  8
0-C_ハッチ
  6
Continuous
 62
    40
370
    15
100
AcDbLine
 10
1155.521889584672
 20
3084.223406242626
 30
0.0
 11
1162.573236432074
 21
3077.172059395224
 31
0.0
  0
LINE
  5
184
330
1F
100
AcDbEntity
  8
0-C_ハッチ
  6
Continuous
 62
    40
370
    15
100
AcDbLine
 10
1152.26260018111
 20
3078.997414271949
 30
0.0
 11
1157.651604052215
 21
3073.608410400844
 31
0.0
  0
LINE
  5
185
330
1F
100
AcDbEntity
  8
0-C_ハッチ
  6
Continuous
 62
    40
370
    15
100
AcDbLine
 10
1149.705070195968
 20
3073.069662882853
 30
0.0
 11
1152.983636727611
 21
3069.79109635121
 31
0.0
  0
LINE
  5
186
330
1F
100
AcDbEntity
  8
0-C_ハッチ
  6
Continuous
 62
    40
370
    15
100
AcDbLine
 10
1198.742478651017
 20
3100.399786795951
 30
0.0
 11
1205.272904346271
 21
3093.869361100696
 31
0.0
  0
LINE
  5
187
330
1F
100
AcDbEntity
  8
0-C_ハッチ
  6
Continuous
 62
    40
370
    15
100
AcDbLine
 10
1189.213164152034
 20
3101.443819920696
 30
0.0
 11
1198.116844955084
 21
3092.540139117645
 31
0.0
  0
LINE
  5
188
330
1F
100
AcDbEntity
  8
0-C_ハッチ
  6
Continuous
 62
    40
370
    15
100
AcDbLine
 10
1181.486089077267
 20
3100.685613621224
 30
0.0
 11
1191.373594565653
 21
3090.798108132838
 31
0.0
  0
LINE
  5
189
330
1F
100
AcDbEntity
  8
0-C_ハッチ
  6
Continuous
 62
    40
370
    15
100
AcDbLine
 10
1174.853811627946
 20
3098.832609696306
 30
0.0
 11
1184.996281421506
 21
3088.690139902747
 31
0.0
  0
LINE
  5
18A
330
1F
100
AcDbEntity
  8
0-C_ハッチ
  6
Continuous
 62
    40
370
    15
100
AcDbLine
 10
1169.040140412302
 20
3096.160999537712
 30
0.0
 11
1178.950381599568
 21
3086.250758350445
 31
0.0
  0
LINE
  5
18B
330
1F
100
AcDbEntity
  8
0-C_ハッチ
  6
Continuous
 62
    40
370
    15
100
AcDbLine
 10
5195.869970844622
 20
3097.714319211992
 30
0.0
 11
5216.836333285075
 21
3076.747956771539
 31
0.0
  0
LINE
  5
18C
330
1F
100
AcDbEntity
  8
0-C_ハッチ
  6
Continuous
 62
    40
370
    15
100
AcDbLine
 10
5184.008704987261
 20
3101.090303695115
 30
0.0
 11
5218.017851250141
 21
3067.081157432235
 31
0.0
  0
LINE
  5
18D
330
1F
100
AcDbEntity
  8
0-C_ハッチ
  6
Continuous
 62
    40
370
    15
100
AcDbLine
 10
5175.296789619915
 20
3101.316937688222
 30
0.0
 11
5191.465021392723
 21
3085.148705915414
 31
0.0
  0
LINE
  5
18E
330
1F
100
AcDbEntity
  8
0-C_ハッチ
  6
Continuous
 62
    40
370
    15
100
AcDbLine
 10
5161.723769513212
 20
3097.919395046449
 30
0.0
 11
5166.388528077655
 21
3093.254636482005
 31
0.0
  0
LINE
  5
18F
330
1F
100
AcDbEntity
  8
0-C_ハッチ
  6
Continuous
 62
    40
370
    15
100
AcDbLine
 10
5168.027729992713
 20
3100.100715941187
 30
0.0
 11
5177.632458373761
 21
3090.495987560138
 31
0.0
  0
LINE
  5
190
330
1F
100
AcDbEntity
  8
0-C_ハッチ
  6
Continuous
 62
    40
370
    15
100
AcDbLine
 10
5242.913725131613
 20
3092.802133444166
 30
0.0
 11
5252.210054346935
 21
3083.505804228844
 31
0.0
  0
LINE
  5
191
330
1F
100
AcDbEntity
  8
0-C_ハッチ
  6
Continuous
 62
    40
370
    15
100
AcDbLine
 10
5238.413144044055
 20
3088.817433157484
 30
0.0
 11
5246.755851689384
 21
3080.474725512156
 31
0.0
  0
LINE
  5
192
330
1F
100
AcDbEntity
  8
0-C_ハッチ
  6
Continuous
 62
    40
370
    15
100
AcDbLine
 10
5234.521889584677
 20
3084.223406242625
 30
0.0
 11
5241.573236432078
 21
3077.172059395223
 31
0.0
  0
LINE
  5
193
330
1F
100
AcDbEntity
  8
0-C_ハッチ
  6
Continuous
 62
    40
370
    15
100
AcDbLine
 10
5231.262600181116
 20
3078.997414271948
 30
0.0
 11
5236.65160405222
 21
3073.608410400843
 31
0.0
  0
LINE
  5
194
330
1F
100
AcDbEntity
  8
0-C_ハッチ
  6
Continuous
 62
    40
370
    15
100
AcDbLine
 10
5228.705070195973
 20
3073.069662882852
 30
0.0
 11
5231.983636727616
 21
3069.791096351209
 31
0.0
  0
LINE
  5
195
330
1F
100
AcDbEntity
  8
0-C_ハッチ
  6
Continuous
 62
    40
370
    15
100
AcDbLine
 10
5277.742478651022
 20
3100.39978679595
 30
0.0
 11
5284.272904346276
 21
3093.869361100695
 31
0.0
  0
LINE
  5
196
330
1F
100
AcDbEntity
  8
0-C_ハッチ
  6
Continuous
 62
    40
370
    15
100
AcDbLine
 10
5268.213164152039
 20
3101.443819920695
 30
0.0
 11
5277.11684495509
 21
3092.540139117645
 31
0.0
  0
LINE
  5
197
330
1F
100
AcDbEntity
  8
0-C_ハッチ
  6
Continuous
 62
    40
370
    15
100
AcDbLine
 10
5260.486089077272
 20
3100.685613621223
 30
0.0
 11
5270.373594565657
 21
3090.798108132837
 31
0.0
  0
LINE
  5
198
330
1F
100
AcDbEntity
  8
0-C_ハッチ
  6
Continuous
 62
    40
370
    15
100
AcDbLine
 10
5253.853811627951
 20
3098.832609696305
 30
0.0
 11
5263.996281421511
 21
3088.690139902746
 31
0.0
  0
LINE
  5
199
330
1F
100
AcDbEntity
  8
0-C_ハッチ
  6
Continuous
 62
    40
370
    15
100
AcDbLine
 10
5248.040140412307
 20
3096.160999537711
 30
0.0
 11
5257.950381599573
 21
3086.250758350444
 31
0.0
  0
LINE
  5
19A
330
1F
100
AcDbEntity
  8
0-3_仕上げ
  6
Continuous
 62
    92
370
    13
100
AcDbLine
 10
903.999981442021
 20
3277.000148463894
 30
0.0
 11
1384.99998144202
 21
3277.000148463894
 31
0.0
  0
LINE
  5
19B
330
1F
100
AcDbEntity
  8
0-3_仕上げ
  6
Continuous
 62
    92
370
    13
100
AcDbLine
 10
903.999981442021
 20
2807.000148463894
 30
0.0
 11
1384.99998144202
 21
2807.000148463894
 31
0.0
  0
LINE
  5
19C
330
1F
100
AcDbEntity
  8
0-3_仕上げ
  6
Continuous
 62
    92
370
    13
100
AcDbLine
 10
903.999981442021
 20
2907.000148463894
 30
0.0
 11
1384.99998144202
 21
2907.000148463894
 31
0.0
  0
LINE
  5
19D
330
1F
100
AcDbEntity
  8
0-3_仕上げ
  6
Continuous
 62
    92
370
    13
100
AcDbLine
 10
903.999981442021
 20
2907.000148463894
 30
0.0
 11
903.999981442021
 21
3277.000148463894
 31
0.0
  0
LINE
  5
19E
330
1F
100
AcDbEntity
  8
0-3_仕上げ
  6
Continuous
 62
    92
370
    13
100
AcDbLine
 10
1384.99998144202
 20
2907.000148463894
 30
0.0
 11
1384.99998144202
 21
3277.000148463894
 31
0.0
  0
LINE
  5
19F
330
1F
100
AcDbEntity
  8
0-3_仕上げ
  6
Continuous
 62
    92
370
    13
100
AcDbLine
 10
1147.499981442019
 20
3172.32402354109
 30
0.0
 11
1147.499981442019
 21
3277.000148463894
 31
0.0
  0
LINE
  5
1A0
330
1F
100
AcDbEntity
  8
0-3_仕上げ
  6
Continuous
 62
    92
370
    13
100
AcDbLine
 10
1271.49998144202
 20
2907.000148463894
 30
0.0
 11
1271.49998144202
 21
3277.000148463894
 31
0.0
  0
LINE
  5
1A1
330
1F
100
AcDbEntity
  8
0-3_仕上げ
  6
JWW_CENTER1
 62
    92
370
    13
100
AcDbLine
 10
1274.49998144202
 20
2907.000148463894
 30
0.0
 11
1274.49998144202
 21
3277.000148463894
 31
0.0
  0
LINE
  5
1A2
330
1F
100
AcDbEntity
  8
0-3_仕上げ
  6
Continuous
 62
    92
370
    13
100
AcDbLine
 10
1277.499981442019
 20
2907.000148463894
 30
0.0
 11
1277.499981442019
 21
3277.000148463894
 31
0.0
  0
LINE
  5
1A3
330
1F
100
AcDbEntity
  8
0-3_仕上げ
  6
Continuous
 62
    92
370
    13
100
AcDbLine
 10
1011.499981442019
 20
2907.000148463894
 30
0.0
 11
1011.499981442019
 21
3277.000148463894
 31
0.0
  0
LINE
  5
1A4
330
1F
100
AcDbEntity
  8
0-3_仕上げ
  6
JWW_CENTER1
 62
    92
370
    13
100
AcDbLine
 10
1014.49998144202
 20
2907.000148463894
 30
0.0
 11
1014.49998144202
 21
3277.000148463894
 31
0.0
  0
LINE
  5
1A5
330
1F
100
AcDbEntity
  8
0-3_仕上げ
  6
Continuous
 62
    92
370
    13
100
AcDbLine
 10
1017.499981442019
 20
2907.000148463894
 30
0.0
 11
1017.499981442019
 21
3277.000148463894
 31
0.0
  0
LINE
  5
1A6
330
1F
100
AcDbEntity
  8
0-3_仕上げ
  6
Continuous
 62
    92
370
    13
100
AcDbLine
 10
1141.49998144202
 20
3172.32402354109
 30
0.0
 11
1141.49998144202
 21
3277.000148463894
 31
0.0
  0
ARC
  5
1A7
330
1F
100
AcDbEntity
  8
0-3_仕上げ
  6
JWW_CENTER1
 62
    92
370
    13
100
AcDbCircle
 10
1068.506560489055
 20
2992.000148680313
 30
0.0
 40
100.0
100
AcDbArc
 50
40.54160171033374
 51
90.00376951628597
  0
ARC
  5
1A8
330
1F
100
AcDbEntity
  8
0-3_仕上げ
  6
JWW_CENTER1
 62
    92
370
    13
100
AcDbCircle
 10
1099.566412214622
 20
3059.444398141545
 30
0.0
 40
45.0
100
AcDbArc
 50
3.113647660734046
 51
133.6590188873627
  0
ARC
  5
1A9
330
1F
100
AcDbEntity
  8
0-3_仕上げ
  6
JWW_CENTER1
 62
    92
370
    13
100
AcDbCircle
 10
1189.433550669417
 20
3059.444398141545
 30
0.0
 40
45.0
100
AcDbArc
 50
46.34098111263735
 51
176.886352339266
  0
ARC
  5
1AA
330
1F
100
AcDbEntity
  8
0-3_仕上げ
  6
JWW_CENTER1
 62
    92
370
    13
100
AcDbCircle
 10
1220.493402394985
 20
2992.000148680313
 30
0.0
 40
100.0
100
AcDbArc
 50
89.99623048371403
 51
139.4583982896663
  0
ARC
  5
1AB
330
1F
100
AcDbEntity
  8
0-3_仕上げ
  6
JWW_CENTER1
 62
    92
370
    13
100
AcDbCircle
 10
1179.243252228068
 20
3176.555469521758
 30
0.0
 40
35.0
100
AcDbArc
 50
186.9439578850277
 51
228.8372333122856
  0
ARC
  5
1AC
330
1F
100
AcDbEntity
  8
0-3_仕上げ
  6
JWW_CENTER1
 62
    92
370
    13
100
AcDbCircle
 10
1129.878224565077
 20
3120.092259873066
 30
0.0
 40
40.0
100
AcDbArc
 50
314.4792487798384
 51
48.83723331228539
  0
ARC
  5
1AD
330
1F
100
AcDbEntity
  8
0-3_仕上げ
  6
JWW_CENTER1
 62
    92
370
    13
100
AcDbCircle
 10
1109.756710655971
 20
3176.555469521758
 30
0.0
 40
35.0
100
AcDbArc
 50
311.1627666877145
 51
353.0560421149723
  0
ARC
  5
1AE
330
1F
100
AcDbEntity
  8
0-3_仕上げ
  6
JWW_CENTER1
 62
    92
370
    13
100
AcDbCircle
 10
1159.121738318962
 20
3120.092259873066
 30
0.0
 40
40.0
100
AcDbArc
 50
131.1627666877146
 51
225.5207512201617
  0
LINE
  5
1AF
330
1F
100
AcDbEntity
  8
0-3_仕上げ
  6
JWW_CENTER1
 62
    92
370
    13
100
AcDbLine
 10
1144.499981442019
 20
3172.32402354109
 30
0.0
 11
1144.499981442019
 21
3277.000148463894
 31
0.0
  0
LINE
  5
1B0
330
1F
100
AcDbEntity
  8
0-3_仕上げ
  6
JWW_CENTER1
 62
    92
370
    13
100
AcDbLine
 10
1144.499981442019
 20
2907.000148463894
 30
0.0
 11
1144.499981442019
 21
3061.88864781919
 31
0.0
  0
ARC
  5
1B1
330
1F
100
AcDbEntity
  8
0-3_仕上げ
  6
Continuous
 62
    92
370
    13
100
AcDbCircle
 10
1129.878224565077
 20
3120.092259873066
 30
0.0
 40
37.0
100
AcDbArc
 50
314.4792487798384
 51
48.83723331228539
  0
ARC
  5
1B2
330
1F
100
AcDbEntity
  8
0-3_仕上げ
  6
Continuous
 62
    92
370
    13
100
AcDbCircle
 10
1179.243252228068
 20
3176.555469521758
 30
0.0
 40
32.0
100
AcDbArc
 50
186.9439578850277
 51
228.8372333122856
  0
ARC
  5
1B3
330
1F
100
AcDbEntity
  8
0-3_仕上げ
  6
Continuous
 62
    92
370
    13
100
AcDbCircle
 10
1109.756710655971
 20
3176.555469521758
 30
0.0
 40
32.0
100
AcDbArc
 50
311.1627666877145
 51
353.0560421149723
  0
ARC
  5
1B4
330
1F
100
AcDbEntity
  8
0-3_仕上げ
  6
Continuous
 62
    92
370
    13
100
AcDbCircle
 10
1159.121738318962
 20
3120.092259873066
 30
0.0
 40
37.0
100
AcDbArc
 50
131.1627666877146
 51
225.5207512201617
  0
ARC
  5
1B5
330
1F
100
AcDbEntity
  8
0-3_仕上げ
  6
Continuous
 62
    92
370
    13
100
AcDbCircle
 10
1068.506560489055
 20
2992.000148680313
 30
0.0
 40
103.0
100
AcDbArc
 50
45.10773387316914
 51
85.43763735345068
  0
ARC
  5
1B6
330
1F
100
AcDbEntity
  8
0-3_仕上げ
  6
Continuous
 62
    92
370
    13
100
AcDbCircle
 10
1099.566412214622
 20
3059.444398141545
 30
0.0
 40
42.0
100
AcDbArc
 50
7.558436535392484
 51
122.9869346912273
  0
ARC
  5
1B7
330
1F
100
AcDbEntity
  8
0-3_仕上げ
  6
Continuous
 62
    92
370
    13
100
AcDbCircle
 10
1068.506560489055
 20
2992.000148680313
 30
0.0
 40
97.00000000000003
100
AcDbArc
 50
41.19177185484618
 51
90.00376951628597
  0
LINE
  5
1B8
330
1F
100
AcDbEntity
  8
0-3_仕上げ
  6
Continuous
 62
    92
370
    13
100
AcDbLine
 10
1141.49998144202
 20
2907.000148463894
 30
0.0
 11
1141.49998144202
 21
3055.882544515029
 31
0.0
  0
LINE
  5
1B9
330
1F
100
AcDbEntity
  8
0-3_仕上げ
  6
Continuous
 62
    92
370
    13
100
AcDbLine
 10
1147.499981442019
 20
2907.000148463894
 30
0.0
 11
1147.499981442019
 21
3055.882544515028
 31
0.0
  0
ARC
  5
1BA
330
1F
100
AcDbEntity
  8
0-3_仕上げ
  6
Continuous
 62
    92
370
    13
100
AcDbCircle
 10
1159.121738318962
 20
3120.092259873066
 30
0.0
 40
43.0
100
AcDbArc
 50
131.1627666877146
 51
203.3599080664725
  0
ARC
  5
1BB
330
1F
100
AcDbEntity
  8
0-3_仕上げ
  6
Continuous
 62
    92
370
    13
100
AcDbCircle
 10
1129.878224565077
 20
3120.092259873066
 30
0.0
 40
43.0
100
AcDbArc
 50
336.6400919335275
 51
48.83723331228539
  0
ARC
  5
1BC
330
1F
100
AcDbEntity
  8
0-3_仕上げ
  6
Continuous
 62
    92
370
    13
100
AcDbCircle
 10
1220.493402394985
 20
2992.000148680313
 30
0.0
 40
97.00000000000003
100
AcDbArc
 50
90.0
 51
138.8082281451543
  0
ARC
  5
1BD
330
1F
100
AcDbEntity
  8
0-3_仕上げ
  6
Continuous
 62
    92
370
    13
100
AcDbCircle
 10
1189.433550669417
 20
3059.444398141545
 30
0.0
 40
42.0
100
AcDbArc
 50
57.01306530877268
 51
172.4415634646074
  0
ARC
  5
1BE
330
1F
100
AcDbEntity
  8
0-3_仕上げ
  6
Continuous
 62
    92
370
    13
100
AcDbCircle
 10
1220.493402394985
 20
2992.000148680313
 30
0.0
 40
103.0
100
AcDbArc
 50
94.56236264654935
 51
134.8922661268309
  0
ARC
  5
1BF
330
1F
100
AcDbEntity
  8
0-3_仕上げ
  6
Continuous
 62
    92
370
    13
100
AcDbCircle
 10
1109.756710655971
 20
3176.555469521758
 30
0.0
 40
38.0
100
AcDbArc
 50
311.1627666877145
 51
336.1060315563597
  0
ARC
  5
1C0
330
1F
100
AcDbEntity
  8
0-3_仕上げ
  6
Continuous
 62
    92
370
    13
100
AcDbCircle
 10
1179.243252228068
 20
3176.555469521758
 30
0.0
 40
38.0
100
AcDbArc
 50
203.8939684436403
 51
228.8372333122856
  0
ARC
  5
1C1
330
1F
100
AcDbEntity
  8
0-3_仕上げ
  6
Continuous
 62
    92
370
    13
100
AcDbCircle
 10
1099.566412214622
 20
3059.444398141545
 30
0.0
 40
48.00000000000001
100
AcDbArc
 50
20.59079892749086
 51
45.52075122016139
  0
ARC
  5
1C2
330
1F
100
AcDbEntity
  8
0-3_仕上げ
  6
Continuous
 62
    92
370
    13
100
AcDbCircle
 10
1099.566412214622
 20
3059.444398141545
 30
0.0
 40
48.00000000000001
100
AcDbArc
 50
65.27067401580403
 51
132.2051003340379
  0
ARC
  5
1C3
330
1F
100
AcDbEntity
  8
0-3_仕上げ
  6
Continuous
 62
    92
370
    13
100
AcDbCircle
 10
1189.433550669417
 20
3059.444398141545
 30
0.0
 40
48.00000000000001
100
AcDbArc
 50
47.79489966596212
 51
114.729325984196
  0
ARC
  5
1C4
330
1F
100
AcDbEntity
  8
0-3_仕上げ
  6
Continuous
 62
    92
370
    13
100
AcDbCircle
 10
1189.433550669417
 20
3059.444398141545
 30
0.0
 40
48.00000000000001
100
AcDbArc
 50
134.4792487798386
 51
159.4092010725091
  0
LINE
  5
1C5
330
1F
100
AcDbEntity
  8
0-3_仕上げ
  6
Continuous
 62
    92
370
    13
100
AcDbLine
 10
903.999981442021
 20
3095.000148463894
 30
0.0
 11
1067.320658711024
 21
3095.000148463894
 31
0.0
  0
LINE
  5
1C6
330
1F
100
AcDbEntity
  8
0-3_仕上げ
  6
JWW_CENTER1
 62
    92
370
    13
100
AcDbLine
 10
903.999981442021
 20
3092.000148463894
 30
0.0
 11
1068.49998144202
 21
3092.000148463894
 31
0.0
  0
LINE
  5
1C7
330
1F
100
AcDbEntity
  8
0-3_仕上げ
  6
Continuous
 62
    92
370
    13
100
AcDbLine
 10
903.999981442021
 20
3089.000148463894
 30
0.0
 11
1068.49998144202
 21
3089.000148463894
 31
0.0
  0
LINE
  5
1C8
330
1F
100
AcDbEntity
  8
0-3_仕上げ
  6
Continuous
 62
    92
370
    13
100
AcDbLine
 10
1221.679304173016
 20
3095.000148463894
 30
0.0
 11
1384.99998144202
 21
3095.000148463894
 31
0.0
  0
LINE
  5
1C9
330
1F
100
AcDbEntity
  8
0-3_仕上げ
  6
JWW_CENTER1
 62
    92
370
    13
100
AcDbLine
 10
1220.49998144202
 20
3092.000148463894
 30
0.0
 11
1384.99998144202
 21
3092.000148463894
 31
0.0
  0
LINE
  5
1CA
330
1F
100
AcDbEntity
  8
0-3_仕上げ
  6
Continuous
 62
    92
370
    13
100
AcDbLine
 10
1220.493402394985
 20
3089.000148463894
 30
0.0
 11
1384.99998144202
 21
3089.000148463894
 31
0.0
  0
LINE
  5
1CB
330
1F
100
AcDbEntity
  8
0-3_仕上げ
  6
Continuous
 62
    92
370
    13
100
AcDbLine
 10
903.999981442021
 20
1632.000148463894
 30
0.0
 11
1384.99998144202
 21
1632.000148463894
 31
0.0
  0
LINE
  5
1CC
330
1F
100
AcDbEntity
  8
0-3_仕上げ
  6
Continuous
 62
    92
370
    13
100
AcDbLine
 10
903.999981442021
 20
1632.000148463894
 30
0.0
 11
903.999981442021
 21
2807.000148463894
 31
0.0
  0
LINE
  5
1CD
330
1F
100
AcDbEntity
  8
0-3_仕上げ
  6
Continuous
 62
    92
370
    13
100
AcDbLine
 10
1384.99998144202
 20
1632.000148463894
 30
0.0
 11
1384.99998144202
 21
2807.000148463894
 31
0.0
  0
LINE
  5
1CE
330
1F
100
AcDbEntity
  8
0-3_仕上げ
  6
Continuous
 62
    92
370
    13
100
AcDbLine
 10
5047.999981442025
 20
2907.000148463893
 30
0.0
 11
5047.999981442025
 21
3277.000148463893
 31
0.0
  0
LINE
  5
1CF
330
1F
100
AcDbEntity
  8
0-3_仕上げ
  6
Continuous
 62
    92
370
    13
100
AcDbLine
 10
5398.999981442023
 20
2907.000148463893
 30
0.0
 11
5398.999981442023
 21
3277.000148463893
 31
0.0
  0
LINE
  5
1D0
330
1F
100
AcDbEntity
  8
0-3_仕上げ
  6
Continuous
 62
    92
370
    13
100
AcDbLine
 10
5047.999981442025
 20
3277.000148463893
 30
0.0
 11
5398.999981442023
 21
3277.000148463893
 31
0.0
  0
LINE
  5
1D1
330
1F
100
AcDbEntity
  8
0-3_仕上げ
  6
Continuous
 62
    92
370
    13
100
AcDbLine
 10
5047.999981442025
 20
2907.000148463893
 30
0.0
 11
5398.999981442023
 21
2907.000148463893
 31
0.0
  0
LINE
  5
1D2
330
1F
100
AcDbEntity
  8
0-3_仕上げ
  6
Continuous
 62
    92
370
    13
100
AcDbLine
 10
5047.999981442025
 20
2807.000148463893
 30
0.0
 11
5398.999981442023
 21
2807.000148463893
 31
0.0
  0
LINE
  5
1D3
330
1F
100
AcDbEntity
  8
0-3_仕上げ
  6
Continuous
 62
    92
370
    13
100
AcDbLine
 10
5226.499981442024
 20
3172.324023541089
 30
0.0
 11
5226.499981442024
 21
3277.000148463893
 31
0.0
  0
LINE
  5
1D4
330
1F
100
AcDbEntity
  8
0-3_仕上げ
  6
Continuous
 62
    92
370
    13
100
AcDbLine
 10
5220.499981442024
 20
3172.324023541089
 30
0.0
 11
5220.499981442024
 21
3277.000148463893
 31
0.0
  0
ARC
  5
1D5
330
1F
100
AcDbEntity
  8
0-3_仕上げ
  6
JWW_CENTER1
 62
    92
370
    13
100
AcDbCircle
 10
5147.50656048906
 20
2992.000148680313
 30
0.0
 40
100.0
100
AcDbArc
 50
40.54160171033374
 51
90.00376951628597
  0
ARC
  5
1D6
330
1F
100
AcDbEntity
  8
0-3_仕上げ
  6
JWW_CENTER1
 62
    92
370
    13
100
AcDbCircle
 10
5178.566412214627
 20
3059.444398141544
 30
0.0
 40
45.0
100
AcDbArc
 50
3.113647660734046
 51
133.6590188873627
  0
ARC
  5
1D7
330
1F
100
AcDbEntity
  8
0-3_仕上げ
  6
JWW_CENTER1
 62
    92
370
    13
100
AcDbCircle
 10
5268.433550669422
 20
3059.444398141544
 30
0.0
 40
45.0
100
AcDbArc
 50
46.34098111263735
 51
176.886352339266
  0
ARC
  5
1D8
330
1F
100
AcDbEntity
  8
0-3_仕上げ
  6
JWW_CENTER1
 62
    92
370
    13
100
AcDbCircle
 10
5299.49340239499
 20
2992.000148680313
 30
0.0
 40
100.0
100
AcDbArc
 50
89.99623048371403
 51
139.4583982896663
  0
ARC
  5
1D9
330
1F
100
AcDbEntity
  8
0-3_仕上げ
  6
JWW_CENTER1
 62
    92
370
    13
100
AcDbCircle
 10
5258.243252228073
 20
3176.555469521757
 30
0.0
 40
35.0
100
AcDbArc
 50
186.9439578850277
 51
228.8372333122856
  0
ARC
  5
1DA
330
1F
100
AcDbEntity
  8
0-3_仕上げ
  6
JWW_CENTER1
 62
    92
370
    13
100
AcDbCircle
 10
5208.878224565083
 20
3120.092259873065
 30
0.0
 40
40.0
100
AcDbArc
 50
314.4792487798384
 51
48.83723331228539
  0
ARC
  5
1DB
330
1F
100
AcDbEntity
  8
0-3_仕上げ
  6
JWW_CENTER1
 62
    92
370
    13
100
AcDbCircle
 10
5188.756710655976
 20
3176.555469521757
 30
0.0
 40
35.0
100
AcDbArc
 50
311.1627666877145
 51
353.0560421149723
  0
ARC
  5
1DC
330
1F
100
AcDbEntity
  8
0-3_仕上げ
  6
JWW_CENTER1
 62
    92
370
    13
100
AcDbCircle
 10
5238.121738318968
 20
3120.092259873065
 30
0.0
 40
40.0
100
AcDbArc
 50
131.1627666877146
 51
225.5207512201617
  0
LINE
  5
1DD
330
1F
100
AcDbEntity
  8
0-3_仕上げ
  6
JWW_CENTER1
 62
    92
370
    13
100
AcDbLine
 10
5223.499981442024
 20
3172.324023541089
 30
0.0
 11
5223.499981442024
 21
3277.000148463893
 31
0.0
  0
LINE
  5
1DE
330
1F
100
AcDbEntity
  8
0-3_仕上げ
  6
JWW_CENTER1
 62
    92
370
    13
100
AcDbLine
 10
5223.499981442024
 20
2907.000148463893
 30
0.0
 11
5223.499981442024
 21
3061.888647819188
 31
0.0
  0
ARC
  5
1DF
330
1F
100
AcDbEntity
  8
0-3_仕上げ
  6
Continuous
 62
    92
370
    13
100
AcDbCircle
 10
5208.878224565083
 20
3120.092259873065
 30
0.0
 40
37.0
100
AcDbArc
 50
314.4792487798384
 51
48.83723331228539
  0
ARC
  5
1E0
330
1F
100
AcDbEntity
  8
0-3_仕上げ
  6
Continuous
 62
    92
370
    13
100
AcDbCircle
 10
5258.243252228073
 20
3176.555469521757
 30
0.0
 40
32.0
100
AcDbArc
 50
186.9439578850277
 51
228.8372333122856
  0
ARC
  5
1E1
330
1F
100
AcDbEntity
  8
0-3_仕上げ
  6
Continuous
 62
    92
370
    13
100
AcDbCircle
 10
5188.756710655976
 20
3176.555469521757
 30
0.0
 40
32.0
100
AcDbArc
 50
311.1627666877145
 51
353.0560421149723
  0
ARC
  5
1E2
330
1F
100
AcDbEntity
  8
0-3_仕上げ
  6
Continuous
 62
    92
370
    13
100
AcDbCircle
 10
5238.121738318968
 20
3120.092259873065
 30
0.0
 40
37.0
100
AcDbArc
 50
131.1627666877146
 51
225.5207512201617
  0
ARC
  5
1E3
330
1F
100
AcDbEntity
  8
0-3_仕上げ
  6
Continuous
 62
    92
370
    13
100
AcDbCircle
 10
5147.50656048906
 20
2992.000148680313
 30
0.0
 40
103.0
100
AcDbArc
 50
45.10773387316914
 51
85.43763735345068
  0
ARC
  5
1E4
330
1F
100
AcDbEntity
  8
0-3_仕上げ
  6
Continuous
 62
    92
370
    13
100
AcDbCircle
 10
5178.566412214627
 20
3059.444398141544
 30
0.0
 40
42.0
100
AcDbArc
 50
7.558436535392484
 51
122.9869346912273
  0
ARC
  5
1E5
330
1F
100
AcDbEntity
  8
0-3_仕上げ
  6
Continuous
 62
    92
370
    13
100
AcDbCircle
 10
5147.50656048906
 20
2992.000148680313
 30
0.0
 40
97.00000000000001
100
AcDbArc
 50
41.19177185484618
 51
90.00376951628597
  0
LINE
  5
1E6
330
1F
100
AcDbEntity
  8
0-3_仕上げ
  6
Continuous
 62
    92
370
    13
100
AcDbLine
 10
5220.499981442024
 20
2907.000148463893
 30
0.0
 11
5220.499981442024
 21
3055.882544515028
 31
0.0
  0
LINE
  5
1E7
330
1F
100
AcDbEntity
  8
0-3_仕上げ
  6
Continuous
 62
    92
370
    13
100
AcDbLine
 10
5226.499981442024
 20
2907.000148463893
 30
0.0
 11
5226.499981442024
 21
3055.882544515027
 31
0.0
  0
ARC
  5
1E8
330
1F
100
AcDbEntity
  8
0-3_仕上げ
  6
Continuous
 62
    92
370
    13
100
AcDbCircle
 10
5238.121738318968
 20
3120.092259873065
 30
0.0
 40
43.0
100
AcDbArc
 50
131.1627666877146
 51
203.3599080664725
  0
ARC
  5
1E9
330
1F
100
AcDbEntity
  8
0-3_仕上げ
  6
Continuous
 62
    92
370
    13
100
AcDbCircle
 10
5208.878224565083
 20
3120.092259873065
 30
0.0
 40
43.0
100
AcDbArc
 50
336.6400919335275
 51
48.83723331228539
  0
ARC
  5
1EA
330
1F
100
AcDbEntity
  8
0-3_仕上げ
  6
Continuous
 62
    92
370
    13
100
AcDbCircle
 10
5299.49340239499
 20
2992.000148680313
 30
0.0
 40
97.00000000000001
100
AcDbArc
 50
90.0
 51
138.8082281451543
  0
ARC
  5
1EB
330
1F
100
AcDbEntity
  8
0-3_仕上げ
  6
Continuous
 62
    92
370
    13
100
AcDbCircle
 10
5268.433550669422
 20
3059.444398141544
 30
0.0
 40
42.0
100
AcDbArc
 50
57.01306530877268
 51
172.4415634646074
  0
ARC
  5
1EC
330
1F
100
AcDbEntity
  8
0-3_仕上げ
  6
Continuous
 62
    92
370
    13
100
AcDbCircle
 10
5299.49340239499
 20
2992.000148680313
 30
0.0
 40
103.0
100
AcDbArc
 50
94.56236264654935
 51
134.8922661268309
  0
ARC
  5
1ED
330
1F
100
AcDbEntity
  8
0-3_仕上げ
  6
Continuous
 62
    92
370
    13
100
AcDbCircle
 10
5188.756710655976
 20
3176.555469521757
 30
0.0
 40
38.0
100
AcDbArc
 50
311.1627666877145
 51
336.1060315563597
  0
ARC
  5
1EE
330
1F
100
AcDbEntity
  8
0-3_仕上げ
  6
Continuous
 62
    92
370
    13
100
AcDbCircle
 10
5258.243252228073
 20
3176.555469521757
 30
0.0
 40
38.0
100
AcDbArc
 50
203.8939684436403
 51
228.8372333122856
  0
ARC
  5
1EF
330
1F
100
AcDbEntity
  8
0-3_仕上げ
  6
Continuous
 62
    92
370
    13
100
AcDbCircle
 10
5178.566412214627
 20
3059.444398141544
 30
0.0
 40
48.00000000000001
100
AcDbArc
 50
20.59079892749086
 51
45.52075122016139
  0
ARC
  5
1F0
330
1F
100
AcDbEntity
  8
0-3_仕上げ
  6
Continuous
 62
    92
370
    13
100
AcDbCircle
 10
5178.566412214627
 20
3059.444398141544
 30
0.0
 40
48.00000000000001
100
AcDbArc
 50
65.27067401580403
 51
132.2051003340379
  0
ARC
  5
1F1
330
1F
100
AcDbEntity
  8
0-3_仕上げ
  6
Continuous
 62
    92
370
    13
100
AcDbCircle
 10
5268.433550669422
 20
3059.444398141544
 30
0.0
 40
48.00000000000001
100
AcDbArc
 50
47.79489966596212
 51
114.729325984196
  0
ARC
  5
1F2
330
1F
100
AcDbEntity
  8
0-3_仕上げ
  6
Continuous
 62
    92
370
    13
100
AcDbCircle
 10
5268.433550669422
 20
3059.444398141544
 30
0.0
 40
48.00000000000001
100
AcDbArc
 50
134.4792487798386
 51
159.4092010725091
  0
LINE
  5
1F3
330
1F
100
AcDbEntity
  8
0-3_仕上げ
  6
Continuous
 62
    92
370
    13
100
AcDbLine
 10
5047.999981442025
 20
3095.000148463892
 30
0.0
 11
5146.320658711029
 21
3095.000148463892
 31
0.0
  0
LINE
  5
1F4
330
1F
100
AcDbEntity
  8
0-3_仕上げ
  6
JWW_CENTER1
 62
    92
370
    13
100
AcDbLine
 10
5047.999981442025
 20
3092.000148463893
 30
0.0
 11
5147.499981442024
 21
3092.000148463893
 31
0.0
  0
LINE
  5
1F5
330
1F
100
AcDbEntity
  8
0-3_仕上げ
  6
Continuous
 62
    92
370
    13
100
AcDbLine
 10
5047.999981442025
 20
3089.000148463893
 30
0.0
 11
5147.499981442024
 21
3089.000148463893
 31
0.0
  0
LINE
  5
1F6
330
1F
100
AcDbEntity
  8
0-3_仕上げ
  6
Continuous
 62
    92
370
    13
100
AcDbLine
 10
5300.679304173021
 20
3095.000148463892
 30
0.0
 11
5398.999981442023
 21
3095.000148463892
 31
0.0
  0
LINE
  5
1F7
330
1F
100
AcDbEntity
  8
0-3_仕上げ
  6
JWW_CENTER1
 62
    92
370
    13
100
AcDbLine
 10
5299.499981442024
 20
3092.000148463893
 30
0.0
 11
5398.999981442023
 21
3092.000148463893
 31
0.0
  0
LINE
  5
1F8
330
1F
100
AcDbEntity
  8
0-3_仕上げ
  6
Continuous
 62
    92
370
    13
100
AcDbLine
 10
5299.49340239499
 20
3089.000148463893
 30
0.0
 11
5398.999981442023
 21
3089.000148463893
 31
0.0
  0
LINE
  5
1F9
330
1F
100
AcDbEntity
  8
0-3_仕上げ
  6
Continuous
 62
    92
370
    13
100
AcDbLine
 10
5125.499981442025
 20
2907.000148463893
 30
0.0
 11
5125.499981442025
 21
3277.000148463893
 31
0.0
  0
LINE
  5
1FA
330
1F
100
AcDbEntity
  8
0-3_仕上げ
  6
Continuous
 62
    92
370
    13
100
AcDbLine
 10
5131.499981442023
 20
2907.000148463893
 30
0.0
 11
5131.499981442023
 21
3277.000148463893
 31
0.0
  0
LINE
  5
1FB
330
1F
100
AcDbEntity
  8
0-3_仕上げ
  6
JWW_CENTER1
 62
    92
370
    13
100
AcDbLine
 10
5128.499981442025
 20
2907.000148463893
 30
0.0
 11
5128.499981442025
 21
3277.000148463893
 31
0.0
  0
LINE
  5
1FC
330
1F
100
AcDbEntity
  8
0-3_仕上げ
  6
Continuous
 62
    92
370
    13
100
AcDbLine
 10
5315.499981442025
 20
2907.000148463893
 30
0.0
 11
5315.499981442025
 21
3277.000148463893
 31
0.0
  0
LINE
  5
1FD
330
1F
100
AcDbEntity
  8
0-3_仕上げ
  6
JWW_CENTER1
 62
    92
370
    13
100
AcDbLine
 10
5318.499981442024
 20
2907.000148463893
 30
0.0
 11
5318.499981442024
 21
3277.000148463893
 31
0.0
  0
LINE
  5
1FE
330
1F
100
AcDbEntity
  8
0-3_仕上げ
  6
Continuous
 62
    92
370
    13
100
AcDbLine
 10
5321.499981442024
 20
2907.000148463893
 30
0.0
 11
5321.499981442024
 21
3277.000148463893
 31
0.0
  0
LINE
  5
1FF
330
1F
100
AcDbEntity
  8
0-3_仕上げ
  6
Continuous
 62
    92
370
    13
100
AcDbLine
 10
5047.999981442025
 20
1632.000148463893
 30
0.0
 11
5398.999981442023
 21
1632.000148463893
 31
0.0
  0
LINE
  5
200
330
1F
100
AcDbEntity
  8
0-3_仕上げ
  6
Continuous
 62
    92
370
    13
100
AcDbLine
 10
5047.999981442025
 20
1632.000148463893
 30
0.0
 11
5047.999981442025
 21
2807.000148463893
 31
0.0
  0
LINE
  5
201
330
1F
100
AcDbEntity
  8
0-3_仕上げ
  6
Continuous
 62
    92
370
    13
100
AcDbLine
 10
5398.999981442023
 20
1632.000148463893
 30
0.0
 11
5398.999981442023
 21
2807.000148463893
 31
0.0
  0
LINE
  5
202
330
1F
100
AcDbEntity
  8
0-3_仕上げ
  6
Continuous
 62
    92
370
    13
100
AcDbLine
 10
-1377.000018557983
 20
3277.000148463894
 30
0.0
 11
-831.0000185579828
 21
3277.000148463894
 31
0.0
  0
LINE
  5
203
330
1F
100
AcDbEntity
  8
0-3_仕上げ
  6
Continuous
 62
    92
370
    13
100
AcDbLine
 10
-1377.000018557983
 20
2907.000148463894
 30
0.0
 11
-831.0000185579828
 21
2907.000148463894
 31
0.0
  0
LINE
  5
204
330
1F
100
AcDbEntity
  8
0-3_仕上げ
  6
Continuous
 62
    92
370
    13
100
AcDbLine
 10
-1377.000018557983
 20
2807.000148463894
 30
0.0
 11
-831.0000185579828
 21
2807.000148463894
 31
0.0
  0
LINE
  5
205
330
1F
100
AcDbEntity
  8
0-3_仕上げ
  6
Continuous
 62
    92
370
    13
100
AcDbLine
 10
-1377.000018557983
 20
2907.000148463894
 30
0.0
 11
-1377.000018557983
 21
3277.000148463894
 31
0.0
  0
LINE
  5
206
330
1F
100
AcDbEntity
  8
0-3_仕上げ
  6
Continuous
 62
    92
370
    13
100
AcDbLine
 10
-831.0000185579828
 20
2907.000148463894
 30
0.0
 11
-831.0000185579828
 21
3277.000148463894
 31
0.0
  0
LINE
  5
207
330
1F
100
AcDbEntity
  8
0-3_仕上げ
  6
Continuous
 62
    92
370
    13
100
AcDbLine
 10
-1101.000018557983
 20
3172.32402354109
 30
0.0
 11
-1101.000018557983
 21
3277.000148463893
 31
0.0
  0
LINE
  5
208
330
1F
100
AcDbEntity
  8
0-3_仕上げ
  6
Continuous
 62
    92
370
    13
100
AcDbLine
 10
-1107.000018557982
 20
3172.32402354109
 30
0.0
 11
-1107.000018557982
 21
3277.000148463893
 31
0.0
  0
ARC
  5
209
330
1F
100
AcDbEntity
  8
0-3_仕上げ
  6
JWW_CENTER1
 62
    92
370
    13
100
AcDbCircle
 10
-1179.993439510947
 20
2992.000148680313
 30
0.0
 40
100.0
100
AcDbArc
 50
40.54160171033374
 51
90.00376951628597
  0
ARC
  5
20A
330
1F
100
AcDbEntity
  8
0-3_仕上げ
  6
JWW_CENTER1
 62
    92
370
    13
100
AcDbCircle
 10
-1148.93358778538
 20
3059.444398141545
 30
0.0
 40
45.0
100
AcDbArc
 50
3.113647660734046
 51
133.6590188873627
  0
ARC
  5
20B
330
1F
100
AcDbEntity
  8
0-3_仕上げ
  6
JWW_CENTER1
 62
    92
370
    13
100
AcDbCircle
 10
-1059.066449330584
 20
3059.444398141545
 30
0.0
 40
45.0
100
AcDbArc
 50
46.34098111263735
 51
176.886352339266
  0
ARC
  5
20C
330
1F
100
AcDbEntity
  8
0-3_仕上げ
  6
JWW_CENTER1
 62
    92
370
    13
100
AcDbCircle
 10
-1028.006597605017
 20
2992.000148680313
 30
0.0
 40
100.0
100
AcDbArc
 50
89.99623048371403
 51
139.4583982896663
  0
ARC
  5
20D
330
1F
100
AcDbEntity
  8
0-3_仕上げ
  6
JWW_CENTER1
 62
    92
370
    13
100
AcDbCircle
 10
-1069.256747771934
 20
3176.555469521758
 30
0.0
 40
35.0
100
AcDbArc
 50
186.9439578850277
 51
228.8372333122856
  0
ARC
  5
20E
330
1F
100
AcDbEntity
  8
0-3_仕上げ
  6
JWW_CENTER1
 62
    92
370
    13
100
AcDbCircle
 10
-1118.621775434925
 20
3120.092259873066
 30
0.0
 40
40.0
100
AcDbArc
 50
314.4792487798384
 51
48.83723331228539
  0
ARC
  5
20F
330
1F
100
AcDbEntity
  8
0-3_仕上げ
  6
JWW_CENTER1
 62
    92
370
    13
100
AcDbCircle
 10
-1138.743289344031
 20
3176.555469521758
 30
0.0
 40
35.0
100
AcDbArc
 50
311.1627666877145
 51
353.0560421149723
  0
ARC
  5
210
330
1F
100
AcDbEntity
  8
0-3_仕上げ
  6
JWW_CENTER1
 62
    92
370
    13
100
AcDbCircle
 10
-1089.378261681039
 20
3120.092259873066
 30
0.0
 40
40.0
100
AcDbArc
 50
131.1627666877146
 51
225.5207512201617
  0
LINE
  5
211
330
1F
100
AcDbEntity
  8
0-3_仕上げ
  6
JWW_CENTER1
 62
    92
370
    13
100
AcDbLine
 10
-1104.000018557982
 20
3172.32402354109
 30
0.0
 11
-1104.000018557982
 21
3277.000148463893
 31
0.0
  0
LINE
  5
212
330
1F
100
AcDbEntity
  8
0-3_仕上げ
  6
JWW_CENTER1
 62
    92
370
    13
100
AcDbLine
 10
-1104.000018557982
 20
2907.000148463894
 30
0.0
 11
-1104.000018557982
 21
3061.88864781919
 31
0.0
  0
ARC
  5
213
330
1F
100
AcDbEntity
  8
0-3_仕上げ
  6
Continuous
 62
    92
370
    13
100
AcDbCircle
 10
-1118.621775434925
 20
3120.092259873066
 30
0.0
 40
37.0
100
AcDbArc
 50
314.4792487798384
 51
48.83723331228539
  0
ARC
  5
214
330
1F
100
AcDbEntity
  8
0-3_仕上げ
  6
Continuous
 62
    92
370
    13
100
AcDbCircle
 10
-1069.256747771934
 20
3176.555469521758
 30
0.0
 40
32.0
100
AcDbArc
 50
186.9439578850277
 51
228.8372333122856
  0
ARC
  5
215
330
1F
100
AcDbEntity
  8
0-3_仕上げ
  6
Continuous
 62
    92
370
    13
100
AcDbCircle
 10
-1138.743289344031
 20
3176.555469521758
 30
0.0
 40
32.0
100
AcDbArc
 50
311.1627666877145
 51
353.0560421149723
  0
ARC
  5
216
330
1F
100
AcDbEntity
  8
0-3_仕上げ
  6
Continuous
 62
    92
370
    13
100
AcDbCircle
 10
-1089.378261681039
 20
3120.092259873066
 30
0.0
 40
37.0
100
AcDbArc
 50
131.1627666877146
 51
225.5207512201617
  0
ARC
  5
217
330
1F
100
AcDbEntity
  8
0-3_仕上げ
  6
Continuous
 62
    92
370
    13
100
AcDbCircle
 10
-1179.993439510947
 20
2992.000148680313
 30
0.0
 40
103.0
100
AcDbArc
 50
45.10773387316914
 51
85.43763735345068
  0
ARC
  5
218
330
1F
100
AcDbEntity
  8
0-3_仕上げ
  6
Continuous
 62
    92
370
    13
100
AcDbCircle
 10
-1148.93358778538
 20
3059.444398141545
 30
0.0
 40
42.0
100
AcDbArc
 50
7.558436535392484
 51
122.9869346912273
  0
ARC
  5
219
330
1F
100
AcDbEntity
  8
0-3_仕上げ
  6
Continuous
 62
    92
370
    13
100
AcDbCircle
 10
-1179.993439510947
 20
2992.000148680313
 30
0.0
 40
97.00000000000001
100
AcDbArc
 50
41.19177185484618
 51
90.00376951628597
  0
LINE
  5
21A
330
1F
100
AcDbEntity
  8
0-3_仕上げ
  6
Continuous
 62
    92
370
    13
100
AcDbLine
 10
-1107.000018557982
 20
2907.000148463894
 30
0.0
 11
-1107.000018557982
 21
3055.882544515029
 31
0.0
  0
LINE
  5
21B
330
1F
100
AcDbEntity
  8
0-3_仕上げ
  6
Continuous
 62
    92
370
    13
100
AcDbLine
 10
-1101.000018557983
 20
2907.000148463894
 30
0.0
 11
-1101.000018557983
 21
3055.882544515028
 31
0.0
  0
ARC
  5
21C
330
1F
100
AcDbEntity
  8
0-3_仕上げ
  6
Continuous
 62
    92
370
    13
100
AcDbCircle
 10
-1089.378261681039
 20
3120.092259873066
 30
0.0
 40
43.0
100
AcDbArc
 50
131.1627666877146
 51
203.3599080664725
  0
ARC
  5
21D
330
1F
100
AcDbEntity
  8
0-3_仕上げ
  6
Continuous
 62
    92
370
    13
100
AcDbCircle
 10
-1118.621775434925
 20
3120.092259873066
 30
0.0
 40
43.0
100
AcDbArc
 50
336.6400919335275
 51
48.83723331228539
  0
ARC
  5
21E
330
1F
100
AcDbEntity
  8
0-3_仕上げ
  6
Continuous
 62
    92
370
    13
100
AcDbCircle
 10
-1028.006597605017
 20
2992.000148680313
 30
0.0
 40
97.00000000000001
100
AcDbArc
 50
90.0
 51
138.8082281451543
  0
ARC
  5
21F
330
1F
100
AcDbEntity
  8
0-3_仕上げ
  6
Continuous
 62
    92
370
    13
100
AcDbCircle
 10
-1059.066449330584
 20
3059.444398141545
 30
0.0
 40
42.0
100
AcDbArc
 50
57.01306530877268
 51
172.4415634646074
  0
ARC
  5
220
330
1F
100
AcDbEntity
  8
0-3_仕上げ
  6
Continuous
 62
    92
370
    13
100
AcDbCircle
 10
-1028.006597605017
 20
2992.000148680313
 30
0.0
 40
103.0
100
AcDbArc
 50
94.56236264654935
 51
134.8922661268309
  0
ARC
  5
221
330
1F
100
AcDbEntity
  8
0-3_仕上げ
  6
Continuous
 62
    92
370
    13
100
AcDbCircle
 10
-1138.743289344031
 20
3176.555469521758
 30
0.0
 40
38.0
100
AcDbArc
 50
311.1627666877145
 51
336.1060315563597
  0
ARC
  5
222
330
1F
100
AcDbEntity
  8
0-3_仕上げ
  6
Continuous
 62
    92
370
    13
100
AcDbCircle
 10
-1069.256747771934
 20
3176.555469521758
 30
0.0
 40
38.0
100
AcDbArc
 50
203.8939684436403
 51
228.8372333122856
  0
ARC
  5
223
330
1F
100
AcDbEntity
  8
0-3_仕上げ
  6
Continuous
 62
    92
370
    13
100
AcDbCircle
 10
-1148.93358778538
 20
3059.444398141545
 30
0.0
 40
48.00000000000001
100
AcDbArc
 50
20.59079892749086
 51
45.52075122016139
  0
ARC
  5
224
330
1F
100
AcDbEntity
  8
0-3_仕上げ
  6
Continuous
 62
    92
370
    13
100
AcDbCircle
 10
-1148.93358778538
 20
3059.444398141545
 30
0.0
 40
48.00000000000001
100
AcDbArc
 50
65.27067401580403
 51
132.2051003340379
  0
ARC
  5
225
330
1F
100
AcDbEntity
  8
0-3_仕上げ
  6
Continuous
 62
    92
370
    13
100
AcDbCircle
 10
-1059.066449330584
 20
3059.444398141545
 30
0.0
 40
48.00000000000001
100
AcDbArc
 50
47.79489966596212
 51
114.729325984196
  0
ARC
  5
226
330
1F
100
AcDbEntity
  8
0-3_仕上げ
  6
Continuous
 62
    92
370
    13
100
AcDbCircle
 10
-1059.066449330584
 20
3059.444398141545
 30
0.0
 40
48.00000000000001
100
AcDbArc
 50
134.4792487798386
 51
159.4092010725091
  0
LINE
  5
227
330
1F
100
AcDbEntity
  8
0-3_仕上げ
  6
Continuous
 62
    92
370
    13
100
AcDbLine
 10
-1247.000018557982
 20
2907.000148463894
 30
0.0
 11
-1247.000018557982
 21
3277.000148463893
 31
0.0
  0
LINE
  5
228
330
1F
100
AcDbEntity
  8
0-3_仕上げ
  6
JWW_CENTER1
 62
    92
370
    13
100
AcDbLine
 10
-1244.000018557982
 20
2907.000148463894
 30
0.0
 11
-1244.000018557982
 21
3277.000148463893
 31
0.0
  0
LINE
  5
229
330
1F
100
AcDbEntity
  8
0-3_仕上げ
  6
Continuous
 62
    92
370
    13
100
AcDbLine
 10
-1241.000018557983
 20
2907.000148463894
 30
0.0
 11
-1241.000018557983
 21
3277.000148463893
 31
0.0
  0
LINE
  5
22A
330
1F
100
AcDbEntity
  8
0-3_仕上げ
  6
Continuous
 62
    92
370
    13
100
AcDbLine
 10
-967.0000185579822
 20
2907.000148463894
 30
0.0
 11
-967.0000185579822
 21
3277.000148463893
 31
0.0
  0
LINE
  5
22B
330
1F
100
AcDbEntity
  8
0-3_仕上げ
  6
JWW_CENTER1
 62
    92
370
    13
100
AcDbLine
 10
-964.0000185579822
 20
2907.000148463894
 30
0.0
 11
-964.0000185579822
 21
3277.000148463893
 31
0.0
  0
LINE
  5
22C
330
1F
100
AcDbEntity
  8
0-3_仕上げ
  6
Continuous
 62
    92
370
    13
100
AcDbLine
 10
-961.0000185579826
 20
2907.000148463894
 30
0.0
 11
-961.0000185579826
 21
3277.000148463893
 31
0.0
  0
LINE
  5
22D
330
1F
100
AcDbEntity
  8
0-3_仕上げ
  6
Continuous
 62
    92
370
    13
100
AcDbLine
 10
-1026.820695826986
 20
3095.000148463894
 30
0.0
 11
-831.0000185579828
 21
3095.000148463894
 31
0.0
  0
LINE
  5
22E
330
1F
100
AcDbEntity
  8
0-3_仕上げ
  6
JWW_CENTER1
 62
    92
370
    13
100
AcDbLine
 10
-1028.000018557982
 20
3092.000148463894
 30
0.0
 11
-831.0000185579828
 21
3092.000148463894
 31
0.0
  0
LINE
  5
22F
330
1F
100
AcDbEntity
  8
0-3_仕上げ
  6
Continuous
 62
    92
370
    13
100
AcDbLine
 10
-1028.006597605017
 20
3089.000148463894
 30
0.0
 11
-831.0000185579828
 21
3089.000148463894
 31
0.0
  0
LINE
  5
230
330
1F
100
AcDbEntity
  8
0-3_仕上げ
  6
Continuous
 62
    92
370
    13
100
AcDbLine
 10
-1377.000018557983
 20
3089.000148463894
 30
0.0
 11
-1180.000018557982
 21
3089.000148463894
 31
0.0
  0
LINE
  5
231
330
1F
100
AcDbEntity
  8
0-3_仕上げ
  6
JWW_CENTER1
 62
    92
370
    13
100
AcDbLine
 10
-1377.000018557983
 20
3092.000148463894
 30
0.0
 11
-1180.000018557982
 21
3092.000148463894
 31
0.0
  0
LINE
  5
232
330
1F
100
AcDbEntity
  8
0-3_仕上げ
  6
Continuous
 62
    92
370
    13
100
AcDbLine
 10
-1377.000018557983
 20
3095.000148463894
 30
0.0
 11
-1181.179341288978
 21
3095.000148463894
 31
0.0
  0
LINE
  5
233
330
1F
100
AcDbEntity
  8
0-3_仕上げ
  6
Continuous
 62
    92
370
    13
100
AcDbLine
 10
-1377.000018557983
 20
1632.000148463894
 30
0.0
 11
-831.0000185579828
 21
1632.000148463894
 31
0.0
  0
LINE
  5
234
330
1F
100
AcDbEntity
  8
0-3_仕上げ
  6
Continuous
 62
    92
370
    13
100
AcDbLine
 10
-1377.000018557983
 20
1632.000148463894
 30
0.0
 11
-1377.000018557983
 21
2807.000148463895
 31
0.0
  0
LINE
  5
235
330
1F
100
AcDbEntity
  8
0-3_仕上げ
  6
Continuous
 62
    92
370
    13
100
AcDbLine
 10
-831.0000185579828
 20
1632.000148463894
 30
0.0
 11
-831.0000185579828
 21
2807.000148463895
 31
0.0
  0
LINE
  5
236
330
1F
100
AcDbEntity
  8
0-C_ハッチ
  6
JWW_DASHED1
 62
   120
370
     5
100
AcDbLine
 10
5367.731746993067
 20
2907.000148463901
 30
0.0
 11
5398.999981442013
 21
2938.268382912847
 31
0.0
  0
LINE
  5
237
330
1F
100
AcDbEntity
  8
0-C_ハッチ
  6
JWW_DASHED1
 62
   120
370
     5
100
AcDbLine
 10
5325.305340121929
 20
2907.000148463909
 30
0.0
 11
5398.99998144201
 21
2980.69478978399
 31
0.0
  0
LINE
  5
238
330
1F
100
AcDbEntity
  8
0-C_ハッチ
  6
JWW_DASHED1
 62
   120
370
     5
100
AcDbLine
 10
5282.878933250726
 20
2907.000148463906
 30
0.0
 11
5315.499981442015
 21
2939.621196655195
 31
0.0
  0
LINE
  5
239
330
1F
100
AcDbEntity
  8
0-C_ハッチ
  6
JWW_DASHED1
 62
   120
370
     5
100
AcDbLine
 10
5321.499981442023
 20
2945.621196655204
 30
0.0
 11
5398.999981442008
 21
3023.121196655189
 31
0.0
  0
LINE
  5
23A
330
1F
100
AcDbEntity
  8
0-C_ハッチ
  6
JWW_DASHED1
 62
   120
370
     5
100
AcDbLine
 10
5240.452526379529
 20
2907.000148463911
 30
0.0
 11
5315.499981442013
 21
2982.047603526394
 31
0.0
  0
LINE
  5
23B
330
1F
100
AcDbEntity
  8
0-C_ハッチ
  6
JWW_DASHED1
 62
   120
370
     5
100
AcDbLine
 10
5321.499981442021
 20
2988.047603526401
 30
0.0
 11
5398.999981442022
 21
3065.547603526402
 31
0.0
  0
LINE
  5
23C
330
1F
100
AcDbEntity
  8
0-C_ハッチ
  6
JWW_DASHED1
 62
   120
370
     5
100
AcDbLine
 10
5198.026119508328
 20
2907.000148463907
 30
0.0
 11
5220.499981442012
 21
2929.474010397592
 31
0.0
  0
LINE
  5
23D
330
1F
100
AcDbEntity
  8
0-C_ハッチ
  6
JWW_DASHED1
 62
   120
370
     5
100
AcDbLine
 10
5226.499981442004
 20
2935.474010397584
 30
0.0
 11
5315.499981442013
 21
3024.474010397593
 31
0.0
  0
LINE
  5
23E
330
1F
100
AcDbEntity
  8
0-C_ハッチ
  6
JWW_DASHED1
 62
   120
370
     5
100
AcDbLine
 10
5321.49998144202
 20
3030.4740103976
 30
0.0
 11
5380.026119508315
 21
3089.000148463896
 31
0.0
  0
LINE
  5
23F
330
1F
100
AcDbEntity
  8
0-C_ハッチ
  6
JWW_DASHED1
 62
   120
370
     5
100
AcDbLine
 10
5386.026119508308
 20
3095.000148463887
 30
0.0
 11
5398.999981442027
 21
3107.974010397608
 31
0.0
  0
LINE
  5
240
330
1F
100
AcDbEntity
  8
0-C_ハッチ
  6
JWW_DASHED1
 62
   120
370
     5
100
AcDbLine
 10
5155.599712637104
 20
2907.000148463885
 30
0.0
 11
5220.499981442019
 21
2971.900417268799
 31
0.0
  0
LINE
  5
241
330
1F
100
AcDbEntity
  8
0-C_ハッチ
  6
JWW_DASHED1
 62
   120
370
     5
100
AcDbLine
 10
5226.49998144201
 20
2977.90041726879
 30
0.0
 11
5315.499981442029
 21
3066.90041726881
 31
0.0
  0
LINE
  5
242
330
1F
100
AcDbEntity
  8
0-C_ハッチ
  6
JWW_DASHED1
 62
   120
370
     5
100
AcDbLine
 10
5321.49998144202
 20
3072.9004172688
 30
0.0
 11
5337.599712637118
 21
3089.000148463898
 31
0.0
  0
LINE
  5
243
330
1F
100
AcDbEntity
  8
0-C_ハッチ
  6
JWW_DASHED1
 62
   120
370
     5
100
AcDbLine
 10
5343.599712637109
 20
3095.00014846389
 30
0.0
 11
5398.999981442022
 21
3150.400417268802
 31
0.0
  0
LINE
  5
244
330
1F
100
AcDbEntity
  8
0-C_ハッチ
  6
JWW_DASHED1
 62
   120
370
     5
100
AcDbLine
 10
5113.173305765913
 20
2907.000148463894
 30
0.0
 11
5125.499981442023
 21
2919.326824140004
 31
0.0
  0
LINE
  5
245
330
1F
100
AcDbEntity
  8
0-C_ハッチ
  6
JWW_DASHED1
 62
   120
370
     5
100
AcDbLine
 10
5131.499981442031
 20
2925.326824140012
 30
0.0
 11
5220.499981442012
 21
3014.326824139992
 31
0.0
  0
LINE
  5
246
330
1F
100
AcDbEntity
  8
0-C_ハッチ
  6
JWW_DASHED1
 62
   120
370
     5
100
AcDbLine
 10
5226.499981442003
 20
3020.326824139983
 30
0.0
 11
5295.07250984416
 21
3088.89935254214
 31
0.0
  0
LINE
  5
247
330
1F
100
AcDbEntity
  8
0-C_ハッチ
  6
JWW_DASHED1
 62
   120
370
     5
100
AcDbLine
 10
5301.173305765913
 20
3095.000148463893
 30
0.0
 11
5315.499981442032
 21
3109.326824140011
 31
0.0
  0
LINE
  5
248
330
1F
100
AcDbEntity
  8
0-C_ハッチ
  6
JWW_DASHED1
 62
   120
370
     5
100
AcDbLine
 10
5321.499981442023
 20
3115.326824140004
 30
0.0
 11
5398.999981442017
 21
3192.826824139998
 31
0.0
  0
LINE
  5
249
330
1F
100
AcDbEntity
  8
0-C_ハッチ
  6
JWW_DASHED1
 62
   120
370
     5
100
AcDbLine
 10
5070.746898894715
 20
2907.000148463896
 30
0.0
 11
5125.499981442019
 21
2961.753231011199
 31
0.0
  0
LINE
  5
24A
330
1F
100
AcDbEntity
  8
0-C_ハッチ
  6
JWW_DASHED1
 62
   120
370
     5
100
AcDbLine
 10
5131.499981442026
 20
2967.753231011207
 30
0.0
 11
5220.092226255233
 21
3056.345475824413
 31
0.0
  0
LINE
  5
24B
330
1F
100
AcDbEntity
  8
0-C_ハッチ
  6
JWW_DASHED1
 62
   120
370
     5
100
AcDbLine
 10
5271.116129242188
 20
3107.369378811368
 30
0.0
 11
5315.499981442027
 21
3151.753231011207
 31
0.0
  0
LINE
  5
24C
330
1F
100
AcDbEntity
  8
0-C_ハッチ
  6
JWW_DASHED1
 62
   120
370
     5
100
AcDbLine
 10
5321.499981442017
 20
3157.753231011198
 30
0.0
 11
5398.999981442013
 21
3235.253231011193
 31
0.0
  0
LINE
  5
24D
330
1F
100
AcDbEntity
  8
0-C_ハッチ
  6
JWW_DASHED1
 62
   120
370
     5
100
AcDbLine
 10
5047.999981442019
 20
2926.679637882399
 30
0.0
 11
5125.499981442029
 21
3004.179637882411
 31
0.0
  0
LINE
  5
24E
330
1F
100
AcDbEntity
  8
0-C_ハッチ
  6
JWW_DASHED1
 62
   120
370
     5
100
AcDbLine
 10
5131.499981442021
 20
3010.179637882401
 30
0.0
 11
5196.838884356875
 21
3075.518540797256
 31
0.0
  0
LINE
  5
24F
330
1F
100
AcDbEntity
  8
0-C_ハッチ
  6
JWW_DASHED1
 62
   120
370
     5
100
AcDbLine
 10
5250.833515289627
 20
3129.513171730007
 30
0.0
 11
5315.499981442022
 21
3194.179637882402
 31
0.0
  0
LINE
  5
250
330
1F
100
AcDbEntity
  8
0-C_ハッチ
  6
JWW_DASHED1
 62
   120
370
     5
100
AcDbLine
 10
5321.499981442013
 20
3200.179637882393
 30
0.0
 11
5398.320492023528
 21
3277.000148463909
 31
0.0
  0
LINE
  5
251
330
1F
100
AcDbEntity
  8
0-C_ハッチ
  6
JWW_DASHED1
 62
   120
370
     5
100
AcDbLine
 10
5047.999981442014
 20
2969.106044753541
 30
0.0
 11
5125.499981442032
 21
3046.606044753558
 31
0.0
  0
LINE
  5
252
330
1F
100
AcDbEntity
  8
0-C_ハッチ
  6
JWW_DASHED1
 62
   120
370
     5
100
AcDbLine
 10
5131.499981442023
 20
3052.60604475355
 30
0.0
 11
5166.096123863476
 21
3087.202187175002
 31
0.0
  0
LINE
  5
253
330
1F
100
AcDbEntity
  8
0-C_ハッチ
  6
JWW_DASHED1
 62
   120
370
     5
100
AcDbLine
 10
5185.791456306584
 20
3106.89751961811
 30
0.0
 11
5195.281615972522
 21
3116.387679284049
 31
0.0
  0
LINE
  5
254
330
1F
100
AcDbEntity
  8
0-C_ハッチ
  6
JWW_DASHED1
 62
   120
370
     5
100
AcDbLine
 10
5234.262073506216
 20
3155.368136817742
 30
0.0
 11
5315.499981442023
 21
3236.60604475355
 31
0.0
  0
LINE
  5
255
330
1F
100
AcDbEntity
  8
0-C_ハッチ
  6
JWW_DASHED1
 62
   120
370
     5
100
AcDbLine
 10
5321.499981442016
 20
3242.606044753542
 30
0.0
 11
5355.894085152374
 21
3277.0001484639
 31
0.0
  0
LINE
  5
256
330
1F
100
AcDbEntity
  8
0-C_ハッチ
  6
JWW_DASHED1
 62
   120
370
     5
100
AcDbLine
 10
5047.999981442013
 20
3011.53245162474
 30
0.0
 11
5125.46767828116
 21
3089.000148463886
 31
0.0
  0
LINE
  5
257
330
1F
100
AcDbEntity
  8
0-C_ハッチ
  6
JWW_DASHED1
 62
   120
370
     5
100
AcDbLine
 10
5131.499981442014
 20
3095.03245162474
 30
0.0
 11
5220.499981442025
 21
3184.032451624752
 31
0.0
  0
LINE
  5
258
330
1F
100
AcDbEntity
  8
0-C_ハッチ
  6
JWW_DASHED1
 62
   120
370
     5
100
AcDbLine
 10
5226.499981442028
 20
3190.032451624754
 30
0.0
 11
5313.467678281169
 21
3277.000148463896
 31
0.0
  0
LINE
  5
259
330
1F
100
AcDbEntity
  8
0-C_ハッチ
  6
JWW_DASHED1
 62
   120
370
     5
100
AcDbLine
 10
5047.999981442013
 20
3053.958858495939
 30
0.0
 11
5083.041271409972
 21
3089.000148463899
 31
0.0
  0
LINE
  5
25A
330
1F
100
AcDbEntity
  8
0-C_ハッチ
  6
JWW_DASHED1
 62
   120
370
     5
100
AcDbLine
 10
5089.041271409963
 20
3095.000148463889
 30
0.0
 11
5125.499981442034
 21
3131.45885849596
 31
0.0
  0
LINE
  5
25B
330
1F
100
AcDbEntity
  8
0-C_ハッチ
  6
JWW_DASHED1
 62
   120
370
     5
100
AcDbLine
 10
5131.499981442024
 20
3137.458858495951
 30
0.0
 11
5220.499981442023
 21
3226.458858495949
 31
0.0
  0
LINE
  5
25C
330
1F
100
AcDbEntity
  8
0-C_ハッチ
  6
JWW_DASHED1
 62
   120
370
     5
100
AcDbLine
 10
5226.49998144202
 20
3232.458858495946
 30
0.0
 11
5271.041271409974
 21
3277.0001484639
 31
0.0
  0
LINE
  5
25D
330
1F
100
AcDbEntity
  8
0-C_ハッチ
  6
JWW_DASHED1
 62
   120
370
     5
100
AcDbLine
 10
5047.999981442019
 20
3096.385265367145
 30
0.0
 11
5125.499981442028
 21
3173.885265367155
 31
0.0
  0
LINE
  5
25E
330
1F
100
AcDbEntity
  8
0-C_ハッチ
  6
JWW_DASHED1
 62
   120
370
     5
100
AcDbLine
 10
5131.499981442036
 20
3179.885265367162
 30
0.0
 11
5220.49998144202
 21
3268.885265367147
 31
0.0
  0
LINE
  5
25F
330
1F
100
AcDbEntity
  8
0-C_ハッチ
  6
JWW_DASHED1
 62
   120
370
     5
100
AcDbLine
 10
5226.499981442013
 20
3274.885265367138
 30
0.0
 11
5228.614864538778
 21
3277.000148463904
 31
0.0
  0
LINE
  5
260
330
1F
100
AcDbEntity
  8
0-C_ハッチ
  6
JWW_DASHED1
 62
   120
370
     5
100
AcDbLine
 10
5047.99998144203
 20
3138.811672238356
 30
0.0
 11
5125.499981442023
 21
3216.311672238349
 31
0.0
  0
LINE
  5
261
330
1F
100
AcDbEntity
  8
0-C_ハッチ
  6
JWW_DASHED1
 62
   120
370
     5
100
AcDbLine
 10
5131.49998144203
 20
3222.311672238357
 30
0.0
 11
5186.188457667569
 21
3277.000148463895
 31
0.0
  0
LINE
  5
262
330
1F
100
AcDbEntity
  8
0-C_ハッチ
  6
JWW_DASHED1
 62
   120
370
     5
100
AcDbLine
 10
5047.999981442024
 20
3181.238079109551
 30
0.0
 11
5125.499981442018
 21
3258.738079109545
 31
0.0
  0
LINE
  5
263
330
1F
100
AcDbEntity
  8
0-C_ハッチ
  6
JWW_DASHED1
 62
   120
370
     5
100
AcDbLine
 10
5131.499981442024
 20
3264.738079109551
 30
0.0
 11
5143.762050796367
 21
3277.000148463893
 31
0.0
  0
LINE
  5
264
330
1F
100
AcDbEntity
  8
0-C_ハッチ
  6
JWW_DASHED1
 62
   120
370
     5
100
AcDbLine
 10
5047.999981442019
 20
3223.664485980745
 30
0.0
 11
5101.335643925166
 21
3277.000148463891
 31
0.0
  0
LINE
  5
265
330
1F
100
AcDbEntity
  8
0-C_ハッチ
  6
JWW_DASHED1
 62
   120
370
     5
100
AcDbLine
 10
5047.999981442028
 20
3266.090892851955
 30
0.0
 11
5058.90923705396
 21
3277.000148463886
 31
0.0
  0
LINE
  5
266
330
1F
100
AcDbEntity
  8
0-C_ハッチ
  6
JWW_DASHED1
 62
   120
370
     5
100
AcDbLine
 10
1379.649501100964
 20
2907.000148463892
 30
0.0
 11
1384.999981442024
 21
2912.350628804951
 31
0.0
  0
LINE
  5
267
330
1F
100
AcDbEntity
  8
0-C_ハッチ
  6
JWW_DASHED1
 62
   120
370
     5
100
AcDbLine
 10
1337.223094229776
 20
2907.000148463903
 30
0.0
 11
1384.999981442023
 21
2954.77703567615
 31
0.0
  0
LINE
  5
268
330
1F
100
AcDbEntity
  8
0-C_ハッチ
  6
JWW_DASHED1
 62
   120
370
     5
100
AcDbLine
 10
1294.796687358559
 20
2907.000148463886
 30
0.0
 11
1384.999981442029
 21
2997.203442547357
 31
0.0
  0
LINE
  5
269
330
1F
100
AcDbEntity
  8
0-C_ハッチ
  6
JWW_DASHED1
 62
   120
370
     5
100
AcDbLine
 10
1252.370280487371
 20
2907.000148463898
 30
0.0
 11
1271.499981442015
 21
2926.129849418542
 31
0.0
  0
LINE
  5
26A
330
1F
100
AcDbEntity
  8
0-C_ハッチ
  6
JWW_DASHED1
 62
   120
370
     5
100
AcDbLine
 10
1277.499981442023
 20
2932.12984941855
 30
0.0
 11
1384.999981442024
 21
3039.629849418552
 31
0.0
  0
LINE
  5
26B
330
1F
100
AcDbEntity
  8
0-C_ハッチ
  6
JWW_DASHED1
 62
   120
370
     5
100
AcDbLine
 10
1209.943873616166
 20
2907.000148463893
 30
0.0
 11
1271.49998144201
 21
2968.556256289737
 31
0.0
  0
LINE
  5
26C
330
1F
100
AcDbEntity
  8
0-C_ハッチ
  6
JWW_DASHED1
 62
   120
370
     5
100
AcDbLine
 10
1277.499981442017
 20
2974.556256289744
 30
0.0
 11
1384.999981442019
 21
3082.056256289746
 31
0.0
  0
LINE
  5
26D
330
1F
100
AcDbEntity
  8
0-C_ハッチ
  6
JWW_DASHED1
 62
   120
370
     5
100
AcDbLine
 10
1167.517466744961
 20
2907.000148463889
 30
0.0
 11
1271.49998144202
 21
3010.982663160948
 31
0.0
  0
LINE
  5
26E
330
1F
100
AcDbEntity
  8
0-C_ハッチ
  6
JWW_DASHED1
 62
   120
370
     5
100
AcDbLine
 10
1277.499981442012
 20
3016.982663160939
 30
0.0
 11
1349.517466744973
 21
3089.000148463901
 31
0.0
  0
LINE
  5
26F
330
1F
100
AcDbEntity
  8
0-C_ハッチ
  6
JWW_DASHED1
 62
   120
370
     5
100
AcDbLine
 10
1355.517466744965
 20
3095.000148463892
 30
0.0
 11
1384.999981442022
 21
3124.482663160949
 31
0.0
  0
LINE
  5
270
330
1F
100
AcDbEntity
  8
0-C_ハッチ
  6
JWW_DASHED1
 62
   120
370
     5
100
AcDbLine
 10
1125.091059873817
 20
2907.000148463891
 30
0.0
 11
1141.499981442026
 21
2923.409070032099
 31
0.0
  0
LINE
  5
271
330
1F
100
AcDbEntity
  8
0-C_ハッチ
  6
JWW_DASHED1
 62
   120
370
     5
100
AcDbLine
 10
1147.499981442018
 20
2929.409070032091
 30
0.0
 11
1271.499981442024
 21
3053.409070032097
 31
0.0
  0
LINE
  5
272
330
1F
100
AcDbEntity
  8
0-C_ハッチ
  6
JWW_DASHED1
 62
   120
370
     5
100
AcDbLine
 10
1277.499981442015
 20
3059.409070032088
 30
0.0
 11
1307.091059873821
 21
3089.000148463894
 31
0.0
  0
LINE
  5
273
330
1F
100
AcDbEntity
  8
0-C_ハッチ
  6
JWW_DASHED1
 62
   120
370
     5
100
AcDbLine
 10
1313.091059873829
 20
3095.000148463902
 30
0.0
 11
1384.999981442019
 21
3166.909070032092
 31
0.0
  0
LINE
  5
274
330
1F
100
AcDbEntity
  8
0-C_ハッチ
  6
JWW_DASHED1
 62
   120
370
     5
100
AcDbLine
 10
1082.664653002626
 20
2907.000148463899
 30
0.0
 11
1141.499981442024
 21
2965.835476903297
 31
0.0
  0
LINE
  5
275
330
1F
100
AcDbEntity
  8
0-C_ハッチ
  6
JWW_DASHED1
 62
   120
370
     5
100
AcDbLine
 10
1147.499981442016
 20
2971.835476903289
 30
0.0
 11
1264.664653002619
 21
3089.000148463891
 31
0.0
  0
LINE
  5
276
330
1F
100
AcDbEntity
  8
0-C_ハッチ
  6
JWW_DASHED1
 62
   120
370
     5
100
AcDbLine
 10
1270.664653002627
 20
3095.0001484639
 30
0.0
 11
1271.499981442014
 21
3095.835476903287
 31
0.0
  0
LINE
  5
277
330
1F
100
AcDbEntity
  8
0-C_ハッチ
  6
JWW_DASHED1
 62
   120
370
     5
100
AcDbLine
 10
1277.499981442006
 20
3101.835476903279
 30
0.0
 11
1384.999981442033
 21
3209.335476903306
 31
0.0
  0
LINE
  5
278
330
1F
100
AcDbEntity
  8
0-C_ハッチ
  6
JWW_DASHED1
 62
   120
370
     5
100
AcDbLine
 10
1040.238246131434
 20
2907.000148463907
 30
0.0
 11
1141.499981442022
 21
3008.261883774494
 31
0.0
  0
LINE
  5
279
330
1F
100
AcDbEntity
  8
0-C_ハッチ
  6
JWW_DASHED1
 62
   120
370
     5
100
AcDbLine
 10
1147.499981442013
 20
3014.261883774487
 30
0.0
 11
1222.238246131426
 21
3089.000148463898
 31
0.0
  0
LINE
  5
27A
330
1F
100
AcDbEntity
  8
0-C_ハッチ
  6
JWW_DASHED1
 62
   120
370
     5
100
AcDbLine
 10
1228.238246131434
 20
3095.000148463906
 30
0.0
 11
1271.499981442013
 21
3138.261883774486
 31
0.0
  0
LINE
  5
27B
330
1F
100
AcDbEntity
  8
0-C_ハッチ
  6
JWW_DASHED1
 62
   120
370
     5
100
AcDbLine
 10
1277.499981442005
 20
3144.261883774478
 30
0.0
 11
1384.999981442032
 21
3251.761883774505
 31
0.0
  0
LINE
  5
27C
330
1F
100
AcDbEntity
  8
0-C_ハッチ
  6
JWW_DASHED1
 62
   120
370
     5
100
AcDbLine
 10
997.8118392602339
 20
2907.000148463907
 30
0.0
 11
1011.499981442008
 21
2920.688290645681
 31
0.0
  0
LINE
  5
27D
330
1F
100
AcDbEntity
  8
0-C_ハッチ
  6
JWW_DASHED1
 62
   120
370
     5
100
AcDbLine
 10
1017.499981442001
 20
2926.688290645674
 30
0.0
 11
1141.49998144202
 21
3050.688290645693
 31
0.0
  0
LINE
  5
27E
330
1F
100
AcDbEntity
  8
0-C_ハッチ
  6
JWW_DASHED1
 62
   120
370
     5
100
AcDbLine
 10
1197.562713357626
 20
3106.751022561299
 30
0.0
 11
1271.49998144202
 21
3180.688290645693
 31
0.0
  0
LINE
  5
27F
330
1F
100
AcDbEntity
  8
0-C_ハッチ
  6
JWW_DASHED1
 62
   120
370
     5
100
AcDbLine
 10
1277.499981442027
 20
3186.6882906457
 30
0.0
 11
1367.811839260212
 21
3277.000148463885
 31
0.0
  0
LINE
  5
280
330
1F
100
AcDbEntity
  8
0-C_ハッチ
  6
JWW_DASHED1
 62
   120
370
     5
100
AcDbLine
 10
955.3854323890241
 20
2907.000148463897
 30
0.0
 11
1011.499981442018
 21
2963.114697516891
 31
0.0
  0
LINE
  5
281
330
1F
100
AcDbEntity
  8
0-C_ハッチ
  6
JWW_DASHED1
 62
   120
370
     5
100
AcDbLine
 10
1017.499981442009
 20
2969.114697516883
 30
0.0
 11
1121.578704980903
 21
3073.193421055776
 31
0.0
  0
LINE
  5
282
330
1F
100
AcDbEntity
  8
0-C_ハッチ
  6
JWW_DASHED1
 62
   120
370
     5
100
AcDbLine
 10
1172.673056849344
 20
3124.287772924216
 30
0.0
 11
1271.499981442015
 21
3223.114697516888
 31
0.0
  0
LINE
  5
283
330
1F
100
AcDbEntity
  8
0-C_ハッチ
  6
JWW_DASHED1
 62
   120
370
     5
100
AcDbLine
 10
1277.499981442022
 20
3229.114697516895
 30
0.0
 11
1325.385432389018
 21
3277.000148463891
 31
0.0
  0
LINE
  5
284
330
1F
100
AcDbEntity
  8
0-C_ハッチ
  6
JWW_DASHED1
 62
   120
370
     5
100
AcDbLine
 10
912.9590255178153
 20
2907.000148463888
 30
0.0
 11
1011.499981442013
 21
3005.541104388086
 31
0.0
  0
LINE
  5
285
330
1F
100
AcDbEntity
  8
0-C_ハッチ
  6
JWW_DASHED1
 62
   120
370
     5
100
AcDbLine
 10
1017.499981442004
 20
3011.541104388077
 30
0.0
 11
1092.056779163305
 21
3086.097902109378
 31
0.0
  0
LINE
  5
286
330
1F
100
AcDbEntity
  8
0-C_ハッチ
  6
JWW_DASHED1
 62
   120
370
     5
100
AcDbLine
 10
1111.81435132537
 20
3105.855474271444
 30
0.0
 11
1117.070093235585
 21
3111.111216181658
 31
0.0
  0
LINE
  5
287
330
1F
100
AcDbEntity
  8
0-C_ハッチ
  6
JWW_DASHED1
 62
   120
370
     5
100
AcDbLine
 10
1158.309999166749
 20
3152.351122112822
 30
0.0
 11
1271.49998144201
 21
3265.541104388083
 31
0.0
  0
LINE
  5
288
330
1F
100
AcDbEntity
  8
0-C_ハッチ
  6
JWW_DASHED1
 62
   120
370
     5
100
AcDbLine
 10
1277.499981442017
 20
3271.54110438809
 30
0.0
 11
1282.959025517823
 21
3277.000148463896
 31
0.0
  0
LINE
  5
289
330
1F
100
AcDbEntity
  8
0-C_ハッチ
  6
JWW_DASHED1
 62
   120
370
     5
100
AcDbLine
 10
903.9999814420224
 20
2940.467511259296
 30
0.0
 11
1011.499981442008
 21
3047.967511259281
 31
0.0
  0
LINE
  5
28A
330
1F
100
AcDbEntity
  8
0-C_ハッチ
  6
JWW_DASHED1
 62
   120
370
     5
100
AcDbLine
 10
1017.499981441999
 20
3053.967511259272
 30
0.0
 11
1052.532618646629
 21
3089.000148463902
 31
0.0
  0
LINE
  5
28B
330
1F
100
AcDbEntity
  8
0-C_ハッチ
  6
JWW_DASHED1
 62
   120
370
     5
100
AcDbLine
 10
1058.532618646618
 20
3095.000148463891
 30
0.0
 11
1141.499981442021
 21
3177.967511259294
 31
0.0
  0
LINE
  5
28C
330
1F
100
AcDbEntity
  8
0-C_ハッチ
  6
JWW_DASHED1
 62
   120
370
     5
100
AcDbLine
 10
1147.499981442032
 20
3183.967511259305
 30
0.0
 11
1240.532618646619
 21
3277.000148463891
 31
0.0
  0
LINE
  5
28D
330
1F
100
AcDbEntity
  8
0-C_ハッチ
  6
JWW_DASHED1
 62
   120
370
     5
100
AcDbLine
 10
903.9999814420178
 20
2982.89391813049
 30
0.0
 11
1010.106211775437
 21
3089.000148463911
 31
0.0
  0
LINE
  5
28E
330
1F
100
AcDbEntity
  8
0-C_ハッチ
  6
JWW_DASHED1
 62
   120
370
     5
100
AcDbLine
 10
1017.499981442018
 20
3096.393918130491
 30
0.0
 11
1141.499981442015
 21
3220.393918130488
 31
0.0
  0
LINE
  5
28F
330
1F
100
AcDbEntity
  8
0-C_ハッチ
  6
JWW_DASHED1
 62
   120
370
     5
100
AcDbLine
 10
1147.499981442024
 20
3226.393918130497
 30
0.0
 11
1198.106211775422
 21
3277.000148463895
 31
0.0
  0
LINE
  5
290
330
1F
100
AcDbEntity
  8
0-C_ハッチ
  6
JWW_DASHED1
 62
   120
370
     5
100
AcDbLine
 10
903.9999814420186
 20
3025.320325001637
 30
0.0
 11
967.6798049042802
 21
3089.000148463898
 31
0.0
  0
LINE
  5
291
330
1F
100
AcDbEntity
  8
0-C_ハッチ
  6
JWW_DASHED1
 62
   120
370
     5
100
AcDbLine
 10
973.6798049042887
 20
3095.000148463907
 30
0.0
 11
1011.499981442004
 21
3132.820325001623
 31
0.0
  0
LINE
  5
292
330
1F
100
AcDbEntity
  8
0-C_ハッチ
  6
JWW_DASHED1
 62
   120
370
     5
100
AcDbLine
 10
1017.499981442012
 20
3138.820325001631
 30
0.0
 11
1141.499981442033
 21
3262.820325001652
 31
0.0
  0
LINE
  5
293
330
1F
100
AcDbEntity
  8
0-C_ハッチ
  6
JWW_DASHED1
 62
   120
370
     5
100
AcDbLine
 10
1147.499981442026
 20
3268.820325001645
 30
0.0
 11
1155.679804904268
 21
3277.000148463886
 31
0.0
  0
LINE
  5
294
330
1F
100
AcDbEntity
  8
0-C_ハッチ
  6
JWW_DASHED1
 62
   120
370
     5
100
AcDbLine
 10
903.9999814420169
 20
3067.746731872835
 30
0.0
 11
925.2533980330768
 21
3089.000148463896
 31
0.0
  0
LINE
  5
295
330
1F
100
AcDbEntity
  8
0-C_ハッチ
  6
JWW_DASHED1
 62
   120
370
     5
100
AcDbLine
 10
931.2533980330845
 20
3095.000148463903
 30
0.0
 11
1011.499981442019
 21
3175.246731872837
 31
0.0
  0
LINE
  5
296
330
1F
100
AcDbEntity
  8
0-C_ハッチ
  6
JWW_DASHED1
 62
   120
370
     5
100
AcDbLine
 10
1017.499981442011
 20
3181.24673187283
 30
0.0
 11
1113.253398033068
 21
3277.000148463886
 31
0.0
  0
LINE
  5
297
330
1F
100
AcDbEntity
  8
0-C_ハッチ
  6
JWW_DASHED1
 62
   120
370
     5
100
AcDbLine
 10
903.999981442022
 20
3110.17313874404
 30
0.0
 11
1011.499981442023
 21
3217.673138744041
 31
0.0
  0
LINE
  5
298
330
1F
100
AcDbEntity
  8
0-C_ハッチ
  6
JWW_DASHED1
 62
   120
370
     5
100
AcDbLine
 10
1017.499981442014
 20
3223.673138744033
 30
0.0
 11
1070.826991161876
 21
3277.000148463894
 31
0.0
  0
LINE
  5
299
330
1F
100
AcDbEntity
  8
0-C_ハッチ
  6
JWW_DASHED1
 62
   120
370
     5
100
AcDbLine
 10
903.9999814420169
 20
3152.599545615235
 30
0.0
 11
1011.499981442018
 21
3260.099545615236
 31
0.0
  0
LINE
  5
29A
330
1F
100
AcDbEntity
  8
0-C_ハッチ
  6
JWW_DASHED1
 62
   120
370
     5
100
AcDbLine
 10
1017.49998144201
 20
3266.099545615228
 30
0.0
 11
1028.400584290684
 21
3277.000148463903
 31
0.0
  0
LINE
  5
29B
330
1F
100
AcDbEntity
  8
0-C_ハッチ
  6
JWW_DASHED1
 62
   120
370
     5
100
AcDbLine
 10
903.999981442028
 20
3195.025952486446
 30
0.0
 11
985.9741774194797
 21
3277.000148463898
 31
0.0
  0
LINE
  5
29C
330
1F
100
AcDbEntity
  8
0-C_ハッチ
  6
JWW_DASHED1
 62
   120
370
     5
100
AcDbLine
 10
903.9999814420224
 20
3237.452359357641
 30
0.0
 11
943.5477705482788
 21
3277.000148463897
 31
0.0
  0
LINE
  5
29D
330
1F
100
AcDbEntity
  8
0-C_ハッチ
  6
JWW_DASHED1
 62
   120
370
     5
100
AcDbLine
 10
-868.9500630722425
 20
2907.000148463904
 30
0.0
 11
-831.0000185579883
 21
2944.950192978158
 31
0.0
  0
LINE
  5
29E
330
1F
100
AcDbEntity
  8
0-C_ハッチ
  6
JWW_DASHED1
 62
   120
370
     5
100
AcDbLine
 10
-911.3764699434369
 20
2907.000148463909
 30
0.0
 11
-831.0000185579897
 21
2987.376599849357
 31
0.0
  0
LINE
  5
29F
330
1F
100
AcDbEntity
  8
0-C_ハッチ
  6
JWW_DASHED1
 62
   120
370
     5
100
AcDbLine
 10
-953.802876814632
 20
2907.000148463914
 30
0.0
 11
-831.0000185579753
 21
3029.803006720571
 31
0.0
  0
LINE
  5
2A0
330
1F
100
AcDbEntity
  8
0-C_ハッチ
  6
JWW_DASHED1
 62
   120
370
     5
100
AcDbLine
 10
-996.2292836858526
 20
2907.000148463894
 30
0.0
 11
-967.0000185579848
 21
2936.229413591761
 31
0.0
  0
LINE
  5
2A1
330
1F
100
AcDbEntity
  8
0-C_ハッチ
  6
JWW_DASHED1
 62
   120
370
     5
100
AcDbLine
 10
-961.0000185579772
 20
2942.229413591769
 30
0.0
 11
-831.0000185579753
 21
3072.229413591771
 31
0.0
  0
LINE
  5
2A2
330
1F
100
AcDbEntity
  8
0-C_ハッチ
  6
JWW_DASHED1
 62
   120
370
     5
100
AcDbLine
 10
-1038.655690557052
 20
2907.000148463894
 30
0.0
 11
-967.00001855799
 21
2978.655820462956
 31
0.0
  0
LINE
  5
2A3
330
1F
100
AcDbEntity
  8
0-C_ハッチ
  6
JWW_DASHED1
 62
   120
370
     5
100
AcDbLine
 10
-961.0000185579825
 20
2984.655820462964
 30
0.0
 11
-856.6556905570544
 21
3089.000148463892
 31
0.0
  0
LINE
  5
2A4
330
1F
100
AcDbEntity
  8
0-C_ハッチ
  6
JWW_DASHED1
 62
   120
370
     5
100
AcDbLine
 10
-850.6556905570627
 20
3095.000148463884
 30
0.0
 11
-831.0000185579723
 21
3114.655820462974
 31
0.0
  0
LINE
  5
2A5
330
1F
100
AcDbEntity
  8
0-C_ハッチ
  6
JWW_DASHED1
 62
   120
370
     5
100
AcDbLine
 10
-1081.082097428251
 20
2907.000148463895
 30
0.0
 11
-967.0000185579951
 21
3021.082227334151
 31
0.0
  0
LINE
  5
2A6
330
1F
100
AcDbEntity
  8
0-C_ハッチ
  6
JWW_DASHED1
 62
   120
370
     5
100
AcDbLine
 10
-961.0000185579875
 20
3027.082227334159
 30
0.0
 11
-899.0820974282487
 21
3089.000148463898
 31
0.0
  0
LINE
  5
2A7
330
1F
100
AcDbEntity
  8
0-C_ハッチ
  6
JWW_DASHED1
 62
   120
370
     5
100
AcDbLine
 10
-893.0820974282569
 20
3095.000148463889
 30
0.0
 11
-831.0000185579772
 21
3157.082227334169
 31
0.0
  0
LINE
  5
2A8
330
1F
100
AcDbEntity
  8
0-C_ハッチ
  6
JWW_DASHED1
 62
   120
370
     5
100
AcDbLine
 10
-1123.508504299442
 20
2907.000148463904
 30
0.0
 11
-1107.000018557993
 21
2923.508634205354
 31
0.0
  0
LINE
  5
2A9
330
1F
100
AcDbEntity
  8
0-C_ハッチ
  6
JWW_DASHED1
 62
   120
370
     5
100
AcDbLine
 10
-1101.000018557985
 20
2929.508634205361
 30
0.0
 11
-967.0000185579844
 21
3063.508634205362
 31
0.0
  0
LINE
  5
2AA
330
1F
100
AcDbEntity
  8
0-C_ハッチ
  6
JWW_DASHED1
 62
   120
370
     5
100
AcDbLine
 10
-961.0000185579928
 20
3069.508634205354
 30
0.0
 11
-941.5085042994427
 21
3089.000148463904
 31
0.0
  0
LINE
  5
2AB
330
1F
100
AcDbEntity
  8
0-C_ハッチ
  6
JWW_DASHED1
 62
   120
370
     5
100
AcDbLine
 10
-935.508504299451
 20
3095.000148463895
 30
0.0
 11
-831.0000185579734
 21
3199.508634205373
 31
0.0
  0
LINE
  5
2AC
330
1F
100
AcDbEntity
  8
0-C_ハッチ
  6
JWW_DASHED1
 62
   120
370
     5
100
AcDbLine
 10
-1165.934911170583
 20
2907.000148463909
 30
0.0
 11
-1107.000018557999
 21
2965.935041076493
 31
0.0
  0
LINE
  5
2AD
330
1F
100
AcDbEntity
  8
0-C_ハッチ
  6
JWW_DASHED1
 62
   120
370
     5
100
AcDbLine
 10
-1101.000018557976
 20
2971.935041076516
 30
0.0
 11
-983.9349111706042
 21
3089.000148463888
 31
0.0
  0
LINE
  5
2AE
330
1F
100
AcDbEntity
  8
0-C_ハッチ
  6
JWW_DASHED1
 62
   120
370
     5
100
AcDbLine
 10
-977.9349111705928
 20
3095.000148463899
 30
0.0
 11
-967.0000185579846
 21
3105.935041076507
 31
0.0
  0
LINE
  5
2AF
330
1F
100
AcDbEntity
  8
0-C_ハッチ
  6
JWW_DASHED1
 62
   120
370
     5
100
AcDbLine
 10
-961.0000185579925
 20
3111.9350410765
 30
0.0
 11
-831.0000185579789
 21
3241.935041076513
 31
0.0
  0
LINE
  5
2B0
330
1F
100
AcDbEntity
  8
0-C_ハッチ
  6
JWW_DASHED1
 62
   120
370
     5
100
AcDbLine
 10
-1208.361318041786
 20
2907.000148463906
 30
0.0
 11
-1107.000018557985
 21
3008.361447947706
 31
0.0
  0
LINE
  5
2B1
330
1F
100
AcDbEntity
  8
0-C_ハッチ
  6
JWW_DASHED1
 62
   120
370
     5
100
AcDbLine
 10
-1101.000018557978
 20
3014.361447947714
 30
0.0
 11
-1026.361318041803
 21
3089.000148463889
 31
0.0
  0
LINE
  5
2B2
330
1F
100
AcDbEntity
  8
0-C_ハッチ
  6
JWW_DASHED1
 62
   120
370
     5
100
AcDbLine
 10
-1020.361318041795
 20
3095.000148463897
 30
0.0
 11
-967.0000185579863
 21
3148.361447947706
 31
0.0
  0
LINE
  5
2B3
330
1F
100
AcDbEntity
  8
0-C_ハッチ
  6
JWW_DASHED1
 62
   120
370
     5
100
AcDbLine
 10
-961.0000185579939
 20
3154.361447947698
 30
0.0
 11
-838.3613180417993
 21
3277.000148463892
 31
0.0
  0
LINE
  5
2B4
330
1F
100
AcDbEntity
  8
0-C_ハッチ
  6
JWW_DASHED1
 62
   120
370
     5
100
AcDbLine
 10
-1250.787724912988
 20
2907.000148463904
 30
0.0
 11
-1247.000018557992
 21
2910.787854818901
 31
0.0
  0
LINE
  5
2B5
330
1F
100
AcDbEntity
  8
0-C_ハッチ
  6
JWW_DASHED1
 62
   120
370
     5
100
AcDbLine
 10
-1241.000018557999
 20
2916.787854818893
 30
0.0
 11
-1107.000018557987
 21
3050.787854818904
 31
0.0
  0
LINE
  5
2B6
330
1F
100
AcDbEntity
  8
0-C_ハッチ
  6
JWW_DASHED1
 62
   120
370
     5
100
AcDbLine
 10
-1051.022317737736
 20
3106.765555639156
 30
0.0
 11
-967.00001855798
 21
3190.787854818912
 31
0.0
  0
LINE
  5
2B7
330
1F
100
AcDbEntity
  8
0-C_ハッチ
  6
JWW_DASHED1
 62
   120
370
     5
100
AcDbLine
 10
-961.0000185579881
 20
3196.787854818904
 30
0.0
 11
-880.7877249129936
 21
3277.000148463898
 31
0.0
  0
LINE
  5
2B8
330
1F
100
AcDbEntity
  8
0-C_ハッチ
  6
JWW_DASHED1
 62
   120
370
     5
100
AcDbLine
 10
-1293.214131784198
 20
2907.000148463894
 30
0.0
 11
-1247.000018557981
 21
2953.214261690111
 31
0.0
  0
LINE
  5
2B9
330
1F
100
AcDbEntity
  8
0-C_ハッチ
  6
JWW_DASHED1
 62
   120
370
     5
100
AcDbLine
 10
-1241.000018557974
 20
2959.214261690118
 30
0.0
 11
-1126.981522951158
 21
3073.232757296934
 31
0.0
  0
LINE
  5
2BA
330
1F
100
AcDbEntity
  8
0-C_ハッチ
  6
JWW_DASHED1
 62
   120
370
     5
100
AcDbLine
 10
-1075.835920868057
 20
3124.378359380034
 30
0.0
 11
-967.0000185579851
 21
3233.214261690106
 31
0.0
  0
LINE
  5
2BB
330
1F
100
AcDbEntity
  8
0-C_ハッチ
  6
JWW_DASHED1
 62
   120
370
     5
100
AcDbLine
 10
-961.0000185579933
 20
3239.214261690099
 30
0.0
 11
-923.2141317841921
 21
3277.0001484639
 31
0.0
  0
LINE
  5
2BC
330
1F
100
AcDbEntity
  8
0-C_ハッチ
  6
JWW_DASHED1
 62
   120
370
     5
100
AcDbLine
 10
-1335.640538655393
 20
2907.0001484639
 30
0.0
 11
-1247.000018557986
 21
2995.640668561306
 31
0.0
  0
LINE
  5
2BD
330
1F
100
AcDbEntity
  8
0-C_ハッチ
  6
JWW_DASHED1
 62
   120
370
     5
100
AcDbLine
 10
-1241.000018557979
 20
3001.640668561313
 30
0.0
 11
-1156.522883375259
 21
3086.117803744034
 31
0.0
  0
LINE
  5
2BE
330
1F
100
AcDbEntity
  8
0-C_ハッチ
  6
JWW_DASHED1
 62
   120
370
     5
100
AcDbLine
 10
-1136.764480590763
 20
3105.876206528529
 30
0.0
 11
-1131.447359631886
 21
3111.193327487405
 31
0.0
  0
LINE
  5
2BF
330
1F
100
AcDbEntity
  8
0-C_ハッチ
  6
JWW_DASHED1
 62
   120
370
     5
100
AcDbLine
 10
-1090.242963126707
 20
3152.397723992585
 30
0.0
 11
-967.0000185579902
 21
3275.640668561302
 31
0.0
  0
LINE
  5
2C0
330
1F
100
AcDbEntity
  8
0-C_ハッチ
  6
JWW_DASHED1
 62
   120
370
     5
100
AcDbLine
 10
-1377.000018557994
 20
2908.067075432498
 30
0.0
 11
-1247.000018557991
 21
3038.067075432501
 31
0.0
  0
LINE
  5
2C1
330
1F
100
AcDbEntity
  8
0-C_ハッチ
  6
JWW_DASHED1
 62
   120
370
     5
100
AcDbLine
 10
-1241.000018557984
 20
3044.067075432508
 30
0.0
 11
-1196.066945526592
 21
3089.0001484639
 31
0.0
  0
LINE
  5
2C2
330
1F
100
AcDbEntity
  8
0-C_ハッチ
  6
JWW_DASHED1
 62
   120
370
     5
100
AcDbLine
 10
-1190.0669455266
 20
3095.000148463892
 30
0.0
 11
-1107.000018557986
 21
3178.067075432506
 31
0.0
  0
LINE
  5
2C3
330
1F
100
AcDbEntity
  8
0-C_ハッチ
  6
JWW_DASHED1
 62
   120
370
     5
100
AcDbLine
 10
-1101.000018557975
 20
3184.067075432517
 30
0.0
 11
-1008.066945526589
 21
3277.000148463903
 31
0.0
  0
LINE
  5
2C4
330
1F
100
AcDbEntity
  8
0-C_ハッチ
  6
JWW_DASHED1
 62
   120
370
     5
100
AcDbLine
 10
-1377.000018557999
 20
2950.493482303693
 30
0.0
 11
-1247.000018557981
 21
3080.493482303712
 31
0.0
  0
LINE
  5
2C5
330
1F
100
AcDbEntity
  8
0-C_ハッチ
  6
JWW_DASHED1
 62
   120
370
     5
100
AcDbLine
 10
-1241.000018557989
 20
3086.493482303703
 30
0.0
 11
-1238.493352397792
 21
3089.0001484639
 31
0.0
  0
LINE
  5
2C6
330
1F
100
AcDbEntity
  8
0-C_ハッチ
  6
JWW_DASHED1
 62
   120
370
     5
100
AcDbLine
 10
-1232.493352397799
 20
3095.000148463892
 30
0.0
 11
-1107.000018557992
 21
3220.4934823037
 31
0.0
  0
LINE
  5
2C7
330
1F
100
AcDbEntity
  8
0-C_ハッチ
  6
JWW_DASHED1
 62
   120
370
     5
100
AcDbLine
 10
-1101.000018557984
 20
3226.493482303708
 30
0.0
 11
-1050.493352397789
 21
3277.000148463904
 31
0.0
  0
LINE
  5
2C8
330
1F
100
AcDbEntity
  8
0-C_ハッチ
  6
JWW_DASHED1
 62
   120
370
     5
100
AcDbLine
 10
-1377.000018557985
 20
2992.919889174852
 30
0.0
 11
-1280.919759268951
 21
3089.000148463886
 31
0.0
  0
LINE
  5
2C9
330
1F
100
AcDbEntity
  8
0-C_ハッチ
  6
JWW_DASHED1
 62
   120
370
     5
100
AcDbLine
 10
-1274.919759268944
 20
3095.000148463893
 30
0.0
 11
-1247.000018557979
 21
3122.919889174858
 31
0.0
  0
LINE
  5
2CA
330
1F
100
AcDbEntity
  8
0-C_ハッチ
  6
JWW_DASHED1
 62
   120
370
     5
100
AcDbLine
 10
-1241.000018557987
 20
3128.91988917485
 30
0.0
 11
-1107.00001855799
 21
3262.919889174848
 31
0.0
  0
LINE
  5
2CB
330
1F
100
AcDbEntity
  8
0-C_ハッチ
  6
JWW_DASHED1
 62
   120
370
     5
100
AcDbLine
 10
-1101.000018557965
 20
3268.919889174872
 30
0.0
 11
-1092.919759268961
 21
3277.000148463877
 31
0.0
  0
LINE
  5
2CC
330
1F
100
AcDbEntity
  8
0-C_ハッチ
  6
JWW_DASHED1
 62
   120
370
     5
100
AcDbLine
 10
-1377.000018557987
 20
3035.346296046051
 30
0.0
 11
-1323.346166140145
 21
3089.000148463892
 31
0.0
  0
LINE
  5
2CD
330
1F
100
AcDbEntity
  8
0-C_ハッチ
  6
JWW_DASHED1
 62
   120
370
     5
100
AcDbLine
 10
-1317.346166140138
 20
3095.0001484639
 30
0.0
 11
-1247.000018557981
 21
3165.346296046057
 31
0.0
  0
LINE
  5
2CE
330
1F
100
AcDbEntity
  8
0-C_ハッチ
  6
JWW_DASHED1
 62
   120
370
     5
100
AcDbLine
 10
-1241.000018557989
 20
3171.346296046049
 30
0.0
 11
-1135.346166140135
 21
3277.000148463902
 31
0.0
  0
LINE
  5
2CF
330
1F
100
AcDbEntity
  8
0-C_ハッチ
  6
JWW_DASHED1
 62
   120
370
     5
100
AcDbLine
 10
-1377.000018557988
 20
3077.77270291725
 30
0.0
 11
-1365.77257301134
 21
3089.000148463898
 31
0.0
  0
LINE
  5
2D0
330
1F
100
AcDbEntity
  8
0-C_ハッチ
  6
JWW_DASHED1
 62
   120
370
     5
100
AcDbLine
 10
-1359.772573011332
 20
3095.000148463906
 30
0.0
 11
-1247.000018557982
 21
3207.772702917255
 31
0.0
  0
LINE
  5
2D1
330
1F
100
AcDbEntity
  8
0-C_ハッチ
  6
JWW_DASHED1
 62
   120
370
     5
100
AcDbLine
 10
-1241.00001855799
 20
3213.772702917248
 30
0.0
 11
-1177.772573011343
 21
3277.000148463895
 31
0.0
  0
LINE
  5
2D2
330
1F
100
AcDbEntity
  8
0-C_ハッチ
  6
JWW_DASHED1
 62
   120
370
     5
100
AcDbLine
 10
-1377.000018557984
 20
3120.199109788454
 30
0.0
 11
-1247.000018557981
 21
3250.199109788456
 31
0.0
  0
LINE
  5
2D3
330
1F
100
AcDbEntity
  8
0-C_ハッチ
  6
JWW_DASHED1
 62
   120
370
     5
100
AcDbLine
 10
-1241.000018557974
 20
3256.199109788463
 30
0.0
 11
-1220.19897988255
 21
3277.000148463887
 31
0.0
  0
LINE
  5
2D4
330
1F
100
AcDbEntity
  8
0-C_ハッチ
  6
JWW_DASHED1
 62
   120
370
     5
100
AcDbLine
 10
-1377.000018557989
 20
3162.625516659649
 30
0.0
 11
-1262.625386753739
 21
3277.000148463898
 31
0.0
  0
LINE
  5
2D5
330
1F
100
AcDbEntity
  8
0-C_ハッチ
  6
JWW_DASHED1
 62
   120
370
     5
100
AcDbLine
 10
-1377.000018557994
 20
3205.051923530844
 30
0.0
 11
-1305.051793624934
 21
3277.000148463904
 31
0.0
  0
LINE
  5
2D6
330
1F
100
AcDbEntity
  8
0-C_ハッチ
  6
JWW_DASHED1
 62
   120
370
     5
100
AcDbLine
 10
-1377.000018557999
 20
3247.478330402039
 30
0.0
 11
-1347.478200496132
 21
3277.000148463906
 31
0.0
  0
MTEXT
  5
2D7
330
1F
100
AcDbEntity
  8
0-B_寸法
  6
Continuous
 62
     7
370
    70
100
AcDbMText
 10
-2581.000018557985
 20
2220.325148463894
 30
0.0
 40
57.14999999999999
 41
412.5
 46
0.0
 71
     7
 72
     1
  1
{\fＭＳ ゴシック|b0|i0|c128|p49;ＤＨ＝1,983}
 11
6.123031769111886E-17
 21
1.0
 31
0.0
 73
     1
 44
1.0
  0
MTEXT
  5
2D8
330
1F
100
AcDbEntity
  8
0-B_寸法
  6
Continuous
 62
     7
370
    70
100
AcDbMText
 10
-187.0000185579812
 20
2220.325148463894
 30
0.0
 40
57.14999999999999
 41
412.5
 46
0.0
 71
     7
 72
     1
  1
{\fＭＳ ゴシック|b0|i0|c128|p49;ＤＨ＝1,983}
 11
6.123031769111886E-17
 21
1.0
 31
0.0
 73
     1
 44
1.0
  0
MTEXT
  5
2D9
330
1F
100
AcDbEntity
  8
0-B_寸法
  6
Continuous
 62
     7
370
    70
100
AcDbMText
 10
4086.999981442023
 20
2220.325148463894
 30
0.0
 40
57.14999999999999
 41
412.5
 46
0.0
 71
     7
 72
     1
  1
{\fＭＳ ゴシック|b0|i0|c128|p49;ＤＨ＝1,983}
 11
6.123031769111886E-17
 21
1.0
 31
0.0
 73
     1
 44
1.0
  0
MTEXT
  5
2DA
330
1F
100
AcDbEntity
  8
0-B_寸法
  6
Continuous
 62
     7
370
   211
100
AcDbMText
 10
-1272.750018557983
 20
1174.075148463893
 30
0.0
 40
57.15
 41
337.5
 46
0.0
 71
     7
 72
     1
  1
{\fＭＳ ゴシック|b0|i0|c128|p49;ＤＷ＝810}
 73
     1
 44
1.0
  0
MTEXT
  5
2DB
330
1F
100
AcDbEntity
  8
0-B_寸法
  6
Continuous
 62
     7
370
   211
100
AcDbMText
 10
975.749981442022
 20
1174.075148463893
 30
0.0
 40
57.15
 41
337.5
 46
0.0
 71
     7
 72
     1
  1
{\fＭＳ ゴシック|b0|i0|c128|p49;ＤＷ＝713}
 73
     1
 44
1.0
  0
MTEXT
  5
2DC
330
1F
100
AcDbEntity
  8
0-B_寸法
  6
Continuous
 62
     7
370
   211
100
AcDbMText
 10
5054.749981442024
 20
1174.075148463894
 30
0.0
 40
57.15
 41
337.5
 46
0.0
 71
     7
 72
     1
  1
{\fＭＳ ゴシック|b0|i0|c128|p49;ＤＷ＝583}
 73
     1
 44
1.0
  0
MTEXT
  5
2DD
330
1F
100
AcDbEntity
  8
F-A_文字
  6
Continuous
 62
     7
370
     9
100
AcDbMText
 10
-5890.000004381747
 20
4018.575148463894
 30
0.0
 40
57.15
 41
300.0
 46
0.0
 71
     7
 72
     1
  1
{\fＭＳ ゴシック|b0|i0|c128|p49;デザイン}
 73
     1
 44
1.0
  0
MTEXT
  5
2DE
330
1F
100
AcDbEntity
  8
F-A_文字
  6
Continuous
 62
     7
370
     9
100
AcDbMText
 10
-5852.500004381747
 20
2031.325062684755
 30
0.0
 40
57.15
 41
225.0
 46
0.0
 71
     7
 72
     1
  1
{\fＭＳ ゴシック|b0|i0|c128|p49;姿　図}
 73
     1
 44
1.0
  0
MTEXT
  5
2DF
330
1F
100
AcDbEntity
  8
F-A_文字
  6
Continuous
 62
     7
370
     9
100
AcDbMText
 10
-5890.000004381747
 20
38.07493236644844
 30
0.0
 40
57.15
 41
300.0
 46
0.0
 71
     7
 72
     1
  1
{\fＭＳ ゴシック|b0|i0|c128|p49;デザイン}
 73
     1
 44
1.0
  0
MTEXT
  5
2E0
330
1F
100
AcDbEntity
  8
F-A_文字
  6
Continuous
 62
     7
370
     9
100
AcDbMText
 10
-5852.500004381747
 20
-1949.175091552734
 30
0.0
 40
57.15
 41
225.0
 46
0.0
 71
     7
 72
     1
  1
{\fＭＳ ゴシック|b0|i0|c128|p49;姿　図}
 73
     1
 44
1.0
  0
MTEXT
  5
2E1
330
1F
100
AcDbEntity
  8
F-A_文字
  6
Continuous
 62
     7
370
     0
100
AcDbMText
 10
-60.0001237199109
 20
-3887.139820871936
 30
0.0
 40
45.72
 41
180.0
 46
0.0
 71
     7
 72
     1
  1
{\fＭＳ ゴシック|b0|i0|c128|p49;図面名}
 73
     1
 44
1.0
  0
MTEXT
  5
2E2
330
1F
100
AcDbEntity
  8
F-A_文字
  6
Continuous
 62
     7
370
     0
100
AcDbMText
 10
2779.998729808911
 20
-3887.142460617774
 30
0.0
 40
45.72
 41
300.0
 46
0.0
 71
     7
 72
     1
  1
{\fＭＳ ゴシック|b0|i0|c128|p49;ＳＣＡＬＥ}
 73
     1
 44
1.0
  0
MTEXT
  5
2E3
330
1F
100
AcDbEntity
  8
F-A_文字
  6
Continuous
 62
     7
370
     0
100
AcDbMText
 10
4279.999224688556
 20
-3887.143854850754
 30
0.0
 40
45.72
 41
240.0
 46
0.0
 71
     7
 72
     1
  1
{\fＭＳ ゴシック|b0|i0|c128|p49;ＤＡＴＥ}
 73
     1
 44
1.0
  0
MTEXT
  5
2E4
330
1F
100
AcDbEntity
  8
F-A_文字
  6
Continuous
 62
     7
370
     0
100
AcDbMText
 10
1180.417701903719
 20
-3946.423911599839
 30
0.0
 40
77.15249999999999
 41
405.0
 46
0.0
 71
     7
 72
     1
  1
{\fＭＳ ゴシック|b0|i0|c128|p49;建具姿図}
 73
     1
 44
1.0
  0
MTEXT
  5
2E5
330
1F
100
AcDbEntity
  8
F-A_文字
  6
Continuous
 62
     7
370
     0
100
AcDbMText
 10
3383.748977248734
 20
-3946.426865907308
 30
0.0
 40
77.15249999999999
 41
202.5
 46
0.0
 71
     7
 72
     1
  1
{\fＭＳ ゴシック|b0|i0|c128|p49;1/30}
 73
     1
 44
1.0
  0
MTEXT
  5
2E6
330
1F
100
AcDbEntity
  8
F-A_文字
  6
Continuous
 62
     7
370
     0
100
AcDbMText
 10
2779.998729808911
 20
-4087.14246317786
 30
0.0
 40
45.72
 41
240.0
 46
0.0
 71
     7
 72
     1
  1
{\fＭＳ ゴシック|b0|i0|c128|p49;ＦＩＬＥ}
 73
     1
 44
1.0
  0
MTEXT
  5
2E7
330
1F
100
AcDbEntity
  8
F-A_文字
  6
Continuous
 62
     7
370
     0
100
AcDbMText
 10
4279.999224688556
 20
-4087.143857410839
 30
0.0
 40
45.72
 41
180.0
 46
0.0
 71
     7
 72
     1
  1
{\fＭＳ ゴシック|b0|i0|c128|p49;ＮＯ．}
 73
     1
 44
1.0
  0
MTEXT
  5
2E8
330
1F
100
AcDbEntity
  8
F-A_文字
  6
Continuous
 62
     7
370
     0
100
AcDbMText
 10
1234.998729808911
 20
-4096.140669266149
 30
0.0
 40
45.72
 41
120.0
 46
0.0
 71
     7
 72
     1
  1
{\fＭＳ ゴシック|b0|i0|c128|p49;株式}
 73
     1
 44
1.0
  0
MTEXT
  5
2E9
330
1F
100
AcDbEntity
  8
F-A_文字
  6
Continuous
 62
     7
370
     0
100
AcDbMText
 10
1444.998729808911
 20
-4164.281754523929
 30
0.0
 40
101.44125
 41
1065.0
 46
0.0
 71
     7
 72
     1
  1
{\fＭＳ ゴシック|b0|i0|c128|p49;ウッドワン・・・}
 73
     1
 44
1.0
  0
MTEXT
  5
2EA
330
1F
100
AcDbEntity
  8
F-A_文字
  6
Continuous
 62
     7
370
     0
100
AcDbMText
 10
1234.998729808911
 20
-4168.140669266187
 30
0.0
 40
45.72
 41
120.0
 46
0.0
 71
     7
 72
     1
  1
{\fＭＳ ゴシック|b0|i0|c128|p49;会社}
 73
     1
 44
1.0
  0
MTEXT
  5
2EB
330
1F
100
AcDbEntity
  8
F-A_文字
  6
Continuous
 62
     7
370
     0
100
AcDbMText
 10
5608.403311109712
 20
-4314.841419020919
 30
0.0
 40
68.58
 41
90.0
 46
0.0
 71
     7
 72
     1
  1
{\fＭＳ ゴシック|b0|i0|c128|p49;）}
 73
     1
 44
1.0
  0
MTEXT
  5
2EC
330
1F
100
AcDbEntity
  8
F-A_文字
  6
Continuous
 62
     7
370
     0
100
AcDbMText
 10
5190.195950842071
 20
-4316.235443869856
 30
0.0
 40
68.58
 41
45.0
 46
0.0
 71
     7
 72
     1
  1
{\fＭＳ ゴシック|b0|i0|c128|p49;,}
 73
     1
 44
1.0
  0
MTEXT
  5
2ED
330
1F
100
AcDbEntity
  8
F-A_文字
  6
Continuous
 62
     7
370
     0
100
AcDbMText
 10
4923.937261915373
 20
-4314.771967288282
 30
0.0
 40
74.295
 41
97.5
 46
0.0
 71
     7
 72
     1
  1
{\fＭＳ ゴシック|b0|i0|c128|p49;$y}
 73
     1
 44
1.0
  0
MTEXT
  5
2EE
330
1F
100
AcDbEntity
  8
F-A_文字
  6
Continuous
 62
     7
370
     0
100
AcDbMText
 10
5078.673982954195
 20
-4314.771967288282
 30
0.0
 40
74.295
 41
97.5
 46
0.0
 71
     7
 72
     1
  1
{\fＭＳ ゴシック|b0|i0|c128|p49;$m}
 73
     1
 44
1.0
  0
MTEXT
  5
2EF
330
1F
100
AcDbEntity
  8
F-A_文字
  6
Continuous
 62
     7
370
     0
100
AcDbMText
 10
5233.410715437103
 20
-4314.771967288282
 30
0.0
 40
74.295
 41
97.5
 46
0.0
 71
     7
 72
     1
  1
{\fＭＳ ゴシック|b0|i0|c128|p49;$d}
 73
     1
 44
1.0
  0
MTEXT
  5
2F0
330
1F
100
AcDbEntity
  8
F-A_文字
  6
Continuous
 62
     7
370
     0
100
AcDbMText
 10
5388.147447920011
 20
-4314.771967288282
 30
0.0
 40
74.295
 41
195.0
 46
0.0
 71
     7
 72
     1
  1
{\fＭＳ ゴシック|b0|i0|c128|p49;印刷}
 73
     1
 44
1.0
  0
MTEXT
  5
2F1
330
1F
100
AcDbEntity
  8
F-A_文字
  6
Continuous
 62
     7
370
     0
100
AcDbMText
 10
4784.033374252999
 20
-4319.023493567732
 30
0.0
 40
68.58
 41
90.0
 46
0.0
 71
     7
 72
     1
  1
{\fＭＳ ゴシック|b0|i0|c128|p49;（}
 73
     1
 44
1.0
  0
MTEXT
  5
2F2
330
1F
100
AcDbEntity
  8
F-A_文字
  6
Continuous
 62
     7
370
     0
100
AcDbMText
 10
5031.277143812345
 20
-4319.023493567732
 30
0.0
 40
68.58
 41
45.0
 46
0.0
 71
     7
 72
     1
  1
{\fＭＳ ゴシック|b0|i0|c128|p49;,}
 73
     1
 44
1.0
  0
LINE
  5
2F3
330
1F
100
AcDbEntity
  8
F-0_補助線
  6
JWW_HOJO
 62
   200
370
    20
100
AcDbLine
 10
-5999.99998453501
 20
4064.999901024072
 30
0.0
 11
5699.998762800888
 21
4064.999901024072
 31
0.0
  0
LINE
  5
2F4
330
1F
100
AcDbEntity
  8
F-0_補助線
  6
JWW_HOJO
 62
   200
370
    20
100
AcDbLine
 10
-5999.99998453501
 20
84.49993236644843
 30
0.0
 11
5694.998498865077
 21
84.49993236644843
 31
0.0
  0
MTEXT
  5
2F5
330
1F
100
AcDbEntity
  8
0-A_文字
  6
Continuous
 62
     7
370
     9
100
AcDbMText
 10
-1921.500018557984
 20
4013.576151024072
 30
0.0
 40
77.15249999999999
 41
405.0
 46
0.0
 71
     7
 72
     1
  1
{\fＭＳ ゴシック|b0|i0|c128|p49;Ｎ－ＶＪ}
 73
     1
 44
1.0
  0
MTEXT
  5
2F6
330
1F
100
AcDbEntity
  8
0-A_文字
  6
Continuous
 62
     7
370
     9
100
AcDbMText
 10
375.4999814420192
 20
4013.576151024072
 30
0.0
 40
77.15249999999999
 41
405.0
 46
0.0
 71
     7
 72
     1
  1
{\fＭＳ ゴシック|b0|i0|c128|p49;Ｎ－ＶＪ}
 73
     1
 44
1.0
  0
MTEXT
  5
2F7
330
1F
100
AcDbEntity
  8
0-A_文字
  6
Continuous
 62
     7
370
     9
100
AcDbMText
 10
4523.499372121455
 20
4013.576151024072
 30
0.0
 40
77.15249999999999
 41
405.0
 46
0.0
 71
     7
 72
     1
  1
{\fＭＳ ゴシック|b0|i0|c128|p49;Ｎ－ＶＪ}
 73
     1
 44
1.0
  0
ARC
  5
2F8
330
1F
100
AcDbEntity
  8
引手
  6
Continuous
 62
    92
370
    13
100
AcDbCircle
 10
-730.5000185579822
 20
2449.000148463893
 30
0.0
 40
1.5
100
AcDbArc
 50
0.0
 51
90.0
  0
LINE
  5
2F9
330
1F
100
AcDbEntity
  8
引手
  6
Continuous
 62
    92
370
    13
100
AcDbLine
 10
-729.0000185579828
 20
2342.000148463892
 30
0.0
 11
-729.0000185579828
 21
2449.000148463893
 31
0.0
  0
ARC
  5
2FA
330
1F
100
AcDbEntity
  8
引手
  6
Continuous
 62
    92
370
    13
100
AcDbCircle
 10
-730.5000185579822
 20
2342.000148463892
 30
0.0
 40
1.5
100
AcDbArc
 50
270.0
 51
0.0
  0
LINE
  5
2FB
330
1F
100
AcDbEntity
  8
引手
  6
Continuous
 62
    92
370
    13
100
AcDbLine
 10
-769.5000185579818
 20
2340.500148463894
 30
0.0
 11
-730.5000185579822
 21
2340.500148463894
 31
0.0
  0
ARC
  5
2FC
330
1F
100
AcDbEntity
  8
引手
  6
Continuous
 62
    92
370
    13
100
AcDbCircle
 10
-769.5000185579818
 20
2342.000148463892
 30
0.0
 40
1.5
100
AcDbArc
 50
180.0
 51
270.0
  0
LINE
  5
2FD
330
1F
100
AcDbEntity
  8
引手
  6
Continuous
 62
    92
370
    13
100
AcDbLine
 10
-771.0000185579821
 20
2449.000148463893
 30
0.0
 11
-771.0000185579821
 21
2342.000148463892
 31
0.0
  0
LINE
  5
2FE
330
1F
100
AcDbEntity
  8
引手
  6
Continuous
 62
    92
370
    13
100
AcDbLine
 10
-769.5000185579818
 20
2450.500148463894
 30
0.0
 11
-730.5000185579822
 21
2450.500148463894
 31
0.0
  0
ARC
  5
2FF
330
1F
100
AcDbEntity
  8
引手
  6
Continuous
 62
    92
370
    13
100
AcDbCircle
 10
-769.5000185579818
 20
2449.000148463893
 30
0.0
 40
1.5
100
AcDbArc
 50
90.0
 51
180.0
  0
ARC
  5
300
330
1F
100
AcDbEntity
  8
引手
  6
Continuous
 62
     7
370
     9
100
AcDbCircle
 10
-739.0000185579822
 20
2433.000148463894
 30
0.0
 40
1.5
100
AcDbArc
 50
0.0
 51
90.0
  0
LINE
  5
301
330
1F
100
AcDbEntity
  8
引手
  6
Continuous
 62
     7
370
     9
100
AcDbLine
 10
-737.5000185579819
 20
2358.000148463894
 30
0.0
 11
-737.5000185579819
 21
2433.000148463894
 31
0.0
  0
ARC
  5
302
330
1F
100
AcDbEntity
  8
引手
  6
Continuous
 62
     7
370
     9
100
AcDbCircle
 10
-739.0000185579822
 20
2358.000148463894
 30
0.0
 40
1.5
100
AcDbArc
 50
270.0
 51
0.0
  0
LINE
  5
303
330
1F
100
AcDbEntity
  8
引手
  6
Continuous
 62
     7
370
     9
100
AcDbLine
 10
-761.0000185579827
 20
2356.500148463894
 30
0.0
 11
-739.0000185579822
 21
2356.500148463894
 31
0.0
  0
ARC
  5
304
330
1F
100
AcDbEntity
  8
引手
  6
Continuous
 62
     7
370
     9
100
AcDbCircle
 10
-761.0000185579827
 20
2358.000148463894
 30
0.0
 40
1.5
100
AcDbArc
 50
180.0
 51
270.0
  0
LINE
  5
305
330
1F
100
AcDbEntity
  8
引手
  6
Continuous
 62
     7
370
     9
100
AcDbLine
 10
-762.500018557983
 20
2433.000148463894
 30
0.0
 11
-762.500018557983
 21
2358.000148463894
 31
0.0
  0
LINE
  5
306
330
1F
100
AcDbEntity
  8
引手
  6
Continuous
 62
     7
370
     9
100
AcDbLine
 10
-761.0000185579827
 20
2434.500148463894
 30
0.0
 11
-739.0000185579822
 21
2434.500148463894
 31
0.0
  0
ARC
  5
307
330
1F
100
AcDbEntity
  8
引手
  6
Continuous
 62
     7
370
     9
100
AcDbCircle
 10
-761.0000185579827
 20
2433.000148463894
 30
0.0
 40
1.5
100
AcDbArc
 50
90.0
 51
180.0
  0
ARC
  5
308
330
1F
100
AcDbEntity
  8
引手
  6
Continuous
 62
    92
370
    13
100
AcDbCircle
 10
1469.499981442021
 20
2449.000148463893
 30
0.0
 40
1.5
100
AcDbArc
 50
0.0
 51
90.0
  0
LINE
  5
309
330
1F
100
AcDbEntity
  8
引手
  6
Continuous
 62
    92
370
    13
100
AcDbLine
 10
1470.999981442021
 20
2342.000148463892
 30
0.0
 11
1470.999981442021
 21
2449.000148463893
 31
0.0
  0
ARC
  5
30A
330
1F
100
AcDbEntity
  8
引手
  6
Continuous
 62
    92
370
    13
100
AcDbCircle
 10
1469.499981442021
 20
2342.000148463892
 30
0.0
 40
1.5
100
AcDbArc
 50
270.0
 51
0.0
  0
LINE
  5
30B
330
1F
100
AcDbEntity
  8
引手
  6
Continuous
 62
    92
370
    13
100
AcDbLine
 10
1430.499981442021
 20
2340.500148463894
 30
0.0
 11
1469.499981442021
 21
2340.500148463894
 31
0.0
  0
ARC
  5
30C
330
1F
100
AcDbEntity
  8
引手
  6
Continuous
 62
    92
370
    13
100
AcDbCircle
 10
1430.499981442021
 20
2342.000148463892
 30
0.0
 40
1.5
100
AcDbArc
 50
180.0
 51
270.0
  0
LINE
  5
30D
330
1F
100
AcDbEntity
  8
引手
  6
Continuous
 62
    92
370
    13
100
AcDbLine
 10
1428.999981442022
 20
2449.000148463893
 30
0.0
 11
1428.999981442022
 21
2342.000148463892
 31
0.0
  0
LINE
  5
30E
330
1F
100
AcDbEntity
  8
引手
  6
Continuous
 62
    92
370
    13
100
AcDbLine
 10
1430.499981442021
 20
2450.500148463894
 30
0.0
 11
1469.499981442021
 21
2450.500148463894
 31
0.0
  0
ARC
  5
30F
330
1F
100
AcDbEntity
  8
引手
  6
Continuous
 62
    92
370
    13
100
AcDbCircle
 10
1430.499981442021
 20
2449.000148463893
 30
0.0
 40
1.5
100
AcDbArc
 50
90.0
 51
180.0
  0
ARC
  5
310
330
1F
100
AcDbEntity
  8
引手
  6
Continuous
 62
     7
370
     9
100
AcDbCircle
 10
1460.999981442021
 20
2433.000148463894
 30
0.0
 40
1.5
100
AcDbArc
 50
0.0
 51
90.0
  0
LINE
  5
311
330
1F
100
AcDbEntity
  8
引手
  6
Continuous
 62
     7
370
     9
100
AcDbLine
 10
1462.499981442022
 20
2358.000148463894
 30
0.0
 11
1462.499981442022
 21
2433.000148463894
 31
0.0
  0
ARC
  5
312
330
1F
100
AcDbEntity
  8
引手
  6
Continuous
 62
     7
370
     9
100
AcDbCircle
 10
1460.999981442021
 20
2358.000148463894
 30
0.0
 40
1.5
100
AcDbArc
 50
270.0
 51
0.0
  0
LINE
  5
313
330
1F
100
AcDbEntity
  8
引手
  6
Continuous
 62
     7
370
     9
100
AcDbLine
 10
1438.999981442022
 20
2356.500148463894
 30
0.0
 11
1460.999981442021
 21
2356.500148463894
 31
0.0
  0
ARC
  5
314
330
1F
100
AcDbEntity
  8
引手
  6
Continuous
 62
     7
370
     9
100
AcDbCircle
 10
1438.999981442022
 20
2358.000148463894
 30
0.0
 40
1.5
100
AcDbArc
 50
180.0
 51
270.0
  0
LINE
  5
315
330
1F
100
AcDbEntity
  8
引手
  6
Continuous
 62
     7
370
     9
100
AcDbLine
 10
1437.499981442021
 20
2433.000148463894
 30
0.0
 11
1437.499981442021
 21
2358.000148463894
 31
0.0
  0
LINE
  5
316
330
1F
100
AcDbEntity
  8
引手
  6
Continuous
 62
     7
370
     9
100
AcDbLine
 10
1438.999981442022
 20
2434.500148463894
 30
0.0
 11
1460.999981442021
 21
2434.500148463894
 31
0.0
  0
ARC
  5
317
330
1F
100
AcDbEntity
  8
引手
  6
Continuous
 62
     7
370
     9
100
AcDbCircle
 10
1438.999981442022
 20
2433.000148463894
 30
0.0
 40
1.5
100
AcDbArc
 50
90.0
 51
180.0
  0
ARC
  5
318
330
1F
100
AcDbEntity
  8
引手
  6
Continuous
 62
    92
370
    13
100
AcDbCircle
 10
5483.499981442025
 20
2449.000148463893
 30
0.0
 40
1.5
100
AcDbArc
 50
0.0
 51
90.0
  0
LINE
  5
319
330
1F
100
AcDbEntity
  8
引手
  6
Continuous
 62
    92
370
    13
100
AcDbLine
 10
5484.999981442023
 20
2342.000148463893
 30
0.0
 11
5484.999981442023
 21
2449.000148463893
 31
0.0
  0
ARC
  5
31A
330
1F
100
AcDbEntity
  8
引手
  6
Continuous
 62
    92
370
    13
100
AcDbCircle
 10
5483.499981442025
 20
2342.000148463893
 30
0.0
 40
1.5
100
AcDbArc
 50
270.0
 51
0.0
  0
LINE
  5
31B
330
1F
100
AcDbEntity
  8
引手
  6
Continuous
 62
    92
370
    13
100
AcDbLine
 10
5444.499981442024
 20
2340.500148463894
 30
0.0
 11
5483.499981442025
 21
2340.500148463894
 31
0.0
  0
ARC
  5
31C
330
1F
100
AcDbEntity
  8
引手
  6
Continuous
 62
    92
370
    13
100
AcDbCircle
 10
5444.499981442024
 20
2342.000148463893
 30
0.0
 40
1.5
100
AcDbArc
 50
180.0
 51
270.0
  0
LINE
  5
31D
330
1F
100
AcDbEntity
  8
引手
  6
Continuous
 62
    92
370
    13
100
AcDbLine
 10
5442.999981442024
 20
2449.000148463893
 30
0.0
 11
5442.999981442024
 21
2342.000148463893
 31
0.0
  0
LINE
  5
31E
330
1F
100
AcDbEntity
  8
引手
  6
Continuous
 62
    92
370
    13
100
AcDbLine
 10
5444.499981442024
 20
2450.500148463893
 30
0.0
 11
5483.499981442025
 21
2450.500148463893
 31
0.0
  0
ARC
  5
31F
330
1F
100
AcDbEntity
  8
引手
  6
Continuous
 62
    92
370
    13
100
AcDbCircle
 10
5444.499981442024
 20
2449.000148463893
 30
0.0
 40
1.5
100
AcDbArc
 50
90.0
 51
180.0
  0
ARC
  5
320
330
1F
100
AcDbEntity
  8
引手
  6
Continuous
 62
     7
370
     9
100
AcDbCircle
 10
5474.999981442026
 20
2433.000148463894
 30
0.0
 40
1.5
100
AcDbArc
 50
0.0
 51
90.0
  0
LINE
  5
321
330
1F
100
AcDbEntity
  8
引手
  6
Continuous
 62
     7
370
     9
100
AcDbLine
 10
5476.499981442024
 20
2358.000148463894
 30
0.0
 11
5476.499981442024
 21
2433.000148463894
 31
0.0
  0
ARC
  5
322
330
1F
100
AcDbEntity
  8
引手
  6
Continuous
 62
     7
370
     9
100
AcDbCircle
 10
5474.999981442026
 20
2358.000148463894
 30
0.0
 40
1.5
100
AcDbArc
 50
270.0
 51
0.0
  0
LINE
  5
323
330
1F
100
AcDbEntity
  8
引手
  6
Continuous
 62
     7
370
     9
100
AcDbLine
 10
5452.999981442025
 20
2356.500148463894
 30
0.0
 11
5474.999981442026
 21
2356.500148463894
 31
0.0
  0
ARC
  5
324
330
1F
100
AcDbEntity
  8
引手
  6
Continuous
 62
     7
370
     9
100
AcDbCircle
 10
5452.999981442025
 20
2358.000148463894
 30
0.0
 40
1.5
100
AcDbArc
 50
180.0
 51
270.0
  0
LINE
  5
325
330
1F
100
AcDbEntity
  8
引手
  6
Continuous
 62
     7
370
     9
100
AcDbLine
 10
5451.499981442023
 20
2433.000148463894
 30
0.0
 11
5451.499981442023
 21
2358.000148463894
 31
0.0
  0
LINE
  5
326
330
1F
100
AcDbEntity
  8
引手
  6
Continuous
 62
     7
370
     9
100
AcDbLine
 10
5452.999981442025
 20
2434.500148463894
 30
0.0
 11
5474.999981442026
 21
2434.500148463894
 31
0.0
  0
ARC
  5
327
330
1F
100
AcDbEntity
  8
引手
  6
Continuous
 62
     7
370
     9
100
AcDbCircle
 10
5452.999981442025
 20
2433.000148463894
 30
0.0
 40
1.5
100
AcDbArc
 50
90.0
 51
180.0
  0
MTEXT
  5
328
330
1F
100
AcDbEntity
  8
F-A_文字
  6
Continuous
 62
     7
370
     0
100
AcDbMText
 10
349.9999175200594
 20
-3946.417291872503
 30
0.0
 40
78.74000000000001
 41
465.0
 46
0.0
 71
     7
 72
     1
  1
{\fＭＳ ゴシック|b0|i0|c128|p49;PINOEARTH}
 73
     1
 44
1.0
  0
MTEXT
  5
329
330
1F
100
AcDbEntity
  8
F-A_文字
  6
Continuous
 62
     7
370
     9
100
AcDbMText
 10
4936.249033580831
 20
-4147.857012699985
 30
0.0
 40
74.295
 41
97.5
 46
0.0
 71
     7
 72
     1
  1
{\fＭＳ ゴシック|b0|i0|c128|p49;01}
 73
     1
 44
1.0
  0
MTEXT
  5
32A
330
1F
100
AcDbEntity
  8
F-A_文字
  6
Continuous
 62
     7
370
     0
100
AcDbMText
 10
4778.749126529666
 20
-3938.071010139966
 30
0.0
 40
78.86699999999999
 41
517.5
 46
0.0
 71
     7
 72
     1
  1
{\fＭＳ ゴシック|b0|i0|c128|p49;2021.04.01}
 73
     1
 44
1.0
  0
MTEXT
  5
32B
330
1F
100
AcDbEntity
  8
F-A_文字
  6
Continuous
 62
     7
370
     0
100
AcDbMText
 10
-5239.999990205508
 20
-4045.254708805663
 30
0.0
 40
79.49045454545455
 41
2295.0
 46
0.0
 71
     7
 72
     1
  1
{\fＭＳ ゴシック|b0|i0|c128|p49;ピノアース　片引き戸　レールタイプ　Ｎ－ＶＪ}
 73
     1
 44
1.0
  0
LINE
  5
32C
330
1F
100
AcDbEntity
  8
0-0_補助線
  6
JWW_HOJO
 62
   120
370
     5
100
AcDbLine
 10
-5999.99998453501
 20
790.5001831054692
 30
0.0
 11
5699.998762800888
 21
790.5001831054692
 31
0.0
  0
LINE
  5
32D
330
1F
100
AcDbEntity
  8
0-0_補助線
  6
JWW_HOJO
 62
   120
370
     5
100
AcDbLine
 10
-5999.99998453501
 20
670.5001831054692
 30
0.0
 11
5699.998762800888
 21
670.5001831054692
 31
0.0
  0
LINE
  5
32E
330
1F
100
AcDbEntity
  8
0-0_補助線
  6
JWW_HOJO
 62
   120
370
     5
100
AcDbLine
 10
-5999.99998453501
 20
550.5001831054688
 30
0.0
 11
5699.998762800888
 21
550.5001831054688
 31
0.0
  0
LINE
  5
32F
330
1F
100
AcDbEntity
  8
0-0_補助線
  6
JWW_HOJO
 62
   120
370
     5
100
AcDbLine
 10
-5999.99998453501
 20
430.5001831054688
 30
0.0
 11
5699.998762800888
 21
430.5001831054688
 31
0.0
  0
LINE
  5
330
330
1F
100
AcDbEntity
  8
0-0_補助線
  6
JWW_HOJO
 62
   120
370
     5
100
AcDbLine
 10
-5999.99998453501
 20
310.5001831054688
 30
0.0
 11
5699.998762800888
 21
310.5001831054688
 31
0.0
  0
LINE
  5
331
330
1F
100
AcDbEntity
  8
0-0_補助線
  6
JWW_HOJO
 62
   120
370
     5
100
AcDbLine
 10
5699.998762800888
 20
-3310.000017526988
 30
0.0
 11
-5999.99998453501
 21
-3310.000017526988
 31
0.0
  0
LINE
  5
332
330
1F
100
AcDbEntity
  8
0-0_補助線
  6
JWW_HOJO
 62
   120
370
     5
100
AcDbLine
 10
5699.998762800888
 20
-3430.000017526988
 30
0.0
 11
-5999.99998453501
 21
-3430.000017526988
 31
0.0
  0
LINE
  5
333
330
1F
100
AcDbEntity
  8
0-0_補助線
  6
JWW_HOJO
 62
   120
370
     5
100
AcDbLine
 10
5699.998762800888
 20
-3550.000017526988
 30
0.0
 11
-5999.99998453501
 21
-3550.000017526988
 31
0.0
  0
LINE
  5
334
330
1F
100
AcDbEntity
  8
0-0_補助線
  6
JWW_HOJO
 62
   120
370
     5
100
AcDbLine
 10
5699.998762800888
 20
-3670.000017526988
 30
0.0
 11
-5999.99998453501
 21
-3670.000017526988
 31
0.0
  0
LINE
  5
335
330
1F
100
AcDbEntity
  8
0-0_補助線
  6
JWW_HOJO
 62
   120
370
     5
100
AcDbLine
 10
-5370.000018557986
 20
4174.999769056166
 30
0.0
 11
-5370.000018557986
 21
-3790.000179909371
 31
0.0
  0
MTEXT
  5
336
330
1F
100
AcDbEntity
  8
0-A_文字
  6
Continuous
 62
     7
370
     9
100
AcDbMText
 10
-2796.000018558003
 20
661.5754150802817
 30
0.0
 40
57.15000000000197
 41
975.0000000000341
 46
0.0
 71
     7
 72
     1
  1
{\fＭＳ ゴシック|b0|i0|c128|p49;枠外幅 1,644mm（DW=810mm）}
 73
     1
 44
1.0
  0
MTEXT
  5
337
330
1F
100
AcDbEntity
  8
0-A_文字
  6
Continuous
 62
     7
370
     9
100
AcDbMText
 10
-402.0000185579937
 20
661.5754150802813
 30
0.0
 40
57.15000000000131
 41
975.000000000023
 46
0.0
 71
     7
 72
     1
  1
{\fＭＳ ゴシック|b0|i0|c128|p49;枠外幅 1,450mm（DW=713mm）}
 73
     1
 44
1.0
  0
LINE
  5
338
330
1F
100
AcDbEntity
  8
0-0_補助線
  6
JWW_HOJO
 62
   120
370
     5
100
AcDbLine
 10
5699.998762800888
 20
-3190.000017526988
 30
0.0
 11
-5999.99998453501
 21
-3190.000017526988
 31
0.0
  0
LINE
  5
339
330
1F
100
AcDbEntity
  8
0-0_補助線
  6
JWW_HOJO
 62
   120
370
     5
100
AcDbLine
 10
-2796.000018557986
 20
4174.999769056166
 30
0.0
 11
-2796.000018557986
 21
-3790.000179909371
 31
0.0
  0
LINE
  5
33A
330
1F
100
AcDbEntity
  8
0-0_補助線
  6
JWW_HOJO
 62
   120
370
     5
100
AcDbLine
 10
-402.0000185579826
 20
4174.999769056166
 30
0.0
 11
-402.0000185579826
 21
-3790.000179909371
 31
0.0
  0
LINE
  5
33B
330
1F
100
AcDbEntity
  8
0-0_補助線
  6
JWW_HOJO
 62
   120
370
     5
100
AcDbLine
 10
1797.99998144202
 20
4174.999769056166
 30
0.0
 11
1797.99998144202
 21
-3790.000179909371
 31
0.0
  0
LINE
  5
33C
330
1F
100
AcDbEntity
  8
0-0_補助線
  6
JWW_HOJO
 62
   120
370
     5
100
AcDbLine
 10
3871.999981442023
 20
4174.999769056166
 30
0.0
 11
3871.999981442023
 21
-3790.000179909371
 31
0.0
  0
MTEXT
  5
33D
330
1F
100
AcDbEntity
  8
0-A_文字
  6
Continuous
 62
     7
370
     9
100
AcDbMText
 10
3871.999981442063
 20
661.5754150802783
 30
0.0
 40
57.14999999999517
 41
974.9999999999181
 46
0.0
 71
     7
 72
     1
  1
{\fＭＳ ゴシック|b0|i0|c128|p49;枠外幅 1,190mm（DW=583mm）}
 73
     1
 44
1.0
  0
MTEXT
  5
33E
330
1F
100
AcDbEntity
  8
0-A_文字
  6
Continuous
 62
     7
370
     9
100
AcDbMText
 10
-2796.000018557982
 20
541.5751831054476
 30
0.0
 40
57.14999999999947
 41
824.9999999999923
 46
0.0
 71
     7
 72
     1
  1
{\fＭＳ ゴシック|b0|i0|c128|p49;ステンド調熱処理ガラス}
 73
     1
 44
1.0
  0
MTEXT
  5
33F
330
1F
100
AcDbEntity
  8
0-A_文字
  6
Continuous
 62
     7
370
     9
100
AcDbMText
 10
-402.0000185579784
 20
541.5751831054476
 30
0.0
 40
57.14999999999947
 41
824.9999999999923
 46
0.0
 71
     7
 72
     1
  1
{\fＭＳ ゴシック|b0|i0|c128|p49;ステンド調熱処理ガラス}
 73
     1
 44
1.0
  0
MTEXT
  5
340
330
1F
100
AcDbEntity
  8
0-A_文字
  6
Continuous
 62
     7
370
     9
100
AcDbMText
 10
3871.999981442014
 20
541.5751831054486
 30
0.0
 40
57.1500000000013
 41
825.0000000000188
 46
0.0
 71
     7
 72
     1
  1
{\fＭＳ ゴシック|b0|i0|c128|p49;ステンド調熱処理ガラス}
 73
     1
 44
1.0
  0
ENDSEC
  0
SECTION
  2
OBJECTS
  0
DICTIONARY
  5
C
330
0
100
AcDbDictionary
281
     1
  3
ACAD_GROUP
350
D
  3
ACAD_LAYOUT
350
1A
  3
ACAD_MATERIAL
350
3B
  3
ACAD_MLEADERSTYLE
350
342
  3
ACAD_MLINESTYLE
350
17
  3
ACAD_PLOTSETTINGS
350
19
  3
ACAD_PLOTSTYLENAME
350
E
  3
ACAD_TABLESTYLE
350
341
  3
ACAD_VISUALSTYLE
350
2A
  0
DICTIONARY
  5
D
102
{ACAD_REACTORS
330
C
102
}
330
C
100
AcDbDictionary
281
     1
  0
DICTIONARY
  5
1A
102
{ACAD_REACTORS
330
C
102
}
330
C
100
AcDbDictionary
281
     1
  3
Layout1
350
1E
  3
Layout2
350
26
  3
Model
350
22
  0
DICTIONARY
  5
3B
102
{ACAD_REACTORS
330
C
102
}
330
C
100
AcDbDictionary
281
     1
  3
ByBlock
350
3D
  3
ByLayer
350
3C
  3
Global
350
3E
  0
DICTIONARY
  5
342
102
{ACAD_REACTORS
330
C
102
}
330
C
100
AcDbDictionary
281
     1
  0
DICTIONARY
  5
17
102
{ACAD_REACTORS
330
C
102
}
330
C
100
AcDbDictionary
281
     1
  3
Standard
350
18
  0
DICTIONARY
  5
19
102
{ACAD_REACTORS
330
C
102
}
330
C
100
AcDbDictionary
281
     1
  0
ACDBDICTIONARYWDFLT
  5
E
102
{ACAD_REACTORS
330
C
102
}
330
C
100
AcDbDictionary
281
     1
  3
Normal
350
F
100
AcDbDictionaryWithDefault
340
F
  0
DICTIONARY
  5
341
102
{ACAD_REACTORS
330
C
102
}
330
C
100
AcDbDictionary
281
     1
  0
DICTIONARY
  5
2A
102
{ACAD_REACTORS
330
C
102
}
330
C
100
AcDbDictionary
281
     1
  3
2dWireframe
350
2F
  3
3D Hidden
350
31
  3
3dWireframe
350
30
  3
Basic
350
32
  3
Brighten
350
36
  3
ColorChange
350
3A
  3
Conceptual
350
34
  3
Dim
350
35
  3
Facepattern
350
39
  3
Flat
350
2B
  3
FlatWithEdges
350
2C
  3
Gouraud
350
2D
  3
GouraudWithEdges
350
2E
  3
Linepattern
350
38
  3
Realistic
350
33
  3
Thicken
350
37
  0
LAYOUT
  5
1E
102
{ACAD_REACTORS
330
1A
102
}
330
1A
100
AcDbPlotSettings
  1

  2
none_device
  4

  6

 40
0.0
 41
0.0
 42
0.0
 43
0.0
 44
0.0
 45
0.0
 46
0.0
 47
0.0
 48
0.0
 49
0.0
140
0.0
141
0.0
142
1.0
143
1.0
 70
   688
 72
     0
 73
     0
 74
     5
  7

 75
    16
 76
     0
 77
     5
 78
   300
147
1.0
148
0.0
149
0.0
100
AcDbLayout
  1
Layout1
 70
     1
 71
     1
 10
0.0
 20
0.0
 11
420.0
 21
297.0
 12
0.0
 22
0.0
 32
0.0
 14
1.000000000000000E+20
 24
1.000000000000000E+20
 34
1.000000000000000E+20
 15
-1.000000000000000E+20
 25
-1.000000000000000E+20
 35
-1.000000000000000E+20
146
0.0
 13
0.0
 23
0.0
 33
0.0
 16
1.0
 26
0.0
 36
0.0
 17
0.0
 27
1.0
 37
0.0
 76
     0
330
1B
  0
LAYOUT
  5
26
102
{ACAD_REACTORS
330
1A
102
}
330
1A
100
AcDbPlotSettings
  1

  2
none_device
  4

  6

 40
0.0
 41
0.0
 42
0.0
 43
0.0
 44
0.0
 45
0.0
 46
0.0
 47
0.0
 48
0.0
 49
0.0
140
0.0
141
0.0
142
1.0
143
1.0
 70
   688
 72
     0
 73
     0
 74
     5
  7

 75
    16
 76
     0
 77
     5
 78
   300
147
1.0
148
0.0
149
0.0
100
AcDbLayout
  1
Layout2
 70
     1
 71
     2
 10
0.0
 20
0.0
 11
0.0
 21
0.0
 12
0.0
 22
0.0
 32
0.0
 14
0.0
 24
0.0
 34
0.0
 15
0.0
 25
0.0
 35
0.0
146
0.0
 13
0.0
 23
0.0
 33
0.0
 16
1.0
 26
0.0
 36
0.0
 17
0.0
 27
1.0
 37
0.0
 76
     0
330
23
  0
LAYOUT
  5
22
102
{ACAD_REACTORS
330
1A
102
}
330
1A
100
AcDbPlotSettings
  1

  2
none_device
  4

  6

 40
0.0
 41
0.0
 42
0.0
 43
0.0
 44
0.0
 45
0.0
 46
0.0
 47
0.0
 48
0.0
 49
0.0
140
0.0
141
0.0
142
1.0
143
1.0
 70
  1712
 72
     0
 73
     0
 74
     0
  7

 75
     0
 76
     0
 77
     5
 78
   300
147
1.0
148
0.0
149
0.0
100
AcDbLayout
  1
Model
 70
     1
 71
     0
 10
-6300.0
 20
-4455.0
 11
6300.0
 21
4455.0
 12
0.0
 22
0.0
 32
0.0
 14
-6300.0
 24
-4455.0
 34
0.0
 15
6300.0
 25
4455.0
 35
0.0
146
0.0
 13
0.0
 23
0.0
 33
0.0
 16
1.0
 26
0.0
 36
0.0
 17
0.0
 27
1.0
 37
0.0
 76
     0
330
1F
331
29
  0
MATERIAL
  5
3D
102
{ACAD_REACTORS
330
3B
102
}
330
3B
100
AcDbMaterial
  1
ByBlock
 72
     1
 94
      127
  0
MATERIAL
  5
3C
102
{ACAD_REACTORS
330
3B
102
}
330
3B
100
AcDbMaterial
  1
ByLayer
 72
     1
 94
      127
  0
MATERIAL
  5
3E
102
{ACAD_REACTORS
330
3B
102
}
330
3B
100
AcDbMaterial
  1
Global
 72
     1
 94
      127
  0
MLINESTYLE
  5
18
102
{ACAD_REACTORS
330
17
102
}
330
17
100
AcDbMlineStyle
  2
Standard
 70
     0
  3

 62
   256
 51
90.0
 52
90.0
 71
     2
 49
0.5
 62
   256
  6
BYLAYER
 49
-0.5
 62
   256
  6
BYLAYER
  0
ACDBPLACEHOLDER
  5
F
102
{ACAD_REACTORS
330
E
102
}
330
E
  0
VISUALSTYLE
  5
2F
102
{ACAD_REACTORS
330
2A
102
}
330
2A
100
AcDbVisualStyle
  2
2dWireframe
 70
     4
177
     2
291
     0
 71
     0
176
     1
 72
     2
176
     1
 73
     0
176
     1
 90
        0
176
     1
 40
-0.6
176
     1
 41
-30.0
176
     1
 62
     5
 63
     7
421
 16777215
176
     1
 74
     1
176
     1
 91
        4
176
     1
 64
     7
176
     1
 65
   257
176
     1
 75
     1
176
     1
175
     1
176
     1
 42
1.0
176
     1
 92
        0
176
     1
 66
   257
176
     1
 43
1.0
176
     1
 76
     1
176
     1
 77
     6
176
     1
 78
     2
176
     1
 67
     7
176
     1
 79
     5
176
     1
170
     0
176
     1
171
     0
176
     1
290
     0
176
     1
 93
        1
176
     1
 44
0.0
176
     1
173
     0
176
     1
  0
VISUALSTYLE
  5
31
102
{ACAD_REACTORS
330
2A
102
}
330
2A
100
AcDbVisualStyle
  2
3D Hidden
 70
     6
177
     2
291
     0
 71
     1
176
     1
 72
     2
176
     1
 73
     2
176
     1
 90
        0
176
     1
 40
-0.6
176
     1
 41
-30.0
176
     1
 62
     5
 63
     7
421
 16777215
176
     1
 74
     2
176
     1
 91
        2
176
     1
 64
     7
176
     1
 65
   257
176
     1
 75
     2
176
     1
175
     1
176
     1
 42
40.0
176
     1
 92
        0
176
     1
 66
   257
176
     1
 43
1.0
176
     1
 76
     1
176
     1
 77
     6
176
     1
 78
     2
176
     1
 67
     7
176
     1
 79
     3
176
     1
170
     0
176
     1
171
     0
176
     1
290
     0
176
     1
 93
        1
176
     1
 44
0.0
176
     1
173
     0
176
     1
  0
VISUALSTYLE
  5
30
102
{ACAD_REACTORS
330
2A
102
}
330
2A
100
AcDbVisualStyle
  2
3dWireframe
 70
     5
177
     2
291
     0
 71
     0
176
     1
 72
     2
176
     1
 73
     0
176
     1
 90
        0
176
     1
 40
-0.6
176
     1
 41
-30.0
176
     1
 62
     5
 63
     7
421
 16777215
176
     1
 74
     1
176
     1
 91
        4
176
     1
 64
     7
176
     1
 65
   257
176
     1
 75
     1
176
     1
175
     1
176
     1
 42
1.0
176
     1
 92
        0
176
     1
 66
   257
176
     1
 43
1.0
176
     1
 76
     1
176
     1
 77
     6
176
     1
 78
     2
176
     1
 67
     7
176
     1
 79
     5
176
     1
170
     0
176
     1
171
     0
176
     1
290
     0
176
     1
 93
        1
176
     1
 44
0.0
176
     1
173
     0
176
     1
  0
VISUALSTYLE
  5
32
102
{ACAD_REACTORS
330
2A
102
}
330
2A
100
AcDbVisualStyle
  2
Basic
 70
     7
177
     2
291
     1
 71
     1
176
     1
 72
     0
176
     1
 73
     1
176
     1
 90
        0
176
     1
 40
-0.6
176
     1
 41
-30.0
176
     1
 62
     5
 63
     7
421
 16777215
176
     1
 74
     0
176
     1
 91
        4
176
     1
 64
     7
176
     1
 65
   257
176
     1
 75
     1
176
     1
175
     1
176
     1
 42
1.0
176
     1
 92
        8
176
     1
 66
     7
176
     1
 43
1.0
176
     1
 76
     1
176
     1
 77
     6
176
     1
 78
     2
176
     1
 67
     7
176
     1
 79
     5
176
     1
170
     0
176
     1
171
     0
176
     1
290
     0
176
     1
 93
        1
176
     1
 44
0.0
176
     1
173
     0
176
     1
  0
VISUALSTYLE
  5
36
102
{ACAD_REACTORS
330
2A
102
}
330
2A
100
AcDbVisualStyle
  2
Brighten
 70
    12
177
     2
291
     1
 71
     2
176
     1
 72
     2
176
     1
 73
     0
176
     1
 90
        0
176
     1
 40
-0.6
176
     1
 41
-30.0
176
     1
 62
     5
 63
     7
421
 16777215
176
     1
 74
     1
176
     1
 91
        4
176
     1
 64
     7
176
     1
 65
   257
176
     1
 75
     1
176
     1
175
     1
176
     1
 42
1.0
176
     1
 92
        8
176
     1
 66
     7
176
     1
 43
1.0
176
     1
 76
     1
176
     1
 77
     6
176
     1
 78
     2
176
     1
 67
     7
176
     1
 79
     5
176
     1
170
     0
176
     1
171
     0
176
     1
290
     0
176
     1
 93
        1
176
     1
 44
50.0
176
     1
173
     0
176
     1
  0
VISUALSTYLE
  5
3A
102
{ACAD_REACTORS
330
2A
102
}
330
2A
100
AcDbVisualStyle
  2
ColorChange
 70
    16
177
     2
291
     1
 71
     2
176
     1
 72
     2
176
     1
 73
     3
176
     1
 90
        0
176
     1
 40
-0.6
176
     1
 41
-30.0
176
     1
 62
     5
 63
     8
421
  8421504
176
     1
 74
     1
176
     1
 91
        4
176
     1
 64
     7
176
     1
 65
   257
176
     1
 75
     1
176
     1
175
     1
176
     1
 42
1.0
176
     1
 92
        8
176
     1
 66
     8
424
  8421504
176
     1
 43
1.0
176
     1
 76
     1
176
     1
 77
     6
176
     1
 78
     2
176
     1
 67
     7
176
     1
 79
     5
176
     1
170
     0
176
     1
171
     0
176
     1
290
     0
176
     1
 93
        1
176
     1
 44
0.0
176
     1
173
     0
176
     1
  0
VISUALSTYLE
  5
34
102
{ACAD_REACTORS
330
2A
102
}
330
2A
100
AcDbVisualStyle
  2
Conceptual
 70
     9
177
     2
291
     0
 71
     3
176
     1
 72
     2
176
     1
 73
     0
176
     1
 90
        0
176
     1
 40
-0.6
176
     1
 41
-30.0
176
     1
 62
     5
 63
     7
421
 16777215
176
     1
 74
     2
176
     1
 91
        2
176
     1
 64
     7
176
     1
 65
   257
176
     1
 75
     1
176
     1
175
     1
176
     1
 42
40.0
176
     1
 92
        8
176
     1
 66
     7
176
     1
 43
1.0
176
     1
 76
     1
176
     1
 77
     6
176
     1
 78
     2
176
     1
 67
     7
176
     1
 79
     3
176
     1
170
     0
176
     1
171
     0
176
     1
290
     0
176
     1
 93
        1
176
     1
 44
0.0
176
     1
173
     0
176
     1
  0
VISUALSTYLE
  5
35
102
{ACAD_REACTORS
330
2A
102
}
330
2A
100
AcDbVisualStyle
  2
Dim
 70
    11
177
     2
291
     1
 71
     2
176
     1
 72
     2
176
     1
 73
     0
176
     1
 90
        0
176
     1
 40
-0.6
176
     1
 41
-30.0
176
     1
 62
     5
 63
     7
421
 16777215
176
     1
 74
     1
176
     1
 91
        4
176
     1
 64
     7
176
     1
 65
   257
176
     1
 75
     1
176
     1
175
     1
176
     1
 42
1.0
176
     1
 92
        8
176
     1
 66
     7
176
     1
 43
1.0
176
     1
 76
     1
176
     1
 77
     6
176
     1
 78
     2
176
     1
 67
     7
176
     1
 79
     5
176
     1
170
     0
176
     1
171
     0
176
     1
290
     0
176
     1
 93
        1
176
     1
 44
-50.0
176
     1
173
     0
176
     1
  0
VISUALSTYLE
  5
39
102
{ACAD_REACTORS
330
2A
102
}
330
2A
100
AcDbVisualStyle
  2
Facepattern
 70
    15
177
     2
291
     1
 71
     2
176
     1
 72
     2
176
     1
 73
     0
176
     1
 90
        0
176
     1
 40
-0.6
176
     1
 41
-30.0
176
     1
 62
     5
 63
     7
421
 16777215
176
     1
 74
     1
176
     1
 91
        4
176
     1
 64
     7
176
     1
 65
   257
176
     1
 75
     1
176
     1
175
     1
176
     1
 42
1.0
176
     1
 92
        8
176
     1
 66
     7
176
     1
 43
1.0
176
     1
 76
     1
176
     1
 77
     6
176
     1
 78
     2
176
     1
 67
     7
176
     1
 79
     5
176
     1
170
     0
176
     1
171
     0
176
     1
290
     0
176
     1
 93
        1
176
     1
 44
0.0
176
     1
173
     0
176
     1
  0
VISUALSTYLE
  5
2B
102
{ACAD_REACTORS
330
2A
102
}
330
2A
100
AcDbVisualStyle
  2
Flat
 70
     0
177
     2
291
     1
 71
     2
176
     1
 72
     1
176
     1
 73
     1
176
     1
 90
        2
176
     1
 40
-0.6
176
     1
 41
30.0
176
     1
 62
     5
 63
     7
421
 16777215
176
     1
 74
     0
176
     1
 91
        4
176
     1
 64
     7
176
     1
 65
   257
176
     1
 75
     1
176
     1
175
     1
176
     1
 42
1.0
176
     1
 92
        8
176
     1
 66
     7
176
     1
 43
1.0
176
     1
 76
     1
176
     1
 77
     6
176
     1
 78
     2
176
     1
 67
     7
176
     1
 79
     5
176
     1
170
     0
176
     1
171
     0
176
     1
290
     0
176
     1
 93
       13
176
     1
 44
0.0
176
     1
173
     0
176
     1
  0
VISUALSTYLE
  5
2C
102
{ACAD_REACTORS
330
2A
102
}
330
2A
100
AcDbVisualStyle
  2
FlatWithEdges
 70
     1
177
     2
291
     1
 71
     2
176
     1
 72
     1
176
     1
 73
     1
176
     1
 90
        2
176
     1
 40
-0.6
176
     1
 41
30.0
176
     1
 62
     5
 63
     7
421
 16777215
176
     1
 74
     1
176
     1
 91
        4
176
     1
 64
     7
176
     1
 65
   257
176
     1
 75
     1
176
     1
175
     1
176
     1
 42
1.0
176
     1
 92
        0
176
     1
 66
   257
176
     1
 43
1.0
176
     1
 76
     1
176
     1
 77
     6
176
     1
 78
     2
176
     1
 67
     7
176
     1
 79
     5
176
     1
170
     0
176
     1
171
     0
176
     1
290
     0
176
     1
 93
       13
176
     1
 44
0.0
176
     1
173
     0
176
     1
  0
VISUALSTYLE
  5
2D
102
{ACAD_REACTORS
330
2A
102
}
330
2A
100
AcDbVisualStyle
  2
Gouraud
 70
     2
177
     2
291
     1
 71
     2
176
     1
 72
     2
176
     1
 73
     1
176
     1
 90
        2
176
     1
 40
-0.6
176
     1
 41
30.0
176
     1
 62
     5
 63
     7
421
 16777215
176
     1
 74
     0
176
     1
 91
        4
176
     1
 64
     7
176
     1
 65
   257
176
     1
 75
     1
176
     1
175
     1
176
     1
 42
1.0
176
     1
 92
        0
176
     1
 66
     7
176
     1
 43
1.0
176
     1
 76
     1
176
     1
 77
     6
176
     1
 78
     2
176
     1
 67
     7
176
     1
 79
     5
176
     1
170
     0
176
     1
171
     0
176
     1
290
     0
176
     1
 93
       13
176
     1
 44
0.0
176
     1
173
     0
176
     1
  0
VISUALSTYLE
  5
2E
102
{ACAD_REACTORS
330
2A
102
}
330
2A
100
AcDbVisualStyle
  2
GouraudWithEdges
 70
     3
177
     2
291
     1
 71
     2
176
     1
 72
     2
176
     1
 73
     1
176
     1
 90
        2
176
     1
 40
-0.6
176
     1
 41
30.0
176
     1
 62
     5
 63
     7
421
 16777215
176
     1
 74
     1
176
     1
 91
        4
176
     1
 64
     7
176
     1
 65
   257
176
     1
 75
     1
176
     1
175
     1
176
     1
 42
1.0
176
     1
 92
        0
176
     1
 66
   257
176
     1
 43
1.0
176
     1
 76
     1
176
     1
 77
     6
176
     1
 78
     2
176
     1
 67
     7
176
     1
 79
     5
176
     1
170
     0
176
     1
171
     0
176
     1
290
     0
176
     1
 93
       13
176
     1
 44
0.0
176
     1
173
     0
176
     1
  0
VISUALSTYLE
  5
38
102
{ACAD_REACTORS
330
2A
102
}
330
2A
100
AcDbVisualStyle
  2
Linepattern
 70
    14
177
     2
291
     1
 71
     2
176
     1
 72
     2
176
     1
 73
     0
176
     1
 90
        0
176
     1
 40
-0.6
176
     1
 41
-30.0
176
     1
 62
     5
 63
     7
421
 16777215
176
     1
 74
     1
176
     1
 91
        4
176
     1
 64
     7
176
     1
 65
   257
176
     1
 75
     7
176
     1
175
     7
176
     1
 42
1.0
176
     1
 92
        8
176
     1
 66
     7
176
     1
 43
1.0
176
     1
 76
     1
176
     1
 77
     6
176
     1
 78
     2
176
     1
 67
     7
176
     1
 79
     5
176
     1
170
     0
176
     1
171
     0
176
     1
290
     0
176
     1
 93
        1
176
     1
 44
0.0
176
     1
173
     0
176
     1
  0
VISUALSTYLE
  5
33
102
{ACAD_REACTORS
330
2A
102
}
330
2A
100
AcDbVisualStyle
  2
Realistic
 70
     8
177
     2
291
     0
 71
     2
176
     1
 72
     2
176
     1
 73
     0
176
     1
 90
        0
176
     1
 40
-0.6
176
     1
 41
-30.0
176
     1
 62
     5
 63
     7
421
 16777215
176
     1
 74
     1
176
     1
 91
        0
176
     1
 64
     7
176
     1
 65
   257
176
     1
 75
     1
176
     1
175
     1
176
     1
 42
1.0
176
     1
 92
        8
176
     1
 66
     8
424
  7895160
176
     1
 43
1.0
176
     1
 76
     1
176
     1
 77
     6
176
     1
 78
     2
176
     1
 67
     7
176
     1
 79
     5
176
     1
170
     0
176
     1
171
     0
176
     1
290
     0
176
     1
 93
       13
176
     1
 44
0.0
176
     1
173
     0
176
     1
  0
VISUALSTYLE
  5
37
102
{ACAD_REACTORS
330
2A
102
}
330
2A
100
AcDbVisualStyle
  2
Thicken
 70
    13
177
     2
291
     1
 71
     2
176
     1
 72
     2
176
     1
 73
     0
176
     1
 90
        0
176
     1
 40
-0.6
176
     1
 41
-30.0
176
     1
 62
     5
 63
     7
421
 16777215
176
     1
 74
     1
176
     1
 91
        4
176
     1
 64
     7
176
     1
 65
   257
176
     1
 75
     1
176
     1
175
     1
176
     1
 42
1.0
176
     1
 92
       12
176
     1
 66
     7
176
     1
 43
1.0
176
     1
 76
     1
176
     1
 77
     6
176
     1
 78
     2
176
     1
 67
     7
176
     1
 79
     5
176
     1
170
     0
176
     1
171
     0
176
     1
290
     0
176
     1
 93
        1
176
     1
 44
0.0
176
     1
173
     0
176
     1
  0
ENDSEC
  0
EOF
