  0
SECTION
  2
HEADER
  9
$ACADVER
  1
AC1024
  9
$ACADMAINTVER
 70
     6
  9
$DWGCODEPAGE
  3
ANSI_932
  9
$INSBASE
 10
0.0
 20
0.0
 30
0.0
  9
$EXTMIN
 10
-6300.0
 20
-4455.0
 30
0.0
  9
$EXTMAX
 10
6300.0
 20
4455.0
 30
0.0
  9
$LIMMIN
 10
-6300.0
 20
-4455.0
  9
$LIMMAX
 10
6300.0
 20
4455.0
  9
$ORTHOMODE
 70
     0
  9
$REGENMODE
 70
     1
  9
$FILLMODE
 70
     1
  9
$QTEXTMODE
 70
     0
  9
$MIRRTEXT
 70
     1
  9
$LTSCALE
 40
30.0
  9
$ATTMODE
 70
     1
  9
$TEXTSIZE
 40
2.5
  9
$TRACEWID
 40
1.0
  9
$TEXTSTYLE
  7
Standard
  9
$CLAYER
  8
0
  9
$CELTYPE
  6
ByLayer
  9
$CECOLOR
 62
   256
  9
$CELTSCALE
 40
1.0
  9
$DISPSILH
 70
     0
  9
$DIMSCALE
 40
1.0
  9
$DIMASZ
 40
2.5
  9
$DIMEXO
 40
0.625
  9
$DIMDLI
 40
3.75
  9
$DIMRND
 40
0.0
  9
$DIMDLE
 40
0.0
  9
$DIMEXE
 40
1.25
  9
$DIMTP
 40
0.0
  9
$DIMTM
 40
0.0
  9
$DIMTXT
 40
2.5
  9
$DIMCEN
 40
2.5
  9
$DIMTSZ
 40
0.0
  9
$DIMTOL
 70
     0
  9
$DIMLIM
 70
     0
  9
$DIMTIH
 70
     0
  9
$DIMTOH
 70
     0
  9
$DIMSE1
 70
     0
  9
$DIMSE2
 70
     0
  9
$DIMTAD
 70
     1
  9
$DIMZIN
 70
     8
  9
$DIMBLK
  1

  9
$DIMASO
 70
     1
  9
$DIMSHO
 70
     1
  9
$DIMPOST
  1

  9
$DIMAPOST
  1

  9
$DIMALT
 70
     0
  9
$DIMALTD
 70
     3
  9
$DIMALTF
 40
0.03937007874016
  9
$DIMLFAC
 40
1.0
  9
$DIMTOFL
 70
     1
  9
$DIMTVP
 40
0.0
  9
$DIMTIX
 70
     0
  9
$DIMSOXD
 70
     0
  9
$DIMSAH
 70
     0
  9
$DIMBLK1
  1

  9
$DIMBLK2
  1

  9
$DIMSTYLE
  2
ISO-25
  9
$DIMCLRD
 70
     0
  9
$DIMCLRE
 70
     0
  9
$DIMCLRT
 70
     0
  9
$DIMTFAC
 40
1.0
  9
$DIMGAP
 40
0.625
  9
$DIMJUST
 70
     0
  9
$DIMSD1
 70
     0
  9
$DIMSD2
 70
     0
  9
$DIMTOLJ
 70
     0
  9
$DIMTZIN
 70
     8
  9
$DIMALTZ
 70
     0
  9
$DIMALTTZ
 70
     0
  9
$DIMUPT
 70
     0
  9
$DIMDEC
 70
     2
  9
$DIMTDEC
 70
     2
  9
$DIMALTU
 70
     2
  9
$DIMALTTD
 70
     3
  9
$DIMTXSTY
  7
Standard
  9
$DIMAUNIT
 70
     0
  9
$DIMADEC
 70
     0
  9
$DIMALTRND
 40
0.0
  9
$DIMAZIN
 70
     0
  9
$DIMDSEP
 70
    44
  9
$DIMATFIT
 70
     3
  9
$DIMFRAC
 70
     0
  9
$DIMLDRBLK
  1

  9
$DIMLUNIT
 70
     2
  9
$DIMLWD
 70
    -2
  9
$DIMLWE
 70
    -2
  9
$DIMTMOVE
 70
     0
  9
$DIMFXL
 40
1.0
  9
$DIMFXLON
 70
     0
  9
$DIMJOGANG
 40
0.7853981633974483
  9
$DIMTFILL
 70
     0
  9
$DIMTFILLCLR
 70
     0
  9
$DIMARCSYM
 70
     0
  9
$DIMLTYPE
  6

  9
$DIMLTEX1
  6

  9
$DIMLTEX2
  6

  9
$DIMTXTDIRECTION
 70
     0
  9
$LUNITS
 70
     2
  9
$LUPREC
 70
     4
  9
$SKETCHINC
 40
1.0
  9
$FILLETRAD
 40
10.0
  9
$AUNITS
 70
     0
  9
$AUPREC
 70
     0
  9
$MENU
  1
.
  9
$ELEVATION
 40
0.0
  9
$PELEVATION
 40
0.0
  9
$THICKNESS
 40
0.0
  9
$LIMCHECK
 70
     0
  9
$CHAMFERA
 40
10.0
  9
$CHAMFERB
 40
10.0
  9
$CHAMFERC
 40
20.0
  9
$CHAMFERD
 40
0.0
  9
$SKPOLY
 70
     0
  9
$TDCREATE
 40
2459432.49059456
  9
$TDUCREATE
 40
2459432.11559456
  9
$TDUPDATE
 40
2459432.490594572
  9
$TDUUPDATE
 40
2459432.115594572
  9
$TDINDWG
 40
0.0000000116
  9
$TDUSRTIMER
 40
0.0000000116
  9
$USRTIMER
 70
     1
  9
$ANGBASE
 50
0.0
  9
$ANGDIR
 70
     0
  9
$PDMODE
 70
     0
  9
$PDSIZE
 40
0.0
  9
$PLINEWID
 40
0.0
  9
$SPLFRAME
 70
     0
  9
$SPLINETYPE
 70
     6
  9
$SPLINESEGS
 70
     8
  9
$HANDSEED
  5
5D6
  9
$SURFTAB1
 70
     6
  9
$SURFTAB2
 70
     6
  9
$SURFTYPE
 70
     6
  9
$SURFU
 70
     6
  9
$SURFV
 70
     6
  9
$UCSBASE
  2

  9
$UCSNAME
  2

  9
$UCSORG
 10
0.0
 20
0.0
 30
0.0
  9
$UCSXDIR
 10
1.0
 20
0.0
 30
0.0
  9
$UCSYDIR
 10
0.0
 20
1.0
 30
0.0
  9
$UCSORTHOREF
  2

  9
$UCSORTHOVIEW
 70
     0
  9
$UCSORGTOP
 10
0.0
 20
0.0
 30
0.0
  9
$UCSORGBOTTOM
 10
0.0
 20
0.0
 30
0.0
  9
$UCSORGLEFT
 10
0.0
 20
0.0
 30
0.0
  9
$UCSORGRIGHT
 10
0.0
 20
0.0
 30
0.0
  9
$UCSORGFRONT
 10
0.0
 20
0.0
 30
0.0
  9
$UCSORGBACK
 10
0.0
 20
0.0
 30
0.0
  9
$PUCSBASE
  2

  9
$PUCSNAME
  2

  9
$PUCSORG
 10
0.0
 20
0.0
 30
0.0
  9
$PUCSXDIR
 10
1.0
 20
0.0
 30
0.0
  9
$PUCSYDIR
 10
0.0
 20
1.0
 30
0.0
  9
$PUCSORTHOREF
  2

  9
$PUCSORTHOVIEW
 70
     0
  9
$PUCSORGTOP
 10
0.0
 20
0.0
 30
0.0
  9
$PUCSORGBOTTOM
 10
0.0
 20
0.0
 30
0.0
  9
$PUCSORGLEFT
 10
0.0
 20
0.0
 30
0.0
  9
$PUCSORGRIGHT
 10
0.0
 20
0.0
 30
0.0
  9
$PUCSORGFRONT
 10
0.0
 20
0.0
 30
0.0
  9
$PUCSORGBACK
 10
0.0
 20
0.0
 30
0.0
  9
$USERI1
 70
     0
  9
$USERI2
 70
     0
  9
$USERI3
 70
     0
  9
$USERI4
 70
     0
  9
$USERI5
 70
     0
  9
$USERR1
 40
0.0
  9
$USERR2
 40
0.0
  9
$USERR3
 40
0.0
  9
$USERR4
 40
0.0
  9
$USERR5
 40
0.0
  9
$WORLDVIEW
 70
     1
  9
$SHADEDGE
 70
     3
  9
$SHADEDIF
 70
    70
  9
$TILEMODE
 70
     1
  9
$MAXACTVP
 70
    64
  9
$PINSBASE
 10
0.0
 20
0.0
 30
0.0
  9
$PLIMCHECK
 70
     0
  9
$PEXTMIN
 10
1.000000000000000E+20
 20
1.000000000000000E+20
 30
1.000000000000000E+20
  9
$PEXTMAX
 10
-1.000000000000000E+20
 20
-1.000000000000000E+20
 30
-1.000000000000000E+20
  9
$PLIMMIN
 10
0.0
 20
0.0
  9
$PLIMMAX
 10
420.0
 20
297.0
  9
$UNITMODE
 70
     0
  9
$VISRETAIN
 70
     1
  9
$PLINEGEN
 70
     0
  9
$PSLTSCALE
 70
     1
  9
$TREEDEPTH
 70
  3020
  9
$CMLSTYLE
  2
Standard
  9
$CMLJUST
 70
     0
  9
$CMLSCALE
 40
20.0
  9
$PROXYGRAPHICS
 70
     1
  9
$MEASUREMENT
 70
     1
  9
$CELWEIGHT
370
    -1
  9
$ENDCAPS
280
     0
  9
$JOINSTYLE
280
     0
  9
$LWDISPLAY
290
     0
  9
$INSUNITS
 70
     4
  9
$HYPERLINKBASE
  1

  9
$STYLESHEET
  1

  9
$XEDIT
290
     1
  9
$CEPSNTYPE
380
     0
  9
$PSTYLEMODE
290
     1
  9
$FINGERPRINTGUID
  2
{C9AD5D84-E8E6-4433-B7C1-E9781BD2285B}
  9
$VERSIONGUID
  2
{FAEB1C32-E019-11D5-929B-00C0DF256EC4}
  9
$EXTNAMES
290
     1
  9
$PSVPSCALE
 40
0.0
  9
$OLESTARTUP
290
     0
  9
$SORTENTS
280
   127
  9
$INDEXCTL
280
     0
  9
$HIDETEXT
280
     1
  9
$XCLIPFRAME
280
     2
  9
$HALOGAP
280
     0
  9
$OBSCOLOR
 70
   257
  9
$OBSLTYPE
280
     0
  9
$INTERSECTIONDISPLAY
280
     0
  9
$INTERSECTIONCOLOR
 70
   257
  9
$DIMASSOC
280
     2
  9
$PROJECTNAME
  1

  9
$CAMERADISPLAY
290
     0
  9
$LENSLENGTH
 40
50.0
  9
$CAMERAHEIGHT
 40
0.0
  9
$STEPSPERSEC
 40
2.0
  9
$STEPSIZE
 40
6.0
  9
$3DDWFPREC
 40
2.0
  9
$PSOLWIDTH
 40
5.0
  9
$PSOLHEIGHT
 40
80.0
  9
$LOFTANG1
 40
1.570796326794897
  9
$LOFTANG2
 40
1.570796326794897
  9
$LOFTMAG1
 40
0.0
  9
$LOFTMAG2
 40
0.0
  9
$LOFTPARAM
 70
     7
  9
$LOFTNORMALS
280
     1
  9
$LATITUDE
 40
37.795
  9
$LONGITUDE
 40
-122.394
  9
$NORTHDIRECTION
 40
0.0
  9
$TIMEZONE
 70
 -8000
  9
$LIGHTGLYPHDISPLAY
280
     1
  9
$TILEMODELIGHTSYNCH
280
     1
  9
$SOLIDHIST
280
     1
  9
$SHOWHIST
280
     1
  9
$DWFFRAME
280
     2
  9
$DGNFRAME
280
     2
  9
$REALWORLDSCALE
290
     1
  9
$INTERFERECOLOR
 62
   256
  9
$CSHADOW
280
     0
  9
$SHADOWPLANELOCATION
 40
0.0
  0
ENDSEC
  0
SECTION
  2
CLASSES
  0
CLASS
  1
ACDBDICTIONARYWDFLT
  2
AcDbDictionaryWithDefault
  3
ObjectDBX Classes
 90
        0
 91
        4
280
     0
281
     0
  0
CLASS
  1
VISUALSTYLE
  2
AcDbVisualStyle
  3
ObjectDBX Classes
 90
     4095
 91
        4
280
     0
281
     0
  0
CLASS
  1
MATERIAL
  2
AcDbMaterial
  3
ObjectDBX Classes
 90
     1153
 91
        4
280
     0
281
     0
  0
ENDSEC
  0
SECTION
  2
TABLES
  0
TABLE
  2
VPORT
  5
8
330
0
100
AcDbSymbolTable
 70
     1
  0
VPORT
  5
29
330
8
100
AcDbSymbolTableRecord
100
AcDbViewportTableRecord
  2
*Active
 70
     0
 10
0.0
 20
0.0
 11
1.0
 21
1.0
 12
0.0
 22
0.0
 13
0.0
 23
0.0
 14
10.0
 24
10.0
 15
10.0
 25
10.0
 16
0.0
 26
0.0
 36
1.0
 17
0.0
 27
0.0
 37
0.0
 40
9801.0
 41
1.414141414141414
 42
50.0
 43
0.0
 44
0.0
 50
0.0
 51
0.0
 71
     0
 72
 10000
 73
     1
 74
     3
 75
     0
 76
     0
 77
     0
 78
     0
281
     0
 65
     1
110
0.0
120
0.0
130
0.0
111
1.0
121
0.0
131
0.0
112
0.0
122
1.0
132
0.0
 79
     0
146
0.0
 60
     3
 61
     5
292
     1
282
     1
141
0.0
142
0.0
 63
   250
  0
ENDTAB
  0
TABLE
  2
LTYPE
  5
5
330
0
100
AcDbSymbolTable
 70
     4
  0
LTYPE
  5
14
330
5
100
AcDbSymbolTableRecord
100
AcDbLinetypeTableRecord
  2
ByBlock
 70
     0
  3

 72
    65
 73
     0
 40
0.0
  0
LTYPE
  5
15
330
5
100
AcDbSymbolTableRecord
100
AcDbLinetypeTableRecord
  2
ByLayer
 70
     0
  3

 72
    65
 73
     0
 40
0.0
  0
LTYPE
  5
16
330
5
100
AcDbSymbolTableRecord
100
AcDbLinetypeTableRecord
  2
Continuous
 70
     0
  3
Solid line
 72
    65
 73
     0
 40
0.0
  0
LTYPE
  5
3F
330
5
100
AcDbSymbolTableRecord
100
AcDbLinetypeTableRecord
  2
JWW_HOJO
 70
     0
  3
  -   -   -   -   -   -   -   - 
 72
    65
 73
     2
 40
1.693333333333333
 49
-1.27
 74
     0
 49
0.4233333333333333
 74
     0
  0
LTYPE
  5
40
330
5
100
AcDbSymbolTableRecord
100
AcDbLinetypeTableRecord
  2
JWW_CENTER1
 70
     0
  3
-----  --  ----------  --  -----
 72
    65
 73
     4
 40
6.773333333333333
 49
4.233333333333333
 74
     0
 49
-0.8466666666666667
 74
     0
 49
0.8466666666666667
 74
     0
 49
-0.8466666666666667
 74
     0
  0
LTYPE
  5
41
330
5
100
AcDbSymbolTableRecord
100
AcDbLinetypeTableRecord
  2
JWW_DASHED1
 70
     0
  3
-  --  --  --  --  --  --  --  -
 72
    65
 73
     2
 40
0.3386666666666667
 49
0.1693333333333333
 74
     0
 49
-0.1693333333333333
 74
     0
  0
ENDTAB
  0
TABLE
  2
LAYER
  5
2
330
0
100
AcDbSymbolTable
 70
    13
  0
LAYER
  5
10
330
2
100
AcDbSymbolTableRecord
100
AcDbLayerTableRecord
  2
0
 70
     0
 62
     7
  6
Continuous
370
    -3
390
F
347
3E
  0
LAYER
  5
42
330
2
100
AcDbSymbolTableRecord
100
AcDbLayerTableRecord
  2
0-3_仕上げ
 70
     0
 62
     7
  6
Continuous
370
    -3
390
F
347
3E
  0
LAYER
  5
43
330
2
100
AcDbSymbolTableRecord
100
AcDbLayerTableRecord
  2
F-1_枠
 70
     0
 62
     7
  6
Continuous
370
    -3
390
F
347
3E
  0
LAYER
  5
44
330
2
100
AcDbSymbolTableRecord
100
AcDbLayerTableRecord
  2
F-0_補助線
 70
     0
 62
     7
  6
Continuous
370
    -3
390
F
347
3E
  0
LAYER
  5
45
330
2
100
AcDbSymbolTableRecord
100
AcDbLayerTableRecord
  2
0-B_寸法
 70
     0
 62
     7
  6
Continuous
370
    -3
390
F
347
3E
  0
LAYER
  5
46
330
2
100
AcDbSymbolTableRecord
100
AcDbLayerTableRecord
  2
0-0_補助線
 70
     0
 62
     7
  6
Continuous
370
    -3
390
F
347
3E
  0
LAYER
  5
47
330
2
100
AcDbSymbolTableRecord
100
AcDbLayerTableRecord
  2
F-A_文字
 70
     0
 62
     7
  6
Continuous
370
    -3
390
F
347
3E
  0
LAYER
  5
48
330
2
100
AcDbSymbolTableRecord
100
AcDbLayerTableRecord
  2
0-4_枠
 70
     0
 62
     7
  6
Continuous
370
    -3
390
F
347
3E
  0
LAYER
  5
49
330
2
100
AcDbSymbolTableRecord
100
AcDbLayerTableRecord
  2
0-1_通り芯
 70
     0
 62
     7
  6
Continuous
370
    -3
390
F
347
3E
  0
LAYER
  5
4A
330
2
100
AcDbSymbolTableRecord
100
AcDbLayerTableRecord
  2
0-2_扉
 70
     0
 62
     7
  6
Continuous
370
    -3
390
F
347
3E
  0
LAYER
  5
4B
330
2
100
AcDbSymbolTableRecord
100
AcDbLayerTableRecord
  2
引手
 70
     0
 62
     7
  6
Continuous
370
    -3
390
F
347
3E
  0
LAYER
  5
4C
330
2
100
AcDbSymbolTableRecord
100
AcDbLayerTableRecord
  2
0-A_文字
 70
     0
 62
     7
  6
Continuous
370
    -3
390
F
347
3E
  0
LAYER
  5
4D
330
2
100
AcDbSymbolTableRecord
100
AcDbLayerTableRecord
  2
0-C_ハッチ
 70
     0
 62
     7
  6
Continuous
370
    -3
390
F
347
3E
  0
ENDTAB
  0
TABLE
  2
STYLE
  5
3
330
0
100
AcDbSymbolTable
 70
     1
  0
STYLE
  5
11
330
3
100
AcDbSymbolTableRecord
100
AcDbTextStyleTableRecord
  2
Standard
 70
     0
 40
0.0
 41
1.0
 50
0.0
 71
     0
 42
2.5
  3
txt
  4

  0
ENDTAB
  0
TABLE
  2
VIEW
  5
6
330
0
100
AcDbSymbolTable
 70
     0
  0
ENDTAB
  0
TABLE
  2
UCS
  5
7
330
0
100
AcDbSymbolTable
 70
     0
  0
ENDTAB
  0
TABLE
  2
APPID
  5
9
330
0
100
AcDbSymbolTable
 70
     1
  0
APPID
  5
12
330
9
100
AcDbSymbolTableRecord
100
AcDbRegAppTableRecord
  2
ACAD
 70
     0
  0
ENDTAB
  0
TABLE
  2
DIMSTYLE
  5
A
330
0
100
AcDbSymbolTable
 70
     1
100
AcDbDimStyleTable
  0
DIMSTYLE
105
27
330
A
100
AcDbSymbolTableRecord
100
AcDbDimStyleTableRecord
  2
ISO-25
 70
     0
 41
2.5
 42
0.625
 43
3.75
 44
1.25
 73
     0
 74
     0
 77
     1
 78
     8
140
2.5
141
2.5
143
0.03937007874016
147
0.625
171
     3
172
     1
178
     0
271
     2
272
     2
274
     3
278
    44
283
     0
284
     8
340
11
  0
ENDTAB
  0
TABLE
  2
BLOCK_RECORD
  5
1
330
0
100
AcDbSymbolTable
 70
     1
  0
BLOCK_RECORD
  5
1F
330
1
100
AcDbSymbolTableRecord
100
AcDbBlockTableRecord
  2
*Model_Space
340
22
 70
     0
280
     1
281
     0
  0
BLOCK_RECORD
  5
1B
330
1
100
AcDbSymbolTableRecord
100
AcDbBlockTableRecord
  2
*Paper_Space
340
1E
 70
     0
280
     1
281
     0
  0
BLOCK_RECORD
  5
23
330
1
100
AcDbSymbolTableRecord
100
AcDbBlockTableRecord
  2
*Paper_Space0
340
26
 70
     0
280
     1
281
     0
  0
ENDTAB
  0
ENDSEC
  0
SECTION
  2
BLOCKS
  0
BLOCK
  5
20
330
1F
100
AcDbEntity
  8
0
100
AcDbBlockBegin
  2
*Model_Space
 70
     0
 10
0.0
 20
0.0
 30
0.0
  3
*Model_Space
  1

  0
ENDBLK
  5
21
330
1F
100
AcDbEntity
  8
0
100
AcDbBlockEnd
  0
BLOCK
  5
1C
330
1B
100
AcDbEntity
 67
     1
  8
0
100
AcDbBlockBegin
  2
*Paper_Space
 70
     0
 10
0.0
 20
0.0
 30
0.0
  3
*Paper_Space
  1

  0
ENDBLK
  5
1D
330
1B
100
AcDbEntity
 67
     1
  8
0
100
AcDbBlockEnd
  0
BLOCK
  5
24
330
23
100
AcDbEntity
  8
0
100
AcDbBlockBegin
  2
*Paper_Space0
 70
     0
 10
0.0
 20
0.0
 30
0.0
  3
*Paper_Space0
  1

  0
ENDBLK
  5
25
330
23
100
AcDbEntity
  8
0
100
AcDbBlockEnd
  0
ENDSEC
  0
SECTION
  2
ENTITIES
  0
LINE
  5
4E
330
1F
100
AcDbEntity
  8
0-3_仕上げ
  6
Continuous
 62
     7
370
     9
100
AcDbLine
 10
-1866.500269606307
 20
3286.000148463894
 30
0.0
 11
-1259.500269606305
 21
3286.000148463894
 31
0.0
  0
LINE
  5
4F
330
1F
100
AcDbEntity
  8
0-3_仕上げ
  6
Continuous
 62
    92
370
    13
100
AcDbLine
 10
-3760.50001855799
 20
3274.000148463893
 30
0.0
 11
-3499.000018557989
 21
3274.000148463893
 31
0.0
  0
LINE
  5
50
330
1F
100
AcDbEntity
  8
F-1_枠
  6
Continuous
 62
   200
370
    20
100
AcDbLine
 10
-5999.999752560178
 20
4174.999769056166
 30
0.0
 11
5699.998762800888
 21
4174.999769056166
 31
0.0
  0
LINE
  5
51
330
1F
100
AcDbEntity
  8
F-0_補助線
  6
JWW_HOJO
 62
   120
370
     5
100
AcDbLine
 10
-6300.0
 20
-4455.0
 30
0.0
 11
-6300.0
 21
4424.999604096284
 31
0.0
  0
LINE
  5
52
330
1F
100
AcDbEntity
  8
F-0_補助線
  6
JWW_HOJO
 62
   120
370
     5
100
AcDbLine
 10
5999.999010240709
 20
4424.999604096284
 30
0.0
 11
5999.999010240709
 21
-4455.0
 31
0.0
  0
LINE
  5
53
330
1F
100
AcDbEntity
  8
F-0_補助線
  6
JWW_HOJO
 62
   120
370
     5
100
AcDbLine
 10
5999.999010240709
 20
-4455.0
 30
0.0
 11
-6300.0
 21
-4455.0
 31
0.0
  0
LINE
  5
54
330
1F
100
AcDbEntity
  8
F-1_枠
  6
Continuous
 62
   200
370
    20
100
AcDbLine
 10
-5999.999752560178
 20
4164.999983504013
 30
0.0
 11
5699.998762800888
 21
4164.999983504013
 31
0.0
  0
LINE
  5
55
330
1F
100
AcDbEntity
  8
F-1_枠
  6
Continuous
 62
   200
370
    20
100
AcDbLine
 10
-5999.999752560178
 20
4169.999505120355
 30
0.0
 11
5699.998762800888
 21
4169.999505120355
 31
0.0
  0
LINE
  5
56
330
1F
100
AcDbEntity
  8
F-1_枠
  6
Continuous
 62
   200
370
    20
100
AcDbLine
 10
5689.998977248734
 20
4174.999769056166
 30
0.0
 11
5689.998977248734
 21
-4205.000164959882
 31
0.0
  0
LINE
  5
57
330
1F
100
AcDbEntity
  8
F-1_枠
  6
Continuous
 62
   200
370
    20
100
AcDbLine
 10
5694.998498865077
 20
4174.999769056166
 30
0.0
 11
5694.998498865077
 21
-4205.000164959882
 31
0.0
  0
LINE
  5
58
330
1F
100
AcDbEntity
  8
F-1_枠
  6
Continuous
 62
   200
370
    20
100
AcDbLine
 10
5699.998762800888
 20
4174.999769056166
 30
0.0
 11
5699.998762800888
 21
-4205.000164959882
 31
0.0
  0
LINE
  5
59
330
1F
100
AcDbEntity
  8
F-1_枠
  6
Continuous
 62
   200
370
    20
100
AcDbLine
 10
-5989.999990205507
 20
4174.999769056166
 30
0.0
 11
-5989.999990205507
 21
-4205.000164959882
 31
0.0
  0
LINE
  5
5A
330
1F
100
AcDbEntity
  8
F-1_枠
  6
Continuous
 62
   200
370
    20
100
AcDbLine
 10
-5994.999975771518
 20
4174.999769056166
 30
0.0
 11
-5994.999975771518
 21
-4205.000164959882
 31
0.0
  0
LINE
  5
5B
330
1F
100
AcDbEntity
  8
F-1_枠
  6
Continuous
 62
   200
370
    20
100
AcDbLine
 10
-5999.99998453501
 20
4174.999769056166
 30
0.0
 11
-5999.99998453501
 21
-4205.000164959882
 31
0.0
  0
LINE
  5
5C
330
1F
100
AcDbEntity
  8
F-1_枠
  6
Continuous
 62
   200
370
    20
100
AcDbLine
 10
-5490.000018557986
 20
4174.999769056166
 30
0.0
 11
-5490.000018557986
 21
-3790.000179909372
 31
0.0
  0
LINE
  5
5D
330
1F
100
AcDbEntity
  8
F-0_補助線
  6
JWW_HOJO
 62
   120
370
     5
100
AcDbLine
 10
-6300.0
 20
4424.999604096284
 30
0.0
 11
5999.999010240709
 21
4424.999604096284
 31
0.0
  0
LINE
  5
5E
330
1F
100
AcDbEntity
  8
F-0_補助線
  6
JWW_HOJO
 62
     7
370
     9
100
AcDbLine
 10
849.9995876002961
 20
-3795.000003092998
 30
0.0
 11
849.9995876002961
 21
-4195.000008247994
 31
0.0
  0
LINE
  5
5F
330
1F
100
AcDbEntity
  8
F-0_補助線
  6
JWW_HOJO
 62
     7
370
     9
100
AcDbLine
 10
349.9999175200594
 20
-3795.000003092998
 30
0.0
 11
349.9999175200594
 21
-4195.000008247994
 31
0.0
  0
LINE
  5
60
330
1F
100
AcDbEntity
  8
F-1_枠
  6
Continuous
 62
   200
370
    20
100
AcDbLine
 10
5699.998762800888
 20
-4205.000002577498
 30
0.0
 11
-5999.999752560178
 21
-4205.000002577498
 31
0.0
  0
LINE
  5
61
330
1F
100
AcDbEntity
  8
F-1_枠
  6
Continuous
 62
   200
370
    20
100
AcDbLine
 10
5699.998762800888
 20
-4199.999993814004
 30
0.0
 11
-5999.999752560178
 21
-4199.999993814004
 31
0.0
  0
LINE
  5
62
330
1F
100
AcDbEntity
  8
F-1_枠
  6
Continuous
 62
   200
370
    20
100
AcDbLine
 10
5699.998762800888
 20
-4195.000008247994
 30
0.0
 11
-5999.999752560178
 21
-4195.000008247994
 31
0.0
  0
LINE
  5
63
330
1F
100
AcDbEntity
  8
F-1_枠
  6
Continuous
 62
   200
370
    20
100
AcDbLine
 10
4189.999224688556
 20
-3795.000003092998
 30
0.0
 11
4189.999224688556
 21
-4195.000008247994
 31
0.0
  0
LINE
  5
64
330
1F
100
AcDbEntity
  8
F-1_枠
  6
Continuous
 62
   200
370
    20
100
AcDbLine
 10
2689.998729808911
 20
-3795.000003092998
 30
0.0
 11
2689.998729808911
 21
-4195.000008247994
 31
0.0
  0
LINE
  5
65
330
1F
100
AcDbEntity
  8
F-1_枠
  6
Continuous
 62
   200
370
    20
100
AcDbLine
 10
-150.0001237199109
 20
-3795.000003092998
 30
0.0
 11
-150.0001237199109
 21
-4195.000008247994
 31
0.0
  0
LINE
  5
66
330
1F
100
AcDbEntity
  8
F-1_枠
  6
Continuous
 62
   200
370
    20
100
AcDbLine
 10
-150.0001237199109
 20
-3994.999936078046
 30
0.0
 11
5689.998977248734
 21
-3995.005364289155
 31
0.0
  0
LINE
  5
67
330
1F
100
AcDbEntity
  8
F-0_補助線
  6
JWW_HOJO
 62
     7
370
     9
100
AcDbLine
 10
-5989.999990205507
 20
-3994.99993607839
 30
0.0
 11
-150.0001237199109
 21
-3994.99993607839
 31
0.0
  0
LINE
  5
68
330
1F
100
AcDbEntity
  8
F-0_補助線
  6
JWW_HOJO
 62
     7
370
     9
100
AcDbLine
 10
-5989.999990205507
 20
-3904.99993607839
 30
0.0
 11
-150.0001237199109
 21
-3904.99993607839
 31
0.0
  0
LINE
  5
69
330
1F
100
AcDbEntity
  8
F-0_補助線
  6
JWW_HOJO
 62
     7
370
     9
100
AcDbLine
 10
-5989.999990205507
 20
-4084.99993607839
 30
0.0
 11
-150.0001237199109
 21
-4084.99993607839
 31
0.0
  0
LINE
  5
6A
330
1F
100
AcDbEntity
  8
F-0_補助線
  6
JWW_HOJO
 62
     7
370
     9
100
AcDbLine
 10
-150.0002584955388
 20
-4139.999739777983
 30
0.0
 11
5689.998842473105
 21
-4140.005167989091
 31
0.0
  0
LINE
  5
6B
330
1F
100
AcDbEntity
  8
F-0_補助線
  6
JWW_HOJO
 62
     7
370
     9
100
AcDbLine
 10
-150.0001748415872
 20
-4049.999739778022
 30
0.0
 11
5689.998926127057
 21
-4050.005167989131
 31
0.0
  0
LINE
  5
6C
330
1F
100
AcDbEntity
  8
F-0_補助線
  6
JWW_HOJO
 62
     7
370
     9
100
AcDbLine
 10
-150.0000725978671
 20
-3939.99973721807
 30
0.0
 11
5689.999028370777
 21
-3940.005165429179
 31
0.0
  0
LINE
  5
6D
330
1F
100
AcDbEntity
  8
F-0_補助線
  6
JWW_HOJO
 62
     7
370
     9
100
AcDbLine
 10
-149.9999889439155
 20
-3849.999737218109
 30
0.0
 11
5689.999112024728
 21
-3850.005165429218
 31
0.0
  0
LINE
  5
6E
330
1F
100
AcDbEntity
  8
F-0_補助線
  6
JWW_HOJO
 62
     7
370
     9
100
AcDbLine
 10
2779.998729808911
 20
-3795.000003092998
 30
0.0
 11
2779.998729808911
 21
-4195.000008247994
 31
0.0
  0
LINE
  5
6F
330
1F
100
AcDbEntity
  8
F-0_補助線
  6
JWW_HOJO
 62
     7
370
     9
100
AcDbLine
 10
-60.0001237199109
 20
-3795.000003092998
 30
0.0
 11
-60.0001237199109
 21
-4195.000008247994
 31
0.0
  0
LINE
  5
70
330
1F
100
AcDbEntity
  8
F-0_補助線
  6
JWW_HOJO
 62
     7
370
     9
100
AcDbLine
 10
4279.999224688556
 20
-3795.000003092998
 30
0.0
 11
4279.999224688556
 21
-4195.000008247994
 31
0.0
  0
MTEXT
  5
71
330
1F
100
AcDbEntity
  8
0-B_寸法
  6
Continuous
 62
     7
370
    70
100
AcDbMText
 10
-5105.000018557985
 20
2220.325148463894
 30
0.0
 40
57.14999999999999
 41
412.5
 46
0.0
 71
     7
 72
     1
  1
{\fＭＳ ゴシック|b0|i0|c128|p49;ＤＨ＝1,983}
 11
6.123031769111886E-17
 21
1.0
 31
0.0
 73
     1
 44
1.0
  0
MTEXT
  5
72
330
1F
100
AcDbEntity
  8
0-B_寸法
  6
Continuous
 62
     7
370
    70
100
AcDbMText
 10
-2310.000269606307
 20
2220.325148463894
 30
0.0
 40
57.14999999999999
 41
412.5
 46
0.0
 71
     7
 72
     1
  1
{\fＭＳ ゴシック|b0|i0|c128|p49;ＤＨ＝1,983}
 11
6.123031769111886E-17
 21
1.0
 31
0.0
 73
     1
 44
1.0
  0
LINE
  5
73
330
1F
100
AcDbEntity
  8
F-0_補助線
  6
JWW_HOJO
 62
     7
370
     9
100
AcDbLine
 10
-5247.547376752838
 20
-3795.000003092999
 30
0.0
 11
-5247.547376752838
 21
-4205.000164959882
 31
0.0
  0
LINE
  5
74
330
1F
100
AcDbEntity
  8
F-0_補助線
  6
JWW_HOJO
 62
     7
370
     9
100
AcDbLine
 10
-210.0001237199109
 20
-3795.000003092998
 30
0.0
 11
-210.0001237199109
 21
-4195.000008247994
 31
0.0
  0
MTEXT
  5
75
330
1F
100
AcDbEntity
  8
0-B_寸法
  6
Continuous
 62
     7
370
   211
100
AcDbMText
 10
-3611.750018557989
 20
1174.075148463894
 30
0.0
 40
57.15
 41
337.5
 46
0.0
 71
     7
 72
     1
  1
{\fＭＳ ゴシック|b0|i0|c128|p49;ＤＷ＝900}
 73
     1
 44
1.0
  0
MTEXT
  5
76
330
1F
100
AcDbEntity
  8
0-B_寸法
  6
Continuous
 62
     7
370
   211
100
AcDbMText
 10
-951.750269606307
 20
1174.075148463894
 30
0.0
 40
57.15
 41
337.5
 46
0.0
 71
     7
 72
     1
  1
{\fＭＳ ゴシック|b0|i0|c128|p49;ＤＷ＝810}
 73
     1
 44
1.0
  0
LINE
  5
77
330
1F
100
AcDbEntity
  8
0-0_補助線
  6
JWW_HOJO
 62
     7
370
     9
100
AcDbLine
 10
-5490.000018557986
 20
3465.000148463894
 30
0.0
 11
5689.998977248734
 21
3465.000148463894
 31
0.0
  0
LINE
  5
78
330
1F
100
AcDbEntity
  8
0-0_補助線
  6
JWW_HOJO
 62
     7
370
     9
100
AcDbLine
 10
-5490.000018557986
 20
1418.000148463893
 30
0.0
 11
5689.998977248734
 21
1418.000148463893
 31
0.0
  0
LINE
  5
79
330
1F
100
AcDbEntity
  8
0-0_補助線
  6
JWW_HOJO
 62
     7
370
     9
100
AcDbLine
 10
-5490.000018557986
 20
-2701.250083820241
 30
0.0
 11
5699.998762800888
 21
-2701.250083820241
 31
0.0
  0
LINE
  5
7A
330
1F
100
AcDbEntity
  8
0-0_補助線
  6
JWW_HOJO
 62
   120
370
     5
100
AcDbLine
 10
-5490.000018557986
 20
-2751.250083820241
 30
0.0
 11
5699.998762800888
 21
-2751.250083820241
 31
0.0
  0
LINE
  5
7B
330
1F
100
AcDbEntity
  8
0-0_補助線
  6
JWW_HOJO
 62
     7
370
     9
100
AcDbLine
 10
-5490.000018557986
 20
1168.000148463894
 30
0.0
 11
5689.998977248734
 21
1168.000148463894
 31
0.0
  0
LINE
  5
7C
330
1F
100
AcDbEntity
  8
0-0_補助線
  6
JWW_HOJO
 62
     7
370
     9
100
AcDbLine
 10
-5490.000018557986
 20
-2951.250083820241
 30
0.0
 11
5699.998762800888
 21
-2951.250083820241
 31
0.0
  0
LINE
  5
7D
330
1F
100
AcDbEntity
  8
0-0_補助線
  6
JWW_HOJO
 62
     7
370
     9
100
AcDbLine
 10
-5490.000018557986
 20
-454.2500838202386
 30
0.0
 11
5699.998762800888
 21
-454.2500838202386
 31
0.0
  0
LINE
  5
7E
330
1F
100
AcDbEntity
  8
F-1_枠
  6
Continuous
 62
   200
370
    20
100
AcDbLine
 10
5699.998762800888
 20
-3795.000003092998
 30
0.0
 11
-5999.99998453501
 21
-3795.000003092998
 31
0.0
  0
LINE
  5
7F
330
1F
100
AcDbEntity
  8
F-1_枠
  6
Continuous
 62
   200
370
    20
100
AcDbLine
 10
-5999.99998453501
 20
3964.999818544131
 30
0.0
 11
5699.998762800888
 21
3964.999818544131
 31
0.0
  0
LINE
  5
80
330
1F
100
AcDbEntity
  8
F-1_枠
  6
Continuous
 62
   200
370
    20
100
AcDbLine
 10
5699.998762800888
 20
-3790.000017526987
 30
0.0
 11
-5999.99998453501
 21
-3790.000017526987
 31
0.0
  0
LINE
  5
81
330
1F
100
AcDbEntity
  8
F-1_枠
  6
Continuous
 62
   200
370
    20
100
AcDbLine
 10
-5999.99998453501
 20
190.5001831054688
 30
0.0
 11
5699.998762800888
 21
190.5001831054688
 31
0.0
  0
LINE
  5
82
330
1F
100
AcDbEntity
  8
F-1_枠
  6
Continuous
 62
   200
370
    20
100
AcDbLine
 10
-5999.99998453501
 20
-15.50015011349217
 30
0.0
 11
5699.998762800888
 21
-15.50015011349217
 31
0.0
  0
LINE
  5
83
330
1F
100
AcDbEntity
  8
F-1_枠
  6
Continuous
 62
   200
370
    20
100
AcDbLine
 10
-5999.99998453501
 20
184.5000148463899
 30
0.0
 11
5699.998762800888
 21
184.5000148463899
 31
0.0
  0
LINE
  5
84
330
1F
100
AcDbEntity
  8
F-1_枠
  6
Continuous
 62
   200
370
    20
100
AcDbLine
 10
-5999.99998453501
 20
187.5000989759289
 30
0.0
 11
5699.998762800888
 21
187.5000989759289
 31
0.0
  0
MTEXT
  5
85
330
1F
100
AcDbEntity
  8
F-A_文字
  6
Continuous
 62
     7
370
     9
100
AcDbMText
 10
-5890.000004381747
 20
4018.575148463894
 30
0.0
 40
57.15
 41
300.0
 46
0.0
 71
     7
 72
     1
  1
{\fＭＳ ゴシック|b0|i0|c128|p49;デザイン}
 73
     1
 44
1.0
  0
MTEXT
  5
86
330
1F
100
AcDbEntity
  8
F-A_文字
  6
Continuous
 62
     7
370
     9
100
AcDbMText
 10
-5852.500004381747
 20
2031.325062684755
 30
0.0
 40
57.15
 41
225.0
 46
0.0
 71
     7
 72
     1
  1
{\fＭＳ ゴシック|b0|i0|c128|p49;姿　図}
 73
     1
 44
1.0
  0
MTEXT
  5
87
330
1F
100
AcDbEntity
  8
F-A_文字
  6
Continuous
 62
     7
370
     9
100
AcDbMText
 10
-5890.000004381747
 20
38.07493236644844
 30
0.0
 40
57.15
 41
300.0
 46
0.0
 71
     7
 72
     1
  1
{\fＭＳ ゴシック|b0|i0|c128|p49;デザイン}
 73
     1
 44
1.0
  0
LINE
  5
88
330
1F
100
AcDbEntity
  8
F-1_枠
  6
Continuous
 62
   200
370
    20
100
AcDbLine
 10
99.99947934537431
 20
-3790.000179909372
 30
0.0
 11
99.99947934537431
 21
4174.999769056166
 31
0.0
  0
LINE
  5
89
330
1F
100
AcDbEntity
  8
F-1_枠
  6
Continuous
 62
   200
370
    20
100
AcDbLine
 10
-2695.000269606307
 20
-3790.000179909372
 30
0.0
 11
-2695.000269606307
 21
4174.999769056166
 31
0.0
  0
LINE
  5
8A
330
1F
100
AcDbEntity
  8
F-A_文字
  6
Continuous
 62
     7
370
     9
100
AcDbLine
 10
-2695.000269606307
 20
184.5000148463899
 30
0.0
 11
-5490.000018557986
 21
-3790.000017526987
 31
0.0
  0
LINE
  5
8B
330
1F
100
AcDbEntity
  8
F-A_文字
  6
Continuous
 62
     7
370
     9
100
AcDbLine
 10
99.99947934537431
 20
184.5000148463899
 30
0.0
 11
-2695.000176816373
 21
-3790.000017526987
 31
0.0
  0
LINE
  5
8C
330
1F
100
AcDbEntity
  8
F-A_文字
  6
Continuous
 62
     7
370
     9
100
AcDbLine
 10
2894.999228297052
 20
184.5000148463899
 30
0.0
 11
99.99987274480532
 21
-3790.000179909372
 31
0.0
  0
LINE
  5
8D
330
1F
100
AcDbEntity
  8
F-A_文字
  6
Continuous
 62
     7
370
     9
100
AcDbLine
 10
2894.999321086989
 20
-3790.000017526987
 30
0.0
 11
5689.998977248734
 21
184.5000148463899
 31
0.0
  0
LINE
  5
8E
330
1F
100
AcDbEntity
  8
F-A_文字
  6
Continuous
 62
     7
370
     9
100
AcDbLine
 10
2894.999228297052
 20
4164.999983504013
 30
0.0
 11
99.99987274480532
 21
190.499788748252
 31
0.0
  0
LINE
  5
8F
330
1F
100
AcDbEntity
  8
F-A_文字
  6
Continuous
 62
     7
370
     9
100
AcDbLine
 10
2894.999321086989
 20
190.499951130636
 30
0.0
 11
5689.998977248734
 21
4164.999983504013
 31
0.0
  0
LINE
  5
90
330
1F
100
AcDbEntity
  8
F-1_枠
  6
Continuous
 62
   200
370
    20
100
AcDbLine
 10
2894.999228297052
 20
-3790.000179909372
 30
0.0
 11
2894.999228297052
 21
4174.999769056166
 31
0.0
  0
MTEXT
  5
91
330
1F
100
AcDbEntity
  8
F-A_文字
  6
Continuous
 62
     7
370
     9
100
AcDbMText
 10
-5852.500004381747
 20
-1949.175091552734
 30
0.0
 40
57.15
 41
225.0
 46
0.0
 71
     7
 72
     1
  1
{\fＭＳ ゴシック|b0|i0|c128|p49;姿　図}
 73
     1
 44
1.0
  0
MTEXT
  5
92
330
1F
100
AcDbEntity
  8
F-A_文字
  6
Continuous
 62
     7
370
     0
100
AcDbMText
 10
-60.0001237199109
 20
-3887.139820871936
 30
0.0
 40
45.72
 41
180.0
 46
0.0
 71
     7
 72
     1
  1
{\fＭＳ ゴシック|b0|i0|c128|p49;図面名}
 73
     1
 44
1.0
  0
MTEXT
  5
93
330
1F
100
AcDbEntity
  8
F-A_文字
  6
Continuous
 62
     7
370
     0
100
AcDbMText
 10
2779.998729808911
 20
-3887.142460617774
 30
0.0
 40
45.72
 41
300.0
 46
0.0
 71
     7
 72
     1
  1
{\fＭＳ ゴシック|b0|i0|c128|p49;ＳＣＡＬＥ}
 73
     1
 44
1.0
  0
MTEXT
  5
94
330
1F
100
AcDbEntity
  8
F-A_文字
  6
Continuous
 62
     7
370
     0
100
AcDbMText
 10
4279.999224688556
 20
-3887.143854850754
 30
0.0
 40
45.72
 41
240.0
 46
0.0
 71
     7
 72
     1
  1
{\fＭＳ ゴシック|b0|i0|c128|p49;ＤＡＴＥ}
 73
     1
 44
1.0
  0
MTEXT
  5
95
330
1F
100
AcDbEntity
  8
F-A_文字
  6
Continuous
 62
     7
370
     0
100
AcDbMText
 10
1180.417701903719
 20
-3946.423911599839
 30
0.0
 40
77.15249999999999
 41
405.0
 46
0.0
 71
     7
 72
     1
  1
{\fＭＳ ゴシック|b0|i0|c128|p49;建具姿図}
 73
     1
 44
1.0
  0
MTEXT
  5
96
330
1F
100
AcDbEntity
  8
F-A_文字
  6
Continuous
 62
     7
370
     0
100
AcDbMText
 10
2779.998729808911
 20
-4087.14246317786
 30
0.0
 40
45.72
 41
240.0
 46
0.0
 71
     7
 72
     1
  1
{\fＭＳ ゴシック|b0|i0|c128|p49;ＦＩＬＥ}
 73
     1
 44
1.0
  0
LINE
  5
97
330
1F
100
AcDbEntity
  8
0-4_枠
  6
Continuous
 62
    92
370
    13
100
AcDbLine
 10
-1965.000269606306
 20
3435.000148463894
 30
0.0
 11
-381.0002696063077
 21
3435.000148463894
 31
0.0
  0
LINE
  5
98
330
1F
100
AcDbEntity
  8
0-4_枠
  6
Continuous
 62
    92
370
    13
100
AcDbLine
 10
-4760.000018557985
 20
3435.000148463894
 30
0.0
 11
-2996.000018557986
 21
3435.000148463894
 31
0.0
  0
MTEXT
  5
99
330
1F
100
AcDbEntity
  8
F-A_文字
  6
Continuous
 62
     7
370
     0
100
AcDbMText
 10
4279.999224688556
 20
-4087.143857410839
 30
0.0
 40
45.72
 41
180.0
 46
0.0
 71
     7
 72
     1
  1
{\fＭＳ ゴシック|b0|i0|c128|p49;ＮＯ．}
 73
     1
 44
1.0
  0
MTEXT
  5
9A
330
1F
100
AcDbEntity
  8
F-A_文字
  6
Continuous
 62
     7
370
     0
100
AcDbMText
 10
1234.998729808911
 20
-4096.140669266149
 30
0.0
 40
45.72
 41
120.0
 46
0.0
 71
     7
 72
     1
  1
{\fＭＳ ゴシック|b0|i0|c128|p49;株式}
 73
     1
 44
1.0
  0
LINE
  5
9B
330
1F
100
AcDbEntity
  8
0-B_寸法
  6
Continuous
 62
   120
370
     5
100
AcDbLine
 10
-5090.000018557985
 20
1438.000148463894
 30
0.0
 11
-4840.000018557987
 21
1438.000148463894
 31
0.0
  0
LWPOLYLINE
  5
9C
330
1F
100
AcDbEntity
  8
0-B_寸法
  6
Continuous
 62
     7
370
     9
100
AcDbPolyline
 90
        4
 70
     1
 43
3.0
 10
-5088.500018557985
 20
1438.000148463894
 42
0.4142135623731
 10
-5090.000018557985
 20
1439.500148463894
 42
0.4142135623731
 10
-5091.500018557985
 20
1438.000148463894
 42
0.4142135623731
 10
-5090.000018557985
 20
1436.500148463894
 42
0.4142135623731
  0
LINE
  5
9D
330
1F
100
AcDbEntity
  8
0-B_寸法
  6
Continuous
 62
   120
370
     5
100
AcDbLine
 10
-5090.000018557985
 20
3421.000148463893
 30
0.0
 11
-4840.000018557987
 21
3421.000148463893
 31
0.0
  0
LWPOLYLINE
  5
9E
330
1F
100
AcDbEntity
  8
0-B_寸法
  6
Continuous
 62
     7
370
     9
100
AcDbPolyline
 90
        4
 70
     1
 43
3.0
 10
-5088.500018557985
 20
3421.000148463893
 42
0.4142135623731
 10
-5090.000018557985
 20
3422.500148463893
 42
0.4142135623731
 10
-5091.500018557985
 20
3421.000148463893
 42
0.4142135623731
 10
-5090.000018557985
 20
3419.500148463893
 42
0.4142135623731
  0
LINE
  5
9F
330
1F
100
AcDbEntity
  8
0-B_寸法
  6
Continuous
 62
   120
370
     5
100
AcDbLine
 10
-5090.000018557985
 20
3421.000148463893
 30
0.0
 11
-5090.000018557985
 21
1438.000148463894
 31
0.0
  0
LINE
  5
A0
330
1F
100
AcDbEntity
  8
0-B_寸法
  6
Continuous
 62
   120
370
     5
100
AcDbLine
 10
-2295.000269606307
 20
1438.000148463894
 30
0.0
 11
-2045.000269606307
 21
1438.000148463894
 31
0.0
  0
LWPOLYLINE
  5
A1
330
1F
100
AcDbEntity
  8
0-B_寸法
  6
Continuous
 62
     7
370
     9
100
AcDbPolyline
 90
        4
 70
     1
 43
3.0
 10
-2293.500269606307
 20
1438.000148463894
 42
0.4142135623731
 10
-2295.000269606307
 20
1439.500148463894
 42
0.4142135623731
 10
-2296.500269606306
 20
1438.000148463894
 42
0.4142135623731
 10
-2295.000269606307
 20
1436.500148463894
 42
0.4142135623731
  0
LINE
  5
A2
330
1F
100
AcDbEntity
  8
0-4_枠
  6
Continuous
 62
    92
370
    13
100
AcDbLine
 10
-4760.000018557985
 20
1418.000148463893
 30
0.0
 11
-4760.000018557985
 21
3465.000148463894
 31
0.0
  0
LINE
  5
A3
330
1F
100
AcDbEntity
  8
0-4_枠
  6
Continuous
 62
    92
370
    13
100
AcDbLine
 10
-4790.000018557985
 20
1418.000148463893
 30
0.0
 11
-4790.000018557985
 21
3465.000148463894
 31
0.0
  0
LINE
  5
A4
330
1F
100
AcDbEntity
  8
0-4_枠
  6
Continuous
 62
    92
370
    13
100
AcDbLine
 10
-2966.000018557986
 20
1418.000148463893
 30
0.0
 11
-4790.000018557985
 21
1418.000148463893
 31
0.0
  0
LINE
  5
A5
330
1F
100
AcDbEntity
  8
0-4_枠
  6
Continuous
 62
    92
370
    13
100
AcDbLine
 10
-2966.000018557986
 20
1418.000148463893
 30
0.0
 11
-2966.000018557986
 21
3465.000148463894
 31
0.0
  0
LINE
  5
A6
330
1F
100
AcDbEntity
  8
0-4_枠
  6
Continuous
 62
    92
370
    13
100
AcDbLine
 10
-2996.000018557986
 20
1433.000148463893
 30
0.0
 11
-4760.000018557985
 21
1433.000148463893
 31
0.0
  0
LINE
  5
A7
330
1F
100
AcDbEntity
  8
0-4_枠
  6
Continuous
 62
    92
370
    13
100
AcDbLine
 10
-2996.000018557986
 20
1418.000148463893
 30
0.0
 11
-2996.000018557986
 21
1438.204927456731
 31
0.0
  0
LINE
  5
A8
330
1F
100
AcDbEntity
  8
0-4_枠
  6
Continuous
 62
    92
370
    13
100
AcDbLine
 10
-2996.000018557986
 20
1438.204927456731
 30
0.0
 11
-2996.000018557986
 21
1438.537913266389
 31
0.0
  0
LINE
  5
A9
330
1F
100
AcDbEntity
  8
0-1_通り芯
  6
JWW_CENTER1
 62
   120
370
     5
100
AcDbLine
 10
-4753.000018557987
 20
2395.500148463894
 30
0.0
 11
-4671.000018557987
 21
2395.500148463894
 31
0.0
  0
LINE
  5
AA
330
1F
100
AcDbEntity
  8
0-1_通り芯
  6
JWW_CENTER1
 62
   120
370
     5
100
AcDbLine
 10
-4712.000018557987
 20
2476.500148463893
 30
0.0
 11
-4712.000018557987
 21
2314.500148463894
 31
0.0
  0
LINE
  5
AB
330
1F
100
AcDbEntity
  8
0-1_通り芯
  6
JWW_CENTER1
 62
   120
370
     5
100
AcDbLine
 10
-3085.000018557987
 20
2395.500148463894
 30
0.0
 11
-3003.000018557987
 21
2395.500148463894
 31
0.0
  0
LINE
  5
AC
330
1F
100
AcDbEntity
  8
0-1_通り芯
  6
JWW_CENTER1
 62
   120
370
     5
100
AcDbLine
 10
-3044.000018557987
 20
2476.500148463893
 30
0.0
 11
-3044.000018557987
 21
2314.500148463894
 31
0.0
  0
LINE
  5
AD
330
1F
100
AcDbEntity
  8
0-4_枠
  6
Continuous
 62
    92
370
    13
100
AcDbLine
 10
-2996.000018557986
 20
1438.537913266389
 30
0.0
 11
-2996.000018557986
 21
3465.000148463894
 31
0.0
  0
LINE
  5
AE
330
1F
100
AcDbEntity
  8
0-4_枠
  6
Continuous
 62
    92
370
    13
100
AcDbLine
 10
-4790.000018557985
 20
3465.000148463894
 30
0.0
 11
-2966.000018557986
 21
3465.000148463894
 31
0.0
  0
LINE
  5
AF
330
1F
100
AcDbEntity
  8
0-2_扉
  6
Continuous
 62
    92
370
    13
100
AcDbLine
 10
-3893.000018557989
 20
1438.000148463894
 30
0.0
 11
-3893.000018557989
 21
3421.000148463893
 31
0.0
  0
LINE
  5
B0
330
1F
100
AcDbEntity
  8
0-2_扉
  6
JWW_DASHED1
 62
   120
370
     5
100
AcDbLine
 10
-3863.000018557986
 20
1438.000148463894
 30
0.0
 11
-3863.000018557986
 21
3421.000148463893
 31
0.0
  0
LINE
  5
B1
330
1F
100
AcDbEntity
  8
0-2_扉
  6
Continuous
 62
    92
370
    13
100
AcDbLine
 10
-2996.000018557986
 20
3421.000148463893
 30
0.0
 11
-4760.000018557985
 21
3421.000148463893
 31
0.0
  0
LINE
  5
B2
330
1F
100
AcDbEntity
  8
0-2_扉
  6
Continuous
 62
    92
370
    13
100
AcDbLine
 10
-4760.000018557985
 20
1438.000148463894
 30
0.0
 11
-2996.000018557986
 21
1438.000148463894
 31
0.0
  0
LINE
  5
B3
330
1F
100
AcDbEntity
  8
0-2_扉
  6
JWW_DASHED1
 62
   120
370
     5
100
AcDbLine
 10
-4763.000018557986
 20
3421.000148463893
 30
0.0
 11
-4763.000018557986
 21
1438.000148463894
 31
0.0
  0
LINE
  5
B4
330
1F
100
AcDbEntity
  8
0-2_扉
  6
JWW_DASHED1
 62
   120
370
     5
100
AcDbLine
 10
-2993.000018557989
 20
3421.000148463893
 30
0.0
 11
-2993.000018557989
 21
1438.000148463894
 31
0.0
  0
LINE
  5
B5
330
1F
100
AcDbEntity
  8
0-2_扉
  6
JWW_DASHED1
 62
   120
370
     5
100
AcDbLine
 10
-4760.000018557985
 20
3421.000148463893
 30
0.0
 11
-4763.000018557986
 21
3421.000148463893
 31
0.0
  0
LINE
  5
B6
330
1F
100
AcDbEntity
  8
0-2_扉
  6
JWW_DASHED1
 62
   120
370
     5
100
AcDbLine
 10
-4763.000018557986
 20
1438.000148463894
 30
0.0
 11
-4760.000018557985
 21
1438.000148463894
 31
0.0
  0
LINE
  5
B7
330
1F
100
AcDbEntity
  8
0-2_扉
  6
JWW_DASHED1
 62
   120
370
     5
100
AcDbLine
 10
-2993.000018557989
 20
1438.000148463894
 30
0.0
 11
-2996.000018557986
 21
1438.000148463894
 31
0.0
  0
LINE
  5
B8
330
1F
100
AcDbEntity
  8
0-2_扉
  6
JWW_DASHED1
 62
   120
370
     5
100
AcDbLine
 10
-2996.000018557986
 20
3421.000148463893
 30
0.0
 11
-2993.000018557989
 21
3421.000148463893
 31
0.0
  0
LINE
  5
B9
330
1F
100
AcDbEntity
  8
0-4_枠
  6
Continuous
 62
    92
370
    13
100
AcDbLine
 10
-1965.000269606306
 20
1418.000148463893
 30
0.0
 11
-1965.000269606306
 21
3465.000148463894
 31
0.0
  0
LINE
  5
BA
330
1F
100
AcDbEntity
  8
0-4_枠
  6
Continuous
 62
    92
370
    13
100
AcDbLine
 10
-1995.000269606306
 20
1418.000148463893
 30
0.0
 11
-1995.000269606306
 21
3465.000148463894
 31
0.0
  0
LINE
  5
BB
330
1F
100
AcDbEntity
  8
0-1_通り芯
  6
JWW_CENTER1
 62
   120
370
     5
100
AcDbLine
 10
-1958.000269606307
 20
2395.500148463894
 30
0.0
 11
-1876.000269606307
 21
2395.500148463894
 31
0.0
  0
LINE
  5
BC
330
1F
100
AcDbEntity
  8
0-1_通り芯
  6
JWW_CENTER1
 62
   120
370
     5
100
AcDbLine
 10
-1917.000269606307
 20
2476.500148463893
 30
0.0
 11
-1917.000269606307
 21
2314.500148463894
 31
0.0
  0
LINE
  5
BD
330
1F
100
AcDbEntity
  8
0-2_扉
  6
JWW_DASHED1
 62
   120
370
     5
100
AcDbLine
 10
-1968.000269606307
 20
3421.000148463893
 30
0.0
 11
-1968.000269606307
 21
1438.000148463894
 31
0.0
  0
LINE
  5
BE
330
1F
100
AcDbEntity
  8
0-2_扉
  6
JWW_DASHED1
 62
   120
370
     5
100
AcDbLine
 10
-1965.000269606306
 20
3421.000148463893
 30
0.0
 11
-1968.000269606307
 21
3421.000148463893
 31
0.0
  0
LINE
  5
BF
330
1F
100
AcDbEntity
  8
0-2_扉
  6
JWW_DASHED1
 62
   120
370
     5
100
AcDbLine
 10
-1968.000269606307
 20
1438.000148463894
 30
0.0
 11
-1965.000269606306
 21
1438.000148463894
 31
0.0
  0
LINE
  5
C0
330
1F
100
AcDbEntity
  8
0-4_枠
  6
Continuous
 62
    92
370
    13
100
AcDbLine
 10
-351.0002696063077
 20
1418.000148463893
 30
0.0
 11
-1995.000269606306
 21
1418.000148463893
 31
0.0
  0
LINE
  5
C1
330
1F
100
AcDbEntity
  8
0-4_枠
  6
Continuous
 62
    92
370
    13
100
AcDbLine
 10
-351.0002696063077
 20
1418.000148463893
 30
0.0
 11
-351.0002696063077
 21
3465.000148463894
 31
0.0
  0
LINE
  5
C2
330
1F
100
AcDbEntity
  8
0-4_枠
  6
Continuous
 62
    92
370
    13
100
AcDbLine
 10
-381.0002696063077
 20
1433.000148463893
 30
0.0
 11
-1965.000269606306
 21
1433.000148463893
 31
0.0
  0
LINE
  5
C3
330
1F
100
AcDbEntity
  8
0-4_枠
  6
Continuous
 62
    92
370
    13
100
AcDbLine
 10
-381.0002696063077
 20
1418.000148463893
 30
0.0
 11
-381.0002696063077
 21
1438.204927456731
 31
0.0
  0
LINE
  5
C4
330
1F
100
AcDbEntity
  8
0-4_枠
  6
Continuous
 62
    92
370
    13
100
AcDbLine
 10
-381.0002696063077
 20
1438.204927456731
 30
0.0
 11
-381.0002696063077
 21
1438.537913266389
 31
0.0
  0
LINE
  5
C5
330
1F
100
AcDbEntity
  8
0-1_通り芯
  6
JWW_CENTER1
 62
   120
370
     5
100
AcDbLine
 10
-470.0002696063061
 20
2395.500148463894
 30
0.0
 11
-388.0002696063065
 21
2395.500148463894
 31
0.0
  0
LINE
  5
C6
330
1F
100
AcDbEntity
  8
0-1_通り芯
  6
JWW_CENTER1
 62
   120
370
     5
100
AcDbLine
 10
-429.0002696063067
 20
2476.500148463893
 30
0.0
 11
-429.0002696063067
 21
2314.500148463894
 31
0.0
  0
LINE
  5
C7
330
1F
100
AcDbEntity
  8
0-4_枠
  6
Continuous
 62
    92
370
    13
100
AcDbLine
 10
-381.0002696063077
 20
1438.537913266389
 30
0.0
 11
-381.0002696063077
 21
3465.000148463894
 31
0.0
  0
LINE
  5
C8
330
1F
100
AcDbEntity
  8
0-4_枠
  6
Continuous
 62
    92
370
    13
100
AcDbLine
 10
-1995.000269606306
 20
3465.000148463894
 30
0.0
 11
-351.0002696063077
 21
3465.000148463894
 31
0.0
  0
LINE
  5
C9
330
1F
100
AcDbEntity
  8
0-2_扉
  6
JWW_DASHED1
 62
   120
370
     5
100
AcDbLine
 10
-378.000269606307
 20
3421.000148463893
 30
0.0
 11
-378.000269606307
 21
1438.000148463894
 31
0.0
  0
LINE
  5
CA
330
1F
100
AcDbEntity
  8
0-2_扉
  6
JWW_DASHED1
 62
   120
370
     5
100
AcDbLine
 10
-378.000269606307
 20
1438.000148463894
 30
0.0
 11
-381.0002696063077
 21
1438.000148463894
 31
0.0
  0
LINE
  5
CB
330
1F
100
AcDbEntity
  8
0-2_扉
  6
JWW_DASHED1
 62
   120
370
     5
100
AcDbLine
 10
-381.0002696063077
 20
3421.000148463893
 30
0.0
 11
-378.000269606307
 21
3421.000148463893
 31
0.0
  0
LINE
  5
CC
330
1F
100
AcDbEntity
  8
0-2_扉
  6
Continuous
 62
    92
370
    13
100
AcDbLine
 10
-1188.000269606307
 20
1438.000148463894
 30
0.0
 11
-1188.000269606307
 21
3421.000148463893
 31
0.0
  0
LINE
  5
CD
330
1F
100
AcDbEntity
  8
0-2_扉
  6
JWW_DASHED1
 62
   120
370
     5
100
AcDbLine
 10
-1158.000269606305
 20
1438.000148463894
 30
0.0
 11
-1158.000269606305
 21
3421.000148463893
 31
0.0
  0
LINE
  5
CE
330
1F
100
AcDbEntity
  8
0-2_扉
  6
Continuous
 62
    92
370
    13
100
AcDbLine
 10
-381.0002696063077
 20
3421.000148463893
 30
0.0
 11
-1965.000269606306
 21
3421.000148463893
 31
0.0
  0
LINE
  5
CF
330
1F
100
AcDbEntity
  8
0-2_扉
  6
Continuous
 62
    92
370
    13
100
AcDbLine
 10
-1965.000269606306
 20
1438.000148463894
 30
0.0
 11
-381.0002696063077
 21
1438.000148463894
 31
0.0
  0
LINE
  5
D0
330
1F
100
AcDbEntity
  8
0-B_寸法
  6
Continuous
 62
   120
370
     5
100
AcDbLine
 10
-2295.000269606307
 20
3421.000148463893
 30
0.0
 11
-2045.000269606307
 21
3421.000148463893
 31
0.0
  0
LINE
  5
D1
330
1F
100
AcDbEntity
  8
0-B_寸法
  6
Continuous
 62
   120
370
     5
100
AcDbLine
 10
-2295.000269606307
 20
3421.000148463893
 30
0.0
 11
-2295.000269606307
 21
1438.000148463894
 31
0.0
  0
LWPOLYLINE
  5
D2
330
1F
100
AcDbEntity
  8
0-B_寸法
  6
Continuous
 62
     7
370
     9
100
AcDbPolyline
 90
        4
 70
     1
 43
3.0
 10
-2293.500269606307
 20
3421.000148463893
 42
0.4142135623731
 10
-2295.000269606307
 20
3422.500148463893
 42
0.4142135623731
 10
-2296.500269606306
 20
3421.000148463893
 42
0.4142135623731
 10
-2295.000269606307
 20
3419.500148463893
 42
0.4142135623731
  0
LINE
  5
D3
330
1F
100
AcDbEntity
  8
0-0_補助線
  6
JWW_HOJO
 62
     7
370
     9
100
AcDbLine
 10
-4790.000018557985
 20
3964.999818544131
 30
0.0
 11
-4790.000018557985
 21
-3790.000179909372
 31
0.0
  0
LINE
  5
D4
330
1F
100
AcDbEntity
  8
0-0_補助線
  6
JWW_HOJO
 62
   120
370
     5
100
AcDbLine
 10
-4840.000018557987
 20
3964.999818544131
 30
0.0
 11
-4840.000018557987
 21
-3790.000179909372
 31
0.0
  0
LINE
  5
D5
330
1F
100
AcDbEntity
  8
0-0_補助線
  6
JWW_HOJO
 62
     7
370
     9
100
AcDbLine
 10
-1995.000269606306
 20
3964.999818544131
 30
0.0
 11
-1995.000269606306
 21
-3790.000179909372
 31
0.0
  0
LINE
  5
D6
330
1F
100
AcDbEntity
  8
0-0_補助線
  6
JWW_HOJO
 62
   120
370
     5
100
AcDbLine
 10
-2045.000269606307
 20
3964.999818544131
 30
0.0
 11
-2045.000269606307
 21
-3790.000179909372
 31
0.0
  0
LINE
  5
D7
330
1F
100
AcDbEntity
  8
0-B_寸法
  6
Continuous
 62
   120
370
     5
100
AcDbLine
 10
-3893.000018557989
 20
1168.000148463894
 30
0.0
 11
-2993.000018557989
 21
1168.000148463894
 31
0.0
  0
LINE
  5
D8
330
1F
100
AcDbEntity
  8
0-B_寸法
  6
Continuous
 62
   120
370
     5
100
AcDbLine
 10
-3893.000018557989
 20
1168.000148463894
 30
0.0
 11
-3893.000018557989
 21
1368.000148463894
 31
0.0
  0
LINE
  5
D9
330
1F
100
AcDbEntity
  8
0-B_寸法
  6
Continuous
 62
   120
370
     5
100
AcDbLine
 10
-2993.000018557989
 20
1168.000148463894
 30
0.0
 11
-2993.000018557989
 21
1368.000148463894
 31
0.0
  0
LWPOLYLINE
  5
DA
330
1F
100
AcDbEntity
  8
0-B_寸法
  6
Continuous
 62
     7
370
     9
100
AcDbPolyline
 90
        4
 70
     1
 43
3.0
 10
-3891.500018557988
 20
1168.000148463894
 42
0.4142135623731
 10
-3893.000018557989
 20
1169.500148463894
 42
0.4142135623731
 10
-3894.500018557989
 20
1168.000148463894
 42
0.4142135623731
 10
-3893.000018557989
 20
1166.500148463894
 42
0.4142135623731
  0
LWPOLYLINE
  5
DB
330
1F
100
AcDbEntity
  8
0-B_寸法
  6
Continuous
 62
     7
370
     9
100
AcDbPolyline
 90
        4
 70
     1
 43
3.0
 10
-2991.500018557989
 20
1168.000148463894
 42
0.4142135623731
 10
-2993.000018557989
 20
1169.500148463894
 42
0.4142135623731
 10
-2994.500018557989
 20
1168.000148463894
 42
0.4142135623731
 10
-2993.000018557989
 20
1166.500148463894
 42
0.4142135623731
  0
LINE
  5
DC
330
1F
100
AcDbEntity
  8
0-B_寸法
  6
Continuous
 62
   120
370
     5
100
AcDbLine
 10
-378.000269606307
 20
1168.000148463894
 30
0.0
 11
-378.000269606307
 21
1368.000148463894
 31
0.0
  0
LINE
  5
DD
330
1F
100
AcDbEntity
  8
0-B_寸法
  6
Continuous
 62
   120
370
     5
100
AcDbLine
 10
-1188.000269606307
 20
1168.000148463894
 30
0.0
 11
-1188.000269606307
 21
1368.000148463894
 31
0.0
  0
LINE
  5
DE
330
1F
100
AcDbEntity
  8
0-B_寸法
  6
Continuous
 62
   120
370
     5
100
AcDbLine
 10
-1188.000269606307
 20
1168.000148463894
 30
0.0
 11
-378.000269606307
 21
1168.000148463894
 31
0.0
  0
LWPOLYLINE
  5
DF
330
1F
100
AcDbEntity
  8
0-B_寸法
  6
Continuous
 62
     7
370
     9
100
AcDbPolyline
 90
        4
 70
     1
 43
3.0
 10
-376.500269606307
 20
1168.000148463894
 42
0.4142135623731
 10
-378.000269606307
 20
1169.500148463894
 42
0.4142135623731
 10
-379.500269606307
 20
1168.000148463894
 42
0.4142135623731
 10
-378.000269606307
 20
1166.500148463894
 42
0.4142135623731
  0
LWPOLYLINE
  5
E0
330
1F
100
AcDbEntity
  8
0-B_寸法
  6
Continuous
 62
     7
370
     9
100
AcDbPolyline
 90
        4
 70
     1
 43
3.0
 10
-1186.500269606307
 20
1168.000148463894
 42
0.4142135623731
 10
-1188.000269606307
 20
1169.500148463894
 42
0.4142135623731
 10
-1189.500269606307
 20
1168.000148463894
 42
0.4142135623731
 10
-1188.000269606307
 20
1166.500148463894
 42
0.4142135623731
  0
MTEXT
  5
E1
330
1F
100
AcDbEntity
  8
F-A_文字
  6
Continuous
 62
     7
370
     0
100
AcDbMText
 10
1444.998729808911
 20
-4164.281754523929
 30
0.0
 40
101.44125
 41
1065.0
 46
0.0
 71
     7
 72
     1
  1
{\fＭＳ ゴシック|b0|i0|c128|p49;ウッドワン・・・}
 73
     1
 44
1.0
  0
MTEXT
  5
E2
330
1F
100
AcDbEntity
  8
F-A_文字
  6
Continuous
 62
     7
370
     0
100
AcDbMText
 10
1234.998729808911
 20
-4168.140669266187
 30
0.0
 40
45.72
 41
120.0
 46
0.0
 71
     7
 72
     1
  1
{\fＭＳ ゴシック|b0|i0|c128|p49;会社}
 73
     1
 44
1.0
  0
MTEXT
  5
E3
330
1F
100
AcDbEntity
  8
F-A_文字
  6
Continuous
 62
     7
370
     0
100
AcDbMText
 10
5608.403311109712
 20
-4314.841419020919
 30
0.0
 40
68.58
 41
90.0
 46
0.0
 71
     7
 72
     1
  1
{\fＭＳ ゴシック|b0|i0|c128|p49;）}
 73
     1
 44
1.0
  0
MTEXT
  5
E4
330
1F
100
AcDbEntity
  8
F-A_文字
  6
Continuous
 62
     7
370
     0
100
AcDbMText
 10
5190.195950842071
 20
-4316.235443869856
 30
0.0
 40
68.58
 41
45.0
 46
0.0
 71
     7
 72
     1
  1
{\fＭＳ ゴシック|b0|i0|c128|p49;,}
 73
     1
 44
1.0
  0
MTEXT
  5
E5
330
1F
100
AcDbEntity
  8
F-A_文字
  6
Continuous
 62
     7
370
     0
100
AcDbMText
 10
4923.937261915373
 20
-4314.771967288282
 30
0.0
 40
74.295
 41
97.5
 46
0.0
 71
     7
 72
     1
  1
{\fＭＳ ゴシック|b0|i0|c128|p49;$y}
 73
     1
 44
1.0
  0
MTEXT
  5
E6
330
1F
100
AcDbEntity
  8
F-A_文字
  6
Continuous
 62
     7
370
     0
100
AcDbMText
 10
5078.673982954195
 20
-4314.771967288282
 30
0.0
 40
74.295
 41
97.5
 46
0.0
 71
     7
 72
     1
  1
{\fＭＳ ゴシック|b0|i0|c128|p49;$m}
 73
     1
 44
1.0
  0
MTEXT
  5
E7
330
1F
100
AcDbEntity
  8
F-A_文字
  6
Continuous
 62
     7
370
     0
100
AcDbMText
 10
5233.410715437103
 20
-4314.771967288282
 30
0.0
 40
74.295
 41
97.5
 46
0.0
 71
     7
 72
     1
  1
{\fＭＳ ゴシック|b0|i0|c128|p49;$d}
 73
     1
 44
1.0
  0
MTEXT
  5
E8
330
1F
100
AcDbEntity
  8
F-A_文字
  6
Continuous
 62
     7
370
     0
100
AcDbMText
 10
5388.147447920011
 20
-4314.771967288282
 30
0.0
 40
74.295
 41
195.0
 46
0.0
 71
     7
 72
     1
  1
{\fＭＳ ゴシック|b0|i0|c128|p49;印刷}
 73
     1
 44
1.0
  0
MTEXT
  5
E9
330
1F
100
AcDbEntity
  8
F-A_文字
  6
Continuous
 62
     7
370
     0
100
AcDbMText
 10
4784.033374252999
 20
-4319.023493567732
 30
0.0
 40
68.58
 41
90.0
 46
0.0
 71
     7
 72
     1
  1
{\fＭＳ ゴシック|b0|i0|c128|p49;（}
 73
     1
 44
1.0
  0
MTEXT
  5
EA
330
1F
100
AcDbEntity
  8
F-A_文字
  6
Continuous
 62
     7
370
     0
100
AcDbMText
 10
5031.277143812345
 20
-4319.023493567732
 30
0.0
 40
68.58
 41
45.0
 46
0.0
 71
     7
 72
     1
  1
{\fＭＳ ゴシック|b0|i0|c128|p49;,}
 73
     1
 44
1.0
  0
LINE
  5
EB
330
1F
100
AcDbEntity
  8
0-3_仕上げ
  6
Continuous
 62
    92
370
    13
100
AcDbLine
 10
-4257.000018557985
 20
1635.000148463894
 30
0.0
 11
-3995.500018557984
 21
1635.000148463894
 31
0.0
  0
LINE
  5
EC
330
1F
100
AcDbEntity
  8
0-3_仕上げ
  6
Continuous
 62
   120
370
     5
100
AcDbLine
 10
-4249.000018557986
 20
1643.000148463894
 30
0.0
 11
-4003.500018557987
 21
1643.000148463894
 31
0.0
  0
LINE
  5
ED
330
1F
100
AcDbEntity
  8
0-3_仕上げ
  6
Continuous
 62
     7
370
     9
100
AcDbLine
 10
-3983.500018557985
 20
1623.000148463894
 30
0.0
 11
-4642.500018557986
 21
1623.000148463894
 31
0.0
  0
LINE
  5
EE
330
1F
100
AcDbEntity
  8
0-3_仕上げ
  6
Continuous
 62
    92
370
    13
100
AcDbLine
 10
-4369.000018557986
 20
1635.000148463894
 30
0.0
 11
-4630.500018557987
 21
1635.000148463894
 31
0.0
  0
LINE
  5
EF
330
1F
100
AcDbEntity
  8
0-3_仕上げ
  6
Continuous
 62
   120
370
     5
100
AcDbLine
 10
-4377.000018557985
 20
1643.000148463894
 30
0.0
 11
-4622.500018557984
 21
1643.000148463894
 31
0.0
  0
LINE
  5
F0
330
1F
100
AcDbEntity
  8
0-3_仕上げ
  6
Continuous
 62
     7
370
     9
100
AcDbLine
 10
-4630.500018557987
 20
1635.000148463894
 30
0.0
 11
-4642.500018557986
 21
1623.000148463894
 31
0.0
  0
LINE
  5
F1
330
1F
100
AcDbEntity
  8
0-3_仕上げ
  6
Continuous
 62
     7
370
     9
100
AcDbLine
 10
-4369.000018557986
 20
1635.000148463894
 30
0.0
 11
-4357.000018557987
 21
1623.000148463894
 31
0.0
  0
LINE
  5
F2
330
1F
100
AcDbEntity
  8
0-3_仕上げ
  6
Continuous
 62
     7
370
     9
100
AcDbLine
 10
-3995.500018557984
 20
1635.000148463894
 30
0.0
 11
-3983.500018557985
 21
1623.000148463894
 31
0.0
  0
LINE
  5
F3
330
1F
100
AcDbEntity
  8
0-3_仕上げ
  6
Continuous
 62
     7
370
     9
100
AcDbLine
 10
-4269.000018557985
 20
1623.000148463894
 30
0.0
 11
-4257.000018557985
 21
1635.000148463894
 31
0.0
  0
LINE
  5
F4
330
1F
100
AcDbEntity
  8
0-3_仕上げ
  6
Continuous
 62
     7
370
     9
100
AcDbLine
 10
-4642.500018557986
 20
1438.000148463894
 30
0.0
 11
-4642.500018557986
 21
3421.000148463894
 31
0.0
  0
LINE
  5
F5
330
1F
100
AcDbEntity
  8
0-3_仕上げ
  6
Continuous
 62
     7
370
     9
100
AcDbLine
 10
-3983.500018557985
 20
1438.000148463894
 30
0.0
 11
-3983.500018557985
 21
3421.000148463894
 31
0.0
  0
LINE
  5
F6
330
1F
100
AcDbEntity
  8
0-3_仕上げ
  6
Continuous
 62
    92
370
    13
100
AcDbLine
 10
-4630.500018557987
 20
3274.000148463893
 30
0.0
 11
-4369.000018557986
 21
3274.000148463893
 31
0.0
  0
LINE
  5
F7
330
1F
100
AcDbEntity
  8
0-3_仕上げ
  6
Continuous
 62
   120
370
     5
100
AcDbLine
 10
-4622.500018557984
 20
3266.000148463894
 30
0.0
 11
-4377.000018557985
 21
3266.000148463894
 31
0.0
  0
LINE
  5
F8
330
1F
100
AcDbEntity
  8
0-3_仕上げ
  6
Continuous
 62
     7
370
     9
100
AcDbLine
 10
-4642.500018557986
 20
3286.000148463894
 30
0.0
 11
-3983.500018557985
 21
3286.000148463894
 31
0.0
  0
LINE
  5
F9
330
1F
100
AcDbEntity
  8
0-3_仕上げ
  6
Continuous
 62
    92
370
    13
100
AcDbLine
 10
-4257.000018557985
 20
3274.000148463893
 30
0.0
 11
-3995.500018557984
 21
3274.000148463893
 31
0.0
  0
LINE
  5
FA
330
1F
100
AcDbEntity
  8
0-3_仕上げ
  6
Continuous
 62
   120
370
     5
100
AcDbLine
 10
-4249.000018557986
 20
3266.000148463894
 30
0.0
 11
-4003.500018557987
 21
3266.000148463894
 31
0.0
  0
LINE
  5
FB
330
1F
100
AcDbEntity
  8
0-3_仕上げ
  6
Continuous
 62
     7
370
     9
100
AcDbLine
 10
-4642.500018557986
 20
3286.000148463894
 30
0.0
 11
-4630.500018557987
 21
3274.000148463893
 31
0.0
  0
LINE
  5
FC
330
1F
100
AcDbEntity
  8
0-3_仕上げ
  6
Continuous
 62
     7
370
     9
100
AcDbLine
 10
-4357.000018557987
 20
3286.000148463894
 30
0.0
 11
-4369.000018557986
 21
3274.000148463893
 31
0.0
  0
LINE
  5
FD
330
1F
100
AcDbEntity
  8
0-3_仕上げ
  6
Continuous
 62
     7
370
     9
100
AcDbLine
 10
-3983.500018557985
 20
3286.000148463894
 30
0.0
 11
-3995.500018557984
 21
3274.000148463893
 31
0.0
  0
LINE
  5
FE
330
1F
100
AcDbEntity
  8
0-3_仕上げ
  6
Continuous
 62
     7
370
     9
100
AcDbLine
 10
-4269.000018557985
 20
3286.000148463894
 30
0.0
 11
-4257.000018557985
 21
3274.000148463893
 31
0.0
  0
LINE
  5
FF
330
1F
100
AcDbEntity
  8
0-3_仕上げ
  6
Continuous
 62
     7
370
     9
100
AcDbLine
 10
-4357.000018557987
 20
3286.000148463894
 30
0.0
 11
-4357.000018557987
 21
1623.000148463894
 31
0.0
  0
LINE
  5
100
330
1F
100
AcDbEntity
  8
0-3_仕上げ
  6
Continuous
 62
    92
370
    13
100
AcDbLine
 10
-4369.000018557986
 20
3274.000148463893
 30
0.0
 11
-4369.000018557986
 21
1635.000148463894
 31
0.0
  0
LINE
  5
101
330
1F
100
AcDbEntity
  8
0-3_仕上げ
  6
Continuous
 62
   120
370
     5
100
AcDbLine
 10
-4377.000018557985
 20
3266.000148463894
 30
0.0
 11
-4377.000018557985
 21
1643.000148463894
 31
0.0
  0
LINE
  5
102
330
1F
100
AcDbEntity
  8
0-3_仕上げ
  6
Continuous
 62
    92
370
    13
100
AcDbLine
 10
-4257.000018557985
 20
3274.000148463893
 30
0.0
 11
-4257.000018557985
 21
1635.000148463894
 31
0.0
  0
LINE
  5
103
330
1F
100
AcDbEntity
  8
0-3_仕上げ
  6
Continuous
 62
   120
370
     5
100
AcDbLine
 10
-4249.000018557986
 20
3266.000148463894
 30
0.0
 11
-4249.000018557986
 21
1643.000148463894
 31
0.0
  0
LINE
  5
104
330
1F
100
AcDbEntity
  8
0-3_仕上げ
  6
Continuous
 62
     7
370
     9
100
AcDbLine
 10
-4269.000018557985
 20
3286.000148463894
 30
0.0
 11
-4269.000018557985
 21
1623.000148463894
 31
0.0
  0
LINE
  5
105
330
1F
100
AcDbEntity
  8
0-3_仕上げ
  6
Continuous
 62
    92
370
    13
100
AcDbLine
 10
-3995.500018557984
 20
3274.000148463893
 30
0.0
 11
-3995.500018557984
 21
1635.000148463894
 31
0.0
  0
LINE
  5
106
330
1F
100
AcDbEntity
  8
0-3_仕上げ
  6
Continuous
 62
   120
370
     5
100
AcDbLine
 10
-4003.500018557987
 20
3266.000148463894
 30
0.0
 11
-4003.500018557987
 21
1643.000148463894
 31
0.0
  0
LINE
  5
107
330
1F
100
AcDbEntity
  8
0-3_仕上げ
  6
Continuous
 62
    92
370
    13
100
AcDbLine
 10
-4630.500018557987
 20
3274.000148463893
 30
0.0
 11
-4630.500018557987
 21
1635.000148463894
 31
0.0
  0
LINE
  5
108
330
1F
100
AcDbEntity
  8
0-3_仕上げ
  6
Continuous
 62
   120
370
     5
100
AcDbLine
 10
-4622.500018557984
 20
3266.000148463894
 30
0.0
 11
-4622.500018557984
 21
1643.000148463894
 31
0.0
  0
LINE
  5
109
330
1F
100
AcDbEntity
  8
0-3_仕上げ
  6
Continuous
 62
    92
370
    13
100
AcDbLine
 10
-3387.000018557988
 20
1635.000148463894
 30
0.0
 11
-3125.500018557987
 21
1635.000148463894
 31
0.0
  0
LINE
  5
10A
330
1F
100
AcDbEntity
  8
0-3_仕上げ
  6
Continuous
 62
   120
370
     5
100
AcDbLine
 10
-3379.000018557989
 20
1643.000148463894
 30
0.0
 11
-3133.500018557991
 21
1643.000148463894
 31
0.0
  0
LINE
  5
10B
330
1F
100
AcDbEntity
  8
0-3_仕上げ
  6
Continuous
 62
     7
370
     9
100
AcDbLine
 10
-3113.500018557988
 20
1623.000148463894
 30
0.0
 11
-3772.500018557989
 21
1623.000148463894
 31
0.0
  0
LINE
  5
10C
330
1F
100
AcDbEntity
  8
0-3_仕上げ
  6
Continuous
 62
    92
370
    13
100
AcDbLine
 10
-3499.000018557989
 20
1635.000148463894
 30
0.0
 11
-3760.50001855799
 21
1635.000148463894
 31
0.0
  0
LINE
  5
10D
330
1F
100
AcDbEntity
  8
0-3_仕上げ
  6
Continuous
 62
   120
370
     5
100
AcDbLine
 10
-3507.000018557988
 20
1643.000148463894
 30
0.0
 11
-3752.500018557987
 21
1643.000148463894
 31
0.0
  0
LINE
  5
10E
330
1F
100
AcDbEntity
  8
0-3_仕上げ
  6
Continuous
 62
     7
370
     9
100
AcDbLine
 10
-3760.50001855799
 20
1635.000148463894
 30
0.0
 11
-3772.500018557989
 21
1623.000148463894
 31
0.0
  0
LINE
  5
10F
330
1F
100
AcDbEntity
  8
0-3_仕上げ
  6
Continuous
 62
     7
370
     9
100
AcDbLine
 10
-3499.000018557989
 20
1635.000148463894
 30
0.0
 11
-3487.00001855799
 21
1623.000148463894
 31
0.0
  0
LINE
  5
110
330
1F
100
AcDbEntity
  8
0-3_仕上げ
  6
Continuous
 62
     7
370
     9
100
AcDbLine
 10
-3125.500018557987
 20
1635.000148463894
 30
0.0
 11
-3113.500018557988
 21
1623.000148463894
 31
0.0
  0
LINE
  5
111
330
1F
100
AcDbEntity
  8
0-3_仕上げ
  6
Continuous
 62
     7
370
     9
100
AcDbLine
 10
-3399.000018557988
 20
1623.000148463894
 30
0.0
 11
-3387.000018557988
 21
1635.000148463894
 31
0.0
  0
LINE
  5
112
330
1F
100
AcDbEntity
  8
0-3_仕上げ
  6
Continuous
 62
     7
370
     9
100
AcDbLine
 10
-3772.500018557989
 20
1438.000148463894
 30
0.0
 11
-3772.500018557989
 21
3421.000148463894
 31
0.0
  0
LINE
  5
113
330
1F
100
AcDbEntity
  8
0-3_仕上げ
  6
Continuous
 62
     7
370
     9
100
AcDbLine
 10
-3113.500018557988
 20
1438.000148463894
 30
0.0
 11
-3113.500018557988
 21
3421.000148463894
 31
0.0
  0
LINE
  5
114
330
1F
100
AcDbEntity
  8
0-3_仕上げ
  6
Continuous
 62
   120
370
     5
100
AcDbLine
 10
-3752.500018557987
 20
3266.000148463894
 30
0.0
 11
-3507.000018557988
 21
3266.000148463894
 31
0.0
  0
LINE
  5
115
330
1F
100
AcDbEntity
  8
0-3_仕上げ
  6
Continuous
 62
     7
370
     9
100
AcDbLine
 10
-3772.500018557989
 20
3286.000148463894
 30
0.0
 11
-3113.500018557988
 21
3286.000148463894
 31
0.0
  0
LINE
  5
116
330
1F
100
AcDbEntity
  8
0-3_仕上げ
  6
Continuous
 62
    92
370
    13
100
AcDbLine
 10
-3387.000018557988
 20
3274.000148463893
 30
0.0
 11
-3125.500018557987
 21
3274.000148463893
 31
0.0
  0
LINE
  5
117
330
1F
100
AcDbEntity
  8
0-3_仕上げ
  6
Continuous
 62
   120
370
     5
100
AcDbLine
 10
-3379.000018557989
 20
3266.000148463894
 30
0.0
 11
-3133.500018557991
 21
3266.000148463894
 31
0.0
  0
LINE
  5
118
330
1F
100
AcDbEntity
  8
0-3_仕上げ
  6
Continuous
 62
     7
370
     9
100
AcDbLine
 10
-3772.500018557989
 20
3286.000148463894
 30
0.0
 11
-3760.50001855799
 21
3274.000148463893
 31
0.0
  0
LINE
  5
119
330
1F
100
AcDbEntity
  8
0-3_仕上げ
  6
Continuous
 62
     7
370
     9
100
AcDbLine
 10
-3487.00001855799
 20
3286.000148463894
 30
0.0
 11
-3499.000018557989
 21
3274.000148463893
 31
0.0
  0
LINE
  5
11A
330
1F
100
AcDbEntity
  8
0-3_仕上げ
  6
Continuous
 62
     7
370
     9
100
AcDbLine
 10
-3113.500018557988
 20
3286.000148463894
 30
0.0
 11
-3125.500018557987
 21
3274.000148463893
 31
0.0
  0
LINE
  5
11B
330
1F
100
AcDbEntity
  8
0-3_仕上げ
  6
Continuous
 62
     7
370
     9
100
AcDbLine
 10
-3399.000018557988
 20
3286.000148463894
 30
0.0
 11
-3387.000018557988
 21
3274.000148463893
 31
0.0
  0
LINE
  5
11C
330
1F
100
AcDbEntity
  8
0-3_仕上げ
  6
Continuous
 62
     7
370
     9
100
AcDbLine
 10
-3487.00001855799
 20
3286.000148463894
 30
0.0
 11
-3487.00001855799
 21
1623.000148463894
 31
0.0
  0
LINE
  5
11D
330
1F
100
AcDbEntity
  8
0-3_仕上げ
  6
Continuous
 62
    92
370
    13
100
AcDbLine
 10
-3499.000018557989
 20
3274.000148463893
 30
0.0
 11
-3499.000018557989
 21
1635.000148463894
 31
0.0
  0
LINE
  5
11E
330
1F
100
AcDbEntity
  8
0-3_仕上げ
  6
Continuous
 62
   120
370
     5
100
AcDbLine
 10
-3507.000018557988
 20
3266.000148463894
 30
0.0
 11
-3507.000018557988
 21
1643.000148463894
 31
0.0
  0
LINE
  5
11F
330
1F
100
AcDbEntity
  8
0-3_仕上げ
  6
Continuous
 62
    92
370
    13
100
AcDbLine
 10
-3387.000018557988
 20
3274.000148463893
 30
0.0
 11
-3387.000018557988
 21
1635.000148463894
 31
0.0
  0
LINE
  5
120
330
1F
100
AcDbEntity
  8
0-3_仕上げ
  6
Continuous
 62
   120
370
     5
100
AcDbLine
 10
-3379.000018557989
 20
3266.000148463894
 30
0.0
 11
-3379.000018557989
 21
1643.000148463894
 31
0.0
  0
LINE
  5
121
330
1F
100
AcDbEntity
  8
0-3_仕上げ
  6
Continuous
 62
     7
370
     9
100
AcDbLine
 10
-3399.000018557988
 20
3286.000148463894
 30
0.0
 11
-3399.000018557988
 21
1623.000148463894
 31
0.0
  0
LINE
  5
122
330
1F
100
AcDbEntity
  8
0-3_仕上げ
  6
Continuous
 62
    92
370
    13
100
AcDbLine
 10
-3125.500018557987
 20
3274.000148463893
 30
0.0
 11
-3125.500018557987
 21
1635.000148463894
 31
0.0
  0
LINE
  5
123
330
1F
100
AcDbEntity
  8
0-3_仕上げ
  6
Continuous
 62
   120
370
     5
100
AcDbLine
 10
-3133.500018557991
 20
3266.000148463894
 30
0.0
 11
-3133.500018557991
 21
1643.000148463894
 31
0.0
  0
LINE
  5
124
330
1F
100
AcDbEntity
  8
0-3_仕上げ
  6
Continuous
 62
    92
370
    13
100
AcDbLine
 10
-3760.50001855799
 20
3274.000148463893
 30
0.0
 11
-3760.50001855799
 21
1635.000148463894
 31
0.0
  0
LINE
  5
125
330
1F
100
AcDbEntity
  8
0-3_仕上げ
  6
Continuous
 62
   120
370
     5
100
AcDbLine
 10
-3752.500018557987
 20
3266.000148463894
 30
0.0
 11
-3752.500018557987
 21
1643.000148463894
 31
0.0
  0
LINE
  5
126
330
1F
100
AcDbEntity
  8
0-3_仕上げ
  6
Continuous
 62
    92
370
    13
100
AcDbLine
 10
-1507.000269606307
 20
1635.000148463894
 30
0.0
 11
-1271.500269606306
 21
1635.000148463894
 31
0.0
  0
LINE
  5
127
330
1F
100
AcDbEntity
  8
0-3_仕上げ
  6
Continuous
 62
   120
370
     5
100
AcDbLine
 10
-1499.000269606306
 20
1643.000148463894
 30
0.0
 11
-1279.500269606306
 21
1643.000148463894
 31
0.0
  0
LINE
  5
128
330
1F
100
AcDbEntity
  8
0-3_仕上げ
  6
Continuous
 62
     7
370
     9
100
AcDbLine
 10
-1259.500269606305
 20
1623.000148463894
 30
0.0
 11
-1866.500269606307
 21
1623.000148463894
 31
0.0
  0
LINE
  5
129
330
1F
100
AcDbEntity
  8
0-3_仕上げ
  6
Continuous
 62
    92
370
    13
100
AcDbLine
 10
-1619.000269606306
 20
1635.000148463894
 30
0.0
 11
-1854.500269606306
 21
1635.000148463894
 31
0.0
  0
LINE
  5
12A
330
1F
100
AcDbEntity
  8
0-3_仕上げ
  6
Continuous
 62
   120
370
     5
100
AcDbLine
 10
-1627.000269606307
 20
1643.000148463894
 30
0.0
 11
-1846.500269606307
 21
1643.000148463894
 31
0.0
  0
LINE
  5
12B
330
1F
100
AcDbEntity
  8
0-3_仕上げ
  6
Continuous
 62
     7
370
     9
100
AcDbLine
 10
-1854.500269606306
 20
1635.000148463894
 30
0.0
 11
-1866.500269606307
 21
1623.000148463894
 31
0.0
  0
LINE
  5
12C
330
1F
100
AcDbEntity
  8
0-3_仕上げ
  6
Continuous
 62
     7
370
     9
100
AcDbLine
 10
-1619.000269606306
 20
1635.000148463894
 30
0.0
 11
-1607.000269606306
 21
1623.000148463894
 31
0.0
  0
LINE
  5
12D
330
1F
100
AcDbEntity
  8
0-3_仕上げ
  6
Continuous
 62
     7
370
     9
100
AcDbLine
 10
-1507.000269606307
 20
1635.000148463894
 30
0.0
 11
-1519.000269606306
 21
1623.000148463894
 31
0.0
  0
LINE
  5
12E
330
1F
100
AcDbEntity
  8
0-3_仕上げ
  6
Continuous
 62
     7
370
     9
100
AcDbLine
 10
-1271.500269606306
 20
1635.000148463894
 30
0.0
 11
-1259.500269606305
 21
1623.000148463894
 31
0.0
  0
LINE
  5
12F
330
1F
100
AcDbEntity
  8
0-3_仕上げ
  6
Continuous
 62
     7
370
     9
100
AcDbLine
 10
-1866.500269606307
 20
1438.000148463894
 30
0.0
 11
-1866.500269606307
 21
3421.000148463894
 31
0.0
  0
LINE
  5
130
330
1F
100
AcDbEntity
  8
0-3_仕上げ
  6
Continuous
 62
     7
370
     9
100
AcDbLine
 10
-1259.500269606305
 20
1438.000148463894
 30
0.0
 11
-1259.500269606305
 21
3421.000148463894
 31
0.0
  0
LINE
  5
131
330
1F
100
AcDbEntity
  8
0-3_仕上げ
  6
Continuous
 62
    92
370
    13
100
AcDbLine
 10
-1854.500269606306
 20
3274.000148463893
 30
0.0
 11
-1619.000269606306
 21
3274.000148463893
 31
0.0
  0
LINE
  5
132
330
1F
100
AcDbEntity
  8
0-3_仕上げ
  6
Continuous
 62
   120
370
     5
100
AcDbLine
 10
-1846.500269606307
 20
3266.000148463894
 30
0.0
 11
-1627.000269606307
 21
3266.000148463894
 31
0.0
  0
LINE
  5
133
330
1F
100
AcDbEntity
  8
0-3_仕上げ
  6
Continuous
 62
    92
370
    13
100
AcDbLine
 10
-1507.000269606307
 20
3274.000148463893
 30
0.0
 11
-1271.500269606306
 21
3274.000148463893
 31
0.0
  0
LINE
  5
134
330
1F
100
AcDbEntity
  8
0-3_仕上げ
  6
Continuous
 62
   120
370
     5
100
AcDbLine
 10
-1499.000269606306
 20
3266.000148463894
 30
0.0
 11
-1279.500269606306
 21
3266.000148463894
 31
0.0
  0
LINE
  5
135
330
1F
100
AcDbEntity
  8
0-3_仕上げ
  6
Continuous
 62
     7
370
     9
100
AcDbLine
 10
-1866.500269606307
 20
3286.000148463894
 30
0.0
 11
-1854.500269606306
 21
3274.000148463893
 31
0.0
  0
LINE
  5
136
330
1F
100
AcDbEntity
  8
0-3_仕上げ
  6
Continuous
 62
     7
370
     9
100
AcDbLine
 10
-1607.000269606306
 20
3286.000148463894
 30
0.0
 11
-1619.000269606306
 21
3274.000148463893
 31
0.0
  0
LINE
  5
137
330
1F
100
AcDbEntity
  8
0-3_仕上げ
  6
Continuous
 62
     7
370
     9
100
AcDbLine
 10
-1519.000269606306
 20
3286.000148463894
 30
0.0
 11
-1507.000269606307
 21
3274.000148463893
 31
0.0
  0
LINE
  5
138
330
1F
100
AcDbEntity
  8
0-3_仕上げ
  6
Continuous
 62
     7
370
     9
100
AcDbLine
 10
-1259.500269606305
 20
3286.000148463894
 30
0.0
 11
-1271.500269606306
 21
3274.000148463893
 31
0.0
  0
LINE
  5
139
330
1F
100
AcDbEntity
  8
0-3_仕上げ
  6
Continuous
 62
     7
370
     9
100
AcDbLine
 10
-1519.000269606306
 20
3286.000148463894
 30
0.0
 11
-1519.000269606306
 21
1623.000148463894
 31
0.0
  0
LINE
  5
13A
330
1F
100
AcDbEntity
  8
0-3_仕上げ
  6
Continuous
 62
    92
370
    13
100
AcDbLine
 10
-1507.000269606307
 20
3274.000148463893
 30
0.0
 11
-1507.000269606307
 21
1635.000148463894
 31
0.0
  0
LINE
  5
13B
330
1F
100
AcDbEntity
  8
0-3_仕上げ
  6
Continuous
 62
   120
370
     5
100
AcDbLine
 10
-1499.000269606306
 20
3266.000148463894
 30
0.0
 11
-1499.000269606306
 21
1643.000148463894
 31
0.0
  0
LINE
  5
13C
330
1F
100
AcDbEntity
  8
0-3_仕上げ
  6
Continuous
 62
    92
370
    13
100
AcDbLine
 10
-1271.500269606306
 20
3274.000148463893
 30
0.0
 11
-1271.500269606306
 21
1635.000148463894
 31
0.0
  0
LINE
  5
13D
330
1F
100
AcDbEntity
  8
0-3_仕上げ
  6
Continuous
 62
   120
370
     5
100
AcDbLine
 10
-1279.500269606306
 20
3266.000148463894
 30
0.0
 11
-1279.500269606306
 21
1643.000148463894
 31
0.0
  0
LINE
  5
13E
330
1F
100
AcDbEntity
  8
0-3_仕上げ
  6
Continuous
 62
    92
370
    13
100
AcDbLine
 10
-1619.000269606306
 20
3274.000148463893
 30
0.0
 11
-1619.000269606306
 21
1635.000148463894
 31
0.0
  0
LINE
  5
13F
330
1F
100
AcDbEntity
  8
0-3_仕上げ
  6
Continuous
 62
   120
370
     5
100
AcDbLine
 10
-1627.000269606307
 20
3266.000148463894
 30
0.0
 11
-1627.000269606307
 21
1643.000148463894
 31
0.0
  0
LINE
  5
140
330
1F
100
AcDbEntity
  8
0-3_仕上げ
  6
Continuous
 62
     7
370
     9
100
AcDbLine
 10
-1607.000269606306
 20
3286.000148463894
 30
0.0
 11
-1607.000269606306
 21
1623.000148463894
 31
0.0
  0
LINE
  5
141
330
1F
100
AcDbEntity
  8
0-3_仕上げ
  6
Continuous
 62
    92
370
    13
100
AcDbLine
 10
-1854.500269606306
 20
3274.000148463893
 30
0.0
 11
-1854.500269606306
 21
1635.000148463894
 31
0.0
  0
LINE
  5
142
330
1F
100
AcDbEntity
  8
0-3_仕上げ
  6
Continuous
 62
   120
370
     5
100
AcDbLine
 10
-1846.500269606307
 20
3266.000148463894
 30
0.0
 11
-1846.500269606307
 21
1643.000148463894
 31
0.0
  0
LINE
  5
143
330
1F
100
AcDbEntity
  8
0-3_仕上げ
  6
Continuous
 62
    92
370
    13
100
AcDbLine
 10
-727.0002696063085
 20
1635.000148463894
 30
0.0
 11
-491.5002696063078
 21
1635.000148463894
 31
0.0
  0
LINE
  5
144
330
1F
100
AcDbEntity
  8
0-3_仕上げ
  6
Continuous
 62
   120
370
     5
100
AcDbLine
 10
-719.0002696063073
 20
1643.000148463894
 30
0.0
 11
-499.5002696063074
 21
1643.000148463894
 31
0.0
  0
LINE
  5
145
330
1F
100
AcDbEntity
  8
0-3_仕上げ
  6
Continuous
 62
     7
370
     9
100
AcDbLine
 10
-479.5002696063068
 20
1623.000148463894
 30
0.0
 11
-1086.500269606309
 21
1623.000148463894
 31
0.0
  0
LINE
  5
146
330
1F
100
AcDbEntity
  8
0-3_仕上げ
  6
Continuous
 62
    92
370
    13
100
AcDbLine
 10
-839.0002696063073
 20
1635.000148463894
 30
0.0
 11
-1074.500269606308
 21
1635.000148463894
 31
0.0
  0
LINE
  5
147
330
1F
100
AcDbEntity
  8
0-3_仕上げ
  6
Continuous
 62
   120
370
     5
100
AcDbLine
 10
-847.0002696063085
 20
1643.000148463894
 30
0.0
 11
-1066.500269606308
 21
1643.000148463894
 31
0.0
  0
LINE
  5
148
330
1F
100
AcDbEntity
  8
0-3_仕上げ
  6
Continuous
 62
     7
370
     9
100
AcDbLine
 10
-1074.500269606308
 20
1635.000148463894
 30
0.0
 11
-1086.500269606309
 21
1623.000148463894
 31
0.0
  0
LINE
  5
149
330
1F
100
AcDbEntity
  8
0-3_仕上げ
  6
Continuous
 62
     7
370
     9
100
AcDbLine
 10
-839.0002696063073
 20
1635.000148463894
 30
0.0
 11
-827.0002696063079
 21
1623.000148463894
 31
0.0
  0
LINE
  5
14A
330
1F
100
AcDbEntity
  8
0-3_仕上げ
  6
Continuous
 62
     7
370
     9
100
AcDbLine
 10
-727.0002696063085
 20
1635.000148463894
 30
0.0
 11
-739.0002696063078
 21
1623.000148463894
 31
0.0
  0
LINE
  5
14B
330
1F
100
AcDbEntity
  8
0-3_仕上げ
  6
Continuous
 62
     7
370
     9
100
AcDbLine
 10
-491.5002696063078
 20
1635.000148463894
 30
0.0
 11
-479.5002696063068
 21
1623.000148463894
 31
0.0
  0
LINE
  5
14C
330
1F
100
AcDbEntity
  8
0-3_仕上げ
  6
Continuous
 62
     7
370
     9
100
AcDbLine
 10
-1086.500269606309
 20
1438.000148463894
 30
0.0
 11
-1086.500269606309
 21
3421.000148463894
 31
0.0
  0
LINE
  5
14D
330
1F
100
AcDbEntity
  8
0-3_仕上げ
  6
Continuous
 62
     7
370
     9
100
AcDbLine
 10
-479.5002696063068
 20
1438.000148463894
 30
0.0
 11
-479.5002696063068
 21
3421.000148463894
 31
0.0
  0
LINE
  5
14E
330
1F
100
AcDbEntity
  8
0-3_仕上げ
  6
Continuous
 62
    92
370
    13
100
AcDbLine
 10
-1074.500269606308
 20
3274.000148463893
 30
0.0
 11
-839.0002696063073
 21
3274.000148463893
 31
0.0
  0
LINE
  5
14F
330
1F
100
AcDbEntity
  8
0-3_仕上げ
  6
Continuous
 62
   120
370
     5
100
AcDbLine
 10
-1066.500269606308
 20
3266.000148463894
 30
0.0
 11
-847.0002696063085
 21
3266.000148463894
 31
0.0
  0
LINE
  5
150
330
1F
100
AcDbEntity
  8
0-3_仕上げ
  6
Continuous
 62
     7
370
     9
100
AcDbLine
 10
-1086.500269606309
 20
3286.000148463894
 30
0.0
 11
-479.5002696063068
 21
3286.000148463894
 31
0.0
  0
LINE
  5
151
330
1F
100
AcDbEntity
  8
0-3_仕上げ
  6
Continuous
 62
    92
370
    13
100
AcDbLine
 10
-727.0002696063085
 20
3274.000148463893
 30
0.0
 11
-491.5002696063078
 21
3274.000148463893
 31
0.0
  0
LINE
  5
152
330
1F
100
AcDbEntity
  8
0-3_仕上げ
  6
Continuous
 62
   120
370
     5
100
AcDbLine
 10
-719.0002696063073
 20
3266.000148463894
 30
0.0
 11
-499.5002696063074
 21
3266.000148463894
 31
0.0
  0
LINE
  5
153
330
1F
100
AcDbEntity
  8
0-3_仕上げ
  6
Continuous
 62
     7
370
     9
100
AcDbLine
 10
-1086.500269606309
 20
3286.000148463894
 30
0.0
 11
-1074.500269606308
 21
3274.000148463893
 31
0.0
  0
LINE
  5
154
330
1F
100
AcDbEntity
  8
0-3_仕上げ
  6
Continuous
 62
     7
370
     9
100
AcDbLine
 10
-827.0002696063079
 20
3286.000148463894
 30
0.0
 11
-839.0002696063073
 21
3274.000148463893
 31
0.0
  0
LINE
  5
155
330
1F
100
AcDbEntity
  8
0-3_仕上げ
  6
Continuous
 62
     7
370
     9
100
AcDbLine
 10
-739.0002696063078
 20
3286.000148463894
 30
0.0
 11
-727.0002696063085
 21
3274.000148463893
 31
0.0
  0
LINE
  5
156
330
1F
100
AcDbEntity
  8
0-3_仕上げ
  6
Continuous
 62
     7
370
     9
100
AcDbLine
 10
-479.5002696063068
 20
3286.000148463894
 30
0.0
 11
-491.5002696063078
 21
3274.000148463893
 31
0.0
  0
LINE
  5
157
330
1F
100
AcDbEntity
  8
0-3_仕上げ
  6
Continuous
 62
     7
370
     9
100
AcDbLine
 10
-739.0002696063078
 20
3286.000148463894
 30
0.0
 11
-739.0002696063078
 21
1623.000148463894
 31
0.0
  0
LINE
  5
158
330
1F
100
AcDbEntity
  8
0-3_仕上げ
  6
Continuous
 62
    92
370
    13
100
AcDbLine
 10
-727.0002696063085
 20
3274.000148463893
 30
0.0
 11
-727.0002696063085
 21
1635.000148463894
 31
0.0
  0
LINE
  5
159
330
1F
100
AcDbEntity
  8
0-3_仕上げ
  6
Continuous
 62
   120
370
     5
100
AcDbLine
 10
-719.0002696063073
 20
3266.000148463894
 30
0.0
 11
-719.0002696063073
 21
1643.000148463894
 31
0.0
  0
LINE
  5
15A
330
1F
100
AcDbEntity
  8
0-3_仕上げ
  6
Continuous
 62
    92
370
    13
100
AcDbLine
 10
-491.5002696063078
 20
3274.000148463893
 30
0.0
 11
-491.5002696063078
 21
1635.000148463894
 31
0.0
  0
LINE
  5
15B
330
1F
100
AcDbEntity
  8
0-3_仕上げ
  6
Continuous
 62
   120
370
     5
100
AcDbLine
 10
-499.5002696063074
 20
3266.000148463894
 30
0.0
 11
-499.5002696063074
 21
1643.000148463894
 31
0.0
  0
LINE
  5
15C
330
1F
100
AcDbEntity
  8
0-3_仕上げ
  6
Continuous
 62
    92
370
    13
100
AcDbLine
 10
-839.0002696063073
 20
3274.000148463893
 30
0.0
 11
-839.0002696063073
 21
1635.000148463894
 31
0.0
  0
LINE
  5
15D
330
1F
100
AcDbEntity
  8
0-3_仕上げ
  6
Continuous
 62
   120
370
     5
100
AcDbLine
 10
-847.0002696063085
 20
3266.000148463894
 30
0.0
 11
-847.0002696063085
 21
1643.000148463894
 31
0.0
  0
LINE
  5
15E
330
1F
100
AcDbEntity
  8
0-3_仕上げ
  6
Continuous
 62
     7
370
     9
100
AcDbLine
 10
-827.0002696063079
 20
3286.000148463894
 30
0.0
 11
-827.0002696063079
 21
1623.000148463894
 31
0.0
  0
LINE
  5
15F
330
1F
100
AcDbEntity
  8
0-3_仕上げ
  6
Continuous
 62
    92
370
    13
100
AcDbLine
 10
-1074.500269606308
 20
3274.000148463893
 30
0.0
 11
-1074.500269606308
 21
1635.000148463894
 31
0.0
  0
LINE
  5
160
330
1F
100
AcDbEntity
  8
0-3_仕上げ
  6
Continuous
 62
   120
370
     5
100
AcDbLine
 10
-1066.500269606308
 20
3266.000148463894
 30
0.0
 11
-1066.500269606308
 21
1643.000148463894
 31
0.0
  0
MTEXT
  5
161
330
1F
100
AcDbEntity
  8
F-A_文字
  6
Continuous
 62
     7
370
     0
100
AcDbMText
 10
3383.748977248734
 20
-3946.426865907327
 30
0.0
 40
77.15249999999999
 41
202.5
 46
0.0
 71
     7
 72
     1
  1
{\fＭＳ ゴシック|b0|i0|c128|p49;1/30}
 73
     1
 44
1.0
  0
LINE
  5
162
330
1F
100
AcDbEntity
  8
F-0_補助線
  6
JWW_HOJO
 62
   200
370
    20
100
AcDbLine
 10
-5999.99998453501
 20
4064.999901024072
 30
0.0
 11
5699.998762800888
 21
4064.999901024072
 31
0.0
  0
LINE
  5
163
330
1F
100
AcDbEntity
  8
F-0_補助線
  6
JWW_HOJO
 62
   200
370
    20
100
AcDbLine
 10
-5999.99998453501
 20
84.49993236644843
 30
0.0
 11
5694.998498865077
 21
84.49993236644843
 31
0.0
  0
ARC
  5
164
330
1F
100
AcDbEntity
  8
引手
  6
Continuous
 62
    92
370
    13
100
AcDbCircle
 10
-4731.500018557987
 20
2449.000148463893
 30
0.0
 40
1.5
100
AcDbArc
 50
90.0
 51
180.0
  0
LINE
  5
165
330
1F
100
AcDbEntity
  8
引手
  6
Continuous
 62
    92
370
    13
100
AcDbLine
 10
-4733.000018557988
 20
2342.000148463893
 30
0.0
 11
-4733.000018557988
 21
2449.000148463893
 31
0.0
  0
ARC
  5
166
330
1F
100
AcDbEntity
  8
引手
  6
Continuous
 62
    92
370
    13
100
AcDbCircle
 10
-4731.500018557987
 20
2342.000148463893
 30
0.0
 40
1.5
100
AcDbArc
 50
180.0
 51
270.0
  0
LINE
  5
167
330
1F
100
AcDbEntity
  8
引手
  6
Continuous
 62
    92
370
    13
100
AcDbLine
 10
-4692.500018557988
 20
2340.500148463894
 30
0.0
 11
-4731.500018557987
 21
2340.500148463894
 31
0.0
  0
ARC
  5
168
330
1F
100
AcDbEntity
  8
引手
  6
Continuous
 62
    92
370
    13
100
AcDbCircle
 10
-4692.500018557988
 20
2342.000148463893
 30
0.0
 40
1.5
100
AcDbArc
 50
270.0
 51
0.0
  0
LINE
  5
169
330
1F
100
AcDbEntity
  8
引手
  6
Continuous
 62
    92
370
    13
100
AcDbLine
 10
-4691.000018557987
 20
2449.000148463893
 30
0.0
 11
-4691.000018557987
 21
2342.000148463893
 31
0.0
  0
LINE
  5
16A
330
1F
100
AcDbEntity
  8
引手
  6
Continuous
 62
    92
370
    13
100
AcDbLine
 10
-4692.500018557988
 20
2450.500148463894
 30
0.0
 11
-4731.500018557987
 21
2450.500148463894
 31
0.0
  0
ARC
  5
16B
330
1F
100
AcDbEntity
  8
引手
  6
Continuous
 62
    92
370
    13
100
AcDbCircle
 10
-4692.500018557988
 20
2449.000148463893
 30
0.0
 40
1.5
100
AcDbArc
 50
0.0
 51
90.0
  0
ARC
  5
16C
330
1F
100
AcDbEntity
  8
引手
  6
Continuous
 62
     7
370
     9
100
AcDbCircle
 10
-4723.000018557987
 20
2433.000148463894
 30
0.0
 40
1.5
100
AcDbArc
 50
90.0
 51
180.0
  0
LINE
  5
16D
330
1F
100
AcDbEntity
  8
引手
  6
Continuous
 62
     7
370
     9
100
AcDbLine
 10
-4724.50001855799
 20
2358.000148463894
 30
0.0
 11
-4724.50001855799
 21
2433.000148463894
 31
0.0
  0
ARC
  5
16E
330
1F
100
AcDbEntity
  8
引手
  6
Continuous
 62
     7
370
     9
100
AcDbCircle
 10
-4723.000018557987
 20
2358.000148463894
 30
0.0
 40
1.5
100
AcDbArc
 50
180.0
 51
270.0
  0
LINE
  5
16F
330
1F
100
AcDbEntity
  8
引手
  6
Continuous
 62
     7
370
     9
100
AcDbLine
 10
-4701.000018557987
 20
2356.500148463894
 30
0.0
 11
-4723.000018557987
 21
2356.500148463894
 31
0.0
  0
ARC
  5
170
330
1F
100
AcDbEntity
  8
引手
  6
Continuous
 62
     7
370
     9
100
AcDbCircle
 10
-4701.000018557987
 20
2358.000148463894
 30
0.0
 40
1.5
100
AcDbArc
 50
270.0
 51
0.0
  0
LINE
  5
171
330
1F
100
AcDbEntity
  8
引手
  6
Continuous
 62
     7
370
     9
100
AcDbLine
 10
-4699.500018557985
 20
2433.000148463894
 30
0.0
 11
-4699.500018557985
 21
2358.000148463894
 31
0.0
  0
LINE
  5
172
330
1F
100
AcDbEntity
  8
引手
  6
Continuous
 62
     7
370
     9
100
AcDbLine
 10
-4701.000018557987
 20
2434.500148463894
 30
0.0
 11
-4723.000018557987
 21
2434.500148463894
 31
0.0
  0
ARC
  5
173
330
1F
100
AcDbEntity
  8
引手
  6
Continuous
 62
     7
370
     9
100
AcDbCircle
 10
-4701.000018557987
 20
2433.000148463894
 30
0.0
 40
1.5
100
AcDbArc
 50
0.0
 51
90.0
  0
ARC
  5
174
330
1F
100
AcDbEntity
  8
引手
  6
Continuous
 62
    92
370
    13
100
AcDbCircle
 10
-3063.500018557986
 20
2449.000148463893
 30
0.0
 40
1.5
100
AcDbArc
 50
90.0
 51
180.0
  0
LINE
  5
175
330
1F
100
AcDbEntity
  8
引手
  6
Continuous
 62
    92
370
    13
100
AcDbLine
 10
-3065.000018557988
 20
2342.000148463893
 30
0.0
 11
-3065.000018557988
 21
2449.000148463893
 31
0.0
  0
ARC
  5
176
330
1F
100
AcDbEntity
  8
引手
  6
Continuous
 62
    92
370
    13
100
AcDbCircle
 10
-3063.500018557986
 20
2342.000148463893
 30
0.0
 40
1.5
100
AcDbArc
 50
180.0
 51
270.0
  0
LINE
  5
177
330
1F
100
AcDbEntity
  8
引手
  6
Continuous
 62
    92
370
    13
100
AcDbLine
 10
-3024.500018557987
 20
2340.500148463894
 30
0.0
 11
-3063.500018557986
 21
2340.500148463894
 31
0.0
  0
ARC
  5
178
330
1F
100
AcDbEntity
  8
引手
  6
Continuous
 62
    92
370
    13
100
AcDbCircle
 10
-3024.500018557987
 20
2342.000148463893
 30
0.0
 40
1.5
100
AcDbArc
 50
270.0
 51
0.0
  0
LINE
  5
179
330
1F
100
AcDbEntity
  8
引手
  6
Continuous
 62
    92
370
    13
100
AcDbLine
 10
-3023.000018557989
 20
2449.000148463893
 30
0.0
 11
-3023.000018557989
 21
2342.000148463893
 31
0.0
  0
LINE
  5
17A
330
1F
100
AcDbEntity
  8
引手
  6
Continuous
 62
    92
370
    13
100
AcDbLine
 10
-3024.500018557987
 20
2450.500148463894
 30
0.0
 11
-3063.500018557986
 21
2450.500148463894
 31
0.0
  0
ARC
  5
17B
330
1F
100
AcDbEntity
  8
引手
  6
Continuous
 62
    92
370
    13
100
AcDbCircle
 10
-3024.500018557987
 20
2449.000148463893
 30
0.0
 40
1.5
100
AcDbArc
 50
0.0
 51
90.0
  0
ARC
  5
17C
330
1F
100
AcDbEntity
  8
引手
  6
Continuous
 62
     7
370
     9
100
AcDbCircle
 10
-3055.000018557987
 20
2433.000148463894
 30
0.0
 40
1.5
100
AcDbArc
 50
90.0
 51
180.0
  0
LINE
  5
17D
330
1F
100
AcDbEntity
  8
引手
  6
Continuous
 62
     7
370
     9
100
AcDbLine
 10
-3056.500018557984
 20
2358.000148463894
 30
0.0
 11
-3056.500018557984
 21
2433.000148463894
 31
0.0
  0
ARC
  5
17E
330
1F
100
AcDbEntity
  8
引手
  6
Continuous
 62
     7
370
     9
100
AcDbCircle
 10
-3055.000018557987
 20
2358.000148463894
 30
0.0
 40
1.5
100
AcDbArc
 50
180.0
 51
270.0
  0
LINE
  5
17F
330
1F
100
AcDbEntity
  8
引手
  6
Continuous
 62
     7
370
     9
100
AcDbLine
 10
-3033.000018557987
 20
2356.500148463894
 30
0.0
 11
-3055.000018557987
 21
2356.500148463894
 31
0.0
  0
ARC
  5
180
330
1F
100
AcDbEntity
  8
引手
  6
Continuous
 62
     7
370
     9
100
AcDbCircle
 10
-3033.000018557987
 20
2358.000148463894
 30
0.0
 40
1.5
100
AcDbArc
 50
270.0
 51
0.0
  0
LINE
  5
181
330
1F
100
AcDbEntity
  8
引手
  6
Continuous
 62
     7
370
     9
100
AcDbLine
 10
-3031.500018557988
 20
2433.000148463894
 30
0.0
 11
-3031.500018557988
 21
2358.000148463894
 31
0.0
  0
LINE
  5
182
330
1F
100
AcDbEntity
  8
引手
  6
Continuous
 62
     7
370
     9
100
AcDbLine
 10
-3033.000018557987
 20
2434.500148463894
 30
0.0
 11
-3055.000018557987
 21
2434.500148463894
 31
0.0
  0
ARC
  5
183
330
1F
100
AcDbEntity
  8
引手
  6
Continuous
 62
     7
370
     9
100
AcDbCircle
 10
-3033.000018557987
 20
2433.000148463894
 30
0.0
 40
1.5
100
AcDbArc
 50
0.0
 51
90.0
  0
ARC
  5
184
330
1F
100
AcDbEntity
  8
引手
  6
Continuous
 62
    92
370
    13
100
AcDbCircle
 10
-1936.500269606308
 20
2449.000148463893
 30
0.0
 40
1.5
100
AcDbArc
 50
90.0
 51
180.0
  0
LINE
  5
185
330
1F
100
AcDbEntity
  8
引手
  6
Continuous
 62
    92
370
    13
100
AcDbLine
 10
-1938.000269606307
 20
2342.000148463893
 30
0.0
 11
-1938.000269606307
 21
2449.000148463893
 31
0.0
  0
ARC
  5
186
330
1F
100
AcDbEntity
  8
引手
  6
Continuous
 62
    92
370
    13
100
AcDbCircle
 10
-1936.500269606308
 20
2342.000148463893
 30
0.0
 40
1.5
100
AcDbArc
 50
180.0
 51
270.0
  0
LINE
  5
187
330
1F
100
AcDbEntity
  8
引手
  6
Continuous
 62
    92
370
    13
100
AcDbLine
 10
-1897.500269606306
 20
2340.500148463894
 30
0.0
 11
-1936.500269606308
 21
2340.500148463894
 31
0.0
  0
ARC
  5
188
330
1F
100
AcDbEntity
  8
引手
  6
Continuous
 62
    92
370
    13
100
AcDbCircle
 10
-1897.500269606306
 20
2342.000148463893
 30
0.0
 40
1.5
100
AcDbArc
 50
270.0
 51
0.0
  0
LINE
  5
189
330
1F
100
AcDbEntity
  8
引手
  6
Continuous
 62
    92
370
    13
100
AcDbLine
 10
-1896.000269606308
 20
2449.000148463893
 30
0.0
 11
-1896.000269606308
 21
2342.000148463893
 31
0.0
  0
LINE
  5
18A
330
1F
100
AcDbEntity
  8
引手
  6
Continuous
 62
    92
370
    13
100
AcDbLine
 10
-1897.500269606306
 20
2450.500148463894
 30
0.0
 11
-1936.500269606308
 21
2450.500148463894
 31
0.0
  0
ARC
  5
18B
330
1F
100
AcDbEntity
  8
引手
  6
Continuous
 62
    92
370
    13
100
AcDbCircle
 10
-1897.500269606306
 20
2449.000148463893
 30
0.0
 40
1.5
100
AcDbArc
 50
0.0
 51
90.0
  0
ARC
  5
18C
330
1F
100
AcDbEntity
  8
引手
  6
Continuous
 62
     7
370
     9
100
AcDbCircle
 10
-1928.000269606307
 20
2433.000148463894
 30
0.0
 40
1.5
100
AcDbArc
 50
90.0
 51
180.0
  0
LINE
  5
18D
330
1F
100
AcDbEntity
  8
引手
  6
Continuous
 62
     7
370
     9
100
AcDbLine
 10
-1929.500269606308
 20
2358.000148463894
 30
0.0
 11
-1929.500269606308
 21
2433.000148463894
 31
0.0
  0
ARC
  5
18E
330
1F
100
AcDbEntity
  8
引手
  6
Continuous
 62
     7
370
     9
100
AcDbCircle
 10
-1928.000269606307
 20
2358.000148463894
 30
0.0
 40
1.5
100
AcDbArc
 50
180.0
 51
270.0
  0
LINE
  5
18F
330
1F
100
AcDbEntity
  8
引手
  6
Continuous
 62
     7
370
     9
100
AcDbLine
 10
-1906.000269606307
 20
2356.500148463894
 30
0.0
 11
-1928.000269606307
 21
2356.500148463894
 31
0.0
  0
ARC
  5
190
330
1F
100
AcDbEntity
  8
引手
  6
Continuous
 62
     7
370
     9
100
AcDbCircle
 10
-1906.000269606307
 20
2358.000148463894
 30
0.0
 40
1.5
100
AcDbArc
 50
270.0
 51
0.0
  0
LINE
  5
191
330
1F
100
AcDbEntity
  8
引手
  6
Continuous
 62
     7
370
     9
100
AcDbLine
 10
-1904.500269606307
 20
2433.000148463894
 30
0.0
 11
-1904.500269606307
 21
2358.000148463894
 31
0.0
  0
LINE
  5
192
330
1F
100
AcDbEntity
  8
引手
  6
Continuous
 62
     7
370
     9
100
AcDbLine
 10
-1906.000269606307
 20
2434.500148463894
 30
0.0
 11
-1928.000269606307
 21
2434.500148463894
 31
0.0
  0
ARC
  5
193
330
1F
100
AcDbEntity
  8
引手
  6
Continuous
 62
     7
370
     9
100
AcDbCircle
 10
-1906.000269606307
 20
2433.000148463894
 30
0.0
 40
1.5
100
AcDbArc
 50
0.0
 51
90.0
  0
ARC
  5
194
330
1F
100
AcDbEntity
  8
引手
  6
Continuous
 62
    92
370
    13
100
AcDbCircle
 10
-448.5002696063077
 20
2449.000148463893
 30
0.0
 40
1.5
100
AcDbArc
 50
90.0
 51
180.0
  0
LINE
  5
195
330
1F
100
AcDbEntity
  8
引手
  6
Continuous
 62
    92
370
    13
100
AcDbLine
 10
-450.0002696063081
 20
2342.000148463893
 30
0.0
 11
-450.0002696063081
 21
2449.000148463893
 31
0.0
  0
ARC
  5
196
330
1F
100
AcDbEntity
  8
引手
  6
Continuous
 62
    92
370
    13
100
AcDbCircle
 10
-448.5002696063077
 20
2342.000148463893
 30
0.0
 40
1.5
100
AcDbArc
 50
180.0
 51
270.0
  0
LINE
  5
197
330
1F
100
AcDbEntity
  8
引手
  6
Continuous
 62
    92
370
    13
100
AcDbLine
 10
-409.5002696063057
 20
2340.500148463894
 30
0.0
 11
-448.5002696063077
 21
2340.500148463894
 31
0.0
  0
ARC
  5
198
330
1F
100
AcDbEntity
  8
引手
  6
Continuous
 62
    92
370
    13
100
AcDbCircle
 10
-409.5002696063057
 20
2342.000148463893
 30
0.0
 40
1.5
100
AcDbArc
 50
270.0
 51
0.0
  0
LINE
  5
199
330
1F
100
AcDbEntity
  8
引手
  6
Continuous
 62
    92
370
    13
100
AcDbLine
 10
-408.000269606307
 20
2449.000148463893
 30
0.0
 11
-408.000269606307
 21
2342.000148463893
 31
0.0
  0
LINE
  5
19A
330
1F
100
AcDbEntity
  8
引手
  6
Continuous
 62
    92
370
    13
100
AcDbLine
 10
-409.5002696063057
 20
2450.500148463894
 30
0.0
 11
-448.5002696063077
 21
2450.500148463894
 31
0.0
  0
ARC
  5
19B
330
1F
100
AcDbEntity
  8
引手
  6
Continuous
 62
    92
370
    13
100
AcDbCircle
 10
-409.5002696063057
 20
2449.000148463893
 30
0.0
 40
1.5
100
AcDbArc
 50
0.0
 51
90.0
  0
ARC
  5
19C
330
1F
100
AcDbEntity
  8
引手
  6
Continuous
 62
     7
370
     9
100
AcDbCircle
 10
-440.0002696063052
 20
2433.000148463894
 30
0.0
 40
1.5
100
AcDbArc
 50
90.0
 51
180.0
  0
LINE
  5
19D
330
1F
100
AcDbEntity
  8
引手
  6
Continuous
 62
     7
370
     9
100
AcDbLine
 10
-441.5002696063073
 20
2358.000148463894
 30
0.0
 11
-441.5002696063073
 21
2433.000148463894
 31
0.0
  0
ARC
  5
19E
330
1F
100
AcDbEntity
  8
引手
  6
Continuous
 62
     7
370
     9
100
AcDbCircle
 10
-440.0002696063052
 20
2358.000148463894
 30
0.0
 40
1.5
100
AcDbArc
 50
180.0
 51
270.0
  0
LINE
  5
19F
330
1F
100
AcDbEntity
  8
引手
  6
Continuous
 62
     7
370
     9
100
AcDbLine
 10
-418.0002696063082
 20
2356.500148463894
 30
0.0
 11
-440.0002696063052
 21
2356.500148463894
 31
0.0
  0
ARC
  5
1A0
330
1F
100
AcDbEntity
  8
引手
  6
Continuous
 62
     7
370
     9
100
AcDbCircle
 10
-418.0002696063082
 20
2358.000148463894
 30
0.0
 40
1.5
100
AcDbArc
 50
270.0
 51
0.0
  0
LINE
  5
1A1
330
1F
100
AcDbEntity
  8
引手
  6
Continuous
 62
     7
370
     9
100
AcDbLine
 10
-416.5002696063053
 20
2433.000148463894
 30
0.0
 11
-416.5002696063053
 21
2358.000148463894
 31
0.0
  0
LINE
  5
1A2
330
1F
100
AcDbEntity
  8
引手
  6
Continuous
 62
     7
370
     9
100
AcDbLine
 10
-418.0002696063082
 20
2434.500148463894
 30
0.0
 11
-440.0002696063052
 21
2434.500148463894
 31
0.0
  0
ARC
  5
1A3
330
1F
100
AcDbEntity
  8
引手
  6
Continuous
 62
     7
370
     9
100
AcDbCircle
 10
-418.0002696063082
 20
2433.000148463894
 30
0.0
 40
1.5
100
AcDbArc
 50
0.0
 51
90.0
  0
MTEXT
  5
1A4
330
1F
100
AcDbEntity
  8
0-A_文字
  6
Continuous
 62
     7
370
     9
100
AcDbMText
 10
-4295.000144082147
 20
4013.576151024072
 30
0.0
 40
77.15249999999999
 41
405.0
 46
0.0
 71
     7
 72
     1
  1
{\fＭＳ ゴシック|b0|i0|c128|p49;Ｎ－ＶＶ}
 73
     1
 44
1.0
  0
MTEXT
  5
1A5
330
1F
100
AcDbEntity
  8
0-A_文字
  6
Continuous
 62
     7
370
     9
100
AcDbMText
 10
-1500.000395130467
 20
4013.576151024072
 30
0.0
 40
77.15249999999999
 41
405.0
 46
0.0
 71
     7
 72
     1
  1
{\fＭＳ ゴシック|b0|i0|c128|p49;Ｎ－ＶＶ}
 73
     1
 44
1.0
  0
MTEXT
  5
1A6
330
1F
100
AcDbEntity
  8
F-A_文字
  6
Continuous
 62
     7
370
     0
100
AcDbMText
 10
-5239.999990205507
 20
-4045.243414339259
 30
0.0
 40
79.51304347826087
 41
2400.0
 46
0.0
 71
     7
 72
     1
  1
{\fＭＳ ゴシック|b0|i0|c128|p49;ピノアース　引き違い戸　レールタイプ　Ｎ－ＶＶ}
 73
     1
 44
1.0
  0
MTEXT
  5
1A7
330
1F
100
AcDbEntity
  8
F-A_文字
  6
Continuous
 62
     7
370
     0
100
AcDbMText
 10
349.9999175200594
 20
-3945.630201962234
 30
0.0
 40
78.74000000000001
 41
465.0
 46
0.0
 71
     7
 72
     1
  1
{\fＭＳ ゴシック|b0|i0|c128|p49;PINOEARTH}
 73
     1
 44
1.0
  0
MTEXT
  5
1A8
330
1F
100
AcDbEntity
  8
F-A_文字
  6
Continuous
 62
     7
370
     0
100
AcDbMText
 10
4778.749126529666
 20
-3938.071010139966
 30
0.0
 40
78.86699999999999
 41
517.5
 46
0.0
 71
     7
 72
     1
  1
{\fＭＳ ゴシック|b0|i0|c128|p49;2021.04.01}
 73
     1
 44
1.0
  0
MTEXT
  5
1A9
330
1F
100
AcDbEntity
  8
F-A_文字
  6
Continuous
 62
     7
370
     9
100
AcDbMText
 10
4936.249033580831
 20
-4147.857012699985
 30
0.0
 40
74.295
 41
97.5
 46
0.0
 71
     7
 72
     1
  1
{\fＭＳ ゴシック|b0|i0|c128|p49;01}
 73
     1
 44
1.0
  0
LINE
  5
1AA
330
1F
100
AcDbEntity
  8
0-0_補助線
  6
JWW_HOJO
 62
   120
370
     5
100
AcDbLine
 10
-5370.000018557986
 20
4174.999769056166
 30
0.0
 11
-5370.000018557986
 21
-3790.000179909371
 31
0.0
  0
LINE
  5
1AB
330
1F
100
AcDbEntity
  8
0-0_補助線
  6
JWW_HOJO
 62
   120
370
     5
100
AcDbLine
 10
-5999.99998453501
 20
670.5001831054692
 30
0.0
 11
5699.998762800888
 21
670.5001831054692
 31
0.0
  0
LINE
  5
1AC
330
1F
100
AcDbEntity
  8
0-0_補助線
  6
JWW_HOJO
 62
   120
370
     5
100
AcDbLine
 10
-5999.99998453501
 20
550.5001831054688
 30
0.0
 11
5699.998762800888
 21
550.5001831054688
 31
0.0
  0
LINE
  5
1AD
330
1F
100
AcDbEntity
  8
0-0_補助線
  6
JWW_HOJO
 62
   120
370
     5
100
AcDbLine
 10
-5999.99998453501
 20
430.5001831054688
 30
0.0
 11
5699.998762800888
 21
430.5001831054688
 31
0.0
  0
LINE
  5
1AE
330
1F
100
AcDbEntity
  8
0-0_補助線
  6
JWW_HOJO
 62
   120
370
     5
100
AcDbLine
 10
-5999.99998453501
 20
310.5001831054688
 30
0.0
 11
5699.998762800888
 21
310.5001831054688
 31
0.0
  0
LINE
  5
1AF
330
1F
100
AcDbEntity
  8
0-0_補助線
  6
JWW_HOJO
 62
   120
370
     5
100
AcDbLine
 10
5699.998762800888
 20
-3430.000017526988
 30
0.0
 11
-5999.99998453501
 21
-3430.000017526988
 31
0.0
  0
LINE
  5
1B0
330
1F
100
AcDbEntity
  8
0-0_補助線
  6
JWW_HOJO
 62
   120
370
     5
100
AcDbLine
 10
5699.998762800888
 20
-3550.000017526988
 30
0.0
 11
-5999.99998453501
 21
-3550.000017526988
 31
0.0
  0
LINE
  5
1B1
330
1F
100
AcDbEntity
  8
0-0_補助線
  6
JWW_HOJO
 62
   120
370
     5
100
AcDbLine
 10
5699.998762800888
 20
-3670.000017526988
 30
0.0
 11
-5999.99998453501
 21
-3670.000017526988
 31
0.0
  0
LINE
  5
1B2
330
1F
100
AcDbEntity
  8
0-0_補助線
  6
JWW_HOJO
 62
   120
370
     5
100
AcDbLine
 10
-2575.000269606308
 20
4174.999769056166
 30
0.0
 11
-2575.000269606308
 21
-3790.000179909371
 31
0.0
  0
LINE
  5
1B3
330
1F
100
AcDbEntity
  8
0-0_補助線
  6
JWW_HOJO
 62
   120
370
     5
100
AcDbLine
 10
219.9994793453743
 20
4174.999769056166
 30
0.0
 11
219.9994793453743
 21
-3790.000179909371
 31
0.0
  0
LINE
  5
1B4
330
1F
100
AcDbEntity
  8
0-0_補助線
  6
JWW_HOJO
 62
   120
370
     5
100
AcDbLine
 10
3014.999228297052
 20
4174.999769056166
 30
0.0
 11
3014.999228297052
 21
-3790.000179909371
 31
0.0
  0
LINE
  5
1B5
330
1F
100
AcDbEntity
  8
0-0_補助線
  6
JWW_HOJO
 62
   120
370
     5
100
AcDbLine
 10
-5999.99998453501
 20
790.5001831054697
 30
0.0
 11
5699.998762800888
 21
790.5001831054697
 31
0.0
  0
LINE
  5
1B6
330
1F
100
AcDbEntity
  8
0-0_補助線
  6
JWW_HOJO
 62
   120
370
     5
100
AcDbLine
 10
5699.998762800888
 20
-3190.000017526988
 30
0.0
 11
-5999.99998453501
 21
-3190.000017526988
 31
0.0
  0
LINE
  5
1B7
330
1F
100
AcDbEntity
  8
0-0_補助線
  6
JWW_HOJO
 62
   120
370
     5
100
AcDbLine
 10
5699.998762800888
 20
-3310.000017526988
 30
0.0
 11
-5999.99998453501
 21
-3310.000017526988
 31
0.0
  0
MTEXT
  5
1B8
330
1F
100
AcDbEntity
  8
0-A_文字
  6
Continuous
 62
     7
370
     9
100
AcDbMText
 10
-5370.000018557984
 20
661.5754150802815
 30
0.0
 40
57.14999999999996
 41
975.0
 46
0.0
 71
     7
 72
     1
  1
{\fＭＳ ゴシック|b0|i0|c128|p49;枠外幅 1,824mm（DW=900mm）}
 73
     1
 44
1.0
  0
MTEXT
  5
1B9
330
1F
100
AcDbEntity
  8
0-A_文字
  6
Continuous
 62
     7
370
     9
100
AcDbMText
 10
-2575.000269606313
 20
661.5754150802817
 30
0.0
 40
57.1500000000006
 41
975.0000000000107
 46
0.0
 71
     7
 72
     1
  1
{\fＭＳ ゴシック|b0|i0|c128|p49;枠外幅 1,644mm（DW=810mm）}
 73
     1
 44
1.0
  0
MTEXT
  5
1BA
330
1F
100
AcDbEntity
  8
0-A_文字
  6
Continuous
 62
     7
370
     9
100
AcDbMText
 10
-2575.000269606308
 20
541.5751831054479
 30
0.0
 40
57.15000000000008
 41
675.0000000000009
 46
0.0
 71
     7
 72
     1
  1
{\fＭＳ ゴシック|b0|i0|c128|p49;ミスト熱処理ガラス}
 73
     1
 44
1.0
  0
MTEXT
  5
1BB
330
1F
100
AcDbEntity
  8
0-A_文字
  6
Continuous
 62
     7
370
     9
100
AcDbMText
 10
-5370.000018557986
 20
541.5751831054479
 30
0.0
 40
57.14999999999999
 41
675.0
 46
0.0
 71
     7
 72
     1
  1
{\fＭＳ ゴシック|b0|i0|c128|p49;ミスト熱処理ガラス}
 73
     1
 44
1.0
  0
LINE
  5
1BC
330
1F
100
AcDbEntity
  8
0-C_ハッチ
  6
JWW_DASHED1
 62
   120
370
     5
100
AcDbLine
 10
-4622.500018557984
 20
3254.669523860175
 30
0.0
 11
-4611.169393954263
 21
3266.000148463894
 31
0.0
  0
LINE
  5
1BD
330
1F
100
AcDbEntity
  8
0-C_ハッチ
  6
JWW_DASHED1
 62
   120
370
     5
100
AcDbLine
 10
-4622.500018557984
 20
3028.395353880495
 30
0.0
 11
-4384.895223974583
 21
3266.000148463894
 31
0.0
  0
LINE
  5
1BE
330
1F
100
AcDbEntity
  8
0-C_ハッチ
  6
JWW_DASHED1
 62
   120
370
     5
100
AcDbLine
 10
-4622.500018557984
 20
3042.537489504229
 30
0.0
 11
-4399.037359598317
 21
3266.000148463894
 31
0.0
  0
LINE
  5
1BF
330
1F
100
AcDbEntity
  8
0-C_ハッチ
  6
JWW_DASHED1
 62
   120
370
     5
100
AcDbLine
 10
-4622.500018557984
 20
3056.679625127961
 30
0.0
 11
-4413.17949522205
 21
3266.000148463894
 31
0.0
  0
LINE
  5
1C0
330
1F
100
AcDbEntity
  8
0-C_ハッチ
  6
JWW_DASHED1
 62
   120
370
     5
100
AcDbLine
 10
-4622.500018557984
 20
3070.821760751694
 30
0.0
 11
-4427.321630845783
 21
3266.000148463894
 31
0.0
  0
LINE
  5
1C1
330
1F
100
AcDbEntity
  8
0-C_ハッチ
  6
JWW_DASHED1
 62
   120
370
     5
100
AcDbLine
 10
-4622.500018557984
 20
3084.963896375429
 30
0.0
 11
-4441.463766469517
 21
3266.000148463894
 31
0.0
  0
LINE
  5
1C2
330
1F
100
AcDbEntity
  8
0-C_ハッチ
  6
JWW_DASHED1
 62
   120
370
     5
100
AcDbLine
 10
-4622.500018557984
 20
3099.106031999164
 30
0.0
 11
-4455.605902093251
 21
3266.000148463894
 31
0.0
  0
LINE
  5
1C3
330
1F
100
AcDbEntity
  8
0-C_ハッチ
  6
JWW_DASHED1
 62
   120
370
     5
100
AcDbLine
 10
-4622.500018557984
 20
3113.248167622897
 30
0.0
 11
-4469.748037716984
 21
3266.000148463894
 31
0.0
  0
LINE
  5
1C4
330
1F
100
AcDbEntity
  8
0-C_ハッチ
  6
JWW_DASHED1
 62
   120
370
     5
100
AcDbLine
 10
-4622.500018557984
 20
3127.390303246629
 30
0.0
 11
-4483.890173340717
 21
3266.000148463894
 31
0.0
  0
LINE
  5
1C5
330
1F
100
AcDbEntity
  8
0-C_ハッチ
  6
JWW_DASHED1
 62
   120
370
     5
100
AcDbLine
 10
-4622.500018557984
 20
3141.532438870363
 30
0.0
 11
-4498.032308964451
 21
3266.000148463894
 31
0.0
  0
LINE
  5
1C6
330
1F
100
AcDbEntity
  8
0-C_ハッチ
  6
JWW_DASHED1
 62
   120
370
     5
100
AcDbLine
 10
-4622.500018557984
 20
3155.674574494096
 30
0.0
 11
-4512.174444588184
 21
3266.000148463894
 31
0.0
  0
LINE
  5
1C7
330
1F
100
AcDbEntity
  8
0-C_ハッチ
  6
JWW_DASHED1
 62
   120
370
     5
100
AcDbLine
 10
-4622.500018557984
 20
3169.816710117829
 30
0.0
 11
-4526.316580211917
 21
3266.000148463894
 31
0.0
  0
LINE
  5
1C8
330
1F
100
AcDbEntity
  8
0-C_ハッチ
  6
JWW_DASHED1
 62
   120
370
     5
100
AcDbLine
 10
-4622.500018557984
 20
3183.958845741561
 30
0.0
 11
-4540.45871583565
 21
3266.000148463894
 31
0.0
  0
LINE
  5
1C9
330
1F
100
AcDbEntity
  8
0-C_ハッチ
  6
JWW_DASHED1
 62
   120
370
     5
100
AcDbLine
 10
-4622.500018557984
 20
3198.100981365241
 30
0.0
 11
-4554.60085145933
 21
3266.000148463894
 31
0.0
  0
LINE
  5
1CA
330
1F
100
AcDbEntity
  8
0-C_ハッチ
  6
JWW_DASHED1
 62
   120
370
     5
100
AcDbLine
 10
-4622.500018557984
 20
3212.243116988975
 30
0.0
 11
-4568.742987083063
 21
3266.000148463894
 31
0.0
  0
LINE
  5
1CB
330
1F
100
AcDbEntity
  8
0-C_ハッチ
  6
JWW_DASHED1
 62
   120
370
     5
100
AcDbLine
 10
-4622.500018557984
 20
3226.385252612708
 30
0.0
 11
-4582.885122706796
 21
3266.000148463894
 31
0.0
  0
LINE
  5
1CC
330
1F
100
AcDbEntity
  8
0-C_ハッチ
  6
JWW_DASHED1
 62
   120
370
     5
100
AcDbLine
 10
-4622.500018557984
 20
3240.527388236441
 30
0.0
 11
-4597.02725833053
 21
3266.000148463894
 31
0.0
  0
LINE
  5
1CD
330
1F
100
AcDbEntity
  8
0-C_ハッチ
  6
JWW_DASHED1
 62
   120
370
     5
100
AcDbLine
 10
-4381.54962724547
 20
1643.000148463894
 30
0.0
 11
-4377.000018557985
 21
1647.549757151379
 31
0.0
  0
LINE
  5
1CE
330
1F
100
AcDbEntity
  8
0-C_ハッチ
  6
JWW_DASHED1
 62
   120
370
     5
100
AcDbLine
 10
-4622.500018557984
 20
3014.253218256764
 30
0.0
 11
-4377.000018557985
 21
3259.753218256761
 31
0.0
  0
LINE
  5
1CF
330
1F
100
AcDbEntity
  8
0-C_ハッチ
  6
JWW_DASHED1
 62
   120
370
     5
100
AcDbLine
 10
-4622.500018557984
 20
1642.466062754792
 30
0.0
 11
-4377.000018557985
 21
1887.96606275479
 31
0.0
  0
LINE
  5
1D0
330
1F
100
AcDbEntity
  8
0-C_ハッチ
  6
JWW_DASHED1
 62
   120
370
     5
100
AcDbLine
 10
-4622.500018557984
 20
1656.608198378528
 30
0.0
 11
-4377.000018557985
 21
1902.108198378524
 31
0.0
  0
LINE
  5
1D1
330
1F
100
AcDbEntity
  8
0-C_ハッチ
  6
JWW_DASHED1
 62
   120
370
     5
100
AcDbLine
 10
-4622.500018557984
 20
1670.750334002258
 30
0.0
 11
-4377.000018557985
 21
1916.250334002257
 31
0.0
  0
LINE
  5
1D2
330
1F
100
AcDbEntity
  8
0-C_ハッチ
  6
JWW_DASHED1
 62
   120
370
     5
100
AcDbLine
 10
-4622.500018557984
 20
1684.892469625992
 30
0.0
 11
-4377.000018557985
 21
1930.392469625993
 31
0.0
  0
LINE
  5
1D3
330
1F
100
AcDbEntity
  8
0-C_ハッチ
  6
JWW_DASHED1
 62
   120
370
     5
100
AcDbLine
 10
-4622.500018557984
 20
1699.034605249724
 30
0.0
 11
-4377.000018557985
 21
1944.534605249724
 31
0.0
  0
LINE
  5
1D4
330
1F
100
AcDbEntity
  8
0-C_ハッチ
  6
JWW_DASHED1
 62
   120
370
     5
100
AcDbLine
 10
-4622.500018557984
 20
1713.176740873459
 30
0.0
 11
-4377.000018557985
 21
1958.676740873459
 31
0.0
  0
LINE
  5
1D5
330
1F
100
AcDbEntity
  8
0-C_ハッチ
  6
JWW_DASHED1
 62
   120
370
     5
100
AcDbLine
 10
-4622.500018557984
 20
1727.318876497191
 30
0.0
 11
-4377.000018557985
 21
1972.818876497189
 31
0.0
  0
LINE
  5
1D6
330
1F
100
AcDbEntity
  8
0-C_ハッチ
  6
JWW_DASHED1
 62
   120
370
     5
100
AcDbLine
 10
-4622.500018557984
 20
1741.461012120928
 30
0.0
 11
-4377.000018557985
 21
1986.961012120924
 31
0.0
  0
LINE
  5
1D7
330
1F
100
AcDbEntity
  8
0-C_ハッチ
  6
JWW_DASHED1
 62
   120
370
     5
100
AcDbLine
 10
-4622.500018557984
 20
1755.603147744659
 30
0.0
 11
-4377.000018557985
 21
2001.103147744657
 31
0.0
  0
LINE
  5
1D8
330
1F
100
AcDbEntity
  8
0-C_ハッチ
  6
JWW_DASHED1
 62
   120
370
     5
100
AcDbLine
 10
-4622.500018557984
 20
1769.745283368392
 30
0.0
 11
-4377.000018557985
 21
2015.245283368389
 31
0.0
  0
LINE
  5
1D9
330
1F
100
AcDbEntity
  8
0-C_ハッチ
  6
JWW_DASHED1
 62
   120
370
     5
100
AcDbLine
 10
-4622.500018557984
 20
1783.887418992124
 30
0.0
 11
-4377.000018557985
 21
2029.387418992124
 31
0.0
  0
LINE
  5
1DA
330
1F
100
AcDbEntity
  8
0-C_ハッチ
  6
JWW_DASHED1
 62
   120
370
     5
100
AcDbLine
 10
-4622.500018557984
 20
1798.029554615859
 30
0.0
 11
-4377.000018557985
 21
2043.52955461586
 31
0.0
  0
LINE
  5
1DB
330
1F
100
AcDbEntity
  8
0-C_ハッチ
  6
JWW_DASHED1
 62
   120
370
     5
100
AcDbLine
 10
-4622.500018557984
 20
1812.171690239592
 30
0.0
 11
-4377.000018557985
 21
2057.671690239592
 31
0.0
  0
LINE
  5
1DC
330
1F
100
AcDbEntity
  8
0-C_ハッチ
  6
JWW_DASHED1
 62
   120
370
     5
100
AcDbLine
 10
-4622.500018557984
 20
1826.313825863326
 30
0.0
 11
-4377.000018557985
 21
2071.813825863325
 31
0.0
  0
LINE
  5
1DD
330
1F
100
AcDbEntity
  8
0-C_ハッチ
  6
JWW_DASHED1
 62
   120
370
     5
100
AcDbLine
 10
-4622.500018557984
 20
1840.455961487058
 30
0.0
 11
-4377.000018557985
 21
2085.955961487056
 31
0.0
  0
LINE
  5
1DE
330
1F
100
AcDbEntity
  8
0-C_ハッチ
  6
JWW_DASHED1
 62
   120
370
     5
100
AcDbLine
 10
-4622.500018557984
 20
1854.598097110792
 30
0.0
 11
-4377.000018557985
 21
2100.098097110792
 31
0.0
  0
LINE
  5
1DF
330
1F
100
AcDbEntity
  8
0-C_ハッチ
  6
JWW_DASHED1
 62
   120
370
     5
100
AcDbLine
 10
-4622.500018557984
 20
1868.740232734526
 30
0.0
 11
-4377.000018557985
 21
2114.240232734523
 31
0.0
  0
LINE
  5
1E0
330
1F
100
AcDbEntity
  8
0-C_ハッチ
  6
JWW_DASHED1
 62
   120
370
     5
100
AcDbLine
 10
-4622.500018557984
 20
1882.88236835826
 30
0.0
 11
-4377.000018557985
 21
2128.382368358256
 31
0.0
  0
LINE
  5
1E1
330
1F
100
AcDbEntity
  8
0-C_ハッチ
  6
JWW_DASHED1
 62
   120
370
     5
100
AcDbLine
 10
-4622.500018557984
 20
1897.024503981992
 30
0.0
 11
-4377.000018557985
 21
2142.524503981992
 31
0.0
  0
LINE
  5
1E2
330
1F
100
AcDbEntity
  8
0-C_ハッチ
  6
JWW_DASHED1
 62
   120
370
     5
100
AcDbLine
 10
-4622.500018557984
 20
1911.166639605725
 30
0.0
 11
-4377.000018557985
 21
2156.666639605726
 31
0.0
  0
LINE
  5
1E3
330
1F
100
AcDbEntity
  8
0-C_ハッチ
  6
JWW_DASHED1
 62
   120
370
     5
100
AcDbLine
 10
-4622.500018557984
 20
1925.308775229459
 30
0.0
 11
-4377.000018557985
 21
2170.808775229456
 31
0.0
  0
LINE
  5
1E4
330
1F
100
AcDbEntity
  8
0-C_ハッチ
  6
JWW_DASHED1
 62
   120
370
     5
100
AcDbLine
 10
-4622.500018557984
 20
1939.450910853193
 30
0.0
 11
-4377.000018557985
 21
2184.950910853192
 31
0.0
  0
LINE
  5
1E5
330
1F
100
AcDbEntity
  8
0-C_ハッチ
  6
JWW_DASHED1
 62
   120
370
     5
100
AcDbLine
 10
-4622.500018557984
 20
1953.593046476925
 30
0.0
 11
-4377.000018557985
 21
2199.093046476923
 31
0.0
  0
LINE
  5
1E6
330
1F
100
AcDbEntity
  8
0-C_ハッチ
  6
JWW_DASHED1
 62
   120
370
     5
100
AcDbLine
 10
-4622.500018557984
 20
1967.73518210066
 30
0.0
 11
-4377.000018557985
 21
2213.235182100656
 31
0.0
  0
LINE
  5
1E7
330
1F
100
AcDbEntity
  8
0-C_ハッチ
  6
JWW_DASHED1
 62
   120
370
     5
100
AcDbLine
 10
-4622.500018557984
 20
1981.877317724392
 30
0.0
 11
-4377.000018557985
 21
2227.37731772439
 31
0.0
  0
LINE
  5
1E8
330
1F
100
AcDbEntity
  8
0-C_ハッチ
  6
JWW_DASHED1
 62
   120
370
     5
100
AcDbLine
 10
-4622.500018557984
 20
1996.019453348127
 30
0.0
 11
-4377.000018557985
 21
2241.519453348125
 31
0.0
  0
LINE
  5
1E9
330
1F
100
AcDbEntity
  8
0-C_ハッチ
  6
JWW_DASHED1
 62
   120
370
     5
100
AcDbLine
 10
-4622.500018557984
 20
2010.161588971859
 30
0.0
 11
-4377.000018557985
 21
2255.661588971859
 31
0.0
  0
LINE
  5
1EA
330
1F
100
AcDbEntity
  8
0-C_ハッチ
  6
JWW_DASHED1
 62
   120
370
     5
100
AcDbLine
 10
-4622.500018557984
 20
2024.303724595536
 30
0.0
 11
-4377.000018557985
 21
2269.803724595534
 31
0.0
  0
LINE
  5
1EB
330
1F
100
AcDbEntity
  8
0-C_ハッチ
  6
JWW_DASHED1
 62
   120
370
     5
100
AcDbLine
 10
-4622.500018557984
 20
2038.445860219272
 30
0.0
 11
-4377.000018557985
 21
2283.945860219269
 31
0.0
  0
LINE
  5
1EC
330
1F
100
AcDbEntity
  8
0-C_ハッチ
  6
JWW_DASHED1
 62
   120
370
     5
100
AcDbLine
 10
-4622.500018557984
 20
2052.587995843005
 30
0.0
 11
-4377.000018557985
 21
2298.087995843002
 31
0.0
  0
LINE
  5
1ED
330
1F
100
AcDbEntity
  8
0-C_ハッチ
  6
JWW_DASHED1
 62
   120
370
     5
100
AcDbLine
 10
-4622.500018557984
 20
2066.730131466739
 30
0.0
 11
-4377.000018557985
 21
2312.230131466737
 31
0.0
  0
LINE
  5
1EE
330
1F
100
AcDbEntity
  8
0-C_ハッチ
  6
JWW_DASHED1
 62
   120
370
     5
100
AcDbLine
 10
-4622.500018557984
 20
2080.872267090472
 30
0.0
 11
-4377.000018557985
 21
2326.372267090472
 31
0.0
  0
LINE
  5
1EF
330
1F
100
AcDbEntity
  8
0-C_ハッチ
  6
JWW_DASHED1
 62
   120
370
     5
100
AcDbLine
 10
-4622.500018557984
 20
2095.014402714204
 30
0.0
 11
-4377.000018557985
 21
2340.514402714205
 31
0.0
  0
LINE
  5
1F0
330
1F
100
AcDbEntity
  8
0-C_ハッチ
  6
JWW_DASHED1
 62
   120
370
     5
100
AcDbLine
 10
-4622.500018557984
 20
2109.156538337939
 30
0.0
 11
-4377.000018557985
 21
2354.656538337936
 31
0.0
  0
LINE
  5
1F1
330
1F
100
AcDbEntity
  8
0-C_ハッチ
  6
JWW_DASHED1
 62
   120
370
     5
100
AcDbLine
 10
-4622.500018557984
 20
2123.29867396167
 30
0.0
 11
-4377.000018557985
 21
2368.798673961669
 31
0.0
  0
LINE
  5
1F2
330
1F
100
AcDbEntity
  8
0-C_ハッチ
  6
JWW_DASHED1
 62
   120
370
     5
100
AcDbLine
 10
-4622.500018557984
 20
2137.440809585403
 30
0.0
 11
-4377.000018557985
 21
2382.940809585401
 31
0.0
  0
LINE
  5
1F3
330
1F
100
AcDbEntity
  8
0-C_ハッチ
  6
JWW_DASHED1
 62
   120
370
     5
100
AcDbLine
 10
-4622.500018557984
 20
2151.582945209136
 30
0.0
 11
-4377.000018557985
 21
2397.082945209136
 31
0.0
  0
LINE
  5
1F4
330
1F
100
AcDbEntity
  8
0-C_ハッチ
  6
JWW_DASHED1
 62
   120
370
     5
100
AcDbLine
 10
-4622.500018557984
 20
2165.725080832871
 30
0.0
 11
-4377.000018557985
 21
2411.225080832869
 31
0.0
  0
LINE
  5
1F5
330
1F
100
AcDbEntity
  8
0-C_ハッチ
  6
JWW_DASHED1
 62
   120
370
     5
100
AcDbLine
 10
-4622.500018557984
 20
2179.867216456606
 30
0.0
 11
-4377.000018557985
 21
2425.367216456603
 31
0.0
  0
LINE
  5
1F6
330
1F
100
AcDbEntity
  8
0-C_ハッチ
  6
JWW_DASHED1
 62
   120
370
     5
100
AcDbLine
 10
-4622.500018557984
 20
2194.009352080339
 30
0.0
 11
-4377.000018557985
 21
2439.509352080336
 31
0.0
  0
LINE
  5
1F7
330
1F
100
AcDbEntity
  8
0-C_ハッチ
  6
JWW_DASHED1
 62
   120
370
     5
100
AcDbLine
 10
-4622.500018557984
 20
2208.15148770407
 30
0.0
 11
-4377.000018557985
 21
2453.651487704071
 31
0.0
  0
LINE
  5
1F8
330
1F
100
AcDbEntity
  8
0-C_ハッチ
  6
JWW_DASHED1
 62
   120
370
     5
100
AcDbLine
 10
-4622.500018557984
 20
2222.293623327805
 30
0.0
 11
-4377.000018557985
 21
2467.793623327801
 31
0.0
  0
LINE
  5
1F9
330
1F
100
AcDbEntity
  8
0-C_ハッチ
  6
JWW_DASHED1
 62
   120
370
     5
100
AcDbLine
 10
-4622.500018557984
 20
2236.435758951536
 30
0.0
 11
-4377.000018557985
 21
2481.935758951536
 31
0.0
  0
LINE
  5
1FA
330
1F
100
AcDbEntity
  8
0-C_ハッチ
  6
JWW_DASHED1
 62
   120
370
     5
100
AcDbLine
 10
-4622.500018557984
 20
2250.57789457527
 30
0.0
 11
-4377.000018557985
 21
2496.077894575271
 31
0.0
  0
LINE
  5
1FB
330
1F
100
AcDbEntity
  8
0-C_ハッチ
  6
JWW_DASHED1
 62
   120
370
     5
100
AcDbLine
 10
-4622.500018557984
 20
2264.720030199004
 30
0.0
 11
-4377.000018557985
 21
2510.220030199004
 31
0.0
  0
LINE
  5
1FC
330
1F
100
AcDbEntity
  8
0-C_ハッチ
  6
JWW_DASHED1
 62
   120
370
     5
100
AcDbLine
 10
-4622.500018557984
 20
2278.862165822738
 30
0.0
 11
-4377.000018557985
 21
2524.362165822736
 31
0.0
  0
LINE
  5
1FD
330
1F
100
AcDbEntity
  8
0-C_ハッチ
  6
JWW_DASHED1
 62
   120
370
     5
100
AcDbLine
 10
-4622.500018557984
 20
2293.004301446473
 30
0.0
 11
-4377.000018557985
 21
2538.50430144647
 31
0.0
  0
LINE
  5
1FE
330
1F
100
AcDbEntity
  8
0-C_ハッチ
  6
JWW_DASHED1
 62
   120
370
     5
100
AcDbLine
 10
-4622.500018557984
 20
2307.146437070204
 30
0.0
 11
-4377.000018557985
 21
2552.646437070204
 31
0.0
  0
LINE
  5
1FF
330
1F
100
AcDbEntity
  8
0-C_ハッチ
  6
JWW_DASHED1
 62
   120
370
     5
100
AcDbLine
 10
-4622.500018557984
 20
2321.288572693937
 30
0.0
 11
-4377.000018557985
 21
2566.788572693938
 31
0.0
  0
LINE
  5
200
330
1F
100
AcDbEntity
  8
0-C_ハッチ
  6
JWW_DASHED1
 62
   120
370
     5
100
AcDbLine
 10
-4622.500018557984
 20
2335.430708317672
 30
0.0
 11
-4377.000018557985
 21
2580.930708317669
 31
0.0
  0
LINE
  5
201
330
1F
100
AcDbEntity
  8
0-C_ハッチ
  6
JWW_DASHED1
 62
   120
370
     5
100
AcDbLine
 10
-4622.500018557984
 20
2349.572843941404
 30
0.0
 11
-4377.000018557985
 21
2595.072843941404
 31
0.0
  0
LINE
  5
202
330
1F
100
AcDbEntity
  8
0-C_ハッチ
  6
JWW_DASHED1
 62
   120
370
     5
100
AcDbLine
 10
-4622.500018557984
 20
2363.714979565137
 30
0.0
 11
-4377.000018557985
 21
2609.214979565138
 31
0.0
  0
LINE
  5
203
330
1F
100
AcDbEntity
  8
0-C_ハッチ
  6
JWW_DASHED1
 62
   120
370
     5
100
AcDbLine
 10
-4622.500018557984
 20
2377.857115188872
 30
0.0
 11
-4377.000018557985
 21
2623.357115188868
 31
0.0
  0
LINE
  5
204
330
1F
100
AcDbEntity
  8
0-C_ハッチ
  6
JWW_DASHED1
 62
   120
370
     5
100
AcDbLine
 10
-4622.500018557984
 20
2391.999250812605
 30
0.0
 11
-4377.000018557985
 21
2637.499250812603
 31
0.0
  0
LINE
  5
205
330
1F
100
AcDbEntity
  8
0-C_ハッチ
  6
JWW_DASHED1
 62
   120
370
     5
100
AcDbLine
 10
-4622.500018557984
 20
2406.141386436339
 30
0.0
 11
-4377.000018557985
 21
2651.641386436337
 31
0.0
  0
LINE
  5
206
330
1F
100
AcDbEntity
  8
0-C_ハッチ
  6
JWW_DASHED1
 62
   120
370
     5
100
AcDbLine
 10
-4622.500018557984
 20
2420.283522060016
 30
0.0
 11
-4377.000018557985
 21
2665.783522060016
 31
0.0
  0
LINE
  5
207
330
1F
100
AcDbEntity
  8
0-C_ハッチ
  6
JWW_DASHED1
 62
   120
370
     5
100
AcDbLine
 10
-4622.500018557984
 20
2434.425657683748
 30
0.0
 11
-4377.000018557985
 21
2679.925657683749
 31
0.0
  0
LINE
  5
208
330
1F
100
AcDbEntity
  8
0-C_ハッチ
  6
JWW_DASHED1
 62
   120
370
     5
100
AcDbLine
 10
-4622.500018557984
 20
2448.567793307484
 30
0.0
 11
-4377.000018557985
 21
2694.067793307481
 31
0.0
  0
LINE
  5
209
330
1F
100
AcDbEntity
  8
0-C_ハッチ
  6
JWW_DASHED1
 62
   120
370
     5
100
AcDbLine
 10
-4622.500018557984
 20
2462.709928931216
 30
0.0
 11
-4377.000018557985
 21
2708.209928931215
 31
0.0
  0
LINE
  5
20A
330
1F
100
AcDbEntity
  8
0-C_ハッチ
  6
JWW_DASHED1
 62
   120
370
     5
100
AcDbLine
 10
-4622.500018557984
 20
2476.852064554951
 30
0.0
 11
-4377.000018557985
 21
2722.352064554948
 31
0.0
  0
LINE
  5
20B
330
1F
100
AcDbEntity
  8
0-C_ハッチ
  6
JWW_DASHED1
 62
   120
370
     5
100
AcDbLine
 10
-4622.500018557984
 20
2490.994200178684
 30
0.0
 11
-4377.000018557985
 21
2736.494200178681
 31
0.0
  0
LINE
  5
20C
330
1F
100
AcDbEntity
  8
0-C_ハッチ
  6
JWW_DASHED1
 62
   120
370
     5
100
AcDbLine
 10
-4622.500018557984
 20
2505.136335802416
 30
0.0
 11
-4377.000018557985
 21
2750.636335802417
 31
0.0
  0
LINE
  5
20D
330
1F
100
AcDbEntity
  8
0-C_ハッチ
  6
JWW_DASHED1
 62
   120
370
     5
100
AcDbLine
 10
-4622.500018557984
 20
2519.278471426151
 30
0.0
 11
-4377.000018557985
 21
2764.778471426148
 31
0.0
  0
LINE
  5
20E
330
1F
100
AcDbEntity
  8
0-C_ハッチ
  6
JWW_DASHED1
 62
   120
370
     5
100
AcDbLine
 10
-4622.500018557984
 20
2533.420607049884
 30
0.0
 11
-4377.000018557985
 21
2778.92060704988
 31
0.0
  0
LINE
  5
20F
330
1F
100
AcDbEntity
  8
0-C_ハッチ
  6
JWW_DASHED1
 62
   120
370
     5
100
AcDbLine
 10
-4622.500018557984
 20
2547.562742673615
 30
0.0
 11
-4377.000018557985
 21
2793.062742673616
 31
0.0
  0
LINE
  5
210
330
1F
100
AcDbEntity
  8
0-C_ハッチ
  6
JWW_DASHED1
 62
   120
370
     5
100
AcDbLine
 10
-4622.500018557984
 20
2561.704878297352
 30
0.0
 11
-4377.000018557985
 21
2807.204878297348
 31
0.0
  0
LINE
  5
211
330
1F
100
AcDbEntity
  8
0-C_ハッチ
  6
JWW_DASHED1
 62
   120
370
     5
100
AcDbLine
 10
-4622.500018557984
 20
2575.847013921083
 30
0.0
 11
-4377.000018557985
 21
2821.34701392108
 31
0.0
  0
LINE
  5
212
330
1F
100
AcDbEntity
  8
0-C_ハッチ
  6
JWW_DASHED1
 62
   120
370
     5
100
AcDbLine
 10
-4622.500018557984
 20
2589.989149544818
 30
0.0
 11
-4377.000018557985
 21
2835.489149544815
 31
0.0
  0
LINE
  5
213
330
1F
100
AcDbEntity
  8
0-C_ハッチ
  6
JWW_DASHED1
 62
   120
370
     5
100
AcDbLine
 10
-4622.500018557984
 20
2604.131285168548
 30
0.0
 11
-4377.000018557985
 21
2849.631285168548
 31
0.0
  0
LINE
  5
214
330
1F
100
AcDbEntity
  8
0-C_ハッチ
  6
JWW_DASHED1
 62
   120
370
     5
100
AcDbLine
 10
-4622.500018557984
 20
2618.273420792283
 30
0.0
 11
-4377.000018557985
 21
2863.773420792283
 31
0.0
  0
LINE
  5
215
330
1F
100
AcDbEntity
  8
0-C_ハッチ
  6
JWW_DASHED1
 62
   120
370
     5
100
AcDbLine
 10
-4622.500018557984
 20
2632.415556416018
 30
0.0
 11
-4377.000018557985
 21
2877.915556416015
 31
0.0
  0
LINE
  5
216
330
1F
100
AcDbEntity
  8
0-C_ハッチ
  6
JWW_DASHED1
 62
   120
370
     5
100
AcDbLine
 10
-4622.500018557984
 20
2646.557692039752
 30
0.0
 11
-4377.000018557985
 21
2892.057692039748
 31
0.0
  0
LINE
  5
217
330
1F
100
AcDbEntity
  8
0-C_ハッチ
  6
JWW_DASHED1
 62
   120
370
     5
100
AcDbLine
 10
-4622.500018557984
 20
2660.699827663482
 30
0.0
 11
-4377.000018557985
 21
2906.199827663483
 31
0.0
  0
LINE
  5
218
330
1F
100
AcDbEntity
  8
0-C_ハッチ
  6
JWW_DASHED1
 62
   120
370
     5
100
AcDbLine
 10
-4622.500018557984
 20
2674.841963287217
 30
0.0
 11
-4377.000018557985
 21
2920.341963287213
 31
0.0
  0
LINE
  5
219
330
1F
100
AcDbEntity
  8
0-C_ハッチ
  6
JWW_DASHED1
 62
   120
370
     5
100
AcDbLine
 10
-4622.500018557984
 20
2688.984098910948
 30
0.0
 11
-4377.000018557985
 21
2934.484098910948
 31
0.0
  0
LINE
  5
21A
330
1F
100
AcDbEntity
  8
0-C_ハッチ
  6
JWW_DASHED1
 62
   120
370
     5
100
AcDbLine
 10
-4622.500018557984
 20
2703.126234534684
 30
0.0
 11
-4377.000018557985
 21
2948.626234534682
 31
0.0
  0
LINE
  5
21B
330
1F
100
AcDbEntity
  8
0-C_ハッチ
  6
JWW_DASHED1
 62
   120
370
     5
100
AcDbLine
 10
-4622.500018557984
 20
2717.268370158416
 30
0.0
 11
-4377.000018557985
 21
2962.768370158416
 31
0.0
  0
LINE
  5
21C
330
1F
100
AcDbEntity
  8
0-C_ハッチ
  6
JWW_DASHED1
 62
   120
370
     5
100
AcDbLine
 10
-4622.500018557984
 20
2731.410505782149
 30
0.0
 11
-4377.000018557985
 21
2976.910505782148
 31
0.0
  0
LINE
  5
21D
330
1F
100
AcDbEntity
  8
0-C_ハッチ
  6
JWW_DASHED1
 62
   120
370
     5
100
AcDbLine
 10
-4622.500018557984
 20
2745.552641405884
 30
0.0
 11
-4377.000018557985
 21
2991.052641405881
 31
0.0
  0
LINE
  5
21E
330
1F
100
AcDbEntity
  8
0-C_ハッチ
  6
JWW_DASHED1
 62
   120
370
     5
100
AcDbLine
 10
-4622.500018557984
 20
2759.694777029616
 30
0.0
 11
-4377.000018557985
 21
3005.194777029616
 31
0.0
  0
LINE
  5
21F
330
1F
100
AcDbEntity
  8
0-C_ハッチ
  6
JWW_DASHED1
 62
   120
370
     5
100
AcDbLine
 10
-4622.500018557984
 20
2773.836912653348
 30
0.0
 11
-4377.000018557985
 21
3019.336912653349
 31
0.0
  0
LINE
  5
220
330
1F
100
AcDbEntity
  8
0-C_ハッチ
  6
JWW_DASHED1
 62
   120
370
     5
100
AcDbLine
 10
-4622.500018557984
 20
2787.979048277085
 30
0.0
 11
-4377.000018557985
 21
3033.479048277081
 31
0.0
  0
LINE
  5
221
330
1F
100
AcDbEntity
  8
0-C_ハッチ
  6
JWW_DASHED1
 62
   120
370
     5
100
AcDbLine
 10
-4622.500018557984
 20
2802.121183900764
 30
0.0
 11
-4377.000018557985
 21
3047.621183900759
 31
0.0
  0
LINE
  5
222
330
1F
100
AcDbEntity
  8
0-C_ハッチ
  6
JWW_DASHED1
 62
   120
370
     5
100
AcDbLine
 10
-4622.500018557984
 20
2816.263319524496
 30
0.0
 11
-4377.000018557985
 21
3061.763319524493
 31
0.0
  0
LINE
  5
223
330
1F
100
AcDbEntity
  8
0-C_ハッチ
  6
JWW_DASHED1
 62
   120
370
     5
100
AcDbLine
 10
-4622.500018557984
 20
2830.405455148229
 30
0.0
 11
-4377.000018557985
 21
3075.905455148225
 31
0.0
  0
LINE
  5
224
330
1F
100
AcDbEntity
  8
0-C_ハッチ
  6
JWW_DASHED1
 62
   120
370
     5
100
AcDbLine
 10
-4622.500018557984
 20
2844.54759077196
 30
0.0
 11
-4377.000018557985
 21
3090.047590771961
 31
0.0
  0
LINE
  5
225
330
1F
100
AcDbEntity
  8
0-C_ハッチ
  6
JWW_DASHED1
 62
   120
370
     5
100
AcDbLine
 10
-4622.500018557984
 20
2858.689726395697
 30
0.0
 11
-4377.000018557985
 21
3104.189726395693
 31
0.0
  0
LINE
  5
226
330
1F
100
AcDbEntity
  8
0-C_ハッチ
  6
JWW_DASHED1
 62
   120
370
     5
100
AcDbLine
 10
-4622.500018557984
 20
2872.831862019429
 30
0.0
 11
-4377.000018557985
 21
3118.331862019429
 31
0.0
  0
LINE
  5
227
330
1F
100
AcDbEntity
  8
0-C_ハッチ
  6
JWW_DASHED1
 62
   120
370
     5
100
AcDbLine
 10
-4622.500018557984
 20
2886.973997643163
 30
0.0
 11
-4377.000018557985
 21
3132.473997643161
 31
0.0
  0
LINE
  5
228
330
1F
100
AcDbEntity
  8
0-C_ハッチ
  6
JWW_DASHED1
 62
   120
370
     5
100
AcDbLine
 10
-4622.500018557984
 20
2901.116133266897
 30
0.0
 11
-4377.000018557985
 21
3146.616133266893
 31
0.0
  0
LINE
  5
229
330
1F
100
AcDbEntity
  8
0-C_ハッチ
  6
JWW_DASHED1
 62
   120
370
     5
100
AcDbLine
 10
-4622.500018557984
 20
2915.25826889063
 30
0.0
 11
-4377.000018557985
 21
3160.758268890626
 31
0.0
  0
LINE
  5
22A
330
1F
100
AcDbEntity
  8
0-C_ハッチ
  6
JWW_DASHED1
 62
   120
370
     5
100
AcDbLine
 10
-4622.500018557984
 20
2929.400404514362
 30
0.0
 11
-4377.000018557985
 21
3174.90040451436
 31
0.0
  0
LINE
  5
22B
330
1F
100
AcDbEntity
  8
0-C_ハッチ
  6
JWW_DASHED1
 62
   120
370
     5
100
AcDbLine
 10
-4622.500018557984
 20
2943.542540138097
 30
0.0
 11
-4377.000018557985
 21
3189.042540138093
 31
0.0
  0
LINE
  5
22C
330
1F
100
AcDbEntity
  8
0-C_ハッチ
  6
JWW_DASHED1
 62
   120
370
     5
100
AcDbLine
 10
-4622.500018557984
 20
2957.684675761827
 30
0.0
 11
-4377.000018557985
 21
3203.184675761828
 31
0.0
  0
LINE
  5
22D
330
1F
100
AcDbEntity
  8
0-C_ハッチ
  6
JWW_DASHED1
 62
   120
370
     5
100
AcDbLine
 10
-4622.500018557984
 20
2971.826811385562
 30
0.0
 11
-4377.000018557985
 21
3217.326811385559
 31
0.0
  0
LINE
  5
22E
330
1F
100
AcDbEntity
  8
0-C_ハッチ
  6
JWW_DASHED1
 62
   120
370
     5
100
AcDbLine
 10
-4622.500018557984
 20
2985.968947009297
 30
0.0
 11
-4377.000018557985
 21
3231.468947009293
 31
0.0
  0
LINE
  5
22F
330
1F
100
AcDbEntity
  8
0-C_ハッチ
  6
JWW_DASHED1
 62
   120
370
     5
100
AcDbLine
 10
-4622.500018557984
 20
3000.11108263303
 30
0.0
 11
-4377.000018557985
 21
3245.611082633027
 31
0.0
  0
LINE
  5
230
330
1F
100
AcDbEntity
  8
0-C_ハッチ
  6
JWW_DASHED1
 62
   120
370
     5
100
AcDbLine
 10
-4607.823797225203
 20
1643.000148463894
 30
0.0
 11
-4377.000018557985
 21
1873.823927131112
 31
0.0
  0
LINE
  5
231
330
1F
100
AcDbEntity
  8
0-C_ハッチ
  6
JWW_DASHED1
 62
   120
370
     5
100
AcDbLine
 10
-4395.691762869202
 20
1643.000148463894
 30
0.0
 11
-4377.000018557985
 21
1661.691892775111
 31
0.0
  0
LINE
  5
232
330
1F
100
AcDbEntity
  8
0-C_ハッチ
  6
JWW_DASHED1
 62
   120
370
     5
100
AcDbLine
 10
-4409.833898492936
 20
1643.000148463894
 30
0.0
 11
-4377.000018557985
 21
1675.834028398844
 31
0.0
  0
LINE
  5
233
330
1F
100
AcDbEntity
  8
0-C_ハッチ
  6
JWW_DASHED1
 62
   120
370
     5
100
AcDbLine
 10
-4423.97603411667
 20
1643.000148463894
 30
0.0
 11
-4377.000018557985
 21
1689.976164022579
 31
0.0
  0
LINE
  5
234
330
1F
100
AcDbEntity
  8
0-C_ハッチ
  6
JWW_DASHED1
 62
   120
370
     5
100
AcDbLine
 10
-4438.118169740404
 20
1643.000148463894
 30
0.0
 11
-4377.000018557985
 21
1704.118299646312
 31
0.0
  0
LINE
  5
235
330
1F
100
AcDbEntity
  8
0-C_ハッチ
  6
JWW_DASHED1
 62
   120
370
     5
100
AcDbLine
 10
-4452.260305364135
 20
1643.000148463894
 30
0.0
 11
-4377.000018557985
 21
1718.260435270044
 31
0.0
  0
LINE
  5
236
330
1F
100
AcDbEntity
  8
0-C_ハッチ
  6
JWW_DASHED1
 62
   120
370
     5
100
AcDbLine
 10
-4466.40244098787
 20
1643.000148463894
 30
0.0
 11
-4377.000018557985
 21
1732.402570893779
 31
0.0
  0
LINE
  5
237
330
1F
100
AcDbEntity
  8
0-C_ハッチ
  6
JWW_DASHED1
 62
   120
370
     5
100
AcDbLine
 10
-4480.544576611604
 20
1643.000148463894
 30
0.0
 11
-4377.000018557985
 21
1746.544706517511
 31
0.0
  0
LINE
  5
238
330
1F
100
AcDbEntity
  8
0-C_ハッチ
  6
JWW_DASHED1
 62
   120
370
     5
100
AcDbLine
 10
-4494.686712235339
 20
1643.000148463894
 30
0.0
 11
-4377.000018557985
 21
1760.686842141244
 31
0.0
  0
LINE
  5
239
330
1F
100
AcDbEntity
  8
0-C_ハッチ
  6
JWW_DASHED1
 62
   120
370
     5
100
AcDbLine
 10
-4508.828847859071
 20
1643.000148463894
 30
0.0
 11
-4377.000018557985
 21
1774.828977764979
 31
0.0
  0
LINE
  5
23A
330
1F
100
AcDbEntity
  8
0-C_ハッチ
  6
JWW_DASHED1
 62
   120
370
     5
100
AcDbLine
 10
-4522.970983482804
 20
1643.000148463894
 30
0.0
 11
-4377.000018557985
 21
1788.971113388711
 31
0.0
  0
LINE
  5
23B
330
1F
100
AcDbEntity
  8
0-C_ハッチ
  6
JWW_DASHED1
 62
   120
370
     5
100
AcDbLine
 10
-4537.113119106534
 20
1643.000148463894
 30
0.0
 11
-4377.000018557985
 21
1803.113249012447
 31
0.0
  0
LINE
  5
23C
330
1F
100
AcDbEntity
  8
0-C_ハッチ
  6
JWW_DASHED1
 62
   120
370
     5
100
AcDbLine
 10
-4551.255254730268
 20
1643.000148463894
 30
0.0
 11
-4377.000018557985
 21
1817.255384636178
 31
0.0
  0
LINE
  5
23D
330
1F
100
AcDbEntity
  8
0-C_ハッチ
  6
JWW_DASHED1
 62
   120
370
     5
100
AcDbLine
 10
-4565.397390354003
 20
1643.000148463894
 30
0.0
 11
-4377.000018557985
 21
1831.397520259912
 31
0.0
  0
LINE
  5
23E
330
1F
100
AcDbEntity
  8
0-C_ハッチ
  6
JWW_DASHED1
 62
   120
370
     5
100
AcDbLine
 10
-4579.539525977738
 20
1643.000148463894
 30
0.0
 11
-4377.000018557985
 21
1845.539655883644
 31
0.0
  0
LINE
  5
23F
330
1F
100
AcDbEntity
  8
0-C_ハッチ
  6
JWW_DASHED1
 62
   120
370
     5
100
AcDbLine
 10
-4593.681661601471
 20
1643.000148463894
 30
0.0
 11
-4377.000018557985
 21
1859.681791507378
 31
0.0
  0
LINE
  5
240
330
1F
100
AcDbEntity
  8
0-C_ハッチ
  6
JWW_DASHED1
 62
   120
370
     5
100
AcDbLine
 10
-4249.000018557986
 20
3254.669523860172
 30
0.0
 11
-4237.669393954265
 21
3266.000148463894
 31
0.0
  0
LINE
  5
241
330
1F
100
AcDbEntity
  8
0-C_ハッチ
  6
JWW_DASHED1
 62
   120
370
     5
100
AcDbLine
 10
-4249.000018557986
 20
3028.395353880495
 30
0.0
 11
-4011.395223974586
 21
3266.000148463894
 31
0.0
  0
LINE
  5
242
330
1F
100
AcDbEntity
  8
0-C_ハッチ
  6
JWW_DASHED1
 62
   120
370
     5
100
AcDbLine
 10
-4249.000018557986
 20
3042.537489504229
 30
0.0
 11
-4025.53735959832
 21
3266.000148463894
 31
0.0
  0
LINE
  5
243
330
1F
100
AcDbEntity
  8
0-C_ハッチ
  6
JWW_DASHED1
 62
   120
370
     5
100
AcDbLine
 10
-4249.000018557986
 20
3056.679625127961
 30
0.0
 11
-4039.679495222053
 21
3266.000148463894
 31
0.0
  0
LINE
  5
244
330
1F
100
AcDbEntity
  8
0-C_ハッチ
  6
JWW_DASHED1
 62
   120
370
     5
100
AcDbLine
 10
-4249.000018557986
 20
3070.821760751694
 30
0.0
 11
-4053.821630845786
 21
3266.000148463894
 31
0.0
  0
LINE
  5
245
330
1F
100
AcDbEntity
  8
0-C_ハッチ
  6
JWW_DASHED1
 62
   120
370
     5
100
AcDbLine
 10
-4249.000018557986
 20
3084.963896375425
 30
0.0
 11
-4067.963766469519
 21
3266.000148463894
 31
0.0
  0
LINE
  5
246
330
1F
100
AcDbEntity
  8
0-C_ハッチ
  6
JWW_DASHED1
 62
   120
370
     5
100
AcDbLine
 10
-4249.000018557986
 20
3099.106031999161
 30
0.0
 11
-4082.105902093253
 21
3266.000148463894
 31
0.0
  0
LINE
  5
247
330
1F
100
AcDbEntity
  8
0-C_ハッチ
  6
JWW_DASHED1
 62
   120
370
     5
100
AcDbLine
 10
-4249.000018557986
 20
3113.248167622893
 30
0.0
 11
-4096.248037716986
 21
3266.000148463894
 31
0.0
  0
LINE
  5
248
330
1F
100
AcDbEntity
  8
0-C_ハッチ
  6
JWW_DASHED1
 62
   120
370
     5
100
AcDbLine
 10
-4249.000018557986
 20
3127.390303246629
 30
0.0
 11
-4110.39017334072
 21
3266.000148463894
 31
0.0
  0
LINE
  5
249
330
1F
100
AcDbEntity
  8
0-C_ハッチ
  6
JWW_DASHED1
 62
   120
370
     5
100
AcDbLine
 10
-4249.000018557986
 20
3141.532438870359
 30
0.0
 11
-4124.532308964453
 21
3266.000148463894
 31
0.0
  0
LINE
  5
24A
330
1F
100
AcDbEntity
  8
0-C_ハッチ
  6
JWW_DASHED1
 62
   120
370
     5
100
AcDbLine
 10
-4249.000018557986
 20
3155.674574494096
 30
0.0
 11
-4138.674444588187
 21
3266.000148463894
 31
0.0
  0
LINE
  5
24B
330
1F
100
AcDbEntity
  8
0-C_ハッチ
  6
JWW_DASHED1
 62
   120
370
     5
100
AcDbLine
 10
-4249.000018557986
 20
3169.816710117825
 30
0.0
 11
-4152.816580211919
 21
3266.000148463894
 31
0.0
  0
LINE
  5
24C
330
1F
100
AcDbEntity
  8
0-C_ハッチ
  6
JWW_DASHED1
 62
   120
370
     5
100
AcDbLine
 10
-4249.000018557986
 20
3183.958845741561
 30
0.0
 11
-4166.958715835653
 21
3266.000148463894
 31
0.0
  0
LINE
  5
24D
330
1F
100
AcDbEntity
  8
0-C_ハッチ
  6
JWW_DASHED1
 62
   120
370
     5
100
AcDbLine
 10
-4249.000018557986
 20
3198.100981365241
 30
0.0
 11
-4181.100851459332
 21
3266.000148463894
 31
0.0
  0
LINE
  5
24E
330
1F
100
AcDbEntity
  8
0-C_ハッチ
  6
JWW_DASHED1
 62
   120
370
     5
100
AcDbLine
 10
-4249.000018557986
 20
3212.243116988972
 30
0.0
 11
-4195.242987083065
 21
3266.000148463894
 31
0.0
  0
LINE
  5
24F
330
1F
100
AcDbEntity
  8
0-C_ハッチ
  6
JWW_DASHED1
 62
   120
370
     5
100
AcDbLine
 10
-4249.000018557986
 20
3226.385252612708
 30
0.0
 11
-4209.385122706799
 21
3266.000148463894
 31
0.0
  0
LINE
  5
250
330
1F
100
AcDbEntity
  8
0-C_ハッチ
  6
JWW_DASHED1
 62
   120
370
     5
100
AcDbLine
 10
-4249.000018557986
 20
3240.527388236438
 30
0.0
 11
-4223.527258330531
 21
3266.000148463894
 31
0.0
  0
LINE
  5
251
330
1F
100
AcDbEntity
  8
0-C_ハッチ
  6
JWW_DASHED1
 62
   120
370
     5
100
AcDbLine
 10
-4008.049627245469
 20
1643.000148463894
 30
0.0
 11
-4003.500018557987
 21
1647.549757151376
 31
0.0
  0
LINE
  5
252
330
1F
100
AcDbEntity
  8
0-C_ハッチ
  6
JWW_DASHED1
 62
   120
370
     5
100
AcDbLine
 10
-4249.000018557986
 20
3014.253218256761
 30
0.0
 11
-4003.500018557987
 21
3259.753218256761
 31
0.0
  0
LINE
  5
253
330
1F
100
AcDbEntity
  8
0-C_ハッチ
  6
JWW_DASHED1
 62
   120
370
     5
100
AcDbLine
 10
-4249.000018557986
 20
1642.466062754792
 30
0.0
 11
-4003.500018557987
 21
1887.96606275479
 31
0.0
  0
LINE
  5
254
330
1F
100
AcDbEntity
  8
0-C_ハッチ
  6
JWW_DASHED1
 62
   120
370
     5
100
AcDbLine
 10
-4249.000018557986
 20
1656.608198378524
 30
0.0
 11
-4003.500018557987
 21
1902.108198378524
 31
0.0
  0
LINE
  5
255
330
1F
100
AcDbEntity
  8
0-C_ハッチ
  6
JWW_DASHED1
 62
   120
370
     5
100
AcDbLine
 10
-4249.000018557986
 20
1670.750334002258
 30
0.0
 11
-4003.500018557987
 21
1916.250334002257
 31
0.0
  0
LINE
  5
256
330
1F
100
AcDbEntity
  8
0-C_ハッチ
  6
JWW_DASHED1
 62
   120
370
     5
100
AcDbLine
 10
-4249.000018557986
 20
1684.892469625992
 30
0.0
 11
-4003.500018557987
 21
1930.392469625989
 31
0.0
  0
LINE
  5
257
330
1F
100
AcDbEntity
  8
0-C_ハッチ
  6
JWW_DASHED1
 62
   120
370
     5
100
AcDbLine
 10
-4249.000018557986
 20
1699.034605249724
 30
0.0
 11
-4003.500018557987
 21
1944.534605249721
 31
0.0
  0
LINE
  5
258
330
1F
100
AcDbEntity
  8
0-C_ハッチ
  6
JWW_DASHED1
 62
   120
370
     5
100
AcDbLine
 10
-4249.000018557986
 20
1713.176740873456
 30
0.0
 11
-4003.500018557987
 21
1958.676740873455
 31
0.0
  0
LINE
  5
259
330
1F
100
AcDbEntity
  8
0-C_ハッチ
  6
JWW_DASHED1
 62
   120
370
     5
100
AcDbLine
 10
-4249.000018557986
 20
1727.318876497191
 30
0.0
 11
-4003.500018557987
 21
1972.818876497189
 31
0.0
  0
LINE
  5
25A
330
1F
100
AcDbEntity
  8
0-C_ハッチ
  6
JWW_DASHED1
 62
   120
370
     5
100
AcDbLine
 10
-4249.000018557986
 20
1741.461012120924
 30
0.0
 11
-4003.500018557987
 21
1986.961012120924
 31
0.0
  0
LINE
  5
25B
330
1F
100
AcDbEntity
  8
0-C_ハッチ
  6
JWW_DASHED1
 62
   120
370
     5
100
AcDbLine
 10
-4249.000018557986
 20
1755.603147744656
 30
0.0
 11
-4003.500018557987
 21
2001.103147744657
 31
0.0
  0
LINE
  5
25C
330
1F
100
AcDbEntity
  8
0-C_ハッチ
  6
JWW_DASHED1
 62
   120
370
     5
100
AcDbLine
 10
-4249.000018557986
 20
1769.745283368392
 30
0.0
 11
-4003.500018557987
 21
2015.245283368389
 31
0.0
  0
LINE
  5
25D
330
1F
100
AcDbEntity
  8
0-C_ハッチ
  6
JWW_DASHED1
 62
   120
370
     5
100
AcDbLine
 10
-4249.000018557986
 20
1783.887418992124
 30
0.0
 11
-4003.500018557987
 21
2029.387418992121
 31
0.0
  0
LINE
  5
25E
330
1F
100
AcDbEntity
  8
0-C_ハッチ
  6
JWW_DASHED1
 62
   120
370
     5
100
AcDbLine
 10
-4249.000018557986
 20
1798.029554615859
 30
0.0
 11
-4003.500018557987
 21
2043.529554615856
 31
0.0
  0
LINE
  5
25F
330
1F
100
AcDbEntity
  8
0-C_ハッチ
  6
JWW_DASHED1
 62
   120
370
     5
100
AcDbLine
 10
-4249.000018557986
 20
1812.171690239589
 30
0.0
 11
-4003.500018557987
 21
2057.671690239589
 31
0.0
  0
LINE
  5
260
330
1F
100
AcDbEntity
  8
0-C_ハッチ
  6
JWW_DASHED1
 62
   120
370
     5
100
AcDbLine
 10
-4249.000018557986
 20
1826.313825863323
 30
0.0
 11
-4003.500018557987
 21
2071.813825863322
 31
0.0
  0
LINE
  5
261
330
1F
100
AcDbEntity
  8
0-C_ハッチ
  6
JWW_DASHED1
 62
   120
370
     5
100
AcDbLine
 10
-4249.000018557986
 20
1840.455961487058
 30
0.0
 11
-4003.500018557987
 21
2085.955961487056
 31
0.0
  0
LINE
  5
262
330
1F
100
AcDbEntity
  8
0-C_ハッチ
  6
JWW_DASHED1
 62
   120
370
     5
100
AcDbLine
 10
-4249.000018557986
 20
1854.598097110792
 30
0.0
 11
-4003.500018557987
 21
2100.098097110788
 31
0.0
  0
LINE
  5
263
330
1F
100
AcDbEntity
  8
0-C_ハッチ
  6
JWW_DASHED1
 62
   120
370
     5
100
AcDbLine
 10
-4249.000018557986
 20
1868.740232734523
 30
0.0
 11
-4003.500018557987
 21
2114.240232734523
 31
0.0
  0
LINE
  5
264
330
1F
100
AcDbEntity
  8
0-C_ハッチ
  6
JWW_DASHED1
 62
   120
370
     5
100
AcDbLine
 10
-4249.000018557986
 20
1882.882368358256
 30
0.0
 11
-4003.500018557987
 21
2128.382368358256
 31
0.0
  0
LINE
  5
265
330
1F
100
AcDbEntity
  8
0-C_ハッチ
  6
JWW_DASHED1
 62
   120
370
     5
100
AcDbLine
 10
-4249.000018557986
 20
1897.024503981989
 30
0.0
 11
-4003.500018557987
 21
2142.524503981988
 31
0.0
  0
LINE
  5
266
330
1F
100
AcDbEntity
  8
0-C_ハッチ
  6
JWW_DASHED1
 62
   120
370
     5
100
AcDbLine
 10
-4249.000018557986
 20
1911.166639605725
 30
0.0
 11
-4003.500018557987
 21
2156.666639605723
 31
0.0
  0
LINE
  5
267
330
1F
100
AcDbEntity
  8
0-C_ハッチ
  6
JWW_DASHED1
 62
   120
370
     5
100
AcDbLine
 10
-4249.000018557986
 20
1925.308775229456
 30
0.0
 11
-4003.500018557987
 21
2170.808775229456
 31
0.0
  0
LINE
  5
268
330
1F
100
AcDbEntity
  8
0-C_ハッチ
  6
JWW_DASHED1
 62
   120
370
     5
100
AcDbLine
 10
-4249.000018557986
 20
1939.45091085319
 30
0.0
 11
-4003.500018557987
 21
2184.950910853188
 31
0.0
  0
LINE
  5
269
330
1F
100
AcDbEntity
  8
0-C_ハッチ
  6
JWW_DASHED1
 62
   120
370
     5
100
AcDbLine
 10
-4249.000018557986
 20
1953.593046476925
 30
0.0
 11
-4003.500018557987
 21
2199.093046476923
 31
0.0
  0
LINE
  5
26A
330
1F
100
AcDbEntity
  8
0-C_ハッチ
  6
JWW_DASHED1
 62
   120
370
     5
100
AcDbLine
 10
-4249.000018557986
 20
1967.735182100656
 30
0.0
 11
-4003.500018557987
 21
2213.235182100656
 31
0.0
  0
LINE
  5
26B
330
1F
100
AcDbEntity
  8
0-C_ハッチ
  6
JWW_DASHED1
 62
   120
370
     5
100
AcDbLine
 10
-4249.000018557986
 20
1981.877317724389
 30
0.0
 11
-4003.500018557987
 21
2227.37731772439
 31
0.0
  0
LINE
  5
26C
330
1F
100
AcDbEntity
  8
0-C_ハッチ
  6
JWW_DASHED1
 62
   120
370
     5
100
AcDbLine
 10
-4249.000018557986
 20
1996.019453348124
 30
0.0
 11
-4003.500018557987
 21
2241.519453348122
 31
0.0
  0
LINE
  5
26D
330
1F
100
AcDbEntity
  8
0-C_ハッチ
  6
JWW_DASHED1
 62
   120
370
     5
100
AcDbLine
 10
-4249.000018557986
 20
2010.161588971856
 30
0.0
 11
-4003.500018557987
 21
2255.661588971856
 31
0.0
  0
LINE
  5
26E
330
1F
100
AcDbEntity
  8
0-C_ハッチ
  6
JWW_DASHED1
 62
   120
370
     5
100
AcDbLine
 10
-4249.000018557986
 20
2024.303724595536
 30
0.0
 11
-4003.500018557987
 21
2269.803724595534
 31
0.0
  0
LINE
  5
26F
330
1F
100
AcDbEntity
  8
0-C_ハッチ
  6
JWW_DASHED1
 62
   120
370
     5
100
AcDbLine
 10
-4249.000018557986
 20
2038.445860219269
 30
0.0
 11
-4003.500018557987
 21
2283.945860219269
 31
0.0
  0
LINE
  5
270
330
1F
100
AcDbEntity
  8
0-C_ハッチ
  6
JWW_DASHED1
 62
   120
370
     5
100
AcDbLine
 10
-4249.000018557986
 20
2052.587995843001
 30
0.0
 11
-4003.500018557987
 21
2298.087995843002
 31
0.0
  0
LINE
  5
271
330
1F
100
AcDbEntity
  8
0-C_ハッチ
  6
JWW_DASHED1
 62
   120
370
     5
100
AcDbLine
 10
-4249.000018557986
 20
2066.730131466736
 30
0.0
 11
-4003.500018557987
 21
2312.230131466734
 31
0.0
  0
LINE
  5
272
330
1F
100
AcDbEntity
  8
0-C_ハッチ
  6
JWW_DASHED1
 62
   120
370
     5
100
AcDbLine
 10
-4249.000018557986
 20
2080.872267090469
 30
0.0
 11
-4003.500018557987
 21
2326.372267090468
 31
0.0
  0
LINE
  5
273
330
1F
100
AcDbEntity
  8
0-C_ハッチ
  6
JWW_DASHED1
 62
   120
370
     5
100
AcDbLine
 10
-4249.000018557986
 20
2095.014402714204
 30
0.0
 11
-4003.500018557987
 21
2340.514402714201
 31
0.0
  0
LINE
  5
274
330
1F
100
AcDbEntity
  8
0-C_ハッチ
  6
JWW_DASHED1
 62
   120
370
     5
100
AcDbLine
 10
-4249.000018557986
 20
2109.156538337936
 30
0.0
 11
-4003.500018557987
 21
2354.656538337936
 31
0.0
  0
LINE
  5
275
330
1F
100
AcDbEntity
  8
0-C_ハッチ
  6
JWW_DASHED1
 62
   120
370
     5
100
AcDbLine
 10
-4249.000018557986
 20
2123.29867396167
 30
0.0
 11
-4003.500018557987
 21
2368.798673961669
 31
0.0
  0
LINE
  5
276
330
1F
100
AcDbEntity
  8
0-C_ハッチ
  6
JWW_DASHED1
 62
   120
370
     5
100
AcDbLine
 10
-4249.000018557986
 20
2137.440809585403
 30
0.0
 11
-4003.500018557987
 21
2382.940809585401
 31
0.0
  0
LINE
  5
277
330
1F
100
AcDbEntity
  8
0-C_ハッチ
  6
JWW_DASHED1
 62
   120
370
     5
100
AcDbLine
 10
-4249.000018557986
 20
2151.582945209136
 30
0.0
 11
-4003.500018557987
 21
2397.082945209133
 31
0.0
  0
LINE
  5
278
330
1F
100
AcDbEntity
  8
0-C_ハッチ
  6
JWW_DASHED1
 62
   120
370
     5
100
AcDbLine
 10
-4249.000018557986
 20
2165.725080832868
 30
0.0
 11
-4003.500018557987
 21
2411.225080832869
 31
0.0
  0
LINE
  5
279
330
1F
100
AcDbEntity
  8
0-C_ハッチ
  6
JWW_DASHED1
 62
   120
370
     5
100
AcDbLine
 10
-4249.000018557986
 20
2179.867216456603
 30
0.0
 11
-4003.500018557987
 21
2425.3672164566
 31
0.0
  0
LINE
  5
27A
330
1F
100
AcDbEntity
  8
0-C_ハッチ
  6
JWW_DASHED1
 62
   120
370
     5
100
AcDbLine
 10
-4249.000018557986
 20
2194.009352080336
 30
0.0
 11
-4003.500018557987
 21
2439.509352080336
 31
0.0
  0
LINE
  5
27B
330
1F
100
AcDbEntity
  8
0-C_ハッチ
  6
JWW_DASHED1
 62
   120
370
     5
100
AcDbLine
 10
-4249.000018557986
 20
2208.15148770407
 30
0.0
 11
-4003.500018557987
 21
2453.651487704068
 31
0.0
  0
LINE
  5
27C
330
1F
100
AcDbEntity
  8
0-C_ハッチ
  6
JWW_DASHED1
 62
   120
370
     5
100
AcDbLine
 10
-4249.000018557986
 20
2222.293623327805
 30
0.0
 11
-4003.500018557987
 21
2467.793623327801
 31
0.0
  0
LINE
  5
27D
330
1F
100
AcDbEntity
  8
0-C_ハッチ
  6
JWW_DASHED1
 62
   120
370
     5
100
AcDbLine
 10
-4249.000018557986
 20
2236.435758951536
 30
0.0
 11
-4003.500018557987
 21
2481.935758951533
 31
0.0
  0
LINE
  5
27E
330
1F
100
AcDbEntity
  8
0-C_ハッチ
  6
JWW_DASHED1
 62
   120
370
     5
100
AcDbLine
 10
-4249.000018557986
 20
2250.57789457527
 30
0.0
 11
-4003.500018557987
 21
2496.077894575268
 31
0.0
  0
LINE
  5
27F
330
1F
100
AcDbEntity
  8
0-C_ハッチ
  6
JWW_DASHED1
 62
   120
370
     5
100
AcDbLine
 10
-4249.000018557986
 20
2264.720030199001
 30
0.0
 11
-4003.500018557987
 21
2510.220030199001
 31
0.0
  0
LINE
  5
280
330
1F
100
AcDbEntity
  8
0-C_ハッチ
  6
JWW_DASHED1
 62
   120
370
     5
100
AcDbLine
 10
-4249.000018557986
 20
2278.862165822734
 30
0.0
 11
-4003.500018557987
 21
2524.362165822736
 31
0.0
  0
LINE
  5
281
330
1F
100
AcDbEntity
  8
0-C_ハッチ
  6
JWW_DASHED1
 62
   120
370
     5
100
AcDbLine
 10
-4249.000018557986
 20
2293.00430144647
 30
0.0
 11
-4003.500018557987
 21
2538.504301446467
 31
0.0
  0
LINE
  5
282
330
1F
100
AcDbEntity
  8
0-C_ハッチ
  6
JWW_DASHED1
 62
   120
370
     5
100
AcDbLine
 10
-4249.000018557986
 20
2307.146437070204
 30
0.0
 11
-4003.500018557987
 21
2552.646437070201
 31
0.0
  0
LINE
  5
283
330
1F
100
AcDbEntity
  8
0-C_ハッチ
  6
JWW_DASHED1
 62
   120
370
     5
100
AcDbLine
 10
-4249.000018557986
 20
2321.288572693937
 30
0.0
 11
-4003.500018557987
 21
2566.788572693935
 31
0.0
  0
LINE
  5
284
330
1F
100
AcDbEntity
  8
0-C_ハッチ
  6
JWW_DASHED1
 62
   120
370
     5
100
AcDbLine
 10
-4249.000018557986
 20
2335.430708317669
 30
0.0
 11
-4003.500018557987
 21
2580.930708317669
 31
0.0
  0
LINE
  5
285
330
1F
100
AcDbEntity
  8
0-C_ハッチ
  6
JWW_DASHED1
 62
   120
370
     5
100
AcDbLine
 10
-4249.000018557986
 20
2349.572843941404
 30
0.0
 11
-4003.500018557987
 21
2595.072843941401
 31
0.0
  0
LINE
  5
286
330
1F
100
AcDbEntity
  8
0-C_ハッチ
  6
JWW_DASHED1
 62
   120
370
     5
100
AcDbLine
 10
-4249.000018557986
 20
2363.714979565137
 30
0.0
 11
-4003.500018557987
 21
2609.214979565134
 31
0.0
  0
LINE
  5
287
330
1F
100
AcDbEntity
  8
0-C_ハッチ
  6
JWW_DASHED1
 62
   120
370
     5
100
AcDbLine
 10
-4249.000018557986
 20
2377.857115188869
 30
0.0
 11
-4003.500018557987
 21
2623.357115188868
 31
0.0
  0
LINE
  5
288
330
1F
100
AcDbEntity
  8
0-C_ハッチ
  6
JWW_DASHED1
 62
   120
370
     5
100
AcDbLine
 10
-4249.000018557986
 20
2391.999250812601
 30
0.0
 11
-4003.500018557987
 21
2637.499250812603
 31
0.0
  0
LINE
  5
289
330
1F
100
AcDbEntity
  8
0-C_ハッチ
  6
JWW_DASHED1
 62
   120
370
     5
100
AcDbLine
 10
-4249.000018557986
 20
2406.141386436336
 30
0.0
 11
-4003.500018557987
 21
2651.641386436334
 31
0.0
  0
LINE
  5
28A
330
1F
100
AcDbEntity
  8
0-C_ハッチ
  6
JWW_DASHED1
 62
   120
370
     5
100
AcDbLine
 10
-4249.000018557986
 20
2420.283522060013
 30
0.0
 11
-4003.500018557987
 21
2665.783522060013
 31
0.0
  0
LINE
  5
28B
330
1F
100
AcDbEntity
  8
0-C_ハッチ
  6
JWW_DASHED1
 62
   120
370
     5
100
AcDbLine
 10
-4249.000018557986
 20
2434.425657683748
 30
0.0
 11
-4003.500018557987
 21
2679.925657683746
 31
0.0
  0
LINE
  5
28C
330
1F
100
AcDbEntity
  8
0-C_ハッチ
  6
JWW_DASHED1
 62
   120
370
     5
100
AcDbLine
 10
-4249.000018557986
 20
2448.567793307481
 30
0.0
 11
-4003.500018557987
 21
2694.067793307481
 31
0.0
  0
LINE
  5
28D
330
1F
100
AcDbEntity
  8
0-C_ハッチ
  6
JWW_DASHED1
 62
   120
370
     5
100
AcDbLine
 10
-4249.000018557986
 20
2462.709928931216
 30
0.0
 11
-4003.500018557987
 21
2708.209928931215
 31
0.0
  0
LINE
  5
28E
330
1F
100
AcDbEntity
  8
0-C_ハッチ
  6
JWW_DASHED1
 62
   120
370
     5
100
AcDbLine
 10
-4249.000018557986
 20
2476.852064554947
 30
0.0
 11
-4003.500018557987
 21
2722.352064554945
 31
0.0
  0
LINE
  5
28F
330
1F
100
AcDbEntity
  8
0-C_ハッチ
  6
JWW_DASHED1
 62
   120
370
     5
100
AcDbLine
 10
-4249.000018557986
 20
2490.994200178681
 30
0.0
 11
-4003.500018557987
 21
2736.494200178681
 31
0.0
  0
LINE
  5
290
330
1F
100
AcDbEntity
  8
0-C_ハッチ
  6
JWW_DASHED1
 62
   120
370
     5
100
AcDbLine
 10
-4249.000018557986
 20
2505.136335802416
 30
0.0
 11
-4003.500018557987
 21
2750.636335802414
 31
0.0
  0
LINE
  5
291
330
1F
100
AcDbEntity
  8
0-C_ハッチ
  6
JWW_DASHED1
 62
   120
370
     5
100
AcDbLine
 10
-4249.000018557986
 20
2519.278471426147
 30
0.0
 11
-4003.500018557987
 21
2764.778471426148
 31
0.0
  0
LINE
  5
292
330
1F
100
AcDbEntity
  8
0-C_ハッチ
  6
JWW_DASHED1
 62
   120
370
     5
100
AcDbLine
 10
-4249.000018557986
 20
2533.420607049881
 30
0.0
 11
-4003.500018557987
 21
2778.92060704988
 31
0.0
  0
LINE
  5
293
330
1F
100
AcDbEntity
  8
0-C_ハッチ
  6
JWW_DASHED1
 62
   120
370
     5
100
AcDbLine
 10
-4249.000018557986
 20
2547.562742673615
 30
0.0
 11
-4003.500018557987
 21
2793.062742673613
 31
0.0
  0
LINE
  5
294
330
1F
100
AcDbEntity
  8
0-C_ハッチ
  6
JWW_DASHED1
 62
   120
370
     5
100
AcDbLine
 10
-4249.000018557986
 20
2561.704878297349
 30
0.0
 11
-4003.500018557987
 21
2807.204878297348
 31
0.0
  0
LINE
  5
295
330
1F
100
AcDbEntity
  8
0-C_ハッチ
  6
JWW_DASHED1
 62
   120
370
     5
100
AcDbLine
 10
-4249.000018557986
 20
2575.847013921083
 30
0.0
 11
-4003.500018557987
 21
2821.34701392108
 31
0.0
  0
LINE
  5
296
330
1F
100
AcDbEntity
  8
0-C_ハッチ
  6
JWW_DASHED1
 62
   120
370
     5
100
AcDbLine
 10
-4249.000018557986
 20
2589.989149544814
 30
0.0
 11
-4003.500018557987
 21
2835.489149544812
 31
0.0
  0
LINE
  5
297
330
1F
100
AcDbEntity
  8
0-C_ハッチ
  6
JWW_DASHED1
 62
   120
370
     5
100
AcDbLine
 10
-4249.000018557986
 20
2604.131285168548
 30
0.0
 11
-4003.500018557987
 21
2849.631285168545
 31
0.0
  0
LINE
  5
298
330
1F
100
AcDbEntity
  8
0-C_ハッチ
  6
JWW_DASHED1
 62
   120
370
     5
100
AcDbLine
 10
-4249.000018557986
 20
2618.273420792283
 30
0.0
 11
-4003.500018557987
 21
2863.77342079228
 31
0.0
  0
LINE
  5
299
330
1F
100
AcDbEntity
  8
0-C_ハッチ
  6
JWW_DASHED1
 62
   120
370
     5
100
AcDbLine
 10
-4249.000018557986
 20
2632.415556416014
 30
0.0
 11
-4003.500018557987
 21
2877.915556416015
 31
0.0
  0
LINE
  5
29A
330
1F
100
AcDbEntity
  8
0-C_ハッチ
  6
JWW_DASHED1
 62
   120
370
     5
100
AcDbLine
 10
-4249.000018557986
 20
2646.557692039748
 30
0.0
 11
-4003.500018557987
 21
2892.057692039748
 31
0.0
  0
LINE
  5
29B
330
1F
100
AcDbEntity
  8
0-C_ハッチ
  6
JWW_DASHED1
 62
   120
370
     5
100
AcDbLine
 10
-4249.000018557986
 20
2660.699827663482
 30
0.0
 11
-4003.500018557987
 21
2906.199827663479
 31
0.0
  0
LINE
  5
29C
330
1F
100
AcDbEntity
  8
0-C_ハッチ
  6
JWW_DASHED1
 62
   120
370
     5
100
AcDbLine
 10
-4249.000018557986
 20
2674.841963287217
 30
0.0
 11
-4003.500018557987
 21
2920.341963287213
 31
0.0
  0
LINE
  5
29D
330
1F
100
AcDbEntity
  8
0-C_ハッチ
  6
JWW_DASHED1
 62
   120
370
     5
100
AcDbLine
 10
-4249.000018557986
 20
2688.984098910948
 30
0.0
 11
-4003.500018557987
 21
2934.484098910945
 31
0.0
  0
LINE
  5
29E
330
1F
100
AcDbEntity
  8
0-C_ハッチ
  6
JWW_DASHED1
 62
   120
370
     5
100
AcDbLine
 10
-4249.000018557986
 20
2703.126234534681
 30
0.0
 11
-4003.500018557987
 21
2948.626234534679
 31
0.0
  0
LINE
  5
29F
330
1F
100
AcDbEntity
  8
0-C_ハッチ
  6
JWW_DASHED1
 62
   120
370
     5
100
AcDbLine
 10
-4249.000018557986
 20
2717.268370158413
 30
0.0
 11
-4003.500018557987
 21
2962.768370158413
 31
0.0
  0
LINE
  5
2A0
330
1F
100
AcDbEntity
  8
0-C_ハッチ
  6
JWW_DASHED1
 62
   120
370
     5
100
AcDbLine
 10
-4249.000018557986
 20
2731.410505782149
 30
0.0
 11
-4003.500018557987
 21
2976.910505782148
 31
0.0
  0
LINE
  5
2A1
330
1F
100
AcDbEntity
  8
0-C_ハッチ
  6
JWW_DASHED1
 62
   120
370
     5
100
AcDbLine
 10
-4249.000018557986
 20
2745.55264140588
 30
0.0
 11
-4003.500018557987
 21
2991.052641405881
 31
0.0
  0
LINE
  5
2A2
330
1F
100
AcDbEntity
  8
0-C_ハッチ
  6
JWW_DASHED1
 62
   120
370
     5
100
AcDbLine
 10
-4249.000018557986
 20
2759.694777029616
 30
0.0
 11
-4003.500018557987
 21
3005.194777029613
 31
0.0
  0
LINE
  5
2A3
330
1F
100
AcDbEntity
  8
0-C_ハッチ
  6
JWW_DASHED1
 62
   120
370
     5
100
AcDbLine
 10
-4249.000018557986
 20
2773.836912653348
 30
0.0
 11
-4003.500018557987
 21
3019.336912653346
 31
0.0
  0
LINE
  5
2A4
330
1F
100
AcDbEntity
  8
0-C_ハッチ
  6
JWW_DASHED1
 62
   120
370
     5
100
AcDbLine
 10
-4249.000018557986
 20
2787.979048277081
 30
0.0
 11
-4003.500018557987
 21
3033.479048277081
 31
0.0
  0
LINE
  5
2A5
330
1F
100
AcDbEntity
  8
0-C_ハッチ
  6
JWW_DASHED1
 62
   120
370
     5
100
AcDbLine
 10
-4249.000018557986
 20
2802.121183900761
 30
0.0
 11
-4003.500018557987
 21
3047.621183900759
 31
0.0
  0
LINE
  5
2A6
330
1F
100
AcDbEntity
  8
0-C_ハッチ
  6
JWW_DASHED1
 62
   120
370
     5
100
AcDbLine
 10
-4249.000018557986
 20
2816.263319524496
 30
0.0
 11
-4003.500018557987
 21
3061.763319524493
 31
0.0
  0
LINE
  5
2A7
330
1F
100
AcDbEntity
  8
0-C_ハッチ
  6
JWW_DASHED1
 62
   120
370
     5
100
AcDbLine
 10
-4249.000018557986
 20
2830.405455148229
 30
0.0
 11
-4003.500018557987
 21
3075.905455148225
 31
0.0
  0
LINE
  5
2A8
330
1F
100
AcDbEntity
  8
0-C_ハッチ
  6
JWW_DASHED1
 62
   120
370
     5
100
AcDbLine
 10
-4249.000018557986
 20
2844.54759077196
 30
0.0
 11
-4003.500018557987
 21
3090.047590771961
 31
0.0
  0
LINE
  5
2A9
330
1F
100
AcDbEntity
  8
0-C_ハッチ
  6
JWW_DASHED1
 62
   120
370
     5
100
AcDbLine
 10
-4249.000018557986
 20
2858.689726395693
 30
0.0
 11
-4003.500018557987
 21
3104.189726395693
 31
0.0
  0
LINE
  5
2AA
330
1F
100
AcDbEntity
  8
0-C_ハッチ
  6
JWW_DASHED1
 62
   120
370
     5
100
AcDbLine
 10
-4249.000018557986
 20
2872.831862019425
 30
0.0
 11
-4003.500018557987
 21
3118.331862019425
 31
0.0
  0
LINE
  5
2AB
330
1F
100
AcDbEntity
  8
0-C_ハッチ
  6
JWW_DASHED1
 62
   120
370
     5
100
AcDbLine
 10
-4249.000018557986
 20
2886.97399764316
 30
0.0
 11
-4003.500018557987
 21
3132.473997643157
 31
0.0
  0
LINE
  5
2AC
330
1F
100
AcDbEntity
  8
0-C_ハッチ
  6
JWW_DASHED1
 62
   120
370
     5
100
AcDbLine
 10
-4249.000018557986
 20
2901.116133266893
 30
0.0
 11
-4003.500018557987
 21
3146.616133266893
 31
0.0
  0
LINE
  5
2AD
330
1F
100
AcDbEntity
  8
0-C_ハッチ
  6
JWW_DASHED1
 62
   120
370
     5
100
AcDbLine
 10
-4249.000018557986
 20
2915.258268890627
 30
0.0
 11
-4003.500018557987
 21
3160.758268890626
 31
0.0
  0
LINE
  5
2AE
330
1F
100
AcDbEntity
  8
0-C_ハッチ
  6
JWW_DASHED1
 62
   120
370
     5
100
AcDbLine
 10
-4249.000018557986
 20
2929.400404514362
 30
0.0
 11
-4003.500018557987
 21
3174.90040451436
 31
0.0
  0
LINE
  5
2AF
330
1F
100
AcDbEntity
  8
0-C_ハッチ
  6
JWW_DASHED1
 62
   120
370
     5
100
AcDbLine
 10
-4249.000018557986
 20
2943.542540138093
 30
0.0
 11
-4003.500018557987
 21
3189.042540138093
 31
0.0
  0
LINE
  5
2B0
330
1F
100
AcDbEntity
  8
0-C_ハッチ
  6
JWW_DASHED1
 62
   120
370
     5
100
AcDbLine
 10
-4249.000018557986
 20
2957.684675761827
 30
0.0
 11
-4003.500018557987
 21
3203.184675761828
 31
0.0
  0
LINE
  5
2B1
330
1F
100
AcDbEntity
  8
0-C_ハッチ
  6
JWW_DASHED1
 62
   120
370
     5
100
AcDbLine
 10
-4249.000018557986
 20
2971.826811385559
 30
0.0
 11
-4003.500018557987
 21
3217.326811385559
 31
0.0
  0
LINE
  5
2B2
330
1F
100
AcDbEntity
  8
0-C_ハッチ
  6
JWW_DASHED1
 62
   120
370
     5
100
AcDbLine
 10
-4249.000018557986
 20
2985.968947009293
 30
0.0
 11
-4003.500018557987
 21
3231.468947009293
 31
0.0
  0
LINE
  5
2B3
330
1F
100
AcDbEntity
  8
0-C_ハッチ
  6
JWW_DASHED1
 62
   120
370
     5
100
AcDbLine
 10
-4249.000018557986
 20
3000.111082633026
 30
0.0
 11
-4003.500018557987
 21
3245.611082633024
 31
0.0
  0
LINE
  5
2B4
330
1F
100
AcDbEntity
  8
0-C_ハッチ
  6
JWW_DASHED1
 62
   120
370
     5
100
AcDbLine
 10
-4234.323797225202
 20
1643.000148463894
 30
0.0
 11
-4003.500018557987
 21
1873.823927131108
 31
0.0
  0
LINE
  5
2B5
330
1F
100
AcDbEntity
  8
0-C_ハッチ
  6
JWW_DASHED1
 62
   120
370
     5
100
AcDbLine
 10
-4022.191762869204
 20
1643.000148463894
 30
0.0
 11
-4003.500018557987
 21
1661.691892775111
 31
0.0
  0
LINE
  5
2B6
330
1F
100
AcDbEntity
  8
0-C_ハッチ
  6
JWW_DASHED1
 62
   120
370
     5
100
AcDbLine
 10
-4036.333898492938
 20
1643.000148463894
 30
0.0
 11
-4003.500018557987
 21
1675.834028398844
 31
0.0
  0
LINE
  5
2B7
330
1F
100
AcDbEntity
  8
0-C_ハッチ
  6
JWW_DASHED1
 62
   120
370
     5
100
AcDbLine
 10
-4050.476034116669
 20
1643.000148463894
 30
0.0
 11
-4003.500018557987
 21
1689.976164022576
 31
0.0
  0
LINE
  5
2B8
330
1F
100
AcDbEntity
  8
0-C_ハッチ
  6
JWW_DASHED1
 62
   120
370
     5
100
AcDbLine
 10
-4064.618169740403
 20
1643.000148463894
 30
0.0
 11
-4003.500018557987
 21
1704.118299646309
 31
0.0
  0
LINE
  5
2B9
330
1F
100
AcDbEntity
  8
0-C_ハッチ
  6
JWW_DASHED1
 62
   120
370
     5
100
AcDbLine
 10
-4078.760305364137
 20
1643.000148463894
 30
0.0
 11
-4003.500018557987
 21
1718.260435270044
 31
0.0
  0
LINE
  5
2BA
330
1F
100
AcDbEntity
  8
0-C_ハッチ
  6
JWW_DASHED1
 62
   120
370
     5
100
AcDbLine
 10
-4092.902440987869
 20
1643.000148463894
 30
0.0
 11
-4003.500018557987
 21
1732.402570893776
 31
0.0
  0
LINE
  5
2BB
330
1F
100
AcDbEntity
  8
0-C_ハッチ
  6
JWW_DASHED1
 62
   120
370
     5
100
AcDbLine
 10
-4107.044576611605
 20
1643.000148463894
 30
0.0
 11
-4003.500018557987
 21
1746.544706517511
 31
0.0
  0
LINE
  5
2BC
330
1F
100
AcDbEntity
  8
0-C_ハッチ
  6
JWW_DASHED1
 62
   120
370
     5
100
AcDbLine
 10
-4121.186712235338
 20
1643.000148463894
 30
0.0
 11
-4003.500018557987
 21
1760.686842141244
 31
0.0
  0
LINE
  5
2BD
330
1F
100
AcDbEntity
  8
0-C_ハッチ
  6
JWW_DASHED1
 62
   120
370
     5
100
AcDbLine
 10
-4135.328847859071
 20
1643.000148463894
 30
0.0
 11
-4003.500018557987
 21
1774.828977764979
 31
0.0
  0
LINE
  5
2BE
330
1F
100
AcDbEntity
  8
0-C_ハッチ
  6
JWW_DASHED1
 62
   120
370
     5
100
AcDbLine
 10
-4149.470983482803
 20
1643.000148463894
 30
0.0
 11
-4003.500018557987
 21
1788.97111338871
 31
0.0
  0
LINE
  5
2BF
330
1F
100
AcDbEntity
  8
0-C_ハッチ
  6
JWW_DASHED1
 62
   120
370
     5
100
AcDbLine
 10
-4163.613119106537
 20
1643.000148463894
 30
0.0
 11
-4003.500018557987
 21
1803.113249012444
 31
0.0
  0
LINE
  5
2C0
330
1F
100
AcDbEntity
  8
0-C_ハッチ
  6
JWW_DASHED1
 62
   120
370
     5
100
AcDbLine
 10
-4177.75525473027
 20
1643.000148463894
 30
0.0
 11
-4003.500018557987
 21
1817.255384636175
 31
0.0
  0
LINE
  5
2C1
330
1F
100
AcDbEntity
  8
0-C_ハッチ
  6
JWW_DASHED1
 62
   120
370
     5
100
AcDbLine
 10
-4191.897390354005
 20
1643.000148463894
 30
0.0
 11
-4003.500018557987
 21
1831.397520259912
 31
0.0
  0
LINE
  5
2C2
330
1F
100
AcDbEntity
  8
0-C_ハッチ
  6
JWW_DASHED1
 62
   120
370
     5
100
AcDbLine
 10
-4206.039525977737
 20
1643.000148463894
 30
0.0
 11
-4003.500018557987
 21
1845.539655883644
 31
0.0
  0
LINE
  5
2C3
330
1F
100
AcDbEntity
  8
0-C_ハッチ
  6
JWW_DASHED1
 62
   120
370
     5
100
AcDbLine
 10
-4220.18166160147
 20
1643.000148463894
 30
0.0
 11
-4003.500018557987
 21
1859.681791507378
 31
0.0
  0
LINE
  5
2C4
330
1F
100
AcDbEntity
  8
0-C_ハッチ
  6
JWW_DASHED1
 62
   120
370
     5
100
AcDbLine
 10
-3752.500018557987
 20
3254.669523860175
 30
0.0
 11
-3741.169393954267
 21
3266.000148463894
 31
0.0
  0
LINE
  5
2C5
330
1F
100
AcDbEntity
  8
0-C_ハッチ
  6
JWW_DASHED1
 62
   120
370
     5
100
AcDbLine
 10
-3752.500018557987
 20
3028.395353880495
 30
0.0
 11
-3514.895223974587
 21
3266.000148463894
 31
0.0
  0
LINE
  5
2C6
330
1F
100
AcDbEntity
  8
0-C_ハッチ
  6
JWW_DASHED1
 62
   120
370
     5
100
AcDbLine
 10
-3752.500018557987
 20
3042.537489504229
 30
0.0
 11
-3529.037359598321
 21
3266.000148463894
 31
0.0
  0
LINE
  5
2C7
330
1F
100
AcDbEntity
  8
0-C_ハッチ
  6
JWW_DASHED1
 62
   120
370
     5
100
AcDbLine
 10
-3752.500018557987
 20
3056.679625127961
 30
0.0
 11
-3543.179495222054
 21
3266.000148463894
 31
0.0
  0
LINE
  5
2C8
330
1F
100
AcDbEntity
  8
0-C_ハッチ
  6
JWW_DASHED1
 62
   120
370
     5
100
AcDbLine
 10
-3752.500018557987
 20
3070.821760751694
 30
0.0
 11
-3557.321630845787
 21
3266.000148463894
 31
0.0
  0
LINE
  5
2C9
330
1F
100
AcDbEntity
  8
0-C_ハッチ
  6
JWW_DASHED1
 62
   120
370
     5
100
AcDbLine
 10
-3752.500018557987
 20
3084.963896375429
 30
0.0
 11
-3571.463766469521
 21
3266.000148463894
 31
0.0
  0
LINE
  5
2CA
330
1F
100
AcDbEntity
  8
0-C_ハッチ
  6
JWW_DASHED1
 62
   120
370
     5
100
AcDbLine
 10
-3752.500018557987
 20
3099.106031999164
 30
0.0
 11
-3585.605902093254
 21
3266.000148463894
 31
0.0
  0
LINE
  5
2CB
330
1F
100
AcDbEntity
  8
0-C_ハッチ
  6
JWW_DASHED1
 62
   120
370
     5
100
AcDbLine
 10
-3752.500018557987
 20
3113.248167622897
 30
0.0
 11
-3599.748037716987
 21
3266.000148463894
 31
0.0
  0
LINE
  5
2CC
330
1F
100
AcDbEntity
  8
0-C_ハッチ
  6
JWW_DASHED1
 62
   120
370
     5
100
AcDbLine
 10
-3752.500018557987
 20
3127.390303246629
 30
0.0
 11
-3613.890173340721
 21
3266.000148463894
 31
0.0
  0
LINE
  5
2CD
330
1F
100
AcDbEntity
  8
0-C_ハッチ
  6
JWW_DASHED1
 62
   120
370
     5
100
AcDbLine
 10
-3752.500018557987
 20
3141.532438870363
 30
0.0
 11
-3628.032308964454
 21
3266.000148463894
 31
0.0
  0
LINE
  5
2CE
330
1F
100
AcDbEntity
  8
0-C_ハッチ
  6
JWW_DASHED1
 62
   120
370
     5
100
AcDbLine
 10
-3752.500018557987
 20
3155.674574494096
 30
0.0
 11
-3642.174444588187
 21
3266.000148463894
 31
0.0
  0
LINE
  5
2CF
330
1F
100
AcDbEntity
  8
0-C_ハッチ
  6
JWW_DASHED1
 62
   120
370
     5
100
AcDbLine
 10
-3752.500018557987
 20
3169.816710117829
 30
0.0
 11
-3656.316580211921
 21
3266.000148463894
 31
0.0
  0
LINE
  5
2D0
330
1F
100
AcDbEntity
  8
0-C_ハッチ
  6
JWW_DASHED1
 62
   120
370
     5
100
AcDbLine
 10
-3752.500018557987
 20
3183.958845741561
 30
0.0
 11
-3670.458715835654
 21
3266.000148463894
 31
0.0
  0
LINE
  5
2D1
330
1F
100
AcDbEntity
  8
0-C_ハッチ
  6
JWW_DASHED1
 62
   120
370
     5
100
AcDbLine
 10
-3752.500018557987
 20
3198.100981365241
 30
0.0
 11
-3684.600851459333
 21
3266.000148463894
 31
0.0
  0
LINE
  5
2D2
330
1F
100
AcDbEntity
  8
0-C_ハッチ
  6
JWW_DASHED1
 62
   120
370
     5
100
AcDbLine
 10
-3752.500018557987
 20
3212.243116988975
 30
0.0
 11
-3698.742987083067
 21
3266.000148463894
 31
0.0
  0
LINE
  5
2D3
330
1F
100
AcDbEntity
  8
0-C_ハッチ
  6
JWW_DASHED1
 62
   120
370
     5
100
AcDbLine
 10
-3752.500018557987
 20
3226.385252612708
 30
0.0
 11
-3712.8851227068
 21
3266.000148463894
 31
0.0
  0
LINE
  5
2D4
330
1F
100
AcDbEntity
  8
0-C_ハッチ
  6
JWW_DASHED1
 62
   120
370
     5
100
AcDbLine
 10
-3752.500018557987
 20
3240.527388236441
 30
0.0
 11
-3727.027258330533
 21
3266.000148463894
 31
0.0
  0
LINE
  5
2D5
330
1F
100
AcDbEntity
  8
0-C_ハッチ
  6
JWW_DASHED1
 62
   120
370
     5
100
AcDbLine
 10
-3511.549627245474
 20
1643.000148463894
 30
0.0
 11
-3507.000018557988
 21
1647.549757151379
 31
0.0
  0
LINE
  5
2D6
330
1F
100
AcDbEntity
  8
0-C_ハッチ
  6
JWW_DASHED1
 62
   120
370
     5
100
AcDbLine
 10
-3752.500018557987
 20
3014.253218256764
 30
0.0
 11
-3507.000018557988
 21
3259.753218256761
 31
0.0
  0
LINE
  5
2D7
330
1F
100
AcDbEntity
  8
0-C_ハッチ
  6
JWW_DASHED1
 62
   120
370
     5
100
AcDbLine
 10
-3752.500018557987
 20
1642.466062754792
 30
0.0
 11
-3507.000018557988
 21
1887.96606275479
 31
0.0
  0
LINE
  5
2D8
330
1F
100
AcDbEntity
  8
0-C_ハッチ
  6
JWW_DASHED1
 62
   120
370
     5
100
AcDbLine
 10
-3752.500018557987
 20
1656.608198378528
 30
0.0
 11
-3507.000018557988
 21
1902.108198378524
 31
0.0
  0
LINE
  5
2D9
330
1F
100
AcDbEntity
  8
0-C_ハッチ
  6
JWW_DASHED1
 62
   120
370
     5
100
AcDbLine
 10
-3752.500018557987
 20
1670.750334002258
 30
0.0
 11
-3507.000018557988
 21
1916.250334002257
 31
0.0
  0
LINE
  5
2DA
330
1F
100
AcDbEntity
  8
0-C_ハッチ
  6
JWW_DASHED1
 62
   120
370
     5
100
AcDbLine
 10
-3752.500018557987
 20
1684.892469625992
 30
0.0
 11
-3507.000018557988
 21
1930.392469625993
 31
0.0
  0
LINE
  5
2DB
330
1F
100
AcDbEntity
  8
0-C_ハッチ
  6
JWW_DASHED1
 62
   120
370
     5
100
AcDbLine
 10
-3752.500018557987
 20
1699.034605249724
 30
0.0
 11
-3507.000018557988
 21
1944.534605249724
 31
0.0
  0
LINE
  5
2DC
330
1F
100
AcDbEntity
  8
0-C_ハッチ
  6
JWW_DASHED1
 62
   120
370
     5
100
AcDbLine
 10
-3752.500018557987
 20
1713.176740873459
 30
0.0
 11
-3507.000018557988
 21
1958.676740873459
 31
0.0
  0
LINE
  5
2DD
330
1F
100
AcDbEntity
  8
0-C_ハッチ
  6
JWW_DASHED1
 62
   120
370
     5
100
AcDbLine
 10
-3752.500018557987
 20
1727.318876497191
 30
0.0
 11
-3507.000018557988
 21
1972.818876497189
 31
0.0
  0
LINE
  5
2DE
330
1F
100
AcDbEntity
  8
0-C_ハッチ
  6
JWW_DASHED1
 62
   120
370
     5
100
AcDbLine
 10
-3752.500018557987
 20
1741.461012120928
 30
0.0
 11
-3507.000018557988
 21
1986.961012120924
 31
0.0
  0
LINE
  5
2DF
330
1F
100
AcDbEntity
  8
0-C_ハッチ
  6
JWW_DASHED1
 62
   120
370
     5
100
AcDbLine
 10
-3752.500018557987
 20
1755.603147744659
 30
0.0
 11
-3507.000018557988
 21
2001.103147744657
 31
0.0
  0
LINE
  5
2E0
330
1F
100
AcDbEntity
  8
0-C_ハッチ
  6
JWW_DASHED1
 62
   120
370
     5
100
AcDbLine
 10
-3752.500018557987
 20
1769.745283368392
 30
0.0
 11
-3507.000018557988
 21
2015.245283368389
 31
0.0
  0
LINE
  5
2E1
330
1F
100
AcDbEntity
  8
0-C_ハッチ
  6
JWW_DASHED1
 62
   120
370
     5
100
AcDbLine
 10
-3752.500018557987
 20
1783.887418992124
 30
0.0
 11
-3507.000018557988
 21
2029.387418992124
 31
0.0
  0
LINE
  5
2E2
330
1F
100
AcDbEntity
  8
0-C_ハッチ
  6
JWW_DASHED1
 62
   120
370
     5
100
AcDbLine
 10
-3752.500018557987
 20
1798.029554615859
 30
0.0
 11
-3507.000018557988
 21
2043.52955461586
 31
0.0
  0
LINE
  5
2E3
330
1F
100
AcDbEntity
  8
0-C_ハッチ
  6
JWW_DASHED1
 62
   120
370
     5
100
AcDbLine
 10
-3752.500018557987
 20
1812.171690239592
 30
0.0
 11
-3507.000018557988
 21
2057.671690239592
 31
0.0
  0
LINE
  5
2E4
330
1F
100
AcDbEntity
  8
0-C_ハッチ
  6
JWW_DASHED1
 62
   120
370
     5
100
AcDbLine
 10
-3752.500018557987
 20
1826.313825863326
 30
0.0
 11
-3507.000018557988
 21
2071.813825863325
 31
0.0
  0
LINE
  5
2E5
330
1F
100
AcDbEntity
  8
0-C_ハッチ
  6
JWW_DASHED1
 62
   120
370
     5
100
AcDbLine
 10
-3752.500018557987
 20
1840.455961487058
 30
0.0
 11
-3507.000018557988
 21
2085.955961487056
 31
0.0
  0
LINE
  5
2E6
330
1F
100
AcDbEntity
  8
0-C_ハッチ
  6
JWW_DASHED1
 62
   120
370
     5
100
AcDbLine
 10
-3752.500018557987
 20
1854.598097110792
 30
0.0
 11
-3507.000018557988
 21
2100.098097110792
 31
0.0
  0
LINE
  5
2E7
330
1F
100
AcDbEntity
  8
0-C_ハッチ
  6
JWW_DASHED1
 62
   120
370
     5
100
AcDbLine
 10
-3752.500018557987
 20
1868.740232734526
 30
0.0
 11
-3507.000018557988
 21
2114.240232734523
 31
0.0
  0
LINE
  5
2E8
330
1F
100
AcDbEntity
  8
0-C_ハッチ
  6
JWW_DASHED1
 62
   120
370
     5
100
AcDbLine
 10
-3752.500018557987
 20
1882.88236835826
 30
0.0
 11
-3507.000018557988
 21
2128.382368358256
 31
0.0
  0
LINE
  5
2E9
330
1F
100
AcDbEntity
  8
0-C_ハッチ
  6
JWW_DASHED1
 62
   120
370
     5
100
AcDbLine
 10
-3752.500018557987
 20
1897.024503981992
 30
0.0
 11
-3507.000018557988
 21
2142.524503981992
 31
0.0
  0
LINE
  5
2EA
330
1F
100
AcDbEntity
  8
0-C_ハッチ
  6
JWW_DASHED1
 62
   120
370
     5
100
AcDbLine
 10
-3752.500018557987
 20
1911.166639605725
 30
0.0
 11
-3507.000018557988
 21
2156.666639605726
 31
0.0
  0
LINE
  5
2EB
330
1F
100
AcDbEntity
  8
0-C_ハッチ
  6
JWW_DASHED1
 62
   120
370
     5
100
AcDbLine
 10
-3752.500018557987
 20
1925.308775229459
 30
0.0
 11
-3507.000018557988
 21
2170.808775229456
 31
0.0
  0
LINE
  5
2EC
330
1F
100
AcDbEntity
  8
0-C_ハッチ
  6
JWW_DASHED1
 62
   120
370
     5
100
AcDbLine
 10
-3752.500018557987
 20
1939.450910853193
 30
0.0
 11
-3507.000018557988
 21
2184.950910853192
 31
0.0
  0
LINE
  5
2ED
330
1F
100
AcDbEntity
  8
0-C_ハッチ
  6
JWW_DASHED1
 62
   120
370
     5
100
AcDbLine
 10
-3752.500018557987
 20
1953.593046476925
 30
0.0
 11
-3507.000018557988
 21
2199.093046476923
 31
0.0
  0
LINE
  5
2EE
330
1F
100
AcDbEntity
  8
0-C_ハッチ
  6
JWW_DASHED1
 62
   120
370
     5
100
AcDbLine
 10
-3752.500018557987
 20
1967.73518210066
 30
0.0
 11
-3507.000018557988
 21
2213.235182100656
 31
0.0
  0
LINE
  5
2EF
330
1F
100
AcDbEntity
  8
0-C_ハッチ
  6
JWW_DASHED1
 62
   120
370
     5
100
AcDbLine
 10
-3752.500018557987
 20
1981.877317724392
 30
0.0
 11
-3507.000018557988
 21
2227.37731772439
 31
0.0
  0
LINE
  5
2F0
330
1F
100
AcDbEntity
  8
0-C_ハッチ
  6
JWW_DASHED1
 62
   120
370
     5
100
AcDbLine
 10
-3752.500018557987
 20
1996.019453348127
 30
0.0
 11
-3507.000018557988
 21
2241.519453348125
 31
0.0
  0
LINE
  5
2F1
330
1F
100
AcDbEntity
  8
0-C_ハッチ
  6
JWW_DASHED1
 62
   120
370
     5
100
AcDbLine
 10
-3752.500018557987
 20
2010.161588971859
 30
0.0
 11
-3507.000018557988
 21
2255.661588971859
 31
0.0
  0
LINE
  5
2F2
330
1F
100
AcDbEntity
  8
0-C_ハッチ
  6
JWW_DASHED1
 62
   120
370
     5
100
AcDbLine
 10
-3752.500018557987
 20
2024.303724595536
 30
0.0
 11
-3507.000018557988
 21
2269.803724595534
 31
0.0
  0
LINE
  5
2F3
330
1F
100
AcDbEntity
  8
0-C_ハッチ
  6
JWW_DASHED1
 62
   120
370
     5
100
AcDbLine
 10
-3752.500018557987
 20
2038.445860219272
 30
0.0
 11
-3507.000018557988
 21
2283.945860219269
 31
0.0
  0
LINE
  5
2F4
330
1F
100
AcDbEntity
  8
0-C_ハッチ
  6
JWW_DASHED1
 62
   120
370
     5
100
AcDbLine
 10
-3752.500018557987
 20
2052.587995843005
 30
0.0
 11
-3507.000018557988
 21
2298.087995843002
 31
0.0
  0
LINE
  5
2F5
330
1F
100
AcDbEntity
  8
0-C_ハッチ
  6
JWW_DASHED1
 62
   120
370
     5
100
AcDbLine
 10
-3752.500018557987
 20
2066.730131466739
 30
0.0
 11
-3507.000018557988
 21
2312.230131466737
 31
0.0
  0
LINE
  5
2F6
330
1F
100
AcDbEntity
  8
0-C_ハッチ
  6
JWW_DASHED1
 62
   120
370
     5
100
AcDbLine
 10
-3752.500018557987
 20
2080.872267090472
 30
0.0
 11
-3507.000018557988
 21
2326.372267090472
 31
0.0
  0
LINE
  5
2F7
330
1F
100
AcDbEntity
  8
0-C_ハッチ
  6
JWW_DASHED1
 62
   120
370
     5
100
AcDbLine
 10
-3752.500018557987
 20
2095.014402714204
 30
0.0
 11
-3507.000018557988
 21
2340.514402714205
 31
0.0
  0
LINE
  5
2F8
330
1F
100
AcDbEntity
  8
0-C_ハッチ
  6
JWW_DASHED1
 62
   120
370
     5
100
AcDbLine
 10
-3752.500018557987
 20
2109.156538337939
 30
0.0
 11
-3507.000018557988
 21
2354.656538337936
 31
0.0
  0
LINE
  5
2F9
330
1F
100
AcDbEntity
  8
0-C_ハッチ
  6
JWW_DASHED1
 62
   120
370
     5
100
AcDbLine
 10
-3752.500018557987
 20
2123.29867396167
 30
0.0
 11
-3507.000018557988
 21
2368.798673961669
 31
0.0
  0
LINE
  5
2FA
330
1F
100
AcDbEntity
  8
0-C_ハッチ
  6
JWW_DASHED1
 62
   120
370
     5
100
AcDbLine
 10
-3752.500018557987
 20
2137.440809585403
 30
0.0
 11
-3507.000018557988
 21
2382.940809585401
 31
0.0
  0
LINE
  5
2FB
330
1F
100
AcDbEntity
  8
0-C_ハッチ
  6
JWW_DASHED1
 62
   120
370
     5
100
AcDbLine
 10
-3752.500018557987
 20
2151.582945209136
 30
0.0
 11
-3507.000018557988
 21
2397.082945209136
 31
0.0
  0
LINE
  5
2FC
330
1F
100
AcDbEntity
  8
0-C_ハッチ
  6
JWW_DASHED1
 62
   120
370
     5
100
AcDbLine
 10
-3752.500018557987
 20
2165.725080832871
 30
0.0
 11
-3507.000018557988
 21
2411.225080832869
 31
0.0
  0
LINE
  5
2FD
330
1F
100
AcDbEntity
  8
0-C_ハッチ
  6
JWW_DASHED1
 62
   120
370
     5
100
AcDbLine
 10
-3752.500018557987
 20
2179.867216456606
 30
0.0
 11
-3507.000018557988
 21
2425.367216456603
 31
0.0
  0
LINE
  5
2FE
330
1F
100
AcDbEntity
  8
0-C_ハッチ
  6
JWW_DASHED1
 62
   120
370
     5
100
AcDbLine
 10
-3752.500018557987
 20
2194.009352080339
 30
0.0
 11
-3507.000018557988
 21
2439.509352080336
 31
0.0
  0
LINE
  5
2FF
330
1F
100
AcDbEntity
  8
0-C_ハッチ
  6
JWW_DASHED1
 62
   120
370
     5
100
AcDbLine
 10
-3752.500018557987
 20
2208.15148770407
 30
0.0
 11
-3507.000018557988
 21
2453.651487704071
 31
0.0
  0
LINE
  5
300
330
1F
100
AcDbEntity
  8
0-C_ハッチ
  6
JWW_DASHED1
 62
   120
370
     5
100
AcDbLine
 10
-3752.500018557987
 20
2222.293623327805
 30
0.0
 11
-3507.000018557988
 21
2467.793623327801
 31
0.0
  0
LINE
  5
301
330
1F
100
AcDbEntity
  8
0-C_ハッチ
  6
JWW_DASHED1
 62
   120
370
     5
100
AcDbLine
 10
-3752.500018557987
 20
2236.435758951536
 30
0.0
 11
-3507.000018557988
 21
2481.935758951536
 31
0.0
  0
LINE
  5
302
330
1F
100
AcDbEntity
  8
0-C_ハッチ
  6
JWW_DASHED1
 62
   120
370
     5
100
AcDbLine
 10
-3752.500018557987
 20
2250.57789457527
 30
0.0
 11
-3507.000018557988
 21
2496.077894575271
 31
0.0
  0
LINE
  5
303
330
1F
100
AcDbEntity
  8
0-C_ハッチ
  6
JWW_DASHED1
 62
   120
370
     5
100
AcDbLine
 10
-3752.500018557987
 20
2264.720030199004
 30
0.0
 11
-3507.000018557988
 21
2510.220030199004
 31
0.0
  0
LINE
  5
304
330
1F
100
AcDbEntity
  8
0-C_ハッチ
  6
JWW_DASHED1
 62
   120
370
     5
100
AcDbLine
 10
-3752.500018557987
 20
2278.862165822738
 30
0.0
 11
-3507.000018557988
 21
2524.362165822736
 31
0.0
  0
LINE
  5
305
330
1F
100
AcDbEntity
  8
0-C_ハッチ
  6
JWW_DASHED1
 62
   120
370
     5
100
AcDbLine
 10
-3752.500018557987
 20
2293.004301446473
 30
0.0
 11
-3507.000018557988
 21
2538.50430144647
 31
0.0
  0
LINE
  5
306
330
1F
100
AcDbEntity
  8
0-C_ハッチ
  6
JWW_DASHED1
 62
   120
370
     5
100
AcDbLine
 10
-3752.500018557987
 20
2307.146437070204
 30
0.0
 11
-3507.000018557988
 21
2552.646437070204
 31
0.0
  0
LINE
  5
307
330
1F
100
AcDbEntity
  8
0-C_ハッチ
  6
JWW_DASHED1
 62
   120
370
     5
100
AcDbLine
 10
-3752.500018557987
 20
2321.288572693937
 30
0.0
 11
-3507.000018557988
 21
2566.788572693938
 31
0.0
  0
LINE
  5
308
330
1F
100
AcDbEntity
  8
0-C_ハッチ
  6
JWW_DASHED1
 62
   120
370
     5
100
AcDbLine
 10
-3752.500018557987
 20
2335.430708317672
 30
0.0
 11
-3507.000018557988
 21
2580.930708317669
 31
0.0
  0
LINE
  5
309
330
1F
100
AcDbEntity
  8
0-C_ハッチ
  6
JWW_DASHED1
 62
   120
370
     5
100
AcDbLine
 10
-3752.500018557987
 20
2349.572843941404
 30
0.0
 11
-3507.000018557988
 21
2595.072843941404
 31
0.0
  0
LINE
  5
30A
330
1F
100
AcDbEntity
  8
0-C_ハッチ
  6
JWW_DASHED1
 62
   120
370
     5
100
AcDbLine
 10
-3752.500018557987
 20
2363.714979565137
 30
0.0
 11
-3507.000018557988
 21
2609.214979565138
 31
0.0
  0
LINE
  5
30B
330
1F
100
AcDbEntity
  8
0-C_ハッチ
  6
JWW_DASHED1
 62
   120
370
     5
100
AcDbLine
 10
-3752.500018557987
 20
2377.857115188872
 30
0.0
 11
-3507.000018557988
 21
2623.357115188868
 31
0.0
  0
LINE
  5
30C
330
1F
100
AcDbEntity
  8
0-C_ハッチ
  6
JWW_DASHED1
 62
   120
370
     5
100
AcDbLine
 10
-3752.500018557987
 20
2391.999250812605
 30
0.0
 11
-3507.000018557988
 21
2637.499250812603
 31
0.0
  0
LINE
  5
30D
330
1F
100
AcDbEntity
  8
0-C_ハッチ
  6
JWW_DASHED1
 62
   120
370
     5
100
AcDbLine
 10
-3752.500018557987
 20
2406.141386436339
 30
0.0
 11
-3507.000018557988
 21
2651.641386436337
 31
0.0
  0
LINE
  5
30E
330
1F
100
AcDbEntity
  8
0-C_ハッチ
  6
JWW_DASHED1
 62
   120
370
     5
100
AcDbLine
 10
-3752.500018557987
 20
2420.283522060016
 30
0.0
 11
-3507.000018557988
 21
2665.783522060016
 31
0.0
  0
LINE
  5
30F
330
1F
100
AcDbEntity
  8
0-C_ハッチ
  6
JWW_DASHED1
 62
   120
370
     5
100
AcDbLine
 10
-3752.500018557987
 20
2434.425657683748
 30
0.0
 11
-3507.000018557988
 21
2679.925657683749
 31
0.0
  0
LINE
  5
310
330
1F
100
AcDbEntity
  8
0-C_ハッチ
  6
JWW_DASHED1
 62
   120
370
     5
100
AcDbLine
 10
-3752.500018557987
 20
2448.567793307484
 30
0.0
 11
-3507.000018557988
 21
2694.067793307481
 31
0.0
  0
LINE
  5
311
330
1F
100
AcDbEntity
  8
0-C_ハッチ
  6
JWW_DASHED1
 62
   120
370
     5
100
AcDbLine
 10
-3752.500018557987
 20
2462.709928931216
 30
0.0
 11
-3507.000018557988
 21
2708.209928931215
 31
0.0
  0
LINE
  5
312
330
1F
100
AcDbEntity
  8
0-C_ハッチ
  6
JWW_DASHED1
 62
   120
370
     5
100
AcDbLine
 10
-3752.500018557987
 20
2476.852064554951
 30
0.0
 11
-3507.000018557988
 21
2722.352064554948
 31
0.0
  0
LINE
  5
313
330
1F
100
AcDbEntity
  8
0-C_ハッチ
  6
JWW_DASHED1
 62
   120
370
     5
100
AcDbLine
 10
-3752.500018557987
 20
2490.994200178684
 30
0.0
 11
-3507.000018557988
 21
2736.494200178681
 31
0.0
  0
LINE
  5
314
330
1F
100
AcDbEntity
  8
0-C_ハッチ
  6
JWW_DASHED1
 62
   120
370
     5
100
AcDbLine
 10
-3752.500018557987
 20
2505.136335802416
 30
0.0
 11
-3507.000018557988
 21
2750.636335802417
 31
0.0
  0
LINE
  5
315
330
1F
100
AcDbEntity
  8
0-C_ハッチ
  6
JWW_DASHED1
 62
   120
370
     5
100
AcDbLine
 10
-3752.500018557987
 20
2519.278471426151
 30
0.0
 11
-3507.000018557988
 21
2764.778471426148
 31
0.0
  0
LINE
  5
316
330
1F
100
AcDbEntity
  8
0-C_ハッチ
  6
JWW_DASHED1
 62
   120
370
     5
100
AcDbLine
 10
-3752.500018557987
 20
2533.420607049884
 30
0.0
 11
-3507.000018557988
 21
2778.92060704988
 31
0.0
  0
LINE
  5
317
330
1F
100
AcDbEntity
  8
0-C_ハッチ
  6
JWW_DASHED1
 62
   120
370
     5
100
AcDbLine
 10
-3752.500018557987
 20
2547.562742673615
 30
0.0
 11
-3507.000018557988
 21
2793.062742673616
 31
0.0
  0
LINE
  5
318
330
1F
100
AcDbEntity
  8
0-C_ハッチ
  6
JWW_DASHED1
 62
   120
370
     5
100
AcDbLine
 10
-3752.500018557987
 20
2561.704878297352
 30
0.0
 11
-3507.000018557988
 21
2807.204878297348
 31
0.0
  0
LINE
  5
319
330
1F
100
AcDbEntity
  8
0-C_ハッチ
  6
JWW_DASHED1
 62
   120
370
     5
100
AcDbLine
 10
-3752.500018557987
 20
2575.847013921083
 30
0.0
 11
-3507.000018557988
 21
2821.34701392108
 31
0.0
  0
LINE
  5
31A
330
1F
100
AcDbEntity
  8
0-C_ハッチ
  6
JWW_DASHED1
 62
   120
370
     5
100
AcDbLine
 10
-3752.500018557987
 20
2589.989149544818
 30
0.0
 11
-3507.000018557988
 21
2835.489149544815
 31
0.0
  0
LINE
  5
31B
330
1F
100
AcDbEntity
  8
0-C_ハッチ
  6
JWW_DASHED1
 62
   120
370
     5
100
AcDbLine
 10
-3752.500018557987
 20
2604.131285168548
 30
0.0
 11
-3507.000018557988
 21
2849.631285168548
 31
0.0
  0
LINE
  5
31C
330
1F
100
AcDbEntity
  8
0-C_ハッチ
  6
JWW_DASHED1
 62
   120
370
     5
100
AcDbLine
 10
-3752.500018557987
 20
2618.273420792283
 30
0.0
 11
-3507.000018557988
 21
2863.773420792283
 31
0.0
  0
LINE
  5
31D
330
1F
100
AcDbEntity
  8
0-C_ハッチ
  6
JWW_DASHED1
 62
   120
370
     5
100
AcDbLine
 10
-3752.500018557987
 20
2632.415556416018
 30
0.0
 11
-3507.000018557988
 21
2877.915556416015
 31
0.0
  0
LINE
  5
31E
330
1F
100
AcDbEntity
  8
0-C_ハッチ
  6
JWW_DASHED1
 62
   120
370
     5
100
AcDbLine
 10
-3752.500018557987
 20
2646.557692039752
 30
0.0
 11
-3507.000018557988
 21
2892.057692039748
 31
0.0
  0
LINE
  5
31F
330
1F
100
AcDbEntity
  8
0-C_ハッチ
  6
JWW_DASHED1
 62
   120
370
     5
100
AcDbLine
 10
-3752.500018557987
 20
2660.699827663482
 30
0.0
 11
-3507.000018557988
 21
2906.199827663483
 31
0.0
  0
LINE
  5
320
330
1F
100
AcDbEntity
  8
0-C_ハッチ
  6
JWW_DASHED1
 62
   120
370
     5
100
AcDbLine
 10
-3752.500018557987
 20
2674.841963287217
 30
0.0
 11
-3507.000018557988
 21
2920.341963287213
 31
0.0
  0
LINE
  5
321
330
1F
100
AcDbEntity
  8
0-C_ハッチ
  6
JWW_DASHED1
 62
   120
370
     5
100
AcDbLine
 10
-3752.500018557987
 20
2688.984098910948
 30
0.0
 11
-3507.000018557988
 21
2934.484098910948
 31
0.0
  0
LINE
  5
322
330
1F
100
AcDbEntity
  8
0-C_ハッチ
  6
JWW_DASHED1
 62
   120
370
     5
100
AcDbLine
 10
-3752.500018557987
 20
2703.126234534684
 30
0.0
 11
-3507.000018557988
 21
2948.626234534682
 31
0.0
  0
LINE
  5
323
330
1F
100
AcDbEntity
  8
0-C_ハッチ
  6
JWW_DASHED1
 62
   120
370
     5
100
AcDbLine
 10
-3752.500018557987
 20
2717.268370158416
 30
0.0
 11
-3507.000018557988
 21
2962.768370158416
 31
0.0
  0
LINE
  5
324
330
1F
100
AcDbEntity
  8
0-C_ハッチ
  6
JWW_DASHED1
 62
   120
370
     5
100
AcDbLine
 10
-3752.500018557987
 20
2731.410505782149
 30
0.0
 11
-3507.000018557988
 21
2976.910505782148
 31
0.0
  0
LINE
  5
325
330
1F
100
AcDbEntity
  8
0-C_ハッチ
  6
JWW_DASHED1
 62
   120
370
     5
100
AcDbLine
 10
-3752.500018557987
 20
2745.552641405884
 30
0.0
 11
-3507.000018557988
 21
2991.052641405881
 31
0.0
  0
LINE
  5
326
330
1F
100
AcDbEntity
  8
0-C_ハッチ
  6
JWW_DASHED1
 62
   120
370
     5
100
AcDbLine
 10
-3752.500018557987
 20
2759.694777029616
 30
0.0
 11
-3507.000018557988
 21
3005.194777029616
 31
0.0
  0
LINE
  5
327
330
1F
100
AcDbEntity
  8
0-C_ハッチ
  6
JWW_DASHED1
 62
   120
370
     5
100
AcDbLine
 10
-3752.500018557987
 20
2773.836912653348
 30
0.0
 11
-3507.000018557988
 21
3019.336912653349
 31
0.0
  0
LINE
  5
328
330
1F
100
AcDbEntity
  8
0-C_ハッチ
  6
JWW_DASHED1
 62
   120
370
     5
100
AcDbLine
 10
-3752.500018557987
 20
2787.979048277085
 30
0.0
 11
-3507.000018557988
 21
3033.479048277081
 31
0.0
  0
LINE
  5
329
330
1F
100
AcDbEntity
  8
0-C_ハッチ
  6
JWW_DASHED1
 62
   120
370
     5
100
AcDbLine
 10
-3752.500018557987
 20
2802.121183900764
 30
0.0
 11
-3507.000018557988
 21
3047.621183900759
 31
0.0
  0
LINE
  5
32A
330
1F
100
AcDbEntity
  8
0-C_ハッチ
  6
JWW_DASHED1
 62
   120
370
     5
100
AcDbLine
 10
-3752.500018557987
 20
2816.263319524496
 30
0.0
 11
-3507.000018557988
 21
3061.763319524493
 31
0.0
  0
LINE
  5
32B
330
1F
100
AcDbEntity
  8
0-C_ハッチ
  6
JWW_DASHED1
 62
   120
370
     5
100
AcDbLine
 10
-3752.500018557987
 20
2830.405455148229
 30
0.0
 11
-3507.000018557988
 21
3075.905455148225
 31
0.0
  0
LINE
  5
32C
330
1F
100
AcDbEntity
  8
0-C_ハッチ
  6
JWW_DASHED1
 62
   120
370
     5
100
AcDbLine
 10
-3752.500018557987
 20
2844.54759077196
 30
0.0
 11
-3507.000018557988
 21
3090.047590771961
 31
0.0
  0
LINE
  5
32D
330
1F
100
AcDbEntity
  8
0-C_ハッチ
  6
JWW_DASHED1
 62
   120
370
     5
100
AcDbLine
 10
-3752.500018557987
 20
2858.689726395697
 30
0.0
 11
-3507.000018557988
 21
3104.189726395693
 31
0.0
  0
LINE
  5
32E
330
1F
100
AcDbEntity
  8
0-C_ハッチ
  6
JWW_DASHED1
 62
   120
370
     5
100
AcDbLine
 10
-3752.500018557987
 20
2872.831862019429
 30
0.0
 11
-3507.000018557988
 21
3118.331862019429
 31
0.0
  0
LINE
  5
32F
330
1F
100
AcDbEntity
  8
0-C_ハッチ
  6
JWW_DASHED1
 62
   120
370
     5
100
AcDbLine
 10
-3752.500018557987
 20
2886.973997643163
 30
0.0
 11
-3507.000018557988
 21
3132.473997643161
 31
0.0
  0
LINE
  5
330
330
1F
100
AcDbEntity
  8
0-C_ハッチ
  6
JWW_DASHED1
 62
   120
370
     5
100
AcDbLine
 10
-3752.500018557987
 20
2901.116133266897
 30
0.0
 11
-3507.000018557988
 21
3146.616133266893
 31
0.0
  0
LINE
  5
331
330
1F
100
AcDbEntity
  8
0-C_ハッチ
  6
JWW_DASHED1
 62
   120
370
     5
100
AcDbLine
 10
-3752.500018557987
 20
2915.25826889063
 30
0.0
 11
-3507.000018557988
 21
3160.758268890626
 31
0.0
  0
LINE
  5
332
330
1F
100
AcDbEntity
  8
0-C_ハッチ
  6
JWW_DASHED1
 62
   120
370
     5
100
AcDbLine
 10
-3752.500018557987
 20
2929.400404514362
 30
0.0
 11
-3507.000018557988
 21
3174.90040451436
 31
0.0
  0
LINE
  5
333
330
1F
100
AcDbEntity
  8
0-C_ハッチ
  6
JWW_DASHED1
 62
   120
370
     5
100
AcDbLine
 10
-3752.500018557987
 20
2943.542540138097
 30
0.0
 11
-3507.000018557988
 21
3189.042540138093
 31
0.0
  0
LINE
  5
334
330
1F
100
AcDbEntity
  8
0-C_ハッチ
  6
JWW_DASHED1
 62
   120
370
     5
100
AcDbLine
 10
-3752.500018557987
 20
2957.684675761827
 30
0.0
 11
-3507.000018557988
 21
3203.184675761828
 31
0.0
  0
LINE
  5
335
330
1F
100
AcDbEntity
  8
0-C_ハッチ
  6
JWW_DASHED1
 62
   120
370
     5
100
AcDbLine
 10
-3752.500018557987
 20
2971.826811385562
 30
0.0
 11
-3507.000018557988
 21
3217.326811385559
 31
0.0
  0
LINE
  5
336
330
1F
100
AcDbEntity
  8
0-C_ハッチ
  6
JWW_DASHED1
 62
   120
370
     5
100
AcDbLine
 10
-3752.500018557987
 20
2985.968947009297
 30
0.0
 11
-3507.000018557988
 21
3231.468947009293
 31
0.0
  0
LINE
  5
337
330
1F
100
AcDbEntity
  8
0-C_ハッチ
  6
JWW_DASHED1
 62
   120
370
     5
100
AcDbLine
 10
-3752.500018557987
 20
3000.11108263303
 30
0.0
 11
-3507.000018557988
 21
3245.611082633027
 31
0.0
  0
LINE
  5
338
330
1F
100
AcDbEntity
  8
0-C_ハッチ
  6
JWW_DASHED1
 62
   120
370
     5
100
AcDbLine
 10
-3737.823797225206
 20
1643.000148463894
 30
0.0
 11
-3507.000018557988
 21
1873.823927131112
 31
0.0
  0
LINE
  5
339
330
1F
100
AcDbEntity
  8
0-C_ハッチ
  6
JWW_DASHED1
 62
   120
370
     5
100
AcDbLine
 10
-3525.691762869205
 20
1643.000148463894
 30
0.0
 11
-3507.000018557988
 21
1661.691892775111
 31
0.0
  0
LINE
  5
33A
330
1F
100
AcDbEntity
  8
0-C_ハッチ
  6
JWW_DASHED1
 62
   120
370
     5
100
AcDbLine
 10
-3539.833898492939
 20
1643.000148463894
 30
0.0
 11
-3507.000018557988
 21
1675.834028398844
 31
0.0
  0
LINE
  5
33B
330
1F
100
AcDbEntity
  8
0-C_ハッチ
  6
JWW_DASHED1
 62
   120
370
     5
100
AcDbLine
 10
-3553.976034116674
 20
1643.000148463894
 30
0.0
 11
-3507.000018557988
 21
1689.976164022579
 31
0.0
  0
LINE
  5
33C
330
1F
100
AcDbEntity
  8
0-C_ハッチ
  6
JWW_DASHED1
 62
   120
370
     5
100
AcDbLine
 10
-3568.118169740408
 20
1643.000148463894
 30
0.0
 11
-3507.000018557988
 21
1704.118299646312
 31
0.0
  0
LINE
  5
33D
330
1F
100
AcDbEntity
  8
0-C_ハッチ
  6
JWW_DASHED1
 62
   120
370
     5
100
AcDbLine
 10
-3582.260305364139
 20
1643.000148463894
 30
0.0
 11
-3507.000018557988
 21
1718.260435270044
 31
0.0
  0
LINE
  5
33E
330
1F
100
AcDbEntity
  8
0-C_ハッチ
  6
JWW_DASHED1
 62
   120
370
     5
100
AcDbLine
 10
-3596.402440987874
 20
1643.000148463894
 30
0.0
 11
-3507.000018557988
 21
1732.402570893779
 31
0.0
  0
LINE
  5
33F
330
1F
100
AcDbEntity
  8
0-C_ハッチ
  6
JWW_DASHED1
 62
   120
370
     5
100
AcDbLine
 10
-3610.544576611607
 20
1643.000148463894
 30
0.0
 11
-3507.000018557988
 21
1746.544706517511
 31
0.0
  0
LINE
  5
340
330
1F
100
AcDbEntity
  8
0-C_ハッチ
  6
JWW_DASHED1
 62
   120
370
     5
100
AcDbLine
 10
-3624.686712235342
 20
1643.000148463894
 30
0.0
 11
-3507.000018557988
 21
1760.686842141244
 31
0.0
  0
LINE
  5
341
330
1F
100
AcDbEntity
  8
0-C_ハッチ
  6
JWW_DASHED1
 62
   120
370
     5
100
AcDbLine
 10
-3638.828847859075
 20
1643.000148463894
 30
0.0
 11
-3507.000018557988
 21
1774.828977764979
 31
0.0
  0
LINE
  5
342
330
1F
100
AcDbEntity
  8
0-C_ハッチ
  6
JWW_DASHED1
 62
   120
370
     5
100
AcDbLine
 10
-3652.970983482807
 20
1643.000148463894
 30
0.0
 11
-3507.000018557988
 21
1788.971113388711
 31
0.0
  0
LINE
  5
343
330
1F
100
AcDbEntity
  8
0-C_ハッチ
  6
JWW_DASHED1
 62
   120
370
     5
100
AcDbLine
 10
-3667.113119106538
 20
1643.000148463894
 30
0.0
 11
-3507.000018557988
 21
1803.113249012447
 31
0.0
  0
LINE
  5
344
330
1F
100
AcDbEntity
  8
0-C_ハッチ
  6
JWW_DASHED1
 62
   120
370
     5
100
AcDbLine
 10
-3681.255254730271
 20
1643.000148463894
 30
0.0
 11
-3507.000018557988
 21
1817.255384636178
 31
0.0
  0
LINE
  5
345
330
1F
100
AcDbEntity
  8
0-C_ハッチ
  6
JWW_DASHED1
 62
   120
370
     5
100
AcDbLine
 10
-3695.397390354006
 20
1643.000148463894
 30
0.0
 11
-3507.000018557988
 21
1831.397520259912
 31
0.0
  0
LINE
  5
346
330
1F
100
AcDbEntity
  8
0-C_ハッチ
  6
JWW_DASHED1
 62
   120
370
     5
100
AcDbLine
 10
-3709.539525977742
 20
1643.000148463894
 30
0.0
 11
-3507.000018557988
 21
1845.539655883644
 31
0.0
  0
LINE
  5
347
330
1F
100
AcDbEntity
  8
0-C_ハッチ
  6
JWW_DASHED1
 62
   120
370
     5
100
AcDbLine
 10
-3723.681661601474
 20
1643.000148463894
 30
0.0
 11
-3507.000018557988
 21
1859.681791507378
 31
0.0
  0
LINE
  5
348
330
1F
100
AcDbEntity
  8
0-C_ハッチ
  6
JWW_DASHED1
 62
   120
370
     5
100
AcDbLine
 10
-3379.000018557989
 20
3254.669523860172
 30
0.0
 11
-3367.669393954268
 21
3266.000148463894
 31
0.0
  0
LINE
  5
349
330
1F
100
AcDbEntity
  8
0-C_ハッチ
  6
JWW_DASHED1
 62
   120
370
     5
100
AcDbLine
 10
-3379.000018557989
 20
3028.395353880495
 30
0.0
 11
-3141.395223974589
 21
3266.000148463894
 31
0.0
  0
LINE
  5
34A
330
1F
100
AcDbEntity
  8
0-C_ハッチ
  6
JWW_DASHED1
 62
   120
370
     5
100
AcDbLine
 10
-3379.000018557989
 20
3042.537489504229
 30
0.0
 11
-3155.537359598323
 21
3266.000148463894
 31
0.0
  0
LINE
  5
34B
330
1F
100
AcDbEntity
  8
0-C_ハッチ
  6
JWW_DASHED1
 62
   120
370
     5
100
AcDbLine
 10
-3379.000018557989
 20
3056.679625127961
 30
0.0
 11
-3169.679495222056
 21
3266.000148463894
 31
0.0
  0
LINE
  5
34C
330
1F
100
AcDbEntity
  8
0-C_ハッチ
  6
JWW_DASHED1
 62
   120
370
     5
100
AcDbLine
 10
-3379.000018557989
 20
3070.821760751694
 30
0.0
 11
-3183.82163084579
 21
3266.000148463894
 31
0.0
  0
LINE
  5
34D
330
1F
100
AcDbEntity
  8
0-C_ハッチ
  6
JWW_DASHED1
 62
   120
370
     5
100
AcDbLine
 10
-3379.000018557989
 20
3084.963896375425
 30
0.0
 11
-3197.963766469523
 21
3266.000148463894
 31
0.0
  0
LINE
  5
34E
330
1F
100
AcDbEntity
  8
0-C_ハッチ
  6
JWW_DASHED1
 62
   120
370
     5
100
AcDbLine
 10
-3379.000018557989
 20
3099.106031999161
 30
0.0
 11
-3212.105902093256
 21
3266.000148463894
 31
0.0
  0
LINE
  5
34F
330
1F
100
AcDbEntity
  8
0-C_ハッチ
  6
JWW_DASHED1
 62
   120
370
     5
100
AcDbLine
 10
-3379.000018557989
 20
3113.248167622893
 30
0.0
 11
-3226.24803771699
 21
3266.000148463894
 31
0.0
  0
LINE
  5
350
330
1F
100
AcDbEntity
  8
0-C_ハッチ
  6
JWW_DASHED1
 62
   120
370
     5
100
AcDbLine
 10
-3379.000018557989
 20
3127.390303246629
 30
0.0
 11
-3240.390173340723
 21
3266.000148463894
 31
0.0
  0
LINE
  5
351
330
1F
100
AcDbEntity
  8
0-C_ハッチ
  6
JWW_DASHED1
 62
   120
370
     5
100
AcDbLine
 10
-3379.000018557989
 20
3141.532438870359
 30
0.0
 11
-3254.532308964456
 21
3266.000148463894
 31
0.0
  0
LINE
  5
352
330
1F
100
AcDbEntity
  8
0-C_ハッチ
  6
JWW_DASHED1
 62
   120
370
     5
100
AcDbLine
 10
-3379.000018557989
 20
3155.674574494096
 30
0.0
 11
-3268.67444458819
 21
3266.000148463894
 31
0.0
  0
LINE
  5
353
330
1F
100
AcDbEntity
  8
0-C_ハッチ
  6
JWW_DASHED1
 62
   120
370
     5
100
AcDbLine
 10
-3379.000018557989
 20
3169.816710117825
 30
0.0
 11
-3282.816580211923
 21
3266.000148463894
 31
0.0
  0
LINE
  5
354
330
1F
100
AcDbEntity
  8
0-C_ハッチ
  6
JWW_DASHED1
 62
   120
370
     5
100
AcDbLine
 10
-3379.000018557989
 20
3183.958845741561
 30
0.0
 11
-3296.958715835656
 21
3266.000148463894
 31
0.0
  0
LINE
  5
355
330
1F
100
AcDbEntity
  8
0-C_ハッチ
  6
JWW_DASHED1
 62
   120
370
     5
100
AcDbLine
 10
-3379.000018557989
 20
3198.100981365241
 30
0.0
 11
-3311.100851459335
 21
3266.000148463894
 31
0.0
  0
LINE
  5
356
330
1F
100
AcDbEntity
  8
0-C_ハッチ
  6
JWW_DASHED1
 62
   120
370
     5
100
AcDbLine
 10
-3379.000018557989
 20
3212.243116988972
 30
0.0
 11
-3325.242987083068
 21
3266.000148463894
 31
0.0
  0
LINE
  5
357
330
1F
100
AcDbEntity
  8
0-C_ハッチ
  6
JWW_DASHED1
 62
   120
370
     5
100
AcDbLine
 10
-3379.000018557989
 20
3226.385252612708
 30
0.0
 11
-3339.385122706802
 21
3266.000148463894
 31
0.0
  0
LINE
  5
358
330
1F
100
AcDbEntity
  8
0-C_ハッチ
  6
JWW_DASHED1
 62
   120
370
     5
100
AcDbLine
 10
-3379.000018557989
 20
3240.527388236438
 30
0.0
 11
-3353.527258330535
 21
3266.000148463894
 31
0.0
  0
LINE
  5
359
330
1F
100
AcDbEntity
  8
0-C_ハッチ
  6
JWW_DASHED1
 62
   120
370
     5
100
AcDbLine
 10
-3138.049627245473
 20
1643.000148463894
 30
0.0
 11
-3133.500018557991
 21
1647.549757151376
 31
0.0
  0
LINE
  5
35A
330
1F
100
AcDbEntity
  8
0-C_ハッチ
  6
JWW_DASHED1
 62
   120
370
     5
100
AcDbLine
 10
-3379.000018557989
 20
3014.253218256761
 30
0.0
 11
-3133.500018557991
 21
3259.753218256761
 31
0.0
  0
LINE
  5
35B
330
1F
100
AcDbEntity
  8
0-C_ハッチ
  6
JWW_DASHED1
 62
   120
370
     5
100
AcDbLine
 10
-3379.000018557989
 20
1642.466062754792
 30
0.0
 11
-3133.500018557991
 21
1887.96606275479
 31
0.0
  0
LINE
  5
35C
330
1F
100
AcDbEntity
  8
0-C_ハッチ
  6
JWW_DASHED1
 62
   120
370
     5
100
AcDbLine
 10
-3379.000018557989
 20
1656.608198378524
 30
0.0
 11
-3133.500018557991
 21
1902.108198378524
 31
0.0
  0
LINE
  5
35D
330
1F
100
AcDbEntity
  8
0-C_ハッチ
  6
JWW_DASHED1
 62
   120
370
     5
100
AcDbLine
 10
-3379.000018557989
 20
1670.750334002258
 30
0.0
 11
-3133.500018557991
 21
1916.250334002257
 31
0.0
  0
LINE
  5
35E
330
1F
100
AcDbEntity
  8
0-C_ハッチ
  6
JWW_DASHED1
 62
   120
370
     5
100
AcDbLine
 10
-3379.000018557989
 20
1684.892469625992
 30
0.0
 11
-3133.500018557991
 21
1930.392469625989
 31
0.0
  0
LINE
  5
35F
330
1F
100
AcDbEntity
  8
0-C_ハッチ
  6
JWW_DASHED1
 62
   120
370
     5
100
AcDbLine
 10
-3379.000018557989
 20
1699.034605249724
 30
0.0
 11
-3133.500018557991
 21
1944.534605249721
 31
0.0
  0
LINE
  5
360
330
1F
100
AcDbEntity
  8
0-C_ハッチ
  6
JWW_DASHED1
 62
   120
370
     5
100
AcDbLine
 10
-3379.000018557989
 20
1713.176740873456
 30
0.0
 11
-3133.500018557991
 21
1958.676740873455
 31
0.0
  0
LINE
  5
361
330
1F
100
AcDbEntity
  8
0-C_ハッチ
  6
JWW_DASHED1
 62
   120
370
     5
100
AcDbLine
 10
-3379.000018557989
 20
1727.318876497191
 30
0.0
 11
-3133.500018557991
 21
1972.818876497189
 31
0.0
  0
LINE
  5
362
330
1F
100
AcDbEntity
  8
0-C_ハッチ
  6
JWW_DASHED1
 62
   120
370
     5
100
AcDbLine
 10
-3379.000018557989
 20
1741.461012120924
 30
0.0
 11
-3133.500018557991
 21
1986.961012120924
 31
0.0
  0
LINE
  5
363
330
1F
100
AcDbEntity
  8
0-C_ハッチ
  6
JWW_DASHED1
 62
   120
370
     5
100
AcDbLine
 10
-3379.000018557989
 20
1755.603147744656
 30
0.0
 11
-3133.500018557991
 21
2001.103147744657
 31
0.0
  0
LINE
  5
364
330
1F
100
AcDbEntity
  8
0-C_ハッチ
  6
JWW_DASHED1
 62
   120
370
     5
100
AcDbLine
 10
-3379.000018557989
 20
1769.745283368392
 30
0.0
 11
-3133.500018557991
 21
2015.245283368389
 31
0.0
  0
LINE
  5
365
330
1F
100
AcDbEntity
  8
0-C_ハッチ
  6
JWW_DASHED1
 62
   120
370
     5
100
AcDbLine
 10
-3379.000018557989
 20
1783.887418992124
 30
0.0
 11
-3133.500018557991
 21
2029.387418992121
 31
0.0
  0
LINE
  5
366
330
1F
100
AcDbEntity
  8
0-C_ハッチ
  6
JWW_DASHED1
 62
   120
370
     5
100
AcDbLine
 10
-3379.000018557989
 20
1798.029554615859
 30
0.0
 11
-3133.500018557991
 21
2043.529554615856
 31
0.0
  0
LINE
  5
367
330
1F
100
AcDbEntity
  8
0-C_ハッチ
  6
JWW_DASHED1
 62
   120
370
     5
100
AcDbLine
 10
-3379.000018557989
 20
1812.171690239589
 30
0.0
 11
-3133.500018557991
 21
2057.671690239589
 31
0.0
  0
LINE
  5
368
330
1F
100
AcDbEntity
  8
0-C_ハッチ
  6
JWW_DASHED1
 62
   120
370
     5
100
AcDbLine
 10
-3379.000018557989
 20
1826.313825863323
 30
0.0
 11
-3133.500018557991
 21
2071.813825863322
 31
0.0
  0
LINE
  5
369
330
1F
100
AcDbEntity
  8
0-C_ハッチ
  6
JWW_DASHED1
 62
   120
370
     5
100
AcDbLine
 10
-3379.000018557989
 20
1840.455961487058
 30
0.0
 11
-3133.500018557991
 21
2085.955961487056
 31
0.0
  0
LINE
  5
36A
330
1F
100
AcDbEntity
  8
0-C_ハッチ
  6
JWW_DASHED1
 62
   120
370
     5
100
AcDbLine
 10
-3379.000018557989
 20
1854.598097110792
 30
0.0
 11
-3133.500018557991
 21
2100.098097110788
 31
0.0
  0
LINE
  5
36B
330
1F
100
AcDbEntity
  8
0-C_ハッチ
  6
JWW_DASHED1
 62
   120
370
     5
100
AcDbLine
 10
-3379.000018557989
 20
1868.740232734523
 30
0.0
 11
-3133.500018557991
 21
2114.240232734523
 31
0.0
  0
LINE
  5
36C
330
1F
100
AcDbEntity
  8
0-C_ハッチ
  6
JWW_DASHED1
 62
   120
370
     5
100
AcDbLine
 10
-3379.000018557989
 20
1882.882368358256
 30
0.0
 11
-3133.500018557991
 21
2128.382368358256
 31
0.0
  0
LINE
  5
36D
330
1F
100
AcDbEntity
  8
0-C_ハッチ
  6
JWW_DASHED1
 62
   120
370
     5
100
AcDbLine
 10
-3379.000018557989
 20
1897.024503981989
 30
0.0
 11
-3133.500018557991
 21
2142.524503981988
 31
0.0
  0
LINE
  5
36E
330
1F
100
AcDbEntity
  8
0-C_ハッチ
  6
JWW_DASHED1
 62
   120
370
     5
100
AcDbLine
 10
-3379.000018557989
 20
1911.166639605725
 30
0.0
 11
-3133.500018557991
 21
2156.666639605723
 31
0.0
  0
LINE
  5
36F
330
1F
100
AcDbEntity
  8
0-C_ハッチ
  6
JWW_DASHED1
 62
   120
370
     5
100
AcDbLine
 10
-3379.000018557989
 20
1925.308775229456
 30
0.0
 11
-3133.500018557991
 21
2170.808775229456
 31
0.0
  0
LINE
  5
370
330
1F
100
AcDbEntity
  8
0-C_ハッチ
  6
JWW_DASHED1
 62
   120
370
     5
100
AcDbLine
 10
-3379.000018557989
 20
1939.45091085319
 30
0.0
 11
-3133.500018557991
 21
2184.950910853188
 31
0.0
  0
LINE
  5
371
330
1F
100
AcDbEntity
  8
0-C_ハッチ
  6
JWW_DASHED1
 62
   120
370
     5
100
AcDbLine
 10
-3379.000018557989
 20
1953.593046476925
 30
0.0
 11
-3133.500018557991
 21
2199.093046476923
 31
0.0
  0
LINE
  5
372
330
1F
100
AcDbEntity
  8
0-C_ハッチ
  6
JWW_DASHED1
 62
   120
370
     5
100
AcDbLine
 10
-3379.000018557989
 20
1967.735182100656
 30
0.0
 11
-3133.500018557991
 21
2213.235182100656
 31
0.0
  0
LINE
  5
373
330
1F
100
AcDbEntity
  8
0-C_ハッチ
  6
JWW_DASHED1
 62
   120
370
     5
100
AcDbLine
 10
-3379.000018557989
 20
1981.877317724389
 30
0.0
 11
-3133.500018557991
 21
2227.37731772439
 31
0.0
  0
LINE
  5
374
330
1F
100
AcDbEntity
  8
0-C_ハッチ
  6
JWW_DASHED1
 62
   120
370
     5
100
AcDbLine
 10
-3379.000018557989
 20
1996.019453348124
 30
0.0
 11
-3133.500018557991
 21
2241.519453348122
 31
0.0
  0
LINE
  5
375
330
1F
100
AcDbEntity
  8
0-C_ハッチ
  6
JWW_DASHED1
 62
   120
370
     5
100
AcDbLine
 10
-3379.000018557989
 20
2010.161588971856
 30
0.0
 11
-3133.500018557991
 21
2255.661588971856
 31
0.0
  0
LINE
  5
376
330
1F
100
AcDbEntity
  8
0-C_ハッチ
  6
JWW_DASHED1
 62
   120
370
     5
100
AcDbLine
 10
-3379.000018557989
 20
2024.303724595536
 30
0.0
 11
-3133.500018557991
 21
2269.803724595534
 31
0.0
  0
LINE
  5
377
330
1F
100
AcDbEntity
  8
0-C_ハッチ
  6
JWW_DASHED1
 62
   120
370
     5
100
AcDbLine
 10
-3379.000018557989
 20
2038.445860219269
 30
0.0
 11
-3133.500018557991
 21
2283.945860219269
 31
0.0
  0
LINE
  5
378
330
1F
100
AcDbEntity
  8
0-C_ハッチ
  6
JWW_DASHED1
 62
   120
370
     5
100
AcDbLine
 10
-3379.000018557989
 20
2052.587995843001
 30
0.0
 11
-3133.500018557991
 21
2298.087995843002
 31
0.0
  0
LINE
  5
379
330
1F
100
AcDbEntity
  8
0-C_ハッチ
  6
JWW_DASHED1
 62
   120
370
     5
100
AcDbLine
 10
-3379.000018557989
 20
2066.730131466736
 30
0.0
 11
-3133.500018557991
 21
2312.230131466734
 31
0.0
  0
LINE
  5
37A
330
1F
100
AcDbEntity
  8
0-C_ハッチ
  6
JWW_DASHED1
 62
   120
370
     5
100
AcDbLine
 10
-3379.000018557989
 20
2080.872267090469
 30
0.0
 11
-3133.500018557991
 21
2326.372267090468
 31
0.0
  0
LINE
  5
37B
330
1F
100
AcDbEntity
  8
0-C_ハッチ
  6
JWW_DASHED1
 62
   120
370
     5
100
AcDbLine
 10
-3379.000018557989
 20
2095.014402714204
 30
0.0
 11
-3133.500018557991
 21
2340.514402714201
 31
0.0
  0
LINE
  5
37C
330
1F
100
AcDbEntity
  8
0-C_ハッチ
  6
JWW_DASHED1
 62
   120
370
     5
100
AcDbLine
 10
-3379.000018557989
 20
2109.156538337936
 30
0.0
 11
-3133.500018557991
 21
2354.656538337936
 31
0.0
  0
LINE
  5
37D
330
1F
100
AcDbEntity
  8
0-C_ハッチ
  6
JWW_DASHED1
 62
   120
370
     5
100
AcDbLine
 10
-3379.000018557989
 20
2123.29867396167
 30
0.0
 11
-3133.500018557991
 21
2368.798673961669
 31
0.0
  0
LINE
  5
37E
330
1F
100
AcDbEntity
  8
0-C_ハッチ
  6
JWW_DASHED1
 62
   120
370
     5
100
AcDbLine
 10
-3379.000018557989
 20
2137.440809585403
 30
0.0
 11
-3133.500018557991
 21
2382.940809585401
 31
0.0
  0
LINE
  5
37F
330
1F
100
AcDbEntity
  8
0-C_ハッチ
  6
JWW_DASHED1
 62
   120
370
     5
100
AcDbLine
 10
-3379.000018557989
 20
2151.582945209136
 30
0.0
 11
-3133.500018557991
 21
2397.082945209133
 31
0.0
  0
LINE
  5
380
330
1F
100
AcDbEntity
  8
0-C_ハッチ
  6
JWW_DASHED1
 62
   120
370
     5
100
AcDbLine
 10
-3379.000018557989
 20
2165.725080832868
 30
0.0
 11
-3133.500018557991
 21
2411.225080832869
 31
0.0
  0
LINE
  5
381
330
1F
100
AcDbEntity
  8
0-C_ハッチ
  6
JWW_DASHED1
 62
   120
370
     5
100
AcDbLine
 10
-3379.000018557989
 20
2179.867216456603
 30
0.0
 11
-3133.500018557991
 21
2425.3672164566
 31
0.0
  0
LINE
  5
382
330
1F
100
AcDbEntity
  8
0-C_ハッチ
  6
JWW_DASHED1
 62
   120
370
     5
100
AcDbLine
 10
-3379.000018557989
 20
2194.009352080336
 30
0.0
 11
-3133.500018557991
 21
2439.509352080336
 31
0.0
  0
LINE
  5
383
330
1F
100
AcDbEntity
  8
0-C_ハッチ
  6
JWW_DASHED1
 62
   120
370
     5
100
AcDbLine
 10
-3379.000018557989
 20
2208.15148770407
 30
0.0
 11
-3133.500018557991
 21
2453.651487704068
 31
0.0
  0
LINE
  5
384
330
1F
100
AcDbEntity
  8
0-C_ハッチ
  6
JWW_DASHED1
 62
   120
370
     5
100
AcDbLine
 10
-3379.000018557989
 20
2222.293623327805
 30
0.0
 11
-3133.500018557991
 21
2467.793623327801
 31
0.0
  0
LINE
  5
385
330
1F
100
AcDbEntity
  8
0-C_ハッチ
  6
JWW_DASHED1
 62
   120
370
     5
100
AcDbLine
 10
-3379.000018557989
 20
2236.435758951536
 30
0.0
 11
-3133.500018557991
 21
2481.935758951533
 31
0.0
  0
LINE
  5
386
330
1F
100
AcDbEntity
  8
0-C_ハッチ
  6
JWW_DASHED1
 62
   120
370
     5
100
AcDbLine
 10
-3379.000018557989
 20
2250.57789457527
 30
0.0
 11
-3133.500018557991
 21
2496.077894575268
 31
0.0
  0
LINE
  5
387
330
1F
100
AcDbEntity
  8
0-C_ハッチ
  6
JWW_DASHED1
 62
   120
370
     5
100
AcDbLine
 10
-3379.000018557989
 20
2264.720030199001
 30
0.0
 11
-3133.500018557991
 21
2510.220030199001
 31
0.0
  0
LINE
  5
388
330
1F
100
AcDbEntity
  8
0-C_ハッチ
  6
JWW_DASHED1
 62
   120
370
     5
100
AcDbLine
 10
-3379.000018557989
 20
2278.862165822734
 30
0.0
 11
-3133.500018557991
 21
2524.362165822736
 31
0.0
  0
LINE
  5
389
330
1F
100
AcDbEntity
  8
0-C_ハッチ
  6
JWW_DASHED1
 62
   120
370
     5
100
AcDbLine
 10
-3379.000018557989
 20
2293.00430144647
 30
0.0
 11
-3133.500018557991
 21
2538.504301446467
 31
0.0
  0
LINE
  5
38A
330
1F
100
AcDbEntity
  8
0-C_ハッチ
  6
JWW_DASHED1
 62
   120
370
     5
100
AcDbLine
 10
-3379.000018557989
 20
2307.146437070204
 30
0.0
 11
-3133.500018557991
 21
2552.646437070201
 31
0.0
  0
LINE
  5
38B
330
1F
100
AcDbEntity
  8
0-C_ハッチ
  6
JWW_DASHED1
 62
   120
370
     5
100
AcDbLine
 10
-3379.000018557989
 20
2321.288572693937
 30
0.0
 11
-3133.500018557991
 21
2566.788572693935
 31
0.0
  0
LINE
  5
38C
330
1F
100
AcDbEntity
  8
0-C_ハッチ
  6
JWW_DASHED1
 62
   120
370
     5
100
AcDbLine
 10
-3379.000018557989
 20
2335.430708317669
 30
0.0
 11
-3133.500018557991
 21
2580.930708317669
 31
0.0
  0
LINE
  5
38D
330
1F
100
AcDbEntity
  8
0-C_ハッチ
  6
JWW_DASHED1
 62
   120
370
     5
100
AcDbLine
 10
-3379.000018557989
 20
2349.572843941404
 30
0.0
 11
-3133.500018557991
 21
2595.072843941401
 31
0.0
  0
LINE
  5
38E
330
1F
100
AcDbEntity
  8
0-C_ハッチ
  6
JWW_DASHED1
 62
   120
370
     5
100
AcDbLine
 10
-3379.000018557989
 20
2363.714979565137
 30
0.0
 11
-3133.500018557991
 21
2609.214979565134
 31
0.0
  0
LINE
  5
38F
330
1F
100
AcDbEntity
  8
0-C_ハッチ
  6
JWW_DASHED1
 62
   120
370
     5
100
AcDbLine
 10
-3379.000018557989
 20
2377.857115188869
 30
0.0
 11
-3133.500018557991
 21
2623.357115188868
 31
0.0
  0
LINE
  5
390
330
1F
100
AcDbEntity
  8
0-C_ハッチ
  6
JWW_DASHED1
 62
   120
370
     5
100
AcDbLine
 10
-3379.000018557989
 20
2391.999250812601
 30
0.0
 11
-3133.500018557991
 21
2637.499250812603
 31
0.0
  0
LINE
  5
391
330
1F
100
AcDbEntity
  8
0-C_ハッチ
  6
JWW_DASHED1
 62
   120
370
     5
100
AcDbLine
 10
-3379.000018557989
 20
2406.141386436336
 30
0.0
 11
-3133.500018557991
 21
2651.641386436334
 31
0.0
  0
LINE
  5
392
330
1F
100
AcDbEntity
  8
0-C_ハッチ
  6
JWW_DASHED1
 62
   120
370
     5
100
AcDbLine
 10
-3379.000018557989
 20
2420.283522060013
 30
0.0
 11
-3133.500018557991
 21
2665.783522060013
 31
0.0
  0
LINE
  5
393
330
1F
100
AcDbEntity
  8
0-C_ハッチ
  6
JWW_DASHED1
 62
   120
370
     5
100
AcDbLine
 10
-3379.000018557989
 20
2434.425657683748
 30
0.0
 11
-3133.500018557991
 21
2679.925657683746
 31
0.0
  0
LINE
  5
394
330
1F
100
AcDbEntity
  8
0-C_ハッチ
  6
JWW_DASHED1
 62
   120
370
     5
100
AcDbLine
 10
-3379.000018557989
 20
2448.567793307481
 30
0.0
 11
-3133.500018557991
 21
2694.067793307481
 31
0.0
  0
LINE
  5
395
330
1F
100
AcDbEntity
  8
0-C_ハッチ
  6
JWW_DASHED1
 62
   120
370
     5
100
AcDbLine
 10
-3379.000018557989
 20
2462.709928931216
 30
0.0
 11
-3133.500018557991
 21
2708.209928931215
 31
0.0
  0
LINE
  5
396
330
1F
100
AcDbEntity
  8
0-C_ハッチ
  6
JWW_DASHED1
 62
   120
370
     5
100
AcDbLine
 10
-3379.000018557989
 20
2476.852064554947
 30
0.0
 11
-3133.500018557991
 21
2722.352064554945
 31
0.0
  0
LINE
  5
397
330
1F
100
AcDbEntity
  8
0-C_ハッチ
  6
JWW_DASHED1
 62
   120
370
     5
100
AcDbLine
 10
-3379.000018557989
 20
2490.994200178681
 30
0.0
 11
-3133.500018557991
 21
2736.494200178681
 31
0.0
  0
LINE
  5
398
330
1F
100
AcDbEntity
  8
0-C_ハッチ
  6
JWW_DASHED1
 62
   120
370
     5
100
AcDbLine
 10
-3379.000018557989
 20
2505.136335802416
 30
0.0
 11
-3133.500018557991
 21
2750.636335802414
 31
0.0
  0
LINE
  5
399
330
1F
100
AcDbEntity
  8
0-C_ハッチ
  6
JWW_DASHED1
 62
   120
370
     5
100
AcDbLine
 10
-3379.000018557989
 20
2519.278471426147
 30
0.0
 11
-3133.500018557991
 21
2764.778471426148
 31
0.0
  0
LINE
  5
39A
330
1F
100
AcDbEntity
  8
0-C_ハッチ
  6
JWW_DASHED1
 62
   120
370
     5
100
AcDbLine
 10
-3379.000018557989
 20
2533.420607049881
 30
0.0
 11
-3133.500018557991
 21
2778.92060704988
 31
0.0
  0
LINE
  5
39B
330
1F
100
AcDbEntity
  8
0-C_ハッチ
  6
JWW_DASHED1
 62
   120
370
     5
100
AcDbLine
 10
-3379.000018557989
 20
2547.562742673615
 30
0.0
 11
-3133.500018557991
 21
2793.062742673613
 31
0.0
  0
LINE
  5
39C
330
1F
100
AcDbEntity
  8
0-C_ハッチ
  6
JWW_DASHED1
 62
   120
370
     5
100
AcDbLine
 10
-3379.000018557989
 20
2561.704878297349
 30
0.0
 11
-3133.500018557991
 21
2807.204878297348
 31
0.0
  0
LINE
  5
39D
330
1F
100
AcDbEntity
  8
0-C_ハッチ
  6
JWW_DASHED1
 62
   120
370
     5
100
AcDbLine
 10
-3379.000018557989
 20
2575.847013921083
 30
0.0
 11
-3133.500018557991
 21
2821.34701392108
 31
0.0
  0
LINE
  5
39E
330
1F
100
AcDbEntity
  8
0-C_ハッチ
  6
JWW_DASHED1
 62
   120
370
     5
100
AcDbLine
 10
-3379.000018557989
 20
2589.989149544814
 30
0.0
 11
-3133.500018557991
 21
2835.489149544812
 31
0.0
  0
LINE
  5
39F
330
1F
100
AcDbEntity
  8
0-C_ハッチ
  6
JWW_DASHED1
 62
   120
370
     5
100
AcDbLine
 10
-3379.000018557989
 20
2604.131285168548
 30
0.0
 11
-3133.500018557991
 21
2849.631285168545
 31
0.0
  0
LINE
  5
3A0
330
1F
100
AcDbEntity
  8
0-C_ハッチ
  6
JWW_DASHED1
 62
   120
370
     5
100
AcDbLine
 10
-3379.000018557989
 20
2618.273420792283
 30
0.0
 11
-3133.500018557991
 21
2863.77342079228
 31
0.0
  0
LINE
  5
3A1
330
1F
100
AcDbEntity
  8
0-C_ハッチ
  6
JWW_DASHED1
 62
   120
370
     5
100
AcDbLine
 10
-3379.000018557989
 20
2632.415556416014
 30
0.0
 11
-3133.500018557991
 21
2877.915556416015
 31
0.0
  0
LINE
  5
3A2
330
1F
100
AcDbEntity
  8
0-C_ハッチ
  6
JWW_DASHED1
 62
   120
370
     5
100
AcDbLine
 10
-3379.000018557989
 20
2646.557692039748
 30
0.0
 11
-3133.500018557991
 21
2892.057692039748
 31
0.0
  0
LINE
  5
3A3
330
1F
100
AcDbEntity
  8
0-C_ハッチ
  6
JWW_DASHED1
 62
   120
370
     5
100
AcDbLine
 10
-3379.000018557989
 20
2660.699827663482
 30
0.0
 11
-3133.500018557991
 21
2906.199827663479
 31
0.0
  0
LINE
  5
3A4
330
1F
100
AcDbEntity
  8
0-C_ハッチ
  6
JWW_DASHED1
 62
   120
370
     5
100
AcDbLine
 10
-3379.000018557989
 20
2674.841963287217
 30
0.0
 11
-3133.500018557991
 21
2920.341963287213
 31
0.0
  0
LINE
  5
3A5
330
1F
100
AcDbEntity
  8
0-C_ハッチ
  6
JWW_DASHED1
 62
   120
370
     5
100
AcDbLine
 10
-3379.000018557989
 20
2688.984098910948
 30
0.0
 11
-3133.500018557991
 21
2934.484098910945
 31
0.0
  0
LINE
  5
3A6
330
1F
100
AcDbEntity
  8
0-C_ハッチ
  6
JWW_DASHED1
 62
   120
370
     5
100
AcDbLine
 10
-3379.000018557989
 20
2703.126234534681
 30
0.0
 11
-3133.500018557991
 21
2948.626234534679
 31
0.0
  0
LINE
  5
3A7
330
1F
100
AcDbEntity
  8
0-C_ハッチ
  6
JWW_DASHED1
 62
   120
370
     5
100
AcDbLine
 10
-3379.000018557989
 20
2717.268370158413
 30
0.0
 11
-3133.500018557991
 21
2962.768370158413
 31
0.0
  0
LINE
  5
3A8
330
1F
100
AcDbEntity
  8
0-C_ハッチ
  6
JWW_DASHED1
 62
   120
370
     5
100
AcDbLine
 10
-3379.000018557989
 20
2731.410505782149
 30
0.0
 11
-3133.500018557991
 21
2976.910505782148
 31
0.0
  0
LINE
  5
3A9
330
1F
100
AcDbEntity
  8
0-C_ハッチ
  6
JWW_DASHED1
 62
   120
370
     5
100
AcDbLine
 10
-3379.000018557989
 20
2745.55264140588
 30
0.0
 11
-3133.500018557991
 21
2991.052641405881
 31
0.0
  0
LINE
  5
3AA
330
1F
100
AcDbEntity
  8
0-C_ハッチ
  6
JWW_DASHED1
 62
   120
370
     5
100
AcDbLine
 10
-3379.000018557989
 20
2759.694777029616
 30
0.0
 11
-3133.500018557991
 21
3005.194777029613
 31
0.0
  0
LINE
  5
3AB
330
1F
100
AcDbEntity
  8
0-C_ハッチ
  6
JWW_DASHED1
 62
   120
370
     5
100
AcDbLine
 10
-3379.000018557989
 20
2773.836912653348
 30
0.0
 11
-3133.500018557991
 21
3019.336912653346
 31
0.0
  0
LINE
  5
3AC
330
1F
100
AcDbEntity
  8
0-C_ハッチ
  6
JWW_DASHED1
 62
   120
370
     5
100
AcDbLine
 10
-3379.000018557989
 20
2787.979048277081
 30
0.0
 11
-3133.500018557991
 21
3033.479048277081
 31
0.0
  0
LINE
  5
3AD
330
1F
100
AcDbEntity
  8
0-C_ハッチ
  6
JWW_DASHED1
 62
   120
370
     5
100
AcDbLine
 10
-3379.000018557989
 20
2802.121183900761
 30
0.0
 11
-3133.500018557991
 21
3047.621183900759
 31
0.0
  0
LINE
  5
3AE
330
1F
100
AcDbEntity
  8
0-C_ハッチ
  6
JWW_DASHED1
 62
   120
370
     5
100
AcDbLine
 10
-3379.000018557989
 20
2816.263319524496
 30
0.0
 11
-3133.500018557991
 21
3061.763319524493
 31
0.0
  0
LINE
  5
3AF
330
1F
100
AcDbEntity
  8
0-C_ハッチ
  6
JWW_DASHED1
 62
   120
370
     5
100
AcDbLine
 10
-3379.000018557989
 20
2830.405455148229
 30
0.0
 11
-3133.500018557991
 21
3075.905455148225
 31
0.0
  0
LINE
  5
3B0
330
1F
100
AcDbEntity
  8
0-C_ハッチ
  6
JWW_DASHED1
 62
   120
370
     5
100
AcDbLine
 10
-3379.000018557989
 20
2844.54759077196
 30
0.0
 11
-3133.500018557991
 21
3090.047590771961
 31
0.0
  0
LINE
  5
3B1
330
1F
100
AcDbEntity
  8
0-C_ハッチ
  6
JWW_DASHED1
 62
   120
370
     5
100
AcDbLine
 10
-3379.000018557989
 20
2858.689726395693
 30
0.0
 11
-3133.500018557991
 21
3104.189726395693
 31
0.0
  0
LINE
  5
3B2
330
1F
100
AcDbEntity
  8
0-C_ハッチ
  6
JWW_DASHED1
 62
   120
370
     5
100
AcDbLine
 10
-3379.000018557989
 20
2872.831862019425
 30
0.0
 11
-3133.500018557991
 21
3118.331862019425
 31
0.0
  0
LINE
  5
3B3
330
1F
100
AcDbEntity
  8
0-C_ハッチ
  6
JWW_DASHED1
 62
   120
370
     5
100
AcDbLine
 10
-3379.000018557989
 20
2886.97399764316
 30
0.0
 11
-3133.500018557991
 21
3132.473997643157
 31
0.0
  0
LINE
  5
3B4
330
1F
100
AcDbEntity
  8
0-C_ハッチ
  6
JWW_DASHED1
 62
   120
370
     5
100
AcDbLine
 10
-3379.000018557989
 20
2901.116133266893
 30
0.0
 11
-3133.500018557991
 21
3146.616133266893
 31
0.0
  0
LINE
  5
3B5
330
1F
100
AcDbEntity
  8
0-C_ハッチ
  6
JWW_DASHED1
 62
   120
370
     5
100
AcDbLine
 10
-3379.000018557989
 20
2915.258268890627
 30
0.0
 11
-3133.500018557991
 21
3160.758268890626
 31
0.0
  0
LINE
  5
3B6
330
1F
100
AcDbEntity
  8
0-C_ハッチ
  6
JWW_DASHED1
 62
   120
370
     5
100
AcDbLine
 10
-3379.000018557989
 20
2929.400404514362
 30
0.0
 11
-3133.500018557991
 21
3174.90040451436
 31
0.0
  0
LINE
  5
3B7
330
1F
100
AcDbEntity
  8
0-C_ハッチ
  6
JWW_DASHED1
 62
   120
370
     5
100
AcDbLine
 10
-3379.000018557989
 20
2943.542540138093
 30
0.0
 11
-3133.500018557991
 21
3189.042540138093
 31
0.0
  0
LINE
  5
3B8
330
1F
100
AcDbEntity
  8
0-C_ハッチ
  6
JWW_DASHED1
 62
   120
370
     5
100
AcDbLine
 10
-3379.000018557989
 20
2957.684675761827
 30
0.0
 11
-3133.500018557991
 21
3203.184675761828
 31
0.0
  0
LINE
  5
3B9
330
1F
100
AcDbEntity
  8
0-C_ハッチ
  6
JWW_DASHED1
 62
   120
370
     5
100
AcDbLine
 10
-3379.000018557989
 20
2971.826811385559
 30
0.0
 11
-3133.500018557991
 21
3217.326811385559
 31
0.0
  0
LINE
  5
3BA
330
1F
100
AcDbEntity
  8
0-C_ハッチ
  6
JWW_DASHED1
 62
   120
370
     5
100
AcDbLine
 10
-3379.000018557989
 20
2985.968947009293
 30
0.0
 11
-3133.500018557991
 21
3231.468947009293
 31
0.0
  0
LINE
  5
3BB
330
1F
100
AcDbEntity
  8
0-C_ハッチ
  6
JWW_DASHED1
 62
   120
370
     5
100
AcDbLine
 10
-3379.000018557989
 20
3000.111082633026
 30
0.0
 11
-3133.500018557991
 21
3245.611082633024
 31
0.0
  0
LINE
  5
3BC
330
1F
100
AcDbEntity
  8
0-C_ハッチ
  6
JWW_DASHED1
 62
   120
370
     5
100
AcDbLine
 10
-3364.323797225205
 20
1643.000148463894
 30
0.0
 11
-3133.500018557991
 21
1873.823927131108
 31
0.0
  0
LINE
  5
3BD
330
1F
100
AcDbEntity
  8
0-C_ハッチ
  6
JWW_DASHED1
 62
   120
370
     5
100
AcDbLine
 10
-3152.191762869207
 20
1643.000148463894
 30
0.0
 11
-3133.500018557991
 21
1661.691892775111
 31
0.0
  0
LINE
  5
3BE
330
1F
100
AcDbEntity
  8
0-C_ハッチ
  6
JWW_DASHED1
 62
   120
370
     5
100
AcDbLine
 10
-3166.333898492941
 20
1643.000148463894
 30
0.0
 11
-3133.500018557991
 21
1675.834028398844
 31
0.0
  0
LINE
  5
3BF
330
1F
100
AcDbEntity
  8
0-C_ハッチ
  6
JWW_DASHED1
 62
   120
370
     5
100
AcDbLine
 10
-3180.476034116673
 20
1643.000148463894
 30
0.0
 11
-3133.500018557991
 21
1689.976164022576
 31
0.0
  0
LINE
  5
3C0
330
1F
100
AcDbEntity
  8
0-C_ハッチ
  6
JWW_DASHED1
 62
   120
370
     5
100
AcDbLine
 10
-3194.618169740406
 20
1643.000148463894
 30
0.0
 11
-3133.500018557991
 21
1704.118299646309
 31
0.0
  0
LINE
  5
3C1
330
1F
100
AcDbEntity
  8
0-C_ハッチ
  6
JWW_DASHED1
 62
   120
370
     5
100
AcDbLine
 10
-3208.760305364141
 20
1643.000148463894
 30
0.0
 11
-3133.500018557991
 21
1718.260435270044
 31
0.0
  0
LINE
  5
3C2
330
1F
100
AcDbEntity
  8
0-C_ハッチ
  6
JWW_DASHED1
 62
   120
370
     5
100
AcDbLine
 10
-3222.902440987873
 20
1643.000148463894
 30
0.0
 11
-3133.500018557991
 21
1732.402570893776
 31
0.0
  0
LINE
  5
3C3
330
1F
100
AcDbEntity
  8
0-C_ハッチ
  6
JWW_DASHED1
 62
   120
370
     5
100
AcDbLine
 10
-3237.044576611609
 20
1643.000148463894
 30
0.0
 11
-3133.500018557991
 21
1746.544706517511
 31
0.0
  0
LINE
  5
3C4
330
1F
100
AcDbEntity
  8
0-C_ハッチ
  6
JWW_DASHED1
 62
   120
370
     5
100
AcDbLine
 10
-3251.186712235341
 20
1643.000148463894
 30
0.0
 11
-3133.500018557991
 21
1760.686842141244
 31
0.0
  0
LINE
  5
3C5
330
1F
100
AcDbEntity
  8
0-C_ハッチ
  6
JWW_DASHED1
 62
   120
370
     5
100
AcDbLine
 10
-3265.328847859074
 20
1643.000148463894
 30
0.0
 11
-3133.500018557991
 21
1774.828977764978
 31
0.0
  0
LINE
  5
3C6
330
1F
100
AcDbEntity
  8
0-C_ハッチ
  6
JWW_DASHED1
 62
   120
370
     5
100
AcDbLine
 10
-3279.470983482806
 20
1643.000148463894
 30
0.0
 11
-3133.500018557991
 21
1788.97111338871
 31
0.0
  0
LINE
  5
3C7
330
1F
100
AcDbEntity
  8
0-C_ハッチ
  6
JWW_DASHED1
 62
   120
370
     5
100
AcDbLine
 10
-3293.613119106541
 20
1643.000148463894
 30
0.0
 11
-3133.500018557991
 21
1803.113249012444
 31
0.0
  0
LINE
  5
3C8
330
1F
100
AcDbEntity
  8
0-C_ハッチ
  6
JWW_DASHED1
 62
   120
370
     5
100
AcDbLine
 10
-3307.755254730273
 20
1643.000148463894
 30
0.0
 11
-3133.500018557991
 21
1817.255384636175
 31
0.0
  0
LINE
  5
3C9
330
1F
100
AcDbEntity
  8
0-C_ハッチ
  6
JWW_DASHED1
 62
   120
370
     5
100
AcDbLine
 10
-3321.897390354008
 20
1643.000148463894
 30
0.0
 11
-3133.500018557991
 21
1831.397520259912
 31
0.0
  0
LINE
  5
3CA
330
1F
100
AcDbEntity
  8
0-C_ハッチ
  6
JWW_DASHED1
 62
   120
370
     5
100
AcDbLine
 10
-3336.039525977741
 20
1643.000148463894
 30
0.0
 11
-3133.500018557991
 21
1845.539655883644
 31
0.0
  0
LINE
  5
3CB
330
1F
100
AcDbEntity
  8
0-C_ハッチ
  6
JWW_DASHED1
 62
   120
370
     5
100
AcDbLine
 10
-3350.181661601473
 20
1643.000148463894
 30
0.0
 11
-3133.500018557991
 21
1859.681791507378
 31
0.0
  0
LINE
  5
3CC
330
1F
100
AcDbEntity
  8
0-C_ハッチ
  6
JWW_DASHED1
 62
   120
370
     5
100
AcDbLine
 10
-1846.500269606307
 20
3258.810690560556
 30
0.0
 11
-1839.310811702969
 21
3266.000148463894
 31
0.0
  0
LINE
  5
3CD
330
1F
100
AcDbEntity
  8
0-C_ハッチ
  6
JWW_DASHED1
 62
   120
370
     5
100
AcDbLine
 10
-1846.500269606307
 20
3046.678656204554
 30
0.0
 11
-1627.178777346968
 21
3266.000148463894
 31
0.0
  0
LINE
  5
3CE
330
1F
100
AcDbEntity
  8
0-C_ハッチ
  6
JWW_DASHED1
 62
   120
370
     5
100
AcDbLine
 10
-1846.500269606307
 20
3060.820791828289
 30
0.0
 11
-1641.320912970702
 21
3266.000148463894
 31
0.0
  0
LINE
  5
3CF
330
1F
100
AcDbEntity
  8
0-C_ハッチ
  6
JWW_DASHED1
 62
   120
370
     5
100
AcDbLine
 10
-1846.500269606307
 20
3074.962927452023
 30
0.0
 11
-1655.463048594434
 21
3266.000148463894
 31
0.0
  0
LINE
  5
3D0
330
1F
100
AcDbEntity
  8
0-C_ハッチ
  6
JWW_DASHED1
 62
   120
370
     5
100
AcDbLine
 10
-1846.500269606307
 20
3089.105063075755
 30
0.0
 11
-1669.605184218168
 21
3266.000148463894
 31
0.0
  0
LINE
  5
3D1
330
1F
100
AcDbEntity
  8
0-C_ハッチ
  6
JWW_DASHED1
 62
   120
370
     5
100
AcDbLine
 10
-1846.500269606307
 20
3103.247198699488
 30
0.0
 11
-1683.747319841902
 21
3266.000148463894
 31
0.0
  0
LINE
  5
3D2
330
1F
100
AcDbEntity
  8
0-C_ハッチ
  6
JWW_DASHED1
 62
   120
370
     5
100
AcDbLine
 10
-1846.500269606307
 20
3117.389334323223
 30
0.0
 11
-1697.889455465635
 21
3266.000148463894
 31
0.0
  0
LINE
  5
3D3
330
1F
100
AcDbEntity
  8
0-C_ハッチ
  6
JWW_DASHED1
 62
   120
370
     5
100
AcDbLine
 10
-1846.500269606307
 20
3131.531469946955
 30
0.0
 11
-1712.031591089368
 21
3266.000148463894
 31
0.0
  0
LINE
  5
3D4
330
1F
100
AcDbEntity
  8
0-C_ハッチ
  6
JWW_DASHED1
 62
   120
370
     5
100
AcDbLine
 10
-1846.500269606307
 20
3145.673605570689
 30
0.0
 11
-1726.173726713102
 21
3266.000148463894
 31
0.0
  0
LINE
  5
3D5
330
1F
100
AcDbEntity
  8
0-C_ハッチ
  6
JWW_DASHED1
 62
   120
370
     5
100
AcDbLine
 10
-1846.500269606307
 20
3159.815741194423
 30
0.0
 11
-1740.315862336836
 21
3266.000148463894
 31
0.0
  0
LINE
  5
3D6
330
1F
100
AcDbEntity
  8
0-C_ハッチ
  6
JWW_DASHED1
 62
   120
370
     5
100
AcDbLine
 10
-1846.500269606307
 20
3173.957876818155
 30
0.0
 11
-1754.457997960569
 21
3266.000148463894
 31
0.0
  0
LINE
  5
3D7
330
1F
100
AcDbEntity
  8
0-C_ハッチ
  6
JWW_DASHED1
 62
   120
370
     5
100
AcDbLine
 10
-1846.500269606307
 20
3188.100012441889
 30
0.0
 11
-1768.600133584302
 21
3266.000148463894
 31
0.0
  0
LINE
  5
3D8
330
1F
100
AcDbEntity
  8
0-C_ハッチ
  6
JWW_DASHED1
 62
   120
370
     5
100
AcDbLine
 10
-1846.500269606307
 20
3202.242148065622
 30
0.0
 11
-1782.742269208035
 21
3266.000148463894
 31
0.0
  0
LINE
  5
3D9
330
1F
100
AcDbEntity
  8
0-C_ハッチ
  6
JWW_DASHED1
 62
   120
370
     5
100
AcDbLine
 10
-1846.500269606307
 20
3216.384283689355
 30
0.0
 11
-1796.884404831769
 21
3266.000148463894
 31
0.0
  0
LINE
  5
3DA
330
1F
100
AcDbEntity
  8
0-C_ハッチ
  6
JWW_DASHED1
 62
   120
370
     5
100
AcDbLine
 10
-1846.500269606307
 20
3230.526419313089
 30
0.0
 11
-1811.026540455503
 21
3266.000148463894
 31
0.0
  0
LINE
  5
3DB
330
1F
100
AcDbEntity
  8
0-C_ハッチ
  6
JWW_DASHED1
 62
   120
370
     5
100
AcDbLine
 10
-1846.500269606307
 20
3244.668554936822
 30
0.0
 11
-1825.168676079235
 21
3266.000148463894
 31
0.0
  0
LINE
  5
3DC
330
1F
100
AcDbEntity
  8
0-C_ハッチ
  6
JWW_DASHED1
 62
   120
370
     5
100
AcDbLine
 10
-1637.975316241694
 20
1643.000148463894
 30
0.0
 11
-1627.000269606307
 21
1653.975195099281
 31
0.0
  0
LINE
  5
3DD
330
1F
100
AcDbEntity
  8
0-C_ハッチ
  6
JWW_DASHED1
 62
   120
370
     5
100
AcDbLine
 10
-1846.500269606307
 20
3032.536520580822
 30
0.0
 11
-1627.000269606307
 21
3252.036520580821
 31
0.0
  0
LINE
  5
3DE
330
1F
100
AcDbEntity
  8
0-C_ハッチ
  6
JWW_DASHED1
 62
   120
370
     5
100
AcDbLine
 10
-1846.500269606307
 20
1646.607229455227
 30
0.0
 11
-1627.000269606307
 21
1866.107229455227
 31
0.0
  0
LINE
  5
3DF
330
1F
100
AcDbEntity
  8
0-C_ハッチ
  6
JWW_DASHED1
 62
   120
370
     5
100
AcDbLine
 10
-1846.500269606307
 20
1660.749365078961
 30
0.0
 11
-1627.000269606307
 21
1880.249365078961
 31
0.0
  0
LINE
  5
3E0
330
1F
100
AcDbEntity
  8
0-C_ハッチ
  6
JWW_DASHED1
 62
   120
370
     5
100
AcDbLine
 10
-1846.500269606307
 20
1674.891500702694
 30
0.0
 11
-1627.000269606307
 21
1894.391500702694
 31
0.0
  0
LINE
  5
3E1
330
1F
100
AcDbEntity
  8
0-C_ハッチ
  6
JWW_DASHED1
 62
   120
370
     5
100
AcDbLine
 10
-1846.500269606307
 20
1689.033636326428
 30
0.0
 11
-1627.000269606307
 21
1908.533636326428
 31
0.0
  0
LINE
  5
3E2
330
1F
100
AcDbEntity
  8
0-C_ハッチ
  6
JWW_DASHED1
 62
   120
370
     5
100
AcDbLine
 10
-1846.500269606307
 20
1703.175771950161
 30
0.0
 11
-1627.000269606307
 21
1922.675771950161
 31
0.0
  0
LINE
  5
3E3
330
1F
100
AcDbEntity
  8
0-C_ハッチ
  6
JWW_DASHED1
 62
   120
370
     5
100
AcDbLine
 10
-1846.500269606307
 20
1717.317907573894
 30
0.0
 11
-1627.000269606307
 21
1936.817907573896
 31
0.0
  0
LINE
  5
3E4
330
1F
100
AcDbEntity
  8
0-C_ハッチ
  6
JWW_DASHED1
 62
   120
370
     5
100
AcDbLine
 10
-1846.500269606307
 20
1731.460043197628
 30
0.0
 11
-1627.000269606307
 21
1950.960043197628
 31
0.0
  0
LINE
  5
3E5
330
1F
100
AcDbEntity
  8
0-C_ハッチ
  6
JWW_DASHED1
 62
   120
370
     5
100
AcDbLine
 10
-1846.500269606307
 20
1745.602178821361
 30
0.0
 11
-1627.000269606307
 21
1965.102178821361
 31
0.0
  0
LINE
  5
3E6
330
1F
100
AcDbEntity
  8
0-C_ハッチ
  6
JWW_DASHED1
 62
   120
370
     5
100
AcDbLine
 10
-1846.500269606307
 20
1759.744314445094
 30
0.0
 11
-1627.000269606307
 21
1979.244314445093
 31
0.0
  0
LINE
  5
3E7
330
1F
100
AcDbEntity
  8
0-C_ハッチ
  6
JWW_DASHED1
 62
   120
370
     5
100
AcDbLine
 10
-1846.500269606307
 20
1773.886450068828
 30
0.0
 11
-1627.000269606307
 21
1993.386450068829
 31
0.0
  0
LINE
  5
3E8
330
1F
100
AcDbEntity
  8
0-C_ハッチ
  6
JWW_DASHED1
 62
   120
370
     5
100
AcDbLine
 10
-1846.500269606307
 20
1788.02858569256
 30
0.0
 11
-1627.000269606307
 21
2007.52858569256
 31
0.0
  0
LINE
  5
3E9
330
1F
100
AcDbEntity
  8
0-C_ハッチ
  6
JWW_DASHED1
 62
   120
370
     5
100
AcDbLine
 10
-1846.500269606307
 20
1802.170721316295
 30
0.0
 11
-1627.000269606307
 21
2021.670721316295
 31
0.0
  0
LINE
  5
3EA
330
1F
100
AcDbEntity
  8
0-C_ハッチ
  6
JWW_DASHED1
 62
   120
370
     5
100
AcDbLine
 10
-1846.500269606307
 20
1816.312856940028
 30
0.0
 11
-1627.000269606307
 21
2035.812856940029
 31
0.0
  0
LINE
  5
3EB
330
1F
100
AcDbEntity
  8
0-C_ハッチ
  6
JWW_DASHED1
 62
   120
370
     5
100
AcDbLine
 10
-1846.500269606307
 20
1830.454992563761
 30
0.0
 11
-1627.000269606307
 21
2049.954992563762
 31
0.0
  0
LINE
  5
3EC
330
1F
100
AcDbEntity
  8
0-C_ハッチ
  6
JWW_DASHED1
 62
   120
370
     5
100
AcDbLine
 10
-1846.500269606307
 20
1844.597128187439
 30
0.0
 11
-1627.000269606307
 21
2064.09712818744
 31
0.0
  0
LINE
  5
3ED
330
1F
100
AcDbEntity
  8
0-C_ハッチ
  6
JWW_DASHED1
 62
   120
370
     5
100
AcDbLine
 10
-1846.500269606307
 20
1858.739263811173
 30
0.0
 11
-1627.000269606307
 21
2078.239263811173
 31
0.0
  0
LINE
  5
3EE
330
1F
100
AcDbEntity
  8
0-C_ハッチ
  6
JWW_DASHED1
 62
   120
370
     5
100
AcDbLine
 10
-1846.500269606307
 20
1872.881399434907
 30
0.0
 11
-1627.000269606307
 21
2092.381399434907
 31
0.0
  0
LINE
  5
3EF
330
1F
100
AcDbEntity
  8
0-C_ハッチ
  6
JWW_DASHED1
 62
   120
370
     5
100
AcDbLine
 10
-1846.500269606307
 20
1887.023535058641
 30
0.0
 11
-1627.000269606307
 21
2106.523535058639
 31
0.0
  0
LINE
  5
3F0
330
1F
100
AcDbEntity
  8
0-C_ハッチ
  6
JWW_DASHED1
 62
   120
370
     5
100
AcDbLine
 10
-1846.500269606307
 20
1901.165670682372
 30
0.0
 11
-1627.000269606307
 21
2120.665670682374
 31
0.0
  0
LINE
  5
3F1
330
1F
100
AcDbEntity
  8
0-C_ハッチ
  6
JWW_DASHED1
 62
   120
370
     5
100
AcDbLine
 10
-1846.500269606307
 20
1915.307806306106
 30
0.0
 11
-1627.000269606307
 21
2134.807806306108
 31
0.0
  0
LINE
  5
3F2
330
1F
100
AcDbEntity
  8
0-C_ハッチ
  6
JWW_DASHED1
 62
   120
370
     5
100
AcDbLine
 10
-1846.500269606307
 20
1929.449941929841
 30
0.0
 11
-1627.000269606307
 21
2148.949941929841
 31
0.0
  0
LINE
  5
3F3
330
1F
100
AcDbEntity
  8
0-C_ハッチ
  6
JWW_DASHED1
 62
   120
370
     5
100
AcDbLine
 10
-1846.500269606307
 20
1943.592077553574
 30
0.0
 11
-1627.000269606307
 21
2163.092077553573
 31
0.0
  0
LINE
  5
3F4
330
1F
100
AcDbEntity
  8
0-C_ハッチ
  6
JWW_DASHED1
 62
   120
370
     5
100
AcDbLine
 10
-1846.500269606307
 20
1957.734213177307
 30
0.0
 11
-1627.000269606307
 21
2177.234213177306
 31
0.0
  0
LINE
  5
3F5
330
1F
100
AcDbEntity
  8
0-C_ハッチ
  6
JWW_DASHED1
 62
   120
370
     5
100
AcDbLine
 10
-1846.500269606307
 20
1971.876348801041
 30
0.0
 11
-1627.000269606307
 21
2191.376348801041
 31
0.0
  0
LINE
  5
3F6
330
1F
100
AcDbEntity
  8
0-C_ハッチ
  6
JWW_DASHED1
 62
   120
370
     5
100
AcDbLine
 10
-1846.500269606307
 20
1986.018484424774
 30
0.0
 11
-1627.000269606307
 21
2205.518484424773
 31
0.0
  0
LINE
  5
3F7
330
1F
100
AcDbEntity
  8
0-C_ハッチ
  6
JWW_DASHED1
 62
   120
370
     5
100
AcDbLine
 10
-1846.500269606307
 20
2000.160620048507
 30
0.0
 11
-1627.000269606307
 21
2219.660620048506
 31
0.0
  0
LINE
  5
3F8
330
1F
100
AcDbEntity
  8
0-C_ハッチ
  6
JWW_DASHED1
 62
   120
370
     5
100
AcDbLine
 10
-1846.500269606307
 20
2014.302755672239
 30
0.0
 11
-1627.000269606307
 21
2233.80275567224
 31
0.0
  0
LINE
  5
3F9
330
1F
100
AcDbEntity
  8
0-C_ハッチ
  6
JWW_DASHED1
 62
   120
370
     5
100
AcDbLine
 10
-1846.500269606307
 20
2028.444891295973
 30
0.0
 11
-1627.000269606307
 21
2247.944891295974
 31
0.0
  0
LINE
  5
3FA
330
1F
100
AcDbEntity
  8
0-C_ハッチ
  6
JWW_DASHED1
 62
   120
370
     5
100
AcDbLine
 10
-1846.500269606307
 20
2042.587026919707
 30
0.0
 11
-1627.000269606307
 21
2262.087026919706
 31
0.0
  0
LINE
  5
3FB
330
1F
100
AcDbEntity
  8
0-C_ハッチ
  6
JWW_DASHED1
 62
   120
370
     5
100
AcDbLine
 10
-1846.500269606307
 20
2056.72916254344
 30
0.0
 11
-1627.000269606307
 21
2276.22916254344
 31
0.0
  0
LINE
  5
3FC
330
1F
100
AcDbEntity
  8
0-C_ハッチ
  6
JWW_DASHED1
 62
   120
370
     5
100
AcDbLine
 10
-1846.500269606307
 20
2070.871298167173
 30
0.0
 11
-1627.000269606307
 21
2290.371298167173
 31
0.0
  0
LINE
  5
3FD
330
1F
100
AcDbEntity
  8
0-C_ハッチ
  6
JWW_DASHED1
 62
   120
370
     5
100
AcDbLine
 10
-1846.500269606307
 20
2085.013433790907
 30
0.0
 11
-1627.000269606307
 21
2304.513433790907
 31
0.0
  0
LINE
  5
3FE
330
1F
100
AcDbEntity
  8
0-C_ハッチ
  6
JWW_DASHED1
 62
   120
370
     5
100
AcDbLine
 10
-1846.500269606307
 20
2099.15556941464
 30
0.0
 11
-1627.000269606307
 21
2318.65556941464
 31
0.0
  0
LINE
  5
3FF
330
1F
100
AcDbEntity
  8
0-C_ハッチ
  6
JWW_DASHED1
 62
   120
370
     5
100
AcDbLine
 10
-1846.500269606307
 20
2113.297705038373
 30
0.0
 11
-1627.000269606307
 21
2332.797705038373
 31
0.0
  0
LINE
  5
400
330
1F
100
AcDbEntity
  8
0-C_ハッチ
  6
JWW_DASHED1
 62
   120
370
     5
100
AcDbLine
 10
-1846.500269606307
 20
2127.439840662052
 30
0.0
 11
-1627.000269606307
 21
2346.939840662052
 31
0.0
  0
LINE
  5
401
330
1F
100
AcDbEntity
  8
0-C_ハッチ
  6
JWW_DASHED1
 62
   120
370
     5
100
AcDbLine
 10
-1846.500269606307
 20
2141.581976285786
 30
0.0
 11
-1627.000269606307
 21
2361.081976285785
 31
0.0
  0
LINE
  5
402
330
1F
100
AcDbEntity
  8
0-C_ハッチ
  6
JWW_DASHED1
 62
   120
370
     5
100
AcDbLine
 10
-1846.500269606307
 20
2155.724111909519
 30
0.0
 11
-1627.000269606307
 21
2375.224111909518
 31
0.0
  0
LINE
  5
403
330
1F
100
AcDbEntity
  8
0-C_ハッチ
  6
JWW_DASHED1
 62
   120
370
     5
100
AcDbLine
 10
-1846.500269606307
 20
2169.866247533252
 30
0.0
 11
-1627.000269606307
 21
2389.366247533252
 31
0.0
  0
LINE
  5
404
330
1F
100
AcDbEntity
  8
0-C_ハッチ
  6
JWW_DASHED1
 62
   120
370
     5
100
AcDbLine
 10
-1846.500269606307
 20
2184.008383156985
 30
0.0
 11
-1627.000269606307
 21
2403.508383156985
 31
0.0
  0
LINE
  5
405
330
1F
100
AcDbEntity
  8
0-C_ハッチ
  6
JWW_DASHED1
 62
   120
370
     5
100
AcDbLine
 10
-1846.500269606307
 20
2198.150518780719
 30
0.0
 11
-1627.000269606307
 21
2417.650518780718
 31
0.0
  0
LINE
  5
406
330
1F
100
AcDbEntity
  8
0-C_ハッチ
  6
JWW_DASHED1
 62
   120
370
     5
100
AcDbLine
 10
-1846.500269606307
 20
2212.292654404451
 30
0.0
 11
-1627.000269606307
 21
2431.792654404453
 31
0.0
  0
LINE
  5
407
330
1F
100
AcDbEntity
  8
0-C_ハッチ
  6
JWW_DASHED1
 62
   120
370
     5
100
AcDbLine
 10
-1846.500269606307
 20
2226.434790028185
 30
0.0
 11
-1627.000269606307
 21
2445.934790028185
 31
0.0
  0
LINE
  5
408
330
1F
100
AcDbEntity
  8
0-C_ハッチ
  6
JWW_DASHED1
 62
   120
370
     5
100
AcDbLine
 10
-1846.500269606307
 20
2240.576925651919
 30
0.0
 11
-1627.000269606307
 21
2460.076925651918
 31
0.0
  0
LINE
  5
409
330
1F
100
AcDbEntity
  8
0-C_ハッチ
  6
JWW_DASHED1
 62
   120
370
     5
100
AcDbLine
 10
-1846.500269606307
 20
2254.719061275653
 30
0.0
 11
-1627.000269606307
 21
2474.219061275652
 31
0.0
  0
LINE
  5
40A
330
1F
100
AcDbEntity
  8
0-C_ハッチ
  6
JWW_DASHED1
 62
   120
370
     5
100
AcDbLine
 10
-1846.500269606307
 20
2268.861196899386
 30
0.0
 11
-1627.000269606307
 21
2488.361196899386
 31
0.0
  0
LINE
  5
40B
330
1F
100
AcDbEntity
  8
0-C_ハッチ
  6
JWW_DASHED1
 62
   120
370
     5
100
AcDbLine
 10
-1846.500269606307
 20
2283.003332523118
 30
0.0
 11
-1627.000269606307
 21
2502.503332523118
 31
0.0
  0
LINE
  5
40C
330
1F
100
AcDbEntity
  8
0-C_ハッチ
  6
JWW_DASHED1
 62
   120
370
     5
100
AcDbLine
 10
-1846.500269606307
 20
2297.145468146852
 30
0.0
 11
-1627.000269606307
 21
2516.645468146852
 31
0.0
  0
LINE
  5
40D
330
1F
100
AcDbEntity
  8
0-C_ハッチ
  6
JWW_DASHED1
 62
   120
370
     5
100
AcDbLine
 10
-1846.500269606307
 20
2311.287603770585
 30
0.0
 11
-1627.000269606307
 21
2530.787603770586
 31
0.0
  0
LINE
  5
40E
330
1F
100
AcDbEntity
  8
0-C_ハッチ
  6
JWW_DASHED1
 62
   120
370
     5
100
AcDbLine
 10
-1846.500269606307
 20
2325.429739394318
 30
0.0
 11
-1627.000269606307
 21
2544.929739394319
 31
0.0
  0
LINE
  5
40F
330
1F
100
AcDbEntity
  8
0-C_ハッチ
  6
JWW_DASHED1
 62
   120
370
     5
100
AcDbLine
 10
-1846.500269606307
 20
2339.571875018053
 30
0.0
 11
-1627.000269606307
 21
2559.071875018052
 31
0.0
  0
LINE
  5
410
330
1F
100
AcDbEntity
  8
0-C_ハッチ
  6
JWW_DASHED1
 62
   120
370
     5
100
AcDbLine
 10
-1846.500269606307
 20
2353.714010641786
 30
0.0
 11
-1627.000269606307
 21
2573.214010641786
 31
0.0
  0
LINE
  5
411
330
1F
100
AcDbEntity
  8
0-C_ハッチ
  6
JWW_DASHED1
 62
   120
370
     5
100
AcDbLine
 10
-1846.500269606307
 20
2367.856146265518
 30
0.0
 11
-1627.000269606307
 21
2587.356146265519
 31
0.0
  0
LINE
  5
412
330
1F
100
AcDbEntity
  8
0-C_ハッチ
  6
JWW_DASHED1
 62
   120
370
     5
100
AcDbLine
 10
-1846.500269606307
 20
2381.998281889253
 30
0.0
 11
-1627.000269606307
 21
2601.498281889253
 31
0.0
  0
LINE
  5
413
330
1F
100
AcDbEntity
  8
0-C_ハッチ
  6
JWW_DASHED1
 62
   120
370
     5
100
AcDbLine
 10
-1846.500269606307
 20
2396.140417512985
 30
0.0
 11
-1627.000269606307
 21
2615.640417512985
 31
0.0
  0
LINE
  5
414
330
1F
100
AcDbEntity
  8
0-C_ハッチ
  6
JWW_DASHED1
 62
   120
370
     5
100
AcDbLine
 10
-1846.500269606307
 20
2410.282553136718
 30
0.0
 11
-1627.000269606307
 21
2629.782553136718
 31
0.0
  0
LINE
  5
415
330
1F
100
AcDbEntity
  8
0-C_ハッチ
  6
JWW_DASHED1
 62
   120
370
     5
100
AcDbLine
 10
-1846.500269606307
 20
2424.424688760453
 30
0.0
 11
-1627.000269606307
 21
2643.924688760453
 31
0.0
  0
LINE
  5
416
330
1F
100
AcDbEntity
  8
0-C_ハッチ
  6
JWW_DASHED1
 62
   120
370
     5
100
AcDbLine
 10
-1846.500269606307
 20
2438.566824384131
 30
0.0
 11
-1627.000269606307
 21
2658.066824384131
 31
0.0
  0
LINE
  5
417
330
1F
100
AcDbEntity
  8
0-C_ハッチ
  6
JWW_DASHED1
 62
   120
370
     5
100
AcDbLine
 10
-1846.500269606307
 20
2452.708960007864
 30
0.0
 11
-1627.000269606307
 21
2672.208960007864
 31
0.0
  0
LINE
  5
418
330
1F
100
AcDbEntity
  8
0-C_ハッチ
  6
JWW_DASHED1
 62
   120
370
     5
100
AcDbLine
 10
-1846.500269606307
 20
2466.851095631599
 30
0.0
 11
-1627.000269606307
 21
2686.351095631597
 31
0.0
  0
LINE
  5
419
330
1F
100
AcDbEntity
  8
0-C_ハッチ
  6
JWW_DASHED1
 62
   120
370
     5
100
AcDbLine
 10
-1846.500269606307
 20
2480.99323125533
 30
0.0
 11
-1627.000269606307
 21
2700.49323125533
 31
0.0
  0
LINE
  5
41A
330
1F
100
AcDbEntity
  8
0-C_ハッチ
  6
JWW_DASHED1
 62
   120
370
     5
100
AcDbLine
 10
-1846.500269606307
 20
2495.135366879065
 30
0.0
 11
-1627.000269606307
 21
2714.635366879064
 31
0.0
  0
LINE
  5
41B
330
1F
100
AcDbEntity
  8
0-C_ハッチ
  6
JWW_DASHED1
 62
   120
370
     5
100
AcDbLine
 10
-1846.500269606307
 20
2509.277502502797
 30
0.0
 11
-1627.000269606307
 21
2728.777502502798
 31
0.0
  0
LINE
  5
41C
330
1F
100
AcDbEntity
  8
0-C_ハッチ
  6
JWW_DASHED1
 62
   120
370
     5
100
AcDbLine
 10
-1846.500269606307
 20
2523.41963812653
 30
0.0
 11
-1627.000269606307
 21
2742.91963812653
 31
0.0
  0
LINE
  5
41D
330
1F
100
AcDbEntity
  8
0-C_ハッチ
  6
JWW_DASHED1
 62
   120
370
     5
100
AcDbLine
 10
-1846.500269606307
 20
2537.561773750264
 30
0.0
 11
-1627.000269606307
 21
2757.061773750263
 31
0.0
  0
LINE
  5
41E
330
1F
100
AcDbEntity
  8
0-C_ハッチ
  6
JWW_DASHED1
 62
   120
370
     5
100
AcDbLine
 10
-1846.500269606307
 20
2551.703909373998
 30
0.0
 11
-1627.000269606307
 21
2771.203909373998
 31
0.0
  0
LINE
  5
41F
330
1F
100
AcDbEntity
  8
0-C_ハッチ
  6
JWW_DASHED1
 62
   120
370
     5
100
AcDbLine
 10
-1846.500269606307
 20
2565.84604499773
 30
0.0
 11
-1627.000269606307
 21
2785.34604499773
 31
0.0
  0
LINE
  5
420
330
1F
100
AcDbEntity
  8
0-C_ハッチ
  6
JWW_DASHED1
 62
   120
370
     5
100
AcDbLine
 10
-1846.500269606307
 20
2579.988180621465
 30
0.0
 11
-1627.000269606307
 21
2799.488180621463
 31
0.0
  0
LINE
  5
421
330
1F
100
AcDbEntity
  8
0-C_ハッチ
  6
JWW_DASHED1
 62
   120
370
     5
100
AcDbLine
 10
-1846.500269606307
 20
2594.130316245198
 30
0.0
 11
-1627.000269606307
 21
2813.630316245198
 31
0.0
  0
LINE
  5
422
330
1F
100
AcDbEntity
  8
0-C_ハッチ
  6
JWW_DASHED1
 62
   120
370
     5
100
AcDbLine
 10
-1846.500269606307
 20
2608.272451868932
 30
0.0
 11
-1627.000269606307
 21
2827.77245186893
 31
0.0
  0
LINE
  5
423
330
1F
100
AcDbEntity
  8
0-C_ハッチ
  6
JWW_DASHED1
 62
   120
370
     5
100
AcDbLine
 10
-1846.500269606307
 20
2622.414587492665
 30
0.0
 11
-1627.000269606307
 21
2841.914587492664
 31
0.0
  0
LINE
  5
424
330
1F
100
AcDbEntity
  8
0-C_ハッチ
  6
JWW_DASHED1
 62
   120
370
     5
100
AcDbLine
 10
-1846.500269606307
 20
2636.556723116398
 30
0.0
 11
-1627.000269606307
 21
2856.056723116398
 31
0.0
  0
LINE
  5
425
330
1F
100
AcDbEntity
  8
0-C_ハッチ
  6
JWW_DASHED1
 62
   120
370
     5
100
AcDbLine
 10
-1846.500269606307
 20
2650.698858740131
 30
0.0
 11
-1627.000269606307
 21
2870.19885874013
 31
0.0
  0
LINE
  5
426
330
1F
100
AcDbEntity
  8
0-C_ハッチ
  6
JWW_DASHED1
 62
   120
370
     5
100
AcDbLine
 10
-1846.500269606307
 20
2664.840994363864
 30
0.0
 11
-1627.000269606307
 21
2884.340994363864
 31
0.0
  0
LINE
  5
427
330
1F
100
AcDbEntity
  8
0-C_ハッチ
  6
JWW_DASHED1
 62
   120
370
     5
100
AcDbLine
 10
-1846.500269606307
 20
2678.983129987598
 30
0.0
 11
-1627.000269606307
 21
2898.483129987598
 31
0.0
  0
LINE
  5
428
330
1F
100
AcDbEntity
  8
0-C_ハッチ
  6
JWW_DASHED1
 62
   120
370
     5
100
AcDbLine
 10
-1846.500269606307
 20
2693.125265611332
 30
0.0
 11
-1627.000269606307
 21
2912.62526561133
 31
0.0
  0
LINE
  5
429
330
1F
100
AcDbEntity
  8
0-C_ハッチ
  6
JWW_DASHED1
 62
   120
370
     5
100
AcDbLine
 10
-1846.500269606307
 20
2707.267401235064
 30
0.0
 11
-1627.000269606307
 21
2926.767401235064
 31
0.0
  0
LINE
  5
42A
330
1F
100
AcDbEntity
  8
0-C_ハッチ
  6
JWW_DASHED1
 62
   120
370
     5
100
AcDbLine
 10
-1846.500269606307
 20
2721.409536858797
 30
0.0
 11
-1627.000269606307
 21
2940.909536858798
 31
0.0
  0
LINE
  5
42B
330
1F
100
AcDbEntity
  8
0-C_ハッチ
  6
JWW_DASHED1
 62
   120
370
     5
100
AcDbLine
 10
-1846.500269606307
 20
2735.551672482476
 30
0.0
 11
-1627.000269606307
 21
2955.051672482476
 31
0.0
  0
LINE
  5
42C
330
1F
100
AcDbEntity
  8
0-C_ハッチ
  6
JWW_DASHED1
 62
   120
370
     5
100
AcDbLine
 10
-1846.500269606307
 20
2749.69380810621
 30
0.0
 11
-1627.000269606307
 21
2969.19380810621
 31
0.0
  0
LINE
  5
42D
330
1F
100
AcDbEntity
  8
0-C_ハッチ
  6
JWW_DASHED1
 62
   120
370
     5
100
AcDbLine
 10
-1846.500269606307
 20
2763.835943729944
 30
0.0
 11
-1627.000269606307
 21
2983.335943729943
 31
0.0
  0
LINE
  5
42E
330
1F
100
AcDbEntity
  8
0-C_ハッチ
  6
JWW_DASHED1
 62
   120
370
     5
100
AcDbLine
 10
-1846.500269606307
 20
2777.978079353677
 30
0.0
 11
-1627.000269606307
 21
2997.478079353676
 31
0.0
  0
LINE
  5
42F
330
1F
100
AcDbEntity
  8
0-C_ハッチ
  6
JWW_DASHED1
 62
   120
370
     5
100
AcDbLine
 10
-1846.500269606307
 20
2792.12021497741
 30
0.0
 11
-1627.000269606307
 21
3011.62021497741
 31
0.0
  0
LINE
  5
430
330
1F
100
AcDbEntity
  8
0-C_ハッチ
  6
JWW_DASHED1
 62
   120
370
     5
100
AcDbLine
 10
-1846.500269606307
 20
2806.262350601143
 30
0.0
 11
-1627.000269606307
 21
3025.762350601143
 31
0.0
  0
LINE
  5
431
330
1F
100
AcDbEntity
  8
0-C_ハッチ
  6
JWW_DASHED1
 62
   120
370
     5
100
AcDbLine
 10
-1846.500269606307
 20
2820.404486224876
 30
0.0
 11
-1627.000269606307
 21
3039.904486224877
 31
0.0
  0
LINE
  5
432
330
1F
100
AcDbEntity
  8
0-C_ハッチ
  6
JWW_DASHED1
 62
   120
370
     5
100
AcDbLine
 10
-1846.500269606307
 20
2834.54662184861
 30
0.0
 11
-1627.000269606307
 21
3054.04662184861
 31
0.0
  0
LINE
  5
433
330
1F
100
AcDbEntity
  8
0-C_ハッチ
  6
JWW_DASHED1
 62
   120
370
     5
100
AcDbLine
 10
-1846.500269606307
 20
2848.688757472343
 30
0.0
 11
-1627.000269606307
 21
3068.188757472343
 31
0.0
  0
LINE
  5
434
330
1F
100
AcDbEntity
  8
0-C_ハッチ
  6
JWW_DASHED1
 62
   120
370
     5
100
AcDbLine
 10
-1846.500269606307
 20
2862.830893096076
 30
0.0
 11
-1627.000269606307
 21
3082.330893096077
 31
0.0
  0
LINE
  5
435
330
1F
100
AcDbEntity
  8
0-C_ハッチ
  6
JWW_DASHED1
 62
   120
370
     5
100
AcDbLine
 10
-1846.500269606307
 20
2876.97302871981
 30
0.0
 11
-1627.000269606307
 21
3096.47302871981
 31
0.0
  0
LINE
  5
436
330
1F
100
AcDbEntity
  8
0-C_ハッチ
  6
JWW_DASHED1
 62
   120
370
     5
100
AcDbLine
 10
-1846.500269606307
 20
2891.115164343544
 30
0.0
 11
-1627.000269606307
 21
3110.615164343542
 31
0.0
  0
LINE
  5
437
330
1F
100
AcDbEntity
  8
0-C_ハッチ
  6
JWW_DASHED1
 62
   120
370
     5
100
AcDbLine
 10
-1846.500269606307
 20
2905.257299967276
 30
0.0
 11
-1627.000269606307
 21
3124.757299967276
 31
0.0
  0
LINE
  5
438
330
1F
100
AcDbEntity
  8
0-C_ハッチ
  6
JWW_DASHED1
 62
   120
370
     5
100
AcDbLine
 10
-1846.500269606307
 20
2919.39943559101
 30
0.0
 11
-1627.000269606307
 21
3138.899435591009
 31
0.0
  0
LINE
  5
439
330
1F
100
AcDbEntity
  8
0-C_ハッチ
  6
JWW_DASHED1
 62
   120
370
     5
100
AcDbLine
 10
-1846.500269606307
 20
2933.541571214742
 30
0.0
 11
-1627.000269606307
 21
3153.041571214742
 31
0.0
  0
LINE
  5
43A
330
1F
100
AcDbEntity
  8
0-C_ハッチ
  6
JWW_DASHED1
 62
   120
370
     5
100
AcDbLine
 10
-1846.500269606307
 20
2947.683706838478
 30
0.0
 11
-1627.000269606307
 21
3167.183706838476
 31
0.0
  0
LINE
  5
43B
330
1F
100
AcDbEntity
  8
0-C_ハッチ
  6
JWW_DASHED1
 62
   120
370
     5
100
AcDbLine
 10
-1846.500269606307
 20
2961.825842462209
 30
0.0
 11
-1627.000269606307
 21
3181.325842462209
 31
0.0
  0
LINE
  5
43C
330
1F
100
AcDbEntity
  8
0-C_ハッチ
  6
JWW_DASHED1
 62
   120
370
     5
100
AcDbLine
 10
-1846.500269606307
 20
2975.967978085942
 30
0.0
 11
-1627.000269606307
 21
3195.467978085942
 31
0.0
  0
LINE
  5
43D
330
1F
100
AcDbEntity
  8
0-C_ハッチ
  6
JWW_DASHED1
 62
   120
370
     5
100
AcDbLine
 10
-1846.500269606307
 20
2990.110113709677
 30
0.0
 11
-1627.000269606307
 21
3209.610113709677
 31
0.0
  0
LINE
  5
43E
330
1F
100
AcDbEntity
  8
0-C_ハッチ
  6
JWW_DASHED1
 62
   120
370
     5
100
AcDbLine
 10
-1846.500269606307
 20
3004.252249333411
 30
0.0
 11
-1627.000269606307
 21
3223.75224933341
 31
0.0
  0
LINE
  5
43F
330
1F
100
AcDbEntity
  8
0-C_ハッチ
  6
JWW_DASHED1
 62
   120
370
     5
100
AcDbLine
 10
-1846.500269606307
 20
3018.394384957144
 30
0.0
 11
-1627.000269606307
 21
3237.894384957142
 31
0.0
  0
LINE
  5
440
330
1F
100
AcDbEntity
  8
0-C_ハッチ
  6
JWW_DASHED1
 62
   120
370
     5
100
AcDbLine
 10
-1835.965214973906
 20
1643.000148463894
 30
0.0
 11
-1627.000269606307
 21
1851.965093831495
 31
0.0
  0
LINE
  5
441
330
1F
100
AcDbEntity
  8
0-C_ハッチ
  6
JWW_DASHED1
 62
   120
370
     5
100
AcDbLine
 10
-1652.117451865429
 20
1643.000148463894
 30
0.0
 11
-1627.000269606307
 21
1668.117330723016
 31
0.0
  0
LINE
  5
442
330
1F
100
AcDbEntity
  8
0-C_ハッチ
  6
JWW_DASHED1
 62
   120
370
     5
100
AcDbLine
 10
-1666.259587489162
 20
1643.000148463894
 30
0.0
 11
-1627.000269606307
 21
1682.259466346748
 31
0.0
  0
LINE
  5
443
330
1F
100
AcDbEntity
  8
0-C_ハッチ
  6
JWW_DASHED1
 62
   120
370
     5
100
AcDbLine
 10
-1680.401723112895
 20
1643.000148463894
 30
0.0
 11
-1627.000269606307
 21
1696.401601970482
 31
0.0
  0
LINE
  5
444
330
1F
100
AcDbEntity
  8
0-C_ハッチ
  6
JWW_DASHED1
 62
   120
370
     5
100
AcDbLine
 10
-1694.543858736628
 20
1643.000148463894
 30
0.0
 11
-1627.000269606307
 21
1710.543737594216
 31
0.0
  0
LINE
  5
445
330
1F
100
AcDbEntity
  8
0-C_ハッチ
  6
JWW_DASHED1
 62
   120
370
     5
100
AcDbLine
 10
-1708.685994360361
 20
1643.000148463894
 30
0.0
 11
-1627.000269606307
 21
1724.685873217948
 31
0.0
  0
LINE
  5
446
330
1F
100
AcDbEntity
  8
0-C_ハッチ
  6
JWW_DASHED1
 62
   120
370
     5
100
AcDbLine
 10
-1722.828129984096
 20
1643.000148463894
 30
0.0
 11
-1627.000269606307
 21
1738.828008841682
 31
0.0
  0
LINE
  5
447
330
1F
100
AcDbEntity
  8
0-C_ハッチ
  6
JWW_DASHED1
 62
   120
370
     5
100
AcDbLine
 10
-1736.970265607774
 20
1643.000148463894
 30
0.0
 11
-1627.000269606307
 21
1752.97014446536
 31
0.0
  0
LINE
  5
448
330
1F
100
AcDbEntity
  8
0-C_ハッチ
  6
JWW_DASHED1
 62
   120
370
     5
100
AcDbLine
 10
-1751.112401231508
 20
1643.000148463894
 30
0.0
 11
-1627.000269606307
 21
1767.112280089093
 31
0.0
  0
LINE
  5
449
330
1F
100
AcDbEntity
  8
0-C_ハッチ
  6
JWW_DASHED1
 62
   120
370
     5
100
AcDbLine
 10
-1765.254536855241
 20
1643.000148463894
 30
0.0
 11
-1627.000269606307
 21
1781.254415712827
 31
0.0
  0
LINE
  5
44A
330
1F
100
AcDbEntity
  8
0-C_ハッチ
  6
JWW_DASHED1
 62
   120
370
     5
100
AcDbLine
 10
-1779.396672478974
 20
1643.000148463894
 30
0.0
 11
-1627.000269606307
 21
1795.396551336561
 31
0.0
  0
LINE
  5
44B
330
1F
100
AcDbEntity
  8
0-C_ハッチ
  6
JWW_DASHED1
 62
   120
370
     5
100
AcDbLine
 10
-1793.538808102707
 20
1643.000148463894
 30
0.0
 11
-1627.000269606307
 21
1809.538686960293
 31
0.0
  0
LINE
  5
44C
330
1F
100
AcDbEntity
  8
0-C_ハッチ
  6
JWW_DASHED1
 62
   120
370
     5
100
AcDbLine
 10
-1807.68094372644
 20
1643.000148463894
 30
0.0
 11
-1627.000269606307
 21
1823.680822584029
 31
0.0
  0
LINE
  5
44D
330
1F
100
AcDbEntity
  8
0-C_ハッチ
  6
JWW_DASHED1
 62
   120
370
     5
100
AcDbLine
 10
-1821.823079350175
 20
1643.000148463894
 30
0.0
 11
-1627.000269606307
 21
1837.822958207761
 31
0.0
  0
LINE
  5
44E
330
1F
100
AcDbEntity
  8
0-C_ハッチ
  6
JWW_DASHED1
 62
   120
370
     5
100
AcDbLine
 10
-1499.000269606306
 20
3258.810690560556
 30
0.0
 11
-1491.810811702968
 21
3266.000148463894
 31
0.0
  0
LINE
  5
44F
330
1F
100
AcDbEntity
  8
0-C_ハッチ
  6
JWW_DASHED1
 62
   120
370
     5
100
AcDbLine
 10
-1499.000269606306
 20
3046.678656204556
 30
0.0
 11
-1279.678777346967
 21
3266.000148463894
 31
0.0
  0
LINE
  5
450
330
1F
100
AcDbEntity
  8
0-C_ハッチ
  6
JWW_DASHED1
 62
   120
370
     5
100
AcDbLine
 10
-1499.000269606306
 20
3060.820791828289
 30
0.0
 11
-1293.820912970701
 21
3266.000148463894
 31
0.0
  0
LINE
  5
451
330
1F
100
AcDbEntity
  8
0-C_ハッチ
  6
JWW_DASHED1
 62
   120
370
     5
100
AcDbLine
 10
-1499.000269606306
 20
3074.962927452023
 30
0.0
 11
-1307.963048594435
 21
3266.000148463894
 31
0.0
  0
LINE
  5
452
330
1F
100
AcDbEntity
  8
0-C_ハッチ
  6
JWW_DASHED1
 62
   120
370
     5
100
AcDbLine
 10
-1499.000269606306
 20
3089.105063075756
 30
0.0
 11
-1322.105184218168
 21
3266.000148463894
 31
0.0
  0
LINE
  5
453
330
1F
100
AcDbEntity
  8
0-C_ハッチ
  6
JWW_DASHED1
 62
   120
370
     5
100
AcDbLine
 10
-1499.000269606306
 20
3103.247198699488
 30
0.0
 11
-1336.247319841901
 21
3266.000148463894
 31
0.0
  0
LINE
  5
454
330
1F
100
AcDbEntity
  8
0-C_ハッチ
  6
JWW_DASHED1
 62
   120
370
     5
100
AcDbLine
 10
-1499.000269606306
 20
3117.389334323223
 30
0.0
 11
-1350.389455465635
 21
3266.000148463894
 31
0.0
  0
LINE
  5
455
330
1F
100
AcDbEntity
  8
0-C_ハッチ
  6
JWW_DASHED1
 62
   120
370
     5
100
AcDbLine
 10
-1499.000269606306
 20
3131.531469946956
 30
0.0
 11
-1364.531591089367
 21
3266.000148463894
 31
0.0
  0
LINE
  5
456
330
1F
100
AcDbEntity
  8
0-C_ハッチ
  6
JWW_DASHED1
 62
   120
370
     5
100
AcDbLine
 10
-1499.000269606306
 20
3145.673605570689
 30
0.0
 11
-1378.673726713102
 21
3266.000148463894
 31
0.0
  0
LINE
  5
457
330
1F
100
AcDbEntity
  8
0-C_ハッチ
  6
JWW_DASHED1
 62
   120
370
     5
100
AcDbLine
 10
-1499.000269606306
 20
3159.815741194423
 30
0.0
 11
-1392.815862336834
 21
3266.000148463894
 31
0.0
  0
LINE
  5
458
330
1F
100
AcDbEntity
  8
0-C_ハッチ
  6
JWW_DASHED1
 62
   120
370
     5
100
AcDbLine
 10
-1499.000269606306
 20
3173.957876818155
 30
0.0
 11
-1406.957997960568
 21
3266.000148463894
 31
0.0
  0
LINE
  5
459
330
1F
100
AcDbEntity
  8
0-C_ハッチ
  6
JWW_DASHED1
 62
   120
370
     5
100
AcDbLine
 10
-1499.000269606306
 20
3188.100012441889
 30
0.0
 11
-1421.100133584301
 21
3266.000148463894
 31
0.0
  0
LINE
  5
45A
330
1F
100
AcDbEntity
  8
0-C_ハッチ
  6
JWW_DASHED1
 62
   120
370
     5
100
AcDbLine
 10
-1499.000269606306
 20
3202.242148065622
 30
0.0
 11
-1435.242269208034
 21
3266.000148463894
 31
0.0
  0
LINE
  5
45B
330
1F
100
AcDbEntity
  8
0-C_ハッチ
  6
JWW_DASHED1
 62
   120
370
     5
100
AcDbLine
 10
-1499.000269606306
 20
3216.384283689355
 30
0.0
 11
-1449.384404831769
 21
3266.000148463894
 31
0.0
  0
LINE
  5
45C
330
1F
100
AcDbEntity
  8
0-C_ハッチ
  6
JWW_DASHED1
 62
   120
370
     5
100
AcDbLine
 10
-1499.000269606306
 20
3230.526419313089
 30
0.0
 11
-1463.526540455501
 21
3266.000148463894
 31
0.0
  0
LINE
  5
45D
330
1F
100
AcDbEntity
  8
0-C_ハッチ
  6
JWW_DASHED1
 62
   120
370
     5
100
AcDbLine
 10
-1499.000269606306
 20
3244.668554936822
 30
0.0
 11
-1477.668676079234
 21
3266.000148463894
 31
0.0
  0
LINE
  5
45E
330
1F
100
AcDbEntity
  8
0-C_ハッチ
  6
JWW_DASHED1
 62
   120
370
     5
100
AcDbLine
 10
-1290.475316241695
 20
1643.000148463894
 30
0.0
 11
-1279.500269606306
 21
1653.975195099283
 31
0.0
  0
LINE
  5
45F
330
1F
100
AcDbEntity
  8
0-C_ハッチ
  6
JWW_DASHED1
 62
   120
370
     5
100
AcDbLine
 10
-1499.000269606306
 20
3032.536520580823
 30
0.0
 11
-1279.500269606306
 21
3252.036520580823
 31
0.0
  0
LINE
  5
460
330
1F
100
AcDbEntity
  8
0-C_ハッチ
  6
JWW_DASHED1
 62
   120
370
     5
100
AcDbLine
 10
-1499.000269606306
 20
1646.607229455228
 30
0.0
 11
-1279.500269606306
 21
1866.107229455228
 31
0.0
  0
LINE
  5
461
330
1F
100
AcDbEntity
  8
0-C_ハッチ
  6
JWW_DASHED1
 62
   120
370
     5
100
AcDbLine
 10
-1499.000269606306
 20
1660.749365078961
 30
0.0
 11
-1279.500269606306
 21
1880.249365078961
 31
0.0
  0
LINE
  5
462
330
1F
100
AcDbEntity
  8
0-C_ハッチ
  6
JWW_DASHED1
 62
   120
370
     5
100
AcDbLine
 10
-1499.000269606306
 20
1674.891500702696
 30
0.0
 11
-1279.500269606306
 21
1894.391500702694
 31
0.0
  0
LINE
  5
463
330
1F
100
AcDbEntity
  8
0-C_ハッチ
  6
JWW_DASHED1
 62
   120
370
     5
100
AcDbLine
 10
-1499.000269606306
 20
1689.033636326428
 30
0.0
 11
-1279.500269606306
 21
1908.533636326428
 31
0.0
  0
LINE
  5
464
330
1F
100
AcDbEntity
  8
0-C_ハッチ
  6
JWW_DASHED1
 62
   120
370
     5
100
AcDbLine
 10
-1499.000269606306
 20
1703.175771950161
 30
0.0
 11
-1279.500269606306
 21
1922.675771950161
 31
0.0
  0
LINE
  5
465
330
1F
100
AcDbEntity
  8
0-C_ハッチ
  6
JWW_DASHED1
 62
   120
370
     5
100
AcDbLine
 10
-1499.000269606306
 20
1717.317907573894
 30
0.0
 11
-1279.500269606306
 21
1936.817907573896
 31
0.0
  0
LINE
  5
466
330
1F
100
AcDbEntity
  8
0-C_ハッチ
  6
JWW_DASHED1
 62
   120
370
     5
100
AcDbLine
 10
-1499.000269606306
 20
1731.460043197628
 30
0.0
 11
-1279.500269606306
 21
1950.960043197629
 31
0.0
  0
LINE
  5
467
330
1F
100
AcDbEntity
  8
0-C_ハッチ
  6
JWW_DASHED1
 62
   120
370
     5
100
AcDbLine
 10
-1499.000269606306
 20
1745.602178821361
 30
0.0
 11
-1279.500269606306
 21
1965.102178821361
 31
0.0
  0
LINE
  5
468
330
1F
100
AcDbEntity
  8
0-C_ハッチ
  6
JWW_DASHED1
 62
   120
370
     5
100
AcDbLine
 10
-1499.000269606306
 20
1759.744314445095
 30
0.0
 11
-1279.500269606306
 21
1979.244314445095
 31
0.0
  0
LINE
  5
469
330
1F
100
AcDbEntity
  8
0-C_ハッチ
  6
JWW_DASHED1
 62
   120
370
     5
100
AcDbLine
 10
-1499.000269606306
 20
1773.886450068828
 30
0.0
 11
-1279.500269606306
 21
1993.386450068829
 31
0.0
  0
LINE
  5
46A
330
1F
100
AcDbEntity
  8
0-C_ハッチ
  6
JWW_DASHED1
 62
   120
370
     5
100
AcDbLine
 10
-1499.000269606306
 20
1788.028585692562
 30
0.0
 11
-1279.500269606306
 21
2007.52858569256
 31
0.0
  0
LINE
  5
46B
330
1F
100
AcDbEntity
  8
0-C_ハッチ
  6
JWW_DASHED1
 62
   120
370
     5
100
AcDbLine
 10
-1499.000269606306
 20
1802.170721316295
 30
0.0
 11
-1279.500269606306
 21
2021.670721316295
 31
0.0
  0
LINE
  5
46C
330
1F
100
AcDbEntity
  8
0-C_ハッチ
  6
JWW_DASHED1
 62
   120
370
     5
100
AcDbLine
 10
-1499.000269606306
 20
1816.312856940028
 30
0.0
 11
-1279.500269606306
 21
2035.812856940029
 31
0.0
  0
LINE
  5
46D
330
1F
100
AcDbEntity
  8
0-C_ハッチ
  6
JWW_DASHED1
 62
   120
370
     5
100
AcDbLine
 10
-1499.000269606306
 20
1830.454992563761
 30
0.0
 11
-1279.500269606306
 21
2049.954992563762
 31
0.0
  0
LINE
  5
46E
330
1F
100
AcDbEntity
  8
0-C_ハッチ
  6
JWW_DASHED1
 62
   120
370
     5
100
AcDbLine
 10
-1499.000269606306
 20
1844.597128187441
 30
0.0
 11
-1279.500269606306
 21
2064.097128187441
 31
0.0
  0
LINE
  5
46F
330
1F
100
AcDbEntity
  8
0-C_ハッチ
  6
JWW_DASHED1
 62
   120
370
     5
100
AcDbLine
 10
-1499.000269606306
 20
1858.739263811173
 30
0.0
 11
-1279.500269606306
 21
2078.239263811173
 31
0.0
  0
LINE
  5
470
330
1F
100
AcDbEntity
  8
0-C_ハッチ
  6
JWW_DASHED1
 62
   120
370
     5
100
AcDbLine
 10
-1499.000269606306
 20
1872.881399434907
 30
0.0
 11
-1279.500269606306
 21
2092.381399434908
 31
0.0
  0
LINE
  5
471
330
1F
100
AcDbEntity
  8
0-C_ハッチ
  6
JWW_DASHED1
 62
   120
370
     5
100
AcDbLine
 10
-1499.000269606306
 20
1887.023535058641
 30
0.0
 11
-1279.500269606306
 21
2106.523535058641
 31
0.0
  0
LINE
  5
472
330
1F
100
AcDbEntity
  8
0-C_ハッチ
  6
JWW_DASHED1
 62
   120
370
     5
100
AcDbLine
 10
-1499.000269606306
 20
1901.165670682374
 30
0.0
 11
-1279.500269606306
 21
2120.665670682374
 31
0.0
  0
LINE
  5
473
330
1F
100
AcDbEntity
  8
0-C_ハッチ
  6
JWW_DASHED1
 62
   120
370
     5
100
AcDbLine
 10
-1499.000269606306
 20
1915.307806306106
 30
0.0
 11
-1279.500269606306
 21
2134.807806306108
 31
0.0
  0
LINE
  5
474
330
1F
100
AcDbEntity
  8
0-C_ハッチ
  6
JWW_DASHED1
 62
   120
370
     5
100
AcDbLine
 10
-1499.000269606306
 20
1929.449941929841
 30
0.0
 11
-1279.500269606306
 21
2148.949941929841
 31
0.0
  0
LINE
  5
475
330
1F
100
AcDbEntity
  8
0-C_ハッチ
  6
JWW_DASHED1
 62
   120
370
     5
100
AcDbLine
 10
-1499.000269606306
 20
1943.592077553574
 30
0.0
 11
-1279.500269606306
 21
2163.092077553573
 31
0.0
  0
LINE
  5
476
330
1F
100
AcDbEntity
  8
0-C_ハッチ
  6
JWW_DASHED1
 62
   120
370
     5
100
AcDbLine
 10
-1499.000269606306
 20
1957.734213177307
 30
0.0
 11
-1279.500269606306
 21
2177.234213177307
 31
0.0
  0
LINE
  5
477
330
1F
100
AcDbEntity
  8
0-C_ハッチ
  6
JWW_DASHED1
 62
   120
370
     5
100
AcDbLine
 10
-1499.000269606306
 20
1971.876348801041
 30
0.0
 11
-1279.500269606306
 21
2191.376348801041
 31
0.0
  0
LINE
  5
478
330
1F
100
AcDbEntity
  8
0-C_ハッチ
  6
JWW_DASHED1
 62
   120
370
     5
100
AcDbLine
 10
-1499.000269606306
 20
1986.018484424774
 30
0.0
 11
-1279.500269606306
 21
2205.518484424775
 31
0.0
  0
LINE
  5
479
330
1F
100
AcDbEntity
  8
0-C_ハッチ
  6
JWW_DASHED1
 62
   120
370
     5
100
AcDbLine
 10
-1499.000269606306
 20
2000.160620048507
 30
0.0
 11
-1279.500269606306
 21
2219.660620048507
 31
0.0
  0
LINE
  5
47A
330
1F
100
AcDbEntity
  8
0-C_ハッチ
  6
JWW_DASHED1
 62
   120
370
     5
100
AcDbLine
 10
-1499.000269606306
 20
2014.302755672241
 30
0.0
 11
-1279.500269606306
 21
2233.80275567224
 31
0.0
  0
LINE
  5
47B
330
1F
100
AcDbEntity
  8
0-C_ハッチ
  6
JWW_DASHED1
 62
   120
370
     5
100
AcDbLine
 10
-1499.000269606306
 20
2028.444891295973
 30
0.0
 11
-1279.500269606306
 21
2247.944891295974
 31
0.0
  0
LINE
  5
47C
330
1F
100
AcDbEntity
  8
0-C_ハッチ
  6
JWW_DASHED1
 62
   120
370
     5
100
AcDbLine
 10
-1499.000269606306
 20
2042.587026919707
 30
0.0
 11
-1279.500269606306
 21
2262.087026919707
 31
0.0
  0
LINE
  5
47D
330
1F
100
AcDbEntity
  8
0-C_ハッチ
  6
JWW_DASHED1
 62
   120
370
     5
100
AcDbLine
 10
-1499.000269606306
 20
2056.72916254344
 30
0.0
 11
-1279.500269606306
 21
2276.22916254344
 31
0.0
  0
LINE
  5
47E
330
1F
100
AcDbEntity
  8
0-C_ハッチ
  6
JWW_DASHED1
 62
   120
370
     5
100
AcDbLine
 10
-1499.000269606306
 20
2070.871298167173
 30
0.0
 11
-1279.500269606306
 21
2290.371298167173
 31
0.0
  0
LINE
  5
47F
330
1F
100
AcDbEntity
  8
0-C_ハッチ
  6
JWW_DASHED1
 62
   120
370
     5
100
AcDbLine
 10
-1499.000269606306
 20
2085.013433790908
 30
0.0
 11
-1279.500269606306
 21
2304.513433790907
 31
0.0
  0
LINE
  5
480
330
1F
100
AcDbEntity
  8
0-C_ハッチ
  6
JWW_DASHED1
 62
   120
370
     5
100
AcDbLine
 10
-1499.000269606306
 20
2099.155569414642
 30
0.0
 11
-1279.500269606306
 21
2318.655569414641
 31
0.0
  0
LINE
  5
481
330
1F
100
AcDbEntity
  8
0-C_ハッチ
  6
JWW_DASHED1
 62
   120
370
     5
100
AcDbLine
 10
-1499.000269606306
 20
2113.297705038373
 30
0.0
 11
-1279.500269606306
 21
2332.797705038373
 31
0.0
  0
LINE
  5
482
330
1F
100
AcDbEntity
  8
0-C_ハッチ
  6
JWW_DASHED1
 62
   120
370
     5
100
AcDbLine
 10
-1499.000269606306
 20
2127.439840662054
 30
0.0
 11
-1279.500269606306
 21
2346.939840662052
 31
0.0
  0
LINE
  5
483
330
1F
100
AcDbEntity
  8
0-C_ハッチ
  6
JWW_DASHED1
 62
   120
370
     5
100
AcDbLine
 10
-1499.000269606306
 20
2141.581976285786
 30
0.0
 11
-1279.500269606306
 21
2361.081976285785
 31
0.0
  0
LINE
  5
484
330
1F
100
AcDbEntity
  8
0-C_ハッチ
  6
JWW_DASHED1
 62
   120
370
     5
100
AcDbLine
 10
-1499.000269606306
 20
2155.724111909519
 30
0.0
 11
-1279.500269606306
 21
2375.224111909519
 31
0.0
  0
LINE
  5
485
330
1F
100
AcDbEntity
  8
0-C_ハッチ
  6
JWW_DASHED1
 62
   120
370
     5
100
AcDbLine
 10
-1499.000269606306
 20
2169.866247533253
 30
0.0
 11
-1279.500269606306
 21
2389.366247533253
 31
0.0
  0
LINE
  5
486
330
1F
100
AcDbEntity
  8
0-C_ハッチ
  6
JWW_DASHED1
 62
   120
370
     5
100
AcDbLine
 10
-1499.000269606306
 20
2184.008383156985
 30
0.0
 11
-1279.500269606306
 21
2403.508383156985
 31
0.0
  0
LINE
  5
487
330
1F
100
AcDbEntity
  8
0-C_ハッチ
  6
JWW_DASHED1
 62
   120
370
     5
100
AcDbLine
 10
-1499.000269606306
 20
2198.150518780719
 30
0.0
 11
-1279.500269606306
 21
2417.650518780719
 31
0.0
  0
LINE
  5
488
330
1F
100
AcDbEntity
  8
0-C_ハッチ
  6
JWW_DASHED1
 62
   120
370
     5
100
AcDbLine
 10
-1499.000269606306
 20
2212.292654404453
 30
0.0
 11
-1279.500269606306
 21
2431.792654404453
 31
0.0
  0
LINE
  5
489
330
1F
100
AcDbEntity
  8
0-C_ハッチ
  6
JWW_DASHED1
 62
   120
370
     5
100
AcDbLine
 10
-1499.000269606306
 20
2226.434790028185
 30
0.0
 11
-1279.500269606306
 21
2445.934790028185
 31
0.0
  0
LINE
  5
48A
330
1F
100
AcDbEntity
  8
0-C_ハッチ
  6
JWW_DASHED1
 62
   120
370
     5
100
AcDbLine
 10
-1499.000269606306
 20
2240.576925651921
 30
0.0
 11
-1279.500269606306
 21
2460.076925651918
 31
0.0
  0
LINE
  5
48B
330
1F
100
AcDbEntity
  8
0-C_ハッチ
  6
JWW_DASHED1
 62
   120
370
     5
100
AcDbLine
 10
-1499.000269606306
 20
2254.719061275653
 30
0.0
 11
-1279.500269606306
 21
2474.219061275652
 31
0.0
  0
LINE
  5
48C
330
1F
100
AcDbEntity
  8
0-C_ハッチ
  6
JWW_DASHED1
 62
   120
370
     5
100
AcDbLine
 10
-1499.000269606306
 20
2268.861196899386
 30
0.0
 11
-1279.500269606306
 21
2488.361196899386
 31
0.0
  0
LINE
  5
48D
330
1F
100
AcDbEntity
  8
0-C_ハッチ
  6
JWW_DASHED1
 62
   120
370
     5
100
AcDbLine
 10
-1499.000269606306
 20
2283.00333252312
 30
0.0
 11
-1279.500269606306
 21
2502.50333252312
 31
0.0
  0
LINE
  5
48E
330
1F
100
AcDbEntity
  8
0-C_ハッチ
  6
JWW_DASHED1
 62
   120
370
     5
100
AcDbLine
 10
-1499.000269606306
 20
2297.145468146854
 30
0.0
 11
-1279.500269606306
 21
2516.645468146853
 31
0.0
  0
LINE
  5
48F
330
1F
100
AcDbEntity
  8
0-C_ハッチ
  6
JWW_DASHED1
 62
   120
370
     5
100
AcDbLine
 10
-1499.000269606306
 20
2311.287603770585
 30
0.0
 11
-1279.500269606306
 21
2530.787603770586
 31
0.0
  0
LINE
  5
490
330
1F
100
AcDbEntity
  8
0-C_ハッチ
  6
JWW_DASHED1
 62
   120
370
     5
100
AcDbLine
 10
-1499.000269606306
 20
2325.42973939432
 30
0.0
 11
-1279.500269606306
 21
2544.929739394319
 31
0.0
  0
LINE
  5
491
330
1F
100
AcDbEntity
  8
0-C_ハッチ
  6
JWW_DASHED1
 62
   120
370
     5
100
AcDbLine
 10
-1499.000269606306
 20
2339.571875018053
 30
0.0
 11
-1279.500269606306
 21
2559.071875018053
 31
0.0
  0
LINE
  5
492
330
1F
100
AcDbEntity
  8
0-C_ハッチ
  6
JWW_DASHED1
 62
   120
370
     5
100
AcDbLine
 10
-1499.000269606306
 20
2353.714010641787
 30
0.0
 11
-1279.500269606306
 21
2573.214010641786
 31
0.0
  0
LINE
  5
493
330
1F
100
AcDbEntity
  8
0-C_ハッチ
  6
JWW_DASHED1
 62
   120
370
     5
100
AcDbLine
 10
-1499.000269606306
 20
2367.856146265519
 30
0.0
 11
-1279.500269606306
 21
2587.356146265519
 31
0.0
  0
LINE
  5
494
330
1F
100
AcDbEntity
  8
0-C_ハッチ
  6
JWW_DASHED1
 62
   120
370
     5
100
AcDbLine
 10
-1499.000269606306
 20
2381.998281889253
 30
0.0
 11
-1279.500269606306
 21
2601.498281889253
 31
0.0
  0
LINE
  5
495
330
1F
100
AcDbEntity
  8
0-C_ハッチ
  6
JWW_DASHED1
 62
   120
370
     5
100
AcDbLine
 10
-1499.000269606306
 20
2396.140417512987
 30
0.0
 11
-1279.500269606306
 21
2615.640417512986
 31
0.0
  0
LINE
  5
496
330
1F
100
AcDbEntity
  8
0-C_ハッチ
  6
JWW_DASHED1
 62
   120
370
     5
100
AcDbLine
 10
-1499.000269606306
 20
2410.282553136719
 30
0.0
 11
-1279.500269606306
 21
2629.782553136719
 31
0.0
  0
LINE
  5
497
330
1F
100
AcDbEntity
  8
0-C_ハッチ
  6
JWW_DASHED1
 62
   120
370
     5
100
AcDbLine
 10
-1499.000269606306
 20
2424.424688760453
 30
0.0
 11
-1279.500269606306
 21
2643.924688760453
 31
0.0
  0
LINE
  5
498
330
1F
100
AcDbEntity
  8
0-C_ハッチ
  6
JWW_DASHED1
 62
   120
370
     5
100
AcDbLine
 10
-1499.000269606306
 20
2438.566824384131
 30
0.0
 11
-1279.500269606306
 21
2658.066824384131
 31
0.0
  0
LINE
  5
499
330
1F
100
AcDbEntity
  8
0-C_ハッチ
  6
JWW_DASHED1
 62
   120
370
     5
100
AcDbLine
 10
-1499.000269606306
 20
2452.708960007866
 30
0.0
 11
-1279.500269606306
 21
2672.208960007866
 31
0.0
  0
LINE
  5
49A
330
1F
100
AcDbEntity
  8
0-C_ハッチ
  6
JWW_DASHED1
 62
   120
370
     5
100
AcDbLine
 10
-1499.000269606306
 20
2466.851095631599
 30
0.0
 11
-1279.500269606306
 21
2686.351095631598
 31
0.0
  0
LINE
  5
49B
330
1F
100
AcDbEntity
  8
0-C_ハッチ
  6
JWW_DASHED1
 62
   120
370
     5
100
AcDbLine
 10
-1499.000269606306
 20
2480.993231255332
 30
0.0
 11
-1279.500269606306
 21
2700.493231255331
 31
0.0
  0
LINE
  5
49C
330
1F
100
AcDbEntity
  8
0-C_ハッチ
  6
JWW_DASHED1
 62
   120
370
     5
100
AcDbLine
 10
-1499.000269606306
 20
2495.135366879065
 30
0.0
 11
-1279.500269606306
 21
2714.635366879065
 31
0.0
  0
LINE
  5
49D
330
1F
100
AcDbEntity
  8
0-C_ハッチ
  6
JWW_DASHED1
 62
   120
370
     5
100
AcDbLine
 10
-1499.000269606306
 20
2509.277502502799
 30
0.0
 11
-1279.500269606306
 21
2728.777502502798
 31
0.0
  0
LINE
  5
49E
330
1F
100
AcDbEntity
  8
0-C_ハッチ
  6
JWW_DASHED1
 62
   120
370
     5
100
AcDbLine
 10
-1499.000269606306
 20
2523.419638126531
 30
0.0
 11
-1279.500269606306
 21
2742.919638126531
 31
0.0
  0
LINE
  5
49F
330
1F
100
AcDbEntity
  8
0-C_ハッチ
  6
JWW_DASHED1
 62
   120
370
     5
100
AcDbLine
 10
-1499.000269606306
 20
2537.561773750266
 30
0.0
 11
-1279.500269606306
 21
2757.061773750265
 31
0.0
  0
LINE
  5
4A0
330
1F
100
AcDbEntity
  8
0-C_ハッチ
  6
JWW_DASHED1
 62
   120
370
     5
100
AcDbLine
 10
-1499.000269606306
 20
2551.703909373998
 30
0.0
 11
-1279.500269606306
 21
2771.203909373998
 31
0.0
  0
LINE
  5
4A1
330
1F
100
AcDbEntity
  8
0-C_ハッチ
  6
JWW_DASHED1
 62
   120
370
     5
100
AcDbLine
 10
-1499.000269606306
 20
2565.846044997731
 30
0.0
 11
-1279.500269606306
 21
2785.346044997731
 31
0.0
  0
LINE
  5
4A2
330
1F
100
AcDbEntity
  8
0-C_ハッチ
  6
JWW_DASHED1
 62
   120
370
     5
100
AcDbLine
 10
-1499.000269606306
 20
2579.988180621465
 30
0.0
 11
-1279.500269606306
 21
2799.488180621465
 31
0.0
  0
LINE
  5
4A3
330
1F
100
AcDbEntity
  8
0-C_ハッチ
  6
JWW_DASHED1
 62
   120
370
     5
100
AcDbLine
 10
-1499.000269606306
 20
2594.130316245198
 30
0.0
 11
-1279.500269606306
 21
2813.630316245198
 31
0.0
  0
LINE
  5
4A4
330
1F
100
AcDbEntity
  8
0-C_ハッチ
  6
JWW_DASHED1
 62
   120
370
     5
100
AcDbLine
 10
-1499.000269606306
 20
2608.272451868932
 30
0.0
 11
-1279.500269606306
 21
2827.772451868932
 31
0.0
  0
LINE
  5
4A5
330
1F
100
AcDbEntity
  8
0-C_ハッチ
  6
JWW_DASHED1
 62
   120
370
     5
100
AcDbLine
 10
-1499.000269606306
 20
2622.414587492665
 30
0.0
 11
-1279.500269606306
 21
2841.914587492664
 31
0.0
  0
LINE
  5
4A6
330
1F
100
AcDbEntity
  8
0-C_ハッチ
  6
JWW_DASHED1
 62
   120
370
     5
100
AcDbLine
 10
-1499.000269606306
 20
2636.556723116398
 30
0.0
 11
-1279.500269606306
 21
2856.056723116398
 31
0.0
  0
LINE
  5
4A7
330
1F
100
AcDbEntity
  8
0-C_ハッチ
  6
JWW_DASHED1
 62
   120
370
     5
100
AcDbLine
 10
-1499.000269606306
 20
2650.698858740132
 30
0.0
 11
-1279.500269606306
 21
2870.198858740132
 31
0.0
  0
LINE
  5
4A8
330
1F
100
AcDbEntity
  8
0-C_ハッチ
  6
JWW_DASHED1
 62
   120
370
     5
100
AcDbLine
 10
-1499.000269606306
 20
2664.840994363866
 30
0.0
 11
-1279.500269606306
 21
2884.340994363864
 31
0.0
  0
LINE
  5
4A9
330
1F
100
AcDbEntity
  8
0-C_ハッチ
  6
JWW_DASHED1
 62
   120
370
     5
100
AcDbLine
 10
-1499.000269606306
 20
2678.983129987598
 30
0.0
 11
-1279.500269606306
 21
2898.483129987598
 31
0.0
  0
LINE
  5
4AA
330
1F
100
AcDbEntity
  8
0-C_ハッチ
  6
JWW_DASHED1
 62
   120
370
     5
100
AcDbLine
 10
-1499.000269606306
 20
2693.125265611332
 30
0.0
 11
-1279.500269606306
 21
2912.625265611332
 31
0.0
  0
LINE
  5
4AB
330
1F
100
AcDbEntity
  8
0-C_ハッチ
  6
JWW_DASHED1
 62
   120
370
     5
100
AcDbLine
 10
-1499.000269606306
 20
2707.267401235066
 30
0.0
 11
-1279.500269606306
 21
2926.767401235065
 31
0.0
  0
LINE
  5
4AC
330
1F
100
AcDbEntity
  8
0-C_ハッチ
  6
JWW_DASHED1
 62
   120
370
     5
100
AcDbLine
 10
-1499.000269606306
 20
2721.409536858797
 30
0.0
 11
-1279.500269606306
 21
2940.909536858798
 31
0.0
  0
LINE
  5
4AD
330
1F
100
AcDbEntity
  8
0-C_ハッチ
  6
JWW_DASHED1
 62
   120
370
     5
100
AcDbLine
 10
-1499.000269606306
 20
2735.551672482478
 30
0.0
 11
-1279.500269606306
 21
2955.051672482476
 31
0.0
  0
LINE
  5
4AE
330
1F
100
AcDbEntity
  8
0-C_ハッチ
  6
JWW_DASHED1
 62
   120
370
     5
100
AcDbLine
 10
-1499.000269606306
 20
2749.69380810621
 30
0.0
 11
-1279.500269606306
 21
2969.19380810621
 31
0.0
  0
LINE
  5
4AF
330
1F
100
AcDbEntity
  8
0-C_ハッチ
  6
JWW_DASHED1
 62
   120
370
     5
100
AcDbLine
 10
-1499.000269606306
 20
2763.835943729944
 30
0.0
 11
-1279.500269606306
 21
2983.335943729943
 31
0.0
  0
LINE
  5
4B0
330
1F
100
AcDbEntity
  8
0-C_ハッチ
  6
JWW_DASHED1
 62
   120
370
     5
100
AcDbLine
 10
-1499.000269606306
 20
2777.978079353677
 30
0.0
 11
-1279.500269606306
 21
2997.478079353677
 31
0.0
  0
LINE
  5
4B1
330
1F
100
AcDbEntity
  8
0-C_ハッチ
  6
JWW_DASHED1
 62
   120
370
     5
100
AcDbLine
 10
-1499.000269606306
 20
2792.12021497741
 30
0.0
 11
-1279.500269606306
 21
3011.62021497741
 31
0.0
  0
LINE
  5
4B2
330
1F
100
AcDbEntity
  8
0-C_ハッチ
  6
JWW_DASHED1
 62
   120
370
     5
100
AcDbLine
 10
-1499.000269606306
 20
2806.262350601143
 30
0.0
 11
-1279.500269606306
 21
3025.762350601143
 31
0.0
  0
LINE
  5
4B3
330
1F
100
AcDbEntity
  8
0-C_ハッチ
  6
JWW_DASHED1
 62
   120
370
     5
100
AcDbLine
 10
-1499.000269606306
 20
2820.404486224878
 30
0.0
 11
-1279.500269606306
 21
3039.904486224878
 31
0.0
  0
LINE
  5
4B4
330
1F
100
AcDbEntity
  8
0-C_ハッチ
  6
JWW_DASHED1
 62
   120
370
     5
100
AcDbLine
 10
-1499.000269606306
 20
2834.54662184861
 30
0.0
 11
-1279.500269606306
 21
3054.04662184861
 31
0.0
  0
LINE
  5
4B5
330
1F
100
AcDbEntity
  8
0-C_ハッチ
  6
JWW_DASHED1
 62
   120
370
     5
100
AcDbLine
 10
-1499.000269606306
 20
2848.688757472345
 30
0.0
 11
-1279.500269606306
 21
3068.188757472343
 31
0.0
  0
LINE
  5
4B6
330
1F
100
AcDbEntity
  8
0-C_ハッチ
  6
JWW_DASHED1
 62
   120
370
     5
100
AcDbLine
 10
-1499.000269606306
 20
2862.830893096078
 30
0.0
 11
-1279.500269606306
 21
3082.330893096078
 31
0.0
  0
LINE
  5
4B7
330
1F
100
AcDbEntity
  8
0-C_ハッチ
  6
JWW_DASHED1
 62
   120
370
     5
100
AcDbLine
 10
-1499.000269606306
 20
2876.97302871981
 30
0.0
 11
-1279.500269606306
 21
3096.47302871981
 31
0.0
  0
LINE
  5
4B8
330
1F
100
AcDbEntity
  8
0-C_ハッチ
  6
JWW_DASHED1
 62
   120
370
     5
100
AcDbLine
 10
-1499.000269606306
 20
2891.115164343544
 30
0.0
 11
-1279.500269606306
 21
3110.615164343544
 31
0.0
  0
LINE
  5
4B9
330
1F
100
AcDbEntity
  8
0-C_ハッチ
  6
JWW_DASHED1
 62
   120
370
     5
100
AcDbLine
 10
-1499.000269606306
 20
2905.257299967278
 30
0.0
 11
-1279.500269606306
 21
3124.757299967278
 31
0.0
  0
LINE
  5
4BA
330
1F
100
AcDbEntity
  8
0-C_ハッチ
  6
JWW_DASHED1
 62
   120
370
     5
100
AcDbLine
 10
-1499.000269606306
 20
2919.39943559101
 30
0.0
 11
-1279.500269606306
 21
3138.899435591011
 31
0.0
  0
LINE
  5
4BB
330
1F
100
AcDbEntity
  8
0-C_ハッチ
  6
JWW_DASHED1
 62
   120
370
     5
100
AcDbLine
 10
-1499.000269606306
 20
2933.541571214744
 30
0.0
 11
-1279.500269606306
 21
3153.041571214744
 31
0.0
  0
LINE
  5
4BC
330
1F
100
AcDbEntity
  8
0-C_ハッチ
  6
JWW_DASHED1
 62
   120
370
     5
100
AcDbLine
 10
-1499.000269606306
 20
2947.683706838478
 30
0.0
 11
-1279.500269606306
 21
3167.183706838478
 31
0.0
  0
LINE
  5
4BD
330
1F
100
AcDbEntity
  8
0-C_ハッチ
  6
JWW_DASHED1
 62
   120
370
     5
100
AcDbLine
 10
-1499.000269606306
 20
2961.825842462211
 30
0.0
 11
-1279.500269606306
 21
3181.325842462209
 31
0.0
  0
LINE
  5
4BE
330
1F
100
AcDbEntity
  8
0-C_ハッチ
  6
JWW_DASHED1
 62
   120
370
     5
100
AcDbLine
 10
-1499.000269606306
 20
2975.967978085944
 30
0.0
 11
-1279.500269606306
 21
3195.467978085944
 31
0.0
  0
LINE
  5
4BF
330
1F
100
AcDbEntity
  8
0-C_ハッチ
  6
JWW_DASHED1
 62
   120
370
     5
100
AcDbLine
 10
-1499.000269606306
 20
2990.110113709677
 30
0.0
 11
-1279.500269606306
 21
3209.610113709678
 31
0.0
  0
LINE
  5
4C0
330
1F
100
AcDbEntity
  8
0-C_ハッチ
  6
JWW_DASHED1
 62
   120
370
     5
100
AcDbLine
 10
-1499.000269606306
 20
3004.252249333411
 30
0.0
 11
-1279.500269606306
 21
3223.75224933341
 31
0.0
  0
LINE
  5
4C1
330
1F
100
AcDbEntity
  8
0-C_ハッチ
  6
JWW_DASHED1
 62
   120
370
     5
100
AcDbLine
 10
-1499.000269606306
 20
3018.394384957144
 30
0.0
 11
-1279.500269606306
 21
3237.894384957144
 31
0.0
  0
LINE
  5
4C2
330
1F
100
AcDbEntity
  8
0-C_ハッチ
  6
JWW_DASHED1
 62
   120
370
     5
100
AcDbLine
 10
-1488.465214973907
 20
1643.000148463894
 30
0.0
 11
-1279.500269606306
 21
1851.965093831495
 31
0.0
  0
LINE
  5
4C3
330
1F
100
AcDbEntity
  8
0-C_ハッチ
  6
JWW_DASHED1
 62
   120
370
     5
100
AcDbLine
 10
-1304.617451865428
 20
1643.000148463894
 30
0.0
 11
-1279.500269606306
 21
1668.117330723016
 31
0.0
  0
LINE
  5
4C4
330
1F
100
AcDbEntity
  8
0-C_ハッチ
  6
JWW_DASHED1
 62
   120
370
     5
100
AcDbLine
 10
-1318.759587489161
 20
1643.000148463894
 30
0.0
 11
-1279.500269606306
 21
1682.259466346748
 31
0.0
  0
LINE
  5
4C5
330
1F
100
AcDbEntity
  8
0-C_ハッチ
  6
JWW_DASHED1
 62
   120
370
     5
100
AcDbLine
 10
-1332.901723112894
 20
1643.000148463894
 30
0.0
 11
-1279.500269606306
 21
1696.401601970482
 31
0.0
  0
LINE
  5
4C6
330
1F
100
AcDbEntity
  8
0-C_ハッチ
  6
JWW_DASHED1
 62
   120
370
     5
100
AcDbLine
 10
-1347.043858736627
 20
1643.000148463894
 30
0.0
 11
-1279.500269606306
 21
1710.543737594216
 31
0.0
  0
LINE
  5
4C7
330
1F
100
AcDbEntity
  8
0-C_ハッチ
  6
JWW_DASHED1
 62
   120
370
     5
100
AcDbLine
 10
-1361.185994360361
 20
1643.000148463894
 30
0.0
 11
-1279.500269606306
 21
1724.68587321795
 31
0.0
  0
LINE
  5
4C8
330
1F
100
AcDbEntity
  8
0-C_ハッチ
  6
JWW_DASHED1
 62
   120
370
     5
100
AcDbLine
 10
-1375.328129984095
 20
1643.000148463894
 30
0.0
 11
-1279.500269606306
 21
1738.828008841682
 31
0.0
  0
LINE
  5
4C9
330
1F
100
AcDbEntity
  8
0-C_ハッチ
  6
JWW_DASHED1
 62
   120
370
     5
100
AcDbLine
 10
-1389.470265607773
 20
1643.000148463894
 30
0.0
 11
-1279.500269606306
 21
1752.970144465362
 31
0.0
  0
LINE
  5
4CA
330
1F
100
AcDbEntity
  8
0-C_ハッチ
  6
JWW_DASHED1
 62
   120
370
     5
100
AcDbLine
 10
-1403.612401231507
 20
1643.000148463894
 30
0.0
 11
-1279.500269606306
 21
1767.112280089095
 31
0.0
  0
LINE
  5
4CB
330
1F
100
AcDbEntity
  8
0-C_ハッチ
  6
JWW_DASHED1
 62
   120
370
     5
100
AcDbLine
 10
-1417.75453685524
 20
1643.000148463894
 30
0.0
 11
-1279.500269606306
 21
1781.254415712829
 31
0.0
  0
LINE
  5
4CC
330
1F
100
AcDbEntity
  8
0-C_ハッチ
  6
JWW_DASHED1
 62
   120
370
     5
100
AcDbLine
 10
-1431.896672478973
 20
1643.000148463894
 30
0.0
 11
-1279.500269606306
 21
1795.396551336561
 31
0.0
  0
LINE
  5
4CD
330
1F
100
AcDbEntity
  8
0-C_ハッチ
  6
JWW_DASHED1
 62
   120
370
     5
100
AcDbLine
 10
-1446.038808102708
 20
1643.000148463894
 30
0.0
 11
-1279.500269606306
 21
1809.538686960295
 31
0.0
  0
LINE
  5
4CE
330
1F
100
AcDbEntity
  8
0-C_ハッチ
  6
JWW_DASHED1
 62
   120
370
     5
100
AcDbLine
 10
-1460.180943726441
 20
1643.000148463894
 30
0.0
 11
-1279.500269606306
 21
1823.680822584029
 31
0.0
  0
LINE
  5
4CF
330
1F
100
AcDbEntity
  8
0-C_ハッチ
  6
JWW_DASHED1
 62
   120
370
     5
100
AcDbLine
 10
-1474.323079350173
 20
1643.000148463894
 30
0.0
 11
-1279.500269606306
 21
1837.822958207762
 31
0.0
  0
LINE
  5
4D0
330
1F
100
AcDbEntity
  8
0-C_ハッチ
  6
JWW_DASHED1
 62
   120
370
     5
100
AcDbLine
 10
-1066.500269606308
 20
3258.810690560556
 30
0.0
 11
-1059.31081170297
 21
3266.000148463894
 31
0.0
  0
LINE
  5
4D1
330
1F
100
AcDbEntity
  8
0-C_ハッチ
  6
JWW_DASHED1
 62
   120
370
     5
100
AcDbLine
 10
-1066.500269606308
 20
3046.678656204554
 30
0.0
 11
-847.1787773469697
 21
3266.000148463894
 31
0.0
  0
LINE
  5
4D2
330
1F
100
AcDbEntity
  8
0-C_ハッチ
  6
JWW_DASHED1
 62
   120
370
     5
100
AcDbLine
 10
-1066.500269606308
 20
3060.820791828289
 30
0.0
 11
-861.3209129707035
 21
3266.000148463894
 31
0.0
  0
LINE
  5
4D3
330
1F
100
AcDbEntity
  8
0-C_ハッチ
  6
JWW_DASHED1
 62
   120
370
     5
100
AcDbLine
 10
-1066.500269606308
 20
3074.962927452023
 30
0.0
 11
-875.463048594436
 21
3266.000148463894
 31
0.0
  0
LINE
  5
4D4
330
1F
100
AcDbEntity
  8
0-C_ハッチ
  6
JWW_DASHED1
 62
   120
370
     5
100
AcDbLine
 10
-1066.500269606308
 20
3089.105063075755
 30
0.0
 11
-889.6051842181693
 21
3266.000148463894
 31
0.0
  0
LINE
  5
4D5
330
1F
100
AcDbEntity
  8
0-C_ハッチ
  6
JWW_DASHED1
 62
   120
370
     5
100
AcDbLine
 10
-1066.500269606308
 20
3103.247198699488
 30
0.0
 11
-903.7473198419038
 21
3266.000148463894
 31
0.0
  0
LINE
  5
4D6
330
1F
100
AcDbEntity
  8
0-C_ハッチ
  6
JWW_DASHED1
 62
   120
370
     5
100
AcDbLine
 10
-1066.500269606308
 20
3117.389334323223
 30
0.0
 11
-917.8894554656365
 21
3266.000148463894
 31
0.0
  0
LINE
  5
4D7
330
1F
100
AcDbEntity
  8
0-C_ハッチ
  6
JWW_DASHED1
 62
   120
370
     5
100
AcDbLine
 10
-1066.500269606308
 20
3131.531469946955
 30
0.0
 11
-932.0315910893701
 21
3266.000148463894
 31
0.0
  0
LINE
  5
4D8
330
1F
100
AcDbEntity
  8
0-C_ハッチ
  6
JWW_DASHED1
 62
   120
370
     5
100
AcDbLine
 10
-1066.500269606308
 20
3145.673605570689
 30
0.0
 11
-946.1737267131035
 21
3266.000148463894
 31
0.0
  0
LINE
  5
4D9
330
1F
100
AcDbEntity
  8
0-C_ハッチ
  6
JWW_DASHED1
 62
   120
370
     5
100
AcDbLine
 10
-1066.500269606308
 20
3159.815741194423
 30
0.0
 11
-960.3158623368372
 21
3266.000148463894
 31
0.0
  0
LINE
  5
4DA
330
1F
100
AcDbEntity
  8
0-C_ハッチ
  6
JWW_DASHED1
 62
   120
370
     5
100
AcDbLine
 10
-1066.500269606308
 20
3173.957876818155
 30
0.0
 11
-974.4579979605705
 21
3266.000148463894
 31
0.0
  0
LINE
  5
4DB
330
1F
100
AcDbEntity
  8
0-C_ハッチ
  6
JWW_DASHED1
 62
   120
370
     5
100
AcDbLine
 10
-1066.500269606308
 20
3188.100012441889
 30
0.0
 11
-988.6001335843035
 21
3266.000148463894
 31
0.0
  0
LINE
  5
4DC
330
1F
100
AcDbEntity
  8
0-C_ハッチ
  6
JWW_DASHED1
 62
   120
370
     5
100
AcDbLine
 10
-1066.500269606308
 20
3202.242148065622
 30
0.0
 11
-1002.742269208036
 21
3266.000148463894
 31
0.0
  0
LINE
  5
4DD
330
1F
100
AcDbEntity
  8
0-C_ハッチ
  6
JWW_DASHED1
 62
   120
370
     5
100
AcDbLine
 10
-1066.500269606308
 20
3216.384283689355
 30
0.0
 11
-1016.88440483177
 21
3266.000148463894
 31
0.0
  0
LINE
  5
4DE
330
1F
100
AcDbEntity
  8
0-C_ハッチ
  6
JWW_DASHED1
 62
   120
370
     5
100
AcDbLine
 10
-1066.500269606308
 20
3230.526419313089
 30
0.0
 11
-1031.026540455504
 21
3266.000148463894
 31
0.0
  0
LINE
  5
4DF
330
1F
100
AcDbEntity
  8
0-C_ハッチ
  6
JWW_DASHED1
 62
   120
370
     5
100
AcDbLine
 10
-1066.500269606308
 20
3244.668554936822
 30
0.0
 11
-1045.168676079237
 21
3266.000148463894
 31
0.0
  0
LINE
  5
4E0
330
1F
100
AcDbEntity
  8
0-C_ハッチ
  6
JWW_DASHED1
 62
   120
370
     5
100
AcDbLine
 10
-1066.500269606308
 20
3032.536520580822
 30
0.0
 11
-847.0002696063085
 21
3252.036520580821
 31
0.0
  0
LINE
  5
4E1
330
1F
100
AcDbEntity
  8
0-C_ハッチ
  6
JWW_DASHED1
 62
   120
370
     5
100
AcDbLine
 10
-857.9753162416956
 20
1643.000148463894
 30
0.0
 11
-847.0002696063085
 21
1653.975195099281
 31
0.0
  0
LINE
  5
4E2
330
1F
100
AcDbEntity
  8
0-C_ハッチ
  6
JWW_DASHED1
 62
   120
370
     5
100
AcDbLine
 10
-1055.965214973908
 20
1643.000148463894
 30
0.0
 11
-847.0002696063085
 21
1851.965093831495
 31
0.0
  0
LINE
  5
4E3
330
1F
100
AcDbEntity
  8
0-C_ハッチ
  6
JWW_DASHED1
 62
   120
370
     5
100
AcDbLine
 10
-872.1174518654308
 20
1643.000148463894
 30
0.0
 11
-847.0002696063085
 21
1668.117330723016
 31
0.0
  0
LINE
  5
4E4
330
1F
100
AcDbEntity
  8
0-C_ハッチ
  6
JWW_DASHED1
 62
   120
370
     5
100
AcDbLine
 10
-886.2595874891633
 20
1643.000148463894
 30
0.0
 11
-847.0002696063085
 21
1682.259466346748
 31
0.0
  0
LINE
  5
4E5
330
1F
100
AcDbEntity
  8
0-C_ハッチ
  6
JWW_DASHED1
 62
   120
370
     5
100
AcDbLine
 10
-900.4017231128965
 20
1643.000148463894
 30
0.0
 11
-847.0002696063085
 21
1696.401601970482
 31
0.0
  0
LINE
  5
4E6
330
1F
100
AcDbEntity
  8
0-C_ハッチ
  6
JWW_DASHED1
 62
   120
370
     5
100
AcDbLine
 10
-914.5438587366297
 20
1643.000148463894
 30
0.0
 11
-847.0002696063085
 21
1710.543737594216
 31
0.0
  0
LINE
  5
4E7
330
1F
100
AcDbEntity
  8
0-C_ハッチ
  6
JWW_DASHED1
 62
   120
370
     5
100
AcDbLine
 10
-928.6859943603624
 20
1643.000148463894
 30
0.0
 11
-847.0002696063085
 21
1724.685873217948
 31
0.0
  0
LINE
  5
4E8
330
1F
100
AcDbEntity
  8
0-C_ハッチ
  6
JWW_DASHED1
 62
   120
370
     5
100
AcDbLine
 10
-942.8281299840975
 20
1643.000148463894
 30
0.0
 11
-847.0002696063085
 21
1738.828008841682
 31
0.0
  0
LINE
  5
4E9
330
1F
100
AcDbEntity
  8
0-C_ハッチ
  6
JWW_DASHED1
 62
   120
370
     5
100
AcDbLine
 10
-956.9702656077761
 20
1643.000148463894
 30
0.0
 11
-847.0002696063085
 21
1752.97014446536
 31
0.0
  0
LINE
  5
4EA
330
1F
100
AcDbEntity
  8
0-C_ハッチ
  6
JWW_DASHED1
 62
   120
370
     5
100
AcDbLine
 10
-971.1124012315094
 20
1643.000148463894
 30
0.0
 11
-847.0002696063085
 21
1767.112280089093
 31
0.0
  0
LINE
  5
4EB
330
1F
100
AcDbEntity
  8
0-C_ハッチ
  6
JWW_DASHED1
 62
   120
370
     5
100
AcDbLine
 10
-985.2545368552425
 20
1643.000148463894
 30
0.0
 11
-847.0002696063085
 21
1781.254415712827
 31
0.0
  0
LINE
  5
4EC
330
1F
100
AcDbEntity
  8
0-C_ハッチ
  6
JWW_DASHED1
 62
   120
370
     5
100
AcDbLine
 10
-999.3966724789753
 20
1643.000148463894
 30
0.0
 11
-847.0002696063085
 21
1795.396551336561
 31
0.0
  0
LINE
  5
4ED
330
1F
100
AcDbEntity
  8
0-C_ハッチ
  6
JWW_DASHED1
 62
   120
370
     5
100
AcDbLine
 10
-1013.538808102709
 20
1643.000148463894
 30
0.0
 11
-847.0002696063085
 21
1809.538686960293
 31
0.0
  0
LINE
  5
4EE
330
1F
100
AcDbEntity
  8
0-C_ハッチ
  6
JWW_DASHED1
 62
   120
370
     5
100
AcDbLine
 10
-1027.680943726442
 20
1643.000148463894
 30
0.0
 11
-847.0002696063085
 21
1823.680822584029
 31
0.0
  0
LINE
  5
4EF
330
1F
100
AcDbEntity
  8
0-C_ハッチ
  6
JWW_DASHED1
 62
   120
370
     5
100
AcDbLine
 10
-1041.823079350176
 20
1643.000148463894
 30
0.0
 11
-847.0002696063085
 21
1837.822958207761
 31
0.0
  0
LINE
  5
4F0
330
1F
100
AcDbEntity
  8
0-C_ハッチ
  6
JWW_DASHED1
 62
   120
370
     5
100
AcDbLine
 10
-1066.500269606308
 20
1646.607229455227
 30
0.0
 11
-847.0002696063085
 21
1866.107229455227
 31
0.0
  0
LINE
  5
4F1
330
1F
100
AcDbEntity
  8
0-C_ハッチ
  6
JWW_DASHED1
 62
   120
370
     5
100
AcDbLine
 10
-1066.500269606308
 20
1660.749365078961
 30
0.0
 11
-847.0002696063085
 21
1880.249365078961
 31
0.0
  0
LINE
  5
4F2
330
1F
100
AcDbEntity
  8
0-C_ハッチ
  6
JWW_DASHED1
 62
   120
370
     5
100
AcDbLine
 10
-1066.500269606308
 20
1674.891500702694
 30
0.0
 11
-847.0002696063085
 21
1894.391500702694
 31
0.0
  0
LINE
  5
4F3
330
1F
100
AcDbEntity
  8
0-C_ハッチ
  6
JWW_DASHED1
 62
   120
370
     5
100
AcDbLine
 10
-1066.500269606308
 20
1689.033636326428
 30
0.0
 11
-847.0002696063085
 21
1908.533636326428
 31
0.0
  0
LINE
  5
4F4
330
1F
100
AcDbEntity
  8
0-C_ハッチ
  6
JWW_DASHED1
 62
   120
370
     5
100
AcDbLine
 10
-1066.500269606308
 20
1703.175771950161
 30
0.0
 11
-847.0002696063085
 21
1922.675771950161
 31
0.0
  0
LINE
  5
4F5
330
1F
100
AcDbEntity
  8
0-C_ハッチ
  6
JWW_DASHED1
 62
   120
370
     5
100
AcDbLine
 10
-1066.500269606308
 20
1717.317907573894
 30
0.0
 11
-847.0002696063085
 21
1936.817907573896
 31
0.0
  0
LINE
  5
4F6
330
1F
100
AcDbEntity
  8
0-C_ハッチ
  6
JWW_DASHED1
 62
   120
370
     5
100
AcDbLine
 10
-1066.500269606308
 20
1731.460043197628
 30
0.0
 11
-847.0002696063085
 21
1950.960043197628
 31
0.0
  0
LINE
  5
4F7
330
1F
100
AcDbEntity
  8
0-C_ハッチ
  6
JWW_DASHED1
 62
   120
370
     5
100
AcDbLine
 10
-1066.500269606308
 20
1745.602178821361
 30
0.0
 11
-847.0002696063085
 21
1965.102178821361
 31
0.0
  0
LINE
  5
4F8
330
1F
100
AcDbEntity
  8
0-C_ハッチ
  6
JWW_DASHED1
 62
   120
370
     5
100
AcDbLine
 10
-1066.500269606308
 20
1759.744314445094
 30
0.0
 11
-847.0002696063085
 21
1979.244314445093
 31
0.0
  0
LINE
  5
4F9
330
1F
100
AcDbEntity
  8
0-C_ハッチ
  6
JWW_DASHED1
 62
   120
370
     5
100
AcDbLine
 10
-1066.500269606308
 20
1773.886450068828
 30
0.0
 11
-847.0002696063085
 21
1993.386450068829
 31
0.0
  0
LINE
  5
4FA
330
1F
100
AcDbEntity
  8
0-C_ハッチ
  6
JWW_DASHED1
 62
   120
370
     5
100
AcDbLine
 10
-1066.500269606308
 20
1788.02858569256
 30
0.0
 11
-847.0002696063085
 21
2007.52858569256
 31
0.0
  0
LINE
  5
4FB
330
1F
100
AcDbEntity
  8
0-C_ハッチ
  6
JWW_DASHED1
 62
   120
370
     5
100
AcDbLine
 10
-1066.500269606308
 20
1802.170721316295
 30
0.0
 11
-847.0002696063085
 21
2021.670721316295
 31
0.0
  0
LINE
  5
4FC
330
1F
100
AcDbEntity
  8
0-C_ハッチ
  6
JWW_DASHED1
 62
   120
370
     5
100
AcDbLine
 10
-1066.500269606308
 20
1816.312856940028
 30
0.0
 11
-847.0002696063085
 21
2035.812856940029
 31
0.0
  0
LINE
  5
4FD
330
1F
100
AcDbEntity
  8
0-C_ハッチ
  6
JWW_DASHED1
 62
   120
370
     5
100
AcDbLine
 10
-1066.500269606308
 20
1830.454992563761
 30
0.0
 11
-847.0002696063085
 21
2049.954992563762
 31
0.0
  0
LINE
  5
4FE
330
1F
100
AcDbEntity
  8
0-C_ハッチ
  6
JWW_DASHED1
 62
   120
370
     5
100
AcDbLine
 10
-1066.500269606308
 20
1844.597128187439
 30
0.0
 11
-847.0002696063085
 21
2064.09712818744
 31
0.0
  0
LINE
  5
4FF
330
1F
100
AcDbEntity
  8
0-C_ハッチ
  6
JWW_DASHED1
 62
   120
370
     5
100
AcDbLine
 10
-1066.500269606308
 20
1858.739263811173
 30
0.0
 11
-847.0002696063085
 21
2078.239263811173
 31
0.0
  0
LINE
  5
500
330
1F
100
AcDbEntity
  8
0-C_ハッチ
  6
JWW_DASHED1
 62
   120
370
     5
100
AcDbLine
 10
-1066.500269606308
 20
1872.881399434907
 30
0.0
 11
-847.0002696063085
 21
2092.381399434907
 31
0.0
  0
LINE
  5
501
330
1F
100
AcDbEntity
  8
0-C_ハッチ
  6
JWW_DASHED1
 62
   120
370
     5
100
AcDbLine
 10
-1066.500269606308
 20
1887.023535058641
 30
0.0
 11
-847.0002696063085
 21
2106.523535058639
 31
0.0
  0
LINE
  5
502
330
1F
100
AcDbEntity
  8
0-C_ハッチ
  6
JWW_DASHED1
 62
   120
370
     5
100
AcDbLine
 10
-1066.500269606308
 20
1901.165670682372
 30
0.0
 11
-847.0002696063085
 21
2120.665670682374
 31
0.0
  0
LINE
  5
503
330
1F
100
AcDbEntity
  8
0-C_ハッチ
  6
JWW_DASHED1
 62
   120
370
     5
100
AcDbLine
 10
-1066.500269606308
 20
1915.307806306106
 30
0.0
 11
-847.0002696063085
 21
2134.807806306108
 31
0.0
  0
LINE
  5
504
330
1F
100
AcDbEntity
  8
0-C_ハッチ
  6
JWW_DASHED1
 62
   120
370
     5
100
AcDbLine
 10
-1066.500269606308
 20
1929.449941929841
 30
0.0
 11
-847.0002696063085
 21
2148.949941929841
 31
0.0
  0
LINE
  5
505
330
1F
100
AcDbEntity
  8
0-C_ハッチ
  6
JWW_DASHED1
 62
   120
370
     5
100
AcDbLine
 10
-1066.500269606308
 20
1943.592077553574
 30
0.0
 11
-847.0002696063085
 21
2163.092077553573
 31
0.0
  0
LINE
  5
506
330
1F
100
AcDbEntity
  8
0-C_ハッチ
  6
JWW_DASHED1
 62
   120
370
     5
100
AcDbLine
 10
-1066.500269606308
 20
1957.734213177307
 30
0.0
 11
-847.0002696063085
 21
2177.234213177306
 31
0.0
  0
LINE
  5
507
330
1F
100
AcDbEntity
  8
0-C_ハッチ
  6
JWW_DASHED1
 62
   120
370
     5
100
AcDbLine
 10
-1066.500269606308
 20
1971.876348801041
 30
0.0
 11
-847.0002696063085
 21
2191.376348801041
 31
0.0
  0
LINE
  5
508
330
1F
100
AcDbEntity
  8
0-C_ハッチ
  6
JWW_DASHED1
 62
   120
370
     5
100
AcDbLine
 10
-1066.500269606308
 20
1986.018484424774
 30
0.0
 11
-847.0002696063085
 21
2205.518484424773
 31
0.0
  0
LINE
  5
509
330
1F
100
AcDbEntity
  8
0-C_ハッチ
  6
JWW_DASHED1
 62
   120
370
     5
100
AcDbLine
 10
-1066.500269606308
 20
2000.160620048507
 30
0.0
 11
-847.0002696063085
 21
2219.660620048506
 31
0.0
  0
LINE
  5
50A
330
1F
100
AcDbEntity
  8
0-C_ハッチ
  6
JWW_DASHED1
 62
   120
370
     5
100
AcDbLine
 10
-1066.500269606308
 20
2014.302755672239
 30
0.0
 11
-847.0002696063085
 21
2233.80275567224
 31
0.0
  0
LINE
  5
50B
330
1F
100
AcDbEntity
  8
0-C_ハッチ
  6
JWW_DASHED1
 62
   120
370
     5
100
AcDbLine
 10
-1066.500269606308
 20
2028.444891295973
 30
0.0
 11
-847.0002696063085
 21
2247.944891295974
 31
0.0
  0
LINE
  5
50C
330
1F
100
AcDbEntity
  8
0-C_ハッチ
  6
JWW_DASHED1
 62
   120
370
     5
100
AcDbLine
 10
-1066.500269606308
 20
2042.587026919707
 30
0.0
 11
-847.0002696063085
 21
2262.087026919706
 31
0.0
  0
LINE
  5
50D
330
1F
100
AcDbEntity
  8
0-C_ハッチ
  6
JWW_DASHED1
 62
   120
370
     5
100
AcDbLine
 10
-1066.500269606308
 20
2056.72916254344
 30
0.0
 11
-847.0002696063085
 21
2276.22916254344
 31
0.0
  0
LINE
  5
50E
330
1F
100
AcDbEntity
  8
0-C_ハッチ
  6
JWW_DASHED1
 62
   120
370
     5
100
AcDbLine
 10
-1066.500269606308
 20
2070.871298167173
 30
0.0
 11
-847.0002696063085
 21
2290.371298167173
 31
0.0
  0
LINE
  5
50F
330
1F
100
AcDbEntity
  8
0-C_ハッチ
  6
JWW_DASHED1
 62
   120
370
     5
100
AcDbLine
 10
-1066.500269606308
 20
2085.013433790907
 30
0.0
 11
-847.0002696063085
 21
2304.513433790907
 31
0.0
  0
LINE
  5
510
330
1F
100
AcDbEntity
  8
0-C_ハッチ
  6
JWW_DASHED1
 62
   120
370
     5
100
AcDbLine
 10
-1066.500269606308
 20
2099.15556941464
 30
0.0
 11
-847.0002696063085
 21
2318.65556941464
 31
0.0
  0
LINE
  5
511
330
1F
100
AcDbEntity
  8
0-C_ハッチ
  6
JWW_DASHED1
 62
   120
370
     5
100
AcDbLine
 10
-1066.500269606308
 20
2113.297705038373
 30
0.0
 11
-847.0002696063085
 21
2332.797705038373
 31
0.0
  0
LINE
  5
512
330
1F
100
AcDbEntity
  8
0-C_ハッチ
  6
JWW_DASHED1
 62
   120
370
     5
100
AcDbLine
 10
-1066.500269606308
 20
2127.439840662052
 30
0.0
 11
-847.0002696063085
 21
2346.939840662052
 31
0.0
  0
LINE
  5
513
330
1F
100
AcDbEntity
  8
0-C_ハッチ
  6
JWW_DASHED1
 62
   120
370
     5
100
AcDbLine
 10
-1066.500269606308
 20
2141.581976285786
 30
0.0
 11
-847.0002696063085
 21
2361.081976285785
 31
0.0
  0
LINE
  5
514
330
1F
100
AcDbEntity
  8
0-C_ハッチ
  6
JWW_DASHED1
 62
   120
370
     5
100
AcDbLine
 10
-1066.500269606308
 20
2155.724111909519
 30
0.0
 11
-847.0002696063085
 21
2375.224111909518
 31
0.0
  0
LINE
  5
515
330
1F
100
AcDbEntity
  8
0-C_ハッチ
  6
JWW_DASHED1
 62
   120
370
     5
100
AcDbLine
 10
-1066.500269606308
 20
2169.866247533252
 30
0.0
 11
-847.0002696063085
 21
2389.366247533252
 31
0.0
  0
LINE
  5
516
330
1F
100
AcDbEntity
  8
0-C_ハッチ
  6
JWW_DASHED1
 62
   120
370
     5
100
AcDbLine
 10
-1066.500269606308
 20
2184.008383156985
 30
0.0
 11
-847.0002696063085
 21
2403.508383156985
 31
0.0
  0
LINE
  5
517
330
1F
100
AcDbEntity
  8
0-C_ハッチ
  6
JWW_DASHED1
 62
   120
370
     5
100
AcDbLine
 10
-1066.500269606308
 20
2198.150518780719
 30
0.0
 11
-847.0002696063085
 21
2417.650518780718
 31
0.0
  0
LINE
  5
518
330
1F
100
AcDbEntity
  8
0-C_ハッチ
  6
JWW_DASHED1
 62
   120
370
     5
100
AcDbLine
 10
-1066.500269606308
 20
2212.292654404451
 30
0.0
 11
-847.0002696063085
 21
2431.792654404453
 31
0.0
  0
LINE
  5
519
330
1F
100
AcDbEntity
  8
0-C_ハッチ
  6
JWW_DASHED1
 62
   120
370
     5
100
AcDbLine
 10
-1066.500269606308
 20
2226.434790028185
 30
0.0
 11
-847.0002696063085
 21
2445.934790028185
 31
0.0
  0
LINE
  5
51A
330
1F
100
AcDbEntity
  8
0-C_ハッチ
  6
JWW_DASHED1
 62
   120
370
     5
100
AcDbLine
 10
-1066.500269606308
 20
2240.576925651919
 30
0.0
 11
-847.0002696063085
 21
2460.076925651918
 31
0.0
  0
LINE
  5
51B
330
1F
100
AcDbEntity
  8
0-C_ハッチ
  6
JWW_DASHED1
 62
   120
370
     5
100
AcDbLine
 10
-1066.500269606308
 20
2254.719061275653
 30
0.0
 11
-847.0002696063085
 21
2474.219061275652
 31
0.0
  0
LINE
  5
51C
330
1F
100
AcDbEntity
  8
0-C_ハッチ
  6
JWW_DASHED1
 62
   120
370
     5
100
AcDbLine
 10
-1066.500269606308
 20
2268.861196899386
 30
0.0
 11
-847.0002696063085
 21
2488.361196899386
 31
0.0
  0
LINE
  5
51D
330
1F
100
AcDbEntity
  8
0-C_ハッチ
  6
JWW_DASHED1
 62
   120
370
     5
100
AcDbLine
 10
-1066.500269606308
 20
2283.003332523118
 30
0.0
 11
-847.0002696063085
 21
2502.503332523118
 31
0.0
  0
LINE
  5
51E
330
1F
100
AcDbEntity
  8
0-C_ハッチ
  6
JWW_DASHED1
 62
   120
370
     5
100
AcDbLine
 10
-1066.500269606308
 20
2297.145468146852
 30
0.0
 11
-847.0002696063085
 21
2516.645468146852
 31
0.0
  0
LINE
  5
51F
330
1F
100
AcDbEntity
  8
0-C_ハッチ
  6
JWW_DASHED1
 62
   120
370
     5
100
AcDbLine
 10
-1066.500269606308
 20
2311.287603770585
 30
0.0
 11
-847.0002696063085
 21
2530.787603770586
 31
0.0
  0
LINE
  5
520
330
1F
100
AcDbEntity
  8
0-C_ハッチ
  6
JWW_DASHED1
 62
   120
370
     5
100
AcDbLine
 10
-1066.500269606308
 20
2325.429739394318
 30
0.0
 11
-847.0002696063085
 21
2544.929739394319
 31
0.0
  0
LINE
  5
521
330
1F
100
AcDbEntity
  8
0-C_ハッチ
  6
JWW_DASHED1
 62
   120
370
     5
100
AcDbLine
 10
-1066.500269606308
 20
2339.571875018053
 30
0.0
 11
-847.0002696063085
 21
2559.071875018052
 31
0.0
  0
LINE
  5
522
330
1F
100
AcDbEntity
  8
0-C_ハッチ
  6
JWW_DASHED1
 62
   120
370
     5
100
AcDbLine
 10
-1066.500269606308
 20
2353.714010641786
 30
0.0
 11
-847.0002696063085
 21
2573.214010641786
 31
0.0
  0
LINE
  5
523
330
1F
100
AcDbEntity
  8
0-C_ハッチ
  6
JWW_DASHED1
 62
   120
370
     5
100
AcDbLine
 10
-1066.500269606308
 20
2367.856146265518
 30
0.0
 11
-847.0002696063085
 21
2587.356146265519
 31
0.0
  0
LINE
  5
524
330
1F
100
AcDbEntity
  8
0-C_ハッチ
  6
JWW_DASHED1
 62
   120
370
     5
100
AcDbLine
 10
-1066.500269606308
 20
2381.998281889253
 30
0.0
 11
-847.0002696063085
 21
2601.498281889253
 31
0.0
  0
LINE
  5
525
330
1F
100
AcDbEntity
  8
0-C_ハッチ
  6
JWW_DASHED1
 62
   120
370
     5
100
AcDbLine
 10
-1066.500269606308
 20
2396.140417512985
 30
0.0
 11
-847.0002696063085
 21
2615.640417512985
 31
0.0
  0
LINE
  5
526
330
1F
100
AcDbEntity
  8
0-C_ハッチ
  6
JWW_DASHED1
 62
   120
370
     5
100
AcDbLine
 10
-1066.500269606308
 20
2410.282553136718
 30
0.0
 11
-847.0002696063085
 21
2629.782553136718
 31
0.0
  0
LINE
  5
527
330
1F
100
AcDbEntity
  8
0-C_ハッチ
  6
JWW_DASHED1
 62
   120
370
     5
100
AcDbLine
 10
-1066.500269606308
 20
2424.424688760453
 30
0.0
 11
-847.0002696063085
 21
2643.924688760453
 31
0.0
  0
LINE
  5
528
330
1F
100
AcDbEntity
  8
0-C_ハッチ
  6
JWW_DASHED1
 62
   120
370
     5
100
AcDbLine
 10
-1066.500269606308
 20
2438.566824384131
 30
0.0
 11
-847.0002696063085
 21
2658.066824384131
 31
0.0
  0
LINE
  5
529
330
1F
100
AcDbEntity
  8
0-C_ハッチ
  6
JWW_DASHED1
 62
   120
370
     5
100
AcDbLine
 10
-1066.500269606308
 20
2452.708960007864
 30
0.0
 11
-847.0002696063085
 21
2672.208960007864
 31
0.0
  0
LINE
  5
52A
330
1F
100
AcDbEntity
  8
0-C_ハッチ
  6
JWW_DASHED1
 62
   120
370
     5
100
AcDbLine
 10
-1066.500269606308
 20
2466.851095631599
 30
0.0
 11
-847.0002696063085
 21
2686.351095631597
 31
0.0
  0
LINE
  5
52B
330
1F
100
AcDbEntity
  8
0-C_ハッチ
  6
JWW_DASHED1
 62
   120
370
     5
100
AcDbLine
 10
-1066.500269606308
 20
2480.99323125533
 30
0.0
 11
-847.0002696063085
 21
2700.49323125533
 31
0.0
  0
LINE
  5
52C
330
1F
100
AcDbEntity
  8
0-C_ハッチ
  6
JWW_DASHED1
 62
   120
370
     5
100
AcDbLine
 10
-1066.500269606308
 20
2495.135366879065
 30
0.0
 11
-847.0002696063085
 21
2714.635366879064
 31
0.0
  0
LINE
  5
52D
330
1F
100
AcDbEntity
  8
0-C_ハッチ
  6
JWW_DASHED1
 62
   120
370
     5
100
AcDbLine
 10
-1066.500269606308
 20
2509.277502502797
 30
0.0
 11
-847.0002696063085
 21
2728.777502502798
 31
0.0
  0
LINE
  5
52E
330
1F
100
AcDbEntity
  8
0-C_ハッチ
  6
JWW_DASHED1
 62
   120
370
     5
100
AcDbLine
 10
-1066.500269606308
 20
2523.41963812653
 30
0.0
 11
-847.0002696063085
 21
2742.91963812653
 31
0.0
  0
LINE
  5
52F
330
1F
100
AcDbEntity
  8
0-C_ハッチ
  6
JWW_DASHED1
 62
   120
370
     5
100
AcDbLine
 10
-1066.500269606308
 20
2537.561773750264
 30
0.0
 11
-847.0002696063085
 21
2757.061773750263
 31
0.0
  0
LINE
  5
530
330
1F
100
AcDbEntity
  8
0-C_ハッチ
  6
JWW_DASHED1
 62
   120
370
     5
100
AcDbLine
 10
-1066.500269606308
 20
2551.703909373998
 30
0.0
 11
-847.0002696063085
 21
2771.203909373998
 31
0.0
  0
LINE
  5
531
330
1F
100
AcDbEntity
  8
0-C_ハッチ
  6
JWW_DASHED1
 62
   120
370
     5
100
AcDbLine
 10
-1066.500269606308
 20
2565.84604499773
 30
0.0
 11
-847.0002696063085
 21
2785.34604499773
 31
0.0
  0
LINE
  5
532
330
1F
100
AcDbEntity
  8
0-C_ハッチ
  6
JWW_DASHED1
 62
   120
370
     5
100
AcDbLine
 10
-1066.500269606308
 20
2579.988180621465
 30
0.0
 11
-847.0002696063085
 21
2799.488180621463
 31
0.0
  0
LINE
  5
533
330
1F
100
AcDbEntity
  8
0-C_ハッチ
  6
JWW_DASHED1
 62
   120
370
     5
100
AcDbLine
 10
-1066.500269606308
 20
2594.130316245198
 30
0.0
 11
-847.0002696063085
 21
2813.630316245198
 31
0.0
  0
LINE
  5
534
330
1F
100
AcDbEntity
  8
0-C_ハッチ
  6
JWW_DASHED1
 62
   120
370
     5
100
AcDbLine
 10
-1066.500269606308
 20
2608.272451868932
 30
0.0
 11
-847.0002696063085
 21
2827.77245186893
 31
0.0
  0
LINE
  5
535
330
1F
100
AcDbEntity
  8
0-C_ハッチ
  6
JWW_DASHED1
 62
   120
370
     5
100
AcDbLine
 10
-1066.500269606308
 20
2622.414587492665
 30
0.0
 11
-847.0002696063085
 21
2841.914587492664
 31
0.0
  0
LINE
  5
536
330
1F
100
AcDbEntity
  8
0-C_ハッチ
  6
JWW_DASHED1
 62
   120
370
     5
100
AcDbLine
 10
-1066.500269606308
 20
2636.556723116398
 30
0.0
 11
-847.0002696063085
 21
2856.056723116398
 31
0.0
  0
LINE
  5
537
330
1F
100
AcDbEntity
  8
0-C_ハッチ
  6
JWW_DASHED1
 62
   120
370
     5
100
AcDbLine
 10
-1066.500269606308
 20
2650.698858740131
 30
0.0
 11
-847.0002696063085
 21
2870.19885874013
 31
0.0
  0
LINE
  5
538
330
1F
100
AcDbEntity
  8
0-C_ハッチ
  6
JWW_DASHED1
 62
   120
370
     5
100
AcDbLine
 10
-1066.500269606308
 20
2664.840994363864
 30
0.0
 11
-847.0002696063085
 21
2884.340994363864
 31
0.0
  0
LINE
  5
539
330
1F
100
AcDbEntity
  8
0-C_ハッチ
  6
JWW_DASHED1
 62
   120
370
     5
100
AcDbLine
 10
-1066.500269606308
 20
2678.983129987598
 30
0.0
 11
-847.0002696063085
 21
2898.483129987598
 31
0.0
  0
LINE
  5
53A
330
1F
100
AcDbEntity
  8
0-C_ハッチ
  6
JWW_DASHED1
 62
   120
370
     5
100
AcDbLine
 10
-1066.500269606308
 20
2693.125265611332
 30
0.0
 11
-847.0002696063085
 21
2912.62526561133
 31
0.0
  0
LINE
  5
53B
330
1F
100
AcDbEntity
  8
0-C_ハッチ
  6
JWW_DASHED1
 62
   120
370
     5
100
AcDbLine
 10
-1066.500269606308
 20
2707.267401235064
 30
0.0
 11
-847.0002696063085
 21
2926.767401235064
 31
0.0
  0
LINE
  5
53C
330
1F
100
AcDbEntity
  8
0-C_ハッチ
  6
JWW_DASHED1
 62
   120
370
     5
100
AcDbLine
 10
-1066.500269606308
 20
2721.409536858797
 30
0.0
 11
-847.0002696063085
 21
2940.909536858798
 31
0.0
  0
LINE
  5
53D
330
1F
100
AcDbEntity
  8
0-C_ハッチ
  6
JWW_DASHED1
 62
   120
370
     5
100
AcDbLine
 10
-1066.500269606308
 20
2735.551672482476
 30
0.0
 11
-847.0002696063085
 21
2955.051672482476
 31
0.0
  0
LINE
  5
53E
330
1F
100
AcDbEntity
  8
0-C_ハッチ
  6
JWW_DASHED1
 62
   120
370
     5
100
AcDbLine
 10
-1066.500269606308
 20
2749.69380810621
 30
0.0
 11
-847.0002696063085
 21
2969.19380810621
 31
0.0
  0
LINE
  5
53F
330
1F
100
AcDbEntity
  8
0-C_ハッチ
  6
JWW_DASHED1
 62
   120
370
     5
100
AcDbLine
 10
-1066.500269606308
 20
2763.835943729944
 30
0.0
 11
-847.0002696063085
 21
2983.335943729943
 31
0.0
  0
LINE
  5
540
330
1F
100
AcDbEntity
  8
0-C_ハッチ
  6
JWW_DASHED1
 62
   120
370
     5
100
AcDbLine
 10
-1066.500269606308
 20
2777.978079353677
 30
0.0
 11
-847.0002696063085
 21
2997.478079353676
 31
0.0
  0
LINE
  5
541
330
1F
100
AcDbEntity
  8
0-C_ハッチ
  6
JWW_DASHED1
 62
   120
370
     5
100
AcDbLine
 10
-1066.500269606308
 20
2792.12021497741
 30
0.0
 11
-847.0002696063085
 21
3011.62021497741
 31
0.0
  0
LINE
  5
542
330
1F
100
AcDbEntity
  8
0-C_ハッチ
  6
JWW_DASHED1
 62
   120
370
     5
100
AcDbLine
 10
-1066.500269606308
 20
2806.262350601143
 30
0.0
 11
-847.0002696063085
 21
3025.762350601143
 31
0.0
  0
LINE
  5
543
330
1F
100
AcDbEntity
  8
0-C_ハッチ
  6
JWW_DASHED1
 62
   120
370
     5
100
AcDbLine
 10
-1066.500269606308
 20
2820.404486224876
 30
0.0
 11
-847.0002696063085
 21
3039.904486224877
 31
0.0
  0
LINE
  5
544
330
1F
100
AcDbEntity
  8
0-C_ハッチ
  6
JWW_DASHED1
 62
   120
370
     5
100
AcDbLine
 10
-1066.500269606308
 20
2834.54662184861
 30
0.0
 11
-847.0002696063085
 21
3054.04662184861
 31
0.0
  0
LINE
  5
545
330
1F
100
AcDbEntity
  8
0-C_ハッチ
  6
JWW_DASHED1
 62
   120
370
     5
100
AcDbLine
 10
-1066.500269606308
 20
2848.688757472343
 30
0.0
 11
-847.0002696063085
 21
3068.188757472343
 31
0.0
  0
LINE
  5
546
330
1F
100
AcDbEntity
  8
0-C_ハッチ
  6
JWW_DASHED1
 62
   120
370
     5
100
AcDbLine
 10
-1066.500269606308
 20
2862.830893096076
 30
0.0
 11
-847.0002696063085
 21
3082.330893096077
 31
0.0
  0
LINE
  5
547
330
1F
100
AcDbEntity
  8
0-C_ハッチ
  6
JWW_DASHED1
 62
   120
370
     5
100
AcDbLine
 10
-1066.500269606308
 20
2876.97302871981
 30
0.0
 11
-847.0002696063085
 21
3096.47302871981
 31
0.0
  0
LINE
  5
548
330
1F
100
AcDbEntity
  8
0-C_ハッチ
  6
JWW_DASHED1
 62
   120
370
     5
100
AcDbLine
 10
-1066.500269606308
 20
2891.115164343544
 30
0.0
 11
-847.0002696063085
 21
3110.615164343542
 31
0.0
  0
LINE
  5
549
330
1F
100
AcDbEntity
  8
0-C_ハッチ
  6
JWW_DASHED1
 62
   120
370
     5
100
AcDbLine
 10
-1066.500269606308
 20
2905.257299967276
 30
0.0
 11
-847.0002696063085
 21
3124.757299967276
 31
0.0
  0
LINE
  5
54A
330
1F
100
AcDbEntity
  8
0-C_ハッチ
  6
JWW_DASHED1
 62
   120
370
     5
100
AcDbLine
 10
-1066.500269606308
 20
2919.39943559101
 30
0.0
 11
-847.0002696063085
 21
3138.899435591009
 31
0.0
  0
LINE
  5
54B
330
1F
100
AcDbEntity
  8
0-C_ハッチ
  6
JWW_DASHED1
 62
   120
370
     5
100
AcDbLine
 10
-1066.500269606308
 20
2933.541571214742
 30
0.0
 11
-847.0002696063085
 21
3153.041571214742
 31
0.0
  0
LINE
  5
54C
330
1F
100
AcDbEntity
  8
0-C_ハッチ
  6
JWW_DASHED1
 62
   120
370
     5
100
AcDbLine
 10
-1066.500269606308
 20
2947.683706838478
 30
0.0
 11
-847.0002696063085
 21
3167.183706838476
 31
0.0
  0
LINE
  5
54D
330
1F
100
AcDbEntity
  8
0-C_ハッチ
  6
JWW_DASHED1
 62
   120
370
     5
100
AcDbLine
 10
-1066.500269606308
 20
2961.825842462209
 30
0.0
 11
-847.0002696063085
 21
3181.325842462209
 31
0.0
  0
LINE
  5
54E
330
1F
100
AcDbEntity
  8
0-C_ハッチ
  6
JWW_DASHED1
 62
   120
370
     5
100
AcDbLine
 10
-1066.500269606308
 20
2975.967978085942
 30
0.0
 11
-847.0002696063085
 21
3195.467978085942
 31
0.0
  0
LINE
  5
54F
330
1F
100
AcDbEntity
  8
0-C_ハッチ
  6
JWW_DASHED1
 62
   120
370
     5
100
AcDbLine
 10
-1066.500269606308
 20
2990.110113709677
 30
0.0
 11
-847.0002696063085
 21
3209.610113709677
 31
0.0
  0
LINE
  5
550
330
1F
100
AcDbEntity
  8
0-C_ハッチ
  6
JWW_DASHED1
 62
   120
370
     5
100
AcDbLine
 10
-1066.500269606308
 20
3004.252249333411
 30
0.0
 11
-847.0002696063085
 21
3223.75224933341
 31
0.0
  0
LINE
  5
551
330
1F
100
AcDbEntity
  8
0-C_ハッチ
  6
JWW_DASHED1
 62
   120
370
     5
100
AcDbLine
 10
-1066.500269606308
 20
3018.394384957144
 30
0.0
 11
-847.0002696063085
 21
3237.894384957142
 31
0.0
  0
LINE
  5
552
330
1F
100
AcDbEntity
  8
0-C_ハッチ
  6
JWW_DASHED1
 62
   120
370
     5
100
AcDbLine
 10
-719.0002696063073
 20
3258.810690560556
 30
0.0
 11
-711.8108117029694
 21
3266.000148463894
 31
0.0
  0
LINE
  5
553
330
1F
100
AcDbEntity
  8
0-C_ハッチ
  6
JWW_DASHED1
 62
   120
370
     5
100
AcDbLine
 10
-719.0002696063073
 20
3046.678656204556
 30
0.0
 11
-499.6787773469686
 21
3266.000148463894
 31
0.0
  0
LINE
  5
554
330
1F
100
AcDbEntity
  8
0-C_ハッチ
  6
JWW_DASHED1
 62
   120
370
     5
100
AcDbLine
 10
-719.0002696063073
 20
3060.820791828289
 30
0.0
 11
-513.8209129707024
 21
3266.000148463894
 31
0.0
  0
LINE
  5
555
330
1F
100
AcDbEntity
  8
0-C_ハッチ
  6
JWW_DASHED1
 62
   120
370
     5
100
AcDbLine
 10
-719.0002696063073
 20
3074.962927452023
 30
0.0
 11
-527.9630485944365
 21
3266.000148463894
 31
0.0
  0
LINE
  5
556
330
1F
100
AcDbEntity
  8
0-C_ハッチ
  6
JWW_DASHED1
 62
   120
370
     5
100
AcDbLine
 10
-719.0002696063073
 20
3089.105063075756
 30
0.0
 11
-542.1051842181698
 21
3266.000148463894
 31
0.0
  0
LINE
  5
557
330
1F
100
AcDbEntity
  8
0-C_ハッチ
  6
JWW_DASHED1
 62
   120
370
     5
100
AcDbLine
 10
-719.0002696063073
 20
3103.247198699488
 30
0.0
 11
-556.2473198419027
 21
3266.000148463894
 31
0.0
  0
LINE
  5
558
330
1F
100
AcDbEntity
  8
0-C_ハッチ
  6
JWW_DASHED1
 62
   120
370
     5
100
AcDbLine
 10
-719.0002696063073
 20
3117.389334323223
 30
0.0
 11
-570.3894554656368
 21
3266.000148463894
 31
0.0
  0
LINE
  5
559
330
1F
100
AcDbEntity
  8
0-C_ハッチ
  6
JWW_DASHED1
 62
   120
370
     5
100
AcDbLine
 10
-719.0002696063073
 20
3131.531469946956
 30
0.0
 11
-584.5315910893692
 21
3266.000148463894
 31
0.0
  0
LINE
  5
55A
330
1F
100
AcDbEntity
  8
0-C_ハッチ
  6
JWW_DASHED1
 62
   120
370
     5
100
AcDbLine
 10
-719.0002696063073
 20
3145.673605570689
 30
0.0
 11
-598.6737267131039
 21
3266.000148463894
 31
0.0
  0
LINE
  5
55B
330
1F
100
AcDbEntity
  8
0-C_ハッチ
  6
JWW_DASHED1
 62
   120
370
     5
100
AcDbLine
 10
-719.0002696063073
 20
3159.815741194423
 30
0.0
 11
-612.8158623368361
 21
3266.000148463894
 31
0.0
  0
LINE
  5
55C
330
1F
100
AcDbEntity
  8
0-C_ハッチ
  6
JWW_DASHED1
 62
   120
370
     5
100
AcDbLine
 10
-719.0002696063073
 20
3173.957876818155
 30
0.0
 11
-626.9579979605694
 21
3266.000148463894
 31
0.0
  0
LINE
  5
55D
330
1F
100
AcDbEntity
  8
0-C_ハッチ
  6
JWW_DASHED1
 62
   120
370
     5
100
AcDbLine
 10
-719.0002696063073
 20
3188.100012441889
 30
0.0
 11
-641.1001335843025
 21
3266.000148463894
 31
0.0
  0
LINE
  5
55E
330
1F
100
AcDbEntity
  8
0-C_ハッチ
  6
JWW_DASHED1
 62
   120
370
     5
100
AcDbLine
 10
-719.0002696063073
 20
3202.242148065622
 30
0.0
 11
-655.2422692080354
 21
3266.000148463894
 31
0.0
  0
LINE
  5
55F
330
1F
100
AcDbEntity
  8
0-C_ハッチ
  6
JWW_DASHED1
 62
   120
370
     5
100
AcDbLine
 10
-719.0002696063073
 20
3216.384283689355
 30
0.0
 11
-669.3844048317702
 21
3266.000148463894
 31
0.0
  0
LINE
  5
560
330
1F
100
AcDbEntity
  8
0-C_ハッチ
  6
JWW_DASHED1
 62
   120
370
     5
100
AcDbLine
 10
-719.0002696063073
 20
3230.526419313089
 30
0.0
 11
-683.5265404555029
 21
3266.000148463894
 31
0.0
  0
LINE
  5
561
330
1F
100
AcDbEntity
  8
0-C_ハッチ
  6
JWW_DASHED1
 62
   120
370
     5
100
AcDbLine
 10
-719.0002696063073
 20
3244.668554936822
 30
0.0
 11
-697.668676079236
 21
3266.000148463894
 31
0.0
  0
LINE
  5
562
330
1F
100
AcDbEntity
  8
0-C_ハッチ
  6
JWW_DASHED1
 62
   120
370
     5
100
AcDbLine
 10
-719.0002696063073
 20
3032.536520580823
 30
0.0
 11
-499.5002696063074
 21
3252.036520580823
 31
0.0
  0
LINE
  5
563
330
1F
100
AcDbEntity
  8
0-C_ハッチ
  6
JWW_DASHED1
 62
   120
370
     5
100
AcDbLine
 10
-510.4753162416962
 20
1643.000148463894
 30
0.0
 11
-499.5002696063074
 21
1653.975195099283
 31
0.0
  0
LINE
  5
564
330
1F
100
AcDbEntity
  8
0-C_ハッチ
  6
JWW_DASHED1
 62
   120
370
     5
100
AcDbLine
 10
-708.4652149739085
 20
1643.000148463894
 30
0.0
 11
-499.5002696063074
 21
1851.965093831495
 31
0.0
  0
LINE
  5
565
330
1F
100
AcDbEntity
  8
0-C_ハッチ
  6
JWW_DASHED1
 62
   120
370
     5
100
AcDbLine
 10
-524.6174518654296
 20
1643.000148463894
 30
0.0
 11
-499.5002696063074
 21
1668.117330723016
 31
0.0
  0
LINE
  5
566
330
1F
100
AcDbEntity
  8
0-C_ハッチ
  6
JWW_DASHED1
 62
   120
370
     5
100
AcDbLine
 10
-538.7595874891622
 20
1643.000148463894
 30
0.0
 11
-499.5002696063074
 21
1682.259466346748
 31
0.0
  0
LINE
  5
567
330
1F
100
AcDbEntity
  8
0-C_ハッチ
  6
JWW_DASHED1
 62
   120
370
     5
100
AcDbLine
 10
-552.9017231128954
 20
1643.000148463894
 30
0.0
 11
-499.5002696063074
 21
1696.401601970482
 31
0.0
  0
LINE
  5
568
330
1F
100
AcDbEntity
  8
0-C_ハッチ
  6
JWW_DASHED1
 62
   120
370
     5
100
AcDbLine
 10
-567.0438587366285
 20
1643.000148463894
 30
0.0
 11
-499.5002696063074
 21
1710.543737594216
 31
0.0
  0
LINE
  5
569
330
1F
100
AcDbEntity
  8
0-C_ハッチ
  6
JWW_DASHED1
 62
   120
370
     5
100
AcDbLine
 10
-581.185994360363
 20
1643.000148463894
 30
0.0
 11
-499.5002696063074
 21
1724.68587321795
 31
0.0
  0
LINE
  5
56A
330
1F
100
AcDbEntity
  8
0-C_ハッチ
  6
JWW_DASHED1
 62
   120
370
     5
100
AcDbLine
 10
-595.3281299840963
 20
1643.000148463894
 30
0.0
 11
-499.5002696063074
 21
1738.828008841682
 31
0.0
  0
LINE
  5
56B
330
1F
100
AcDbEntity
  8
0-C_ハッチ
  6
JWW_DASHED1
 62
   120
370
     5
100
AcDbLine
 10
-609.4702656077751
 20
1643.000148463894
 30
0.0
 11
-499.5002696063074
 21
1752.970144465362
 31
0.0
  0
LINE
  5
56C
330
1F
100
AcDbEntity
  8
0-C_ハッチ
  6
JWW_DASHED1
 62
   120
370
     5
100
AcDbLine
 10
-623.6124012315084
 20
1643.000148463894
 30
0.0
 11
-499.5002696063074
 21
1767.112280089095
 31
0.0
  0
LINE
  5
56D
330
1F
100
AcDbEntity
  8
0-C_ハッチ
  6
JWW_DASHED1
 62
   120
370
     5
100
AcDbLine
 10
-637.7545368552413
 20
1643.000148463894
 30
0.0
 11
-499.5002696063074
 21
1781.254415712829
 31
0.0
  0
LINE
  5
56E
330
1F
100
AcDbEntity
  8
0-C_ハッチ
  6
JWW_DASHED1
 62
   120
370
     5
100
AcDbLine
 10
-651.8966724789742
 20
1643.000148463894
 30
0.0
 11
-499.5002696063074
 21
1795.396551336561
 31
0.0
  0
LINE
  5
56F
330
1F
100
AcDbEntity
  8
0-C_ハッチ
  6
JWW_DASHED1
 62
   120
370
     5
100
AcDbLine
 10
-666.0388081027093
 20
1643.000148463894
 30
0.0
 11
-499.5002696063074
 21
1809.538686960295
 31
0.0
  0
LINE
  5
570
330
1F
100
AcDbEntity
  8
0-C_ハッチ
  6
JWW_DASHED1
 62
   120
370
     5
100
AcDbLine
 10
-680.1809437264423
 20
1643.000148463894
 30
0.0
 11
-499.5002696063074
 21
1823.680822584029
 31
0.0
  0
LINE
  5
571
330
1F
100
AcDbEntity
  8
0-C_ハッチ
  6
JWW_DASHED1
 62
   120
370
     5
100
AcDbLine
 10
-694.3230793501751
 20
1643.000148463894
 30
0.0
 11
-499.5002696063074
 21
1837.822958207762
 31
0.0
  0
LINE
  5
572
330
1F
100
AcDbEntity
  8
0-C_ハッチ
  6
JWW_DASHED1
 62
   120
370
     5
100
AcDbLine
 10
-719.0002696063073
 20
1646.607229455228
 30
0.0
 11
-499.5002696063074
 21
1866.107229455228
 31
0.0
  0
LINE
  5
573
330
1F
100
AcDbEntity
  8
0-C_ハッチ
  6
JWW_DASHED1
 62
   120
370
     5
100
AcDbLine
 10
-719.0002696063073
 20
1660.749365078961
 30
0.0
 11
-499.5002696063074
 21
1880.249365078961
 31
0.0
  0
LINE
  5
574
330
1F
100
AcDbEntity
  8
0-C_ハッチ
  6
JWW_DASHED1
 62
   120
370
     5
100
AcDbLine
 10
-719.0002696063073
 20
1674.891500702696
 30
0.0
 11
-499.5002696063074
 21
1894.391500702694
 31
0.0
  0
LINE
  5
575
330
1F
100
AcDbEntity
  8
0-C_ハッチ
  6
JWW_DASHED1
 62
   120
370
     5
100
AcDbLine
 10
-719.0002696063073
 20
1689.033636326428
 30
0.0
 11
-499.5002696063074
 21
1908.533636326428
 31
0.0
  0
LINE
  5
576
330
1F
100
AcDbEntity
  8
0-C_ハッチ
  6
JWW_DASHED1
 62
   120
370
     5
100
AcDbLine
 10
-719.0002696063073
 20
1703.175771950161
 30
0.0
 11
-499.5002696063074
 21
1922.675771950161
 31
0.0
  0
LINE
  5
577
330
1F
100
AcDbEntity
  8
0-C_ハッチ
  6
JWW_DASHED1
 62
   120
370
     5
100
AcDbLine
 10
-719.0002696063073
 20
1717.317907573894
 30
0.0
 11
-499.5002696063074
 21
1936.817907573896
 31
0.0
  0
LINE
  5
578
330
1F
100
AcDbEntity
  8
0-C_ハッチ
  6
JWW_DASHED1
 62
   120
370
     5
100
AcDbLine
 10
-719.0002696063073
 20
1731.460043197628
 30
0.0
 11
-499.5002696063074
 21
1950.960043197629
 31
0.0
  0
LINE
  5
579
330
1F
100
AcDbEntity
  8
0-C_ハッチ
  6
JWW_DASHED1
 62
   120
370
     5
100
AcDbLine
 10
-719.0002696063073
 20
1745.602178821361
 30
0.0
 11
-499.5002696063074
 21
1965.102178821361
 31
0.0
  0
LINE
  5
57A
330
1F
100
AcDbEntity
  8
0-C_ハッチ
  6
JWW_DASHED1
 62
   120
370
     5
100
AcDbLine
 10
-719.0002696063073
 20
1759.744314445095
 30
0.0
 11
-499.5002696063074
 21
1979.244314445095
 31
0.0
  0
LINE
  5
57B
330
1F
100
AcDbEntity
  8
0-C_ハッチ
  6
JWW_DASHED1
 62
   120
370
     5
100
AcDbLine
 10
-719.0002696063073
 20
1773.886450068828
 30
0.0
 11
-499.5002696063074
 21
1993.386450068829
 31
0.0
  0
LINE
  5
57C
330
1F
100
AcDbEntity
  8
0-C_ハッチ
  6
JWW_DASHED1
 62
   120
370
     5
100
AcDbLine
 10
-719.0002696063073
 20
1788.028585692562
 30
0.0
 11
-499.5002696063074
 21
2007.52858569256
 31
0.0
  0
LINE
  5
57D
330
1F
100
AcDbEntity
  8
0-C_ハッチ
  6
JWW_DASHED1
 62
   120
370
     5
100
AcDbLine
 10
-719.0002696063073
 20
1802.170721316295
 30
0.0
 11
-499.5002696063074
 21
2021.670721316295
 31
0.0
  0
LINE
  5
57E
330
1F
100
AcDbEntity
  8
0-C_ハッチ
  6
JWW_DASHED1
 62
   120
370
     5
100
AcDbLine
 10
-719.0002696063073
 20
1816.312856940028
 30
0.0
 11
-499.5002696063074
 21
2035.812856940029
 31
0.0
  0
LINE
  5
57F
330
1F
100
AcDbEntity
  8
0-C_ハッチ
  6
JWW_DASHED1
 62
   120
370
     5
100
AcDbLine
 10
-719.0002696063073
 20
1830.454992563761
 30
0.0
 11
-499.5002696063074
 21
2049.954992563762
 31
0.0
  0
LINE
  5
580
330
1F
100
AcDbEntity
  8
0-C_ハッチ
  6
JWW_DASHED1
 62
   120
370
     5
100
AcDbLine
 10
-719.0002696063073
 20
1844.597128187441
 30
0.0
 11
-499.5002696063074
 21
2064.097128187441
 31
0.0
  0
LINE
  5
581
330
1F
100
AcDbEntity
  8
0-C_ハッチ
  6
JWW_DASHED1
 62
   120
370
     5
100
AcDbLine
 10
-719.0002696063073
 20
1858.739263811173
 30
0.0
 11
-499.5002696063074
 21
2078.239263811173
 31
0.0
  0
LINE
  5
582
330
1F
100
AcDbEntity
  8
0-C_ハッチ
  6
JWW_DASHED1
 62
   120
370
     5
100
AcDbLine
 10
-719.0002696063073
 20
1872.881399434907
 30
0.0
 11
-499.5002696063074
 21
2092.381399434908
 31
0.0
  0
LINE
  5
583
330
1F
100
AcDbEntity
  8
0-C_ハッチ
  6
JWW_DASHED1
 62
   120
370
     5
100
AcDbLine
 10
-719.0002696063073
 20
1887.023535058641
 30
0.0
 11
-499.5002696063074
 21
2106.523535058641
 31
0.0
  0
LINE
  5
584
330
1F
100
AcDbEntity
  8
0-C_ハッチ
  6
JWW_DASHED1
 62
   120
370
     5
100
AcDbLine
 10
-719.0002696063073
 20
1901.165670682374
 30
0.0
 11
-499.5002696063074
 21
2120.665670682374
 31
0.0
  0
LINE
  5
585
330
1F
100
AcDbEntity
  8
0-C_ハッチ
  6
JWW_DASHED1
 62
   120
370
     5
100
AcDbLine
 10
-719.0002696063073
 20
1915.307806306106
 30
0.0
 11
-499.5002696063074
 21
2134.807806306108
 31
0.0
  0
LINE
  5
586
330
1F
100
AcDbEntity
  8
0-C_ハッチ
  6
JWW_DASHED1
 62
   120
370
     5
100
AcDbLine
 10
-719.0002696063073
 20
1929.449941929841
 30
0.0
 11
-499.5002696063074
 21
2148.949941929841
 31
0.0
  0
LINE
  5
587
330
1F
100
AcDbEntity
  8
0-C_ハッチ
  6
JWW_DASHED1
 62
   120
370
     5
100
AcDbLine
 10
-719.0002696063073
 20
1943.592077553574
 30
0.0
 11
-499.5002696063074
 21
2163.092077553573
 31
0.0
  0
LINE
  5
588
330
1F
100
AcDbEntity
  8
0-C_ハッチ
  6
JWW_DASHED1
 62
   120
370
     5
100
AcDbLine
 10
-719.0002696063073
 20
1957.734213177307
 30
0.0
 11
-499.5002696063074
 21
2177.234213177307
 31
0.0
  0
LINE
  5
589
330
1F
100
AcDbEntity
  8
0-C_ハッチ
  6
JWW_DASHED1
 62
   120
370
     5
100
AcDbLine
 10
-719.0002696063073
 20
1971.876348801041
 30
0.0
 11
-499.5002696063074
 21
2191.376348801041
 31
0.0
  0
LINE
  5
58A
330
1F
100
AcDbEntity
  8
0-C_ハッチ
  6
JWW_DASHED1
 62
   120
370
     5
100
AcDbLine
 10
-719.0002696063073
 20
1986.018484424774
 30
0.0
 11
-499.5002696063074
 21
2205.518484424775
 31
0.0
  0
LINE
  5
58B
330
1F
100
AcDbEntity
  8
0-C_ハッチ
  6
JWW_DASHED1
 62
   120
370
     5
100
AcDbLine
 10
-719.0002696063073
 20
2000.160620048507
 30
0.0
 11
-499.5002696063074
 21
2219.660620048507
 31
0.0
  0
LINE
  5
58C
330
1F
100
AcDbEntity
  8
0-C_ハッチ
  6
JWW_DASHED1
 62
   120
370
     5
100
AcDbLine
 10
-719.0002696063073
 20
2014.302755672241
 30
0.0
 11
-499.5002696063074
 21
2233.80275567224
 31
0.0
  0
LINE
  5
58D
330
1F
100
AcDbEntity
  8
0-C_ハッチ
  6
JWW_DASHED1
 62
   120
370
     5
100
AcDbLine
 10
-719.0002696063073
 20
2028.444891295973
 30
0.0
 11
-499.5002696063074
 21
2247.944891295974
 31
0.0
  0
LINE
  5
58E
330
1F
100
AcDbEntity
  8
0-C_ハッチ
  6
JWW_DASHED1
 62
   120
370
     5
100
AcDbLine
 10
-719.0002696063073
 20
2042.587026919707
 30
0.0
 11
-499.5002696063074
 21
2262.087026919707
 31
0.0
  0
LINE
  5
58F
330
1F
100
AcDbEntity
  8
0-C_ハッチ
  6
JWW_DASHED1
 62
   120
370
     5
100
AcDbLine
 10
-719.0002696063073
 20
2056.72916254344
 30
0.0
 11
-499.5002696063074
 21
2276.22916254344
 31
0.0
  0
LINE
  5
590
330
1F
100
AcDbEntity
  8
0-C_ハッチ
  6
JWW_DASHED1
 62
   120
370
     5
100
AcDbLine
 10
-719.0002696063073
 20
2070.871298167173
 30
0.0
 11
-499.5002696063074
 21
2290.371298167173
 31
0.0
  0
LINE
  5
591
330
1F
100
AcDbEntity
  8
0-C_ハッチ
  6
JWW_DASHED1
 62
   120
370
     5
100
AcDbLine
 10
-719.0002696063073
 20
2085.013433790908
 30
0.0
 11
-499.5002696063074
 21
2304.513433790907
 31
0.0
  0
LINE
  5
592
330
1F
100
AcDbEntity
  8
0-C_ハッチ
  6
JWW_DASHED1
 62
   120
370
     5
100
AcDbLine
 10
-719.0002696063073
 20
2099.155569414642
 30
0.0
 11
-499.5002696063074
 21
2318.655569414641
 31
0.0
  0
LINE
  5
593
330
1F
100
AcDbEntity
  8
0-C_ハッチ
  6
JWW_DASHED1
 62
   120
370
     5
100
AcDbLine
 10
-719.0002696063073
 20
2113.297705038373
 30
0.0
 11
-499.5002696063074
 21
2332.797705038373
 31
0.0
  0
LINE
  5
594
330
1F
100
AcDbEntity
  8
0-C_ハッチ
  6
JWW_DASHED1
 62
   120
370
     5
100
AcDbLine
 10
-719.0002696063073
 20
2127.439840662054
 30
0.0
 11
-499.5002696063074
 21
2346.939840662052
 31
0.0
  0
LINE
  5
595
330
1F
100
AcDbEntity
  8
0-C_ハッチ
  6
JWW_DASHED1
 62
   120
370
     5
100
AcDbLine
 10
-719.0002696063073
 20
2141.581976285786
 30
0.0
 11
-499.5002696063074
 21
2361.081976285785
 31
0.0
  0
LINE
  5
596
330
1F
100
AcDbEntity
  8
0-C_ハッチ
  6
JWW_DASHED1
 62
   120
370
     5
100
AcDbLine
 10
-719.0002696063073
 20
2155.724111909519
 30
0.0
 11
-499.5002696063074
 21
2375.224111909519
 31
0.0
  0
LINE
  5
597
330
1F
100
AcDbEntity
  8
0-C_ハッチ
  6
JWW_DASHED1
 62
   120
370
     5
100
AcDbLine
 10
-719.0002696063073
 20
2169.866247533253
 30
0.0
 11
-499.5002696063074
 21
2389.366247533253
 31
0.0
  0
LINE
  5
598
330
1F
100
AcDbEntity
  8
0-C_ハッチ
  6
JWW_DASHED1
 62
   120
370
     5
100
AcDbLine
 10
-719.0002696063073
 20
2184.008383156985
 30
0.0
 11
-499.5002696063074
 21
2403.508383156985
 31
0.0
  0
LINE
  5
599
330
1F
100
AcDbEntity
  8
0-C_ハッチ
  6
JWW_DASHED1
 62
   120
370
     5
100
AcDbLine
 10
-719.0002696063073
 20
2198.150518780719
 30
0.0
 11
-499.5002696063074
 21
2417.650518780719
 31
0.0
  0
LINE
  5
59A
330
1F
100
AcDbEntity
  8
0-C_ハッチ
  6
JWW_DASHED1
 62
   120
370
     5
100
AcDbLine
 10
-719.0002696063073
 20
2212.292654404453
 30
0.0
 11
-499.5002696063074
 21
2431.792654404453
 31
0.0
  0
LINE
  5
59B
330
1F
100
AcDbEntity
  8
0-C_ハッチ
  6
JWW_DASHED1
 62
   120
370
     5
100
AcDbLine
 10
-719.0002696063073
 20
2226.434790028185
 30
0.0
 11
-499.5002696063074
 21
2445.934790028185
 31
0.0
  0
LINE
  5
59C
330
1F
100
AcDbEntity
  8
0-C_ハッチ
  6
JWW_DASHED1
 62
   120
370
     5
100
AcDbLine
 10
-719.0002696063073
 20
2240.576925651921
 30
0.0
 11
-499.5002696063074
 21
2460.076925651918
 31
0.0
  0
LINE
  5
59D
330
1F
100
AcDbEntity
  8
0-C_ハッチ
  6
JWW_DASHED1
 62
   120
370
     5
100
AcDbLine
 10
-719.0002696063073
 20
2254.719061275653
 30
0.0
 11
-499.5002696063074
 21
2474.219061275652
 31
0.0
  0
LINE
  5
59E
330
1F
100
AcDbEntity
  8
0-C_ハッチ
  6
JWW_DASHED1
 62
   120
370
     5
100
AcDbLine
 10
-719.0002696063073
 20
2268.861196899386
 30
0.0
 11
-499.5002696063074
 21
2488.361196899386
 31
0.0
  0
LINE
  5
59F
330
1F
100
AcDbEntity
  8
0-C_ハッチ
  6
JWW_DASHED1
 62
   120
370
     5
100
AcDbLine
 10
-719.0002696063073
 20
2283.00333252312
 30
0.0
 11
-499.5002696063074
 21
2502.50333252312
 31
0.0
  0
LINE
  5
5A0
330
1F
100
AcDbEntity
  8
0-C_ハッチ
  6
JWW_DASHED1
 62
   120
370
     5
100
AcDbLine
 10
-719.0002696063073
 20
2297.145468146854
 30
0.0
 11
-499.5002696063074
 21
2516.645468146853
 31
0.0
  0
LINE
  5
5A1
330
1F
100
AcDbEntity
  8
0-C_ハッチ
  6
JWW_DASHED1
 62
   120
370
     5
100
AcDbLine
 10
-719.0002696063073
 20
2311.287603770585
 30
0.0
 11
-499.5002696063074
 21
2530.787603770586
 31
0.0
  0
LINE
  5
5A2
330
1F
100
AcDbEntity
  8
0-C_ハッチ
  6
JWW_DASHED1
 62
   120
370
     5
100
AcDbLine
 10
-719.0002696063073
 20
2325.42973939432
 30
0.0
 11
-499.5002696063074
 21
2544.929739394319
 31
0.0
  0
LINE
  5
5A3
330
1F
100
AcDbEntity
  8
0-C_ハッチ
  6
JWW_DASHED1
 62
   120
370
     5
100
AcDbLine
 10
-719.0002696063073
 20
2339.571875018053
 30
0.0
 11
-499.5002696063074
 21
2559.071875018053
 31
0.0
  0
LINE
  5
5A4
330
1F
100
AcDbEntity
  8
0-C_ハッチ
  6
JWW_DASHED1
 62
   120
370
     5
100
AcDbLine
 10
-719.0002696063073
 20
2353.714010641787
 30
0.0
 11
-499.5002696063074
 21
2573.214010641786
 31
0.0
  0
LINE
  5
5A5
330
1F
100
AcDbEntity
  8
0-C_ハッチ
  6
JWW_DASHED1
 62
   120
370
     5
100
AcDbLine
 10
-719.0002696063073
 20
2367.856146265519
 30
0.0
 11
-499.5002696063074
 21
2587.356146265519
 31
0.0
  0
LINE
  5
5A6
330
1F
100
AcDbEntity
  8
0-C_ハッチ
  6
JWW_DASHED1
 62
   120
370
     5
100
AcDbLine
 10
-719.0002696063073
 20
2381.998281889253
 30
0.0
 11
-499.5002696063074
 21
2601.498281889253
 31
0.0
  0
LINE
  5
5A7
330
1F
100
AcDbEntity
  8
0-C_ハッチ
  6
JWW_DASHED1
 62
   120
370
     5
100
AcDbLine
 10
-719.0002696063073
 20
2396.140417512987
 30
0.0
 11
-499.5002696063074
 21
2615.640417512986
 31
0.0
  0
LINE
  5
5A8
330
1F
100
AcDbEntity
  8
0-C_ハッチ
  6
JWW_DASHED1
 62
   120
370
     5
100
AcDbLine
 10
-719.0002696063073
 20
2410.282553136719
 30
0.0
 11
-499.5002696063074
 21
2629.782553136719
 31
0.0
  0
LINE
  5
5A9
330
1F
100
AcDbEntity
  8
0-C_ハッチ
  6
JWW_DASHED1
 62
   120
370
     5
100
AcDbLine
 10
-719.0002696063073
 20
2424.424688760453
 30
0.0
 11
-499.5002696063074
 21
2643.924688760453
 31
0.0
  0
LINE
  5
5AA
330
1F
100
AcDbEntity
  8
0-C_ハッチ
  6
JWW_DASHED1
 62
   120
370
     5
100
AcDbLine
 10
-719.0002696063073
 20
2438.566824384131
 30
0.0
 11
-499.5002696063074
 21
2658.066824384131
 31
0.0
  0
LINE
  5
5AB
330
1F
100
AcDbEntity
  8
0-C_ハッチ
  6
JWW_DASHED1
 62
   120
370
     5
100
AcDbLine
 10
-719.0002696063073
 20
2452.708960007866
 30
0.0
 11
-499.5002696063074
 21
2672.208960007866
 31
0.0
  0
LINE
  5
5AC
330
1F
100
AcDbEntity
  8
0-C_ハッチ
  6
JWW_DASHED1
 62
   120
370
     5
100
AcDbLine
 10
-719.0002696063073
 20
2466.851095631599
 30
0.0
 11
-499.5002696063074
 21
2686.351095631598
 31
0.0
  0
LINE
  5
5AD
330
1F
100
AcDbEntity
  8
0-C_ハッチ
  6
JWW_DASHED1
 62
   120
370
     5
100
AcDbLine
 10
-719.0002696063073
 20
2480.993231255332
 30
0.0
 11
-499.5002696063074
 21
2700.493231255331
 31
0.0
  0
LINE
  5
5AE
330
1F
100
AcDbEntity
  8
0-C_ハッチ
  6
JWW_DASHED1
 62
   120
370
     5
100
AcDbLine
 10
-719.0002696063073
 20
2495.135366879065
 30
0.0
 11
-499.5002696063074
 21
2714.635366879065
 31
0.0
  0
LINE
  5
5AF
330
1F
100
AcDbEntity
  8
0-C_ハッチ
  6
JWW_DASHED1
 62
   120
370
     5
100
AcDbLine
 10
-719.0002696063073
 20
2509.277502502799
 30
0.0
 11
-499.5002696063074
 21
2728.777502502798
 31
0.0
  0
LINE
  5
5B0
330
1F
100
AcDbEntity
  8
0-C_ハッチ
  6
JWW_DASHED1
 62
   120
370
     5
100
AcDbLine
 10
-719.0002696063073
 20
2523.419638126531
 30
0.0
 11
-499.5002696063074
 21
2742.919638126531
 31
0.0
  0
LINE
  5
5B1
330
1F
100
AcDbEntity
  8
0-C_ハッチ
  6
JWW_DASHED1
 62
   120
370
     5
100
AcDbLine
 10
-719.0002696063073
 20
2537.561773750266
 30
0.0
 11
-499.5002696063074
 21
2757.061773750265
 31
0.0
  0
LINE
  5
5B2
330
1F
100
AcDbEntity
  8
0-C_ハッチ
  6
JWW_DASHED1
 62
   120
370
     5
100
AcDbLine
 10
-719.0002696063073
 20
2551.703909373998
 30
0.0
 11
-499.5002696063074
 21
2771.203909373998
 31
0.0
  0
LINE
  5
5B3
330
1F
100
AcDbEntity
  8
0-C_ハッチ
  6
JWW_DASHED1
 62
   120
370
     5
100
AcDbLine
 10
-719.0002696063073
 20
2565.846044997731
 30
0.0
 11
-499.5002696063074
 21
2785.346044997731
 31
0.0
  0
LINE
  5
5B4
330
1F
100
AcDbEntity
  8
0-C_ハッチ
  6
JWW_DASHED1
 62
   120
370
     5
100
AcDbLine
 10
-719.0002696063073
 20
2579.988180621465
 30
0.0
 11
-499.5002696063074
 21
2799.488180621465
 31
0.0
  0
LINE
  5
5B5
330
1F
100
AcDbEntity
  8
0-C_ハッチ
  6
JWW_DASHED1
 62
   120
370
     5
100
AcDbLine
 10
-719.0002696063073
 20
2594.130316245198
 30
0.0
 11
-499.5002696063074
 21
2813.630316245198
 31
0.0
  0
LINE
  5
5B6
330
1F
100
AcDbEntity
  8
0-C_ハッチ
  6
JWW_DASHED1
 62
   120
370
     5
100
AcDbLine
 10
-719.0002696063073
 20
2608.272451868932
 30
0.0
 11
-499.5002696063074
 21
2827.772451868932
 31
0.0
  0
LINE
  5
5B7
330
1F
100
AcDbEntity
  8
0-C_ハッチ
  6
JWW_DASHED1
 62
   120
370
     5
100
AcDbLine
 10
-719.0002696063073
 20
2622.414587492665
 30
0.0
 11
-499.5002696063074
 21
2841.914587492664
 31
0.0
  0
LINE
  5
5B8
330
1F
100
AcDbEntity
  8
0-C_ハッチ
  6
JWW_DASHED1
 62
   120
370
     5
100
AcDbLine
 10
-719.0002696063073
 20
2636.556723116398
 30
0.0
 11
-499.5002696063074
 21
2856.056723116398
 31
0.0
  0
LINE
  5
5B9
330
1F
100
AcDbEntity
  8
0-C_ハッチ
  6
JWW_DASHED1
 62
   120
370
     5
100
AcDbLine
 10
-719.0002696063073
 20
2650.698858740132
 30
0.0
 11
-499.5002696063074
 21
2870.198858740132
 31
0.0
  0
LINE
  5
5BA
330
1F
100
AcDbEntity
  8
0-C_ハッチ
  6
JWW_DASHED1
 62
   120
370
     5
100
AcDbLine
 10
-719.0002696063073
 20
2664.840994363866
 30
0.0
 11
-499.5002696063074
 21
2884.340994363864
 31
0.0
  0
LINE
  5
5BB
330
1F
100
AcDbEntity
  8
0-C_ハッチ
  6
JWW_DASHED1
 62
   120
370
     5
100
AcDbLine
 10
-719.0002696063073
 20
2678.983129987598
 30
0.0
 11
-499.5002696063074
 21
2898.483129987598
 31
0.0
  0
LINE
  5
5BC
330
1F
100
AcDbEntity
  8
0-C_ハッチ
  6
JWW_DASHED1
 62
   120
370
     5
100
AcDbLine
 10
-719.0002696063073
 20
2693.125265611332
 30
0.0
 11
-499.5002696063074
 21
2912.625265611332
 31
0.0
  0
LINE
  5
5BD
330
1F
100
AcDbEntity
  8
0-C_ハッチ
  6
JWW_DASHED1
 62
   120
370
     5
100
AcDbLine
 10
-719.0002696063073
 20
2707.267401235066
 30
0.0
 11
-499.5002696063074
 21
2926.767401235065
 31
0.0
  0
LINE
  5
5BE
330
1F
100
AcDbEntity
  8
0-C_ハッチ
  6
JWW_DASHED1
 62
   120
370
     5
100
AcDbLine
 10
-719.0002696063073
 20
2721.409536858797
 30
0.0
 11
-499.5002696063074
 21
2940.909536858798
 31
0.0
  0
LINE
  5
5BF
330
1F
100
AcDbEntity
  8
0-C_ハッチ
  6
JWW_DASHED1
 62
   120
370
     5
100
AcDbLine
 10
-719.0002696063073
 20
2735.551672482478
 30
0.0
 11
-499.5002696063074
 21
2955.051672482476
 31
0.0
  0
LINE
  5
5C0
330
1F
100
AcDbEntity
  8
0-C_ハッチ
  6
JWW_DASHED1
 62
   120
370
     5
100
AcDbLine
 10
-719.0002696063073
 20
2749.69380810621
 30
0.0
 11
-499.5002696063074
 21
2969.19380810621
 31
0.0
  0
LINE
  5
5C1
330
1F
100
AcDbEntity
  8
0-C_ハッチ
  6
JWW_DASHED1
 62
   120
370
     5
100
AcDbLine
 10
-719.0002696063073
 20
2763.835943729944
 30
0.0
 11
-499.5002696063074
 21
2983.335943729943
 31
0.0
  0
LINE
  5
5C2
330
1F
100
AcDbEntity
  8
0-C_ハッチ
  6
JWW_DASHED1
 62
   120
370
     5
100
AcDbLine
 10
-719.0002696063073
 20
2777.978079353677
 30
0.0
 11
-499.5002696063074
 21
2997.478079353677
 31
0.0
  0
LINE
  5
5C3
330
1F
100
AcDbEntity
  8
0-C_ハッチ
  6
JWW_DASHED1
 62
   120
370
     5
100
AcDbLine
 10
-719.0002696063073
 20
2792.12021497741
 30
0.0
 11
-499.5002696063074
 21
3011.62021497741
 31
0.0
  0
LINE
  5
5C4
330
1F
100
AcDbEntity
  8
0-C_ハッチ
  6
JWW_DASHED1
 62
   120
370
     5
100
AcDbLine
 10
-719.0002696063073
 20
2806.262350601143
 30
0.0
 11
-499.5002696063074
 21
3025.762350601143
 31
0.0
  0
LINE
  5
5C5
330
1F
100
AcDbEntity
  8
0-C_ハッチ
  6
JWW_DASHED1
 62
   120
370
     5
100
AcDbLine
 10
-719.0002696063073
 20
2820.404486224878
 30
0.0
 11
-499.5002696063074
 21
3039.904486224878
 31
0.0
  0
LINE
  5
5C6
330
1F
100
AcDbEntity
  8
0-C_ハッチ
  6
JWW_DASHED1
 62
   120
370
     5
100
AcDbLine
 10
-719.0002696063073
 20
2834.54662184861
 30
0.0
 11
-499.5002696063074
 21
3054.04662184861
 31
0.0
  0
LINE
  5
5C7
330
1F
100
AcDbEntity
  8
0-C_ハッチ
  6
JWW_DASHED1
 62
   120
370
     5
100
AcDbLine
 10
-719.0002696063073
 20
2848.688757472345
 30
0.0
 11
-499.5002696063074
 21
3068.188757472343
 31
0.0
  0
LINE
  5
5C8
330
1F
100
AcDbEntity
  8
0-C_ハッチ
  6
JWW_DASHED1
 62
   120
370
     5
100
AcDbLine
 10
-719.0002696063073
 20
2862.830893096078
 30
0.0
 11
-499.5002696063074
 21
3082.330893096078
 31
0.0
  0
LINE
  5
5C9
330
1F
100
AcDbEntity
  8
0-C_ハッチ
  6
JWW_DASHED1
 62
   120
370
     5
100
AcDbLine
 10
-719.0002696063073
 20
2876.97302871981
 30
0.0
 11
-499.5002696063074
 21
3096.47302871981
 31
0.0
  0
LINE
  5
5CA
330
1F
100
AcDbEntity
  8
0-C_ハッチ
  6
JWW_DASHED1
 62
   120
370
     5
100
AcDbLine
 10
-719.0002696063073
 20
2891.115164343544
 30
0.0
 11
-499.5002696063074
 21
3110.615164343544
 31
0.0
  0
LINE
  5
5CB
330
1F
100
AcDbEntity
  8
0-C_ハッチ
  6
JWW_DASHED1
 62
   120
370
     5
100
AcDbLine
 10
-719.0002696063073
 20
2905.257299967278
 30
0.0
 11
-499.5002696063074
 21
3124.757299967278
 31
0.0
  0
LINE
  5
5CC
330
1F
100
AcDbEntity
  8
0-C_ハッチ
  6
JWW_DASHED1
 62
   120
370
     5
100
AcDbLine
 10
-719.0002696063073
 20
2919.39943559101
 30
0.0
 11
-499.5002696063074
 21
3138.899435591011
 31
0.0
  0
LINE
  5
5CD
330
1F
100
AcDbEntity
  8
0-C_ハッチ
  6
JWW_DASHED1
 62
   120
370
     5
100
AcDbLine
 10
-719.0002696063073
 20
2933.541571214744
 30
0.0
 11
-499.5002696063074
 21
3153.041571214744
 31
0.0
  0
LINE
  5
5CE
330
1F
100
AcDbEntity
  8
0-C_ハッチ
  6
JWW_DASHED1
 62
   120
370
     5
100
AcDbLine
 10
-719.0002696063073
 20
2947.683706838478
 30
0.0
 11
-499.5002696063074
 21
3167.183706838478
 31
0.0
  0
LINE
  5
5CF
330
1F
100
AcDbEntity
  8
0-C_ハッチ
  6
JWW_DASHED1
 62
   120
370
     5
100
AcDbLine
 10
-719.0002696063073
 20
2961.825842462211
 30
0.0
 11
-499.5002696063074
 21
3181.325842462209
 31
0.0
  0
LINE
  5
5D0
330
1F
100
AcDbEntity
  8
0-C_ハッチ
  6
JWW_DASHED1
 62
   120
370
     5
100
AcDbLine
 10
-719.0002696063073
 20
2975.967978085944
 30
0.0
 11
-499.5002696063074
 21
3195.467978085944
 31
0.0
  0
LINE
  5
5D1
330
1F
100
AcDbEntity
  8
0-C_ハッチ
  6
JWW_DASHED1
 62
   120
370
     5
100
AcDbLine
 10
-719.0002696063073
 20
2990.110113709677
 30
0.0
 11
-499.5002696063074
 21
3209.610113709678
 31
0.0
  0
LINE
  5
5D2
330
1F
100
AcDbEntity
  8
0-C_ハッチ
  6
JWW_DASHED1
 62
   120
370
     5
100
AcDbLine
 10
-719.0002696063073
 20
3004.252249333411
 30
0.0
 11
-499.5002696063074
 21
3223.75224933341
 31
0.0
  0
LINE
  5
5D3
330
1F
100
AcDbEntity
  8
0-C_ハッチ
  6
JWW_DASHED1
 62
   120
370
     5
100
AcDbLine
 10
-719.0002696063073
 20
3018.394384957144
 30
0.0
 11
-499.5002696063074
 21
3237.894384957144
 31
0.0
  0
ENDSEC
  0
SECTION
  2
OBJECTS
  0
DICTIONARY
  5
C
330
0
100
AcDbDictionary
281
     1
  3
ACAD_GROUP
350
D
  3
ACAD_LAYOUT
350
1A
  3
ACAD_MATERIAL
350
3B
  3
ACAD_MLEADERSTYLE
350
5D5
  3
ACAD_MLINESTYLE
350
17
  3
ACAD_PLOTSETTINGS
350
19
  3
ACAD_PLOTSTYLENAME
350
E
  3
ACAD_TABLESTYLE
350
5D4
  3
ACAD_VISUALSTYLE
350
2A
  0
DICTIONARY
  5
D
102
{ACAD_REACTORS
330
C
102
}
330
C
100
AcDbDictionary
281
     1
  0
DICTIONARY
  5
1A
102
{ACAD_REACTORS
330
C
102
}
330
C
100
AcDbDictionary
281
     1
  3
Layout1
350
1E
  3
Layout2
350
26
  3
Model
350
22
  0
DICTIONARY
  5
3B
102
{ACAD_REACTORS
330
C
102
}
330
C
100
AcDbDictionary
281
     1
  3
ByBlock
350
3D
  3
ByLayer
350
3C
  3
Global
350
3E
  0
DICTIONARY
  5
5D5
102
{ACAD_REACTORS
330
C
102
}
330
C
100
AcDbDictionary
281
     1
  0
DICTIONARY
  5
17
102
{ACAD_REACTORS
330
C
102
}
330
C
100
AcDbDictionary
281
     1
  3
Standard
350
18
  0
DICTIONARY
  5
19
102
{ACAD_REACTORS
330
C
102
}
330
C
100
AcDbDictionary
281
     1
  0
ACDBDICTIONARYWDFLT
  5
E
102
{ACAD_REACTORS
330
C
102
}
330
C
100
AcDbDictionary
281
     1
  3
Normal
350
F
100
AcDbDictionaryWithDefault
340
F
  0
DICTIONARY
  5
5D4
102
{ACAD_REACTORS
330
C
102
}
330
C
100
AcDbDictionary
281
     1
  0
DICTIONARY
  5
2A
102
{ACAD_REACTORS
330
C
102
}
330
C
100
AcDbDictionary
281
     1
  3
2dWireframe
350
2F
  3
3D Hidden
350
31
  3
3dWireframe
350
30
  3
Basic
350
32
  3
Brighten
350
36
  3
ColorChange
350
3A
  3
Conceptual
350
34
  3
Dim
350
35
  3
Facepattern
350
39
  3
Flat
350
2B
  3
FlatWithEdges
350
2C
  3
Gouraud
350
2D
  3
GouraudWithEdges
350
2E
  3
Linepattern
350
38
  3
Realistic
350
33
  3
Thicken
350
37
  0
LAYOUT
  5
1E
102
{ACAD_REACTORS
330
1A
102
}
330
1A
100
AcDbPlotSettings
  1

  2
none_device
  4

  6

 40
0.0
 41
0.0
 42
0.0
 43
0.0
 44
0.0
 45
0.0
 46
0.0
 47
0.0
 48
0.0
 49
0.0
140
0.0
141
0.0
142
1.0
143
1.0
 70
   688
 72
     0
 73
     0
 74
     5
  7

 75
    16
 76
     0
 77
     5
 78
   300
147
1.0
148
0.0
149
0.0
100
AcDbLayout
  1
Layout1
 70
     1
 71
     1
 10
0.0
 20
0.0
 11
420.0
 21
297.0
 12
0.0
 22
0.0
 32
0.0
 14
1.000000000000000E+20
 24
1.000000000000000E+20
 34
1.000000000000000E+20
 15
-1.000000000000000E+20
 25
-1.000000000000000E+20
 35
-1.000000000000000E+20
146
0.0
 13
0.0
 23
0.0
 33
0.0
 16
1.0
 26
0.0
 36
0.0
 17
0.0
 27
1.0
 37
0.0
 76
     0
330
1B
  0
LAYOUT
  5
26
102
{ACAD_REACTORS
330
1A
102
}
330
1A
100
AcDbPlotSettings
  1

  2
none_device
  4

  6

 40
0.0
 41
0.0
 42
0.0
 43
0.0
 44
0.0
 45
0.0
 46
0.0
 47
0.0
 48
0.0
 49
0.0
140
0.0
141
0.0
142
1.0
143
1.0
 70
   688
 72
     0
 73
     0
 74
     5
  7

 75
    16
 76
     0
 77
     5
 78
   300
147
1.0
148
0.0
149
0.0
100
AcDbLayout
  1
Layout2
 70
     1
 71
     2
 10
0.0
 20
0.0
 11
0.0
 21
0.0
 12
0.0
 22
0.0
 32
0.0
 14
0.0
 24
0.0
 34
0.0
 15
0.0
 25
0.0
 35
0.0
146
0.0
 13
0.0
 23
0.0
 33
0.0
 16
1.0
 26
0.0
 36
0.0
 17
0.0
 27
1.0
 37
0.0
 76
     0
330
23
  0
LAYOUT
  5
22
102
{ACAD_REACTORS
330
1A
102
}
330
1A
100
AcDbPlotSettings
  1

  2
none_device
  4

  6

 40
0.0
 41
0.0
 42
0.0
 43
0.0
 44
0.0
 45
0.0
 46
0.0
 47
0.0
 48
0.0
 49
0.0
140
0.0
141
0.0
142
1.0
143
1.0
 70
  1712
 72
     0
 73
     0
 74
     0
  7

 75
     0
 76
     0
 77
     5
 78
   300
147
1.0
148
0.0
149
0.0
100
AcDbLayout
  1
Model
 70
     1
 71
     0
 10
-6300.0
 20
-4455.0
 11
6300.0
 21
4455.0
 12
0.0
 22
0.0
 32
0.0
 14
-6300.0
 24
-4455.0
 34
0.0
 15
6300.0
 25
4455.0
 35
0.0
146
0.0
 13
0.0
 23
0.0
 33
0.0
 16
1.0
 26
0.0
 36
0.0
 17
0.0
 27
1.0
 37
0.0
 76
     0
330
1F
331
29
  0
MATERIAL
  5
3D
102
{ACAD_REACTORS
330
3B
102
}
330
3B
100
AcDbMaterial
  1
ByBlock
 72
     1
 94
      127
  0
MATERIAL
  5
3C
102
{ACAD_REACTORS
330
3B
102
}
330
3B
100
AcDbMaterial
  1
ByLayer
 72
     1
 94
      127
  0
MATERIAL
  5
3E
102
{ACAD_REACTORS
330
3B
102
}
330
3B
100
AcDbMaterial
  1
Global
 72
     1
 94
      127
  0
MLINESTYLE
  5
18
102
{ACAD_REACTORS
330
17
102
}
330
17
100
AcDbMlineStyle
  2
Standard
 70
     0
  3

 62
   256
 51
90.0
 52
90.0
 71
     2
 49
0.5
 62
   256
  6
BYLAYER
 49
-0.5
 62
   256
  6
BYLAYER
  0
ACDBPLACEHOLDER
  5
F
102
{ACAD_REACTORS
330
E
102
}
330
E
  0
VISUALSTYLE
  5
2F
102
{ACAD_REACTORS
330
2A
102
}
330
2A
100
AcDbVisualStyle
  2
2dWireframe
 70
     4
177
     2
291
     0
 71
     0
176
     1
 72
     2
176
     1
 73
     0
176
     1
 90
        0
176
     1
 40
-0.6
176
     1
 41
-30.0
176
     1
 62
     5
 63
     7
421
 16777215
176
     1
 74
     1
176
     1
 91
        4
176
     1
 64
     7
176
     1
 65
   257
176
     1
 75
     1
176
     1
175
     1
176
     1
 42
1.0
176
     1
 92
        0
176
     1
 66
   257
176
     1
 43
1.0
176
     1
 76
     1
176
     1
 77
     6
176
     1
 78
     2
176
     1
 67
     7
176
     1
 79
     5
176
     1
170
     0
176
     1
171
     0
176
     1
290
     0
176
     1
 93
        1
176
     1
 44
0.0
176
     1
173
     0
176
     1
  0
VISUALSTYLE
  5
31
102
{ACAD_REACTORS
330
2A
102
}
330
2A
100
AcDbVisualStyle
  2
3D Hidden
 70
     6
177
     2
291
     0
 71
     1
176
     1
 72
     2
176
     1
 73
     2
176
     1
 90
        0
176
     1
 40
-0.6
176
     1
 41
-30.0
176
     1
 62
     5
 63
     7
421
 16777215
176
     1
 74
     2
176
     1
 91
        2
176
     1
 64
     7
176
     1
 65
   257
176
     1
 75
     2
176
     1
175
     1
176
     1
 42
40.0
176
     1
 92
        0
176
     1
 66
   257
176
     1
 43
1.0
176
     1
 76
     1
176
     1
 77
     6
176
     1
 78
     2
176
     1
 67
     7
176
     1
 79
     3
176
     1
170
     0
176
     1
171
     0
176
     1
290
     0
176
     1
 93
        1
176
     1
 44
0.0
176
     1
173
     0
176
     1
  0
VISUALSTYLE
  5
30
102
{ACAD_REACTORS
330
2A
102
}
330
2A
100
AcDbVisualStyle
  2
3dWireframe
 70
     5
177
     2
291
     0
 71
     0
176
     1
 72
     2
176
     1
 73
     0
176
     1
 90
        0
176
     1
 40
-0.6
176
     1
 41
-30.0
176
     1
 62
     5
 63
     7
421
 16777215
176
     1
 74
     1
176
     1
 91
        4
176
     1
 64
     7
176
     1
 65
   257
176
     1
 75
     1
176
     1
175
     1
176
     1
 42
1.0
176
     1
 92
        0
176
     1
 66
   257
176
     1
 43
1.0
176
     1
 76
     1
176
     1
 77
     6
176
     1
 78
     2
176
     1
 67
     7
176
     1
 79
     5
176
     1
170
     0
176
     1
171
     0
176
     1
290
     0
176
     1
 93
        1
176
     1
 44
0.0
176
     1
173
     0
176
     1
  0
VISUALSTYLE
  5
32
102
{ACAD_REACTORS
330
2A
102
}
330
2A
100
AcDbVisualStyle
  2
Basic
 70
     7
177
     2
291
     1
 71
     1
176
     1
 72
     0
176
     1
 73
     1
176
     1
 90
        0
176
     1
 40
-0.6
176
     1
 41
-30.0
176
     1
 62
     5
 63
     7
421
 16777215
176
     1
 74
     0
176
     1
 91
        4
176
     1
 64
     7
176
     1
 65
   257
176
     1
 75
     1
176
     1
175
     1
176
     1
 42
1.0
176
     1
 92
        8
176
     1
 66
     7
176
     1
 43
1.0
176
     1
 76
     1
176
     1
 77
     6
176
     1
 78
     2
176
     1
 67
     7
176
     1
 79
     5
176
     1
170
     0
176
     1
171
     0
176
     1
290
     0
176
     1
 93
        1
176
     1
 44
0.0
176
     1
173
     0
176
     1
  0
VISUALSTYLE
  5
36
102
{ACAD_REACTORS
330
2A
102
}
330
2A
100
AcDbVisualStyle
  2
Brighten
 70
    12
177
     2
291
     1
 71
     2
176
     1
 72
     2
176
     1
 73
     0
176
     1
 90
        0
176
     1
 40
-0.6
176
     1
 41
-30.0
176
     1
 62
     5
 63
     7
421
 16777215
176
     1
 74
     1
176
     1
 91
        4
176
     1
 64
     7
176
     1
 65
   257
176
     1
 75
     1
176
     1
175
     1
176
     1
 42
1.0
176
     1
 92
        8
176
     1
 66
     7
176
     1
 43
1.0
176
     1
 76
     1
176
     1
 77
     6
176
     1
 78
     2
176
     1
 67
     7
176
     1
 79
     5
176
     1
170
     0
176
     1
171
     0
176
     1
290
     0
176
     1
 93
        1
176
     1
 44
50.0
176
     1
173
     0
176
     1
  0
VISUALSTYLE
  5
3A
102
{ACAD_REACTORS
330
2A
102
}
330
2A
100
AcDbVisualStyle
  2
ColorChange
 70
    16
177
     2
291
     1
 71
     2
176
     1
 72
     2
176
     1
 73
     3
176
     1
 90
        0
176
     1
 40
-0.6
176
     1
 41
-30.0
176
     1
 62
     5
 63
     8
421
  8421504
176
     1
 74
     1
176
     1
 91
        4
176
     1
 64
     7
176
     1
 65
   257
176
     1
 75
     1
176
     1
175
     1
176
     1
 42
1.0
176
     1
 92
        8
176
     1
 66
     8
424
  8421504
176
     1
 43
1.0
176
     1
 76
     1
176
     1
 77
     6
176
     1
 78
     2
176
     1
 67
     7
176
     1
 79
     5
176
     1
170
     0
176
     1
171
     0
176
     1
290
     0
176
     1
 93
        1
176
     1
 44
0.0
176
     1
173
     0
176
     1
  0
VISUALSTYLE
  5
34
102
{ACAD_REACTORS
330
2A
102
}
330
2A
100
AcDbVisualStyle
  2
Conceptual
 70
     9
177
     2
291
     0
 71
     3
176
     1
 72
     2
176
     1
 73
     0
176
     1
 90
        0
176
     1
 40
-0.6
176
     1
 41
-30.0
176
     1
 62
     5
 63
     7
421
 16777215
176
     1
 74
     2
176
     1
 91
        2
176
     1
 64
     7
176
     1
 65
   257
176
     1
 75
     1
176
     1
175
     1
176
     1
 42
40.0
176
     1
 92
        8
176
     1
 66
     7
176
     1
 43
1.0
176
     1
 76
     1
176
     1
 77
     6
176
     1
 78
     2
176
     1
 67
     7
176
     1
 79
     3
176
     1
170
     0
176
     1
171
     0
176
     1
290
     0
176
     1
 93
        1
176
     1
 44
0.0
176
     1
173
     0
176
     1
  0
VISUALSTYLE
  5
35
102
{ACAD_REACTORS
330
2A
102
}
330
2A
100
AcDbVisualStyle
  2
Dim
 70
    11
177
     2
291
     1
 71
     2
176
     1
 72
     2
176
     1
 73
     0
176
     1
 90
        0
176
     1
 40
-0.6
176
     1
 41
-30.0
176
     1
 62
     5
 63
     7
421
 16777215
176
     1
 74
     1
176
     1
 91
        4
176
     1
 64
     7
176
     1
 65
   257
176
     1
 75
     1
176
     1
175
     1
176
     1
 42
1.0
176
     1
 92
        8
176
     1
 66
     7
176
     1
 43
1.0
176
     1
 76
     1
176
     1
 77
     6
176
     1
 78
     2
176
     1
 67
     7
176
     1
 79
     5
176
     1
170
     0
176
     1
171
     0
176
     1
290
     0
176
     1
 93
        1
176
     1
 44
-50.0
176
     1
173
     0
176
     1
  0
VISUALSTYLE
  5
39
102
{ACAD_REACTORS
330
2A
102
}
330
2A
100
AcDbVisualStyle
  2
Facepattern
 70
    15
177
     2
291
     1
 71
     2
176
     1
 72
     2
176
     1
 73
     0
176
     1
 90
        0
176
     1
 40
-0.6
176
     1
 41
-30.0
176
     1
 62
     5
 63
     7
421
 16777215
176
     1
 74
     1
176
     1
 91
        4
176
     1
 64
     7
176
     1
 65
   257
176
     1
 75
     1
176
     1
175
     1
176
     1
 42
1.0
176
     1
 92
        8
176
     1
 66
     7
176
     1
 43
1.0
176
     1
 76
     1
176
     1
 77
     6
176
     1
 78
     2
176
     1
 67
     7
176
     1
 79
     5
176
     1
170
     0
176
     1
171
     0
176
     1
290
     0
176
     1
 93
        1
176
     1
 44
0.0
176
     1
173
     0
176
     1
  0
VISUALSTYLE
  5
2B
102
{ACAD_REACTORS
330
2A
102
}
330
2A
100
AcDbVisualStyle
  2
Flat
 70
     0
177
     2
291
     1
 71
     2
176
     1
 72
     1
176
     1
 73
     1
176
     1
 90
        2
176
     1
 40
-0.6
176
     1
 41
30.0
176
     1
 62
     5
 63
     7
421
 16777215
176
     1
 74
     0
176
     1
 91
        4
176
     1
 64
     7
176
     1
 65
   257
176
     1
 75
     1
176
     1
175
     1
176
     1
 42
1.0
176
     1
 92
        8
176
     1
 66
     7
176
     1
 43
1.0
176
     1
 76
     1
176
     1
 77
     6
176
     1
 78
     2
176
     1
 67
     7
176
     1
 79
     5
176
     1
170
     0
176
     1
171
     0
176
     1
290
     0
176
     1
 93
       13
176
     1
 44
0.0
176
     1
173
     0
176
     1
  0
VISUALSTYLE
  5
2C
102
{ACAD_REACTORS
330
2A
102
}
330
2A
100
AcDbVisualStyle
  2
FlatWithEdges
 70
     1
177
     2
291
     1
 71
     2
176
     1
 72
     1
176
     1
 73
     1
176
     1
 90
        2
176
     1
 40
-0.6
176
     1
 41
30.0
176
     1
 62
     5
 63
     7
421
 16777215
176
     1
 74
     1
176
     1
 91
        4
176
     1
 64
     7
176
     1
 65
   257
176
     1
 75
     1
176
     1
175
     1
176
     1
 42
1.0
176
     1
 92
        0
176
     1
 66
   257
176
     1
 43
1.0
176
     1
 76
     1
176
     1
 77
     6
176
     1
 78
     2
176
     1
 67
     7
176
     1
 79
     5
176
     1
170
     0
176
     1
171
     0
176
     1
290
     0
176
     1
 93
       13
176
     1
 44
0.0
176
     1
173
     0
176
     1
  0
VISUALSTYLE
  5
2D
102
{ACAD_REACTORS
330
2A
102
}
330
2A
100
AcDbVisualStyle
  2
Gouraud
 70
     2
177
     2
291
     1
 71
     2
176
     1
 72
     2
176
     1
 73
     1
176
     1
 90
        2
176
     1
 40
-0.6
176
     1
 41
30.0
176
     1
 62
     5
 63
     7
421
 16777215
176
     1
 74
     0
176
     1
 91
        4
176
     1
 64
     7
176
     1
 65
   257
176
     1
 75
     1
176
     1
175
     1
176
     1
 42
1.0
176
     1
 92
        0
176
     1
 66
     7
176
     1
 43
1.0
176
     1
 76
     1
176
     1
 77
     6
176
     1
 78
     2
176
     1
 67
     7
176
     1
 79
     5
176
     1
170
     0
176
     1
171
     0
176
     1
290
     0
176
     1
 93
       13
176
     1
 44
0.0
176
     1
173
     0
176
     1
  0
VISUALSTYLE
  5
2E
102
{ACAD_REACTORS
330
2A
102
}
330
2A
100
AcDbVisualStyle
  2
GouraudWithEdges
 70
     3
177
     2
291
     1
 71
     2
176
     1
 72
     2
176
     1
 73
     1
176
     1
 90
        2
176
     1
 40
-0.6
176
     1
 41
30.0
176
     1
 62
     5
 63
     7
421
 16777215
176
     1
 74
     1
176
     1
 91
        4
176
     1
 64
     7
176
     1
 65
   257
176
     1
 75
     1
176
     1
175
     1
176
     1
 42
1.0
176
     1
 92
        0
176
     1
 66
   257
176
     1
 43
1.0
176
     1
 76
     1
176
     1
 77
     6
176
     1
 78
     2
176
     1
 67
     7
176
     1
 79
     5
176
     1
170
     0
176
     1
171
     0
176
     1
290
     0
176
     1
 93
       13
176
     1
 44
0.0
176
     1
173
     0
176
     1
  0
VISUALSTYLE
  5
38
102
{ACAD_REACTORS
330
2A
102
}
330
2A
100
AcDbVisualStyle
  2
Linepattern
 70
    14
177
     2
291
     1
 71
     2
176
     1
 72
     2
176
     1
 73
     0
176
     1
 90
        0
176
     1
 40
-0.6
176
     1
 41
-30.0
176
     1
 62
     5
 63
     7
421
 16777215
176
     1
 74
     1
176
     1
 91
        4
176
     1
 64
     7
176
     1
 65
   257
176
     1
 75
     7
176
     1
175
     7
176
     1
 42
1.0
176
     1
 92
        8
176
     1
 66
     7
176
     1
 43
1.0
176
     1
 76
     1
176
     1
 77
     6
176
     1
 78
     2
176
     1
 67
     7
176
     1
 79
     5
176
     1
170
     0
176
     1
171
     0
176
     1
290
     0
176
     1
 93
        1
176
     1
 44
0.0
176
     1
173
     0
176
     1
  0
VISUALSTYLE
  5
33
102
{ACAD_REACTORS
330
2A
102
}
330
2A
100
AcDbVisualStyle
  2
Realistic
 70
     8
177
     2
291
     0
 71
     2
176
     1
 72
     2
176
     1
 73
     0
176
     1
 90
        0
176
     1
 40
-0.6
176
     1
 41
-30.0
176
     1
 62
     5
 63
     7
421
 16777215
176
     1
 74
     1
176
     1
 91
        0
176
     1
 64
     7
176
     1
 65
   257
176
     1
 75
     1
176
     1
175
     1
176
     1
 42
1.0
176
     1
 92
        8
176
     1
 66
     8
424
  7895160
176
     1
 43
1.0
176
     1
 76
     1
176
     1
 77
     6
176
     1
 78
     2
176
     1
 67
     7
176
     1
 79
     5
176
     1
170
     0
176
     1
171
     0
176
     1
290
     0
176
     1
 93
       13
176
     1
 44
0.0
176
     1
173
     0
176
     1
  0
VISUALSTYLE
  5
37
102
{ACAD_REACTORS
330
2A
102
}
330
2A
100
AcDbVisualStyle
  2
Thicken
 70
    13
177
     2
291
     1
 71
     2
176
     1
 72
     2
176
     1
 73
     0
176
     1
 90
        0
176
     1
 40
-0.6
176
     1
 41
-30.0
176
     1
 62
     5
 63
     7
421
 16777215
176
     1
 74
     1
176
     1
 91
        4
176
     1
 64
     7
176
     1
 65
   257
176
     1
 75
     1
176
     1
175
     1
176
     1
 42
1.0
176
     1
 92
       12
176
     1
 66
     7
176
     1
 43
1.0
176
     1
 76
     1
176
     1
 77
     6
176
     1
 78
     2
176
     1
 67
     7
176
     1
 79
     5
176
     1
170
     0
176
     1
171
     0
176
     1
290
     0
176
     1
 93
        1
176
     1
 44
0.0
176
     1
173
     0
176
     1
  0
ENDSEC
  0
EOF
