  0
SECTION
  2
HEADER
  9
$ACADVER
  1
AC1024
  9
$ACADMAINTVER
 70
     6
  9
$DWGCODEPAGE
  3
ANSI_932
  9
$INSBASE
 10
0.0
 20
0.0
 30
0.0
  9
$EXTMIN
 10
-6300.0
 20
-4455.0
 30
0.0
  9
$EXTMAX
 10
6300.0
 20
4455.0
 30
0.0
  9
$LIMMIN
 10
-6300.0
 20
-4455.0
  9
$LIMMAX
 10
6300.0
 20
4455.0
  9
$ORTHOMODE
 70
     0
  9
$REGENMODE
 70
     1
  9
$FILLMODE
 70
     1
  9
$QTEXTMODE
 70
     0
  9
$MIRRTEXT
 70
     1
  9
$LTSCALE
 40
30.0
  9
$ATTMODE
 70
     1
  9
$TEXTSIZE
 40
2.5
  9
$TRACEWID
 40
1.0
  9
$TEXTSTYLE
  7
Standard
  9
$CLAYER
  8
0
  9
$CELTYPE
  6
ByLayer
  9
$CECOLOR
 62
   256
  9
$CELTSCALE
 40
1.0
  9
$DISPSILH
 70
     0
  9
$DIMSCALE
 40
1.0
  9
$DIMASZ
 40
2.5
  9
$DIMEXO
 40
0.625
  9
$DIMDLI
 40
3.75
  9
$DIMRND
 40
0.0
  9
$DIMDLE
 40
0.0
  9
$DIMEXE
 40
1.25
  9
$DIMTP
 40
0.0
  9
$DIMTM
 40
0.0
  9
$DIMTXT
 40
2.5
  9
$DIMCEN
 40
2.5
  9
$DIMTSZ
 40
0.0
  9
$DIMTOL
 70
     0
  9
$DIMLIM
 70
     0
  9
$DIMTIH
 70
     0
  9
$DIMTOH
 70
     0
  9
$DIMSE1
 70
     0
  9
$DIMSE2
 70
     0
  9
$DIMTAD
 70
     1
  9
$DIMZIN
 70
     8
  9
$DIMBLK
  1

  9
$DIMASO
 70
     1
  9
$DIMSHO
 70
     1
  9
$DIMPOST
  1

  9
$DIMAPOST
  1

  9
$DIMALT
 70
     0
  9
$DIMALTD
 70
     3
  9
$DIMALTF
 40
0.03937007874016
  9
$DIMLFAC
 40
1.0
  9
$DIMTOFL
 70
     1
  9
$DIMTVP
 40
0.0
  9
$DIMTIX
 70
     0
  9
$DIMSOXD
 70
     0
  9
$DIMSAH
 70
     0
  9
$DIMBLK1
  1

  9
$DIMBLK2
  1

  9
$DIMSTYLE
  2
ISO-25
  9
$DIMCLRD
 70
     0
  9
$DIMCLRE
 70
     0
  9
$DIMCLRT
 70
     0
  9
$DIMTFAC
 40
1.0
  9
$DIMGAP
 40
0.625
  9
$DIMJUST
 70
     0
  9
$DIMSD1
 70
     0
  9
$DIMSD2
 70
     0
  9
$DIMTOLJ
 70
     0
  9
$DIMTZIN
 70
     8
  9
$DIMALTZ
 70
     0
  9
$DIMALTTZ
 70
     0
  9
$DIMUPT
 70
     0
  9
$DIMDEC
 70
     2
  9
$DIMTDEC
 70
     2
  9
$DIMALTU
 70
     2
  9
$DIMALTTD
 70
     3
  9
$DIMTXSTY
  7
Standard
  9
$DIMAUNIT
 70
     0
  9
$DIMADEC
 70
     0
  9
$DIMALTRND
 40
0.0
  9
$DIMAZIN
 70
     0
  9
$DIMDSEP
 70
    44
  9
$DIMATFIT
 70
     3
  9
$DIMFRAC
 70
     0
  9
$DIMLDRBLK
  1

  9
$DIMLUNIT
 70
     2
  9
$DIMLWD
 70
    -2
  9
$DIMLWE
 70
    -2
  9
$DIMTMOVE
 70
     0
  9
$DIMFXL
 40
1.0
  9
$DIMFXLON
 70
     0
  9
$DIMJOGANG
 40
0.7853981633974483
  9
$DIMTFILL
 70
     0
  9
$DIMTFILLCLR
 70
     0
  9
$DIMARCSYM
 70
     0
  9
$DIMLTYPE
  6

  9
$DIMLTEX1
  6

  9
$DIMLTEX2
  6

  9
$DIMTXTDIRECTION
 70
     0
  9
$LUNITS
 70
     2
  9
$LUPREC
 70
     4
  9
$SKETCHINC
 40
1.0
  9
$FILLETRAD
 40
10.0
  9
$AUNITS
 70
     0
  9
$AUPREC
 70
     0
  9
$MENU
  1
.
  9
$ELEVATION
 40
0.0
  9
$PELEVATION
 40
0.0
  9
$THICKNESS
 40
0.0
  9
$LIMCHECK
 70
     0
  9
$CHAMFERA
 40
10.0
  9
$CHAMFERB
 40
10.0
  9
$CHAMFERC
 40
20.0
  9
$CHAMFERD
 40
0.0
  9
$SKPOLY
 70
     0
  9
$TDCREATE
 40
2459432.484815394
  9
$TDUCREATE
 40
2459432.109815394
  9
$TDUPDATE
 40
2459432.484815405
  9
$TDUUPDATE
 40
2459432.109815405
  9
$TDINDWG
 40
0.0000000116
  9
$TDUSRTIMER
 40
0.0000000116
  9
$USRTIMER
 70
     1
  9
$ANGBASE
 50
0.0
  9
$ANGDIR
 70
     0
  9
$PDMODE
 70
     0
  9
$PDSIZE
 40
0.0
  9
$PLINEWID
 40
0.0
  9
$SPLFRAME
 70
     0
  9
$SPLINETYPE
 70
     6
  9
$SPLINESEGS
 70
     8
  9
$HANDSEED
  5
5ED
  9
$SURFTAB1
 70
     6
  9
$SURFTAB2
 70
     6
  9
$SURFTYPE
 70
     6
  9
$SURFU
 70
     6
  9
$SURFV
 70
     6
  9
$UCSBASE
  2

  9
$UCSNAME
  2

  9
$UCSORG
 10
0.0
 20
0.0
 30
0.0
  9
$UCSXDIR
 10
1.0
 20
0.0
 30
0.0
  9
$UCSYDIR
 10
0.0
 20
1.0
 30
0.0
  9
$UCSORTHOREF
  2

  9
$UCSORTHOVIEW
 70
     0
  9
$UCSORGTOP
 10
0.0
 20
0.0
 30
0.0
  9
$UCSORGBOTTOM
 10
0.0
 20
0.0
 30
0.0
  9
$UCSORGLEFT
 10
0.0
 20
0.0
 30
0.0
  9
$UCSORGRIGHT
 10
0.0
 20
0.0
 30
0.0
  9
$UCSORGFRONT
 10
0.0
 20
0.0
 30
0.0
  9
$UCSORGBACK
 10
0.0
 20
0.0
 30
0.0
  9
$PUCSBASE
  2

  9
$PUCSNAME
  2

  9
$PUCSORG
 10
0.0
 20
0.0
 30
0.0
  9
$PUCSXDIR
 10
1.0
 20
0.0
 30
0.0
  9
$PUCSYDIR
 10
0.0
 20
1.0
 30
0.0
  9
$PUCSORTHOREF
  2

  9
$PUCSORTHOVIEW
 70
     0
  9
$PUCSORGTOP
 10
0.0
 20
0.0
 30
0.0
  9
$PUCSORGBOTTOM
 10
0.0
 20
0.0
 30
0.0
  9
$PUCSORGLEFT
 10
0.0
 20
0.0
 30
0.0
  9
$PUCSORGRIGHT
 10
0.0
 20
0.0
 30
0.0
  9
$PUCSORGFRONT
 10
0.0
 20
0.0
 30
0.0
  9
$PUCSORGBACK
 10
0.0
 20
0.0
 30
0.0
  9
$USERI1
 70
     0
  9
$USERI2
 70
     0
  9
$USERI3
 70
     0
  9
$USERI4
 70
     0
  9
$USERI5
 70
     0
  9
$USERR1
 40
0.0
  9
$USERR2
 40
0.0
  9
$USERR3
 40
0.0
  9
$USERR4
 40
0.0
  9
$USERR5
 40
0.0
  9
$WORLDVIEW
 70
     1
  9
$SHADEDGE
 70
     3
  9
$SHADEDIF
 70
    70
  9
$TILEMODE
 70
     1
  9
$MAXACTVP
 70
    64
  9
$PINSBASE
 10
0.0
 20
0.0
 30
0.0
  9
$PLIMCHECK
 70
     0
  9
$PEXTMIN
 10
1.000000000000000E+20
 20
1.000000000000000E+20
 30
1.000000000000000E+20
  9
$PEXTMAX
 10
-1.000000000000000E+20
 20
-1.000000000000000E+20
 30
-1.000000000000000E+20
  9
$PLIMMIN
 10
0.0
 20
0.0
  9
$PLIMMAX
 10
420.0
 20
297.0
  9
$UNITMODE
 70
     0
  9
$VISRETAIN
 70
     1
  9
$PLINEGEN
 70
     0
  9
$PSLTSCALE
 70
     1
  9
$TREEDEPTH
 70
  3020
  9
$CMLSTYLE
  2
Standard
  9
$CMLJUST
 70
     0
  9
$CMLSCALE
 40
20.0
  9
$PROXYGRAPHICS
 70
     1
  9
$MEASUREMENT
 70
     1
  9
$CELWEIGHT
370
    -1
  9
$ENDCAPS
280
     0
  9
$JOINSTYLE
280
     0
  9
$LWDISPLAY
290
     0
  9
$INSUNITS
 70
     4
  9
$HYPERLINKBASE
  1

  9
$STYLESHEET
  1

  9
$XEDIT
290
     1
  9
$CEPSNTYPE
380
     0
  9
$PSTYLEMODE
290
     1
  9
$FINGERPRINTGUID
  2
{8FAA110E-DE98-4A93-8BC1-509CE628D71F}
  9
$VERSIONGUID
  2
{FAEB1C32-E019-11D5-929B-00C0DF256EC4}
  9
$EXTNAMES
290
     1
  9
$PSVPSCALE
 40
0.0
  9
$OLESTARTUP
290
     0
  9
$SORTENTS
280
   127
  9
$INDEXCTL
280
     0
  9
$HIDETEXT
280
     1
  9
$XCLIPFRAME
280
     2
  9
$HALOGAP
280
     0
  9
$OBSCOLOR
 70
   257
  9
$OBSLTYPE
280
     0
  9
$INTERSECTIONDISPLAY
280
     0
  9
$INTERSECTIONCOLOR
 70
   257
  9
$DIMASSOC
280
     2
  9
$PROJECTNAME
  1

  9
$CAMERADISPLAY
290
     0
  9
$LENSLENGTH
 40
50.0
  9
$CAMERAHEIGHT
 40
0.0
  9
$STEPSPERSEC
 40
2.0
  9
$STEPSIZE
 40
6.0
  9
$3DDWFPREC
 40
2.0
  9
$PSOLWIDTH
 40
5.0
  9
$PSOLHEIGHT
 40
80.0
  9
$LOFTANG1
 40
1.570796326794897
  9
$LOFTANG2
 40
1.570796326794897
  9
$LOFTMAG1
 40
0.0
  9
$LOFTMAG2
 40
0.0
  9
$LOFTPARAM
 70
     7
  9
$LOFTNORMALS
280
     1
  9
$LATITUDE
 40
37.795
  9
$LONGITUDE
 40
-122.394
  9
$NORTHDIRECTION
 40
0.0
  9
$TIMEZONE
 70
 -8000
  9
$LIGHTGLYPHDISPLAY
280
     1
  9
$TILEMODELIGHTSYNCH
280
     1
  9
$SOLIDHIST
280
     1
  9
$SHOWHIST
280
     1
  9
$DWFFRAME
280
     2
  9
$DGNFRAME
280
     2
  9
$REALWORLDSCALE
290
     1
  9
$INTERFERECOLOR
 62
   256
  9
$CSHADOW
280
     0
  9
$SHADOWPLANELOCATION
 40
0.0
  0
ENDSEC
  0
SECTION
  2
CLASSES
  0
CLASS
  1
ACDBDICTIONARYWDFLT
  2
AcDbDictionaryWithDefault
  3
ObjectDBX Classes
 90
        0
 91
        4
280
     0
281
     0
  0
CLASS
  1
VISUALSTYLE
  2
AcDbVisualStyle
  3
ObjectDBX Classes
 90
     4095
 91
        4
280
     0
281
     0
  0
CLASS
  1
MATERIAL
  2
AcDbMaterial
  3
ObjectDBX Classes
 90
     1153
 91
        4
280
     0
281
     0
  0
ENDSEC
  0
SECTION
  2
TABLES
  0
TABLE
  2
VPORT
  5
8
330
0
100
AcDbSymbolTable
 70
     1
  0
VPORT
  5
29
330
8
100
AcDbSymbolTableRecord
100
AcDbViewportTableRecord
  2
*Active
 70
     0
 10
0.0
 20
0.0
 11
1.0
 21
1.0
 12
0.0
 22
0.0
 13
0.0
 23
0.0
 14
10.0
 24
10.0
 15
10.0
 25
10.0
 16
0.0
 26
0.0
 36
1.0
 17
0.0
 27
0.0
 37
0.0
 40
9801.0
 41
1.414141414141414
 42
50.0
 43
0.0
 44
0.0
 50
0.0
 51
0.0
 71
     0
 72
 10000
 73
     1
 74
     3
 75
     0
 76
     0
 77
     0
 78
     0
281
     0
 65
     1
110
0.0
120
0.0
130
0.0
111
1.0
121
0.0
131
0.0
112
0.0
122
1.0
132
0.0
 79
     0
146
0.0
 60
     3
 61
     5
292
     1
282
     1
141
0.0
142
0.0
 63
   250
  0
ENDTAB
  0
TABLE
  2
LTYPE
  5
5
330
0
100
AcDbSymbolTable
 70
     3
  0
LTYPE
  5
14
330
5
100
AcDbSymbolTableRecord
100
AcDbLinetypeTableRecord
  2
ByBlock
 70
     0
  3

 72
    65
 73
     0
 40
0.0
  0
LTYPE
  5
15
330
5
100
AcDbSymbolTableRecord
100
AcDbLinetypeTableRecord
  2
ByLayer
 70
     0
  3

 72
    65
 73
     0
 40
0.0
  0
LTYPE
  5
16
330
5
100
AcDbSymbolTableRecord
100
AcDbLinetypeTableRecord
  2
Continuous
 70
     0
  3
Solid line
 72
    65
 73
     0
 40
0.0
  0
LTYPE
  5
3F
330
5
100
AcDbSymbolTableRecord
100
AcDbLinetypeTableRecord
  2
JWW_HOJO
 70
     0
  3
  -   -   -   -   -   -   -   - 
 72
    65
 73
     2
 40
1.693333333333333
 49
-1.27
 74
     0
 49
0.4233333333333333
 74
     0
  0
LTYPE
  5
40
330
5
100
AcDbSymbolTableRecord
100
AcDbLinetypeTableRecord
  2
JWW_DASHED1
 70
     0
  3
-  --  --  --  --  --  --  --  -
 72
    65
 73
     2
 40
0.3386666666666667
 49
0.1693333333333333
 74
     0
 49
-0.1693333333333333
 74
     0
  0
ENDTAB
  0
TABLE
  2
LAYER
  5
2
330
0
100
AcDbSymbolTable
 70
    12
  0
LAYER
  5
10
330
2
100
AcDbSymbolTableRecord
100
AcDbLayerTableRecord
  2
0
 70
     0
 62
     7
  6
Continuous
370
    -3
390
F
347
3E
  0
LAYER
  5
41
330
2
100
AcDbSymbolTableRecord
100
AcDbLayerTableRecord
  2
0-3_仕上げ
 70
     0
 62
     7
  6
Continuous
370
    -3
390
F
347
3E
  0
LAYER
  5
42
330
2
100
AcDbSymbolTableRecord
100
AcDbLayerTableRecord
  2
0-0_補助線
 70
     0
 62
     7
  6
Continuous
370
    -3
390
F
347
3E
  0
LAYER
  5
43
330
2
100
AcDbSymbolTableRecord
100
AcDbLayerTableRecord
  2
F-0_補助線
 70
     0
 62
     7
  6
Continuous
370
    -3
390
F
347
3E
  0
LAYER
  5
44
330
2
100
AcDbSymbolTableRecord
100
AcDbLayerTableRecord
  2
F-1_枠
 70
     0
 62
     7
  6
Continuous
370
    -3
390
F
347
3E
  0
LAYER
  5
45
330
2
100
AcDbSymbolTableRecord
100
AcDbLayerTableRecord
  2
F-A_文字
 70
     0
 62
     7
  6
Continuous
370
    -3
390
F
347
3E
  0
LAYER
  5
46
330
2
100
AcDbSymbolTableRecord
100
AcDbLayerTableRecord
  2
0-A_文字
 70
     0
 62
     7
  6
Continuous
370
    -3
390
F
347
3E
  0
LAYER
  5
47
330
2
100
AcDbSymbolTableRecord
100
AcDbLayerTableRecord
  2
0-B_寸法
 70
     0
 62
     7
  6
Continuous
370
    -3
390
F
347
3E
  0
LAYER
  5
48
330
2
100
AcDbSymbolTableRecord
100
AcDbLayerTableRecord
  2
引手
 70
     0
 62
     7
  6
Continuous
370
    -3
390
F
347
3E
  0
LAYER
  5
49
330
2
100
AcDbSymbolTableRecord
100
AcDbLayerTableRecord
  2
0-4_枠
 70
     0
 62
     7
  6
Continuous
370
    -3
390
F
347
3E
  0
LAYER
  5
4A
330
2
100
AcDbSymbolTableRecord
100
AcDbLayerTableRecord
  2
0-2_扉
 70
     0
 62
     7
  6
Continuous
370
    -3
390
F
347
3E
  0
LAYER
  5
4B
330
2
100
AcDbSymbolTableRecord
100
AcDbLayerTableRecord
  2
0-C_ハッチ
 70
     0
 62
     7
  6
Continuous
370
    -3
390
F
347
3E
  0
ENDTAB
  0
TABLE
  2
STYLE
  5
3
330
0
100
AcDbSymbolTable
 70
     1
  0
STYLE
  5
11
330
3
100
AcDbSymbolTableRecord
100
AcDbTextStyleTableRecord
  2
Standard
 70
     0
 40
0.0
 41
1.0
 50
0.0
 71
     0
 42
2.5
  3
txt
  4

  0
ENDTAB
  0
TABLE
  2
VIEW
  5
6
330
0
100
AcDbSymbolTable
 70
     0
  0
ENDTAB
  0
TABLE
  2
UCS
  5
7
330
0
100
AcDbSymbolTable
 70
     0
  0
ENDTAB
  0
TABLE
  2
APPID
  5
9
330
0
100
AcDbSymbolTable
 70
     1
  0
APPID
  5
12
330
9
100
AcDbSymbolTableRecord
100
AcDbRegAppTableRecord
  2
ACAD
 70
     0
  0
ENDTAB
  0
TABLE
  2
DIMSTYLE
  5
A
330
0
100
AcDbSymbolTable
 70
     1
100
AcDbDimStyleTable
  0
DIMSTYLE
105
27
330
A
100
AcDbSymbolTableRecord
100
AcDbDimStyleTableRecord
  2
ISO-25
 70
     0
 41
2.5
 42
0.625
 43
3.75
 44
1.25
 73
     0
 74
     0
 77
     1
 78
     8
140
2.5
141
2.5
143
0.03937007874016
147
0.625
171
     3
172
     1
178
     0
271
     2
272
     2
274
     3
278
    44
283
     0
284
     8
340
11
  0
ENDTAB
  0
TABLE
  2
BLOCK_RECORD
  5
1
330
0
100
AcDbSymbolTable
 70
     1
  0
BLOCK_RECORD
  5
1F
330
1
100
AcDbSymbolTableRecord
100
AcDbBlockTableRecord
  2
*Model_Space
340
22
 70
     0
280
     1
281
     0
  0
BLOCK_RECORD
  5
1B
330
1
100
AcDbSymbolTableRecord
100
AcDbBlockTableRecord
  2
*Paper_Space
340
1E
 70
     0
280
     1
281
     0
  0
BLOCK_RECORD
  5
23
330
1
100
AcDbSymbolTableRecord
100
AcDbBlockTableRecord
  2
*Paper_Space0
340
26
 70
     0
280
     1
281
     0
  0
ENDTAB
  0
ENDSEC
  0
SECTION
  2
BLOCKS
  0
BLOCK
  5
20
330
1F
100
AcDbEntity
  8
0
100
AcDbBlockBegin
  2
*Model_Space
 70
     0
 10
0.0
 20
0.0
 30
0.0
  3
*Model_Space
  1

  0
ENDBLK
  5
21
330
1F
100
AcDbEntity
  8
0
100
AcDbBlockEnd
  0
BLOCK
  5
1C
330
1B
100
AcDbEntity
 67
     1
  8
0
100
AcDbBlockBegin
  2
*Paper_Space
 70
     0
 10
0.0
 20
0.0
 30
0.0
  3
*Paper_Space
  1

  0
ENDBLK
  5
1D
330
1B
100
AcDbEntity
 67
     1
  8
0
100
AcDbBlockEnd
  0
BLOCK
  5
24
330
23
100
AcDbEntity
  8
0
100
AcDbBlockBegin
  2
*Paper_Space0
 70
     0
 10
0.0
 20
0.0
 30
0.0
  3
*Paper_Space0
  1

  0
ENDBLK
  5
25
330
23
100
AcDbEntity
  8
0
100
AcDbBlockEnd
  0
ENDSEC
  0
SECTION
  2
ENTITIES
  0
LINE
  5
4C
330
1F
100
AcDbEntity
  8
0-3_仕上げ
  6
Continuous
 62
    92
370
    13
100
AcDbLine
 10
3243.999228297052
 20
-2495.750083820242
 30
0.0
 11
3008.499228297052
 21
-2495.750083820242
 31
0.0
  0
LINE
  5
4D
330
1F
100
AcDbEntity
  8
0-0_補助線
  6
JWW_HOJO
 62
   120
370
     5
100
AcDbLine
 10
-5999.99998453501
 20
550.5001831054688
 30
0.0
 11
5699.998762800888
 21
550.5001831054688
 31
0.0
  0
LINE
  5
4E
330
1F
100
AcDbEntity
  8
F-0_補助線
  6
JWW_HOJO
 62
   200
370
    20
100
AcDbLine
 10
-5999.99998453501
 20
84.49993236644843
 30
0.0
 11
5694.998498865077
 21
84.49993236644843
 31
0.0
  0
LINE
  5
4F
330
1F
100
AcDbEntity
  8
0-0_補助線
  6
JWW_HOJO
 62
   120
370
     5
100
AcDbLine
 10
-5999.99998453501
 20
670.5001831054692
 30
0.0
 11
5699.998762800888
 21
670.5001831054692
 31
0.0
  0
LINE
  5
50
330
1F
100
AcDbEntity
  8
F-0_補助線
  6
JWW_HOJO
 62
     7
370
     9
100
AcDbLine
 10
849.9995876002961
 20
-3795.000003092998
 30
0.0
 11
849.9995876002961
 21
-4195.000008247994
 31
0.0
  0
LINE
  5
51
330
1F
100
AcDbEntity
  8
F-0_補助線
  6
JWW_HOJO
 62
     7
370
     9
100
AcDbLine
 10
349.9999175200594
 20
-3795.000003092998
 30
0.0
 11
349.9999175200594
 21
-4195.000008247994
 31
0.0
  0
LINE
  5
52
330
1F
100
AcDbEntity
  8
F-1_枠
  6
Continuous
 62
   200
370
    20
100
AcDbLine
 10
5699.998762800888
 20
-4205.000002577498
 30
0.0
 11
-5999.999752560178
 21
-4205.000002577498
 31
0.0
  0
LINE
  5
53
330
1F
100
AcDbEntity
  8
F-1_枠
  6
Continuous
 62
   200
370
    20
100
AcDbLine
 10
5699.998762800888
 20
-4199.999993814004
 30
0.0
 11
-5999.999752560178
 21
-4199.999993814004
 31
0.0
  0
LINE
  5
54
330
1F
100
AcDbEntity
  8
F-1_枠
  6
Continuous
 62
   200
370
    20
100
AcDbLine
 10
5699.998762800888
 20
-4195.000008247994
 30
0.0
 11
-5999.999752560178
 21
-4195.000008247994
 31
0.0
  0
LINE
  5
55
330
1F
100
AcDbEntity
  8
F-1_枠
  6
Continuous
 62
   200
370
    20
100
AcDbLine
 10
4189.999224688556
 20
-3795.000003092998
 30
0.0
 11
4189.999224688556
 21
-4195.000008247994
 31
0.0
  0
LINE
  5
56
330
1F
100
AcDbEntity
  8
F-1_枠
  6
Continuous
 62
   200
370
    20
100
AcDbLine
 10
2689.998729808911
 20
-3795.000003092998
 30
0.0
 11
2689.998729808911
 21
-4195.000008247994
 31
0.0
  0
LINE
  5
57
330
1F
100
AcDbEntity
  8
F-1_枠
  6
Continuous
 62
   200
370
    20
100
AcDbLine
 10
-150.0001237199109
 20
-3795.000003092998
 30
0.0
 11
-150.0001237199109
 21
-4195.000008247994
 31
0.0
  0
LINE
  5
58
330
1F
100
AcDbEntity
  8
F-1_枠
  6
Continuous
 62
   200
370
    20
100
AcDbLine
 10
-150.0001237199109
 20
-3994.999936078046
 30
0.0
 11
5689.998977248734
 21
-3995.005364289155
 31
0.0
  0
LINE
  5
59
330
1F
100
AcDbEntity
  8
F-0_補助線
  6
JWW_HOJO
 62
     7
370
     9
100
AcDbLine
 10
-5989.999990205507
 20
-3994.99993607839
 30
0.0
 11
-150.0001237199109
 21
-3994.99993607839
 31
0.0
  0
LINE
  5
5A
330
1F
100
AcDbEntity
  8
F-0_補助線
  6
JWW_HOJO
 62
     7
370
     9
100
AcDbLine
 10
-5989.999990205507
 20
-3904.99993607839
 30
0.0
 11
-150.0001237199109
 21
-3904.99993607839
 31
0.0
  0
LINE
  5
5B
330
1F
100
AcDbEntity
  8
F-0_補助線
  6
JWW_HOJO
 62
     7
370
     9
100
AcDbLine
 10
-5989.999990205507
 20
-4084.99993607839
 30
0.0
 11
-150.0001237199109
 21
-4084.99993607839
 31
0.0
  0
LINE
  5
5C
330
1F
100
AcDbEntity
  8
F-0_補助線
  6
JWW_HOJO
 62
     7
370
     9
100
AcDbLine
 10
-150.0002584955388
 20
-4139.999739777983
 30
0.0
 11
5689.998842473105
 21
-4140.005167989091
 31
0.0
  0
LINE
  5
5D
330
1F
100
AcDbEntity
  8
F-0_補助線
  6
JWW_HOJO
 62
     7
370
     9
100
AcDbLine
 10
-150.0001748415872
 20
-4049.999739778022
 30
0.0
 11
5689.998926127057
 21
-4050.005167989131
 31
0.0
  0
LINE
  5
5E
330
1F
100
AcDbEntity
  8
F-0_補助線
  6
JWW_HOJO
 62
     7
370
     9
100
AcDbLine
 10
-150.0000725978671
 20
-3939.99973721807
 30
0.0
 11
5689.999028370777
 21
-3940.005165429179
 31
0.0
  0
LINE
  5
5F
330
1F
100
AcDbEntity
  8
F-0_補助線
  6
JWW_HOJO
 62
     7
370
     9
100
AcDbLine
 10
-149.9999889439155
 20
-3849.999737218109
 30
0.0
 11
5689.999112024728
 21
-3850.005165429218
 31
0.0
  0
LINE
  5
60
330
1F
100
AcDbEntity
  8
F-0_補助線
  6
JWW_HOJO
 62
     7
370
     9
100
AcDbLine
 10
2779.998729808911
 20
-3795.000003092998
 30
0.0
 11
2779.998729808911
 21
-4195.000008247994
 31
0.0
  0
LINE
  5
61
330
1F
100
AcDbEntity
  8
F-0_補助線
  6
JWW_HOJO
 62
     7
370
     9
100
AcDbLine
 10
-60.0001237199109
 20
-3795.000003092998
 30
0.0
 11
-60.0001237199109
 21
-4195.000008247994
 31
0.0
  0
LINE
  5
62
330
1F
100
AcDbEntity
  8
F-0_補助線
  6
JWW_HOJO
 62
     7
370
     9
100
AcDbLine
 10
4279.999224688556
 20
-3795.000003092998
 30
0.0
 11
4279.999224688556
 21
-4195.000008247994
 31
0.0
  0
LINE
  5
63
330
1F
100
AcDbEntity
  8
F-0_補助線
  6
JWW_HOJO
 62
     7
370
     9
100
AcDbLine
 10
-5247.547376752838
 20
-3795.000003092999
 30
0.0
 11
-5247.547376752838
 21
-4205.000164959882
 31
0.0
  0
LINE
  5
64
330
1F
100
AcDbEntity
  8
F-0_補助線
  6
JWW_HOJO
 62
     7
370
     9
100
AcDbLine
 10
-210.0001237199109
 20
-3795.000003092998
 30
0.0
 11
-210.0001237199109
 21
-4195.000008247994
 31
0.0
  0
LINE
  5
65
330
1F
100
AcDbEntity
  8
F-1_枠
  6
Continuous
 62
   200
370
    20
100
AcDbLine
 10
5699.998762800888
 20
-3795.000003092998
 30
0.0
 11
-5999.99998453501
 21
-3795.000003092998
 31
0.0
  0
LINE
  5
66
330
1F
100
AcDbEntity
  8
F-1_枠
  6
Continuous
 62
   200
370
    20
100
AcDbLine
 10
5699.998762800888
 20
-3790.000017526987
 30
0.0
 11
-5999.99998453501
 21
-3790.000017526987
 31
0.0
  0
LINE
  5
67
330
1F
100
AcDbEntity
  8
0-0_補助線
  6
JWW_HOJO
 62
     7
370
     9
100
AcDbLine
 10
-5490.000018557986
 20
1418.000148463893
 30
0.0
 11
5689.998977248734
 21
1418.000148463893
 31
0.0
  0
LINE
  5
68
330
1F
100
AcDbEntity
  8
0-0_補助線
  6
JWW_HOJO
 62
   120
370
     5
100
AcDbLine
 10
-5490.000018557986
 20
1368.000148463894
 30
0.0
 11
5689.998977248734
 21
1368.000148463894
 31
0.0
  0
LINE
  5
69
330
1F
100
AcDbEntity
  8
0-0_補助線
  6
JWW_HOJO
 62
     7
370
     9
100
AcDbLine
 10
-5490.000018557986
 20
-2701.250083820241
 30
0.0
 11
5699.998762800888
 21
-2701.250083820241
 31
0.0
  0
LINE
  5
6A
330
1F
100
AcDbEntity
  8
0-0_補助線
  6
JWW_HOJO
 62
   120
370
     5
100
AcDbLine
 10
-5490.000018557986
 20
-2751.250083820241
 30
0.0
 11
5699.998762800888
 21
-2751.250083820241
 31
0.0
  0
LINE
  5
6B
330
1F
100
AcDbEntity
  8
0-0_補助線
  6
JWW_HOJO
 62
     7
370
     9
100
AcDbLine
 10
-5490.000018557986
 20
1168.000148463894
 30
0.0
 11
5689.998977248734
 21
1168.000148463894
 31
0.0
  0
LINE
  5
6C
330
1F
100
AcDbEntity
  8
0-0_補助線
  6
JWW_HOJO
 62
     7
370
     9
100
AcDbLine
 10
-5490.000018557986
 20
-2951.250083820241
 30
0.0
 11
5699.998762800888
 21
-2951.250083820241
 31
0.0
  0
LINE
  5
6D
330
1F
100
AcDbEntity
  8
F-1_枠
  6
Continuous
 62
   200
370
    20
100
AcDbLine
 10
-5999.999752560178
 20
4174.999769056166
 30
0.0
 11
5699.998762800888
 21
4174.999769056166
 31
0.0
  0
LINE
  5
6E
330
1F
100
AcDbEntity
  8
F-0_補助線
  6
JWW_HOJO
 62
   120
370
     5
100
AcDbLine
 10
-6300.0
 20
-4455.0
 30
0.0
 11
-6300.0
 21
4424.999604096284
 31
0.0
  0
LINE
  5
6F
330
1F
100
AcDbEntity
  8
F-0_補助線
  6
JWW_HOJO
 62
   120
370
     5
100
AcDbLine
 10
5999.999010240709
 20
4424.999604096284
 30
0.0
 11
5999.999010240709
 21
-4455.0
 31
0.0
  0
LINE
  5
70
330
1F
100
AcDbEntity
  8
F-0_補助線
  6
JWW_HOJO
 62
   120
370
     5
100
AcDbLine
 10
5999.999010240709
 20
-4455.0
 30
0.0
 11
-6300.0
 21
-4455.0
 31
0.0
  0
LINE
  5
71
330
1F
100
AcDbEntity
  8
F-1_枠
  6
Continuous
 62
   200
370
    20
100
AcDbLine
 10
-5999.999752560178
 20
4164.999983504013
 30
0.0
 11
5699.998762800888
 21
4164.999983504013
 31
0.0
  0
LINE
  5
72
330
1F
100
AcDbEntity
  8
F-1_枠
  6
Continuous
 62
   200
370
    20
100
AcDbLine
 10
-5999.999752560178
 20
4169.999505120355
 30
0.0
 11
5699.998762800888
 21
4169.999505120355
 31
0.0
  0
LINE
  5
73
330
1F
100
AcDbEntity
  8
F-1_枠
  6
Continuous
 62
   200
370
    20
100
AcDbLine
 10
5689.998977248734
 20
4174.999769056166
 30
0.0
 11
5689.998977248734
 21
-4205.000164959882
 31
0.0
  0
LINE
  5
74
330
1F
100
AcDbEntity
  8
F-1_枠
  6
Continuous
 62
   200
370
    20
100
AcDbLine
 10
5694.998498865077
 20
4174.999769056166
 30
0.0
 11
5694.998498865077
 21
-4205.000164959882
 31
0.0
  0
LINE
  5
75
330
1F
100
AcDbEntity
  8
F-1_枠
  6
Continuous
 62
   200
370
    20
100
AcDbLine
 10
5699.998762800888
 20
4174.999769056166
 30
0.0
 11
5699.998762800888
 21
-4205.000164959882
 31
0.0
  0
LINE
  5
76
330
1F
100
AcDbEntity
  8
F-1_枠
  6
Continuous
 62
   200
370
    20
100
AcDbLine
 10
-5989.999990205507
 20
4174.999769056166
 30
0.0
 11
-5989.999990205507
 21
-4205.000164959882
 31
0.0
  0
LINE
  5
77
330
1F
100
AcDbEntity
  8
F-1_枠
  6
Continuous
 62
   200
370
    20
100
AcDbLine
 10
-5994.999975771518
 20
4174.999769056166
 30
0.0
 11
-5994.999975771518
 21
-4205.000164959882
 31
0.0
  0
LINE
  5
78
330
1F
100
AcDbEntity
  8
F-1_枠
  6
Continuous
 62
   200
370
    20
100
AcDbLine
 10
-5999.99998453501
 20
4174.999769056166
 30
0.0
 11
-5999.99998453501
 21
-4205.000164959882
 31
0.0
  0
LINE
  5
79
330
1F
100
AcDbEntity
  8
F-1_枠
  6
Continuous
 62
   200
370
    20
100
AcDbLine
 10
-5490.000018557986
 20
4174.999769056166
 30
0.0
 11
-5490.000018557986
 21
-3790.000179909372
 31
0.0
  0
LINE
  5
7A
330
1F
100
AcDbEntity
  8
F-0_補助線
  6
JWW_HOJO
 62
   120
370
     5
100
AcDbLine
 10
-6300.0
 20
4424.999604096284
 30
0.0
 11
5999.999010240709
 21
4424.999604096284
 31
0.0
  0
LINE
  5
7B
330
1F
100
AcDbEntity
  8
F-1_枠
  6
Continuous
 62
   200
370
    20
100
AcDbLine
 10
-5999.99998453501
 20
3964.999818544131
 30
0.0
 11
5699.998762800888
 21
3964.999818544131
 31
0.0
  0
LINE
  5
7C
330
1F
100
AcDbEntity
  8
F-1_枠
  6
Continuous
 62
   200
370
    20
100
AcDbLine
 10
-5999.99998453501
 20
190.5001831054688
 30
0.0
 11
5699.998762800888
 21
190.5001831054688
 31
0.0
  0
LINE
  5
7D
330
1F
100
AcDbEntity
  8
F-1_枠
  6
Continuous
 62
   200
370
    20
100
AcDbLine
 10
-5999.99998453501
 20
-15.50015011349217
 30
0.0
 11
5699.998762800888
 21
-15.50015011349217
 31
0.0
  0
LINE
  5
7E
330
1F
100
AcDbEntity
  8
F-1_枠
  6
Continuous
 62
   200
370
    20
100
AcDbLine
 10
-5999.99998453501
 20
184.5000148463899
 30
0.0
 11
5699.998762800888
 21
184.5000148463899
 31
0.0
  0
LINE
  5
7F
330
1F
100
AcDbEntity
  8
F-1_枠
  6
Continuous
 62
   200
370
    20
100
AcDbLine
 10
-5999.99998453501
 20
187.5000989759289
 30
0.0
 11
5699.998762800888
 21
187.5000989759289
 31
0.0
  0
LINE
  5
80
330
1F
100
AcDbEntity
  8
F-1_枠
  6
Continuous
 62
   200
370
    20
100
AcDbLine
 10
99.99947934537431
 20
-3790.000179909372
 30
0.0
 11
99.99947934537431
 21
4174.999769056166
 31
0.0
  0
LINE
  5
81
330
1F
100
AcDbEntity
  8
0-0_補助線
  6
JWW_HOJO
 62
   120
370
     5
100
AcDbLine
 10
-4362.000269606306
 20
3964.999818544131
 30
0.0
 11
-4362.000269606306
 21
-3790.000179909372
 31
0.0
  0
LINE
  5
82
330
1F
100
AcDbEntity
  8
0-0_補助線
  6
JWW_HOJO
 62
     7
370
     9
100
AcDbLine
 10
-4312.000269606305
 20
3964.999818544131
 30
0.0
 11
-4312.000269606305
 21
-3790.000179909372
 31
0.0
  0
LINE
  5
83
330
1F
100
AcDbEntity
  8
0-0_補助線
  6
JWW_HOJO
 62
   120
370
     5
100
AcDbLine
 10
1227.999228297055
 20
3964.999818544131
 30
0.0
 11
1227.999228297055
 21
190.5001831054688
 31
0.0
  0
LINE
  5
84
330
1F
100
AcDbEntity
  8
0-0_補助線
  6
JWW_HOJO
 62
     7
370
     9
100
AcDbLine
 10
1277.999228297055
 20
3964.999818544131
 30
0.0
 11
1277.999228297055
 21
190.5001831054688
 31
0.0
  0
MTEXT
  5
85
330
1F
100
AcDbEntity
  8
F-A_文字
  6
Continuous
 62
     7
370
     9
100
AcDbMText
 10
-5890.000004381747
 20
4018.575148463894
 30
0.0
 40
57.15
 41
300.0
 46
0.0
 71
     7
 72
     1
  1
{\fＭＳ ゴシック|b0|i0|c128|p49;デザイン}
 73
     1
 44
1.0
  0
MTEXT
  5
86
330
1F
100
AcDbEntity
  8
F-A_文字
  6
Continuous
 62
     7
370
     9
100
AcDbMText
 10
-5852.500004381747
 20
2031.325062684755
 30
0.0
 40
57.15
 41
225.0
 46
0.0
 71
     7
 72
     1
  1
{\fＭＳ ゴシック|b0|i0|c128|p49;姿　図}
 73
     1
 44
1.0
  0
MTEXT
  5
87
330
1F
100
AcDbEntity
  8
F-A_文字
  6
Continuous
 62
     7
370
     9
100
AcDbMText
 10
-5890.000004381747
 20
38.07493236644844
 30
0.0
 40
57.15
 41
300.0
 46
0.0
 71
     7
 72
     1
  1
{\fＭＳ ゴシック|b0|i0|c128|p49;デザイン}
 73
     1
 44
1.0
  0
MTEXT
  5
88
330
1F
100
AcDbEntity
  8
F-A_文字
  6
Continuous
 62
     7
370
     9
100
AcDbMText
 10
-5852.500004381747
 20
-1949.175091552734
 30
0.0
 40
57.15
 41
225.0
 46
0.0
 71
     7
 72
     1
  1
{\fＭＳ ゴシック|b0|i0|c128|p49;姿　図}
 73
     1
 44
1.0
  0
MTEXT
  5
89
330
1F
100
AcDbEntity
  8
F-A_文字
  6
Continuous
 62
     7
370
     0
100
AcDbMText
 10
-60.0001237199109
 20
-3887.139820871936
 30
0.0
 40
45.72
 41
180.0
 46
0.0
 71
     7
 72
     1
  1
{\fＭＳ ゴシック|b0|i0|c128|p49;図面名}
 73
     1
 44
1.0
  0
MTEXT
  5
8A
330
1F
100
AcDbEntity
  8
F-A_文字
  6
Continuous
 62
     7
370
     0
100
AcDbMText
 10
2779.998729808911
 20
-3887.142460617774
 30
0.0
 40
45.72
 41
300.0
 46
0.0
 71
     7
 72
     1
  1
{\fＭＳ ゴシック|b0|i0|c128|p49;ＳＣＡＬＥ}
 73
     1
 44
1.0
  0
MTEXT
  5
8B
330
1F
100
AcDbEntity
  8
F-A_文字
  6
Continuous
 62
     7
370
     0
100
AcDbMText
 10
4279.999224688556
 20
-3887.143854850754
 30
0.0
 40
45.72
 41
240.0
 46
0.0
 71
     7
 72
     1
  1
{\fＭＳ ゴシック|b0|i0|c128|p49;ＤＡＴＥ}
 73
     1
 44
1.0
  0
MTEXT
  5
8C
330
1F
100
AcDbEntity
  8
F-A_文字
  6
Continuous
 62
     7
370
     0
100
AcDbMText
 10
1180.417701903719
 20
-3946.423911599839
 30
0.0
 40
77.15249999999999
 41
405.0
 46
0.0
 71
     7
 72
     1
  1
{\fＭＳ ゴシック|b0|i0|c128|p49;建具姿図}
 73
     1
 44
1.0
  0
MTEXT
  5
8D
330
1F
100
AcDbEntity
  8
F-A_文字
  6
Continuous
 62
     7
370
     0
100
AcDbMText
 10
3383.748977248734
 20
-3946.426865907308
 30
0.0
 40
77.15249999999999
 41
202.5
 46
0.0
 71
     7
 72
     1
  1
{\fＭＳ ゴシック|b0|i0|c128|p49;1/30}
 73
     1
 44
1.0
  0
MTEXT
  5
8E
330
1F
100
AcDbEntity
  8
F-A_文字
  6
Continuous
 62
     7
370
     0
100
AcDbMText
 10
2779.998729808911
 20
-4087.14246317786
 30
0.0
 40
45.72
 41
240.0
 46
0.0
 71
     7
 72
     1
  1
{\fＭＳ ゴシック|b0|i0|c128|p49;ＦＩＬＥ}
 73
     1
 44
1.0
  0
MTEXT
  5
8F
330
1F
100
AcDbEntity
  8
F-A_文字
  6
Continuous
 62
     7
370
     0
100
AcDbMText
 10
4279.999224688556
 20
-4087.143857410839
 30
0.0
 40
45.72
 41
180.0
 46
0.0
 71
     7
 72
     1
  1
{\fＭＳ ゴシック|b0|i0|c128|p49;ＮＯ．}
 73
     1
 44
1.0
  0
MTEXT
  5
90
330
1F
100
AcDbEntity
  8
F-A_文字
  6
Continuous
 62
     7
370
     0
100
AcDbMText
 10
1234.998729808911
 20
-4096.140669266149
 30
0.0
 40
45.72
 41
120.0
 46
0.0
 71
     7
 72
     1
  1
{\fＭＳ ゴシック|b0|i0|c128|p49;株式}
 73
     1
 44
1.0
  0
MTEXT
  5
91
330
1F
100
AcDbEntity
  8
F-A_文字
  6
Continuous
 62
     7
370
     9
100
AcDbMText
 10
4936.249033580831
 20
-4147.857012699985
 30
0.0
 40
74.295
 41
97.5
 46
0.0
 71
     7
 72
     1
  1
{\fＭＳ ゴシック|b0|i0|c128|p49;01}
 73
     1
 44
1.0
  0
MTEXT
  5
92
330
1F
100
AcDbEntity
  8
F-A_文字
  6
Continuous
 62
     7
370
     0
100
AcDbMText
 10
1444.998729808911
 20
-4164.281754523929
 30
0.0
 40
101.44125
 41
1065.0
 46
0.0
 71
     7
 72
     1
  1
{\fＭＳ ゴシック|b0|i0|c128|p49;ウッドワン・・・}
 73
     1
 44
1.0
  0
MTEXT
  5
93
330
1F
100
AcDbEntity
  8
F-A_文字
  6
Continuous
 62
     7
370
     0
100
AcDbMText
 10
1234.998729808911
 20
-4168.140669266187
 30
0.0
 40
45.72
 41
120.0
 46
0.0
 71
     7
 72
     1
  1
{\fＭＳ ゴシック|b0|i0|c128|p49;会社}
 73
     1
 44
1.0
  0
MTEXT
  5
94
330
1F
100
AcDbEntity
  8
F-A_文字
  6
Continuous
 62
     7
370
     0
100
AcDbMText
 10
5608.403311109712
 20
-4314.841419020919
 30
0.0
 40
68.58
 41
90.0
 46
0.0
 71
     7
 72
     1
  1
{\fＭＳ ゴシック|b0|i0|c128|p49;）}
 73
     1
 44
1.0
  0
MTEXT
  5
95
330
1F
100
AcDbEntity
  8
F-A_文字
  6
Continuous
 62
     7
370
     0
100
AcDbMText
 10
5190.195950842071
 20
-4316.235443869856
 30
0.0
 40
68.58
 41
45.0
 46
0.0
 71
     7
 72
     1
  1
{\fＭＳ ゴシック|b0|i0|c128|p49;,}
 73
     1
 44
1.0
  0
MTEXT
  5
96
330
1F
100
AcDbEntity
  8
F-A_文字
  6
Continuous
 62
     7
370
     0
100
AcDbMText
 10
4923.937261915373
 20
-4314.771967288282
 30
0.0
 40
74.295
 41
97.5
 46
0.0
 71
     7
 72
     1
  1
{\fＭＳ ゴシック|b0|i0|c128|p49;$y}
 73
     1
 44
1.0
  0
MTEXT
  5
97
330
1F
100
AcDbEntity
  8
F-A_文字
  6
Continuous
 62
     7
370
     0
100
AcDbMText
 10
5078.673982954195
 20
-4314.771967288282
 30
0.0
 40
74.295
 41
97.5
 46
0.0
 71
     7
 72
     1
  1
{\fＭＳ ゴシック|b0|i0|c128|p49;$m}
 73
     1
 44
1.0
  0
MTEXT
  5
98
330
1F
100
AcDbEntity
  8
F-A_文字
  6
Continuous
 62
     7
370
     0
100
AcDbMText
 10
5233.410715437103
 20
-4314.771967288282
 30
0.0
 40
74.295
 41
97.5
 46
0.0
 71
     7
 72
     1
  1
{\fＭＳ ゴシック|b0|i0|c128|p49;$d}
 73
     1
 44
1.0
  0
MTEXT
  5
99
330
1F
100
AcDbEntity
  8
F-A_文字
  6
Continuous
 62
     7
370
     0
100
AcDbMText
 10
5388.147447920011
 20
-4314.771967288282
 30
0.0
 40
74.295
 41
195.0
 46
0.0
 71
     7
 72
     1
  1
{\fＭＳ ゴシック|b0|i0|c128|p49;印刷}
 73
     1
 44
1.0
  0
MTEXT
  5
9A
330
1F
100
AcDbEntity
  8
F-A_文字
  6
Continuous
 62
     7
370
     0
100
AcDbMText
 10
4784.033374252999
 20
-4319.023493567732
 30
0.0
 40
68.58
 41
90.0
 46
0.0
 71
     7
 72
     1
  1
{\fＭＳ ゴシック|b0|i0|c128|p49;（}
 73
     1
 44
1.0
  0
MTEXT
  5
9B
330
1F
100
AcDbEntity
  8
F-A_文字
  6
Continuous
 62
     7
370
     0
100
AcDbMText
 10
5031.277143812345
 20
-4319.023493567732
 30
0.0
 40
68.58
 41
45.0
 46
0.0
 71
     7
 72
     1
  1
{\fＭＳ ゴシック|b0|i0|c128|p49;,}
 73
     1
 44
1.0
  0
LINE
  5
9C
330
1F
100
AcDbEntity
  8
0-0_補助線
  6
JWW_HOJO
 62
   120
370
     5
100
AcDbLine
 10
-5999.99998453501
 20
430.5001831054688
 30
0.0
 11
5699.998762800888
 21
430.5001831054688
 31
0.0
  0
LINE
  5
9D
330
1F
100
AcDbEntity
  8
0-0_補助線
  6
JWW_HOJO
 62
   120
370
     5
100
AcDbLine
 10
-5999.99998453501
 20
310.5001831054688
 30
0.0
 11
5699.998762800888
 21
310.5001831054688
 31
0.0
  0
LINE
  5
9E
330
1F
100
AcDbEntity
  8
0-0_補助線
  6
JWW_HOJO
 62
   120
370
     5
100
AcDbLine
 10
219.9994793453743
 20
4174.999769056166
 30
0.0
 11
219.9994793453743
 21
-3790.000179909371
 31
0.0
  0
LINE
  5
9F
330
1F
100
AcDbEntity
  8
0-0_補助線
  6
JWW_HOJO
 62
   120
370
     5
100
AcDbLine
 10
-5370.000018557986
 20
4174.999769056166
 30
0.0
 11
-5370.000018557986
 21
-3790.000179909371
 31
0.0
  0
LINE
  5
A0
330
1F
100
AcDbEntity
  8
0-0_補助線
  6
JWW_HOJO
 62
   120
370
     5
100
AcDbLine
 10
5699.998762800888
 20
-3430.000017526988
 30
0.0
 11
-5999.99998453501
 21
-3430.000017526988
 31
0.0
  0
LINE
  5
A1
330
1F
100
AcDbEntity
  8
0-0_補助線
  6
JWW_HOJO
 62
   120
370
     5
100
AcDbLine
 10
5699.998762800888
 20
-3550.000017526988
 30
0.0
 11
-5999.99998453501
 21
-3550.000017526988
 31
0.0
  0
LINE
  5
A2
330
1F
100
AcDbEntity
  8
0-0_補助線
  6
JWW_HOJO
 62
   120
370
     5
100
AcDbLine
 10
5699.998762800888
 20
-3670.000017526988
 30
0.0
 11
-5999.99998453501
 21
-3670.000017526988
 31
0.0
  0
MTEXT
  5
A3
330
1F
100
AcDbEntity
  8
F-A_文字
  6
Continuous
 62
     7
370
     0
100
AcDbMText
 10
4726.249126529666
 20
-3938.071010139966
 30
0.0
 40
78.86699999999999
 41
517.5
 46
0.0
 71
     7
 72
     1
  1
{\fＭＳ ゴシック|b0|i0|c128|p49;2021.04.01}
 73
     1
 44
1.0
  0
LINE
  5
A4
330
1F
100
AcDbEntity
  8
F-0_補助線
  6
JWW_HOJO
 62
   200
370
    20
100
AcDbLine
 10
-5999.99998453501
 20
4064.999901024072
 30
0.0
 11
5699.998762800888
 21
4064.999901024072
 31
0.0
  0
LINE
  5
A5
330
1F
100
AcDbEntity
  8
0-0_補助線
  6
JWW_HOJO
 62
     7
370
     9
100
AcDbLine
 10
-5490.000018557986
 20
3453.000148463893
 30
0.0
 11
5689.998977248734
 21
3453.000148463893
 31
0.0
  0
LINE
  5
A6
330
1F
100
AcDbEntity
  8
0-0_補助線
  6
JWW_HOJO
 62
   120
370
     5
100
AcDbLine
 10
-5999.99998453501
 20
790.5001831054697
 30
0.0
 11
5699.998762800888
 21
790.5001831054697
 31
0.0
  0
LINE
  5
A7
330
1F
100
AcDbEntity
  8
0-0_補助線
  6
JWW_HOJO
 62
   120
370
     5
100
AcDbLine
 10
5699.998762800888
 20
-3190.000017526988
 30
0.0
 11
-5999.99998453501
 21
-3190.000017526988
 31
0.0
  0
LINE
  5
A8
330
1F
100
AcDbEntity
  8
0-0_補助線
  6
JWW_HOJO
 62
   120
370
     5
100
AcDbLine
 10
5699.998762800888
 20
-3310.000017526988
 30
0.0
 11
-5999.99998453501
 21
-3310.000017526988
 31
0.0
  0
MTEXT
  5
A9
330
1F
100
AcDbEntity
  8
0-A_文字
  6
Continuous
 62
     7
370
     9
100
AcDbMText
 10
-5370.000018557987
 20
661.5754150803022
 30
0.0
 40
57.15000000000027
 41
975.0000000000051
 46
0.0
 71
     7
 72
     1
  1
{\fＭＳ ゴシック|b0|i0|c128|p49;枠外幅 3,234mm（DW=810mm）}
 73
     1
 44
1.0
  0
LINE
  5
AA
330
1F
100
AcDbEntity
  8
0-0_補助線
  6
JWW_HOJO
 62
   120
370
     5
100
AcDbLine
 10
1227.999228297055
 20
-15.50015011349217
 30
0.0
 11
1227.999228297055
 21
-3790.000179909372
 31
0.0
  0
LINE
  5
AB
330
1F
100
AcDbEntity
  8
0-0_補助線
  6
JWW_HOJO
 62
     7
370
     9
100
AcDbLine
 10
1277.999228297053
 20
-15.50015011349217
 30
0.0
 11
1277.999228297053
 21
-3790.000179909372
 31
0.0
  0
MTEXT
  5
AC
330
1F
100
AcDbEntity
  8
F-A_文字
  6
Continuous
 62
     7
370
     0
100
AcDbMText
 10
349.9999175200594
 20
-3946.417291872503
 30
0.0
 40
78.74000000000001
 41
465.0
 46
0.0
 71
     7
 72
     1
  1
{\fＭＳ ゴシック|b0|i0|c128|p49;PINOEARTH}
 73
     1
 44
1.0
  0
LWPOLYLINE
  5
AD
330
1F
100
AcDbEntity
  8
0-B_寸法
  6
Continuous
 62
     7
370
     9
100
AcDbPolyline
 90
        4
 70
     1
 43
3.0
 10
-1883.500269606306
 20
1168.000148463894
 42
0.4142135623731
 10
-1885.000269606306
 20
1169.500148463894
 42
0.4142135623731
 10
-1886.500269606306
 20
1168.000148463894
 42
0.4142135623731
 10
-1885.000269606306
 20
1166.500148463894
 42
0.4142135623731
  0
LWPOLYLINE
  5
AE
330
1F
100
AcDbEntity
  8
0-B_寸法
  6
Continuous
 62
     7
370
     9
100
AcDbPolyline
 90
        4
 70
     1
 43
3.0
 10
-3503.500269606306
 20
1168.000148463894
 42
0.4142135623731
 10
-3505.000269606306
 20
1169.500148463894
 42
0.4142135623731
 10
-3506.500269606306
 20
1168.000148463894
 42
0.4142135623731
 10
-3505.000269606306
 20
1166.500148463894
 42
0.4142135623731
  0
LWPOLYLINE
  5
AF
330
1F
100
AcDbEntity
  8
0-B_寸法
  6
Continuous
 62
     7
370
     9
100
AcDbPolyline
 90
        4
 70
     1
 43
3.0
 10
-2693.500269606306
 20
1168.000148463894
 42
0.4142135623731
 10
-2695.000269606306
 20
1169.500148463894
 42
0.4142135623731
 10
-2696.500269606306
 20
1168.000148463894
 42
0.4142135623731
 10
-2695.000269606306
 20
1166.500148463894
 42
0.4142135623731
  0
LINE
  5
B0
330
1F
100
AcDbEntity
  8
0-B_寸法
  6
Continuous
 62
   120
370
     5
100
AcDbLine
 10
-1885.000269606306
 20
1168.000148463894
 30
0.0
 11
-1885.000269606306
 21
1368.000148463893
 31
0.0
  0
LINE
  5
B1
330
1F
100
AcDbEntity
  8
0-B_寸法
  6
Continuous
 62
   120
370
     5
100
AcDbLine
 10
-3505.000269606306
 20
1168.000148463894
 30
0.0
 11
-1885.000269606306
 21
1168.000148463894
 31
0.0
  0
LINE
  5
B2
330
1F
100
AcDbEntity
  8
0-B_寸法
  6
Continuous
 62
   120
370
     5
100
AcDbLine
 10
-3505.000269606306
 20
1168.000148463894
 30
0.0
 11
-3505.000269606306
 21
1368.000148463893
 31
0.0
  0
LINE
  5
B3
330
1F
100
AcDbEntity
  8
0-B_寸法
  6
Continuous
 62
   120
370
     5
100
AcDbLine
 10
-2695.000269606306
 20
1168.000148463894
 30
0.0
 11
-2695.000269606306
 21
1368.000148463893
 31
0.0
  0
LINE
  5
B4
330
1F
100
AcDbEntity
  8
0-B_寸法
  6
Continuous
 62
   120
370
     5
100
AcDbLine
 10
-4562.000269606305
 20
3409.500148463893
 30
0.0
 11
-4362.000269606306
 21
3409.500148463893
 31
0.0
  0
LINE
  5
B5
330
1F
100
AcDbEntity
  8
0-B_寸法
  6
Continuous
 62
   120
370
     5
100
AcDbLine
 10
-4562.000269606305
 20
3409.500148463893
 30
0.0
 11
-4562.000269606305
 21
1426.500148463893
 31
0.0
  0
LWPOLYLINE
  5
B6
330
1F
100
AcDbEntity
  8
0-B_寸法
  6
Continuous
 62
     7
370
     9
100
AcDbPolyline
 90
        4
 70
     1
 43
3.0
 10
-4560.500269606304
 20
3409.500148463893
 42
0.4142135623731
 10
-4562.000269606305
 20
3411.000148463893
 42
0.4142135623731
 10
-4563.500269606305
 20
3409.500148463893
 42
0.4142135623731
 10
-4562.000269606305
 20
3408.000148463893
 42
0.4142135623731
  0
LWPOLYLINE
  5
B7
330
1F
100
AcDbEntity
  8
0-B_寸法
  6
Continuous
 62
     7
370
     9
100
AcDbPolyline
 90
        4
 70
     1
 43
3.0
 10
-4560.500269606304
 20
1426.500148463893
 42
0.4142135623731
 10
-4562.000269606305
 20
1428.000148463893
 42
0.4142135623731
 10
-4563.500269606305
 20
1426.500148463893
 42
0.4142135623731
 10
-4562.000269606305
 20
1425.000148463893
 42
0.4142135623731
  0
LINE
  5
B8
330
1F
100
AcDbEntity
  8
0-B_寸法
  6
Continuous
 62
   120
370
     5
100
AcDbLine
 10
-4562.000269606305
 20
1426.500148463893
 30
0.0
 11
-4362.000269606306
 21
1426.500148463893
 31
0.0
  0
MTEXT
  5
B9
330
1F
100
AcDbEntity
  8
0-B_寸法
  6
Continuous
 62
     7
370
    70
100
AcDbMText
 10
-4577.000269606305
 20
2208.825148463893
 30
0.0
 40
57.15000000000029
 41
412.5000000000022
 46
0.0
 71
     7
 72
     1
  1
{\fＭＳ ゴシック|b0|i0|c128|p49;ＤＨ＝1,983}
 11
6.123031769111886E-17
 21
1.0
 31
0.0
 73
     1
 44
1.0
  0
MTEXT
  5
BA
330
1F
100
AcDbEntity
  8
0-B_寸法
  6
Continuous
 62
     7
370
   211
100
AcDbMText
 10
-3268.750269606306
 20
1174.075148463899
 30
0.0
 40
57.14999999999999
 41
337.5
 46
0.0
 71
     7
 72
     1
  1
{\fＭＳ ゴシック|b0|i0|c128|p49;ＤＷ＝810}
 73
     1
 44
1.0
  0
MTEXT
  5
BB
330
1F
100
AcDbEntity
  8
0-B_寸法
  6
Continuous
 62
     7
370
   211
100
AcDbMText
 10
-2458.750269606306
 20
1174.075148463899
 30
0.0
 40
57.14999999999999
 41
337.5
 46
0.0
 71
     7
 72
     1
  1
{\fＭＳ ゴシック|b0|i0|c128|p49;ＤＷ＝810}
 73
     1
 44
1.0
  0
ARC
  5
BC
330
1F
100
AcDbEntity
  8
引手
  6
Continuous
 62
     7
370
     9
100
AcDbCircle
 10
-2633.000269606306
 20
2421.500148463894
 30
0.0
 40
1.5
100
AcDbArc
 50
0.0
 51
90.0
  0
LINE
  5
BD
330
1F
100
AcDbEntity
  8
引手
  6
Continuous
 62
     7
370
     9
100
AcDbLine
 10
-2633.000269606306
 20
2423.000148463894
 30
0.0
 11
-2655.000269606307
 21
2423.000148463894
 31
0.0
  0
LINE
  5
BE
330
1F
100
AcDbEntity
  8
引手
  6
Continuous
 62
     7
370
     9
100
AcDbLine
 10
-2631.500269606306
 20
2421.500148463894
 30
0.0
 11
-2631.500269606306
 21
2346.500148463894
 31
0.0
  0
ARC
  5
BF
330
1F
100
AcDbEntity
  8
引手
  6
Continuous
 62
     7
370
     9
100
AcDbCircle
 10
-2633.000269606306
 20
2346.500148463894
 30
0.0
 40
1.5
100
AcDbArc
 50
270.0
 51
0.0
  0
LINE
  5
C0
330
1F
100
AcDbEntity
  8
引手
  6
Continuous
 62
     7
370
     9
100
AcDbLine
 10
-2633.000269606306
 20
2345.000148463893
 30
0.0
 11
-2655.000269606307
 21
2345.000148463893
 31
0.0
  0
ARC
  5
C1
330
1F
100
AcDbEntity
  8
引手
  6
Continuous
 62
     7
370
     9
100
AcDbCircle
 10
-2655.000269606307
 20
2346.500148463894
 30
0.0
 40
1.5
100
AcDbArc
 50
180.0
 51
270.0
  0
LINE
  5
C2
330
1F
100
AcDbEntity
  8
引手
  6
Continuous
 62
     7
370
     9
100
AcDbLine
 10
-2656.500269606307
 20
2346.500148463894
 30
0.0
 11
-2656.500269606307
 21
2421.500148463894
 31
0.0
  0
ARC
  5
C3
330
1F
100
AcDbEntity
  8
引手
  6
Continuous
 62
     7
370
     9
100
AcDbCircle
 10
-2655.000269606307
 20
2421.500148463894
 30
0.0
 40
1.5
100
AcDbArc
 50
90.0
 51
180.0
  0
ARC
  5
C4
330
1F
100
AcDbEntity
  8
引手
  6
Continuous
 62
    92
370
    13
100
AcDbCircle
 10
-2624.500269606305
 20
2437.500148463893
 30
0.0
 40
1.5
100
AcDbArc
 50
0.0
 51
90.0
  0
LINE
  5
C5
330
1F
100
AcDbEntity
  8
引手
  6
Continuous
 62
    92
370
    13
100
AcDbLine
 10
-2624.500269606305
 20
2439.000148463893
 30
0.0
 11
-2663.500269606307
 21
2439.000148463893
 31
0.0
  0
LINE
  5
C6
330
1F
100
AcDbEntity
  8
引手
  6
Continuous
 62
    92
370
    13
100
AcDbLine
 10
-2623.000269606305
 20
2437.500148463893
 30
0.0
 11
-2623.000269606305
 21
2330.500148463894
 31
0.0
  0
ARC
  5
C7
330
1F
100
AcDbEntity
  8
引手
  6
Continuous
 62
    92
370
    13
100
AcDbCircle
 10
-2624.500269606305
 20
2330.500148463894
 30
0.0
 40
1.5
100
AcDbArc
 50
270.0
 51
0.0
  0
LINE
  5
C8
330
1F
100
AcDbEntity
  8
引手
  6
Continuous
 62
    92
370
    13
100
AcDbLine
 10
-2624.500269606305
 20
2329.000148463894
 30
0.0
 11
-2663.500269606307
 21
2329.000148463894
 31
0.0
  0
ARC
  5
C9
330
1F
100
AcDbEntity
  8
引手
  6
Continuous
 62
    92
370
    13
100
AcDbCircle
 10
-2663.500269606307
 20
2330.500148463894
 30
0.0
 40
1.5
100
AcDbArc
 50
180.0
 51
270.0
  0
LINE
  5
CA
330
1F
100
AcDbEntity
  8
引手
  6
Continuous
 62
    92
370
    13
100
AcDbLine
 10
-2665.000269606306
 20
2330.500148463894
 30
0.0
 11
-2665.000269606306
 21
2437.500148463893
 31
0.0
  0
ARC
  5
CB
330
1F
100
AcDbEntity
  8
引手
  6
Continuous
 62
    92
370
    13
100
AcDbCircle
 10
-2663.500269606307
 20
2437.500148463893
 30
0.0
 40
1.5
100
AcDbArc
 50
90.0
 51
180.0
  0
ARC
  5
CC
330
1F
100
AcDbEntity
  8
引手
  6
Continuous
 62
     7
370
     9
100
AcDbCircle
 10
-2735.000269606303
 20
2421.500148463894
 30
0.0
 40
1.5
100
AcDbArc
 50
0.0
 51
90.0
  0
LINE
  5
CD
330
1F
100
AcDbEntity
  8
引手
  6
Continuous
 62
     7
370
     9
100
AcDbLine
 10
-2735.000269606303
 20
2423.000148463894
 30
0.0
 11
-2757.000269606304
 21
2423.000148463894
 31
0.0
  0
LINE
  5
CE
330
1F
100
AcDbEntity
  8
引手
  6
Continuous
 62
     7
370
     9
100
AcDbLine
 10
-2733.500269606303
 20
2421.500148463894
 30
0.0
 11
-2733.500269606303
 21
2346.500148463894
 31
0.0
  0
ARC
  5
CF
330
1F
100
AcDbEntity
  8
引手
  6
Continuous
 62
     7
370
     9
100
AcDbCircle
 10
-2735.000269606303
 20
2346.500148463894
 30
0.0
 40
1.5
100
AcDbArc
 50
270.0
 51
0.0
  0
LINE
  5
D0
330
1F
100
AcDbEntity
  8
引手
  6
Continuous
 62
     7
370
     9
100
AcDbLine
 10
-2735.000269606303
 20
2345.000148463893
 30
0.0
 11
-2757.000269606304
 21
2345.000148463893
 31
0.0
  0
ARC
  5
D1
330
1F
100
AcDbEntity
  8
引手
  6
Continuous
 62
     7
370
     9
100
AcDbCircle
 10
-2757.000269606304
 20
2346.500148463894
 30
0.0
 40
1.5
100
AcDbArc
 50
180.0
 51
270.0
  0
LINE
  5
D2
330
1F
100
AcDbEntity
  8
引手
  6
Continuous
 62
     7
370
     9
100
AcDbLine
 10
-2758.500269606304
 20
2346.500148463894
 30
0.0
 11
-2758.500269606304
 21
2421.500148463894
 31
0.0
  0
ARC
  5
D3
330
1F
100
AcDbEntity
  8
引手
  6
Continuous
 62
     7
370
     9
100
AcDbCircle
 10
-2757.000269606304
 20
2421.500148463894
 30
0.0
 40
1.5
100
AcDbArc
 50
90.0
 51
180.0
  0
ARC
  5
D4
330
1F
100
AcDbEntity
  8
引手
  6
Continuous
 62
    92
370
    13
100
AcDbCircle
 10
-2726.500269606304
 20
2437.500148463893
 30
0.0
 40
1.5
100
AcDbArc
 50
0.0
 51
90.0
  0
LINE
  5
D5
330
1F
100
AcDbEntity
  8
引手
  6
Continuous
 62
    92
370
    13
100
AcDbLine
 10
-2726.500269606304
 20
2439.000148463893
 30
0.0
 11
-2765.500269606303
 21
2439.000148463893
 31
0.0
  0
LINE
  5
D6
330
1F
100
AcDbEntity
  8
引手
  6
Continuous
 62
    92
370
    13
100
AcDbLine
 10
-2725.000269606304
 20
2437.500148463893
 30
0.0
 11
-2725.000269606304
 21
2330.500148463894
 31
0.0
  0
ARC
  5
D7
330
1F
100
AcDbEntity
  8
引手
  6
Continuous
 62
    92
370
    13
100
AcDbCircle
 10
-2726.500269606304
 20
2330.500148463894
 30
0.0
 40
1.5
100
AcDbArc
 50
270.0
 51
0.0
  0
LINE
  5
D8
330
1F
100
AcDbEntity
  8
引手
  6
Continuous
 62
    92
370
    13
100
AcDbLine
 10
-2726.500269606304
 20
2329.000148463894
 30
0.0
 11
-2765.500269606303
 21
2329.000148463894
 31
0.0
  0
LINE
  5
D9
330
1F
100
AcDbEntity
  8
0-4_枠
  6
Continuous
 62
    92
370
    13
100
AcDbLine
 10
-4282.000269606305
 20
1418.000148463893
 30
0.0
 11
-4312.000269606305
 21
1418.000148463893
 31
0.0
  0
LINE
  5
DA
330
1F
100
AcDbEntity
  8
0-4_枠
  6
Continuous
 62
    92
370
    13
100
AcDbLine
 10
-1078.000269606305
 20
1418.000148463893
 30
0.0
 11
-1108.000269606305
 21
1418.000148463893
 31
0.0
  0
LINE
  5
DB
330
1F
100
AcDbEntity
  8
0-4_枠
  6
Continuous
 62
    92
370
    13
100
AcDbLine
 10
-4282.000269606305
 20
3423.000148463893
 30
0.0
 11
-1108.000269606305
 21
3423.000148463893
 31
0.0
  0
LINE
  5
DC
330
1F
100
AcDbEntity
  8
0-4_枠
  6
Continuous
 62
    92
370
    13
100
AcDbLine
 10
-4312.000269606305
 20
1418.000148463893
 30
0.0
 11
-4312.000269606305
 21
3453.000148463893
 31
0.0
  0
LINE
  5
DD
330
1F
100
AcDbEntity
  8
0-4_枠
  6
Continuous
 62
    92
370
    13
100
AcDbLine
 10
-1078.000269606305
 20
1418.000148463893
 30
0.0
 11
-1078.000269606305
 21
3453.000148463893
 31
0.0
  0
LINE
  5
DE
330
1F
100
AcDbEntity
  8
0-4_枠
  6
Continuous
 62
    92
370
    13
100
AcDbLine
 10
-4312.000269606305
 20
3453.000148463893
 30
0.0
 11
-1078.000269606305
 21
3453.000148463893
 31
0.0
  0
LINE
  5
DF
330
1F
100
AcDbEntity
  8
0-4_枠
  6
Continuous
 62
    92
370
    13
100
AcDbLine
 10
-4282.000269606305
 20
1418.000148463893
 30
0.0
 11
-4282.000269606305
 21
3453.000148463893
 31
0.0
  0
LINE
  5
E0
330
1F
100
AcDbEntity
  8
0-4_枠
  6
Continuous
 62
    92
370
    13
100
AcDbLine
 10
-1108.000269606305
 20
1418.000148463893
 30
0.0
 11
-1108.000269606305
 21
3453.000148463893
 31
0.0
  0
LINE
  5
E1
330
1F
100
AcDbEntity
  8
0-4_枠
  6
JWW_DASHED1
 62
   120
370
     5
100
AcDbLine
 10
-3475.000269606304
 20
1426.500148463892
 30
0.0
 11
-3475.000269606304
 21
3423.000148463893
 31
0.0
  0
LINE
  5
E2
330
1F
100
AcDbEntity
  8
0-4_枠
  6
JWW_DASHED1
 62
   120
370
     5
100
AcDbLine
 10
-3505.000269606304
 20
1426.500148463892
 30
0.0
 11
-3505.000269606304
 21
3423.000148463893
 31
0.0
  0
LINE
  5
E3
330
1F
100
AcDbEntity
  8
0-4_枠
  6
JWW_DASHED1
 62
   120
370
     5
100
AcDbLine
 10
-1885.000269606304
 20
1426.500148463892
 30
0.0
 11
-1885.000269606304
 21
3423.000148463893
 31
0.0
  0
LINE
  5
E4
330
1F
100
AcDbEntity
  8
0-4_枠
  6
JWW_DASHED1
 62
   120
370
     5
100
AcDbLine
 10
-1915.000269606304
 20
1426.500148463892
 30
0.0
 11
-1915.000269606304
 21
3423.000148463893
 31
0.0
  0
LINE
  5
E5
330
1F
100
AcDbEntity
  8
0-4_枠
  6
Continuous
 62
    92
370
    13
100
AcDbLine
 10
-1885.000269606304
 20
1426.500148463892
 30
0.0
 11
-1885.000269606304
 21
1418.000148463891
 31
0.0
  0
LINE
  5
E6
330
1F
100
AcDbEntity
  8
0-4_枠
  6
Continuous
 62
    92
370
    13
100
AcDbLine
 10
-1915.000269606304
 20
1418.000148463891
 30
0.0
 11
-1885.000269606304
 21
1418.000148463891
 31
0.0
  0
LINE
  5
E7
330
1F
100
AcDbEntity
  8
0-4_枠
  6
Continuous
 62
    92
370
    13
100
AcDbLine
 10
-1915.000269606304
 20
1426.500148463892
 30
0.0
 11
-1915.000269606304
 21
1418.000148463891
 31
0.0
  0
LINE
  5
E8
330
1F
100
AcDbEntity
  8
0-4_枠
  6
Continuous
 62
    92
370
    13
100
AcDbLine
 10
-3475.000269606306
 20
1426.500148463892
 30
0.0
 11
-3475.000269606306
 21
1418.000148463891
 31
0.0
  0
LINE
  5
E9
330
1F
100
AcDbEntity
  8
0-4_枠
  6
Continuous
 62
    92
370
    13
100
AcDbLine
 10
-3505.000269606306
 20
1418.000148463891
 30
0.0
 11
-3475.000269606306
 21
1418.000148463891
 31
0.0
  0
LINE
  5
EA
330
1F
100
AcDbEntity
  8
0-4_枠
  6
Continuous
 62
    92
370
    13
100
AcDbLine
 10
-3505.000269606306
 20
1426.500148463892
 30
0.0
 11
-3505.000269606306
 21
1418.000148463891
 31
0.0
  0
LINE
  5
EB
330
1F
100
AcDbEntity
  8
0-2_扉
  6
Continuous
 62
    92
370
    13
100
AcDbLine
 10
-1885.000269606306
 20
3409.500148463893
 30
0.0
 11
-2695.000269606306
 21
3409.500148463893
 31
0.0
  0
LINE
  5
EC
330
1F
100
AcDbEntity
  8
0-2_扉
  6
Continuous
 62
    92
370
    13
100
AcDbLine
 10
-1885.000269606306
 20
1426.500148463892
 30
0.0
 11
-2695.000269606306
 21
1426.500148463892
 31
0.0
  0
LINE
  5
ED
330
1F
100
AcDbEntity
  8
0-2_扉
  6
JWW_DASHED1
 62
   120
370
     5
100
AcDbLine
 10
-1915.000269606306
 20
1426.500148463892
 30
0.0
 11
-1915.000269606306
 21
3409.500148463893
 31
0.0
  0
LINE
  5
EE
330
1F
100
AcDbEntity
  8
0-2_扉
  6
Continuous
 62
    92
370
    13
100
AcDbLine
 10
-1885.000269606306
 20
1426.500148463892
 30
0.0
 11
-1885.000269606306
 21
3409.500148463893
 31
0.0
  0
LINE
  5
EF
330
1F
100
AcDbEntity
  8
0-2_扉
  6
Continuous
 62
    92
370
    13
100
AcDbLine
 10
-2695.000269606306
 20
1426.500148463892
 30
0.0
 11
-2695.000269606306
 21
3409.500148463893
 31
0.0
  0
LINE
  5
F0
330
1F
100
AcDbEntity
  8
0-2_扉
  6
Continuous
 62
    92
370
    13
100
AcDbLine
 10
-3505.000269606306
 20
3409.500148463893
 30
0.0
 11
-2695.000269606306
 21
3409.500148463893
 31
0.0
  0
LINE
  5
F1
330
1F
100
AcDbEntity
  8
0-2_扉
  6
Continuous
 62
    92
370
    13
100
AcDbLine
 10
-3505.000269606306
 20
1426.500148463892
 30
0.0
 11
-2695.000269606306
 21
1426.500148463892
 31
0.0
  0
LINE
  5
F2
330
1F
100
AcDbEntity
  8
0-2_扉
  6
JWW_DASHED1
 62
   120
370
     5
100
AcDbLine
 10
-3475.000269606306
 20
1426.500148463892
 30
0.0
 11
-3475.000269606306
 21
3409.500148463893
 31
0.0
  0
LINE
  5
F3
330
1F
100
AcDbEntity
  8
0-2_扉
  6
Continuous
 62
    92
370
    13
100
AcDbLine
 10
-3505.000269606306
 20
1426.500148463892
 30
0.0
 11
-3505.000269606306
 21
3409.500148463893
 31
0.0
  0
LWPOLYLINE
  5
F4
330
1F
100
AcDbEntity
  8
0-B_寸法
  6
Continuous
 62
     7
370
     9
100
AcDbPolyline
 90
        4
 70
     1
 43
3.0
 10
3706.499228297054
 20
1168.000148463894
 42
0.4142135623731
 10
3704.999228297054
 20
1169.500148463894
 42
0.4142135623731
 10
3703.499228297054
 20
1168.000148463894
 42
0.4142135623731
 10
3704.999228297054
 20
1166.500148463894
 42
0.4142135623731
  0
LWPOLYLINE
  5
F5
330
1F
100
AcDbEntity
  8
0-B_寸法
  6
Continuous
 62
     7
370
     9
100
AcDbPolyline
 90
        4
 70
     1
 43
3.0
 10
2086.499228297054
 20
1168.000148463894
 42
0.4142135623731
 10
2084.999228297054
 20
1169.500148463894
 42
0.4142135623731
 10
2083.499228297054
 20
1168.000148463894
 42
0.4142135623731
 10
2084.999228297054
 20
1166.500148463894
 42
0.4142135623731
  0
LWPOLYLINE
  5
F6
330
1F
100
AcDbEntity
  8
0-B_寸法
  6
Continuous
 62
     7
370
     9
100
AcDbPolyline
 90
        4
 70
     1
 43
3.0
 10
2896.499228297054
 20
1168.000148463894
 42
0.4142135623731
 10
2894.999228297054
 20
1169.500148463894
 42
0.4142135623731
 10
2893.499228297054
 20
1168.000148463894
 42
0.4142135623731
 10
2894.999228297054
 20
1166.500148463894
 42
0.4142135623731
  0
LINE
  5
F7
330
1F
100
AcDbEntity
  8
0-B_寸法
  6
Continuous
 62
   120
370
     5
100
AcDbLine
 10
3704.999228297054
 20
1168.000148463894
 30
0.0
 11
3704.999228297054
 21
1368.000148463893
 31
0.0
  0
LINE
  5
F8
330
1F
100
AcDbEntity
  8
0-B_寸法
  6
Continuous
 62
   120
370
     5
100
AcDbLine
 10
2084.999228297054
 20
1168.000148463894
 30
0.0
 11
3704.999228297054
 21
1168.000148463894
 31
0.0
  0
LINE
  5
F9
330
1F
100
AcDbEntity
  8
0-B_寸法
  6
Continuous
 62
   120
370
     5
100
AcDbLine
 10
2084.999228297054
 20
1168.000148463894
 30
0.0
 11
2084.999228297054
 21
1368.000148463893
 31
0.0
  0
LINE
  5
FA
330
1F
100
AcDbEntity
  8
0-B_寸法
  6
Continuous
 62
   120
370
     5
100
AcDbLine
 10
2894.999228297054
 20
1168.000148463894
 30
0.0
 11
2894.999228297054
 21
1368.000148463893
 31
0.0
  0
LINE
  5
FB
330
1F
100
AcDbEntity
  8
0-B_寸法
  6
Continuous
 62
   120
370
     5
100
AcDbLine
 10
1027.999228297056
 20
3409.500148463893
 30
0.0
 11
1227.999228297055
 21
3409.500148463893
 31
0.0
  0
LINE
  5
FC
330
1F
100
AcDbEntity
  8
0-B_寸法
  6
Continuous
 62
   120
370
     5
100
AcDbLine
 10
1027.999228297056
 20
3409.500148463893
 30
0.0
 11
1027.999228297056
 21
1426.500148463893
 31
0.0
  0
LWPOLYLINE
  5
FD
330
1F
100
AcDbEntity
  8
0-B_寸法
  6
Continuous
 62
     7
370
     9
100
AcDbPolyline
 90
        4
 70
     1
 43
3.0
 10
1029.499228297056
 20
3409.500148463893
 42
0.4142135623731
 10
1027.999228297056
 20
3411.000148463893
 42
0.4142135623731
 10
1026.499228297056
 20
3409.500148463893
 42
0.4142135623731
 10
1027.999228297056
 20
3408.000148463893
 42
0.4142135623731
  0
LWPOLYLINE
  5
FE
330
1F
100
AcDbEntity
  8
0-B_寸法
  6
Continuous
 62
     7
370
     9
100
AcDbPolyline
 90
        4
 70
     1
 43
3.0
 10
1029.499228297056
 20
1426.500148463893
 42
0.4142135623731
 10
1027.999228297056
 20
1428.000148463893
 42
0.4142135623731
 10
1026.499228297056
 20
1426.500148463893
 42
0.4142135623731
 10
1027.999228297056
 20
1425.000148463893
 42
0.4142135623731
  0
LINE
  5
FF
330
1F
100
AcDbEntity
  8
0-B_寸法
  6
Continuous
 62
   120
370
     5
100
AcDbLine
 10
1027.999228297056
 20
1426.500148463893
 30
0.0
 11
1227.999228297055
 21
1426.500148463893
 31
0.0
  0
MTEXT
  5
100
330
1F
100
AcDbEntity
  8
0-B_寸法
  6
Continuous
 62
     7
370
    70
100
AcDbMText
 10
1012.999228297055
 20
2208.825148463893
 30
0.0
 40
57.15000000000029
 41
412.5000000000022
 46
0.0
 71
     7
 72
     1
  1
{\fＭＳ ゴシック|b0|i0|c128|p49;ＤＨ＝1,983}
 11
6.123031769111886E-17
 21
1.0
 31
0.0
 73
     1
 44
1.0
  0
MTEXT
  5
101
330
1F
100
AcDbEntity
  8
0-B_寸法
  6
Continuous
 62
     7
370
   211
100
AcDbMText
 10
2321.249228297054
 20
1174.075148463899
 30
0.0
 40
57.14999999999999
 41
337.5
 46
0.0
 71
     7
 72
     1
  1
{\fＭＳ ゴシック|b0|i0|c128|p49;ＤＷ＝810}
 73
     1
 44
1.0
  0
MTEXT
  5
102
330
1F
100
AcDbEntity
  8
0-B_寸法
  6
Continuous
 62
     7
370
   211
100
AcDbMText
 10
3131.249228297054
 20
1174.075148463899
 30
0.0
 40
57.14999999999999
 41
337.5
 46
0.0
 71
     7
 72
     1
  1
{\fＭＳ ゴシック|b0|i0|c128|p49;ＤＷ＝810}
 73
     1
 44
1.0
  0
LINE
  5
103
330
1F
100
AcDbEntity
  8
0-4_枠
  6
Continuous
 62
    92
370
    13
100
AcDbLine
 10
1307.999228297055
 20
1418.000148463893
 30
0.0
 11
1277.999228297055
 21
1418.000148463893
 31
0.0
  0
LINE
  5
104
330
1F
100
AcDbEntity
  8
0-4_枠
  6
Continuous
 62
    92
370
    13
100
AcDbLine
 10
4511.999228297055
 20
1418.000148463893
 30
0.0
 11
4481.999228297055
 21
1418.000148463893
 31
0.0
  0
LINE
  5
105
330
1F
100
AcDbEntity
  8
0-4_枠
  6
Continuous
 62
    92
370
    13
100
AcDbLine
 10
1307.999228297055
 20
3423.000148463893
 30
0.0
 11
4481.999228297055
 21
3423.000148463893
 31
0.0
  0
LINE
  5
106
330
1F
100
AcDbEntity
  8
0-4_枠
  6
Continuous
 62
    92
370
    13
100
AcDbLine
 10
1277.999228297055
 20
1418.000148463893
 30
0.0
 11
1277.999228297055
 21
3453.000148463893
 31
0.0
  0
LINE
  5
107
330
1F
100
AcDbEntity
  8
0-4_枠
  6
Continuous
 62
    92
370
    13
100
AcDbLine
 10
4511.999228297055
 20
1418.000148463893
 30
0.0
 11
4511.999228297055
 21
3453.000148463893
 31
0.0
  0
LINE
  5
108
330
1F
100
AcDbEntity
  8
0-4_枠
  6
Continuous
 62
    92
370
    13
100
AcDbLine
 10
1277.999228297055
 20
3453.000148463893
 30
0.0
 11
4511.999228297055
 21
3453.000148463893
 31
0.0
  0
LINE
  5
109
330
1F
100
AcDbEntity
  8
0-4_枠
  6
Continuous
 62
    92
370
    13
100
AcDbLine
 10
1307.999228297055
 20
1418.000148463893
 30
0.0
 11
1307.999228297055
 21
3453.000148463893
 31
0.0
  0
LINE
  5
10A
330
1F
100
AcDbEntity
  8
0-4_枠
  6
Continuous
 62
    92
370
    13
100
AcDbLine
 10
4481.999228297055
 20
1418.000148463893
 30
0.0
 11
4481.999228297055
 21
3453.000148463893
 31
0.0
  0
LINE
  5
10B
330
1F
100
AcDbEntity
  8
0-4_枠
  6
Continuous
 62
    92
370
    13
100
AcDbLine
 10
3704.999228297056
 20
1426.500148463892
 30
0.0
 11
3704.999228297056
 21
1418.000148463891
 31
0.0
  0
LINE
  5
10C
330
1F
100
AcDbEntity
  8
0-4_枠
  6
Continuous
 62
    92
370
    13
100
AcDbLine
 10
3674.999228297056
 20
1418.000148463891
 30
0.0
 11
3704.999228297056
 21
1418.000148463891
 31
0.0
  0
LINE
  5
10D
330
1F
100
AcDbEntity
  8
0-4_枠
  6
Continuous
 62
    92
370
    13
100
AcDbLine
 10
3674.999228297056
 20
1426.500148463892
 30
0.0
 11
3674.999228297056
 21
1418.000148463891
 31
0.0
  0
LINE
  5
10E
330
1F
100
AcDbEntity
  8
0-4_枠
  6
Continuous
 62
    92
370
    13
100
AcDbLine
 10
2114.999228297054
 20
1426.500148463892
 30
0.0
 11
2114.999228297054
 21
1418.000148463891
 31
0.0
  0
LINE
  5
10F
330
1F
100
AcDbEntity
  8
0-4_枠
  6
Continuous
 62
    92
370
    13
100
AcDbLine
 10
2084.999228297054
 20
1418.000148463891
 30
0.0
 11
2114.999228297054
 21
1418.000148463891
 31
0.0
  0
LINE
  5
110
330
1F
100
AcDbEntity
  8
0-4_枠
  6
Continuous
 62
    92
370
    13
100
AcDbLine
 10
2084.999228297054
 20
1426.500148463892
 30
0.0
 11
2084.999228297054
 21
1418.000148463891
 31
0.0
  0
LINE
  5
111
330
1F
100
AcDbEntity
  8
0-4_枠
  6
JWW_DASHED1
 62
   120
370
     5
100
AcDbLine
 10
3674.999228297056
 20
1426.500148463892
 30
0.0
 11
3674.999228297056
 21
3423.000148463893
 31
0.0
  0
LINE
  5
112
330
1F
100
AcDbEntity
  8
0-4_枠
  6
JWW_DASHED1
 62
   120
370
     5
100
AcDbLine
 10
2084.999228297056
 20
1426.500148463892
 30
0.0
 11
2084.999228297056
 21
3423.000148463893
 31
0.0
  0
LINE
  5
113
330
1F
100
AcDbEntity
  8
0-4_枠
  6
JWW_DASHED1
 62
   120
370
     5
100
AcDbLine
 10
2114.999228297056
 20
1426.500148463892
 30
0.0
 11
2114.999228297056
 21
3423.000148463893
 31
0.0
  0
LINE
  5
114
330
1F
100
AcDbEntity
  8
0-4_枠
  6
JWW_DASHED1
 62
   120
370
     5
100
AcDbLine
 10
3704.999228297056
 20
1426.500148463892
 30
0.0
 11
3704.999228297056
 21
3423.000148463893
 31
0.0
  0
LINE
  5
115
330
1F
100
AcDbEntity
  8
0-2_扉
  6
Continuous
 62
    92
370
    13
100
AcDbLine
 10
3704.999228297054
 20
3409.500148463893
 30
0.0
 11
2894.999228297054
 21
3409.500148463893
 31
0.0
  0
LINE
  5
116
330
1F
100
AcDbEntity
  8
0-2_扉
  6
Continuous
 62
    92
370
    13
100
AcDbLine
 10
3704.999228297054
 20
1426.500148463892
 30
0.0
 11
2894.999228297054
 21
1426.500148463892
 31
0.0
  0
LINE
  5
117
330
1F
100
AcDbEntity
  8
0-2_扉
  6
JWW_DASHED1
 62
   120
370
     5
100
AcDbLine
 10
3674.999228297054
 20
1426.500148463892
 30
0.0
 11
3674.999228297054
 21
3409.500148463893
 31
0.0
  0
LINE
  5
118
330
1F
100
AcDbEntity
  8
0-2_扉
  6
Continuous
 62
    92
370
    13
100
AcDbLine
 10
3704.999228297054
 20
1426.500148463892
 30
0.0
 11
3704.999228297054
 21
3409.500148463893
 31
0.0
  0
LINE
  5
119
330
1F
100
AcDbEntity
  8
0-2_扉
  6
Continuous
 62
    92
370
    13
100
AcDbLine
 10
2894.999228297054
 20
1426.500148463892
 30
0.0
 11
2894.999228297054
 21
3409.500148463893
 31
0.0
  0
LINE
  5
11A
330
1F
100
AcDbEntity
  8
0-2_扉
  6
Continuous
 62
    92
370
    13
100
AcDbLine
 10
2084.999228297054
 20
3409.500148463893
 30
0.0
 11
2894.999228297054
 21
3409.500148463893
 31
0.0
  0
LINE
  5
11B
330
1F
100
AcDbEntity
  8
0-2_扉
  6
Continuous
 62
    92
370
    13
100
AcDbLine
 10
2084.999228297054
 20
1426.500148463892
 30
0.0
 11
2894.999228297054
 21
1426.500148463892
 31
0.0
  0
LINE
  5
11C
330
1F
100
AcDbEntity
  8
0-2_扉
  6
JWW_DASHED1
 62
   120
370
     5
100
AcDbLine
 10
2114.999228297054
 20
1426.500148463892
 30
0.0
 11
2114.999228297054
 21
3409.500148463893
 31
0.0
  0
LINE
  5
11D
330
1F
100
AcDbEntity
  8
0-2_扉
  6
Continuous
 62
    92
370
    13
100
AcDbLine
 10
2084.999228297054
 20
1426.500148463892
 30
0.0
 11
2084.999228297054
 21
3409.500148463893
 31
0.0
  0
ARC
  5
11E
330
1F
100
AcDbEntity
  8
引手
  6
Continuous
 62
     7
370
     9
100
AcDbCircle
 10
2956.999228297054
 20
2421.500148463894
 30
0.0
 40
1.5
100
AcDbArc
 50
0.0
 51
90.0
  0
LINE
  5
11F
330
1F
100
AcDbEntity
  8
引手
  6
Continuous
 62
     7
370
     9
100
AcDbLine
 10
2956.999228297054
 20
2423.000148463894
 30
0.0
 11
2934.999228297054
 21
2423.000148463894
 31
0.0
  0
LINE
  5
120
330
1F
100
AcDbEntity
  8
引手
  6
Continuous
 62
     7
370
     9
100
AcDbLine
 10
2958.499228297055
 20
2421.500148463894
 30
0.0
 11
2958.499228297055
 21
2346.500148463894
 31
0.0
  0
ARC
  5
121
330
1F
100
AcDbEntity
  8
引手
  6
Continuous
 62
     7
370
     9
100
AcDbCircle
 10
2956.999228297054
 20
2346.500148463894
 30
0.0
 40
1.5
100
AcDbArc
 50
270.0
 51
0.0
  0
LINE
  5
122
330
1F
100
AcDbEntity
  8
引手
  6
Continuous
 62
     7
370
     9
100
AcDbLine
 10
2956.999228297054
 20
2345.000148463893
 30
0.0
 11
2934.999228297054
 21
2345.000148463893
 31
0.0
  0
ARC
  5
123
330
1F
100
AcDbEntity
  8
引手
  6
Continuous
 62
     7
370
     9
100
AcDbCircle
 10
2934.999228297054
 20
2346.500148463894
 30
0.0
 40
1.5
100
AcDbArc
 50
180.0
 51
270.0
  0
LINE
  5
124
330
1F
100
AcDbEntity
  8
引手
  6
Continuous
 62
     7
370
     9
100
AcDbLine
 10
2933.499228297053
 20
2346.500148463894
 30
0.0
 11
2933.499228297053
 21
2421.500148463894
 31
0.0
  0
ARC
  5
125
330
1F
100
AcDbEntity
  8
引手
  6
Continuous
 62
     7
370
     9
100
AcDbCircle
 10
2934.999228297054
 20
2421.500148463894
 30
0.0
 40
1.5
100
AcDbArc
 50
90.0
 51
180.0
  0
ARC
  5
126
330
1F
100
AcDbEntity
  8
引手
  6
Continuous
 62
    92
370
    13
100
AcDbCircle
 10
2965.499228297055
 20
2437.500148463893
 30
0.0
 40
1.5
100
AcDbArc
 50
0.0
 51
90.0
  0
LINE
  5
127
330
1F
100
AcDbEntity
  8
引手
  6
Continuous
 62
    92
370
    13
100
AcDbLine
 10
2965.499228297055
 20
2439.000148463893
 30
0.0
 11
2926.499228297053
 21
2439.000148463893
 31
0.0
  0
LINE
  5
128
330
1F
100
AcDbEntity
  8
引手
  6
Continuous
 62
    92
370
    13
100
AcDbLine
 10
2966.999228297055
 20
2437.500148463893
 30
0.0
 11
2966.999228297055
 21
2330.500148463894
 31
0.0
  0
ARC
  5
129
330
1F
100
AcDbEntity
  8
引手
  6
Continuous
 62
    92
370
    13
100
AcDbCircle
 10
2965.499228297055
 20
2330.500148463894
 30
0.0
 40
1.5
100
AcDbArc
 50
270.0
 51
0.0
  0
LINE
  5
12A
330
1F
100
AcDbEntity
  8
引手
  6
Continuous
 62
    92
370
    13
100
AcDbLine
 10
2965.499228297055
 20
2329.000148463894
 30
0.0
 11
2926.499228297053
 21
2329.000148463894
 31
0.0
  0
ARC
  5
12B
330
1F
100
AcDbEntity
  8
引手
  6
Continuous
 62
    92
370
    13
100
AcDbCircle
 10
2926.499228297053
 20
2330.500148463894
 30
0.0
 40
1.5
100
AcDbArc
 50
180.0
 51
270.0
  0
LINE
  5
12C
330
1F
100
AcDbEntity
  8
引手
  6
Continuous
 62
    92
370
    13
100
AcDbLine
 10
2924.999228297054
 20
2330.500148463894
 30
0.0
 11
2924.999228297054
 21
2437.500148463893
 31
0.0
  0
ARC
  5
12D
330
1F
100
AcDbEntity
  8
引手
  6
Continuous
 62
    92
370
    13
100
AcDbCircle
 10
2926.499228297053
 20
2437.500148463893
 30
0.0
 40
1.5
100
AcDbArc
 50
90.0
 51
180.0
  0
ARC
  5
12E
330
1F
100
AcDbEntity
  8
引手
  6
Continuous
 62
     7
370
     9
100
AcDbCircle
 10
2854.999228297057
 20
2421.500148463894
 30
0.0
 40
1.5
100
AcDbArc
 50
0.0
 51
90.0
  0
LINE
  5
12F
330
1F
100
AcDbEntity
  8
引手
  6
Continuous
 62
     7
370
     9
100
AcDbLine
 10
2854.999228297057
 20
2423.000148463894
 30
0.0
 11
2832.999228297056
 21
2423.000148463894
 31
0.0
  0
LINE
  5
130
330
1F
100
AcDbEntity
  8
引手
  6
Continuous
 62
     7
370
     9
100
AcDbLine
 10
2856.499228297057
 20
2421.500148463894
 30
0.0
 11
2856.499228297057
 21
2346.500148463894
 31
0.0
  0
ARC
  5
131
330
1F
100
AcDbEntity
  8
引手
  6
Continuous
 62
     7
370
     9
100
AcDbCircle
 10
2854.999228297057
 20
2346.500148463894
 30
0.0
 40
1.5
100
AcDbArc
 50
270.0
 51
0.0
  0
LINE
  5
132
330
1F
100
AcDbEntity
  8
引手
  6
Continuous
 62
     7
370
     9
100
AcDbLine
 10
2854.999228297057
 20
2345.000148463893
 30
0.0
 11
2832.999228297056
 21
2345.000148463893
 31
0.0
  0
ARC
  5
133
330
1F
100
AcDbEntity
  8
引手
  6
Continuous
 62
     7
370
     9
100
AcDbCircle
 10
2832.999228297056
 20
2346.500148463894
 30
0.0
 40
1.5
100
AcDbArc
 50
180.0
 51
270.0
  0
LINE
  5
134
330
1F
100
AcDbEntity
  8
引手
  6
Continuous
 62
     7
370
     9
100
AcDbLine
 10
2831.499228297056
 20
2346.500148463894
 30
0.0
 11
2831.499228297056
 21
2421.500148463894
 31
0.0
  0
ARC
  5
135
330
1F
100
AcDbEntity
  8
引手
  6
Continuous
 62
     7
370
     9
100
AcDbCircle
 10
2832.999228297056
 20
2421.500148463894
 30
0.0
 40
1.5
100
AcDbArc
 50
90.0
 51
180.0
  0
ARC
  5
136
330
1F
100
AcDbEntity
  8
引手
  6
Continuous
 62
    92
370
    13
100
AcDbCircle
 10
2863.499228297056
 20
2437.500148463893
 30
0.0
 40
1.5
100
AcDbArc
 50
0.0
 51
90.0
  0
LINE
  5
137
330
1F
100
AcDbEntity
  8
引手
  6
Continuous
 62
    92
370
    13
100
AcDbLine
 10
2863.499228297056
 20
2439.000148463893
 30
0.0
 11
2824.499228297057
 21
2439.000148463893
 31
0.0
  0
LINE
  5
138
330
1F
100
AcDbEntity
  8
引手
  6
Continuous
 62
    92
370
    13
100
AcDbLine
 10
2864.999228297056
 20
2437.500148463893
 30
0.0
 11
2864.999228297056
 21
2330.500148463894
 31
0.0
  0
ARC
  5
139
330
1F
100
AcDbEntity
  8
引手
  6
Continuous
 62
    92
370
    13
100
AcDbCircle
 10
2863.499228297056
 20
2330.500148463894
 30
0.0
 40
1.5
100
AcDbArc
 50
270.0
 51
0.0
  0
LINE
  5
13A
330
1F
100
AcDbEntity
  8
引手
  6
Continuous
 62
    92
370
    13
100
AcDbLine
 10
2863.499228297056
 20
2329.000148463894
 30
0.0
 11
2824.499228297057
 21
2329.000148463894
 31
0.0
  0
ARC
  5
13B
330
1F
100
AcDbEntity
  8
引手
  6
Continuous
 62
    92
370
    13
100
AcDbCircle
 10
2824.499228297057
 20
2330.500148463894
 30
0.0
 40
1.5
100
AcDbArc
 50
180.0
 51
270.0
  0
LINE
  5
13C
330
1F
100
AcDbEntity
  8
引手
  6
Continuous
 62
    92
370
    13
100
AcDbLine
 10
2822.999228297057
 20
2330.500148463894
 30
0.0
 11
2822.999228297057
 21
2437.500148463893
 31
0.0
  0
ARC
  5
13D
330
1F
100
AcDbEntity
  8
引手
  6
Continuous
 62
    92
370
    13
100
AcDbCircle
 10
2824.499228297057
 20
2437.500148463893
 30
0.0
 40
1.5
100
AcDbArc
 50
90.0
 51
180.0
  0
LINE
  5
13E
330
1F
100
AcDbEntity
  8
0-0_補助線
  6
JWW_HOJO
 62
     7
370
     9
100
AcDbLine
 10
-5490.000018557986
 20
-666.2500838202419
 30
0.0
 11
5699.998762800888
 21
-666.2500838202419
 31
0.0
  0
LWPOLYLINE
  5
13F
330
1F
100
AcDbEntity
  8
0-B_寸法
  6
Continuous
 62
     7
370
     9
100
AcDbPolyline
 90
        4
 70
     1
 43
3.0
 10
-1883.500269606306
 20
-2951.250083820241
 42
0.4142135623731
 10
-1885.000269606306
 20
-2949.750083820241
 42
0.4142135623731
 10
-1886.500269606306
 20
-2951.250083820241
 42
0.4142135623731
 10
-1885.000269606306
 20
-2952.750083820241
 42
0.4142135623731
  0
LWPOLYLINE
  5
140
330
1F
100
AcDbEntity
  8
0-B_寸法
  6
Continuous
 62
     7
370
     9
100
AcDbPolyline
 90
        4
 70
     1
 43
3.0
 10
-3503.500269606306
 20
-2951.250083820241
 42
0.4142135623731
 10
-3505.000269606306
 20
-2949.750083820241
 42
0.4142135623731
 10
-3506.500269606306
 20
-2951.250083820241
 42
0.4142135623731
 10
-3505.000269606306
 20
-2952.750083820241
 42
0.4142135623731
  0
LWPOLYLINE
  5
141
330
1F
100
AcDbEntity
  8
0-B_寸法
  6
Continuous
 62
     7
370
     9
100
AcDbPolyline
 90
        4
 70
     1
 43
3.0
 10
-2693.500269606306
 20
-2951.250083820241
 42
0.4142135623731
 10
-2695.000269606306
 20
-2949.750083820241
 42
0.4142135623731
 10
-2696.500269606306
 20
-2951.250083820241
 42
0.4142135623731
 10
-2695.000269606306
 20
-2952.750083820241
 42
0.4142135623731
  0
LINE
  5
142
330
1F
100
AcDbEntity
  8
0-B_寸法
  6
Continuous
 62
   120
370
     5
100
AcDbLine
 10
-1885.000269606306
 20
-2951.250083820241
 30
0.0
 11
-1885.000269606306
 21
-2751.250083820242
 31
0.0
  0
LINE
  5
143
330
1F
100
AcDbEntity
  8
0-B_寸法
  6
Continuous
 62
   120
370
     5
100
AcDbLine
 10
-3505.000269606306
 20
-2951.250083820241
 30
0.0
 11
-1885.000269606306
 21
-2951.250083820241
 31
0.0
  0
LINE
  5
144
330
1F
100
AcDbEntity
  8
0-B_寸法
  6
Continuous
 62
   120
370
     5
100
AcDbLine
 10
-3505.000269606306
 20
-2951.250083820241
 30
0.0
 11
-3505.000269606306
 21
-2751.250083820242
 31
0.0
  0
LINE
  5
145
330
1F
100
AcDbEntity
  8
0-B_寸法
  6
Continuous
 62
   120
370
     5
100
AcDbLine
 10
-2695.000269606306
 20
-2951.250083820241
 30
0.0
 11
-2695.000269606306
 21
-2751.250083820242
 31
0.0
  0
LINE
  5
146
330
1F
100
AcDbEntity
  8
0-B_寸法
  6
Continuous
 62
   120
370
     5
100
AcDbLine
 10
-4562.000269606305
 20
-709.7500838202416
 30
0.0
 11
-4362.000269606306
 21
-709.7500838202416
 31
0.0
  0
LINE
  5
147
330
1F
100
AcDbEntity
  8
0-B_寸法
  6
Continuous
 62
   120
370
     5
100
AcDbLine
 10
-4562.000269606305
 20
-709.7500838202416
 30
0.0
 11
-4562.000269606305
 21
-2692.750083820241
 31
0.0
  0
LWPOLYLINE
  5
148
330
1F
100
AcDbEntity
  8
0-B_寸法
  6
Continuous
 62
     7
370
     9
100
AcDbPolyline
 90
        4
 70
     1
 43
3.0
 10
-4560.500269606304
 20
-709.7500838202416
 42
0.4142135623731
 10
-4562.000269606305
 20
-708.2500838202416
 42
0.4142135623731
 10
-4563.500269606305
 20
-709.7500838202416
 42
0.4142135623731
 10
-4562.000269606305
 20
-711.2500838202416
 42
0.4142135623731
  0
LWPOLYLINE
  5
149
330
1F
100
AcDbEntity
  8
0-B_寸法
  6
Continuous
 62
     7
370
     9
100
AcDbPolyline
 90
        4
 70
     1
 43
3.0
 10
-4560.500269606304
 20
-2692.750083820241
 42
0.4142135623731
 10
-4562.000269606305
 20
-2691.250083820241
 42
0.4142135623731
 10
-4563.500269606305
 20
-2692.750083820241
 42
0.4142135623731
 10
-4562.000269606305
 20
-2694.250083820241
 42
0.4142135623731
  0
LINE
  5
14A
330
1F
100
AcDbEntity
  8
0-B_寸法
  6
Continuous
 62
   120
370
     5
100
AcDbLine
 10
-4562.000269606305
 20
-2692.750083820241
 30
0.0
 11
-4362.000269606306
 21
-2692.750083820241
 31
0.0
  0
MTEXT
  5
14B
330
1F
100
AcDbEntity
  8
0-B_寸法
  6
Continuous
 62
     7
370
    70
100
AcDbMText
 10
-4577.000269606305
 20
-1910.425083820243
 30
0.0
 40
57.1500000000003
 41
412.5000000000022
 46
0.0
 71
     7
 72
     1
  1
{\fＭＳ ゴシック|b0|i0|c128|p49;ＤＨ＝1,983}
 11
6.123031769111886E-17
 21
1.0
 31
0.0
 73
     1
 44
1.0
  0
MTEXT
  5
14C
330
1F
100
AcDbEntity
  8
0-B_寸法
  6
Continuous
 62
     7
370
   211
100
AcDbMText
 10
-3268.750269606306
 20
-2945.175083820236
 30
0.0
 40
57.14999999999999
 41
337.5
 46
0.0
 71
     7
 72
     1
  1
{\fＭＳ ゴシック|b0|i0|c128|p49;ＤＷ＝810}
 73
     1
 44
1.0
  0
MTEXT
  5
14D
330
1F
100
AcDbEntity
  8
0-B_寸法
  6
Continuous
 62
     7
370
   211
100
AcDbMText
 10
-2458.750269606306
 20
-2945.175083820236
 30
0.0
 40
57.14999999999999
 41
337.5
 46
0.0
 71
     7
 72
     1
  1
{\fＭＳ ゴシック|b0|i0|c128|p49;ＤＷ＝810}
 73
     1
 44
1.0
  0
ARC
  5
14E
330
1F
100
AcDbEntity
  8
引手
  6
Continuous
 62
     7
370
     9
100
AcDbCircle
 10
-2633.000269606306
 20
-1697.750083820241
 30
0.0
 40
1.5
100
AcDbArc
 50
0.0
 51
90.0
  0
LINE
  5
14F
330
1F
100
AcDbEntity
  8
引手
  6
Continuous
 62
     7
370
     9
100
AcDbLine
 10
-2633.000269606306
 20
-1696.25008382024
 30
0.0
 11
-2655.000269606307
 21
-1696.25008382024
 31
0.0
  0
LINE
  5
150
330
1F
100
AcDbEntity
  8
引手
  6
Continuous
 62
     7
370
     9
100
AcDbLine
 10
-2631.500269606306
 20
-1697.750083820241
 30
0.0
 11
-2631.500269606306
 21
-1772.750083820241
 31
0.0
  0
ARC
  5
151
330
1F
100
AcDbEntity
  8
引手
  6
Continuous
 62
     7
370
     9
100
AcDbCircle
 10
-2633.000269606306
 20
-1772.750083820241
 30
0.0
 40
1.5
100
AcDbArc
 50
270.0
 51
0.0
  0
LINE
  5
152
330
1F
100
AcDbEntity
  8
引手
  6
Continuous
 62
     7
370
     9
100
AcDbLine
 10
-2633.000269606306
 20
-1774.250083820241
 30
0.0
 11
-2655.000269606307
 21
-1774.250083820241
 31
0.0
  0
ARC
  5
153
330
1F
100
AcDbEntity
  8
引手
  6
Continuous
 62
     7
370
     9
100
AcDbCircle
 10
-2655.000269606307
 20
-1772.750083820241
 30
0.0
 40
1.5
100
AcDbArc
 50
180.0
 51
270.0
  0
LINE
  5
154
330
1F
100
AcDbEntity
  8
引手
  6
Continuous
 62
     7
370
     9
100
AcDbLine
 10
-2656.500269606307
 20
-1772.750083820241
 30
0.0
 11
-2656.500269606307
 21
-1697.750083820241
 31
0.0
  0
ARC
  5
155
330
1F
100
AcDbEntity
  8
引手
  6
Continuous
 62
     7
370
     9
100
AcDbCircle
 10
-2655.000269606307
 20
-1697.750083820241
 30
0.0
 40
1.5
100
AcDbArc
 50
90.0
 51
180.0
  0
ARC
  5
156
330
1F
100
AcDbEntity
  8
引手
  6
Continuous
 62
    92
370
    13
100
AcDbCircle
 10
-2624.500269606305
 20
-1681.750083820242
 30
0.0
 40
1.5
100
AcDbArc
 50
0.0
 51
90.0
  0
LINE
  5
157
330
1F
100
AcDbEntity
  8
引手
  6
Continuous
 62
    92
370
    13
100
AcDbLine
 10
-2624.500269606305
 20
-1680.250083820241
 30
0.0
 11
-2663.500269606307
 21
-1680.250083820241
 31
0.0
  0
LINE
  5
158
330
1F
100
AcDbEntity
  8
引手
  6
Continuous
 62
    92
370
    13
100
AcDbLine
 10
-2623.000269606305
 20
-1681.750083820242
 30
0.0
 11
-2623.000269606305
 21
-1788.750083820241
 31
0.0
  0
ARC
  5
159
330
1F
100
AcDbEntity
  8
引手
  6
Continuous
 62
    92
370
    13
100
AcDbCircle
 10
-2624.500269606305
 20
-1788.750083820241
 30
0.0
 40
1.5
100
AcDbArc
 50
270.0
 51
0.0
  0
LINE
  5
15A
330
1F
100
AcDbEntity
  8
引手
  6
Continuous
 62
    92
370
    13
100
AcDbLine
 10
-2624.500269606305
 20
-1790.25008382024
 30
0.0
 11
-2663.500269606307
 21
-1790.25008382024
 31
0.0
  0
ARC
  5
15B
330
1F
100
AcDbEntity
  8
引手
  6
Continuous
 62
    92
370
    13
100
AcDbCircle
 10
-2663.500269606307
 20
-1788.750083820241
 30
0.0
 40
1.5
100
AcDbArc
 50
180.0
 51
270.0
  0
LINE
  5
15C
330
1F
100
AcDbEntity
  8
引手
  6
Continuous
 62
    92
370
    13
100
AcDbLine
 10
-2665.000269606306
 20
-1788.750083820241
 30
0.0
 11
-2665.000269606306
 21
-1681.750083820242
 31
0.0
  0
ARC
  5
15D
330
1F
100
AcDbEntity
  8
引手
  6
Continuous
 62
    92
370
    13
100
AcDbCircle
 10
-2663.500269606307
 20
-1681.750083820242
 30
0.0
 40
1.5
100
AcDbArc
 50
90.0
 51
180.0
  0
ARC
  5
15E
330
1F
100
AcDbEntity
  8
引手
  6
Continuous
 62
     7
370
     9
100
AcDbCircle
 10
-2735.000269606303
 20
-1697.750083820241
 30
0.0
 40
1.5
100
AcDbArc
 50
0.0
 51
90.0
  0
LINE
  5
15F
330
1F
100
AcDbEntity
  8
引手
  6
Continuous
 62
     7
370
     9
100
AcDbLine
 10
-2735.000269606303
 20
-1696.25008382024
 30
0.0
 11
-2757.000269606304
 21
-1696.25008382024
 31
0.0
  0
LINE
  5
160
330
1F
100
AcDbEntity
  8
引手
  6
Continuous
 62
     7
370
     9
100
AcDbLine
 10
-2733.500269606303
 20
-1697.750083820241
 30
0.0
 11
-2733.500269606303
 21
-1772.750083820241
 31
0.0
  0
ARC
  5
161
330
1F
100
AcDbEntity
  8
引手
  6
Continuous
 62
     7
370
     9
100
AcDbCircle
 10
-2735.000269606303
 20
-1772.750083820241
 30
0.0
 40
1.5
100
AcDbArc
 50
270.0
 51
0.0
  0
LINE
  5
162
330
1F
100
AcDbEntity
  8
引手
  6
Continuous
 62
     7
370
     9
100
AcDbLine
 10
-2735.000269606303
 20
-1774.250083820241
 30
0.0
 11
-2757.000269606304
 21
-1774.250083820241
 31
0.0
  0
ARC
  5
163
330
1F
100
AcDbEntity
  8
引手
  6
Continuous
 62
     7
370
     9
100
AcDbCircle
 10
-2757.000269606304
 20
-1772.750083820241
 30
0.0
 40
1.5
100
AcDbArc
 50
180.0
 51
270.0
  0
LINE
  5
164
330
1F
100
AcDbEntity
  8
引手
  6
Continuous
 62
     7
370
     9
100
AcDbLine
 10
-2758.500269606304
 20
-1772.750083820241
 30
0.0
 11
-2758.500269606304
 21
-1697.750083820241
 31
0.0
  0
ARC
  5
165
330
1F
100
AcDbEntity
  8
引手
  6
Continuous
 62
     7
370
     9
100
AcDbCircle
 10
-2757.000269606304
 20
-1697.750083820241
 30
0.0
 40
1.5
100
AcDbArc
 50
90.0
 51
180.0
  0
ARC
  5
166
330
1F
100
AcDbEntity
  8
引手
  6
Continuous
 62
    92
370
    13
100
AcDbCircle
 10
-2726.500269606304
 20
-1681.750083820242
 30
0.0
 40
1.5
100
AcDbArc
 50
0.0
 51
90.0
  0
LINE
  5
167
330
1F
100
AcDbEntity
  8
引手
  6
Continuous
 62
    92
370
    13
100
AcDbLine
 10
-2726.500269606304
 20
-1680.250083820241
 30
0.0
 11
-2765.500269606303
 21
-1680.250083820241
 31
0.0
  0
LINE
  5
168
330
1F
100
AcDbEntity
  8
引手
  6
Continuous
 62
    92
370
    13
100
AcDbLine
 10
-2725.000269606304
 20
-1681.750083820242
 30
0.0
 11
-2725.000269606304
 21
-1788.750083820241
 31
0.0
  0
ARC
  5
169
330
1F
100
AcDbEntity
  8
引手
  6
Continuous
 62
    92
370
    13
100
AcDbCircle
 10
-2726.500269606304
 20
-1788.750083820241
 30
0.0
 40
1.5
100
AcDbArc
 50
270.0
 51
0.0
  0
LINE
  5
16A
330
1F
100
AcDbEntity
  8
引手
  6
Continuous
 62
    92
370
    13
100
AcDbLine
 10
-2726.500269606304
 20
-1790.25008382024
 30
0.0
 11
-2765.500269606303
 21
-1790.25008382024
 31
0.0
  0
ARC
  5
16B
330
1F
100
AcDbEntity
  8
引手
  6
Continuous
 62
    92
370
    13
100
AcDbCircle
 10
-2765.500269606303
 20
-1788.750083820241
 30
0.0
 40
1.5
100
AcDbArc
 50
180.0
 51
270.0
  0
LINE
  5
16C
330
1F
100
AcDbEntity
  8
引手
  6
Continuous
 62
    92
370
    13
100
AcDbLine
 10
-2767.000269606303
 20
-1788.750083820241
 30
0.0
 11
-2767.000269606303
 21
-1681.750083820242
 31
0.0
  0
ARC
  5
16D
330
1F
100
AcDbEntity
  8
引手
  6
Continuous
 62
    92
370
    13
100
AcDbCircle
 10
-2765.500269606303
 20
-1681.750083820242
 30
0.0
 40
1.5
100
AcDbArc
 50
90.0
 51
180.0
  0
LINE
  5
16E
330
1F
100
AcDbEntity
  8
0-4_枠
  6
Continuous
 62
    92
370
    13
100
AcDbLine
 10
-4282.000269606305
 20
-2701.250083820241
 30
0.0
 11
-4312.000269606305
 21
-2701.250083820241
 31
0.0
  0
LINE
  5
16F
330
1F
100
AcDbEntity
  8
0-4_枠
  6
Continuous
 62
    92
370
    13
100
AcDbLine
 10
-1078.000269606305
 20
-2701.250083820241
 30
0.0
 11
-1108.000269606305
 21
-2701.250083820241
 31
0.0
  0
LINE
  5
170
330
1F
100
AcDbEntity
  8
0-4_枠
  6
Continuous
 62
    92
370
    13
100
AcDbLine
 10
-4282.000269606305
 20
-696.2500838202419
 30
0.0
 11
-1108.000269606305
 21
-696.2500838202419
 31
0.0
  0
LINE
  5
171
330
1F
100
AcDbEntity
  8
0-4_枠
  6
Continuous
 62
    92
370
    13
100
AcDbLine
 10
-4312.000269606305
 20
-2701.250083820241
 30
0.0
 11
-4312.000269606305
 21
-666.2500838202419
 31
0.0
  0
LINE
  5
172
330
1F
100
AcDbEntity
  8
0-4_枠
  6
Continuous
 62
    92
370
    13
100
AcDbLine
 10
-1078.000269606305
 20
-2701.250083820241
 30
0.0
 11
-1078.000269606305
 21
-666.2500838202419
 31
0.0
  0
LINE
  5
173
330
1F
100
AcDbEntity
  8
0-4_枠
  6
Continuous
 62
    92
370
    13
100
AcDbLine
 10
-4312.000269606305
 20
-666.2500838202419
 30
0.0
 11
-1078.000269606305
 21
-666.2500838202419
 31
0.0
  0
LINE
  5
174
330
1F
100
AcDbEntity
  8
0-4_枠
  6
Continuous
 62
    92
370
    13
100
AcDbLine
 10
-4282.000269606305
 20
-2701.250083820241
 30
0.0
 11
-4282.000269606305
 21
-666.2500838202419
 31
0.0
  0
LINE
  5
175
330
1F
100
AcDbEntity
  8
0-4_枠
  6
Continuous
 62
    92
370
    13
100
AcDbLine
 10
-1108.000269606305
 20
-2701.250083820241
 30
0.0
 11
-1108.000269606305
 21
-666.2500838202419
 31
0.0
  0
LINE
  5
176
330
1F
100
AcDbEntity
  8
0-4_枠
  6
JWW_DASHED1
 62
   120
370
     5
100
AcDbLine
 10
-3475.000269606304
 20
-2692.750083820242
 30
0.0
 11
-3475.000269606304
 21
-696.2500838202419
 31
0.0
  0
LINE
  5
177
330
1F
100
AcDbEntity
  8
0-4_枠
  6
JWW_DASHED1
 62
   120
370
     5
100
AcDbLine
 10
-3505.000269606304
 20
-2692.750083820242
 30
0.0
 11
-3505.000269606304
 21
-696.2500838202419
 31
0.0
  0
LINE
  5
178
330
1F
100
AcDbEntity
  8
0-4_枠
  6
JWW_DASHED1
 62
   120
370
     5
100
AcDbLine
 10
-1885.000269606304
 20
-2692.750083820242
 30
0.0
 11
-1885.000269606304
 21
-696.2500838202419
 31
0.0
  0
LINE
  5
179
330
1F
100
AcDbEntity
  8
0-4_枠
  6
JWW_DASHED1
 62
   120
370
     5
100
AcDbLine
 10
-1915.000269606304
 20
-2692.750083820242
 30
0.0
 11
-1915.000269606304
 21
-696.2500838202419
 31
0.0
  0
LINE
  5
17A
330
1F
100
AcDbEntity
  8
0-4_枠
  6
Continuous
 62
    92
370
    13
100
AcDbLine
 10
-1885.000269606304
 20
-2692.750083820242
 30
0.0
 11
-1885.000269606304
 21
-2701.250083820243
 31
0.0
  0
LINE
  5
17B
330
1F
100
AcDbEntity
  8
0-4_枠
  6
Continuous
 62
    92
370
    13
100
AcDbLine
 10
-1915.000269606304
 20
-2701.250083820243
 30
0.0
 11
-1885.000269606304
 21
-2701.250083820243
 31
0.0
  0
LINE
  5
17C
330
1F
100
AcDbEntity
  8
0-4_枠
  6
Continuous
 62
    92
370
    13
100
AcDbLine
 10
-1915.000269606304
 20
-2692.750083820242
 30
0.0
 11
-1915.000269606304
 21
-2701.250083820243
 31
0.0
  0
LINE
  5
17D
330
1F
100
AcDbEntity
  8
0-4_枠
  6
Continuous
 62
    92
370
    13
100
AcDbLine
 10
-3475.000269606306
 20
-2692.750083820242
 30
0.0
 11
-3475.000269606306
 21
-2701.250083820243
 31
0.0
  0
LINE
  5
17E
330
1F
100
AcDbEntity
  8
0-4_枠
  6
Continuous
 62
    92
370
    13
100
AcDbLine
 10
-3505.000269606306
 20
-2701.250083820243
 30
0.0
 11
-3475.000269606306
 21
-2701.250083820243
 31
0.0
  0
LINE
  5
17F
330
1F
100
AcDbEntity
  8
0-4_枠
  6
Continuous
 62
    92
370
    13
100
AcDbLine
 10
-3505.000269606306
 20
-2692.750083820242
 30
0.0
 11
-3505.000269606306
 21
-2701.250083820243
 31
0.0
  0
LINE
  5
180
330
1F
100
AcDbEntity
  8
0-2_扉
  6
Continuous
 62
    92
370
    13
100
AcDbLine
 10
-1885.000269606306
 20
-709.7500838202416
 30
0.0
 11
-2695.000269606306
 21
-709.7500838202416
 31
0.0
  0
LINE
  5
181
330
1F
100
AcDbEntity
  8
0-2_扉
  6
Continuous
 62
    92
370
    13
100
AcDbLine
 10
-1885.000269606306
 20
-2692.750083820242
 30
0.0
 11
-2695.000269606306
 21
-2692.750083820242
 31
0.0
  0
LINE
  5
182
330
1F
100
AcDbEntity
  8
0-2_扉
  6
JWW_DASHED1
 62
   120
370
     5
100
AcDbLine
 10
-1915.000269606306
 20
-2692.750083820242
 30
0.0
 11
-1915.000269606306
 21
-709.7500838202416
 31
0.0
  0
LINE
  5
183
330
1F
100
AcDbEntity
  8
0-2_扉
  6
Continuous
 62
    92
370
    13
100
AcDbLine
 10
-1885.000269606306
 20
-2692.750083820242
 30
0.0
 11
-1885.000269606306
 21
-709.7500838202416
 31
0.0
  0
LINE
  5
184
330
1F
100
AcDbEntity
  8
0-2_扉
  6
Continuous
 62
    92
370
    13
100
AcDbLine
 10
-2695.000269606306
 20
-2692.750083820242
 30
0.0
 11
-2695.000269606306
 21
-709.7500838202416
 31
0.0
  0
LINE
  5
185
330
1F
100
AcDbEntity
  8
0-2_扉
  6
Continuous
 62
    92
370
    13
100
AcDbLine
 10
-3505.000269606306
 20
-709.7500838202416
 30
0.0
 11
-2695.000269606306
 21
-709.7500838202416
 31
0.0
  0
LINE
  5
186
330
1F
100
AcDbEntity
  8
0-2_扉
  6
Continuous
 62
    92
370
    13
100
AcDbLine
 10
-3505.000269606306
 20
-2692.750083820242
 30
0.0
 11
-2695.000269606306
 21
-2692.750083820242
 31
0.0
  0
LINE
  5
187
330
1F
100
AcDbEntity
  8
0-2_扉
  6
JWW_DASHED1
 62
   120
370
     5
100
AcDbLine
 10
-3475.000269606306
 20
-2692.750083820242
 30
0.0
 11
-3475.000269606306
 21
-709.7500838202416
 31
0.0
  0
LINE
  5
188
330
1F
100
AcDbEntity
  8
0-2_扉
  6
Continuous
 62
    92
370
    13
100
AcDbLine
 10
-3505.000269606306
 20
-2692.750083820242
 30
0.0
 11
-3505.000269606306
 21
-709.7500838202416
 31
0.0
  0
MTEXT
  5
189
330
1F
100
AcDbEntity
  8
0-A_文字
  6
Continuous
 62
     7
370
     9
100
AcDbMText
 10
219.9994793453726
 20
661.5754150803022
 30
0.0
 40
57.15000000000027
 41
975.0000000000051
 46
0.0
 71
     7
 72
     1
  1
{\fＭＳ ゴシック|b0|i0|c128|p49;枠外幅 3,234mm（DW=810mm）}
 73
     1
 44
1.0
  0
MTEXT
  5
18A
330
1F
100
AcDbEntity
  8
0-A_文字
  6
Continuous
 62
     7
370
     9
100
AcDbMText
 10
-5370.000018557987
 20
-3318.924785552156
 30
0.0
 40
57.15000000000027
 41
975.0000000000051
 46
0.0
 71
     7
 72
     1
  1
{\fＭＳ ゴシック|b0|i0|c128|p49;枠外幅 3,234mm（DW=810mm）}
 73
     1
 44
1.0
  0
MTEXT
  5
18B
330
1F
100
AcDbEntity
  8
0-A_文字
  6
Continuous
 62
     7
370
     9
100
AcDbMText
 10
219.9994793453726
 20
-3318.924785552156
 30
0.0
 40
57.15000000000027
 41
975.0000000000051
 46
0.0
 71
     7
 72
     1
  1
{\fＭＳ ゴシック|b0|i0|c128|p49;枠外幅 3,234mm（DW=810mm）}
 73
     1
 44
1.0
  0
LWPOLYLINE
  5
18C
330
1F
100
AcDbEntity
  8
0-B_寸法
  6
Continuous
 62
     7
370
     9
100
AcDbPolyline
 90
        4
 70
     1
 43
3.0
 10
3706.499228297052
 20
-2951.250083820241
 42
0.4142135623731
 10
3704.999228297052
 20
-2949.750083820241
 42
0.4142135623731
 10
3703.499228297052
 20
-2951.250083820241
 42
0.4142135623731
 10
3704.999228297052
 20
-2952.750083820241
 42
0.4142135623731
  0
LWPOLYLINE
  5
18D
330
1F
100
AcDbEntity
  8
0-B_寸法
  6
Continuous
 62
     7
370
     9
100
AcDbPolyline
 90
        4
 70
     1
 43
3.0
 10
2086.499228297052
 20
-2951.250083820241
 42
0.4142135623731
 10
2084.999228297052
 20
-2949.750083820241
 42
0.4142135623731
 10
2083.499228297053
 20
-2951.250083820241
 42
0.4142135623731
 10
2084.999228297052
 20
-2952.750083820241
 42
0.4142135623731
  0
LWPOLYLINE
  5
18E
330
1F
100
AcDbEntity
  8
0-B_寸法
  6
Continuous
 62
     7
370
     9
100
AcDbPolyline
 90
        4
 70
     1
 43
3.0
 10
2896.499228297052
 20
-2951.250083820241
 42
0.4142135623731
 10
2894.999228297052
 20
-2949.750083820241
 42
0.4142135623731
 10
2893.499228297053
 20
-2951.250083820241
 42
0.4142135623731
 10
2894.999228297052
 20
-2952.750083820241
 42
0.4142135623731
  0
LINE
  5
18F
330
1F
100
AcDbEntity
  8
0-B_寸法
  6
Continuous
 62
   120
370
     5
100
AcDbLine
 10
3704.999228297052
 20
-2951.250083820241
 30
0.0
 11
3704.999228297052
 21
-2751.250083820242
 31
0.0
  0
LINE
  5
190
330
1F
100
AcDbEntity
  8
0-B_寸法
  6
Continuous
 62
   120
370
     5
100
AcDbLine
 10
2084.999228297052
 20
-2951.250083820241
 30
0.0
 11
3704.999228297052
 21
-2951.250083820241
 31
0.0
  0
LINE
  5
191
330
1F
100
AcDbEntity
  8
0-B_寸法
  6
Continuous
 62
   120
370
     5
100
AcDbLine
 10
2084.999228297052
 20
-2951.250083820241
 30
0.0
 11
2084.999228297052
 21
-2751.250083820242
 31
0.0
  0
LINE
  5
192
330
1F
100
AcDbEntity
  8
0-B_寸法
  6
Continuous
 62
   120
370
     5
100
AcDbLine
 10
2894.999228297052
 20
-2951.250083820241
 30
0.0
 11
2894.999228297052
 21
-2751.250083820242
 31
0.0
  0
LINE
  5
193
330
1F
100
AcDbEntity
  8
0-B_寸法
  6
Continuous
 62
   120
370
     5
100
AcDbLine
 10
1027.999228297054
 20
-709.7500838202416
 30
0.0
 11
1227.999228297053
 21
-709.7500838202416
 31
0.0
  0
LINE
  5
194
330
1F
100
AcDbEntity
  8
0-B_寸法
  6
Continuous
 62
   120
370
     5
100
AcDbLine
 10
1027.999228297054
 20
-709.7500838202416
 30
0.0
 11
1027.999228297054
 21
-2692.750083820241
 31
0.0
  0
LWPOLYLINE
  5
195
330
1F
100
AcDbEntity
  8
0-B_寸法
  6
Continuous
 62
     7
370
     9
100
AcDbPolyline
 90
        4
 70
     1
 43
3.0
 10
1029.499228297054
 20
-709.7500838202416
 42
0.4142135623731
 10
1027.999228297054
 20
-708.2500838202416
 42
0.4142135623731
 10
1026.499228297054
 20
-709.7500838202416
 42
0.4142135623731
 10
1027.999228297054
 20
-711.2500838202416
 42
0.4142135623731
  0
LWPOLYLINE
  5
196
330
1F
100
AcDbEntity
  8
0-B_寸法
  6
Continuous
 62
     7
370
     9
100
AcDbPolyline
 90
        4
 70
     1
 43
3.0
 10
1029.499228297054
 20
-2692.750083820241
 42
0.4142135623731
 10
1027.999228297054
 20
-2691.250083820241
 42
0.4142135623731
 10
1026.499228297054
 20
-2692.750083820241
 42
0.4142135623731
 10
1027.999228297054
 20
-2694.250083820241
 42
0.4142135623731
  0
LINE
  5
197
330
1F
100
AcDbEntity
  8
0-B_寸法
  6
Continuous
 62
   120
370
     5
100
AcDbLine
 10
1027.999228297054
 20
-2692.750083820241
 30
0.0
 11
1227.999228297053
 21
-2692.750083820241
 31
0.0
  0
MTEXT
  5
198
330
1F
100
AcDbEntity
  8
0-B_寸法
  6
Continuous
 62
     7
370
    70
100
AcDbMText
 10
1012.999228297053
 20
-1910.425083820242
 30
0.0
 40
57.15000000000029
 41
412.5000000000022
 46
0.0
 71
     7
 72
     1
  1
{\fＭＳ ゴシック|b0|i0|c128|p49;ＤＨ＝1,983}
 11
6.123031769111886E-17
 21
1.0
 31
0.0
 73
     1
 44
1.0
  0
MTEXT
  5
199
330
1F
100
AcDbEntity
  8
0-B_寸法
  6
Continuous
 62
     7
370
   211
100
AcDbMText
 10
2321.249228297052
 20
-2945.175083820236
 30
0.0
 40
57.14999999999999
 41
337.5
 46
0.0
 71
     7
 72
     1
  1
{\fＭＳ ゴシック|b0|i0|c128|p49;ＤＷ＝810}
 73
     1
 44
1.0
  0
MTEXT
  5
19A
330
1F
100
AcDbEntity
  8
0-B_寸法
  6
Continuous
 62
     7
370
   211
100
AcDbMText
 10
3131.249228297052
 20
-2945.175083820236
 30
0.0
 40
57.14999999999999
 41
337.5
 46
0.0
 71
     7
 72
     1
  1
{\fＭＳ ゴシック|b0|i0|c128|p49;ＤＷ＝810}
 73
     1
 44
1.0
  0
ARC
  5
19B
330
1F
100
AcDbEntity
  8
引手
  6
Continuous
 62
     7
370
     9
100
AcDbCircle
 10
2956.999228297052
 20
-1697.750083820241
 30
0.0
 40
1.5
100
AcDbArc
 50
0.0
 51
90.0
  0
LINE
  5
19C
330
1F
100
AcDbEntity
  8
引手
  6
Continuous
 62
     7
370
     9
100
AcDbLine
 10
2956.999228297052
 20
-1696.25008382024
 30
0.0
 11
2934.999228297052
 21
-1696.25008382024
 31
0.0
  0
LINE
  5
19D
330
1F
100
AcDbEntity
  8
引手
  6
Continuous
 62
     7
370
     9
100
AcDbLine
 10
2958.499228297053
 20
-1697.750083820241
 30
0.0
 11
2958.499228297053
 21
-1772.750083820241
 31
0.0
  0
ARC
  5
19E
330
1F
100
AcDbEntity
  8
引手
  6
Continuous
 62
     7
370
     9
100
AcDbCircle
 10
2956.999228297052
 20
-1772.750083820241
 30
0.0
 40
1.5
100
AcDbArc
 50
270.0
 51
0.0
  0
LINE
  5
19F
330
1F
100
AcDbEntity
  8
引手
  6
Continuous
 62
     7
370
     9
100
AcDbLine
 10
2956.999228297052
 20
-1774.250083820241
 30
0.0
 11
2934.999228297052
 21
-1774.250083820241
 31
0.0
  0
ARC
  5
1A0
330
1F
100
AcDbEntity
  8
引手
  6
Continuous
 62
     7
370
     9
100
AcDbCircle
 10
2934.999228297052
 20
-1772.750083820241
 30
0.0
 40
1.5
100
AcDbArc
 50
180.0
 51
270.0
  0
LINE
  5
1A1
330
1F
100
AcDbEntity
  8
引手
  6
Continuous
 62
     7
370
     9
100
AcDbLine
 10
2933.499228297052
 20
-1772.750083820241
 30
0.0
 11
2933.499228297052
 21
-1697.750083820241
 31
0.0
  0
ARC
  5
1A2
330
1F
100
AcDbEntity
  8
引手
  6
Continuous
 62
     7
370
     9
100
AcDbCircle
 10
2934.999228297052
 20
-1697.750083820241
 30
0.0
 40
1.5
100
AcDbArc
 50
90.0
 51
180.0
  0
ARC
  5
1A3
330
1F
100
AcDbEntity
  8
引手
  6
Continuous
 62
    92
370
    13
100
AcDbCircle
 10
2965.499228297053
 20
-1681.750083820242
 30
0.0
 40
1.5
100
AcDbArc
 50
0.0
 51
90.0
  0
LINE
  5
1A4
330
1F
100
AcDbEntity
  8
引手
  6
Continuous
 62
    92
370
    13
100
AcDbLine
 10
2965.499228297053
 20
-1680.250083820241
 30
0.0
 11
2926.499228297052
 21
-1680.250083820241
 31
0.0
  0
LINE
  5
1A5
330
1F
100
AcDbEntity
  8
引手
  6
Continuous
 62
    92
370
    13
100
AcDbLine
 10
2966.999228297054
 20
-1681.750083820242
 30
0.0
 11
2966.999228297054
 21
-1788.750083820241
 31
0.0
  0
ARC
  5
1A6
330
1F
100
AcDbEntity
  8
引手
  6
Continuous
 62
    92
370
    13
100
AcDbCircle
 10
2965.499228297053
 20
-1788.750083820241
 30
0.0
 40
1.5
100
AcDbArc
 50
270.0
 51
0.0
  0
LINE
  5
1A7
330
1F
100
AcDbEntity
  8
引手
  6
Continuous
 62
    92
370
    13
100
AcDbLine
 10
2965.499228297053
 20
-1790.25008382024
 30
0.0
 11
2926.499228297052
 21
-1790.25008382024
 31
0.0
  0
ARC
  5
1A8
330
1F
100
AcDbEntity
  8
引手
  6
Continuous
 62
    92
370
    13
100
AcDbCircle
 10
2926.499228297052
 20
-1788.750083820241
 30
0.0
 40
1.5
100
AcDbArc
 50
180.0
 51
270.0
  0
LINE
  5
1A9
330
1F
100
AcDbEntity
  8
引手
  6
Continuous
 62
    92
370
    13
100
AcDbLine
 10
2924.999228297052
 20
-1788.750083820241
 30
0.0
 11
2924.999228297052
 21
-1681.750083820242
 31
0.0
  0
ARC
  5
1AA
330
1F
100
AcDbEntity
  8
引手
  6
Continuous
 62
    92
370
    13
100
AcDbCircle
 10
2926.499228297052
 20
-1681.750083820242
 30
0.0
 40
1.5
100
AcDbArc
 50
90.0
 51
180.0
  0
ARC
  5
1AB
330
1F
100
AcDbEntity
  8
引手
  6
Continuous
 62
     7
370
     9
100
AcDbCircle
 10
2854.999228297055
 20
-1697.750083820241
 30
0.0
 40
1.5
100
AcDbArc
 50
0.0
 51
90.0
  0
LINE
  5
1AC
330
1F
100
AcDbEntity
  8
引手
  6
Continuous
 62
     7
370
     9
100
AcDbLine
 10
2854.999228297055
 20
-1696.25008382024
 30
0.0
 11
2832.999228297054
 21
-1696.25008382024
 31
0.0
  0
LINE
  5
1AD
330
1F
100
AcDbEntity
  8
引手
  6
Continuous
 62
     7
370
     9
100
AcDbLine
 10
2856.499228297055
 20
-1697.750083820241
 30
0.0
 11
2856.499228297055
 21
-1772.750083820241
 31
0.0
  0
ARC
  5
1AE
330
1F
100
AcDbEntity
  8
引手
  6
Continuous
 62
     7
370
     9
100
AcDbCircle
 10
2854.999228297055
 20
-1772.750083820241
 30
0.0
 40
1.5
100
AcDbArc
 50
270.0
 51
0.0
  0
LINE
  5
1AF
330
1F
100
AcDbEntity
  8
引手
  6
Continuous
 62
     7
370
     9
100
AcDbLine
 10
2854.999228297055
 20
-1774.250083820241
 30
0.0
 11
2832.999228297054
 21
-1774.250083820241
 31
0.0
  0
ARC
  5
1B0
330
1F
100
AcDbEntity
  8
引手
  6
Continuous
 62
     7
370
     9
100
AcDbCircle
 10
2832.999228297054
 20
-1772.750083820241
 30
0.0
 40
1.5
100
AcDbArc
 50
180.0
 51
270.0
  0
LINE
  5
1B1
330
1F
100
AcDbEntity
  8
引手
  6
Continuous
 62
     7
370
     9
100
AcDbLine
 10
2831.499228297054
 20
-1772.750083820241
 30
0.0
 11
2831.499228297054
 21
-1697.750083820241
 31
0.0
  0
ARC
  5
1B2
330
1F
100
AcDbEntity
  8
引手
  6
Continuous
 62
     7
370
     9
100
AcDbCircle
 10
2832.999228297054
 20
-1697.750083820241
 30
0.0
 40
1.5
100
AcDbArc
 50
90.0
 51
180.0
  0
ARC
  5
1B3
330
1F
100
AcDbEntity
  8
引手
  6
Continuous
 62
    92
370
    13
100
AcDbCircle
 10
2863.499228297054
 20
-1681.750083820242
 30
0.0
 40
1.5
100
AcDbArc
 50
0.0
 51
90.0
  0
LINE
  5
1B4
330
1F
100
AcDbEntity
  8
引手
  6
Continuous
 62
    92
370
    13
100
AcDbLine
 10
2863.499228297054
 20
-1680.250083820241
 30
0.0
 11
2824.499228297055
 21
-1680.250083820241
 31
0.0
  0
LINE
  5
1B5
330
1F
100
AcDbEntity
  8
引手
  6
Continuous
 62
    92
370
    13
100
AcDbLine
 10
2864.999228297054
 20
-1681.750083820242
 30
0.0
 11
2864.999228297054
 21
-1788.750083820241
 31
0.0
  0
ARC
  5
1B6
330
1F
100
AcDbEntity
  8
引手
  6
Continuous
 62
    92
370
    13
100
AcDbCircle
 10
2863.499228297054
 20
-1788.750083820241
 30
0.0
 40
1.5
100
AcDbArc
 50
270.0
 51
0.0
  0
LINE
  5
1B7
330
1F
100
AcDbEntity
  8
引手
  6
Continuous
 62
    92
370
    13
100
AcDbLine
 10
2863.499228297054
 20
-1790.25008382024
 30
0.0
 11
2824.499228297055
 21
-1790.25008382024
 31
0.0
  0
ARC
  5
1B8
330
1F
100
AcDbEntity
  8
引手
  6
Continuous
 62
    92
370
    13
100
AcDbCircle
 10
2824.499228297055
 20
-1788.750083820241
 30
0.0
 40
1.5
100
AcDbArc
 50
180.0
 51
270.0
  0
LINE
  5
1B9
330
1F
100
AcDbEntity
  8
引手
  6
Continuous
 62
    92
370
    13
100
AcDbLine
 10
2822.999228297055
 20
-1788.750083820241
 30
0.0
 11
2822.999228297055
 21
-1681.750083820242
 31
0.0
  0
ARC
  5
1BA
330
1F
100
AcDbEntity
  8
引手
  6
Continuous
 62
    92
370
    13
100
AcDbCircle
 10
2824.499228297055
 20
-1681.750083820242
 30
0.0
 40
1.5
100
AcDbArc
 50
90.0
 51
180.0
  0
LINE
  5
1BB
330
1F
100
AcDbEntity
  8
0-4_枠
  6
Continuous
 62
    92
370
    13
100
AcDbLine
 10
1307.999228297053
 20
-2701.250083820241
 30
0.0
 11
1277.999228297053
 21
-2701.250083820241
 31
0.0
  0
LINE
  5
1BC
330
1F
100
AcDbEntity
  8
0-4_枠
  6
Continuous
 62
    92
370
    13
100
AcDbLine
 10
4511.999228297053
 20
-2701.250083820241
 30
0.0
 11
4481.999228297053
 21
-2701.250083820241
 31
0.0
  0
LINE
  5
1BD
330
1F
100
AcDbEntity
  8
0-4_枠
  6
Continuous
 62
    92
370
    13
100
AcDbLine
 10
1307.999228297053
 20
-696.2500838202419
 30
0.0
 11
4481.999228297053
 21
-696.2500838202419
 31
0.0
  0
LINE
  5
1BE
330
1F
100
AcDbEntity
  8
0-4_枠
  6
Continuous
 62
    92
370
    13
100
AcDbLine
 10
1277.999228297053
 20
-2701.250083820241
 30
0.0
 11
1277.999228297053
 21
-666.2500838202419
 31
0.0
  0
LINE
  5
1BF
330
1F
100
AcDbEntity
  8
0-4_枠
  6
Continuous
 62
    92
370
    13
100
AcDbLine
 10
4511.999228297053
 20
-2701.250083820241
 30
0.0
 11
4511.999228297053
 21
-666.2500838202419
 31
0.0
  0
LINE
  5
1C0
330
1F
100
AcDbEntity
  8
0-4_枠
  6
Continuous
 62
    92
370
    13
100
AcDbLine
 10
1277.999228297053
 20
-666.2500838202419
 30
0.0
 11
4511.999228297053
 21
-666.2500838202419
 31
0.0
  0
LINE
  5
1C1
330
1F
100
AcDbEntity
  8
0-4_枠
  6
Continuous
 62
    92
370
    13
100
AcDbLine
 10
1307.999228297053
 20
-2701.250083820241
 30
0.0
 11
1307.999228297053
 21
-666.2500838202419
 31
0.0
  0
LINE
  5
1C2
330
1F
100
AcDbEntity
  8
0-4_枠
  6
Continuous
 62
    92
370
    13
100
AcDbLine
 10
4481.999228297053
 20
-2701.250083820241
 30
0.0
 11
4481.999228297053
 21
-666.2500838202419
 31
0.0
  0
LINE
  5
1C3
330
1F
100
AcDbEntity
  8
0-4_枠
  6
Continuous
 62
    92
370
    13
100
AcDbLine
 10
3704.999228297054
 20
-2692.750083820242
 30
0.0
 11
3704.999228297054
 21
-2701.250083820243
 31
0.0
  0
LINE
  5
1C4
330
1F
100
AcDbEntity
  8
0-4_枠
  6
Continuous
 62
    92
370
    13
100
AcDbLine
 10
3674.999228297054
 20
-2701.250083820243
 30
0.0
 11
3704.999228297054
 21
-2701.250083820243
 31
0.0
  0
LINE
  5
1C5
330
1F
100
AcDbEntity
  8
0-4_枠
  6
Continuous
 62
    92
370
    13
100
AcDbLine
 10
3674.999228297054
 20
-2692.750083820242
 30
0.0
 11
3674.999228297054
 21
-2701.250083820243
 31
0.0
  0
LINE
  5
1C6
330
1F
100
AcDbEntity
  8
0-4_枠
  6
Continuous
 62
    92
370
    13
100
AcDbLine
 10
2114.999228297052
 20
-2692.750083820242
 30
0.0
 11
2114.999228297052
 21
-2701.250083820243
 31
0.0
  0
LINE
  5
1C7
330
1F
100
AcDbEntity
  8
0-4_枠
  6
Continuous
 62
    92
370
    13
100
AcDbLine
 10
2084.999228297052
 20
-2701.250083820243
 30
0.0
 11
2114.999228297052
 21
-2701.250083820243
 31
0.0
  0
LINE
  5
1C8
330
1F
100
AcDbEntity
  8
0-4_枠
  6
Continuous
 62
    92
370
    13
100
AcDbLine
 10
2084.999228297052
 20
-2692.750083820242
 30
0.0
 11
2084.999228297052
 21
-2701.250083820243
 31
0.0
  0
LINE
  5
1C9
330
1F
100
AcDbEntity
  8
0-4_枠
  6
JWW_DASHED1
 62
   120
370
     5
100
AcDbLine
 10
2084.999228297054
 20
-2692.750083820242
 30
0.0
 11
2084.999228297054
 21
-696.2500838202419
 31
0.0
  0
LINE
  5
1CA
330
1F
100
AcDbEntity
  8
0-4_枠
  6
JWW_DASHED1
 62
   120
370
     5
100
AcDbLine
 10
2114.999228297054
 20
-2692.750083820242
 30
0.0
 11
2114.999228297054
 21
-696.2500838202419
 31
0.0
  0
LINE
  5
1CB
330
1F
100
AcDbEntity
  8
0-4_枠
  6
JWW_DASHED1
 62
   120
370
     5
100
AcDbLine
 10
3674.999228297054
 20
-2692.750083820242
 30
0.0
 11
3674.999228297054
 21
-696.2500838202419
 31
0.0
  0
LINE
  5
1CC
330
1F
100
AcDbEntity
  8
0-4_枠
  6
JWW_DASHED1
 62
   120
370
     5
100
AcDbLine
 10
3704.999228297054
 20
-2692.750083820242
 30
0.0
 11
3704.999228297054
 21
-696.2500838202419
 31
0.0
  0
LINE
  5
1CD
330
1F
100
AcDbEntity
  8
0-2_扉
  6
Continuous
 62
    92
370
    13
100
AcDbLine
 10
3704.999228297052
 20
-709.7500838202416
 30
0.0
 11
2894.999228297052
 21
-709.7500838202416
 31
0.0
  0
LINE
  5
1CE
330
1F
100
AcDbEntity
  8
0-2_扉
  6
Continuous
 62
    92
370
    13
100
AcDbLine
 10
3704.999228297052
 20
-2692.750083820242
 30
0.0
 11
2894.999228297052
 21
-2692.750083820242
 31
0.0
  0
LINE
  5
1CF
330
1F
100
AcDbEntity
  8
0-2_扉
  6
JWW_DASHED1
 62
   120
370
     5
100
AcDbLine
 10
3674.999228297052
 20
-2692.750083820242
 30
0.0
 11
3674.999228297052
 21
-709.7500838202416
 31
0.0
  0
LINE
  5
1D0
330
1F
100
AcDbEntity
  8
0-2_扉
  6
Continuous
 62
    92
370
    13
100
AcDbLine
 10
3704.999228297052
 20
-2692.750083820242
 30
0.0
 11
3704.999228297052
 21
-709.7500838202416
 31
0.0
  0
LINE
  5
1D1
330
1F
100
AcDbEntity
  8
0-2_扉
  6
Continuous
 62
    92
370
    13
100
AcDbLine
 10
2894.999228297052
 20
-2692.750083820242
 30
0.0
 11
2894.999228297052
 21
-709.7500838202416
 31
0.0
  0
LINE
  5
1D2
330
1F
100
AcDbEntity
  8
0-2_扉
  6
Continuous
 62
    92
370
    13
100
AcDbLine
 10
2084.999228297052
 20
-709.7500838202416
 30
0.0
 11
2894.999228297052
 21
-709.7500838202416
 31
0.0
  0
LINE
  5
1D3
330
1F
100
AcDbEntity
  8
0-2_扉
  6
Continuous
 62
    92
370
    13
100
AcDbLine
 10
2084.999228297052
 20
-2692.750083820242
 30
0.0
 11
2894.999228297052
 21
-2692.750083820242
 31
0.0
  0
LINE
  5
1D4
330
1F
100
AcDbEntity
  8
0-2_扉
  6
JWW_DASHED1
 62
   120
370
     5
100
AcDbLine
 10
2114.999228297052
 20
-2692.750083820242
 30
0.0
 11
2114.999228297052
 21
-709.7500838202416
 31
0.0
  0
LINE
  5
1D5
330
1F
100
AcDbEntity
  8
0-2_扉
  6
Continuous
 62
    92
370
    13
100
AcDbLine
 10
2084.999228297052
 20
-2692.750083820242
 30
0.0
 11
2084.999228297052
 21
-709.7500838202416
 31
0.0
  0
MTEXT
  5
1D6
330
1F
100
AcDbEntity
  8
F-A_文字
  6
Continuous
 62
     7
370
     0
100
AcDbMText
 10
-5247.547376752837
 20
-4045.12193607839
 30
0.0
 40
79.75599999999994
 41
4710.0
 46
0.0
 71
     7
 72
     1
  1
{\fＭＳ ゴシック|b0|i0|c128|p49;ピノアース　引き分け戸　上吊りタイプ　框組のライン　Ｎ－ＶＦ／Ｎ－ＶＳ／Ｎ－ＶＨ／Ｎ－ＶＶ}
 73
     1
 44
1.0
  0
MTEXT
  5
1D7
330
1F
100
AcDbEntity
  8
0-A_文字
  6
Continuous
 62
     7
370
     9
100
AcDbMText
 10
-2897.500269606306
 20
4013.576151024072
 30
0.0
 40
77.15249999999999
 41
405.0
 46
0.0
 71
     7
 72
     1
  1
{\fＭＳ ゴシック|b0|i0|c128|p49;Ｎ－ＶＦ}
 73
     1
 44
1.0
  0
MTEXT
  5
1D8
330
1F
100
AcDbEntity
  8
0-A_文字
  6
Continuous
 62
     7
370
     9
100
AcDbMText
 10
2692.499228297054
 20
4013.576151024072
 30
0.0
 40
77.15249999999999
 41
405.0
 46
0.0
 71
     7
 72
     1
  1
{\fＭＳ ゴシック|b0|i0|c128|p49;Ｎ－ＶＳ}
 73
     1
 44
1.0
  0
MTEXT
  5
1D9
330
1F
100
AcDbEntity
  8
0-A_文字
  6
Continuous
 62
     7
370
     9
100
AcDbMText
 10
-2897.500269606306
 20
33.07618236644843
 30
0.0
 40
77.15249999999999
 41
405.0
 46
0.0
 71
     7
 72
     1
  1
{\fＭＳ ゴシック|b0|i0|c128|p49;Ｎ－ＶＨ}
 73
     1
 44
1.0
  0
MTEXT
  5
1DA
330
1F
100
AcDbEntity
  8
0-A_文字
  6
Continuous
 62
     7
370
     9
100
AcDbMText
 10
2692.499228297054
 20
33.07618236644843
 30
0.0
 40
77.15249999999999
 41
405.0
 46
0.0
 71
     7
 72
     1
  1
{\fＭＳ ゴシック|b0|i0|c128|p49;Ｎ－ＶＶ}
 73
     1
 44
1.0
  0
ARC
  5
1DB
330
1F
100
AcDbEntity
  8
引手
  6
Continuous
 62
    92
370
    13
100
AcDbCircle
 10
-2765.500269606307
 20
2437.500148463893
 30
0.0
 40
1.5
100
AcDbArc
 50
90.0
 51
180.0
  0
LINE
  5
1DC
330
1F
100
AcDbEntity
  8
引手
  6
Continuous
 62
    92
370
    13
100
AcDbLine
 10
-2767.000269606307
 20
2437.500148463893
 30
0.0
 11
-2767.000269606307
 21
2330.500148463894
 31
0.0
  0
ARC
  5
1DD
330
1F
100
AcDbEntity
  8
引手
  6
Continuous
 62
    92
370
    13
100
AcDbCircle
 10
-2765.500269606307
 20
2330.500148463894
 30
0.0
 40
1.5
100
AcDbArc
 50
180.0
 51
270.0
  0
LINE
  5
1DE
330
1F
100
AcDbEntity
  8
0-3_仕上げ
  6
Continuous
 62
     7
370
     9
100
AcDbLine
 10
-3374.000269606304
 20
1426.500148463892
 30
0.0
 11
-3374.000269606304
 21
1610.500148463892
 31
0.0
  0
LINE
  5
1DF
330
1F
100
AcDbEntity
  8
0-3_仕上げ
  6
Continuous
 62
    92
370
    13
100
AcDbLine
 10
-3373.000269606305
 20
2201.500148463893
 30
0.0
 11
-3373.000269606305
 21
1614.500148463892
 31
0.0
  0
LINE
  5
1E0
330
1F
100
AcDbEntity
  8
0-3_仕上げ
  6
Continuous
 62
    92
370
    13
100
AcDbLine
 10
-3373.000269606305
 20
2301.500148463892
 30
0.0
 11
-3373.000269606305
 21
3259.500148463892
 31
0.0
  0
LINE
  5
1E1
330
1F
100
AcDbEntity
  8
0-3_仕上げ
  6
Continuous
 62
    92
370
    13
100
AcDbLine
 10
-2827.000269606305
 20
1614.500148463892
 30
0.0
 11
-3373.000269606305
 21
1614.500148463892
 31
0.0
  0
LINE
  5
1E2
330
1F
100
AcDbEntity
  8
0-3_仕上げ
  6
Continuous
 62
    92
370
    13
100
AcDbLine
 10
-2827.000269606305
 20
3259.500148463892
 30
0.0
 11
-3373.000269606305
 21
3259.500148463892
 31
0.0
  0
LINE
  5
1E3
330
1F
100
AcDbEntity
  8
0-3_仕上げ
  6
Continuous
 62
     7
370
     9
100
AcDbLine
 10
-2826.000269606304
 20
1426.500148463892
 30
0.0
 11
-2826.000269606304
 21
1610.500148463892
 31
0.0
  0
LINE
  5
1E4
330
1F
100
AcDbEntity
  8
0-3_仕上げ
  6
Continuous
 62
    92
370
    13
100
AcDbLine
 10
-2827.000269606305
 20
2301.500148463892
 30
0.0
 11
-3373.000269606305
 21
2301.500148463892
 31
0.0
  0
LINE
  5
1E5
330
1F
100
AcDbEntity
  8
0-3_仕上げ
  6
Continuous
 62
    92
370
    13
100
AcDbLine
 10
-3373.000269606305
 20
2201.500148463893
 30
0.0
 11
-2827.000269606305
 21
2201.500148463893
 31
0.0
  0
LINE
  5
1E6
330
1F
100
AcDbEntity
  8
0-3_仕上げ
  6
Continuous
 62
    92
370
    13
100
AcDbLine
 10
-2827.000269606305
 20
2201.500148463893
 30
0.0
 11
-2827.000269606305
 21
1614.500148463892
 31
0.0
  0
LINE
  5
1E7
330
1F
100
AcDbEntity
  8
0-3_仕上げ
  6
Continuous
 62
    92
370
    13
100
AcDbLine
 10
-2827.000269606305
 20
2301.500148463892
 30
0.0
 11
-2827.000269606305
 21
3259.500148463892
 31
0.0
  0
LINE
  5
1E8
330
1F
100
AcDbEntity
  8
0-3_仕上げ
  6
Continuous
 62
     7
370
     9
100
AcDbLine
 10
-2826.000269606304
 20
2205.500148463893
 30
0.0
 11
-2826.000269606304
 21
2297.500148463892
 31
0.0
  0
LINE
  5
1E9
330
1F
100
AcDbEntity
  8
0-3_仕上げ
  6
Continuous
 62
     7
370
     9
100
AcDbLine
 10
-2826.000269606304
 20
3263.500148463892
 30
0.0
 11
-3374.000269606304
 21
3263.500148463892
 31
0.0
  0
LINE
  5
1EA
330
1F
100
AcDbEntity
  8
0-3_仕上げ
  6
Continuous
 62
     7
370
     9
100
AcDbLine
 10
-3375.500269606302
 20
2204.000148463892
 30
0.0
 11
-3375.500269606302
 21
2299.000148463893
 31
0.0
  0
LINE
  5
1EB
330
1F
100
AcDbEntity
  8
0-3_仕上げ
  6
Continuous
 62
     7
370
     9
100
AcDbLine
 10
-3374.000269606304
 20
2205.500148463893
 30
0.0
 11
-3374.000269606304
 21
2297.500148463892
 31
0.0
  0
LINE
  5
1EC
330
1F
100
AcDbEntity
  8
0-3_仕上げ
  6
Continuous
 62
     7
370
     9
100
AcDbLine
 10
-3374.000269606304
 20
2205.500148463893
 30
0.0
 11
-2826.000269606304
 21
2205.500148463893
 31
0.0
  0
LINE
  5
1ED
330
1F
100
AcDbEntity
  8
0-3_仕上げ
  6
Continuous
 62
     7
370
     9
100
AcDbLine
 10
-2824.500269606306
 20
2204.000148463892
 30
0.0
 11
-2824.500269606306
 21
2299.000148463893
 31
0.0
  0
LINE
  5
1EE
330
1F
100
AcDbEntity
  8
0-3_仕上げ
  6
Continuous
 62
     7
370
     9
100
AcDbLine
 10
-2826.000269606304
 20
2297.500148463892
 30
0.0
 11
-3374.000269606304
 21
2297.500148463892
 31
0.0
  0
LINE
  5
1EF
330
1F
100
AcDbEntity
  8
0-3_仕上げ
  6
Continuous
 62
     7
370
     9
100
AcDbLine
 10
-2824.500269606306
 20
1426.500148463892
 30
0.0
 11
-2824.500269606306
 21
1612.000148463892
 31
0.0
  0
LINE
  5
1F0
330
1F
100
AcDbEntity
  8
0-3_仕上げ
  6
Continuous
 62
     7
370
     9
100
AcDbLine
 10
-2826.000269606304
 20
1610.500148463892
 30
0.0
 11
-3374.000269606304
 21
1610.500148463892
 31
0.0
  0
LINE
  5
1F1
330
1F
100
AcDbEntity
  8
0-3_仕上げ
  6
Continuous
 62
     7
370
     9
100
AcDbLine
 10
-3375.500269606302
 20
1426.500148463892
 30
0.0
 11
-3375.500269606302
 21
1612.000148463892
 31
0.0
  0
LINE
  5
1F2
330
1F
100
AcDbEntity
  8
0-3_仕上げ
  6
Continuous
 62
     7
370
     9
100
AcDbLine
 10
-3374.000269606304
 20
2205.500148463893
 30
0.0
 11
-3375.500269606302
 21
2204.000148463892
 31
0.0
  0
LINE
  5
1F3
330
1F
100
AcDbEntity
  8
0-3_仕上げ
  6
Continuous
 62
     7
370
     9
100
AcDbLine
 10
-3374.000269606304
 20
3263.500148463892
 30
0.0
 11
-3375.500269606302
 21
3262.000148463892
 31
0.0
  0
LINE
  5
1F4
330
1F
100
AcDbEntity
  8
0-3_仕上げ
  6
Continuous
 62
     7
370
     9
100
AcDbLine
 10
-2826.000269606304
 20
3263.500148463892
 30
0.0
 11
-2824.500269606306
 21
3262.000148463892
 31
0.0
  0
LINE
  5
1F5
330
1F
100
AcDbEntity
  8
0-3_仕上げ
  6
Continuous
 62
     7
370
     9
100
AcDbLine
 10
-2824.500269606306
 20
3262.000148463892
 30
0.0
 11
-2827.000269606305
 21
3259.500148463892
 31
0.0
  0
LINE
  5
1F6
330
1F
100
AcDbEntity
  8
0-3_仕上げ
  6
Continuous
 62
     7
370
     9
100
AcDbLine
 10
-3373.000269606305
 20
3259.500148463892
 30
0.0
 11
-3375.500269606302
 21
3262.000148463892
 31
0.0
  0
LINE
  5
1F7
330
1F
100
AcDbEntity
  8
0-3_仕上げ
  6
Continuous
 62
     7
370
     9
100
AcDbLine
 10
-3374.000269606304
 20
2297.500148463892
 30
0.0
 11
-3375.500269606302
 21
2299.000148463893
 31
0.0
  0
LINE
  5
1F8
330
1F
100
AcDbEntity
  8
0-3_仕上げ
  6
Continuous
 62
     7
370
     9
100
AcDbLine
 10
-3375.500269606302
 20
2299.000148463893
 30
0.0
 11
-3373.000269606305
 21
2301.500148463892
 31
0.0
  0
LINE
  5
1F9
330
1F
100
AcDbEntity
  8
0-3_仕上げ
  6
Continuous
 62
     7
370
     9
100
AcDbLine
 10
-3373.000269606305
 20
2201.500148463893
 30
0.0
 11
-3375.500269606302
 21
2204.000148463892
 31
0.0
  0
LINE
  5
1FA
330
1F
100
AcDbEntity
  8
0-3_仕上げ
  6
Continuous
 62
     7
370
     9
100
AcDbLine
 10
-2826.000269606304
 20
2205.500148463893
 30
0.0
 11
-2824.500269606306
 21
2204.000148463892
 31
0.0
  0
LINE
  5
1FB
330
1F
100
AcDbEntity
  8
0-3_仕上げ
  6
Continuous
 62
     7
370
     9
100
AcDbLine
 10
-2824.500269606306
 20
2204.000148463892
 30
0.0
 11
-2827.000269606305
 21
2201.500148463893
 31
0.0
  0
LINE
  5
1FC
330
1F
100
AcDbEntity
  8
0-3_仕上げ
  6
Continuous
 62
     7
370
     9
100
AcDbLine
 10
-2827.000269606305
 20
2301.500148463892
 30
0.0
 11
-2824.500269606306
 21
2299.000148463893
 31
0.0
  0
LINE
  5
1FD
330
1F
100
AcDbEntity
  8
0-3_仕上げ
  6
Continuous
 62
     7
370
     9
100
AcDbLine
 10
-2826.000269606304
 20
2297.500148463892
 30
0.0
 11
-2824.500269606306
 21
2299.000148463893
 31
0.0
  0
LINE
  5
1FE
330
1F
100
AcDbEntity
  8
0-3_仕上げ
  6
Continuous
 62
     7
370
     9
100
AcDbLine
 10
-2827.000269606305
 20
1614.500148463892
 30
0.0
 11
-2824.500269606306
 21
1612.000148463892
 31
0.0
  0
LINE
  5
1FF
330
1F
100
AcDbEntity
  8
0-3_仕上げ
  6
Continuous
 62
     7
370
     9
100
AcDbLine
 10
-2826.000269606304
 20
1610.500148463892
 30
0.0
 11
-2824.500269606306
 21
1612.000148463892
 31
0.0
  0
LINE
  5
200
330
1F
100
AcDbEntity
  8
0-3_仕上げ
  6
Continuous
 62
     7
370
     9
100
AcDbLine
 10
-3374.000269606304
 20
1610.500148463892
 30
0.0
 11
-3375.500269606302
 21
1612.000148463892
 31
0.0
  0
LINE
  5
201
330
1F
100
AcDbEntity
  8
0-3_仕上げ
  6
Continuous
 62
     7
370
     9
100
AcDbLine
 10
-3375.500269606302
 20
1612.000148463892
 30
0.0
 11
-3373.000269606305
 21
1614.500148463892
 31
0.0
  0
LINE
  5
202
330
1F
100
AcDbEntity
  8
0-3_仕上げ
  6
Continuous
 62
     7
370
     9
100
AcDbLine
 10
-2823.000269606304
 20
1426.500148463892
 30
0.0
 11
-2823.000269606304
 21
3409.500148463892
 31
0.0
  0
LINE
  5
203
330
1F
100
AcDbEntity
  8
0-3_仕上げ
  6
Continuous
 62
     7
370
     9
100
AcDbLine
 10
-3377.000269606305
 20
1426.500148463892
 30
0.0
 11
-3377.000269606305
 21
3409.500148463892
 31
0.0
  0
LINE
  5
204
330
1F
100
AcDbEntity
  8
0-3_仕上げ
  6
Continuous
 62
     7
370
     9
100
AcDbLine
 10
-2826.000269606304
 20
3263.500148463892
 30
0.0
 11
-2826.000269606304
 21
3409.500148463892
 31
0.0
  0
LINE
  5
205
330
1F
100
AcDbEntity
  8
0-3_仕上げ
  6
Continuous
 62
     7
370
     9
100
AcDbLine
 10
-2824.500269606306
 20
3262.000148463892
 30
0.0
 11
-2824.500269606306
 21
3409.500148463892
 31
0.0
  0
LINE
  5
206
330
1F
100
AcDbEntity
  8
0-3_仕上げ
  6
Continuous
 62
     7
370
     9
100
AcDbLine
 10
-3375.500269606302
 20
3262.000148463892
 30
0.0
 11
-3375.500269606302
 21
3409.500148463892
 31
0.0
  0
LINE
  5
207
330
1F
100
AcDbEntity
  8
0-3_仕上げ
  6
Continuous
 62
     7
370
     9
100
AcDbLine
 10
-3374.000269606304
 20
3263.500148463892
 30
0.0
 11
-3374.000269606304
 21
3409.500148463892
 31
0.0
  0
LINE
  5
208
330
1F
100
AcDbEntity
  8
0-3_仕上げ
  6
Continuous
 62
     7
370
     9
100
AcDbLine
 10
-2564.0002696063
 20
1426.500148463892
 30
0.0
 11
-2564.0002696063
 21
1610.500148463892
 31
0.0
  0
LINE
  5
209
330
1F
100
AcDbEntity
  8
0-3_仕上げ
  6
Continuous
 62
    92
370
    13
100
AcDbLine
 10
-2563.000269606301
 20
2201.500148463893
 30
0.0
 11
-2563.000269606301
 21
1614.500148463892
 31
0.0
  0
LINE
  5
20A
330
1F
100
AcDbEntity
  8
0-3_仕上げ
  6
Continuous
 62
    92
370
    13
100
AcDbLine
 10
-2563.000269606301
 20
2301.500148463892
 30
0.0
 11
-2563.000269606301
 21
3259.500148463892
 31
0.0
  0
LINE
  5
20B
330
1F
100
AcDbEntity
  8
0-3_仕上げ
  6
Continuous
 62
    92
370
    13
100
AcDbLine
 10
-2017.000269606303
 20
1614.500148463892
 30
0.0
 11
-2563.000269606301
 21
1614.500148463892
 31
0.0
  0
LINE
  5
20C
330
1F
100
AcDbEntity
  8
0-3_仕上げ
  6
Continuous
 62
    92
370
    13
100
AcDbLine
 10
-2017.000269606303
 20
3259.500148463892
 30
0.0
 11
-2563.000269606301
 21
3259.500148463892
 31
0.0
  0
LINE
  5
20D
330
1F
100
AcDbEntity
  8
0-3_仕上げ
  6
Continuous
 62
     7
370
     9
100
AcDbLine
 10
-2016.000269606304
 20
1426.500148463892
 30
0.0
 11
-2016.000269606304
 21
1610.500148463892
 31
0.0
  0
LINE
  5
20E
330
1F
100
AcDbEntity
  8
0-3_仕上げ
  6
Continuous
 62
    92
370
    13
100
AcDbLine
 10
-2017.000269606303
 20
2301.500148463892
 30
0.0
 11
-2563.000269606301
 21
2301.500148463892
 31
0.0
  0
LINE
  5
20F
330
1F
100
AcDbEntity
  8
0-3_仕上げ
  6
Continuous
 62
    92
370
    13
100
AcDbLine
 10
-2563.000269606301
 20
2201.500148463893
 30
0.0
 11
-2017.000269606303
 21
2201.500148463893
 31
0.0
  0
LINE
  5
210
330
1F
100
AcDbEntity
  8
0-3_仕上げ
  6
Continuous
 62
    92
370
    13
100
AcDbLine
 10
-2017.000269606303
 20
2201.500148463893
 30
0.0
 11
-2017.000269606303
 21
1614.500148463892
 31
0.0
  0
LINE
  5
211
330
1F
100
AcDbEntity
  8
0-3_仕上げ
  6
Continuous
 62
    92
370
    13
100
AcDbLine
 10
-2017.000269606303
 20
2301.500148463892
 30
0.0
 11
-2017.000269606303
 21
3259.500148463892
 31
0.0
  0
LINE
  5
212
330
1F
100
AcDbEntity
  8
0-3_仕上げ
  6
Continuous
 62
     7
370
     9
100
AcDbLine
 10
-2016.000269606304
 20
2205.500148463893
 30
0.0
 11
-2016.000269606304
 21
2297.500148463892
 31
0.0
  0
LINE
  5
213
330
1F
100
AcDbEntity
  8
0-3_仕上げ
  6
Continuous
 62
     7
370
     9
100
AcDbLine
 10
-2016.000269606304
 20
3263.500148463892
 30
0.0
 11
-2564.0002696063
 21
3263.500148463892
 31
0.0
  0
LINE
  5
214
330
1F
100
AcDbEntity
  8
0-3_仕上げ
  6
Continuous
 62
     7
370
     9
100
AcDbLine
 10
-2565.500269606302
 20
2204.000148463892
 30
0.0
 11
-2565.500269606302
 21
2299.000148463893
 31
0.0
  0
LINE
  5
215
330
1F
100
AcDbEntity
  8
0-3_仕上げ
  6
Continuous
 62
     7
370
     9
100
AcDbLine
 10
-2564.0002696063
 20
2205.500148463893
 30
0.0
 11
-2564.0002696063
 21
2297.500148463892
 31
0.0
  0
LINE
  5
216
330
1F
100
AcDbEntity
  8
0-3_仕上げ
  6
Continuous
 62
     7
370
     9
100
AcDbLine
 10
-2564.0002696063
 20
2205.500148463893
 30
0.0
 11
-2016.000269606304
 21
2205.500148463893
 31
0.0
  0
LINE
  5
217
330
1F
100
AcDbEntity
  8
0-3_仕上げ
  6
Continuous
 62
     7
370
     9
100
AcDbLine
 10
-2014.500269606302
 20
2204.000148463892
 30
0.0
 11
-2014.500269606302
 21
2299.000148463893
 31
0.0
  0
LINE
  5
218
330
1F
100
AcDbEntity
  8
0-3_仕上げ
  6
Continuous
 62
     7
370
     9
100
AcDbLine
 10
-2016.000269606304
 20
2297.500148463892
 30
0.0
 11
-2564.0002696063
 21
2297.500148463892
 31
0.0
  0
LINE
  5
219
330
1F
100
AcDbEntity
  8
0-3_仕上げ
  6
Continuous
 62
     7
370
     9
100
AcDbLine
 10
-2014.500269606302
 20
1426.500148463892
 30
0.0
 11
-2014.500269606302
 21
1612.000148463892
 31
0.0
  0
LINE
  5
21A
330
1F
100
AcDbEntity
  8
0-3_仕上げ
  6
Continuous
 62
     7
370
     9
100
AcDbLine
 10
-2016.000269606304
 20
1610.500148463892
 30
0.0
 11
-2564.0002696063
 21
1610.500148463892
 31
0.0
  0
LINE
  5
21B
330
1F
100
AcDbEntity
  8
0-3_仕上げ
  6
Continuous
 62
     7
370
     9
100
AcDbLine
 10
-2565.500269606302
 20
1426.500148463892
 30
0.0
 11
-2565.500269606302
 21
1612.000148463892
 31
0.0
  0
LINE
  5
21C
330
1F
100
AcDbEntity
  8
0-3_仕上げ
  6
Continuous
 62
     7
370
     9
100
AcDbLine
 10
-2564.0002696063
 20
2205.500148463893
 30
0.0
 11
-2565.500269606302
 21
2204.000148463892
 31
0.0
  0
LINE
  5
21D
330
1F
100
AcDbEntity
  8
0-3_仕上げ
  6
Continuous
 62
     7
370
     9
100
AcDbLine
 10
-2564.0002696063
 20
3263.500148463892
 30
0.0
 11
-2565.500269606302
 21
3262.000148463892
 31
0.0
  0
LINE
  5
21E
330
1F
100
AcDbEntity
  8
0-3_仕上げ
  6
Continuous
 62
     7
370
     9
100
AcDbLine
 10
-2016.000269606304
 20
3263.500148463892
 30
0.0
 11
-2014.500269606302
 21
3262.000148463892
 31
0.0
  0
LINE
  5
21F
330
1F
100
AcDbEntity
  8
0-3_仕上げ
  6
Continuous
 62
     7
370
     9
100
AcDbLine
 10
-2014.500269606302
 20
3262.000148463892
 30
0.0
 11
-2017.000269606303
 21
3259.500148463892
 31
0.0
  0
LINE
  5
220
330
1F
100
AcDbEntity
  8
0-3_仕上げ
  6
Continuous
 62
     7
370
     9
100
AcDbLine
 10
-2563.000269606301
 20
3259.500148463892
 30
0.0
 11
-2565.500269606302
 21
3262.000148463892
 31
0.0
  0
LINE
  5
221
330
1F
100
AcDbEntity
  8
0-3_仕上げ
  6
Continuous
 62
     7
370
     9
100
AcDbLine
 10
-2564.0002696063
 20
2297.500148463892
 30
0.0
 11
-2565.500269606302
 21
2299.000148463893
 31
0.0
  0
LINE
  5
222
330
1F
100
AcDbEntity
  8
0-3_仕上げ
  6
Continuous
 62
     7
370
     9
100
AcDbLine
 10
-2565.500269606302
 20
2299.000148463893
 30
0.0
 11
-2563.000269606301
 21
2301.500148463892
 31
0.0
  0
LINE
  5
223
330
1F
100
AcDbEntity
  8
0-3_仕上げ
  6
Continuous
 62
     7
370
     9
100
AcDbLine
 10
-2563.000269606301
 20
2201.500148463893
 30
0.0
 11
-2565.500269606302
 21
2204.000148463892
 31
0.0
  0
LINE
  5
224
330
1F
100
AcDbEntity
  8
0-3_仕上げ
  6
Continuous
 62
     7
370
     9
100
AcDbLine
 10
-2016.000269606304
 20
2205.500148463893
 30
0.0
 11
-2014.500269606302
 21
2204.000148463892
 31
0.0
  0
LINE
  5
225
330
1F
100
AcDbEntity
  8
0-3_仕上げ
  6
Continuous
 62
     7
370
     9
100
AcDbLine
 10
-2014.500269606302
 20
2204.000148463892
 30
0.0
 11
-2017.000269606303
 21
2201.500148463893
 31
0.0
  0
LINE
  5
226
330
1F
100
AcDbEntity
  8
0-3_仕上げ
  6
Continuous
 62
     7
370
     9
100
AcDbLine
 10
-2017.000269606303
 20
2301.500148463892
 30
0.0
 11
-2014.500269606302
 21
2299.000148463893
 31
0.0
  0
LINE
  5
227
330
1F
100
AcDbEntity
  8
0-3_仕上げ
  6
Continuous
 62
     7
370
     9
100
AcDbLine
 10
-2016.000269606304
 20
2297.500148463892
 30
0.0
 11
-2014.500269606302
 21
2299.000148463893
 31
0.0
  0
LINE
  5
228
330
1F
100
AcDbEntity
  8
0-3_仕上げ
  6
Continuous
 62
     7
370
     9
100
AcDbLine
 10
-2017.000269606303
 20
1614.500148463892
 30
0.0
 11
-2014.500269606302
 21
1612.000148463892
 31
0.0
  0
LINE
  5
229
330
1F
100
AcDbEntity
  8
0-3_仕上げ
  6
Continuous
 62
     7
370
     9
100
AcDbLine
 10
-2016.000269606304
 20
1610.500148463892
 30
0.0
 11
-2014.500269606302
 21
1612.000148463892
 31
0.0
  0
LINE
  5
22A
330
1F
100
AcDbEntity
  8
0-3_仕上げ
  6
Continuous
 62
     7
370
     9
100
AcDbLine
 10
-2564.0002696063
 20
1610.500148463892
 30
0.0
 11
-2565.500269606302
 21
1612.000148463892
 31
0.0
  0
LINE
  5
22B
330
1F
100
AcDbEntity
  8
0-3_仕上げ
  6
Continuous
 62
     7
370
     9
100
AcDbLine
 10
-2565.500269606302
 20
1612.000148463892
 30
0.0
 11
-2563.000269606301
 21
1614.500148463892
 31
0.0
  0
LINE
  5
22C
330
1F
100
AcDbEntity
  8
0-3_仕上げ
  6
Continuous
 62
     7
370
     9
100
AcDbLine
 10
-2013.000269606304
 20
1426.500148463892
 30
0.0
 11
-2013.000269606304
 21
3409.500148463892
 31
0.0
  0
LINE
  5
22D
330
1F
100
AcDbEntity
  8
0-3_仕上げ
  6
Continuous
 62
     7
370
     9
100
AcDbLine
 10
-2567.000269606301
 20
1426.500148463892
 30
0.0
 11
-2567.000269606301
 21
3409.500148463892
 31
0.0
  0
LINE
  5
22E
330
1F
100
AcDbEntity
  8
0-3_仕上げ
  6
Continuous
 62
     7
370
     9
100
AcDbLine
 10
-2016.000269606304
 20
3263.500148463892
 30
0.0
 11
-2016.000269606304
 21
3409.500148463892
 31
0.0
  0
LINE
  5
22F
330
1F
100
AcDbEntity
  8
0-3_仕上げ
  6
Continuous
 62
     7
370
     9
100
AcDbLine
 10
-2014.500269606302
 20
3262.000148463892
 30
0.0
 11
-2014.500269606302
 21
3409.500148463892
 31
0.0
  0
LINE
  5
230
330
1F
100
AcDbEntity
  8
0-3_仕上げ
  6
Continuous
 62
     7
370
     9
100
AcDbLine
 10
-2565.500269606302
 20
3262.000148463892
 30
0.0
 11
-2565.500269606302
 21
3409.500148463892
 31
0.0
  0
LINE
  5
231
330
1F
100
AcDbEntity
  8
0-3_仕上げ
  6
Continuous
 62
     7
370
     9
100
AcDbLine
 10
-2564.0002696063
 20
3263.500148463892
 30
0.0
 11
-2564.0002696063
 21
3409.500148463892
 31
0.0
  0
LINE
  5
232
330
1F
100
AcDbEntity
  8
0-C_ハッチ
  6
JWW_DASHED1
 62
   120
370
     5
100
AcDbLine
 10
-3373.000269606305
 20
3224.558973090534
 30
0.0
 11
-3338.059094232947
 21
3259.500148463891
 31
0.0
  0
LINE
  5
233
330
1F
100
AcDbEntity
  8
0-C_ハッチ
  6
JWW_DASHED1
 62
   120
370
     5
100
AcDbLine
 10
-3373.000269606305
 20
3139.706159348133
 30
0.0
 11
-3253.206280490554
 21
3259.500148463885
 31
0.0
  0
LINE
  5
234
330
1F
100
AcDbEntity
  8
0-C_ハッチ
  6
JWW_DASHED1
 62
   120
370
     5
100
AcDbLine
 10
-3373.000269606305
 20
3182.132566219334
 30
0.0
 11
-3295.63268736175
 21
3259.500148463887
 31
0.0
  0
LINE
  5
235
330
1F
100
AcDbEntity
  8
0-C_ハッチ
  6
JWW_DASHED1
 62
   120
370
     5
100
AcDbLine
 10
-2853.561260612363
 20
2301.500148463892
 30
0.0
 11
-2827.000269606305
 21
2328.06113946995
 31
0.0
  0
LINE
  5
236
330
1F
100
AcDbEntity
  8
0-C_ハッチ
  6
JWW_DASHED1
 62
   120
370
     5
100
AcDbLine
 10
-2895.987667483563
 20
2301.500148463892
 30
0.0
 11
-2827.000269606305
 21
2370.487546341151
 31
0.0
  0
LINE
  5
237
330
1F
100
AcDbEntity
  8
0-C_ハッチ
  6
JWW_DASHED1
 62
   120
370
     5
100
AcDbLine
 10
-3373.000269606305
 20
2757.868497507388
 30
0.0
 11
-2871.368618649794
 21
3259.500148463898
 31
0.0
  0
LINE
  5
238
330
1F
100
AcDbEntity
  8
0-C_ハッチ
  6
JWW_DASHED1
 62
   120
370
     5
100
AcDbLine
 10
-3373.000269606305
 20
2800.294904378588
 30
0.0
 11
-2913.795025520991
 21
3259.500148463901
 31
0.0
  0
LINE
  5
239
330
1F
100
AcDbEntity
  8
0-C_ハッチ
  6
JWW_DASHED1
 62
   120
370
     5
100
AcDbLine
 10
-3373.000269606305
 20
2842.721311249788
 30
0.0
 11
-2956.221432392204
 21
3259.500148463889
 31
0.0
  0
LINE
  5
23A
330
1F
100
AcDbEntity
  8
0-C_ハッチ
  6
JWW_DASHED1
 62
   120
370
     5
100
AcDbLine
 10
-3373.000269606305
 20
2885.147718120988
 30
0.0
 11
-2998.647839263401
 21
3259.500148463892
 31
0.0
  0
LINE
  5
23B
330
1F
100
AcDbEntity
  8
0-C_ハッチ
  6
JWW_DASHED1
 62
   120
370
     5
100
AcDbLine
 10
-3373.000269606305
 20
2927.574124992188
 30
0.0
 11
-3041.074246134598
 21
3259.500148463896
 31
0.0
  0
LINE
  5
23C
330
1F
100
AcDbEntity
  8
0-C_ハッチ
  6
JWW_DASHED1
 62
   120
370
     5
100
AcDbLine
 10
-3373.000269606305
 20
2970.000531863389
 30
0.0
 11
-3083.500653005801
 21
3259.50014846389
 31
0.0
  0
LINE
  5
23D
330
1F
100
AcDbEntity
  8
0-C_ハッチ
  6
JWW_DASHED1
 62
   120
370
     5
100
AcDbLine
 10
-3373.000269606305
 20
3012.426938734533
 30
0.0
 11
-3125.92705987694
 21
3259.500148463898
 31
0.0
  0
LINE
  5
23E
330
1F
100
AcDbEntity
  8
0-C_ハッチ
  6
JWW_DASHED1
 62
   120
370
     5
100
AcDbLine
 10
-3373.000269606305
 20
3054.853345605733
 30
0.0
 11
-3168.353466748133
 21
3259.500148463903
 31
0.0
  0
LINE
  5
23F
330
1F
100
AcDbEntity
  8
0-C_ハッチ
  6
JWW_DASHED1
 62
   120
370
     5
100
AcDbLine
 10
-3373.000269606305
 20
3097.279752476933
 30
0.0
 11
-3210.77987361933
 21
3259.500148463908
 31
0.0
  0
LINE
  5
240
330
1F
100
AcDbEntity
  8
0-C_ハッチ
  6
JWW_DASHED1
 62
   120
370
     5
100
AcDbLine
 10
-3373.000269606305
 20
2715.442090636188
 30
0.0
 11
-2828.942211778598
 21
3259.500148463893
 31
0.0
  0
LINE
  5
241
330
1F
100
AcDbEntity
  8
0-C_ハッチ
  6
JWW_DASHED1
 62
   120
370
     5
100
AcDbLine
 10
-3373.000269606305
 20
2673.015683765043
 30
0.0
 11
-2827.000269606305
 21
3219.015683765041
 31
0.0
  0
LINE
  5
242
330
1F
100
AcDbEntity
  8
0-C_ハッチ
  6
JWW_DASHED1
 62
   120
370
     5
100
AcDbLine
 10
-3373.000269606305
 20
2333.604428795498
 30
0.0
 11
-2827.000269606305
 21
2879.604428795496
 31
0.0
  0
LINE
  5
243
330
1F
100
AcDbEntity
  8
0-C_ハッチ
  6
JWW_DASHED1
 62
   120
370
     5
100
AcDbLine
 10
-3373.000269606305
 20
2376.030835666643
 30
0.0
 11
-2827.000269606305
 21
2922.030835666641
 31
0.0
  0
LINE
  5
244
330
1F
100
AcDbEntity
  8
0-C_ハッチ
  6
JWW_DASHED1
 62
   120
370
     5
100
AcDbLine
 10
-3373.000269606305
 20
2418.457242537843
 30
0.0
 11
-2827.000269606305
 21
2964.457242537841
 31
0.0
  0
LINE
  5
245
330
1F
100
AcDbEntity
  8
0-C_ハッチ
  6
JWW_DASHED1
 62
   120
370
     5
100
AcDbLine
 10
-3373.000269606305
 20
2460.883649409043
 30
0.0
 11
-2827.000269606305
 21
3006.883649409041
 31
0.0
  0
LINE
  5
246
330
1F
100
AcDbEntity
  8
0-C_ハッチ
  6
JWW_DASHED1
 62
   120
370
     5
100
AcDbLine
 10
-3373.000269606305
 20
2503.310056280243
 30
0.0
 11
-2827.000269606305
 21
3049.310056280241
 31
0.0
  0
LINE
  5
247
330
1F
100
AcDbEntity
  8
0-C_ハッチ
  6
JWW_DASHED1
 62
   120
370
     5
100
AcDbLine
 10
-3373.000269606305
 20
2545.736463151443
 30
0.0
 11
-2827.000269606305
 21
3091.736463151442
 31
0.0
  0
LINE
  5
248
330
1F
100
AcDbEntity
  8
0-C_ハッチ
  6
JWW_DASHED1
 62
   120
370
     5
100
AcDbLine
 10
-3373.000269606305
 20
2588.162870022643
 30
0.0
 11
-2827.000269606305
 21
3134.162870022642
 31
0.0
  0
LINE
  5
249
330
1F
100
AcDbEntity
  8
0-C_ハッチ
  6
JWW_DASHED1
 62
   120
370
     5
100
AcDbLine
 10
-3373.000269606305
 20
2630.589276893843
 30
0.0
 11
-2827.000269606305
 21
3176.589276893841
 31
0.0
  0
LINE
  5
24A
330
1F
100
AcDbEntity
  8
0-C_ハッチ
  6
JWW_DASHED1
 62
   120
370
     5
100
AcDbLine
 10
-3362.678143066709
 20
2301.500148463892
 30
0.0
 11
-2827.000269606305
 21
2837.178021924296
 31
0.0
  0
LINE
  5
24B
330
1F
100
AcDbEntity
  8
0-C_ハッチ
  6
JWW_DASHED1
 62
   120
370
     5
100
AcDbLine
 10
-3320.251736195509
 20
2301.500148463892
 30
0.0
 11
-2827.000269606305
 21
2794.751615053096
 31
0.0
  0
LINE
  5
24C
330
1F
100
AcDbEntity
  8
0-C_ハッチ
  6
JWW_DASHED1
 62
   120
370
     5
100
AcDbLine
 10
-2938.414074354763
 20
2301.500148463892
 30
0.0
 11
-2827.000269606305
 21
2412.91395321235
 31
0.0
  0
LINE
  5
24D
330
1F
100
AcDbEntity
  8
0-C_ハッチ
  6
JWW_DASHED1
 62
   120
370
     5
100
AcDbLine
 10
-2980.840481225963
 20
2301.500148463892
 30
0.0
 11
-2827.000269606305
 21
2455.340360083551
 31
0.0
  0
LINE
  5
24E
330
1F
100
AcDbEntity
  8
0-C_ハッチ
  6
JWW_DASHED1
 62
   120
370
     5
100
AcDbLine
 10
-3023.266888097163
 20
2301.500148463892
 30
0.0
 11
-2827.000269606305
 21
2497.76676695475
 31
0.0
  0
LINE
  5
24F
330
1F
100
AcDbEntity
  8
0-C_ハッチ
  6
JWW_DASHED1
 62
   120
370
     5
100
AcDbLine
 10
-3065.693294968363
 20
2301.500148463892
 30
0.0
 11
-2827.000269606305
 21
2540.193173825951
 31
0.0
  0
LINE
  5
250
330
1F
100
AcDbEntity
  8
0-C_ハッチ
  6
JWW_DASHED1
 62
   120
370
     5
100
AcDbLine
 10
-3108.119701839563
 20
2301.500148463892
 30
0.0
 11
-2827.000269606305
 21
2582.619580697151
 31
0.0
  0
LINE
  5
251
330
1F
100
AcDbEntity
  8
0-C_ハッチ
  6
JWW_DASHED1
 62
   120
370
     5
100
AcDbLine
 10
-3150.546108710709
 20
2301.500148463892
 30
0.0
 11
-2827.000269606305
 21
2625.045987568296
 31
0.0
  0
LINE
  5
252
330
1F
100
AcDbEntity
  8
0-C_ハッチ
  6
JWW_DASHED1
 62
   120
370
     5
100
AcDbLine
 10
-3192.972515581909
 20
2301.500148463892
 30
0.0
 11
-2827.000269606305
 21
2667.472394439496
 31
0.0
  0
LINE
  5
253
330
1F
100
AcDbEntity
  8
0-C_ハッチ
  6
JWW_DASHED1
 62
   120
370
     5
100
AcDbLine
 10
-3235.398922453109
 20
2301.500148463892
 30
0.0
 11
-2827.000269606305
 21
2709.898801310696
 31
0.0
  0
LINE
  5
254
330
1F
100
AcDbEntity
  8
0-C_ハッチ
  6
JWW_DASHED1
 62
   120
370
     5
100
AcDbLine
 10
-3277.825329324309
 20
2301.500148463892
 30
0.0
 11
-2827.000269606305
 21
2752.325208181896
 31
0.0
  0
LINE
  5
255
330
1F
100
AcDbEntity
  8
0-C_ハッチ
  6
JWW_DASHED1
 62
   120
370
     5
100
AcDbLine
 10
-2563.000269606301
 20
3224.558973090534
 30
0.0
 11
-2528.059094232944
 21
3259.500148463891
 31
0.0
  0
LINE
  5
256
330
1F
100
AcDbEntity
  8
0-C_ハッチ
  6
JWW_DASHED1
 62
   120
370
     5
100
AcDbLine
 10
-2563.000269606301
 20
3139.706159348133
 30
0.0
 11
-2443.20628049055
 21
3259.500148463885
 31
0.0
  0
LINE
  5
257
330
1F
100
AcDbEntity
  8
0-C_ハッチ
  6
JWW_DASHED1
 62
   120
370
     5
100
AcDbLine
 10
-2563.000269606301
 20
3182.132566219334
 30
0.0
 11
-2485.632687361747
 21
3259.500148463887
 31
0.0
  0
LINE
  5
258
330
1F
100
AcDbEntity
  8
0-C_ハッチ
  6
JWW_DASHED1
 62
   120
370
     5
100
AcDbLine
 10
-2043.56126061236
 20
2301.500148463892
 30
0.0
 11
-2017.000269606303
 21
2328.06113946995
 31
0.0
  0
LINE
  5
259
330
1F
100
AcDbEntity
  8
0-C_ハッチ
  6
JWW_DASHED1
 62
   120
370
     5
100
AcDbLine
 10
-2085.98766748356
 20
2301.500148463892
 30
0.0
 11
-2017.000269606303
 21
2370.487546341151
 31
0.0
  0
LINE
  5
25A
330
1F
100
AcDbEntity
  8
0-C_ハッチ
  6
JWW_DASHED1
 62
   120
370
     5
100
AcDbLine
 10
-2563.000269606301
 20
2757.868497507388
 30
0.0
 11
-2061.368618649791
 21
3259.500148463898
 31
0.0
  0
LINE
  5
25B
330
1F
100
AcDbEntity
  8
0-C_ハッチ
  6
JWW_DASHED1
 62
   120
370
     5
100
AcDbLine
 10
-2563.000269606301
 20
2800.294904378588
 30
0.0
 11
-2103.795025520988
 21
3259.500148463901
 31
0.0
  0
LINE
  5
25C
330
1F
100
AcDbEntity
  8
0-C_ハッチ
  6
JWW_DASHED1
 62
   120
370
     5
100
AcDbLine
 10
-2563.000269606301
 20
2842.721311249788
 30
0.0
 11
-2146.221432392201
 21
3259.500148463889
 31
0.0
  0
LINE
  5
25D
330
1F
100
AcDbEntity
  8
0-C_ハッチ
  6
JWW_DASHED1
 62
   120
370
     5
100
AcDbLine
 10
-2563.000269606301
 20
2885.147718120988
 30
0.0
 11
-2188.647839263398
 21
3259.500148463892
 31
0.0
  0
LINE
  5
25E
330
1F
100
AcDbEntity
  8
0-C_ハッチ
  6
JWW_DASHED1
 62
   120
370
     5
100
AcDbLine
 10
-2563.000269606301
 20
2927.574124992188
 30
0.0
 11
-2231.074246134594
 21
3259.500148463896
 31
0.0
  0
LINE
  5
25F
330
1F
100
AcDbEntity
  8
0-C_ハッチ
  6
JWW_DASHED1
 62
   120
370
     5
100
AcDbLine
 10
-2563.000269606301
 20
2970.000531863389
 30
0.0
 11
-2273.500653005801
 21
3259.50014846389
 31
0.0
  0
LINE
  5
260
330
1F
100
AcDbEntity
  8
0-C_ハッチ
  6
JWW_DASHED1
 62
   120
370
     5
100
AcDbLine
 10
-2563.000269606301
 20
3012.426938734533
 30
0.0
 11
-2315.927059876936
 21
3259.500148463898
 31
0.0
  0
LINE
  5
261
330
1F
100
AcDbEntity
  8
0-C_ハッチ
  6
JWW_DASHED1
 62
   120
370
     5
100
AcDbLine
 10
-2563.000269606301
 20
3054.853345605733
 30
0.0
 11
-2358.353466748133
 21
3259.500148463903
 31
0.0
  0
LINE
  5
262
330
1F
100
AcDbEntity
  8
0-C_ハッチ
  6
JWW_DASHED1
 62
   120
370
     5
100
AcDbLine
 10
-2563.000269606301
 20
3097.279752476933
 30
0.0
 11
-2400.779873619326
 21
3259.500148463908
 31
0.0
  0
LINE
  5
263
330
1F
100
AcDbEntity
  8
0-C_ハッチ
  6
JWW_DASHED1
 62
   120
370
     5
100
AcDbLine
 10
-2563.000269606301
 20
2715.442090636188
 30
0.0
 11
-2018.942211778598
 21
3259.500148463893
 31
0.0
  0
LINE
  5
264
330
1F
100
AcDbEntity
  8
0-C_ハッチ
  6
JWW_DASHED1
 62
   120
370
     5
100
AcDbLine
 10
-2563.000269606301
 20
2673.015683765043
 30
0.0
 11
-2017.000269606303
 21
3219.015683765041
 31
0.0
  0
LINE
  5
265
330
1F
100
AcDbEntity
  8
0-C_ハッチ
  6
JWW_DASHED1
 62
   120
370
     5
100
AcDbLine
 10
-2563.000269606301
 20
2333.604428795498
 30
0.0
 11
-2017.000269606303
 21
2879.604428795496
 31
0.0
  0
LINE
  5
266
330
1F
100
AcDbEntity
  8
0-C_ハッチ
  6
JWW_DASHED1
 62
   120
370
     5
100
AcDbLine
 10
-2563.000269606301
 20
2376.030835666643
 30
0.0
 11
-2017.000269606303
 21
2922.030835666641
 31
0.0
  0
LINE
  5
267
330
1F
100
AcDbEntity
  8
0-C_ハッチ
  6
JWW_DASHED1
 62
   120
370
     5
100
AcDbLine
 10
-2563.000269606301
 20
2418.457242537843
 30
0.0
 11
-2017.000269606303
 21
2964.457242537841
 31
0.0
  0
LINE
  5
268
330
1F
100
AcDbEntity
  8
0-C_ハッチ
  6
JWW_DASHED1
 62
   120
370
     5
100
AcDbLine
 10
-2563.000269606301
 20
2460.883649409043
 30
0.0
 11
-2017.000269606303
 21
3006.883649409041
 31
0.0
  0
LINE
  5
269
330
1F
100
AcDbEntity
  8
0-C_ハッチ
  6
JWW_DASHED1
 62
   120
370
     5
100
AcDbLine
 10
-2563.000269606301
 20
2503.310056280243
 30
0.0
 11
-2017.000269606303
 21
3049.310056280241
 31
0.0
  0
LINE
  5
26A
330
1F
100
AcDbEntity
  8
0-C_ハッチ
  6
JWW_DASHED1
 62
   120
370
     5
100
AcDbLine
 10
-2563.000269606301
 20
2545.736463151443
 30
0.0
 11
-2017.000269606303
 21
3091.736463151442
 31
0.0
  0
LINE
  5
26B
330
1F
100
AcDbEntity
  8
0-C_ハッチ
  6
JWW_DASHED1
 62
   120
370
     5
100
AcDbLine
 10
-2563.000269606301
 20
2588.162870022643
 30
0.0
 11
-2017.000269606303
 21
3134.162870022642
 31
0.0
  0
LINE
  5
26C
330
1F
100
AcDbEntity
  8
0-C_ハッチ
  6
JWW_DASHED1
 62
   120
370
     5
100
AcDbLine
 10
-2563.000269606301
 20
2630.589276893843
 30
0.0
 11
-2017.000269606303
 21
3176.589276893841
 31
0.0
  0
LINE
  5
26D
330
1F
100
AcDbEntity
  8
0-C_ハッチ
  6
JWW_DASHED1
 62
   120
370
     5
100
AcDbLine
 10
-2552.678143066705
 20
2301.500148463892
 30
0.0
 11
-2017.000269606303
 21
2837.178021924296
 31
0.0
  0
LINE
  5
26E
330
1F
100
AcDbEntity
  8
0-C_ハッチ
  6
JWW_DASHED1
 62
   120
370
     5
100
AcDbLine
 10
-2510.251736195505
 20
2301.500148463892
 30
0.0
 11
-2017.000269606303
 21
2794.751615053096
 31
0.0
  0
LINE
  5
26F
330
1F
100
AcDbEntity
  8
0-C_ハッチ
  6
JWW_DASHED1
 62
   120
370
     5
100
AcDbLine
 10
-2128.41407435476
 20
2301.500148463892
 30
0.0
 11
-2017.000269606303
 21
2412.91395321235
 31
0.0
  0
LINE
  5
270
330
1F
100
AcDbEntity
  8
0-C_ハッチ
  6
JWW_DASHED1
 62
   120
370
     5
100
AcDbLine
 10
-2170.84048122596
 20
2301.500148463892
 30
0.0
 11
-2017.000269606303
 21
2455.340360083551
 31
0.0
  0
LINE
  5
271
330
1F
100
AcDbEntity
  8
0-C_ハッチ
  6
JWW_DASHED1
 62
   120
370
     5
100
AcDbLine
 10
-2213.26688809716
 20
2301.500148463892
 30
0.0
 11
-2017.000269606303
 21
2497.76676695475
 31
0.0
  0
LINE
  5
272
330
1F
100
AcDbEntity
  8
0-C_ハッチ
  6
JWW_DASHED1
 62
   120
370
     5
100
AcDbLine
 10
-2255.69329496836
 20
2301.500148463892
 30
0.0
 11
-2017.000269606303
 21
2540.193173825951
 31
0.0
  0
LINE
  5
273
330
1F
100
AcDbEntity
  8
0-C_ハッチ
  6
JWW_DASHED1
 62
   120
370
     5
100
AcDbLine
 10
-2298.11970183956
 20
2301.500148463892
 30
0.0
 11
-2017.000269606303
 21
2582.619580697151
 31
0.0
  0
LINE
  5
274
330
1F
100
AcDbEntity
  8
0-C_ハッチ
  6
JWW_DASHED1
 62
   120
370
     5
100
AcDbLine
 10
-2340.546108710705
 20
2301.500148463892
 30
0.0
 11
-2017.000269606303
 21
2625.045987568296
 31
0.0
  0
LINE
  5
275
330
1F
100
AcDbEntity
  8
0-C_ハッチ
  6
JWW_DASHED1
 62
   120
370
     5
100
AcDbLine
 10
-2382.972515581905
 20
2301.500148463892
 30
0.0
 11
-2017.000269606303
 21
2667.472394439496
 31
0.0
  0
LINE
  5
276
330
1F
100
AcDbEntity
  8
0-C_ハッチ
  6
JWW_DASHED1
 62
   120
370
     5
100
AcDbLine
 10
-2425.398922453105
 20
2301.500148463892
 30
0.0
 11
-2017.000269606303
 21
2709.898801310696
 31
0.0
  0
LINE
  5
277
330
1F
100
AcDbEntity
  8
0-C_ハッチ
  6
JWW_DASHED1
 62
   120
370
     5
100
AcDbLine
 10
-2467.825329324305
 20
2301.500148463892
 30
0.0
 11
-2017.000269606303
 21
2752.325208181896
 31
0.0
  0
MTEXT
  5
278
330
1F
100
AcDbEntity
  8
0-A_文字
  6
Continuous
 62
     7
370
     9
100
AcDbMText
 10
-5370.000018557987
 20
541.5751831054683
 30
0.0
 40
57.15000000000008
 41
675.0000000000009
 46
0.0
 71
     7
 72
     1
  1
{\fＭＳ ゴシック|b0|i0|c128|p49;ミスト熱処理ガラス}
 73
     1
 44
1.0
  0
LINE
  5
279
330
1F
100
AcDbEntity
  8
0-C_ハッチ
  6
JWW_DASHED1
 62
   120
370
     5
100
AcDbLine
 10
2216.999228297055
 20
3236.559065880469
 30
0.0
 11
2251.940310880487
 21
3271.500148463902
 31
0.0
  0
LINE
  5
27A
330
1F
100
AcDbEntity
  8
0-C_ハッチ
  6
JWW_DASHED1
 62
   120
370
     5
100
AcDbLine
 10
2216.999228297055
 20
2727.442183426122
 30
0.0
 11
2761.057193334835
 21
3271.500148463903
 31
0.0
  0
LINE
  5
27B
330
1F
100
AcDbEntity
  8
0-C_ハッチ
  6
JWW_DASHED1
 62
   120
370
     5
100
AcDbLine
 10
2216.999228297055
 20
2769.868590297323
 30
0.0
 11
2718.630786463638
 21
3271.500148463906
 31
0.0
  0
LINE
  5
27C
330
1F
100
AcDbEntity
  8
0-C_ハッチ
  6
JWW_DASHED1
 62
   120
370
     5
100
AcDbLine
 10
2216.999228297055
 20
2812.294997168523
 30
0.0
 11
2676.204379592441
 21
3271.50014846391
 31
0.0
  0
LINE
  5
27D
330
1F
100
AcDbEntity
  8
0-C_ハッチ
  6
JWW_DASHED1
 62
   120
370
     5
100
AcDbLine
 10
2216.999228297055
 20
2854.721404039723
 30
0.0
 11
2633.77797272123
 21
3271.500148463898
 31
0.0
  0
LINE
  5
27E
330
1F
100
AcDbEntity
  8
0-C_ハッチ
  6
JWW_DASHED1
 62
   120
370
     5
100
AcDbLine
 10
2216.999228297055
 20
2897.147810910923
 30
0.0
 11
2591.351565850023
 21
3271.500148463891
 31
0.0
  0
LINE
  5
27F
330
1F
100
AcDbEntity
  8
0-C_ハッチ
  6
JWW_DASHED1
 62
   120
370
     5
100
AcDbLine
 10
2216.999228297055
 20
2939.574217782123
 30
0.0
 11
2548.925158978819
 21
3271.500148463889
 31
0.0
  0
LINE
  5
280
330
1F
100
AcDbEntity
  8
0-C_ハッチ
  6
JWW_DASHED1
 62
   120
370
     5
100
AcDbLine
 10
2216.999228297055
 20
2982.000624653323
 30
0.0
 11
2506.498752107623
 21
3271.500148463893
 31
0.0
  0
LINE
  5
281
330
1F
100
AcDbEntity
  8
0-C_ハッチ
  6
JWW_DASHED1
 62
   120
370
     5
100
AcDbLine
 10
2216.999228297055
 20
3024.427031524468
 30
0.0
 11
2464.072345236487
 21
3271.500148463901
 31
0.0
  0
LINE
  5
282
330
1F
100
AcDbEntity
  8
0-C_ハッチ
  6
JWW_DASHED1
 62
   120
370
     5
100
AcDbLine
 10
2216.999228297055
 20
3066.853438395668
 30
0.0
 11
2421.645938365291
 21
3271.500148463904
 31
0.0
  0
LINE
  5
283
330
1F
100
AcDbEntity
  8
0-C_ハッチ
  6
JWW_DASHED1
 62
   120
370
     5
100
AcDbLine
 10
2216.999228297055
 20
3109.279845266869
 30
0.0
 11
2379.219531494095
 21
3271.500148463908
 31
0.0
  0
LINE
  5
284
330
1F
100
AcDbEntity
  8
0-C_ハッチ
  6
JWW_DASHED1
 62
   120
370
     5
100
AcDbLine
 10
2216.999228297055
 20
3151.706252138069
 30
0.0
 11
2336.793124622881
 21
3271.500148463896
 31
0.0
  0
LINE
  5
285
330
1F
100
AcDbEntity
  8
0-C_ハッチ
  6
JWW_DASHED1
 62
   120
370
     5
100
AcDbLine
 10
2216.999228297055
 20
3194.132659009269
 30
0.0
 11
2294.366717751684
 21
3271.500148463899
 31
0.0
  0
LINE
  5
286
330
1F
100
AcDbEntity
  8
0-C_ハッチ
  6
JWW_DASHED1
 62
   120
370
     5
100
AcDbLine
 10
2216.999228297055
 20
2685.015776554977
 30
0.0
 11
2762.999228297053
 21
3231.015776554977
 31
0.0
  0
LINE
  5
287
330
1F
100
AcDbEntity
  8
0-C_ハッチ
  6
JWW_DASHED1
 62
   120
370
     5
100
AcDbLine
 10
2728.260654440156
 20
1626.500148463897
 30
0.0
 11
2762.999228297053
 21
1661.238722320795
 31
0.0
  0
LINE
  5
288
330
1F
100
AcDbEntity
  8
0-C_ハッチ
  6
JWW_DASHED1
 62
   120
370
     5
100
AcDbLine
 10
2685.834247568944
 20
1626.500148463885
 30
0.0
 11
2762.999228297053
 21
1703.665129191995
 31
0.0
  0
LINE
  5
289
330
1F
100
AcDbEntity
  8
0-C_ハッチ
  6
JWW_DASHED1
 62
   120
370
     5
100
AcDbLine
 10
2643.407840697748
 20
1626.500148463888
 30
0.0
 11
2762.999228297053
 21
1746.091536063195
 31
0.0
  0
LINE
  5
28A
330
1F
100
AcDbEntity
  8
0-C_ハッチ
  6
JWW_DASHED1
 62
   120
370
     5
100
AcDbLine
 10
2600.981433826551
 20
1626.500148463892
 30
0.0
 11
2762.999228297053
 21
1788.517942934394
 31
0.0
  0
LINE
  5
28B
330
1F
100
AcDbEntity
  8
0-C_ハッチ
  6
JWW_DASHED1
 62
   120
370
     5
100
AcDbLine
 10
2558.555026955346
 20
1626.500148463886
 30
0.0
 11
2762.999228297053
 21
1830.944349805594
 31
0.0
  0
LINE
  5
28C
330
1F
100
AcDbEntity
  8
0-C_ハッチ
  6
JWW_DASHED1
 62
   120
370
     5
100
AcDbLine
 10
2516.128620084142
 20
1626.500148463883
 30
0.0
 11
2762.999228297053
 21
1873.370756676795
 31
0.0
  0
LINE
  5
28D
330
1F
100
AcDbEntity
  8
0-C_ハッチ
  6
JWW_DASHED1
 62
   120
370
     5
100
AcDbLine
 10
2473.702213212946
 20
1626.500148463886
 30
0.0
 11
2762.999228297053
 21
1915.797163547995
 31
0.0
  0
LINE
  5
28E
330
1F
100
AcDbEntity
  8
0-C_ハッチ
  6
JWW_DASHED1
 62
   120
370
     5
100
AcDbLine
 10
2431.275806341807
 20
1626.500148463894
 30
0.0
 11
2762.999228297053
 21
1958.22357041914
 31
0.0
  0
LINE
  5
28F
330
1F
100
AcDbEntity
  8
0-C_ハッチ
  6
JWW_DASHED1
 62
   120
370
     5
100
AcDbLine
 10
2388.84939947061
 20
1626.500148463898
 30
0.0
 11
2762.999228297053
 21
2000.64997729034
 31
0.0
  0
LINE
  5
290
330
1F
100
AcDbEntity
  8
0-C_ハッチ
  6
JWW_DASHED1
 62
   120
370
     5
100
AcDbLine
 10
2346.422992599414
 20
1626.500148463901
 30
0.0
 11
2762.999228297053
 21
2043.07638416154
 31
0.0
  0
LINE
  5
291
330
1F
100
AcDbEntity
  8
0-C_ハッチ
  6
JWW_DASHED1
 62
   120
370
     5
100
AcDbLine
 10
2303.996585728218
 20
1626.500148463905
 30
0.0
 11
2762.999228297053
 21
2085.502791032741
 31
0.0
  0
LINE
  5
292
330
1F
100
AcDbEntity
  8
0-C_ハッチ
  6
JWW_DASHED1
 62
   120
370
     5
100
AcDbLine
 10
2261.570178857021
 20
1626.500148463909
 30
0.0
 11
2762.999228297053
 21
2127.92919790394
 31
0.0
  0
LINE
  5
293
330
1F
100
AcDbEntity
  8
0-C_ハッチ
  6
JWW_DASHED1
 62
   120
370
     5
100
AcDbLine
 10
2216.999228297055
 20
1666.782011646341
 30
0.0
 11
2762.999228297053
 21
2212.78201164634
 31
0.0
  0
LINE
  5
294
330
1F
100
AcDbEntity
  8
0-C_ハッチ
  6
JWW_DASHED1
 62
   120
370
     5
100
AcDbLine
 10
2216.999228297055
 20
1709.208418517541
 30
0.0
 11
2762.999228297053
 21
2255.208418517541
 31
0.0
  0
LINE
  5
295
330
1F
100
AcDbEntity
  8
0-C_ハッチ
  6
JWW_DASHED1
 62
   120
370
     5
100
AcDbLine
 10
2216.999228297055
 20
1751.634825388687
 30
0.0
 11
2762.999228297053
 21
2297.634825388686
 31
0.0
  0
LINE
  5
296
330
1F
100
AcDbEntity
  8
0-C_ハッチ
  6
JWW_DASHED1
 62
   120
370
     5
100
AcDbLine
 10
2216.999228297055
 20
1794.061232259887
 30
0.0
 11
2762.999228297053
 21
2340.061232259886
 31
0.0
  0
LINE
  5
297
330
1F
100
AcDbEntity
  8
0-C_ハッチ
  6
JWW_DASHED1
 62
   120
370
     5
100
AcDbLine
 10
2216.999228297055
 20
1836.487639131086
 30
0.0
 11
2762.999228297053
 21
2382.487639131085
 31
0.0
  0
LINE
  5
298
330
1F
100
AcDbEntity
  8
0-C_ハッチ
  6
JWW_DASHED1
 62
   120
370
     5
100
AcDbLine
 10
2216.999228297055
 20
1878.914046002287
 30
0.0
 11
2762.999228297053
 21
2424.914046002285
 31
0.0
  0
LINE
  5
299
330
1F
100
AcDbEntity
  8
0-C_ハッチ
  6
JWW_DASHED1
 62
   120
370
     5
100
AcDbLine
 10
2216.999228297055
 20
1921.340452873486
 30
0.0
 11
2762.999228297053
 21
2467.340452873486
 31
0.0
  0
LINE
  5
29A
330
1F
100
AcDbEntity
  8
0-C_ハッチ
  6
JWW_DASHED1
 62
   120
370
     5
100
AcDbLine
 10
2216.999228297055
 20
1963.766859744686
 30
0.0
 11
2762.999228297053
 21
2509.766859744686
 31
0.0
  0
LINE
  5
29B
330
1F
100
AcDbEntity
  8
0-C_ハッチ
  6
JWW_DASHED1
 62
   120
370
     5
100
AcDbLine
 10
2216.999228297055
 20
2006.193266615886
 30
0.0
 11
2762.999228297053
 21
2552.193266615886
 31
0.0
  0
LINE
  5
29C
330
1F
100
AcDbEntity
  8
0-C_ハッチ
  6
JWW_DASHED1
 62
   120
370
     5
100
AcDbLine
 10
2216.999228297055
 20
2048.619673487086
 30
0.0
 11
2762.999228297053
 21
2594.619673487085
 31
0.0
  0
LINE
  5
29D
330
1F
100
AcDbEntity
  8
0-C_ハッチ
  6
JWW_DASHED1
 62
   120
370
     5
100
AcDbLine
 10
2216.999228297055
 20
2091.046080358232
 30
0.0
 11
2762.999228297053
 21
2637.046080358231
 31
0.0
  0
LINE
  5
29E
330
1F
100
AcDbEntity
  8
0-C_ハッチ
  6
JWW_DASHED1
 62
   120
370
     5
100
AcDbLine
 10
2216.999228297055
 20
2133.472487229432
 30
0.0
 11
2762.999228297053
 21
2679.472487229431
 31
0.0
  0
LINE
  5
29F
330
1F
100
AcDbEntity
  8
0-C_ハッチ
  6
JWW_DASHED1
 62
   120
370
     5
100
AcDbLine
 10
2216.999228297055
 20
2175.898894100632
 30
0.0
 11
2762.999228297053
 21
2721.898894100631
 31
0.0
  0
LINE
  5
2A0
330
1F
100
AcDbEntity
  8
0-C_ハッチ
  6
JWW_DASHED1
 62
   120
370
     5
100
AcDbLine
 10
2216.999228297055
 20
2218.325300971832
 30
0.0
 11
2762.999228297053
 21
2764.325300971831
 31
0.0
  0
LINE
  5
2A1
330
1F
100
AcDbEntity
  8
0-C_ハッチ
  6
JWW_DASHED1
 62
   120
370
     5
100
AcDbLine
 10
2216.999228297055
 20
2260.751707843032
 30
0.0
 11
2762.999228297053
 21
2806.751707843031
 31
0.0
  0
LINE
  5
2A2
330
1F
100
AcDbEntity
  8
0-C_ハッチ
  6
JWW_DASHED1
 62
   120
370
     5
100
AcDbLine
 10
2216.999228297055
 20
2303.178114714232
 30
0.0
 11
2762.999228297053
 21
2849.178114714231
 31
0.0
  0
LINE
  5
2A3
330
1F
100
AcDbEntity
  8
0-C_ハッチ
  6
JWW_DASHED1
 62
   120
370
     5
100
AcDbLine
 10
2216.999228297055
 20
2388.030928456577
 30
0.0
 11
2762.999228297053
 21
2934.030928456576
 31
0.0
  0
LINE
  5
2A4
330
1F
100
AcDbEntity
  8
0-C_ハッチ
  6
JWW_DASHED1
 62
   120
370
     5
100
AcDbLine
 10
2216.999228297055
 20
2430.457335327777
 30
0.0
 11
2762.999228297053
 21
2976.457335327777
 31
0.0
  0
LINE
  5
2A5
330
1F
100
AcDbEntity
  8
0-C_ハッチ
  6
JWW_DASHED1
 62
   120
370
     5
100
AcDbLine
 10
2216.999228297055
 20
2472.883742198977
 30
0.0
 11
2762.999228297053
 21
3018.883742198977
 31
0.0
  0
LINE
  5
2A6
330
1F
100
AcDbEntity
  8
0-C_ハッチ
  6
JWW_DASHED1
 62
   120
370
     5
100
AcDbLine
 10
2216.999228297055
 20
2515.310149070177
 30
0.0
 11
2762.999228297053
 21
3061.310149070177
 31
0.0
  0
LINE
  5
2A7
330
1F
100
AcDbEntity
  8
0-C_ハッチ
  6
JWW_DASHED1
 62
   120
370
     5
100
AcDbLine
 10
2216.999228297055
 20
2557.736555941377
 30
0.0
 11
2762.999228297053
 21
3103.736555941377
 31
0.0
  0
LINE
  5
2A8
330
1F
100
AcDbEntity
  8
0-C_ハッチ
  6
JWW_DASHED1
 62
   120
370
     5
100
AcDbLine
 10
2216.999228297055
 20
2600.162962812577
 30
0.0
 11
2762.999228297053
 21
3146.162962812577
 31
0.0
  0
LINE
  5
2A9
330
1F
100
AcDbEntity
  8
0-C_ハッチ
  6
JWW_DASHED1
 62
   120
370
     5
100
AcDbLine
 10
2216.999228297055
 20
2642.589369683777
 30
0.0
 11
2762.999228297053
 21
3188.589369683777
 31
0.0
  0
LINE
  5
2AA
330
1F
100
AcDbEntity
  8
0-C_ハッチ
  6
JWW_DASHED1
 62
   120
370
     5
100
AcDbLine
 10
2216.999228297055
 20
2345.604521585431
 30
0.0
 11
2762.999228297053
 21
2891.604521585431
 31
0.0
  0
LINE
  5
2AB
330
1F
100
AcDbEntity
  8
0-C_ハッチ
  6
JWW_DASHED1
 62
   120
370
     5
100
AcDbLine
 10
2219.143771985804
 20
1626.500148463892
 30
0.0
 11
2762.999228297053
 21
2170.35560477514
 31
0.0
  0
LINE
  5
2AC
330
1F
100
AcDbEntity
  8
0-C_ハッチ
  6
JWW_DASHED1
 62
   120
370
     5
100
AcDbLine
 10
3026.999228297055
 20
3236.559065880469
 30
0.0
 11
3061.940310880489
 21
3271.500148463902
 31
0.0
  0
LINE
  5
2AD
330
1F
100
AcDbEntity
  8
0-C_ハッチ
  6
JWW_DASHED1
 62
   120
370
     5
100
AcDbLine
 10
3026.999228297055
 20
2727.442183426122
 30
0.0
 11
3571.057193334836
 21
3271.500148463903
 31
0.0
  0
LINE
  5
2AE
330
1F
100
AcDbEntity
  8
0-C_ハッチ
  6
JWW_DASHED1
 62
   120
370
     5
100
AcDbLine
 10
3026.999228297055
 20
2769.868590297323
 30
0.0
 11
3528.63078646364
 21
3271.500148463906
 31
0.0
  0
LINE
  5
2AF
330
1F
100
AcDbEntity
  8
0-C_ハッチ
  6
JWW_DASHED1
 62
   120
370
     5
100
AcDbLine
 10
3026.999228297055
 20
2812.294997168523
 30
0.0
 11
3486.204379592443
 21
3271.50014846391
 31
0.0
  0
LINE
  5
2B0
330
1F
100
AcDbEntity
  8
0-C_ハッチ
  6
JWW_DASHED1
 62
   120
370
     5
100
AcDbLine
 10
3026.999228297055
 20
2854.721404039723
 30
0.0
 11
3443.777972721231
 21
3271.500148463898
 31
0.0
  0
LINE
  5
2B1
330
1F
100
AcDbEntity
  8
0-C_ハッチ
  6
JWW_DASHED1
 62
   120
370
     5
100
AcDbLine
 10
3026.999228297055
 20
2897.147810910923
 30
0.0
 11
3401.351565850025
 21
3271.500148463891
 31
0.0
  0
LINE
  5
2B2
330
1F
100
AcDbEntity
  8
0-C_ハッチ
  6
JWW_DASHED1
 62
   120
370
     5
100
AcDbLine
 10
3026.999228297055
 20
2939.574217782123
 30
0.0
 11
3358.925158978823
 21
3271.500148463889
 31
0.0
  0
LINE
  5
2B3
330
1F
100
AcDbEntity
  8
0-C_ハッチ
  6
JWW_DASHED1
 62
   120
370
     5
100
AcDbLine
 10
3026.999228297055
 20
2982.000624653323
 30
0.0
 11
3316.498752107626
 21
3271.500148463893
 31
0.0
  0
LINE
  5
2B4
330
1F
100
AcDbEntity
  8
0-C_ハッチ
  6
JWW_DASHED1
 62
   120
370
     5
100
AcDbLine
 10
3026.999228297055
 20
3024.427031524468
 30
0.0
 11
3274.072345236487
 21
3271.500148463901
 31
0.0
  0
LINE
  5
2B5
330
1F
100
AcDbEntity
  8
0-C_ハッチ
  6
JWW_DASHED1
 62
   120
370
     5
100
AcDbLine
 10
3026.999228297055
 20
3066.853438395668
 30
0.0
 11
3231.645938365291
 21
3271.500148463904
 31
0.0
  0
LINE
  5
2B6
330
1F
100
AcDbEntity
  8
0-C_ハッチ
  6
JWW_DASHED1
 62
   120
370
     5
100
AcDbLine
 10
3026.999228297055
 20
3109.279845266869
 30
0.0
 11
3189.219531494095
 21
3271.500148463908
 31
0.0
  0
LINE
  5
2B7
330
1F
100
AcDbEntity
  8
0-C_ハッチ
  6
JWW_DASHED1
 62
   120
370
     5
100
AcDbLine
 10
3026.999228297055
 20
3151.706252138069
 30
0.0
 11
3146.793124622882
 21
3271.500148463896
 31
0.0
  0
LINE
  5
2B8
330
1F
100
AcDbEntity
  8
0-C_ハッチ
  6
JWW_DASHED1
 62
   120
370
     5
100
AcDbLine
 10
3026.999228297055
 20
3194.132659009269
 30
0.0
 11
3104.366717751686
 21
3271.500148463899
 31
0.0
  0
LINE
  5
2B9
330
1F
100
AcDbEntity
  8
0-C_ハッチ
  6
JWW_DASHED1
 62
   120
370
     5
100
AcDbLine
 10
3026.999228297055
 20
2685.015776554977
 30
0.0
 11
3572.999228297055
 21
3231.015776554977
 31
0.0
  0
LINE
  5
2BA
330
1F
100
AcDbEntity
  8
0-C_ハッチ
  6
JWW_DASHED1
 62
   120
370
     5
100
AcDbLine
 10
3538.260654440158
 20
1626.500148463897
 30
0.0
 11
3572.999228297055
 21
1661.238722320795
 31
0.0
  0
LINE
  5
2BB
330
1F
100
AcDbEntity
  8
0-C_ハッチ
  6
JWW_DASHED1
 62
   120
370
     5
100
AcDbLine
 10
3495.834247568946
 20
1626.500148463885
 30
0.0
 11
3572.999228297055
 21
1703.665129191995
 31
0.0
  0
LINE
  5
2BC
330
1F
100
AcDbEntity
  8
0-C_ハッチ
  6
JWW_DASHED1
 62
   120
370
     5
100
AcDbLine
 10
3453.40784069775
 20
1626.500148463888
 30
0.0
 11
3572.999228297055
 21
1746.091536063195
 31
0.0
  0
LINE
  5
2BD
330
1F
100
AcDbEntity
  8
0-C_ハッチ
  6
JWW_DASHED1
 62
   120
370
     5
100
AcDbLine
 10
3410.981433826553
 20
1626.500148463892
 30
0.0
 11
3572.999228297055
 21
1788.517942934394
 31
0.0
  0
LINE
  5
2BE
330
1F
100
AcDbEntity
  8
0-C_ハッチ
  6
JWW_DASHED1
 62
   120
370
     5
100
AcDbLine
 10
3368.555026955346
 20
1626.500148463886
 30
0.0
 11
3572.999228297055
 21
1830.944349805594
 31
0.0
  0
LINE
  5
2BF
330
1F
100
AcDbEntity
  8
0-C_ハッチ
  6
JWW_DASHED1
 62
   120
370
     5
100
AcDbLine
 10
3326.128620084144
 20
1626.500148463883
 30
0.0
 11
3572.999228297055
 21
1873.370756676795
 31
0.0
  0
LINE
  5
2C0
330
1F
100
AcDbEntity
  8
0-C_ハッチ
  6
JWW_DASHED1
 62
   120
370
     5
100
AcDbLine
 10
3283.702213212948
 20
1626.500148463886
 30
0.0
 11
3572.999228297055
 21
1915.797163547995
 31
0.0
  0
LINE
  5
2C1
330
1F
100
AcDbEntity
  8
0-C_ハッチ
  6
JWW_DASHED1
 62
   120
370
     5
100
AcDbLine
 10
3241.275806341809
 20
1626.500148463894
 30
0.0
 11
3572.999228297055
 21
1958.22357041914
 31
0.0
  0
LINE
  5
2C2
330
1F
100
AcDbEntity
  8
0-C_ハッチ
  6
JWW_DASHED1
 62
   120
370
     5
100
AcDbLine
 10
3198.849399470612
 20
1626.500148463898
 30
0.0
 11
3572.999228297055
 21
2000.64997729034
 31
0.0
  0
LINE
  5
2C3
330
1F
100
AcDbEntity
  8
0-C_ハッチ
  6
JWW_DASHED1
 62
   120
370
     5
100
AcDbLine
 10
3156.422992599418
 20
1626.500148463901
 30
0.0
 11
3572.999228297055
 21
2043.07638416154
 31
0.0
  0
LINE
  5
2C4
330
1F
100
AcDbEntity
  8
0-C_ハッチ
  6
JWW_DASHED1
 62
   120
370
     5
100
AcDbLine
 10
3113.996585728221
 20
1626.500148463905
 30
0.0
 11
3572.999228297055
 21
2085.502791032741
 31
0.0
  0
LINE
  5
2C5
330
1F
100
AcDbEntity
  8
0-C_ハッチ
  6
JWW_DASHED1
 62
   120
370
     5
100
AcDbLine
 10
3071.570178857024
 20
1626.500148463909
 30
0.0
 11
3572.999228297055
 21
2127.92919790394
 31
0.0
  0
LINE
  5
2C6
330
1F
100
AcDbEntity
  8
0-C_ハッチ
  6
JWW_DASHED1
 62
   120
370
     5
100
AcDbLine
 10
3026.999228297055
 20
1666.782011646341
 30
0.0
 11
3572.999228297055
 21
2212.78201164634
 31
0.0
  0
LINE
  5
2C7
330
1F
100
AcDbEntity
  8
0-C_ハッチ
  6
JWW_DASHED1
 62
   120
370
     5
100
AcDbLine
 10
3026.999228297055
 20
1709.208418517541
 30
0.0
 11
3572.999228297055
 21
2255.208418517541
 31
0.0
  0
LINE
  5
2C8
330
1F
100
AcDbEntity
  8
0-C_ハッチ
  6
JWW_DASHED1
 62
   120
370
     5
100
AcDbLine
 10
3026.999228297055
 20
1751.634825388687
 30
0.0
 11
3572.999228297055
 21
2297.634825388686
 31
0.0
  0
LINE
  5
2C9
330
1F
100
AcDbEntity
  8
0-C_ハッチ
  6
JWW_DASHED1
 62
   120
370
     5
100
AcDbLine
 10
3026.999228297055
 20
1794.061232259887
 30
0.0
 11
3572.999228297055
 21
2340.061232259886
 31
0.0
  0
LINE
  5
2CA
330
1F
100
AcDbEntity
  8
0-C_ハッチ
  6
JWW_DASHED1
 62
   120
370
     5
100
AcDbLine
 10
3026.999228297055
 20
1836.487639131086
 30
0.0
 11
3572.999228297055
 21
2382.487639131085
 31
0.0
  0
LINE
  5
2CB
330
1F
100
AcDbEntity
  8
0-C_ハッチ
  6
JWW_DASHED1
 62
   120
370
     5
100
AcDbLine
 10
3026.999228297055
 20
1878.914046002287
 30
0.0
 11
3572.999228297055
 21
2424.914046002285
 31
0.0
  0
LINE
  5
2CC
330
1F
100
AcDbEntity
  8
0-C_ハッチ
  6
JWW_DASHED1
 62
   120
370
     5
100
AcDbLine
 10
3026.999228297055
 20
1921.340452873486
 30
0.0
 11
3572.999228297055
 21
2467.340452873486
 31
0.0
  0
LINE
  5
2CD
330
1F
100
AcDbEntity
  8
0-C_ハッチ
  6
JWW_DASHED1
 62
   120
370
     5
100
AcDbLine
 10
3026.999228297055
 20
1963.766859744686
 30
0.0
 11
3572.999228297055
 21
2509.766859744686
 31
0.0
  0
LINE
  5
2CE
330
1F
100
AcDbEntity
  8
0-C_ハッチ
  6
JWW_DASHED1
 62
   120
370
     5
100
AcDbLine
 10
3026.999228297055
 20
2006.193266615886
 30
0.0
 11
3572.999228297055
 21
2552.193266615886
 31
0.0
  0
LINE
  5
2CF
330
1F
100
AcDbEntity
  8
0-C_ハッチ
  6
JWW_DASHED1
 62
   120
370
     5
100
AcDbLine
 10
3026.999228297055
 20
2048.619673487086
 30
0.0
 11
3572.999228297055
 21
2594.619673487085
 31
0.0
  0
LINE
  5
2D0
330
1F
100
AcDbEntity
  8
0-C_ハッチ
  6
JWW_DASHED1
 62
   120
370
     5
100
AcDbLine
 10
3026.999228297055
 20
2091.046080358232
 30
0.0
 11
3572.999228297055
 21
2637.046080358231
 31
0.0
  0
LINE
  5
2D1
330
1F
100
AcDbEntity
  8
0-C_ハッチ
  6
JWW_DASHED1
 62
   120
370
     5
100
AcDbLine
 10
3026.999228297055
 20
2133.472487229432
 30
0.0
 11
3572.999228297055
 21
2679.472487229431
 31
0.0
  0
LINE
  5
2D2
330
1F
100
AcDbEntity
  8
0-C_ハッチ
  6
JWW_DASHED1
 62
   120
370
     5
100
AcDbLine
 10
3026.999228297055
 20
2175.898894100632
 30
0.0
 11
3572.999228297055
 21
2721.898894100631
 31
0.0
  0
LINE
  5
2D3
330
1F
100
AcDbEntity
  8
0-C_ハッチ
  6
JWW_DASHED1
 62
   120
370
     5
100
AcDbLine
 10
3026.999228297055
 20
2218.325300971832
 30
0.0
 11
3572.999228297055
 21
2764.325300971831
 31
0.0
  0
LINE
  5
2D4
330
1F
100
AcDbEntity
  8
0-C_ハッチ
  6
JWW_DASHED1
 62
   120
370
     5
100
AcDbLine
 10
3026.999228297055
 20
2260.751707843032
 30
0.0
 11
3572.999228297055
 21
2806.751707843031
 31
0.0
  0
LINE
  5
2D5
330
1F
100
AcDbEntity
  8
0-C_ハッチ
  6
JWW_DASHED1
 62
   120
370
     5
100
AcDbLine
 10
3026.999228297055
 20
2303.178114714232
 30
0.0
 11
3572.999228297055
 21
2849.178114714231
 31
0.0
  0
LINE
  5
2D6
330
1F
100
AcDbEntity
  8
0-C_ハッチ
  6
JWW_DASHED1
 62
   120
370
     5
100
AcDbLine
 10
3026.999228297055
 20
2388.030928456577
 30
0.0
 11
3572.999228297055
 21
2934.030928456576
 31
0.0
  0
LINE
  5
2D7
330
1F
100
AcDbEntity
  8
0-C_ハッチ
  6
JWW_DASHED1
 62
   120
370
     5
100
AcDbLine
 10
3026.999228297055
 20
2430.457335327777
 30
0.0
 11
3572.999228297055
 21
2976.457335327777
 31
0.0
  0
LINE
  5
2D8
330
1F
100
AcDbEntity
  8
0-C_ハッチ
  6
JWW_DASHED1
 62
   120
370
     5
100
AcDbLine
 10
3026.999228297055
 20
2472.883742198977
 30
0.0
 11
3572.999228297055
 21
3018.883742198977
 31
0.0
  0
LINE
  5
2D9
330
1F
100
AcDbEntity
  8
0-C_ハッチ
  6
JWW_DASHED1
 62
   120
370
     5
100
AcDbLine
 10
3026.999228297055
 20
2515.310149070177
 30
0.0
 11
3572.999228297055
 21
3061.310149070177
 31
0.0
  0
LINE
  5
2DA
330
1F
100
AcDbEntity
  8
0-C_ハッチ
  6
JWW_DASHED1
 62
   120
370
     5
100
AcDbLine
 10
3026.999228297055
 20
2557.736555941377
 30
0.0
 11
3572.999228297055
 21
3103.736555941377
 31
0.0
  0
LINE
  5
2DB
330
1F
100
AcDbEntity
  8
0-C_ハッチ
  6
JWW_DASHED1
 62
   120
370
     5
100
AcDbLine
 10
3026.999228297055
 20
2600.162962812577
 30
0.0
 11
3572.999228297055
 21
3146.162962812577
 31
0.0
  0
LINE
  5
2DC
330
1F
100
AcDbEntity
  8
0-C_ハッチ
  6
JWW_DASHED1
 62
   120
370
     5
100
AcDbLine
 10
3026.999228297055
 20
2642.589369683777
 30
0.0
 11
3572.999228297055
 21
3188.589369683777
 31
0.0
  0
LINE
  5
2DD
330
1F
100
AcDbEntity
  8
0-C_ハッチ
  6
JWW_DASHED1
 62
   120
370
     5
100
AcDbLine
 10
3026.999228297055
 20
2345.604521585431
 30
0.0
 11
3572.999228297055
 21
2891.604521585431
 31
0.0
  0
LINE
  5
2DE
330
1F
100
AcDbEntity
  8
0-C_ハッチ
  6
JWW_DASHED1
 62
   120
370
     5
100
AcDbLine
 10
3029.143771985807
 20
1626.500148463892
 30
0.0
 11
3572.999228297055
 21
2170.35560477514
 31
0.0
  0
LINE
  5
2DF
330
1F
100
AcDbEntity
  8
0-3_仕上げ
  6
Continuous
 62
     7
370
     9
100
AcDbLine
 10
2215.999228297053
 20
1426.500148463892
 30
0.0
 11
2215.999228297053
 21
1622.500148463892
 31
0.0
  0
LINE
  5
2E0
330
1F
100
AcDbEntity
  8
0-3_仕上げ
  6
Continuous
 62
    92
370
    13
100
AcDbLine
 10
2216.999228297055
 20
1626.500148463892
 30
0.0
 11
2216.999228297055
 21
3271.500148463892
 31
0.0
  0
LINE
  5
2E1
330
1F
100
AcDbEntity
  8
0-3_仕上げ
  6
Continuous
 62
    92
370
    13
100
AcDbLine
 10
2762.999228297053
 20
3271.500148463892
 30
0.0
 11
2216.999228297055
 21
3271.500148463892
 31
0.0
  0
LINE
  5
2E2
330
1F
100
AcDbEntity
  8
0-3_仕上げ
  6
Continuous
 62
    92
370
    13
100
AcDbLine
 10
2762.999228297053
 20
1626.500148463892
 30
0.0
 11
2216.999228297055
 21
1626.500148463892
 31
0.0
  0
LINE
  5
2E3
330
1F
100
AcDbEntity
  8
0-3_仕上げ
  6
Continuous
 62
    92
370
    13
100
AcDbLine
 10
2762.999228297053
 20
1626.500148463892
 30
0.0
 11
2762.999228297053
 21
3271.500148463892
 31
0.0
  0
LINE
  5
2E4
330
1F
100
AcDbEntity
  8
0-3_仕上げ
  6
Continuous
 62
     7
370
     9
100
AcDbLine
 10
2763.999228297054
 20
1622.500148463892
 30
0.0
 11
2765.499228297054
 21
1624.000148463892
 31
0.0
  0
LINE
  5
2E5
330
1F
100
AcDbEntity
  8
0-3_仕上げ
  6
Continuous
 62
     7
370
     9
100
AcDbLine
 10
2215.999228297053
 20
3275.500148463892
 30
0.0
 11
2214.499228297054
 21
3274.000148463892
 31
0.0
  0
LINE
  5
2E6
330
1F
100
AcDbEntity
  8
0-3_仕上げ
  6
Continuous
 62
     7
370
     9
100
AcDbLine
 10
2765.499228297054
 20
3274.000148463892
 30
0.0
 11
2762.999228297053
 21
3271.500148463892
 31
0.0
  0
LINE
  5
2E7
330
1F
100
AcDbEntity
  8
0-3_仕上げ
  6
Continuous
 62
     7
370
     9
100
AcDbLine
 10
2216.999228297055
 20
3271.500148463892
 30
0.0
 11
2214.499228297054
 21
3274.000148463893
 31
0.0
  0
LINE
  5
2E8
330
1F
100
AcDbEntity
  8
0-3_仕上げ
  6
Continuous
 62
     7
370
     9
100
AcDbLine
 10
2763.999228297054
 20
3275.500148463892
 30
0.0
 11
2765.499228297054
 21
3274.000148463892
 31
0.0
  0
LINE
  5
2E9
330
1F
100
AcDbEntity
  8
0-3_仕上げ
  6
Continuous
 62
     7
370
     9
100
AcDbLine
 10
2763.999228297054
 20
3275.500148463892
 30
0.0
 11
2215.999228297053
 21
3275.500148463892
 31
0.0
  0
LINE
  5
2EA
330
1F
100
AcDbEntity
  8
0-3_仕上げ
  6
Continuous
 62
     7
370
     9
100
AcDbLine
 10
2765.499228297054
 20
1426.500148463892
 30
0.0
 11
2765.499228297054
 21
1624.000148463892
 31
0.0
  0
LINE
  5
2EB
330
1F
100
AcDbEntity
  8
0-3_仕上げ
  6
Continuous
 62
     7
370
     9
100
AcDbLine
 10
2762.999228297053
 20
1626.500148463892
 30
0.0
 11
2765.499228297054
 21
1624.000148463892
 31
0.0
  0
LINE
  5
2EC
330
1F
100
AcDbEntity
  8
0-3_仕上げ
  6
Continuous
 62
     7
370
     9
100
AcDbLine
 10
2763.999228297054
 20
1426.500148463892
 30
0.0
 11
2763.999228297054
 21
1622.500148463892
 31
0.0
  0
LINE
  5
2ED
330
1F
100
AcDbEntity
  8
0-3_仕上げ
  6
Continuous
 62
     7
370
     9
100
AcDbLine
 10
2763.999228297054
 20
1622.500148463892
 30
0.0
 11
2215.999228297053
 21
1622.500148463892
 31
0.0
  0
LINE
  5
2EE
330
1F
100
AcDbEntity
  8
0-3_仕上げ
  6
Continuous
 62
     7
370
     9
100
AcDbLine
 10
2215.999228297053
 20
1622.500148463892
 30
0.0
 11
2214.499228297054
 21
1624.000148463892
 31
0.0
  0
LINE
  5
2EF
330
1F
100
AcDbEntity
  8
0-3_仕上げ
  6
Continuous
 62
     7
370
     9
100
AcDbLine
 10
2214.499228297054
 20
1624.000148463892
 30
0.0
 11
2216.999228297055
 21
1626.500148463892
 31
0.0
  0
LINE
  5
2F0
330
1F
100
AcDbEntity
  8
0-3_仕上げ
  6
Continuous
 62
     7
370
     9
100
AcDbLine
 10
2214.499228297054
 20
1426.500148463892
 30
0.0
 11
2214.499228297054
 21
1624.000148463892
 31
0.0
  0
LINE
  5
2F1
330
1F
100
AcDbEntity
  8
0-3_仕上げ
  6
Continuous
 62
     7
370
     9
100
AcDbLine
 10
2766.999228297055
 20
1426.500148463892
 30
0.0
 11
2766.999228297055
 21
3409.500148463892
 31
0.0
  0
LINE
  5
2F2
330
1F
100
AcDbEntity
  8
0-3_仕上げ
  6
Continuous
 62
     7
370
     9
100
AcDbLine
 10
2212.999228297052
 20
1426.500148463892
 30
0.0
 11
2212.999228297052
 21
3409.500148463892
 31
0.0
  0
LINE
  5
2F3
330
1F
100
AcDbEntity
  8
0-3_仕上げ
  6
Continuous
 62
     7
370
     9
100
AcDbLine
 10
2215.999228297053
 20
3275.500148463892
 30
0.0
 11
2215.999228297053
 21
3409.500148463892
 31
0.0
  0
LINE
  5
2F4
330
1F
100
AcDbEntity
  8
0-3_仕上げ
  6
Continuous
 62
     7
370
     9
100
AcDbLine
 10
2214.499228297054
 20
3274.000148463893
 30
0.0
 11
2214.499228297054
 21
3409.500148463892
 31
0.0
  0
LINE
  5
2F5
330
1F
100
AcDbEntity
  8
0-3_仕上げ
  6
Continuous
 62
     7
370
     9
100
AcDbLine
 10
2765.499228297054
 20
3274.000148463892
 30
0.0
 11
2765.499228297054
 21
3409.500148463892
 31
0.0
  0
LINE
  5
2F6
330
1F
100
AcDbEntity
  8
0-3_仕上げ
  6
Continuous
 62
     7
370
     9
100
AcDbLine
 10
2763.999228297054
 20
3275.500148463892
 30
0.0
 11
2763.999228297054
 21
3409.500148463892
 31
0.0
  0
LINE
  5
2F7
330
1F
100
AcDbEntity
  8
0-3_仕上げ
  6
Continuous
 62
     7
370
     9
100
AcDbLine
 10
3025.999228297056
 20
1426.500148463892
 30
0.0
 11
3025.999228297056
 21
1622.500148463892
 31
0.0
  0
LINE
  5
2F8
330
1F
100
AcDbEntity
  8
0-3_仕上げ
  6
Continuous
 62
    92
370
    13
100
AcDbLine
 10
3026.999228297055
 20
1626.500148463892
 30
0.0
 11
3026.999228297055
 21
3271.500148463892
 31
0.0
  0
LINE
  5
2F9
330
1F
100
AcDbEntity
  8
0-3_仕上げ
  6
Continuous
 62
    92
370
    13
100
AcDbLine
 10
3572.999228297055
 20
3271.500148463892
 30
0.0
 11
3026.999228297055
 21
3271.500148463892
 31
0.0
  0
LINE
  5
2FA
330
1F
100
AcDbEntity
  8
0-3_仕上げ
  6
Continuous
 62
    92
370
    13
100
AcDbLine
 10
3572.999228297055
 20
1626.500148463892
 30
0.0
 11
3026.999228297055
 21
1626.500148463892
 31
0.0
  0
LINE
  5
2FB
330
1F
100
AcDbEntity
  8
0-3_仕上げ
  6
Continuous
 62
    92
370
    13
100
AcDbLine
 10
3572.999228297055
 20
1626.500148463892
 30
0.0
 11
3572.999228297055
 21
3271.500148463892
 31
0.0
  0
LINE
  5
2FC
330
1F
100
AcDbEntity
  8
0-3_仕上げ
  6
Continuous
 62
     7
370
     9
100
AcDbLine
 10
3573.999228297056
 20
1622.500148463892
 30
0.0
 11
3575.499228297056
 21
1624.000148463892
 31
0.0
  0
LINE
  5
2FD
330
1F
100
AcDbEntity
  8
0-3_仕上げ
  6
Continuous
 62
     7
370
     9
100
AcDbLine
 10
3025.999228297056
 20
3275.500148463892
 30
0.0
 11
3024.499228297056
 21
3274.000148463892
 31
0.0
  0
LINE
  5
2FE
330
1F
100
AcDbEntity
  8
0-3_仕上げ
  6
Continuous
 62
     7
370
     9
100
AcDbLine
 10
3575.499228297056
 20
3274.000148463892
 30
0.0
 11
3572.999228297055
 21
3271.500148463892
 31
0.0
  0
LINE
  5
2FF
330
1F
100
AcDbEntity
  8
0-3_仕上げ
  6
Continuous
 62
     7
370
     9
100
AcDbLine
 10
3026.999228297057
 20
3271.500148463892
 30
0.0
 11
3024.499228297056
 21
3274.000148463893
 31
0.0
  0
LINE
  5
300
330
1F
100
AcDbEntity
  8
0-3_仕上げ
  6
Continuous
 62
     7
370
     9
100
AcDbLine
 10
3573.999228297056
 20
3275.500148463892
 30
0.0
 11
3575.499228297056
 21
3274.000148463892
 31
0.0
  0
LINE
  5
301
330
1F
100
AcDbEntity
  8
0-3_仕上げ
  6
Continuous
 62
     7
370
     9
100
AcDbLine
 10
3573.999228297056
 20
3275.500148463892
 30
0.0
 11
3025.999228297056
 21
3275.500148463892
 31
0.0
  0
LINE
  5
302
330
1F
100
AcDbEntity
  8
0-3_仕上げ
  6
Continuous
 62
     7
370
     9
100
AcDbLine
 10
3575.499228297056
 20
1426.500148463892
 30
0.0
 11
3575.499228297056
 21
1624.000148463892
 31
0.0
  0
LINE
  5
303
330
1F
100
AcDbEntity
  8
0-3_仕上げ
  6
Continuous
 62
     7
370
     9
100
AcDbLine
 10
3572.999228297055
 20
1626.500148463892
 30
0.0
 11
3575.499228297056
 21
1624.000148463892
 31
0.0
  0
LINE
  5
304
330
1F
100
AcDbEntity
  8
0-3_仕上げ
  6
Continuous
 62
     7
370
     9
100
AcDbLine
 10
3573.999228297056
 20
1426.500148463892
 30
0.0
 11
3573.999228297056
 21
1622.500148463892
 31
0.0
  0
LINE
  5
305
330
1F
100
AcDbEntity
  8
0-3_仕上げ
  6
Continuous
 62
     7
370
     9
100
AcDbLine
 10
3573.999228297056
 20
1622.500148463892
 30
0.0
 11
3025.999228297056
 21
1622.500148463892
 31
0.0
  0
LINE
  5
306
330
1F
100
AcDbEntity
  8
0-3_仕上げ
  6
Continuous
 62
     7
370
     9
100
AcDbLine
 10
3025.999228297056
 20
1622.500148463892
 30
0.0
 11
3024.499228297056
 21
1624.000148463892
 31
0.0
  0
LINE
  5
307
330
1F
100
AcDbEntity
  8
0-3_仕上げ
  6
Continuous
 62
     7
370
     9
100
AcDbLine
 10
3024.499228297056
 20
1624.000148463892
 30
0.0
 11
3026.999228297055
 21
1626.500148463892
 31
0.0
  0
LINE
  5
308
330
1F
100
AcDbEntity
  8
0-3_仕上げ
  6
Continuous
 62
     7
370
     9
100
AcDbLine
 10
3024.499228297056
 20
1426.500148463892
 30
0.0
 11
3024.499228297056
 21
1624.000148463892
 31
0.0
  0
LINE
  5
309
330
1F
100
AcDbEntity
  8
0-3_仕上げ
  6
Continuous
 62
     7
370
     9
100
AcDbLine
 10
3576.999228297057
 20
1426.500148463892
 30
0.0
 11
3576.999228297057
 21
3409.500148463892
 31
0.0
  0
LINE
  5
30A
330
1F
100
AcDbEntity
  8
0-3_仕上げ
  6
Continuous
 62
     7
370
     9
100
AcDbLine
 10
3022.999228297056
 20
1426.500148463892
 30
0.0
 11
3022.999228297056
 21
3409.500148463892
 31
0.0
  0
LINE
  5
30B
330
1F
100
AcDbEntity
  8
0-3_仕上げ
  6
Continuous
 62
     7
370
     9
100
AcDbLine
 10
3025.999228297056
 20
3275.500148463892
 30
0.0
 11
3025.999228297056
 21
3409.500148463892
 31
0.0
  0
LINE
  5
30C
330
1F
100
AcDbEntity
  8
0-3_仕上げ
  6
Continuous
 62
     7
370
     9
100
AcDbLine
 10
3024.499228297056
 20
3274.000148463893
 30
0.0
 11
3024.499228297056
 21
3409.500148463892
 31
0.0
  0
LINE
  5
30D
330
1F
100
AcDbEntity
  8
0-3_仕上げ
  6
Continuous
 62
     7
370
     9
100
AcDbLine
 10
3575.499228297056
 20
3274.000148463892
 30
0.0
 11
3575.499228297056
 21
3409.500148463892
 31
0.0
  0
LINE
  5
30E
330
1F
100
AcDbEntity
  8
0-3_仕上げ
  6
Continuous
 62
     7
370
     9
100
AcDbLine
 10
3573.999228297056
 20
3275.500148463892
 30
0.0
 11
3573.999228297056
 21
3409.500148463892
 31
0.0
  0
MTEXT
  5
30F
330
1F
100
AcDbEntity
  8
0-A_文字
  6
Continuous
 62
     7
370
     9
100
AcDbMText
 10
219.9994793453735
 20
541.5751831054682
 30
0.0
 40
57.15000000000006
 41
675.0000000000007
 46
0.0
 71
     7
 72
     1
  1
{\fＭＳ ゴシック|b0|i0|c128|p49;ミスト熱処理ガラス}
 73
     1
 44
1.0
  0
MTEXT
  5
310
330
1F
100
AcDbEntity
  8
0-A_文字
  6
Continuous
 62
     7
370
     9
100
AcDbMText
 10
-5370.000018557987
 20
-3438.925017526989
 30
0.0
 40
57.15000000000009
 41
600.0000000000009
 46
0.0
 71
     7
 72
     1
  1
{\fＭＳ ゴシック|b0|i0|c128|p49;透明熱処理ガラス}
 73
     1
 44
1.0
  0
LINE
  5
311
330
1F
100
AcDbEntity
  8
0-C_ハッチ
  6
JWW_DASHED1
 62
   120
370
     5
100
AcDbLine
 10
-3373.000269606305
 20
-882.6911664036662
 30
0.0
 11
-3338.059187022873
 21
-847.7500838202329
 31
0.0
  0
LINE
  5
312
330
1F
100
AcDbEntity
  8
0-C_ハッチ
  6
JWW_DASHED1
 62
   120
370
     5
100
AcDbLine
 10
-3373.000269606305
 20
-1391.808048858012
 30
0.0
 11
-2828.942304568525
 21
-847.7500838202311
 31
0.0
  0
LINE
  5
313
330
1F
100
AcDbEntity
  8
0-C_ハッチ
  6
JWW_DASHED1
 62
   120
370
     5
100
AcDbLine
 10
-3373.000269606305
 20
-1349.381641986812
 30
0.0
 11
-2871.368711439722
 21
-847.7500838202282
 31
0.0
  0
LINE
  5
314
330
1F
100
AcDbEntity
  8
0-C_ハッチ
  6
JWW_DASHED1
 62
   120
370
     5
100
AcDbLine
 10
-3373.000269606305
 20
-1306.955235115611
 30
0.0
 11
-2913.795118310918
 21
-847.7500838202243
 31
0.0
  0
LINE
  5
315
330
1F
100
AcDbEntity
  8
0-C_ハッチ
  6
JWW_DASHED1
 62
   120
370
     5
100
AcDbLine
 10
-3373.000269606305
 20
-1264.528828244411
 30
0.0
 11
-2956.221525182131
 21
-847.7500838202367
 31
0.0
  0
LINE
  5
316
330
1F
100
AcDbEntity
  8
0-C_ハッチ
  6
JWW_DASHED1
 62
   120
370
     5
100
AcDbLine
 10
-3373.000269606305
 20
-1222.102421373211
 30
0.0
 11
-2998.647932053337
 21
-847.7500838202435
 31
0.0
  0
LINE
  5
317
330
1F
100
AcDbEntity
  8
0-C_ハッチ
  6
JWW_DASHED1
 62
   120
370
     5
100
AcDbLine
 10
-3373.000269606305
 20
-1179.676014502011
 30
0.0
 11
-3041.074338924541
 21
-847.7500838202452
 31
0.0
  0
LINE
  5
318
330
1F
100
AcDbEntity
  8
0-C_ハッチ
  6
JWW_DASHED1
 62
   120
370
     5
100
AcDbLine
 10
-3373.000269606305
 20
-1137.249607630812
 30
0.0
 11
-3083.500745795737
 21
-847.7500838202418
 31
0.0
  0
LINE
  5
319
330
1F
100
AcDbEntity
  8
0-C_ハッチ
  6
JWW_DASHED1
 62
   120
370
     5
100
AcDbLine
 10
-3373.000269606305
 20
-1094.823200759667
 30
0.0
 11
-3125.927152666873
 21
-847.7500838202337
 31
0.0
  0
LINE
  5
31A
330
1F
100
AcDbEntity
  8
0-C_ハッチ
  6
JWW_DASHED1
 62
   120
370
     5
100
AcDbLine
 10
-3373.000269606305
 20
-1052.396793888466
 30
0.0
 11
-3168.353559538069
 21
-847.7500838202308
 31
0.0
  0
LINE
  5
31B
330
1F
100
AcDbEntity
  8
0-C_ハッチ
  6
JWW_DASHED1
 62
   120
370
     5
100
AcDbLine
 10
-3373.000269606305
 20
-1009.970387017266
 30
0.0
 11
-3210.779966409266
 21
-847.7500838202269
 31
0.0
  0
LINE
  5
31C
330
1F
100
AcDbEntity
  8
0-C_ハッチ
  6
JWW_DASHED1
 62
   120
370
     5
100
AcDbLine
 10
-3373.000269606305
 20
-967.5439801460662
 30
0.0
 11
-3253.20637328048
 21
-847.7500838202393
 31
0.0
  0
LINE
  5
31D
330
1F
100
AcDbEntity
  8
0-C_ハッチ
  6
JWW_DASHED1
 62
   120
370
     5
100
AcDbLine
 10
-3373.000269606305
 20
-925.1175732748662
 30
0.0
 11
-3295.632780151676
 21
-847.7500838202354
 31
0.0
  0
LINE
  5
31E
330
1F
100
AcDbEntity
  8
0-C_ハッチ
  6
JWW_DASHED1
 62
   120
370
     5
100
AcDbLine
 10
-3373.000269606305
 20
-1434.234455729157
 30
0.0
 11
-2827.000269606307
 21
-888.2344557291576
 31
0.0
  0
LINE
  5
31F
330
1F
100
AcDbEntity
  8
0-C_ハッチ
  6
JWW_DASHED1
 62
   120
370
     5
100
AcDbLine
 10
-2861.738843463204
 20
-2492.750083820237
 30
0.0
 11
-2827.000269606307
 21
-2458.011509963339
 31
0.0
  0
LINE
  5
320
330
1F
100
AcDbEntity
  8
0-C_ハッチ
  6
JWW_DASHED1
 62
   120
370
     5
100
AcDbLine
 10
-2904.165250334416
 20
-2492.75008382025
 30
0.0
 11
-2827.000269606307
 21
-2415.585103092139
 31
0.0
  0
LINE
  5
321
330
1F
100
AcDbEntity
  8
0-C_ハッチ
  6
JWW_DASHED1
 62
   120
370
     5
100
AcDbLine
 10
-2946.591657205613
 20
-2492.750083820247
 30
0.0
 11
-2827.000269606307
 21
-2373.158696220939
 31
0.0
  0
LINE
  5
322
330
1F
100
AcDbEntity
  8
0-C_ハッチ
  6
JWW_DASHED1
 62
   120
370
     5
100
AcDbLine
 10
-2989.018064076809
 20
-2492.750083820243
 30
0.0
 11
-2827.000269606307
 21
-2330.73228934974
 31
0.0
  0
LINE
  5
323
330
1F
100
AcDbEntity
  8
0-C_ハッチ
  6
JWW_DASHED1
 62
   120
370
     5
100
AcDbLine
 10
-3031.444470948014
 20
-2492.75008382025
 30
0.0
 11
-2827.000269606307
 21
-2288.30588247854
 31
0.0
  0
LINE
  5
324
330
1F
100
AcDbEntity
  8
0-C_ハッチ
  6
JWW_DASHED1
 62
   120
370
     5
100
AcDbLine
 10
-3073.870877819218
 20
-2492.750083820252
 30
0.0
 11
-2827.000269606307
 21
-2245.879475607339
 31
0.0
  0
LINE
  5
325
330
1F
100
AcDbEntity
  8
0-C_ハッチ
  6
JWW_DASHED1
 62
   120
370
     5
100
AcDbLine
 10
-3116.297284690414
 20
-2492.750083820249
 30
0.0
 11
-2827.000269606307
 21
-2203.45306873614
 31
0.0
  0
LINE
  5
326
330
1F
100
AcDbEntity
  8
0-C_ハッチ
  6
JWW_DASHED1
 62
   120
370
     5
100
AcDbLine
 10
-3158.723691561553
 20
-2492.75008382024
 30
0.0
 11
-2827.000269606307
 21
-2161.026661864995
 31
0.0
  0
LINE
  5
327
330
1F
100
AcDbEntity
  8
0-C_ハッチ
  6
JWW_DASHED1
 62
   120
370
     5
100
AcDbLine
 10
-3201.150098432749
 20
-2492.750083820237
 30
0.0
 11
-2827.000269606307
 21
-2118.600254993794
 31
0.0
  0
LINE
  5
328
330
1F
100
AcDbEntity
  8
0-C_ハッチ
  6
JWW_DASHED1
 62
   120
370
     5
100
AcDbLine
 10
-3243.576505303946
 20
-2492.750083820233
 30
0.0
 11
-2827.000269606307
 21
-2076.173848122594
 31
0.0
  0
LINE
  5
329
330
1F
100
AcDbEntity
  8
0-C_ハッチ
  6
JWW_DASHED1
 62
   120
370
     5
100
AcDbLine
 10
-3286.002912175143
 20
-2492.75008382023
 30
0.0
 11
-2827.000269606307
 21
-2033.747441251394
 31
0.0
  0
LINE
  5
32A
330
1F
100
AcDbEntity
  8
0-C_ハッチ
  6
JWW_DASHED1
 62
   120
370
     5
100
AcDbLine
 10
-3328.42931904634
 20
-2492.750083820226
 30
0.0
 11
-2827.000269606307
 21
-1991.321034380194
 31
0.0
  0
LINE
  5
32B
330
1F
100
AcDbEntity
  8
0-C_ハッチ
  6
JWW_DASHED1
 62
   120
370
     5
100
AcDbLine
 10
-3373.000269606305
 20
-2452.468220637793
 30
0.0
 11
-2827.000269606307
 21
-1906.468220637795
 31
0.0
  0
LINE
  5
32C
330
1F
100
AcDbEntity
  8
0-C_ハッチ
  6
JWW_DASHED1
 62
   120
370
     5
100
AcDbLine
 10
-3373.000269606305
 20
-2410.041813766593
 30
0.0
 11
-2827.000269606307
 21
-1864.041813766594
 31
0.0
  0
LINE
  5
32D
330
1F
100
AcDbEntity
  8
0-C_ハッチ
  6
JWW_DASHED1
 62
   120
370
     5
100
AcDbLine
 10
-3373.000269606305
 20
-2367.615406895448
 30
0.0
 11
-2827.000269606307
 21
-1821.615406895449
 31
0.0
  0
LINE
  5
32E
330
1F
100
AcDbEntity
  8
0-C_ハッチ
  6
JWW_DASHED1
 62
   120
370
     5
100
AcDbLine
 10
-3373.000269606305
 20
-2325.189000024248
 30
0.0
 11
-2827.000269606307
 21
-1779.189000024249
 31
0.0
  0
LINE
  5
32F
330
1F
100
AcDbEntity
  8
0-C_ハッチ
  6
JWW_DASHED1
 62
   120
370
     5
100
AcDbLine
 10
-3373.000269606305
 20
-2282.762593153049
 30
0.0
 11
-2827.000269606307
 21
-1736.762593153049
 31
0.0
  0
LINE
  5
330
330
1F
100
AcDbEntity
  8
0-C_ハッチ
  6
JWW_DASHED1
 62
   120
370
     5
100
AcDbLine
 10
-3373.000269606305
 20
-2240.336186281848
 30
0.0
 11
-2827.000269606307
 21
-1694.336186281849
 31
0.0
  0
LINE
  5
331
330
1F
100
AcDbEntity
  8
0-C_ハッチ
  6
JWW_DASHED1
 62
   120
370
     5
100
AcDbLine
 10
-3373.000269606305
 20
-2197.909779410648
 30
0.0
 11
-2827.000269606307
 21
-1651.909779410649
 31
0.0
  0
LINE
  5
332
330
1F
100
AcDbEntity
  8
0-C_ハッチ
  6
JWW_DASHED1
 62
   120
370
     5
100
AcDbLine
 10
-3373.000269606305
 20
-2155.483372539448
 30
0.0
 11
-2827.000269606307
 21
-1609.483372539448
 31
0.0
  0
LINE
  5
333
330
1F
100
AcDbEntity
  8
0-C_ハッチ
  6
JWW_DASHED1
 62
   120
370
     5
100
AcDbLine
 10
-3373.000269606305
 20
-2113.056965668248
 30
0.0
 11
-2827.000269606307
 21
-1567.056965668249
 31
0.0
  0
LINE
  5
334
330
1F
100
AcDbEntity
  8
0-C_ハッチ
  6
JWW_DASHED1
 62
   120
370
     5
100
AcDbLine
 10
-3373.000269606305
 20
-2070.630558797048
 30
0.0
 11
-2827.000269606307
 21
-1524.630558797049
 31
0.0
  0
LINE
  5
335
330
1F
100
AcDbEntity
  8
0-C_ハッチ
  6
JWW_DASHED1
 62
   120
370
     5
100
AcDbLine
 10
-3373.000269606305
 20
-2028.204151925903
 30
0.0
 11
-2827.000269606307
 21
-1482.204151925903
 31
0.0
  0
LINE
  5
336
330
1F
100
AcDbEntity
  8
0-C_ハッチ
  6
JWW_DASHED1
 62
   120
370
     5
100
AcDbLine
 10
-3373.000269606305
 20
-1985.777745054703
 30
0.0
 11
-2827.000269606307
 21
-1439.777745054703
 31
0.0
  0
LINE
  5
337
330
1F
100
AcDbEntity
  8
0-C_ハッチ
  6
JWW_DASHED1
 62
   120
370
     5
100
AcDbLine
 10
-3373.000269606305
 20
-1943.351338183502
 30
0.0
 11
-2827.000269606307
 21
-1397.351338183503
 31
0.0
  0
LINE
  5
338
330
1F
100
AcDbEntity
  8
0-C_ハッチ
  6
JWW_DASHED1
 62
   120
370
     5
100
AcDbLine
 10
-3373.000269606305
 20
-1900.924931312303
 30
0.0
 11
-2827.000269606307
 21
-1354.924931312303
 31
0.0
  0
LINE
  5
339
330
1F
100
AcDbEntity
  8
0-C_ハッチ
  6
JWW_DASHED1
 62
   120
370
     5
100
AcDbLine
 10
-3373.000269606305
 20
-1858.498524441103
 30
0.0
 11
-2827.000269606307
 21
-1312.498524441104
 31
0.0
  0
LINE
  5
33A
330
1F
100
AcDbEntity
  8
0-C_ハッチ
  6
JWW_DASHED1
 62
   120
370
     5
100
AcDbLine
 10
-3373.000269606305
 20
-1816.072117569903
 30
0.0
 11
-2827.000269606307
 21
-1270.072117569904
 31
0.0
  0
LINE
  5
33B
330
1F
100
AcDbEntity
  8
0-C_ハッチ
  6
JWW_DASHED1
 62
   120
370
     5
100
AcDbLine
 10
-3373.000269606305
 20
-1731.219303827557
 30
0.0
 11
-2827.000269606307
 21
-1185.219303827558
 31
0.0
  0
LINE
  5
33C
330
1F
100
AcDbEntity
  8
0-C_ハッチ
  6
JWW_DASHED1
 62
   120
370
     5
100
AcDbLine
 10
-3373.000269606305
 20
-1688.792896956357
 30
0.0
 11
-2827.000269606307
 21
-1142.792896956358
 31
0.0
  0
LINE
  5
33D
330
1F
100
AcDbEntity
  8
0-C_ハッチ
  6
JWW_DASHED1
 62
   120
370
     5
100
AcDbLine
 10
-3373.000269606305
 20
-1646.366490085157
 30
0.0
 11
-2827.000269606307
 21
-1100.366490085158
 31
0.0
  0
LINE
  5
33E
330
1F
100
AcDbEntity
  8
0-C_ハッチ
  6
JWW_DASHED1
 62
   120
370
     5
100
AcDbLine
 10
-3373.000269606305
 20
-1603.940083213957
 30
0.0
 11
-2827.000269606307
 21
-1057.940083213958
 31
0.0
  0
LINE
  5
33F
330
1F
100
AcDbEntity
  8
0-C_ハッチ
  6
JWW_DASHED1
 62
   120
370
     5
100
AcDbLine
 10
-3373.000269606305
 20
-1561.513676342757
 30
0.0
 11
-2827.000269606307
 21
-1015.513676342758
 31
0.0
  0
LINE
  5
340
330
1F
100
AcDbEntity
  8
0-C_ハッチ
  6
JWW_DASHED1
 62
   120
370
     5
100
AcDbLine
 10
-3373.000269606305
 20
-1519.087269471557
 30
0.0
 11
-2827.000269606307
 21
-973.0872694715581
 31
0.0
  0
LINE
  5
341
330
1F
100
AcDbEntity
  8
0-C_ハッチ
  6
JWW_DASHED1
 62
   120
370
     5
100
AcDbLine
 10
-3373.000269606305
 20
-1476.660862600357
 30
0.0
 11
-2827.000269606307
 21
-930.6608626003572
 31
0.0
  0
LINE
  5
342
330
1F
100
AcDbEntity
  8
0-C_ハッチ
  6
JWW_DASHED1
 62
   120
370
     5
100
AcDbLine
 10
-3373.000269606305
 20
-1773.645710698703
 30
0.0
 11
-2827.000269606307
 21
-1227.645710698703
 31
0.0
  0
LINE
  5
343
330
1F
100
AcDbEntity
  8
0-C_ハッチ
  6
JWW_DASHED1
 62
   120
370
     5
100
AcDbLine
 10
-3370.855725917556
 20
-2492.750083820243
 30
0.0
 11
-2827.000269606307
 21
-1948.894627508994
 31
0.0
  0
LINE
  5
344
330
1F
100
AcDbEntity
  8
0-C_ハッチ
  6
JWW_DASHED1
 62
   120
370
     5
100
AcDbLine
 10
-2563.000269606305
 20
-882.6911664036662
 30
0.0
 11
-2528.059187022871
 21
-847.7500838202329
 31
0.0
  0
LINE
  5
345
330
1F
100
AcDbEntity
  8
0-C_ハッチ
  6
JWW_DASHED1
 62
   120
370
     5
100
AcDbLine
 10
-2563.000269606305
 20
-1391.808048858012
 30
0.0
 11
-2018.942304568524
 21
-847.7500838202311
 31
0.0
  0
LINE
  5
346
330
1F
100
AcDbEntity
  8
0-C_ハッチ
  6
JWW_DASHED1
 62
   120
370
     5
100
AcDbLine
 10
-2563.000269606305
 20
-1349.381641986812
 30
0.0
 11
-2061.36871143972
 21
-847.7500838202282
 31
0.0
  0
LINE
  5
347
330
1F
100
AcDbEntity
  8
0-C_ハッチ
  6
JWW_DASHED1
 62
   120
370
     5
100
AcDbLine
 10
-2563.000269606305
 20
-1306.955235115611
 30
0.0
 11
-2103.795118310917
 21
-847.7500838202243
 31
0.0
  0
LINE
  5
348
330
1F
100
AcDbEntity
  8
0-C_ハッチ
  6
JWW_DASHED1
 62
   120
370
     5
100
AcDbLine
 10
-2563.000269606305
 20
-1264.528828244411
 30
0.0
 11
-2146.221525182129
 21
-847.7500838202367
 31
0.0
  0
LINE
  5
349
330
1F
100
AcDbEntity
  8
0-C_ハッチ
  6
JWW_DASHED1
 62
   120
370
     5
100
AcDbLine
 10
-2563.000269606305
 20
-1222.102421373211
 30
0.0
 11
-2188.647932053336
 21
-847.7500838202435
 31
0.0
  0
LINE
  5
34A
330
1F
100
AcDbEntity
  8
0-C_ハッチ
  6
JWW_DASHED1
 62
   120
370
     5
100
AcDbLine
 10
-2563.000269606305
 20
-1179.676014502011
 30
0.0
 11
-2231.074338924537
 21
-847.7500838202452
 31
0.0
  0
LINE
  5
34B
330
1F
100
AcDbEntity
  8
0-C_ハッチ
  6
JWW_DASHED1
 62
   120
370
     5
100
AcDbLine
 10
-2563.000269606305
 20
-1137.249607630812
 30
0.0
 11
-2273.500745795734
 21
-847.7500838202418
 31
0.0
  0
LINE
  5
34C
330
1F
100
AcDbEntity
  8
0-C_ハッチ
  6
JWW_DASHED1
 62
   120
370
     5
100
AcDbLine
 10
-2563.000269606305
 20
-1094.823200759667
 30
0.0
 11
-2315.927152666873
 21
-847.7500838202337
 31
0.0
  0
LINE
  5
34D
330
1F
100
AcDbEntity
  8
0-C_ハッチ
  6
JWW_DASHED1
 62
   120
370
     5
100
AcDbLine
 10
-2563.000269606305
 20
-1052.396793888466
 30
0.0
 11
-2358.353559538069
 21
-847.7500838202308
 31
0.0
  0
LINE
  5
34E
330
1F
100
AcDbEntity
  8
0-C_ハッチ
  6
JWW_DASHED1
 62
   120
370
     5
100
AcDbLine
 10
-2563.000269606305
 20
-1009.970387017266
 30
0.0
 11
-2400.779966409266
 21
-847.7500838202269
 31
0.0
  0
LINE
  5
34F
330
1F
100
AcDbEntity
  8
0-C_ハッチ
  6
JWW_DASHED1
 62
   120
370
     5
100
AcDbLine
 10
-2563.000269606305
 20
-967.5439801460662
 30
0.0
 11
-2443.206373280478
 21
-847.7500838202393
 31
0.0
  0
LINE
  5
350
330
1F
100
AcDbEntity
  8
0-C_ハッチ
  6
JWW_DASHED1
 62
   120
370
     5
100
AcDbLine
 10
-2563.000269606305
 20
-925.1175732748662
 30
0.0
 11
-2485.632780151675
 21
-847.7500838202354
 31
0.0
  0
LINE
  5
351
330
1F
100
AcDbEntity
  8
0-C_ハッチ
  6
JWW_DASHED1
 62
   120
370
     5
100
AcDbLine
 10
-2563.000269606305
 20
-1434.234455729157
 30
0.0
 11
-2017.000269606305
 21
-888.2344557291576
 31
0.0
  0
LINE
  5
352
330
1F
100
AcDbEntity
  8
0-C_ハッチ
  6
JWW_DASHED1
 62
   120
370
     5
100
AcDbLine
 10
-2051.738843463202
 20
-2492.750083820237
 30
0.0
 11
-2017.000269606305
 21
-2458.011509963339
 31
0.0
  0
LINE
  5
353
330
1F
100
AcDbEntity
  8
0-C_ハッチ
  6
JWW_DASHED1
 62
   120
370
     5
100
AcDbLine
 10
-2094.165250334414
 20
-2492.75008382025
 30
0.0
 11
-2017.000269606305
 21
-2415.585103092139
 31
0.0
  0
LINE
  5
354
330
1F
100
AcDbEntity
  8
0-C_ハッチ
  6
JWW_DASHED1
 62
   120
370
     5
100
AcDbLine
 10
-2136.591657205611
 20
-2492.750083820247
 30
0.0
 11
-2017.000269606305
 21
-2373.158696220939
 31
0.0
  0
LINE
  5
355
330
1F
100
AcDbEntity
  8
0-C_ハッチ
  6
JWW_DASHED1
 62
   120
370
     5
100
AcDbLine
 10
-2179.018064076808
 20
-2492.750083820243
 30
0.0
 11
-2017.000269606305
 21
-2330.73228934974
 31
0.0
  0
LINE
  5
356
330
1F
100
AcDbEntity
  8
0-C_ハッチ
  6
JWW_DASHED1
 62
   120
370
     5
100
AcDbLine
 10
-2221.444470948014
 20
-2492.75008382025
 30
0.0
 11
-2017.000269606305
 21
-2288.30588247854
 31
0.0
  0
LINE
  5
357
330
1F
100
AcDbEntity
  8
0-C_ハッチ
  6
JWW_DASHED1
 62
   120
370
     5
100
AcDbLine
 10
-2263.870877819216
 20
-2492.750083820252
 30
0.0
 11
-2017.000269606305
 21
-2245.879475607339
 31
0.0
  0
LINE
  5
358
330
1F
100
AcDbEntity
  8
0-C_ハッチ
  6
JWW_DASHED1
 62
   120
370
     5
100
AcDbLine
 10
-2306.297284690413
 20
-2492.750083820249
 30
0.0
 11
-2017.000269606305
 21
-2203.45306873614
 31
0.0
  0
LINE
  5
359
330
1F
100
AcDbEntity
  8
0-C_ハッチ
  6
JWW_DASHED1
 62
   120
370
     5
100
AcDbLine
 10
-2348.723691561551
 20
-2492.75008382024
 30
0.0
 11
-2017.000269606305
 21
-2161.026661864995
 31
0.0
  0
LINE
  5
35A
330
1F
100
AcDbEntity
  8
0-C_ハッチ
  6
JWW_DASHED1
 62
   120
370
     5
100
AcDbLine
 10
-2391.150098432748
 20
-2492.750083820237
 30
0.0
 11
-2017.000269606305
 21
-2118.600254993794
 31
0.0
  0
LINE
  5
35B
330
1F
100
AcDbEntity
  8
0-C_ハッチ
  6
JWW_DASHED1
 62
   120
370
     5
100
AcDbLine
 10
-2433.576505303943
 20
-2492.750083820233
 30
0.0
 11
-2017.000269606305
 21
-2076.173848122594
 31
0.0
  0
LINE
  5
35C
330
1F
100
AcDbEntity
  8
0-C_ハッチ
  6
JWW_DASHED1
 62
   120
370
     5
100
AcDbLine
 10
-2476.002912175139
 20
-2492.75008382023
 30
0.0
 11
-2017.000269606305
 21
-2033.747441251394
 31
0.0
  0
LINE
  5
35D
330
1F
100
AcDbEntity
  8
0-C_ハッチ
  6
JWW_DASHED1
 62
   120
370
     5
100
AcDbLine
 10
-2518.429319046336
 20
-2492.750083820226
 30
0.0
 11
-2017.000269606305
 21
-1991.321034380194
 31
0.0
  0
LINE
  5
35E
330
1F
100
AcDbEntity
  8
0-C_ハッチ
  6
JWW_DASHED1
 62
   120
370
     5
100
AcDbLine
 10
-2563.000269606305
 20
-2452.468220637793
 30
0.0
 11
-2017.000269606305
 21
-1906.468220637795
 31
0.0
  0
LINE
  5
35F
330
1F
100
AcDbEntity
  8
0-C_ハッチ
  6
JWW_DASHED1
 62
   120
370
     5
100
AcDbLine
 10
-2563.000269606305
 20
-2410.041813766593
 30
0.0
 11
-2017.000269606305
 21
-1864.041813766594
 31
0.0
  0
LINE
  5
360
330
1F
100
AcDbEntity
  8
0-C_ハッチ
  6
JWW_DASHED1
 62
   120
370
     5
100
AcDbLine
 10
-2563.000269606305
 20
-2367.615406895448
 30
0.0
 11
-2017.000269606305
 21
-1821.615406895449
 31
0.0
  0
LINE
  5
361
330
1F
100
AcDbEntity
  8
0-C_ハッチ
  6
JWW_DASHED1
 62
   120
370
     5
100
AcDbLine
 10
-2563.000269606305
 20
-2325.189000024248
 30
0.0
 11
-2017.000269606305
 21
-1779.189000024249
 31
0.0
  0
LINE
  5
362
330
1F
100
AcDbEntity
  8
0-C_ハッチ
  6
JWW_DASHED1
 62
   120
370
     5
100
AcDbLine
 10
-2563.000269606305
 20
-2282.762593153049
 30
0.0
 11
-2017.000269606305
 21
-1736.762593153049
 31
0.0
  0
LINE
  5
363
330
1F
100
AcDbEntity
  8
0-C_ハッチ
  6
JWW_DASHED1
 62
   120
370
     5
100
AcDbLine
 10
-2563.000269606305
 20
-2240.336186281848
 30
0.0
 11
-2017.000269606305
 21
-1694.336186281849
 31
0.0
  0
LINE
  5
364
330
1F
100
AcDbEntity
  8
0-C_ハッチ
  6
JWW_DASHED1
 62
   120
370
     5
100
AcDbLine
 10
-2563.000269606305
 20
-2197.909779410648
 30
0.0
 11
-2017.000269606305
 21
-1651.909779410649
 31
0.0
  0
LINE
  5
365
330
1F
100
AcDbEntity
  8
0-C_ハッチ
  6
JWW_DASHED1
 62
   120
370
     5
100
AcDbLine
 10
-2563.000269606305
 20
-2155.483372539448
 30
0.0
 11
-2017.000269606305
 21
-1609.483372539448
 31
0.0
  0
LINE
  5
366
330
1F
100
AcDbEntity
  8
0-C_ハッチ
  6
JWW_DASHED1
 62
   120
370
     5
100
AcDbLine
 10
-2563.000269606305
 20
-2113.056965668248
 30
0.0
 11
-2017.000269606305
 21
-1567.056965668249
 31
0.0
  0
LINE
  5
367
330
1F
100
AcDbEntity
  8
0-C_ハッチ
  6
JWW_DASHED1
 62
   120
370
     5
100
AcDbLine
 10
-2563.000269606305
 20
-2070.630558797048
 30
0.0
 11
-2017.000269606305
 21
-1524.630558797049
 31
0.0
  0
LINE
  5
368
330
1F
100
AcDbEntity
  8
0-C_ハッチ
  6
JWW_DASHED1
 62
   120
370
     5
100
AcDbLine
 10
-2563.000269606305
 20
-2028.204151925903
 30
0.0
 11
-2017.000269606305
 21
-1482.204151925903
 31
0.0
  0
LINE
  5
369
330
1F
100
AcDbEntity
  8
0-C_ハッチ
  6
JWW_DASHED1
 62
   120
370
     5
100
AcDbLine
 10
-2563.000269606305
 20
-1985.777745054703
 30
0.0
 11
-2017.000269606305
 21
-1439.777745054703
 31
0.0
  0
LINE
  5
36A
330
1F
100
AcDbEntity
  8
0-C_ハッチ
  6
JWW_DASHED1
 62
   120
370
     5
100
AcDbLine
 10
-2563.000269606305
 20
-1943.351338183502
 30
0.0
 11
-2017.000269606305
 21
-1397.351338183503
 31
0.0
  0
LINE
  5
36B
330
1F
100
AcDbEntity
  8
0-C_ハッチ
  6
JWW_DASHED1
 62
   120
370
     5
100
AcDbLine
 10
-2563.000269606305
 20
-1900.924931312303
 30
0.0
 11
-2017.000269606305
 21
-1354.924931312303
 31
0.0
  0
LINE
  5
36C
330
1F
100
AcDbEntity
  8
0-C_ハッチ
  6
JWW_DASHED1
 62
   120
370
     5
100
AcDbLine
 10
-2563.000269606305
 20
-1858.498524441103
 30
0.0
 11
-2017.000269606305
 21
-1312.498524441104
 31
0.0
  0
LINE
  5
36D
330
1F
100
AcDbEntity
  8
0-C_ハッチ
  6
JWW_DASHED1
 62
   120
370
     5
100
AcDbLine
 10
-2563.000269606305
 20
-1816.072117569903
 30
0.0
 11
-2017.000269606305
 21
-1270.072117569904
 31
0.0
  0
LINE
  5
36E
330
1F
100
AcDbEntity
  8
0-C_ハッチ
  6
JWW_DASHED1
 62
   120
370
     5
100
AcDbLine
 10
-2563.000269606305
 20
-1731.219303827557
 30
0.0
 11
-2017.000269606305
 21
-1185.219303827558
 31
0.0
  0
LINE
  5
36F
330
1F
100
AcDbEntity
  8
0-C_ハッチ
  6
JWW_DASHED1
 62
   120
370
     5
100
AcDbLine
 10
-2563.000269606305
 20
-1688.792896956357
 30
0.0
 11
-2017.000269606305
 21
-1142.792896956358
 31
0.0
  0
LINE
  5
370
330
1F
100
AcDbEntity
  8
0-C_ハッチ
  6
JWW_DASHED1
 62
   120
370
     5
100
AcDbLine
 10
-2563.000269606305
 20
-1646.366490085157
 30
0.0
 11
-2017.000269606305
 21
-1100.366490085158
 31
0.0
  0
LINE
  5
371
330
1F
100
AcDbEntity
  8
0-C_ハッチ
  6
JWW_DASHED1
 62
   120
370
     5
100
AcDbLine
 10
-2563.000269606305
 20
-1603.940083213957
 30
0.0
 11
-2017.000269606305
 21
-1057.940083213958
 31
0.0
  0
LINE
  5
372
330
1F
100
AcDbEntity
  8
0-C_ハッチ
  6
JWW_DASHED1
 62
   120
370
     5
100
AcDbLine
 10
-2563.000269606305
 20
-1561.513676342757
 30
0.0
 11
-2017.000269606305
 21
-1015.513676342758
 31
0.0
  0
LINE
  5
373
330
1F
100
AcDbEntity
  8
0-C_ハッチ
  6
JWW_DASHED1
 62
   120
370
     5
100
AcDbLine
 10
-2563.000269606305
 20
-1519.087269471557
 30
0.0
 11
-2017.000269606305
 21
-973.0872694715581
 31
0.0
  0
LINE
  5
374
330
1F
100
AcDbEntity
  8
0-C_ハッチ
  6
JWW_DASHED1
 62
   120
370
     5
100
AcDbLine
 10
-2563.000269606305
 20
-1476.660862600357
 30
0.0
 11
-2017.000269606305
 21
-930.6608626003572
 31
0.0
  0
LINE
  5
375
330
1F
100
AcDbEntity
  8
0-C_ハッチ
  6
JWW_DASHED1
 62
   120
370
     5
100
AcDbLine
 10
-2563.000269606305
 20
-1773.645710698703
 30
0.0
 11
-2017.000269606305
 21
-1227.645710698703
 31
0.0
  0
LINE
  5
376
330
1F
100
AcDbEntity
  8
0-C_ハッチ
  6
JWW_DASHED1
 62
   120
370
     5
100
AcDbLine
 10
-2560.855725917553
 20
-2492.750083820243
 30
0.0
 11
-2017.000269606305
 21
-1948.894627508994
 31
0.0
  0
LINE
  5
377
330
1F
100
AcDbEntity
  8
0-3_仕上げ
  6
Continuous
 62
     7
370
     9
100
AcDbLine
 10
-3374.000269606307
 20
-2692.750083820243
 30
0.0
 11
-3374.000269606307
 21
-2496.750083820243
 31
0.0
  0
LINE
  5
378
330
1F
100
AcDbEntity
  8
0-3_仕上げ
  6
Continuous
 62
    92
370
    13
100
AcDbLine
 10
-3373.000269606305
 20
-2492.750083820243
 30
0.0
 11
-3373.000269606305
 21
-847.7500838202423
 31
0.0
  0
LINE
  5
379
330
1F
100
AcDbEntity
  8
0-3_仕上げ
  6
Continuous
 62
    92
370
    13
100
AcDbLine
 10
-2827.000269606307
 20
-847.7500838202423
 30
0.0
 11
-3373.000269606305
 21
-847.7500838202423
 31
0.0
  0
LINE
  5
37A
330
1F
100
AcDbEntity
  8
0-3_仕上げ
  6
Continuous
 62
    92
370
    13
100
AcDbLine
 10
-2827.000269606307
 20
-2492.750083820243
 30
0.0
 11
-3373.000269606305
 21
-2492.750083820243
 31
0.0
  0
LINE
  5
37B
330
1F
100
AcDbEntity
  8
0-3_仕上げ
  6
Continuous
 62
    92
370
    13
100
AcDbLine
 10
-2827.000269606307
 20
-2492.750083820243
 30
0.0
 11
-2827.000269606307
 21
-847.7500838202423
 31
0.0
  0
LINE
  5
37C
330
1F
100
AcDbEntity
  8
0-3_仕上げ
  6
Continuous
 62
     7
370
     9
100
AcDbLine
 10
-2826.000269606306
 20
-2496.750083820243
 30
0.0
 11
-2824.500269606306
 21
-2495.250083820242
 31
0.0
  0
LINE
  5
37D
330
1F
100
AcDbEntity
  8
0-3_仕上げ
  6
Continuous
 62
     7
370
     9
100
AcDbLine
 10
-3374.000269606307
 20
-843.750083820242
 30
0.0
 11
-3375.500269606306
 21
-845.2500838202424
 31
0.0
  0
LINE
  5
37E
330
1F
100
AcDbEntity
  8
0-3_仕上げ
  6
Continuous
 62
     7
370
     9
100
AcDbLine
 10
-2824.500269606306
 20
-845.2500838202424
 30
0.0
 11
-2827.000269606307
 21
-847.7500838202423
 31
0.0
  0
LINE
  5
37F
330
1F
100
AcDbEntity
  8
0-3_仕上げ
  6
Continuous
 62
     7
370
     9
100
AcDbLine
 10
-3373.000269606305
 20
-847.7500838202423
 30
0.0
 11
-3375.500269606306
 21
-845.250083820242
 31
0.0
  0
LINE
  5
380
330
1F
100
AcDbEntity
  8
0-3_仕上げ
  6
Continuous
 62
     7
370
     9
100
AcDbLine
 10
-2826.000269606306
 20
-843.750083820242
 30
0.0
 11
-2824.500269606306
 21
-845.2500838202424
 31
0.0
  0
LINE
  5
381
330
1F
100
AcDbEntity
  8
0-3_仕上げ
  6
Continuous
 62
     7
370
     9
100
AcDbLine
 10
-2826.000269606306
 20
-843.750083820242
 30
0.0
 11
-3374.000269606307
 21
-843.750083820242
 31
0.0
  0
LINE
  5
382
330
1F
100
AcDbEntity
  8
0-3_仕上げ
  6
Continuous
 62
     7
370
     9
100
AcDbLine
 10
-2824.500269606306
 20
-2692.750083820243
 30
0.0
 11
-2824.500269606306
 21
-2495.250083820243
 31
0.0
  0
LINE
  5
383
330
1F
100
AcDbEntity
  8
0-3_仕上げ
  6
Continuous
 62
     7
370
     9
100
AcDbLine
 10
-2827.000269606307
 20
-2492.750083820243
 30
0.0
 11
-2824.500269606306
 21
-2495.250083820243
 31
0.0
  0
LINE
  5
384
330
1F
100
AcDbEntity
  8
0-3_仕上げ
  6
Continuous
 62
     7
370
     9
100
AcDbLine
 10
-2826.000269606306
 20
-2692.750083820243
 30
0.0
 11
-2826.000269606306
 21
-2496.750083820243
 31
0.0
  0
LINE
  5
385
330
1F
100
AcDbEntity
  8
0-3_仕上げ
  6
Continuous
 62
     7
370
     9
100
AcDbLine
 10
-2826.000269606306
 20
-2496.750083820243
 30
0.0
 11
-3374.000269606307
 21
-2496.750083820243
 31
0.0
  0
LINE
  5
386
330
1F
100
AcDbEntity
  8
0-3_仕上げ
  6
Continuous
 62
     7
370
     9
100
AcDbLine
 10
-3374.000269606307
 20
-2496.750083820243
 30
0.0
 11
-3375.500269606306
 21
-2495.250083820242
 31
0.0
  0
LINE
  5
387
330
1F
100
AcDbEntity
  8
0-3_仕上げ
  6
Continuous
 62
     7
370
     9
100
AcDbLine
 10
-3375.500269606306
 20
-2495.250083820242
 30
0.0
 11
-3373.000269606305
 21
-2492.750083820243
 31
0.0
  0
LINE
  5
388
330
1F
100
AcDbEntity
  8
0-3_仕上げ
  6
Continuous
 62
     7
370
     9
100
AcDbLine
 10
-3375.500269606306
 20
-2692.750083820243
 30
0.0
 11
-3375.500269606306
 21
-2495.250083820242
 31
0.0
  0
LINE
  5
389
330
1F
100
AcDbEntity
  8
0-3_仕上げ
  6
Continuous
 62
     7
370
     9
100
AcDbLine
 10
-2823.000269606305
 20
-2692.750083820243
 30
0.0
 11
-2823.000269606305
 21
-709.7500838202425
 31
0.0
  0
LINE
  5
38A
330
1F
100
AcDbEntity
  8
0-3_仕上げ
  6
Continuous
 62
     7
370
     9
100
AcDbLine
 10
-3377.000269606308
 20
-2692.750083820243
 30
0.0
 11
-3377.000269606308
 21
-709.7500838202425
 31
0.0
  0
LINE
  5
38B
330
1F
100
AcDbEntity
  8
0-3_仕上げ
  6
Continuous
 62
     7
370
     9
100
AcDbLine
 10
-3374.000269606307
 20
-843.750083820242
 30
0.0
 11
-3374.000269606307
 21
-709.7500838202425
 31
0.0
  0
LINE
  5
38C
330
1F
100
AcDbEntity
  8
0-3_仕上げ
  6
Continuous
 62
     7
370
     9
100
AcDbLine
 10
-3375.500269606306
 20
-845.250083820242
 30
0.0
 11
-3375.500269606306
 21
-709.7500838202425
 31
0.0
  0
LINE
  5
38D
330
1F
100
AcDbEntity
  8
0-3_仕上げ
  6
Continuous
 62
     7
370
     9
100
AcDbLine
 10
-2824.500269606306
 20
-845.2500838202424
 30
0.0
 11
-2824.500269606306
 21
-709.7500838202425
 31
0.0
  0
LINE
  5
38E
330
1F
100
AcDbEntity
  8
0-3_仕上げ
  6
Continuous
 62
     7
370
     9
100
AcDbLine
 10
-2826.000269606306
 20
-843.750083820242
 30
0.0
 11
-2826.000269606306
 21
-709.7500838202425
 31
0.0
  0
LINE
  5
38F
330
1F
100
AcDbEntity
  8
0-3_仕上げ
  6
Continuous
 62
     7
370
     9
100
AcDbLine
 10
-2564.000269606304
 20
-2692.750083820243
 30
0.0
 11
-2564.000269606304
 21
-2496.750083820243
 31
0.0
  0
LINE
  5
390
330
1F
100
AcDbEntity
  8
0-3_仕上げ
  6
Continuous
 62
    92
370
    13
100
AcDbLine
 10
-2563.000269606305
 20
-2492.750083820243
 30
0.0
 11
-2563.000269606305
 21
-847.7500838202423
 31
0.0
  0
LINE
  5
391
330
1F
100
AcDbEntity
  8
0-3_仕上げ
  6
Continuous
 62
    92
370
    13
100
AcDbLine
 10
-2017.000269606305
 20
-847.7500838202423
 30
0.0
 11
-2563.000269606305
 21
-847.7500838202423
 31
0.0
  0
LINE
  5
392
330
1F
100
AcDbEntity
  8
0-3_仕上げ
  6
Continuous
 62
    92
370
    13
100
AcDbLine
 10
-2017.000269606305
 20
-2492.750083820243
 30
0.0
 11
-2563.000269606305
 21
-2492.750083820243
 31
0.0
  0
LINE
  5
393
330
1F
100
AcDbEntity
  8
0-3_仕上げ
  6
Continuous
 62
    92
370
    13
100
AcDbLine
 10
-2017.000269606305
 20
-2492.750083820243
 30
0.0
 11
-2017.000269606305
 21
-847.7500838202423
 31
0.0
  0
LINE
  5
394
330
1F
100
AcDbEntity
  8
0-3_仕上げ
  6
Continuous
 62
     7
370
     9
100
AcDbLine
 10
-2016.000269606304
 20
-2496.750083820243
 30
0.0
 11
-2014.500269606304
 21
-2495.250083820242
 31
0.0
  0
LINE
  5
395
330
1F
100
AcDbEntity
  8
0-3_仕上げ
  6
Continuous
 62
     7
370
     9
100
AcDbLine
 10
-2564.000269606304
 20
-843.750083820242
 30
0.0
 11
-2565.500269606304
 21
-845.2500838202424
 31
0.0
  0
LINE
  5
396
330
1F
100
AcDbEntity
  8
0-3_仕上げ
  6
Continuous
 62
     7
370
     9
100
AcDbLine
 10
-2014.500269606304
 20
-845.2500838202424
 30
0.0
 11
-2017.000269606305
 21
-847.7500838202423
 31
0.0
  0
LINE
  5
397
330
1F
100
AcDbEntity
  8
0-3_仕上げ
  6
Continuous
 62
     7
370
     9
100
AcDbLine
 10
-2563.000269606303
 20
-847.7500838202423
 30
0.0
 11
-2565.500269606304
 21
-845.250083820242
 31
0.0
  0
LINE
  5
398
330
1F
100
AcDbEntity
  8
0-3_仕上げ
  6
Continuous
 62
     7
370
     9
100
AcDbLine
 10
-2016.000269606304
 20
-843.750083820242
 30
0.0
 11
-2014.500269606304
 21
-845.2500838202424
 31
0.0
  0
LINE
  5
399
330
1F
100
AcDbEntity
  8
0-3_仕上げ
  6
Continuous
 62
     7
370
     9
100
AcDbLine
 10
-2016.000269606304
 20
-843.750083820242
 30
0.0
 11
-2564.000269606304
 21
-843.750083820242
 31
0.0
  0
LINE
  5
39A
330
1F
100
AcDbEntity
  8
0-3_仕上げ
  6
Continuous
 62
     7
370
     9
100
AcDbLine
 10
-2014.500269606304
 20
-2692.750083820243
 30
0.0
 11
-2014.500269606304
 21
-2495.250083820243
 31
0.0
  0
LINE
  5
39B
330
1F
100
AcDbEntity
  8
0-3_仕上げ
  6
Continuous
 62
     7
370
     9
100
AcDbLine
 10
-2017.000269606305
 20
-2492.750083820243
 30
0.0
 11
-2014.500269606304
 21
-2495.250083820243
 31
0.0
  0
LINE
  5
39C
330
1F
100
AcDbEntity
  8
0-3_仕上げ
  6
Continuous
 62
     7
370
     9
100
AcDbLine
 10
-2016.000269606304
 20
-2692.750083820243
 30
0.0
 11
-2016.000269606304
 21
-2496.750083820243
 31
0.0
  0
LINE
  5
39D
330
1F
100
AcDbEntity
  8
0-3_仕上げ
  6
Continuous
 62
     7
370
     9
100
AcDbLine
 10
-2016.000269606304
 20
-2496.750083820243
 30
0.0
 11
-2564.000269606304
 21
-2496.750083820243
 31
0.0
  0
LINE
  5
39E
330
1F
100
AcDbEntity
  8
0-3_仕上げ
  6
Continuous
 62
     7
370
     9
100
AcDbLine
 10
-2564.000269606304
 20
-2496.750083820243
 30
0.0
 11
-2565.500269606304
 21
-2495.250083820242
 31
0.0
  0
LINE
  5
39F
330
1F
100
AcDbEntity
  8
0-3_仕上げ
  6
Continuous
 62
     7
370
     9
100
AcDbLine
 10
-2565.500269606304
 20
-2495.250083820242
 30
0.0
 11
-2563.000269606305
 21
-2492.750083820243
 31
0.0
  0
LINE
  5
3A0
330
1F
100
AcDbEntity
  8
0-3_仕上げ
  6
Continuous
 62
     7
370
     9
100
AcDbLine
 10
-2565.500269606304
 20
-2692.750083820243
 30
0.0
 11
-2565.500269606304
 21
-2495.250083820242
 31
0.0
  0
LINE
  5
3A1
330
1F
100
AcDbEntity
  8
0-3_仕上げ
  6
Continuous
 62
     7
370
     9
100
AcDbLine
 10
-2013.000269606304
 20
-2692.750083820243
 30
0.0
 11
-2013.000269606304
 21
-709.7500838202425
 31
0.0
  0
LINE
  5
3A2
330
1F
100
AcDbEntity
  8
0-3_仕上げ
  6
Continuous
 62
     7
370
     9
100
AcDbLine
 10
-2567.000269606305
 20
-2692.750083820243
 30
0.0
 11
-2567.000269606305
 21
-709.7500838202425
 31
0.0
  0
LINE
  5
3A3
330
1F
100
AcDbEntity
  8
0-3_仕上げ
  6
Continuous
 62
     7
370
     9
100
AcDbLine
 10
-2564.000269606304
 20
-843.750083820242
 30
0.0
 11
-2564.000269606304
 21
-709.7500838202425
 31
0.0
  0
LINE
  5
3A4
330
1F
100
AcDbEntity
  8
0-3_仕上げ
  6
Continuous
 62
     7
370
     9
100
AcDbLine
 10
-2565.500269606304
 20
-845.250083820242
 30
0.0
 11
-2565.500269606304
 21
-709.7500838202425
 31
0.0
  0
LINE
  5
3A5
330
1F
100
AcDbEntity
  8
0-3_仕上げ
  6
Continuous
 62
     7
370
     9
100
AcDbLine
 10
-2014.500269606304
 20
-845.2500838202424
 30
0.0
 11
-2014.500269606304
 21
-709.7500838202425
 31
0.0
  0
LINE
  5
3A6
330
1F
100
AcDbEntity
  8
0-3_仕上げ
  6
Continuous
 62
     7
370
     9
100
AcDbLine
 10
-2016.000269606304
 20
-843.750083820242
 30
0.0
 11
-2016.000269606304
 21
-709.7500838202425
 31
0.0
  0
MTEXT
  5
3A7
330
1F
100
AcDbEntity
  8
0-A_文字
  6
Continuous
 62
     7
370
     9
100
AcDbMText
 10
219.9994793453735
 20
-3438.925017526989
 30
0.0
 40
57.15000000000006
 41
675.0000000000007
 46
0.0
 71
     7
 72
     1
  1
{\fＭＳ ゴシック|b0|i0|c128|p49;ミスト熱処理ガラス}
 73
     1
 44
1.0
  0
LINE
  5
3A8
330
1F
100
AcDbEntity
  8
0-C_ハッチ
  6
Continuous
 62
   120
370
     5
100
AcDbLine
 10
2553.999228297054
 20
-2487.750083820242
 30
0.0
 11
2773.499228297052
 21
-2487.750083820242
 31
0.0
  0
LINE
  5
3A9
330
1F
100
AcDbEntity
  8
0-C_ハッチ
  6
Continuous
 62
   120
370
     5
100
AcDbLine
 10
2425.999228297055
 20
-2487.750083820242
 30
0.0
 11
2206.499228297053
 21
-2487.750083820242
 31
0.0
  0
LINE
  5
3AA
330
1F
100
AcDbEntity
  8
0-C_ハッチ
  6
Continuous
 62
   120
370
     5
100
AcDbLine
 10
2206.499228297053
 20
-864.7500838202426
 30
0.0
 11
2425.999228297055
 21
-864.7500838202426
 31
0.0
  0
LINE
  5
3AB
330
1F
100
AcDbEntity
  8
0-C_ハッチ
  6
Continuous
 62
   120
370
     5
100
AcDbLine
 10
2553.999228297054
 20
-864.7500838202426
 30
0.0
 11
2773.499228297052
 21
-864.7500838202426
 31
0.0
  0
LINE
  5
3AC
330
1F
100
AcDbEntity
  8
0-C_ハッチ
  6
Continuous
 62
   120
370
     5
100
AcDbLine
 10
2553.999228297054
 20
-864.7500838202426
 30
0.0
 11
2553.999228297054
 21
-2487.750083820242
 31
0.0
  0
LINE
  5
3AD
330
1F
100
AcDbEntity
  8
0-C_ハッチ
  6
Continuous
 62
   120
370
     5
100
AcDbLine
 10
2773.499228297052
 20
-864.7500838202426
 30
0.0
 11
2773.499228297052
 21
-2487.750083820242
 31
0.0
  0
LINE
  5
3AE
330
1F
100
AcDbEntity
  8
0-C_ハッチ
  6
Continuous
 62
   120
370
     5
100
AcDbLine
 10
2425.999228297055
 20
-864.7500838202426
 30
0.0
 11
2425.999228297055
 21
-2487.750083820242
 31
0.0
  0
LINE
  5
3AF
330
1F
100
AcDbEntity
  8
0-C_ハッチ
  6
Continuous
 62
   120
370
     5
100
AcDbLine
 10
2206.499228297053
 20
-864.7500838202426
 30
0.0
 11
2206.499228297053
 21
-2487.750083820242
 31
0.0
  0
LINE
  5
3B0
330
1F
100
AcDbEntity
  8
0-C_ハッチ
  6
Continuous
 62
   120
370
     5
100
AcDbLine
 10
3363.999228297052
 20
-2487.750083820242
 30
0.0
 11
3583.499228297052
 21
-2487.750083820242
 31
0.0
  0
LINE
  5
3B1
330
1F
100
AcDbEntity
  8
0-C_ハッチ
  6
Continuous
 62
   120
370
     5
100
AcDbLine
 10
3235.999228297053
 20
-2487.750083820242
 30
0.0
 11
3016.499228297053
 21
-2487.750083820242
 31
0.0
  0
LINE
  5
3B2
330
1F
100
AcDbEntity
  8
0-C_ハッチ
  6
Continuous
 62
   120
370
     5
100
AcDbLine
 10
3016.499228297053
 20
-864.7500838202426
 30
0.0
 11
3235.999228297053
 21
-864.7500838202426
 31
0.0
  0
LINE
  5
3B3
330
1F
100
AcDbEntity
  8
0-C_ハッチ
  6
Continuous
 62
   120
370
     5
100
AcDbLine
 10
3363.999228297052
 20
-864.7500838202426
 30
0.0
 11
3363.999228297052
 21
-2487.750083820242
 31
0.0
  0
LINE
  5
3B4
330
1F
100
AcDbEntity
  8
0-C_ハッチ
  6
Continuous
 62
   120
370
     5
100
AcDbLine
 10
3583.499228297052
 20
-864.7500838202426
 30
0.0
 11
3583.499228297052
 21
-2487.750083820242
 31
0.0
  0
LINE
  5
3B5
330
1F
100
AcDbEntity
  8
0-C_ハッチ
  6
Continuous
 62
   120
370
     5
100
AcDbLine
 10
3235.999228297053
 20
-864.7500838202426
 30
0.0
 11
3235.999228297053
 21
-2487.750083820242
 31
0.0
  0
LINE
  5
3B6
330
1F
100
AcDbEntity
  8
0-C_ハッチ
  6
Continuous
 62
   120
370
     5
100
AcDbLine
 10
3016.499228297053
 20
-864.7500838202426
 30
0.0
 11
3016.499228297053
 21
-2487.750083820242
 31
0.0
  0
LINE
  5
3B7
330
1F
100
AcDbEntity
  8
0-3_仕上げ
  6
Continuous
 62
    92
370
    13
100
AcDbLine
 10
2545.999228297055
 20
-2495.750083820242
 30
0.0
 11
2781.499228297053
 21
-2495.750083820242
 31
0.0
  0
LINE
  5
3B8
330
1F
100
AcDbEntity
  8
0-3_仕上げ
  6
Continuous
 62
     7
370
     9
100
AcDbLine
 10
2793.499228297053
 20
-2507.750083820243
 30
0.0
 11
2186.499228297054
 21
-2507.750083820243
 31
0.0
  0
LINE
  5
3B9
330
1F
100
AcDbEntity
  8
0-3_仕上げ
  6
Continuous
 62
    92
370
    13
100
AcDbLine
 10
2433.999228297054
 20
-2495.750083820242
 30
0.0
 11
2198.49922829705
 21
-2495.750083820242
 31
0.0
  0
LINE
  5
3BA
330
1F
100
AcDbEntity
  8
0-3_仕上げ
  6
Continuous
 62
     7
370
     9
100
AcDbLine
 10
2198.49922829705
 20
-2495.750083820242
 30
0.0
 11
2186.499228297054
 21
-2507.750083820243
 31
0.0
  0
LINE
  5
3BB
330
1F
100
AcDbEntity
  8
0-3_仕上げ
  6
Continuous
 62
     7
370
     9
100
AcDbLine
 10
2433.999228297054
 20
-2495.750083820242
 30
0.0
 11
2445.999228297053
 21
-2507.750083820243
 31
0.0
  0
LINE
  5
3BC
330
1F
100
AcDbEntity
  8
0-3_仕上げ
  6
Continuous
 62
     7
370
     9
100
AcDbLine
 10
2545.999228297055
 20
-2495.750083820242
 30
0.0
 11
2533.999228297052
 21
-2507.750083820243
 31
0.0
  0
LINE
  5
3BD
330
1F
100
AcDbEntity
  8
0-3_仕上げ
  6
Continuous
 62
     7
370
     9
100
AcDbLine
 10
2781.499228297053
 20
-2495.750083820242
 30
0.0
 11
2793.499228297053
 21
-2507.750083820243
 31
0.0
  0
LINE
  5
3BE
330
1F
100
AcDbEntity
  8
0-3_仕上げ
  6
Continuous
 62
     7
370
     9
100
AcDbLine
 10
2793.499228297053
 20
-2692.750083820242
 30
0.0
 11
2793.499228297053
 21
-709.7500838202425
 31
0.0
  0
LINE
  5
3BF
330
1F
100
AcDbEntity
  8
0-3_仕上げ
  6
Continuous
 62
     7
370
     9
100
AcDbLine
 10
2186.499228297054
 20
-2692.750083820242
 30
0.0
 11
2186.499228297054
 21
-709.7500838202425
 31
0.0
  0
LINE
  5
3C0
330
1F
100
AcDbEntity
  8
0-3_仕上げ
  6
Continuous
 62
    92
370
    13
100
AcDbLine
 10
2198.49922829705
 20
-856.750083820243
 30
0.0
 11
2433.999228297054
 21
-856.750083820243
 31
0.0
  0
LINE
  5
3C1
330
1F
100
AcDbEntity
  8
0-3_仕上げ
  6
Continuous
 62
     7
370
     9
100
AcDbLine
 10
2186.499228297054
 20
-844.7500838202425
 30
0.0
 11
2793.499228297053
 21
-844.7500838202425
 31
0.0
  0
LINE
  5
3C2
330
1F
100
AcDbEntity
  8
0-3_仕上げ
  6
Continuous
 62
    92
370
    13
100
AcDbLine
 10
2545.999228297055
 20
-856.750083820243
 30
0.0
 11
2781.499228297053
 21
-856.750083820243
 31
0.0
  0
LINE
  5
3C3
330
1F
100
AcDbEntity
  8
0-3_仕上げ
  6
Continuous
 62
     7
370
     9
100
AcDbLine
 10
2186.499228297054
 20
-844.7500838202425
 30
0.0
 11
2198.49922829705
 21
-856.750083820243
 31
0.0
  0
LINE
  5
3C4
330
1F
100
AcDbEntity
  8
0-3_仕上げ
  6
Continuous
 62
     7
370
     9
100
AcDbLine
 10
2445.999228297053
 20
-844.7500838202425
 30
0.0
 11
2433.999228297054
 21
-856.750083820243
 31
0.0
  0
LINE
  5
3C5
330
1F
100
AcDbEntity
  8
0-3_仕上げ
  6
Continuous
 62
     7
370
     9
100
AcDbLine
 10
2533.999228297052
 20
-844.7500838202425
 30
0.0
 11
2545.999228297055
 21
-856.750083820243
 31
0.0
  0
LINE
  5
3C6
330
1F
100
AcDbEntity
  8
0-3_仕上げ
  6
Continuous
 62
     7
370
     9
100
AcDbLine
 10
2793.499228297053
 20
-844.7500838202425
 30
0.0
 11
2781.499228297053
 21
-856.750083820243
 31
0.0
  0
LINE
  5
3C7
330
1F
100
AcDbEntity
  8
0-3_仕上げ
  6
Continuous
 62
     7
370
     9
100
AcDbLine
 10
2533.999228297052
 20
-844.7500838202425
 30
0.0
 11
2533.999228297052
 21
-2507.750083820243
 31
0.0
  0
LINE
  5
3C8
330
1F
100
AcDbEntity
  8
0-3_仕上げ
  6
Continuous
 62
    92
370
    13
100
AcDbLine
 10
2545.999228297055
 20
-856.750083820243
 30
0.0
 11
2545.999228297055
 21
-2495.750083820242
 31
0.0
  0
LINE
  5
3C9
330
1F
100
AcDbEntity
  8
0-3_仕上げ
  6
Continuous
 62
    92
370
    13
100
AcDbLine
 10
2781.499228297053
 20
-856.750083820243
 30
0.0
 11
2781.499228297053
 21
-2495.750083820242
 31
0.0
  0
LINE
  5
3CA
330
1F
100
AcDbEntity
  8
0-3_仕上げ
  6
Continuous
 62
    92
370
    13
100
AcDbLine
 10
2433.999228297054
 20
-856.750083820243
 30
0.0
 11
2433.999228297054
 21
-2495.750083820242
 31
0.0
  0
LINE
  5
3CB
330
1F
100
AcDbEntity
  8
0-3_仕上げ
  6
Continuous
 62
     7
370
     9
100
AcDbLine
 10
2445.999228297053
 20
-844.7500838202425
 30
0.0
 11
2445.999228297053
 21
-2507.750083820243
 31
0.0
  0
LINE
  5
3CC
330
1F
100
AcDbEntity
  8
0-3_仕上げ
  6
Continuous
 62
    92
370
    13
100
AcDbLine
 10
2198.49922829705
 20
-856.750083820243
 30
0.0
 11
2198.49922829705
 21
-2495.750083820242
 31
0.0
  0
LINE
  5
3CD
330
1F
100
AcDbEntity
  8
0-3_仕上げ
  6
Continuous
 62
    92
370
    13
100
AcDbLine
 10
3355.999228297053
 20
-2495.750083820242
 30
0.0
 11
3591.499228297053
 21
-2495.750083820242
 31
0.0
  0
LINE
  5
3CE
330
1F
100
AcDbEntity
  8
0-3_仕上げ
  6
Continuous
 62
     7
370
     9
100
AcDbLine
 10
3603.499228297053
 20
-2507.750083820243
 30
0.0
 11
2996.499228297052
 21
-2507.750083820243
 31
0.0
  0
LINE
  5
3CF
330
1F
100
AcDbEntity
  8
0-3_仕上げ
  6
Continuous
 62
     7
370
     9
100
AcDbLine
 10
3008.499228297052
 20
-2495.750083820242
 30
0.0
 11
2996.499228297052
 21
-2507.750083820243
 31
0.0
  0
LINE
  5
3D0
330
1F
100
AcDbEntity
  8
0-3_仕上げ
  6
Continuous
 62
     7
370
     9
100
AcDbLine
 10
3243.999228297052
 20
-2495.750083820242
 30
0.0
 11
3255.999228297053
 21
-2507.750083820243
 31
0.0
  0
LINE
  5
3D1
330
1F
100
AcDbEntity
  8
0-3_仕上げ
  6
Continuous
 62
     7
370
     9
100
AcDbLine
 10
3355.999228297053
 20
-2495.750083820242
 30
0.0
 11
3343.999228297052
 21
-2507.750083820243
 31
0.0
  0
LINE
  5
3D2
330
1F
100
AcDbEntity
  8
0-3_仕上げ
  6
Continuous
 62
     7
370
     9
100
AcDbLine
 10
3591.499228297053
 20
-2495.750083820242
 30
0.0
 11
3603.499228297053
 21
-2507.750083820243
 31
0.0
  0
LINE
  5
3D3
330
1F
100
AcDbEntity
  8
0-3_仕上げ
  6
Continuous
 62
     7
370
     9
100
AcDbLine
 10
3603.499228297053
 20
-2692.750083820242
 30
0.0
 11
3603.499228297053
 21
-709.7500838202425
 31
0.0
  0
LINE
  5
3D4
330
1F
100
AcDbEntity
  8
0-3_仕上げ
  6
Continuous
 62
     7
370
     9
100
AcDbLine
 10
2996.499228297052
 20
-2692.750083820242
 30
0.0
 11
2996.499228297052
 21
-709.7500838202425
 31
0.0
  0
LINE
  5
3D5
330
1F
100
AcDbEntity
  8
0-3_仕上げ
  6
Continuous
 62
    92
370
    13
100
AcDbLine
 10
3008.499228297052
 20
-856.750083820243
 30
0.0
 11
3243.999228297052
 21
-856.750083820243
 31
0.0
  0
LINE
  5
3D6
330
1F
100
AcDbEntity
  8
0-3_仕上げ
  6
Continuous
 62
     7
370
     9
100
AcDbLine
 10
2996.499228297052
 20
-844.7500838202425
 30
0.0
 11
3603.499228297053
 21
-844.7500838202425
 31
0.0
  0
LINE
  5
3D7
330
1F
100
AcDbEntity
  8
0-3_仕上げ
  6
Continuous
 62
    92
370
    13
100
AcDbLine
 10
3355.999228297053
 20
-856.750083820243
 30
0.0
 11
3591.499228297053
 21
-856.750083820243
 31
0.0
  0
LINE
  5
3D8
330
1F
100
AcDbEntity
  8
0-3_仕上げ
  6
Continuous
 62
     7
370
     9
100
AcDbLine
 10
2996.499228297052
 20
-844.7500838202425
 30
0.0
 11
3008.499228297052
 21
-856.750083820243
 31
0.0
  0
LINE
  5
3D9
330
1F
100
AcDbEntity
  8
0-3_仕上げ
  6
Continuous
 62
     7
370
     9
100
AcDbLine
 10
3255.999228297053
 20
-844.7500838202425
 30
0.0
 11
3243.999228297052
 21
-856.750083820243
 31
0.0
  0
LINE
  5
3DA
330
1F
100
AcDbEntity
  8
0-3_仕上げ
  6
Continuous
 62
     7
370
     9
100
AcDbLine
 10
3343.999228297052
 20
-844.7500838202425
 30
0.0
 11
3355.999228297053
 21
-856.750083820243
 31
0.0
  0
LINE
  5
3DB
330
1F
100
AcDbEntity
  8
0-3_仕上げ
  6
Continuous
 62
     7
370
     9
100
AcDbLine
 10
3603.499228297053
 20
-844.7500838202425
 30
0.0
 11
3591.499228297053
 21
-856.750083820243
 31
0.0
  0
LINE
  5
3DC
330
1F
100
AcDbEntity
  8
0-3_仕上げ
  6
Continuous
 62
     7
370
     9
100
AcDbLine
 10
3343.999228297052
 20
-844.7500838202425
 30
0.0
 11
3343.999228297052
 21
-2507.750083820243
 31
0.0
  0
LINE
  5
3DD
330
1F
100
AcDbEntity
  8
0-3_仕上げ
  6
Continuous
 62
    92
370
    13
100
AcDbLine
 10
3355.999228297053
 20
-856.750083820243
 30
0.0
 11
3355.999228297053
 21
-2495.750083820242
 31
0.0
  0
LINE
  5
3DE
330
1F
100
AcDbEntity
  8
0-3_仕上げ
  6
Continuous
 62
    92
370
    13
100
AcDbLine
 10
3591.499228297053
 20
-856.750083820243
 30
0.0
 11
3591.499228297053
 21
-2495.750083820242
 31
0.0
  0
LINE
  5
3DF
330
1F
100
AcDbEntity
  8
0-3_仕上げ
  6
Continuous
 62
    92
370
    13
100
AcDbLine
 10
3243.999228297052
 20
-856.750083820243
 30
0.0
 11
3243.999228297052
 21
-2495.750083820242
 31
0.0
  0
LINE
  5
3E0
330
1F
100
AcDbEntity
  8
0-3_仕上げ
  6
Continuous
 62
     7
370
     9
100
AcDbLine
 10
3255.999228297053
 20
-844.7500838202425
 30
0.0
 11
3255.999228297053
 21
-2507.750083820243
 31
0.0
  0
LINE
  5
3E1
330
1F
100
AcDbEntity
  8
0-3_仕上げ
  6
Continuous
 62
    92
370
    13
100
AcDbLine
 10
3008.499228297052
 20
-856.750083820243
 30
0.0
 11
3008.499228297052
 21
-2495.750083820242
 31
0.0
  0
LINE
  5
3E2
330
1F
100
AcDbEntity
  8
0-C_ハッチ
  6
JWW_DASHED1
 62
   120
370
     5
100
AcDbLine
 10
2206.499228297053
 20
-871.939541723582
 30
0.0
 11
2213.688686200392
 21
-864.7500838202426
 31
0.0
  0
LINE
  5
3E3
330
1F
100
AcDbEntity
  8
0-C_ハッチ
  6
JWW_DASHED1
 62
   120
370
     5
100
AcDbLine
 10
2206.499228297053
 20
-1084.071576079578
 30
0.0
 11
2425.820720556392
 21
-864.7500838202426
 31
0.0
  0
LINE
  5
3E4
330
1F
100
AcDbEntity
  8
0-C_ハッチ
  6
JWW_DASHED1
 62
   120
370
     5
100
AcDbLine
 10
2206.499228297053
 20
-1069.929440455847
 30
0.0
 11
2411.678584932658
 21
-864.7500838202426
 31
0.0
  0
LINE
  5
3E5
330
1F
100
AcDbEntity
  8
0-C_ハッチ
  6
JWW_DASHED1
 62
   120
370
     5
100
AcDbLine
 10
2206.499228297053
 20
-1055.787304832114
 30
0.0
 11
2397.536449308926
 21
-864.7500838202426
 31
0.0
  0
LINE
  5
3E6
330
1F
100
AcDbEntity
  8
0-C_ハッチ
  6
JWW_DASHED1
 62
   120
370
     5
100
AcDbLine
 10
2206.499228297053
 20
-1041.645169208382
 30
0.0
 11
2383.394313685189
 21
-864.7500838202426
 31
0.0
  0
LINE
  5
3E7
330
1F
100
AcDbEntity
  8
0-C_ハッチ
  6
JWW_DASHED1
 62
   120
370
     5
100
AcDbLine
 10
2206.499228297053
 20
-1027.503033584648
 30
0.0
 11
2369.252178061457
 21
-864.7500838202426
 31
0.0
  0
LINE
  5
3E8
330
1F
100
AcDbEntity
  8
0-C_ハッチ
  6
JWW_DASHED1
 62
   120
370
     5
100
AcDbLine
 10
2206.499228297053
 20
-1013.360897960914
 30
0.0
 11
2355.110042437723
 21
-864.7500838202426
 31
0.0
  0
LINE
  5
3E9
330
1F
100
AcDbEntity
  8
0-C_ハッチ
  6
JWW_DASHED1
 62
   120
370
     5
100
AcDbLine
 10
2206.499228297053
 20
-999.2187623371784
 30
0.0
 11
2340.967906813991
 21
-864.7500838202426
 31
0.0
  0
LINE
  5
3EA
330
1F
100
AcDbEntity
  8
0-C_ハッチ
  6
JWW_DASHED1
 62
   120
370
     5
100
AcDbLine
 10
2206.499228297053
 20
-985.076626713449
 30
0.0
 11
2326.825771190257
 21
-864.7500838202426
 31
0.0
  0
LINE
  5
3EB
330
1F
100
AcDbEntity
  8
0-C_ハッチ
  6
JWW_DASHED1
 62
   120
370
     5
100
AcDbLine
 10
2206.499228297053
 20
-970.9344910897139
 30
0.0
 11
2312.683635566526
 21
-864.7500838202426
 31
0.0
  0
LINE
  5
3EC
330
1F
100
AcDbEntity
  8
0-C_ハッチ
  6
JWW_DASHED1
 62
   120
370
     5
100
AcDbLine
 10
2206.499228297053
 20
-956.7923554659808
 30
0.0
 11
2298.541499942791
 21
-864.7500838202426
 31
0.0
  0
LINE
  5
3ED
330
1F
100
AcDbEntity
  8
0-C_ハッチ
  6
JWW_DASHED1
 62
   120
370
     5
100
AcDbLine
 10
2206.499228297053
 20
-942.650219842247
 30
0.0
 11
2284.399364319058
 21
-864.7500838202426
 31
0.0
  0
LINE
  5
3EE
330
1F
100
AcDbEntity
  8
0-C_ハッチ
  6
JWW_DASHED1
 62
   120
370
     5
100
AcDbLine
 10
2206.499228297053
 20
-928.5080842185141
 30
0.0
 11
2270.257228695325
 21
-864.7500838202426
 31
0.0
  0
LINE
  5
3EF
330
1F
100
AcDbEntity
  8
0-C_ハッチ
  6
JWW_DASHED1
 62
   120
370
     5
100
AcDbLine
 10
2206.499228297053
 20
-914.365948594781
 30
0.0
 11
2256.11509307159
 21
-864.7500838202426
 31
0.0
  0
LINE
  5
3F0
330
1F
100
AcDbEntity
  8
0-C_ハッチ
  6
JWW_DASHED1
 62
   120
370
     5
100
AcDbLine
 10
2206.499228297053
 20
-900.2238129710473
 30
0.0
 11
2241.972957447857
 21
-864.7500838202426
 31
0.0
  0
LINE
  5
3F1
330
1F
100
AcDbEntity
  8
0-C_ハッチ
  6
JWW_DASHED1
 62
   120
370
     5
100
AcDbLine
 10
2206.499228297053
 20
-886.081677347314
 30
0.0
 11
2227.830821824124
 21
-864.7500838202426
 31
0.0
  0
LINE
  5
3F2
330
1F
100
AcDbEntity
  8
0-C_ハッチ
  6
JWW_DASHED1
 62
   120
370
     5
100
AcDbLine
 10
2553.999228297054
 20
-871.9395417235795
 30
0.0
 11
2561.188686200392
 21
-864.7500838202426
 31
0.0
  0
LINE
  5
3F3
330
1F
100
AcDbEntity
  8
0-C_ハッチ
  6
JWW_DASHED1
 62
   120
370
     5
100
AcDbLine
 10
2553.999228297054
 20
-1084.071576079582
 30
0.0
 11
2773.320720556391
 21
-864.7500838202426
 31
0.0
  0
LINE
  5
3F4
330
1F
100
AcDbEntity
  8
0-C_ハッチ
  6
JWW_DASHED1
 62
   120
370
     5
100
AcDbLine
 10
2553.999228297054
 20
-1069.929440455847
 30
0.0
 11
2759.178584932657
 21
-864.7500838202426
 31
0.0
  0
LINE
  5
3F5
330
1F
100
AcDbEntity
  8
0-C_ハッチ
  6
JWW_DASHED1
 62
   120
370
     5
100
AcDbLine
 10
2553.999228297054
 20
-1055.787304832114
 30
0.0
 11
2745.036449308925
 21
-864.7500838202426
 31
0.0
  0
LINE
  5
3F6
330
1F
100
AcDbEntity
  8
0-C_ハッチ
  6
JWW_DASHED1
 62
   120
370
     5
100
AcDbLine
 10
2553.999228297054
 20
-1041.645169208378
 30
0.0
 11
2730.894313685192
 21
-864.7500838202426
 31
0.0
  0
LINE
  5
3F7
330
1F
100
AcDbEntity
  8
0-C_ハッチ
  6
JWW_DASHED1
 62
   120
370
     5
100
AcDbLine
 10
2553.999228297054
 20
-1027.503033584648
 30
0.0
 11
2716.752178061459
 21
-864.7500838202426
 31
0.0
  0
LINE
  5
3F8
330
1F
100
AcDbEntity
  8
0-C_ハッチ
  6
JWW_DASHED1
 62
   120
370
     5
100
AcDbLine
 10
2553.999228297054
 20
-1013.360897960914
 30
0.0
 11
2702.610042437725
 21
-864.7500838202426
 31
0.0
  0
LINE
  5
3F9
330
1F
100
AcDbEntity
  8
0-C_ハッチ
  6
JWW_DASHED1
 62
   120
370
     5
100
AcDbLine
 10
2553.999228297054
 20
-999.2187623371815
 30
0.0
 11
2688.467906813991
 21
-864.7500838202426
 31
0.0
  0
LINE
  5
3FA
330
1F
100
AcDbEntity
  8
0-C_ハッチ
  6
JWW_DASHED1
 62
   120
370
     5
100
AcDbLine
 10
2553.999228297054
 20
-985.0766267134458
 30
0.0
 11
2674.325771190257
 21
-864.7500838202426
 31
0.0
  0
LINE
  5
3FB
330
1F
100
AcDbEntity
  8
0-C_ハッチ
  6
JWW_DASHED1
 62
   120
370
     5
100
AcDbLine
 10
2553.999228297054
 20
-970.9344910897137
 30
0.0
 11
2660.183635566525
 21
-864.7500838202426
 31
0.0
  0
LINE
  5
3FC
330
1F
100
AcDbEntity
  8
0-C_ハッチ
  6
JWW_DASHED1
 62
   120
370
     5
100
AcDbLine
 10
2553.999228297054
 20
-956.7923554659808
 30
0.0
 11
2646.041499942792
 21
-864.7500838202426
 31
0.0
  0
LINE
  5
3FD
330
1F
100
AcDbEntity
  8
0-C_ハッチ
  6
JWW_DASHED1
 62
   120
370
     5
100
AcDbLine
 10
2553.999228297054
 20
-942.650219842247
 30
0.0
 11
2631.899364319059
 21
-864.7500838202426
 31
0.0
  0
LINE
  5
3FE
330
1F
100
AcDbEntity
  8
0-C_ハッチ
  6
JWW_DASHED1
 62
   120
370
     5
100
AcDbLine
 10
2553.999228297054
 20
-928.508084218514
 30
0.0
 11
2617.757228695325
 21
-864.7500838202426
 31
0.0
  0
LINE
  5
3FF
330
1F
100
AcDbEntity
  8
0-C_ハッチ
  6
JWW_DASHED1
 62
   120
370
     5
100
AcDbLine
 10
2553.999228297054
 20
-914.365948594781
 30
0.0
 11
2603.615093071591
 21
-864.7500838202426
 31
0.0
  0
LINE
  5
400
330
1F
100
AcDbEntity
  8
0-C_ハッチ
  6
JWW_DASHED1
 62
   120
370
     5
100
AcDbLine
 10
2553.999228297054
 20
-900.2238129710473
 30
0.0
 11
2589.472957447859
 21
-864.7500838202426
 31
0.0
  0
LINE
  5
401
330
1F
100
AcDbEntity
  8
0-C_ハッチ
  6
JWW_DASHED1
 62
   120
370
     5
100
AcDbLine
 10
2553.999228297054
 20
-886.081677347314
 30
0.0
 11
2575.330821824125
 21
-864.7500838202426
 31
0.0
  0
LINE
  5
402
330
1F
100
AcDbEntity
  8
0-C_ハッチ
  6
JWW_DASHED1
 62
   120
370
     5
100
AcDbLine
 10
2206.499228297053
 20
-1098.213711703313
 30
0.0
 11
2425.999228297055
 21
-878.7137117033135
 31
0.0
  0
LINE
  5
403
330
1F
100
AcDbEntity
  8
0-C_ハッチ
  6
JWW_DASHED1
 62
   120
370
     5
100
AcDbLine
 10
2415.024181661664
 20
-2487.750083820242
 30
0.0
 11
2425.999228297055
 21
-2476.775037184852
 31
0.0
  0
LINE
  5
404
330
1F
100
AcDbEntity
  8
0-C_ハッチ
  6
JWW_DASHED1
 62
   120
370
     5
100
AcDbLine
 10
2206.499228297053
 20
-2484.143002828909
 30
0.0
 11
2425.999228297055
 21
-2264.643002828908
 31
0.0
  0
LINE
  5
405
330
1F
100
AcDbEntity
  8
0-C_ハッチ
  6
JWW_DASHED1
 62
   120
370
     5
100
AcDbLine
 10
2206.499228297053
 20
-2470.000867205175
 30
0.0
 11
2425.999228297055
 21
-2250.500867205174
 31
0.0
  0
LINE
  5
406
330
1F
100
AcDbEntity
  8
0-C_ハッチ
  6
JWW_DASHED1
 62
   120
370
     5
100
AcDbLine
 10
2206.499228297053
 20
-2455.858731581443
 30
0.0
 11
2425.999228297055
 21
-2236.358731581442
 31
0.0
  0
LINE
  5
407
330
1F
100
AcDbEntity
  8
0-C_ハッチ
  6
JWW_DASHED1
 62
   120
370
     5
100
AcDbLine
 10
2206.499228297053
 20
-2441.716595957708
 30
0.0
 11
2425.999228297055
 21
-2222.216595957705
 31
0.0
  0
LINE
  5
408
330
1F
100
AcDbEntity
  8
0-C_ハッチ
  6
JWW_DASHED1
 62
   120
370
     5
100
AcDbLine
 10
2206.499228297053
 20
-2427.574460333975
 30
0.0
 11
2425.999228297055
 21
-2208.074460333974
 31
0.0
  0
LINE
  5
409
330
1F
100
AcDbEntity
  8
0-C_ハッチ
  6
JWW_DASHED1
 62
   120
370
     5
100
AcDbLine
 10
2206.499228297053
 20
-2413.432324710242
 30
0.0
 11
2425.999228297055
 21
-2193.932324710239
 31
0.0
  0
LINE
  5
40A
330
1F
100
AcDbEntity
  8
0-C_ハッチ
  6
JWW_DASHED1
 62
   120
370
     5
100
AcDbLine
 10
2206.499228297053
 20
-2399.290189086509
 30
0.0
 11
2425.999228297055
 21
-2179.790189086505
 31
0.0
  0
LINE
  5
40B
330
1F
100
AcDbEntity
  8
0-C_ハッチ
  6
JWW_DASHED1
 62
   120
370
     5
100
AcDbLine
 10
2206.499228297053
 20
-2385.148053462775
 30
0.0
 11
2425.999228297055
 21
-2165.648053462774
 31
0.0
  0
LINE
  5
40C
330
1F
100
AcDbEntity
  8
0-C_ハッチ
  6
JWW_DASHED1
 62
   120
370
     5
100
AcDbLine
 10
2206.499228297053
 20
-2371.005917839042
 30
0.0
 11
2425.999228297055
 21
-2151.505917839041
 31
0.0
  0
LINE
  5
40D
330
1F
100
AcDbEntity
  8
0-C_ハッチ
  6
JWW_DASHED1
 62
   120
370
     5
100
AcDbLine
 10
2206.499228297053
 20
-2356.863782215308
 30
0.0
 11
2425.999228297055
 21
-2137.363782215305
 31
0.0
  0
LINE
  5
40E
330
1F
100
AcDbEntity
  8
0-C_ハッチ
  6
JWW_DASHED1
 62
   120
370
     5
100
AcDbLine
 10
2206.499228297053
 20
-2342.721646591576
 30
0.0
 11
2425.999228297055
 21
-2123.221646591574
 31
0.0
  0
LINE
  5
40F
330
1F
100
AcDbEntity
  8
0-C_ハッチ
  6
JWW_DASHED1
 62
   120
370
     5
100
AcDbLine
 10
2206.499228297053
 20
-2328.579510967841
 30
0.0
 11
2425.999228297055
 21
-2109.079510967838
 31
0.0
  0
LINE
  5
410
330
1F
100
AcDbEntity
  8
0-C_ハッチ
  6
JWW_DASHED1
 62
   120
370
     5
100
AcDbLine
 10
2206.499228297053
 20
-2314.437375344108
 30
0.0
 11
2425.999228297055
 21
-2094.937375344105
 31
0.0
  0
LINE
  5
411
330
1F
100
AcDbEntity
  8
0-C_ハッチ
  6
JWW_DASHED1
 62
   120
370
     5
100
AcDbLine
 10
2206.499228297053
 20
-2300.295239720375
 30
0.0
 11
2425.999228297055
 21
-2080.795239720372
 31
0.0
  0
LINE
  5
412
330
1F
100
AcDbEntity
  8
0-C_ハッチ
  6
JWW_DASHED1
 62
   120
370
     5
100
AcDbLine
 10
2206.499228297053
 20
-2286.153104096695
 30
0.0
 11
2425.999228297055
 21
-2066.653104096693
 31
0.0
  0
LINE
  5
413
330
1F
100
AcDbEntity
  8
0-C_ハッチ
  6
JWW_DASHED1
 62
   120
370
     5
100
AcDbLine
 10
2206.499228297053
 20
-2272.010968472963
 30
0.0
 11
2425.999228297055
 21
-2052.510968472961
 31
0.0
  0
LINE
  5
414
330
1F
100
AcDbEntity
  8
0-C_ハッチ
  6
JWW_DASHED1
 62
   120
370
     5
100
AcDbLine
 10
2206.499228297053
 20
-2257.86883284923
 30
0.0
 11
2425.999228297055
 21
-2038.368832849226
 31
0.0
  0
LINE
  5
415
330
1F
100
AcDbEntity
  8
0-C_ハッチ
  6
JWW_DASHED1
 62
   120
370
     5
100
AcDbLine
 10
2206.499228297053
 20
-2243.726697225496
 30
0.0
 11
2425.999228297055
 21
-2024.226697225493
 31
0.0
  0
LINE
  5
416
330
1F
100
AcDbEntity
  8
0-C_ハッチ
  6
JWW_DASHED1
 62
   120
370
     5
100
AcDbLine
 10
2206.499228297053
 20
-2229.58456160176
 30
0.0
 11
2425.999228297055
 21
-2010.08456160176
 31
0.0
  0
LINE
  5
417
330
1F
100
AcDbEntity
  8
0-C_ハッチ
  6
JWW_DASHED1
 62
   120
370
     5
100
AcDbLine
 10
2206.499228297053
 20
-2215.44242597803
 30
0.0
 11
2425.999228297055
 21
-1995.942425978027
 31
0.0
  0
LINE
  5
418
330
1F
100
AcDbEntity
  8
0-C_ハッチ
  6
JWW_DASHED1
 62
   120
370
     5
100
AcDbLine
 10
2206.499228297053
 20
-2201.300290354296
 30
0.0
 11
2425.999228297055
 21
-1981.800290354293
 31
0.0
  0
LINE
  5
419
330
1F
100
AcDbEntity
  8
0-C_ハッチ
  6
JWW_DASHED1
 62
   120
370
     5
100
AcDbLine
 10
2206.499228297053
 20
-2187.158154730564
 30
0.0
 11
2425.999228297055
 21
-1967.658154730561
 31
0.0
  0
LINE
  5
41A
330
1F
100
AcDbEntity
  8
0-C_ハッチ
  6
JWW_DASHED1
 62
   120
370
     5
100
AcDbLine
 10
2206.499228297053
 20
-2173.016019106831
 30
0.0
 11
2425.999228297055
 21
-1953.516019106829
 31
0.0
  0
LINE
  5
41B
330
1F
100
AcDbEntity
  8
0-C_ハッチ
  6
JWW_DASHED1
 62
   120
370
     5
100
AcDbLine
 10
2206.499228297053
 20
-2158.873883483096
 30
0.0
 11
2425.999228297055
 21
-1939.373883483093
 31
0.0
  0
LINE
  5
41C
330
1F
100
AcDbEntity
  8
0-C_ハッチ
  6
JWW_DASHED1
 62
   120
370
     5
100
AcDbLine
 10
2206.499228297053
 20
-2144.731747859363
 30
0.0
 11
2425.999228297055
 21
-1925.23174785936
 31
0.0
  0
LINE
  5
41D
330
1F
100
AcDbEntity
  8
0-C_ハッチ
  6
JWW_DASHED1
 62
   120
370
     5
100
AcDbLine
 10
2206.499228297053
 20
-2130.589612235628
 30
0.0
 11
2425.999228297055
 21
-1911.089612235626
 31
0.0
  0
LINE
  5
41E
330
1F
100
AcDbEntity
  8
0-C_ハッチ
  6
JWW_DASHED1
 62
   120
370
     5
100
AcDbLine
 10
2206.499228297053
 20
-2116.447476611894
 30
0.0
 11
2425.999228297055
 21
-1896.947476611894
 31
0.0
  0
LINE
  5
41F
330
1F
100
AcDbEntity
  8
0-C_ハッチ
  6
JWW_DASHED1
 62
   120
370
     5
100
AcDbLine
 10
2206.499228297053
 20
-2102.305340988163
 30
0.0
 11
2425.999228297055
 21
-1882.80534098816
 31
0.0
  0
LINE
  5
420
330
1F
100
AcDbEntity
  8
0-C_ハッチ
  6
JWW_DASHED1
 62
   120
370
     5
100
AcDbLine
 10
2206.499228297053
 20
-2088.163205364431
 30
0.0
 11
2425.999228297055
 21
-1868.663205364429
 31
0.0
  0
LINE
  5
421
330
1F
100
AcDbEntity
  8
0-C_ハッチ
  6
JWW_DASHED1
 62
   120
370
     5
100
AcDbLine
 10
2206.499228297053
 20
-2074.021069740697
 30
0.0
 11
2425.999228297055
 21
-1854.521069740694
 31
0.0
  0
LINE
  5
422
330
1F
100
AcDbEntity
  8
0-C_ハッチ
  6
JWW_DASHED1
 62
   120
370
     5
100
AcDbLine
 10
2206.499228297053
 20
-2059.878934116963
 30
0.0
 11
2425.999228297055
 21
-1840.378934116961
 31
0.0
  0
LINE
  5
423
330
1F
100
AcDbEntity
  8
0-C_ハッチ
  6
JWW_DASHED1
 62
   120
370
     5
100
AcDbLine
 10
2206.499228297053
 20
-2045.736798493228
 30
0.0
 11
2425.999228297055
 21
-1826.236798493226
 31
0.0
  0
LINE
  5
424
330
1F
100
AcDbEntity
  8
0-C_ハッチ
  6
JWW_DASHED1
 62
   120
370
     5
100
AcDbLine
 10
2206.499228297053
 20
-2031.594662869495
 30
0.0
 11
2425.999228297055
 21
-1812.094662869493
 31
0.0
  0
LINE
  5
425
330
1F
100
AcDbEntity
  8
0-C_ハッチ
  6
JWW_DASHED1
 62
   120
370
     5
100
AcDbLine
 10
2206.499228297053
 20
-2017.452527245763
 30
0.0
 11
2425.999228297055
 21
-1797.952527245761
 31
0.0
  0
LINE
  5
426
330
1F
100
AcDbEntity
  8
0-C_ハッチ
  6
JWW_DASHED1
 62
   120
370
     5
100
AcDbLine
 10
2206.499228297053
 20
-2003.310391622086
 30
0.0
 11
2425.999228297055
 21
-1783.810391622083
 31
0.0
  0
LINE
  5
427
330
1F
100
AcDbEntity
  8
0-C_ハッチ
  6
JWW_DASHED1
 62
   120
370
     5
100
AcDbLine
 10
2206.499228297053
 20
-1989.168255998349
 30
0.0
 11
2425.999228297055
 21
-1769.668255998349
 31
0.0
  0
LINE
  5
428
330
1F
100
AcDbEntity
  8
0-C_ハッチ
  6
JWW_DASHED1
 62
   120
370
     5
100
AcDbLine
 10
2206.499228297053
 20
-1975.026120374615
 30
0.0
 11
2425.999228297055
 21
-1755.526120374613
 31
0.0
  0
LINE
  5
429
330
1F
100
AcDbEntity
  8
0-C_ハッチ
  6
JWW_DASHED1
 62
   120
370
     5
100
AcDbLine
 10
2206.499228297053
 20
-1960.883984750883
 30
0.0
 11
2425.999228297055
 21
-1741.383984750881
 31
0.0
  0
LINE
  5
42A
330
1F
100
AcDbEntity
  8
0-C_ハッチ
  6
JWW_DASHED1
 62
   120
370
     5
100
AcDbLine
 10
2206.499228297053
 20
-1946.741849127151
 30
0.0
 11
2425.999228297055
 21
-1727.241849127149
 31
0.0
  0
LINE
  5
42B
330
1F
100
AcDbEntity
  8
0-C_ハッチ
  6
JWW_DASHED1
 62
   120
370
     5
100
AcDbLine
 10
2206.499228297053
 20
-1932.599713503419
 30
0.0
 11
2425.999228297055
 21
-1713.099713503417
 31
0.0
  0
LINE
  5
42C
330
1F
100
AcDbEntity
  8
0-C_ハッチ
  6
JWW_DASHED1
 62
   120
370
     5
100
AcDbLine
 10
2206.499228297053
 20
-1918.457577879685
 30
0.0
 11
2425.999228297055
 21
-1698.957577879682
 31
0.0
  0
LINE
  5
42D
330
1F
100
AcDbEntity
  8
0-C_ハッチ
  6
JWW_DASHED1
 62
   120
370
     5
100
AcDbLine
 10
2206.499228297053
 20
-1904.315442255951
 30
0.0
 11
2425.999228297055
 21
-1684.815442255949
 31
0.0
  0
LINE
  5
42E
330
1F
100
AcDbEntity
  8
0-C_ハッチ
  6
JWW_DASHED1
 62
   120
370
     5
100
AcDbLine
 10
2206.499228297053
 20
-1890.173306632219
 30
0.0
 11
2425.999228297055
 21
-1670.673306632216
 31
0.0
  0
LINE
  5
42F
330
1F
100
AcDbEntity
  8
0-C_ハッチ
  6
JWW_DASHED1
 62
   120
370
     5
100
AcDbLine
 10
2206.499228297053
 20
-1876.031171008482
 30
0.0
 11
2425.999228297055
 21
-1656.531171008482
 31
0.0
  0
LINE
  5
430
330
1F
100
AcDbEntity
  8
0-C_ハッチ
  6
JWW_DASHED1
 62
   120
370
     5
100
AcDbLine
 10
2206.499228297053
 20
-1861.889035384751
 30
0.0
 11
2425.999228297055
 21
-1642.389035384749
 31
0.0
  0
LINE
  5
431
330
1F
100
AcDbEntity
  8
0-C_ハッチ
  6
JWW_DASHED1
 62
   120
370
     5
100
AcDbLine
 10
2206.499228297053
 20
-1847.746899761016
 30
0.0
 11
2425.999228297055
 21
-1628.246899761014
 31
0.0
  0
LINE
  5
432
330
1F
100
AcDbEntity
  8
0-C_ハッチ
  6
JWW_DASHED1
 62
   120
370
     5
100
AcDbLine
 10
2206.499228297053
 20
-1833.604764137283
 30
0.0
 11
2425.999228297055
 21
-1614.104764137281
 31
0.0
  0
LINE
  5
433
330
1F
100
AcDbEntity
  8
0-C_ハッチ
  6
JWW_DASHED1
 62
   120
370
     5
100
AcDbLine
 10
2206.499228297053
 20
-1819.462628513551
 30
0.0
 11
2425.999228297055
 21
-1599.962628513549
 31
0.0
  0
LINE
  5
434
330
1F
100
AcDbEntity
  8
0-C_ハッチ
  6
JWW_DASHED1
 62
   120
370
     5
100
AcDbLine
 10
2206.499228297053
 20
-1805.320492889818
 30
0.0
 11
2425.999228297055
 21
-1585.820492889815
 31
0.0
  0
LINE
  5
435
330
1F
100
AcDbEntity
  8
0-C_ハッチ
  6
JWW_DASHED1
 62
   120
370
     5
100
AcDbLine
 10
2206.499228297053
 20
-1791.178357266083
 30
0.0
 11
2425.999228297055
 21
-1571.678357266081
 31
0.0
  0
LINE
  5
436
330
1F
100
AcDbEntity
  8
0-C_ハッチ
  6
JWW_DASHED1
 62
   120
370
     5
100
AcDbLine
 10
2206.499228297053
 20
-1777.036221642352
 30
0.0
 11
2425.999228297055
 21
-1557.536221642349
 31
0.0
  0
LINE
  5
437
330
1F
100
AcDbEntity
  8
0-C_ハッチ
  6
JWW_DASHED1
 62
   120
370
     5
100
AcDbLine
 10
2206.499228297053
 20
-1762.894086018615
 30
0.0
 11
2425.999228297055
 21
-1543.394086018616
 31
0.0
  0
LINE
  5
438
330
1F
100
AcDbEntity
  8
0-C_ハッチ
  6
JWW_DASHED1
 62
   120
370
     5
100
AcDbLine
 10
2206.499228297053
 20
-1748.751950394883
 30
0.0
 11
2425.999228297055
 21
-1529.251950394882
 31
0.0
  0
LINE
  5
439
330
1F
100
AcDbEntity
  8
0-C_ハッチ
  6
JWW_DASHED1
 62
   120
370
     5
100
AcDbLine
 10
2206.499228297053
 20
-1734.609814771149
 30
0.0
 11
2425.999228297055
 21
-1515.10981477115
 31
0.0
  0
LINE
  5
43A
330
1F
100
AcDbEntity
  8
0-C_ハッチ
  6
JWW_DASHED1
 62
   120
370
     5
100
AcDbLine
 10
2206.499228297053
 20
-1720.467679147419
 30
0.0
 11
2425.999228297055
 21
-1500.967679147417
 31
0.0
  0
LINE
  5
43B
330
1F
100
AcDbEntity
  8
0-C_ハッチ
  6
JWW_DASHED1
 62
   120
370
     5
100
AcDbLine
 10
2206.499228297053
 20
-1706.325543523683
 30
0.0
 11
2425.999228297055
 21
-1486.825543523682
 31
0.0
  0
LINE
  5
43C
330
1F
100
AcDbEntity
  8
0-C_ハッチ
  6
JWW_DASHED1
 62
   120
370
     5
100
AcDbLine
 10
2206.499228297053
 20
-1692.183407900004
 30
0.0
 11
2425.999228297055
 21
-1472.683407900004
 31
0.0
  0
LINE
  5
43D
330
1F
100
AcDbEntity
  8
0-C_ハッチ
  6
JWW_DASHED1
 62
   120
370
     5
100
AcDbLine
 10
2206.499228297053
 20
-1678.041272276271
 30
0.0
 11
2425.999228297055
 21
-1458.541272276269
 31
0.0
  0
LINE
  5
43E
330
1F
100
AcDbEntity
  8
0-C_ハッチ
  6
JWW_DASHED1
 62
   120
370
     5
100
AcDbLine
 10
2206.499228297053
 20
-1663.899136652538
 30
0.0
 11
2425.999228297055
 21
-1444.399136652538
 31
0.0
  0
LINE
  5
43F
330
1F
100
AcDbEntity
  8
0-C_ハッチ
  6
JWW_DASHED1
 62
   120
370
     5
100
AcDbLine
 10
2206.499228297053
 20
-1649.757001028806
 30
0.0
 11
2425.999228297055
 21
-1430.257001028805
 31
0.0
  0
LINE
  5
440
330
1F
100
AcDbEntity
  8
0-C_ハッチ
  6
JWW_DASHED1
 62
   120
370
     5
100
AcDbLine
 10
2206.499228297053
 20
-1635.614865405071
 30
0.0
 11
2425.999228297055
 21
-1416.114865405069
 31
0.0
  0
LINE
  5
441
330
1F
100
AcDbEntity
  8
0-C_ハッチ
  6
JWW_DASHED1
 62
   120
370
     5
100
AcDbLine
 10
2206.499228297053
 20
-1621.472729781339
 30
0.0
 11
2425.999228297055
 21
-1401.972729781337
 31
0.0
  0
LINE
  5
442
330
1F
100
AcDbEntity
  8
0-C_ハッチ
  6
JWW_DASHED1
 62
   120
370
     5
100
AcDbLine
 10
2206.499228297053
 20
-1607.330594157603
 30
0.0
 11
2425.999228297055
 21
-1387.830594157605
 31
0.0
  0
LINE
  5
443
330
1F
100
AcDbEntity
  8
0-C_ハッチ
  6
JWW_DASHED1
 62
   120
370
     5
100
AcDbLine
 10
2206.499228297053
 20
-1593.188458533871
 30
0.0
 11
2425.999228297055
 21
-1373.688458533871
 31
0.0
  0
LINE
  5
444
330
1F
100
AcDbEntity
  8
0-C_ハッチ
  6
JWW_DASHED1
 62
   120
370
     5
100
AcDbLine
 10
2206.499228297053
 20
-1579.046322910137
 30
0.0
 11
2425.999228297055
 21
-1359.546322910137
 31
0.0
  0
LINE
  5
445
330
1F
100
AcDbEntity
  8
0-C_ハッチ
  6
JWW_DASHED1
 62
   120
370
     5
100
AcDbLine
 10
2206.499228297053
 20
-1564.904187286407
 30
0.0
 11
2425.999228297055
 21
-1345.404187286405
 31
0.0
  0
LINE
  5
446
330
1F
100
AcDbEntity
  8
0-C_ハッチ
  6
JWW_DASHED1
 62
   120
370
     5
100
AcDbLine
 10
2206.499228297053
 20
-1550.762051662671
 30
0.0
 11
2425.999228297055
 21
-1331.262051662671
 31
0.0
  0
LINE
  5
447
330
1F
100
AcDbEntity
  8
0-C_ハッチ
  6
JWW_DASHED1
 62
   120
370
     5
100
AcDbLine
 10
2206.499228297053
 20
-1536.619916038939
 30
0.0
 11
2425.999228297055
 21
-1317.119916038936
 31
0.0
  0
LINE
  5
448
330
1F
100
AcDbEntity
  8
0-C_ハッチ
  6
JWW_DASHED1
 62
   120
370
     5
100
AcDbLine
 10
2206.499228297053
 20
-1522.477780415203
 30
0.0
 11
2425.999228297055
 21
-1302.977780415201
 31
0.0
  0
LINE
  5
449
330
1F
100
AcDbEntity
  8
0-C_ハッチ
  6
JWW_DASHED1
 62
   120
370
     5
100
AcDbLine
 10
2206.499228297053
 20
-1508.335644791471
 30
0.0
 11
2425.999228297055
 21
-1288.83564479147
 31
0.0
  0
LINE
  5
44A
330
1F
100
AcDbEntity
  8
0-C_ハッチ
  6
JWW_DASHED1
 62
   120
370
     5
100
AcDbLine
 10
2206.499228297053
 20
-1494.193509167739
 30
0.0
 11
2425.999228297055
 21
-1274.693509167736
 31
0.0
  0
LINE
  5
44B
330
1F
100
AcDbEntity
  8
0-C_ハッチ
  6
JWW_DASHED1
 62
   120
370
     5
100
AcDbLine
 10
2206.499228297053
 20
-1480.051373544004
 30
0.0
 11
2425.999228297055
 21
-1260.551373544004
 31
0.0
  0
LINE
  5
44C
330
1F
100
AcDbEntity
  8
0-C_ハッチ
  6
JWW_DASHED1
 62
   120
370
     5
100
AcDbLine
 10
2206.499228297053
 20
-1465.90923792027
 30
0.0
 11
2425.999228297055
 21
-1246.40923792027
 31
0.0
  0
LINE
  5
44D
330
1F
100
AcDbEntity
  8
0-C_ハッチ
  6
JWW_DASHED1
 62
   120
370
     5
100
AcDbLine
 10
2206.499228297053
 20
-1451.767102296538
 30
0.0
 11
2425.999228297055
 21
-1232.267102296537
 31
0.0
  0
LINE
  5
44E
330
1F
100
AcDbEntity
  8
0-C_ハッチ
  6
JWW_DASHED1
 62
   120
370
     5
100
AcDbLine
 10
2206.499228297053
 20
-1437.624966672804
 30
0.0
 11
2425.999228297055
 21
-1218.124966672804
 31
0.0
  0
LINE
  5
44F
330
1F
100
AcDbEntity
  8
0-C_ハッチ
  6
JWW_DASHED1
 62
   120
370
     5
100
AcDbLine
 10
2206.499228297053
 20
-1423.48283104907
 30
0.0
 11
2425.999228297055
 21
-1203.982831049071
 31
0.0
  0
LINE
  5
450
330
1F
100
AcDbEntity
  8
0-C_ハッチ
  6
JWW_DASHED1
 62
   120
370
     5
100
AcDbLine
 10
2206.499228297053
 20
-1409.340695425339
 30
0.0
 11
2425.999228297055
 21
-1189.840695425337
 31
0.0
  0
LINE
  5
451
330
1F
100
AcDbEntity
  8
0-C_ハッチ
  6
JWW_DASHED1
 62
   120
370
     5
100
AcDbLine
 10
2206.499228297053
 20
-1395.198559801658
 30
0.0
 11
2425.999228297055
 21
-1175.698559801659
 31
0.0
  0
LINE
  5
452
330
1F
100
AcDbEntity
  8
0-C_ハッチ
  6
JWW_DASHED1
 62
   120
370
     5
100
AcDbLine
 10
2206.499228297053
 20
-1381.056424177926
 30
0.0
 11
2425.999228297055
 21
-1161.556424177924
 31
0.0
  0
LINE
  5
453
330
1F
100
AcDbEntity
  8
0-C_ハッチ
  6
JWW_DASHED1
 62
   120
370
     5
100
AcDbLine
 10
2206.499228297053
 20
-1366.914288554193
 30
0.0
 11
2425.999228297055
 21
-1147.414288554193
 31
0.0
  0
LINE
  5
454
330
1F
100
AcDbEntity
  8
0-C_ハッチ
  6
JWW_DASHED1
 62
   120
370
     5
100
AcDbLine
 10
2206.499228297053
 20
-1352.772152930459
 30
0.0
 11
2425.999228297055
 21
-1133.272152930456
 31
0.0
  0
LINE
  5
455
330
1F
100
AcDbEntity
  8
0-C_ハッチ
  6
JWW_DASHED1
 62
   120
370
     5
100
AcDbLine
 10
2206.499228297053
 20
-1338.630017306726
 30
0.0
 11
2425.999228297055
 21
-1119.130017306724
 31
0.0
  0
LINE
  5
456
330
1F
100
AcDbEntity
  8
0-C_ハッチ
  6
JWW_DASHED1
 62
   120
370
     5
100
AcDbLine
 10
2206.499228297053
 20
-1324.487881682993
 30
0.0
 11
2425.999228297055
 21
-1104.987881682991
 31
0.0
  0
LINE
  5
457
330
1F
100
AcDbEntity
  8
0-C_ハッチ
  6
JWW_DASHED1
 62
   120
370
     5
100
AcDbLine
 10
2206.499228297053
 20
-1310.345746059259
 30
0.0
 11
2425.999228297055
 21
-1090.84574605926
 31
0.0
  0
LINE
  5
458
330
1F
100
AcDbEntity
  8
0-C_ハッチ
  6
JWW_DASHED1
 62
   120
370
     5
100
AcDbLine
 10
2206.499228297053
 20
-1296.203610435526
 30
0.0
 11
2425.999228297055
 21
-1076.703610435525
 31
0.0
  0
LINE
  5
459
330
1F
100
AcDbEntity
  8
0-C_ハッチ
  6
JWW_DASHED1
 62
   120
370
     5
100
AcDbLine
 10
2206.499228297053
 20
-1282.061474811792
 30
0.0
 11
2425.999228297055
 21
-1062.561474811792
 31
0.0
  0
LINE
  5
45A
330
1F
100
AcDbEntity
  8
0-C_ハッチ
  6
JWW_DASHED1
 62
   120
370
     5
100
AcDbLine
 10
2206.499228297053
 20
-1267.919339188058
 30
0.0
 11
2425.999228297055
 21
-1048.419339188056
 31
0.0
  0
LINE
  5
45B
330
1F
100
AcDbEntity
  8
0-C_ハッチ
  6
JWW_DASHED1
 62
   120
370
     5
100
AcDbLine
 10
2206.499228297053
 20
-1253.777203564326
 30
0.0
 11
2425.999228297055
 21
-1034.277203564327
 31
0.0
  0
LINE
  5
45C
330
1F
100
AcDbEntity
  8
0-C_ハッチ
  6
JWW_DASHED1
 62
   120
370
     5
100
AcDbLine
 10
2206.499228297053
 20
-1239.635067940592
 30
0.0
 11
2425.999228297055
 21
-1020.135067940589
 31
0.0
  0
LINE
  5
45D
330
1F
100
AcDbEntity
  8
0-C_ハッチ
  6
JWW_DASHED1
 62
   120
370
     5
100
AcDbLine
 10
2206.499228297053
 20
-1225.492932316858
 30
0.0
 11
2425.999228297055
 21
-1005.992932316857
 31
0.0
  0
LINE
  5
45E
330
1F
100
AcDbEntity
  8
0-C_ハッチ
  6
JWW_DASHED1
 62
   120
370
     5
100
AcDbLine
 10
2206.499228297053
 20
-1211.350796693126
 30
0.0
 11
2425.999228297055
 21
-991.8507966931235
 31
0.0
  0
LINE
  5
45F
330
1F
100
AcDbEntity
  8
0-C_ハッチ
  6
JWW_DASHED1
 62
   120
370
     5
100
AcDbLine
 10
2206.499228297053
 20
-1197.208661069394
 30
0.0
 11
2425.999228297055
 21
-977.7086610693923
 31
0.0
  0
LINE
  5
460
330
1F
100
AcDbEntity
  8
0-C_ハッチ
  6
JWW_DASHED1
 62
   120
370
     5
100
AcDbLine
 10
2206.499228297053
 20
-1183.066525445659
 30
0.0
 11
2425.999228297055
 21
-963.5665254456568
 31
0.0
  0
LINE
  5
461
330
1F
100
AcDbEntity
  8
0-C_ハッチ
  6
JWW_DASHED1
 62
   120
370
     5
100
AcDbLine
 10
2206.499228297053
 20
-1168.924389821925
 30
0.0
 11
2425.999228297055
 21
-949.424389821925
 31
0.0
  0
LINE
  5
462
330
1F
100
AcDbEntity
  8
0-C_ハッチ
  6
JWW_DASHED1
 62
   120
370
     5
100
AcDbLine
 10
2206.499228297053
 20
-1154.78225419819
 30
0.0
 11
2425.999228297055
 21
-935.2822541981889
 31
0.0
  0
LINE
  5
463
330
1F
100
AcDbEntity
  8
0-C_ハッチ
  6
JWW_DASHED1
 62
   120
370
     5
100
AcDbLine
 10
2206.499228297053
 20
-1140.640118574459
 30
0.0
 11
2425.999228297055
 21
-921.1401185744601
 31
0.0
  0
LINE
  5
464
330
1F
100
AcDbEntity
  8
0-C_ハッチ
  6
JWW_DASHED1
 62
   120
370
     5
100
AcDbLine
 10
2206.499228297053
 20
-1126.497982950725
 30
0.0
 11
2425.999228297055
 21
-906.997982950723
 31
0.0
  0
LINE
  5
465
330
1F
100
AcDbEntity
  8
0-C_ハッチ
  6
JWW_DASHED1
 62
   120
370
     5
100
AcDbLine
 10
2206.499228297053
 20
-1112.355847326995
 30
0.0
 11
2425.999228297055
 21
-892.8558473269923
 31
0.0
  0
LINE
  5
466
330
1F
100
AcDbEntity
  8
0-C_ハッチ
  6
JWW_DASHED1
 62
   120
370
     5
100
AcDbLine
 10
2217.03428292945
 20
-2487.750083820242
 30
0.0
 11
2425.999228297055
 21
-2278.785138452638
 31
0.0
  0
LINE
  5
467
330
1F
100
AcDbEntity
  8
0-C_ハッチ
  6
JWW_DASHED1
 62
   120
370
     5
100
AcDbLine
 10
2400.882046037931
 20
-2487.750083820242
 30
0.0
 11
2425.999228297055
 21
-2462.632901561118
 31
0.0
  0
LINE
  5
468
330
1F
100
AcDbEntity
  8
0-C_ハッチ
  6
JWW_DASHED1
 62
   120
370
     5
100
AcDbLine
 10
2386.7399104142
 20
-2487.750083820242
 30
0.0
 11
2425.999228297055
 21
-2448.490765937387
 31
0.0
  0
LINE
  5
469
330
1F
100
AcDbEntity
  8
0-C_ハッチ
  6
JWW_DASHED1
 62
   120
370
     5
100
AcDbLine
 10
2372.597774790464
 20
-2487.750083820242
 30
0.0
 11
2425.999228297055
 21
-2434.348630313651
 31
0.0
  0
LINE
  5
46A
330
1F
100
AcDbEntity
  8
0-C_ハッチ
  6
JWW_DASHED1
 62
   120
370
     5
100
AcDbLine
 10
2358.455639166732
 20
-2487.750083820242
 30
0.0
 11
2425.999228297055
 21
-2420.206494689921
 31
0.0
  0
LINE
  5
46B
330
1F
100
AcDbEntity
  8
0-C_ハッチ
  6
JWW_DASHED1
 62
   120
370
     5
100
AcDbLine
 10
2344.313503542999
 20
-2487.750083820242
 30
0.0
 11
2425.999228297055
 21
-2406.064359066183
 31
0.0
  0
LINE
  5
46C
330
1F
100
AcDbEntity
  8
0-C_ハッチ
  6
JWW_DASHED1
 62
   120
370
     5
100
AcDbLine
 10
2330.171367919264
 20
-2487.750083820242
 30
0.0
 11
2425.999228297055
 21
-2391.922223442454
 31
0.0
  0
LINE
  5
46D
330
1F
100
AcDbEntity
  8
0-C_ハッチ
  6
JWW_DASHED1
 62
   120
370
     5
100
AcDbLine
 10
2316.029232295586
 20
-2487.750083820242
 30
0.0
 11
2425.999228297055
 21
-2377.780087818775
 31
0.0
  0
LINE
  5
46E
330
1F
100
AcDbEntity
  8
0-C_ハッチ
  6
JWW_DASHED1
 62
   120
370
     5
100
AcDbLine
 10
2301.887096671852
 20
-2487.750083820242
 30
0.0
 11
2425.999228297055
 21
-2363.637952195038
 31
0.0
  0
LINE
  5
46F
330
1F
100
AcDbEntity
  8
0-C_ハッチ
  6
JWW_DASHED1
 62
   120
370
     5
100
AcDbLine
 10
2287.744961048119
 20
-2487.750083820242
 30
0.0
 11
2425.999228297055
 21
-2349.495816571305
 31
0.0
  0
LINE
  5
470
330
1F
100
AcDbEntity
  8
0-C_ハッチ
  6
JWW_DASHED1
 62
   120
370
     5
100
AcDbLine
 10
2273.602825424386
 20
-2487.750083820242
 30
0.0
 11
2425.999228297055
 21
-2335.353680947571
 31
0.0
  0
LINE
  5
471
330
1F
100
AcDbEntity
  8
0-C_ハッチ
  6
JWW_DASHED1
 62
   120
370
     5
100
AcDbLine
 10
2259.460689800655
 20
-2487.750083820242
 30
0.0
 11
2425.999228297055
 21
-2321.211545323841
 31
0.0
  0
LINE
  5
472
330
1F
100
AcDbEntity
  8
0-C_ハッチ
  6
JWW_DASHED1
 62
   120
370
     5
100
AcDbLine
 10
2245.318554176918
 20
-2487.750083820242
 30
0.0
 11
2425.999228297055
 21
-2307.069409700106
 31
0.0
  0
LINE
  5
473
330
1F
100
AcDbEntity
  8
0-C_ハッチ
  6
JWW_DASHED1
 62
   120
370
     5
100
AcDbLine
 10
2231.176418553186
 20
-2487.750083820242
 30
0.0
 11
2425.999228297055
 21
-2292.927274076375
 31
0.0
  0
LINE
  5
474
330
1F
100
AcDbEntity
  8
0-C_ハッチ
  6
JWW_DASHED1
 62
   120
370
     5
100
AcDbLine
 10
2553.999228297054
 20
-1098.213711703313
 30
0.0
 11
2773.499228297052
 21
-878.7137117033152
 31
0.0
  0
LINE
  5
475
330
1F
100
AcDbEntity
  8
0-C_ハッチ
  6
JWW_DASHED1
 62
   120
370
     5
100
AcDbLine
 10
2762.524181661665
 20
-2487.750083820242
 30
0.0
 11
2773.499228297052
 21
-2476.775037184855
 31
0.0
  0
LINE
  5
476
330
1F
100
AcDbEntity
  8
0-C_ハッチ
  6
JWW_DASHED1
 62
   120
370
     5
100
AcDbLine
 10
2564.534282929455
 20
-2487.750083820242
 30
0.0
 11
2773.499228297052
 21
-2278.785138452642
 31
0.0
  0
LINE
  5
477
330
1F
100
AcDbEntity
  8
0-C_ハッチ
  6
JWW_DASHED1
 62
   120
370
     5
100
AcDbLine
 10
2748.382046037932
 20
-2487.750083820242
 30
0.0
 11
2773.499228297052
 21
-2462.632901561122
 31
0.0
  0
LINE
  5
478
330
1F
100
AcDbEntity
  8
0-C_ハッチ
  6
JWW_DASHED1
 62
   120
370
     5
100
AcDbLine
 10
2734.239910414198
 20
-2487.750083820242
 30
0.0
 11
2773.499228297052
 21
-2448.490765937388
 31
0.0
  0
LINE
  5
479
330
1F
100
AcDbEntity
  8
0-C_ハッチ
  6
JWW_DASHED1
 62
   120
370
     5
100
AcDbLine
 10
2720.097774790466
 20
-2487.750083820242
 30
0.0
 11
2773.499228297052
 21
-2434.348630313654
 31
0.0
  0
LINE
  5
47A
330
1F
100
AcDbEntity
  8
0-C_ハッチ
  6
JWW_DASHED1
 62
   120
370
     5
100
AcDbLine
 10
2705.955639166732
 20
-2487.750083820242
 30
0.0
 11
2773.499228297052
 21
-2420.206494689921
 31
0.0
  0
LINE
  5
47B
330
1F
100
AcDbEntity
  8
0-C_ハッチ
  6
JWW_DASHED1
 62
   120
370
     5
100
AcDbLine
 10
2691.813503542999
 20
-2487.750083820242
 30
0.0
 11
2773.499228297052
 21
-2406.064359066188
 31
0.0
  0
LINE
  5
47C
330
1F
100
AcDbEntity
  8
0-C_ハッチ
  6
JWW_DASHED1
 62
   120
370
     5
100
AcDbLine
 10
2677.671367919265
 20
-2487.750083820242
 30
0.0
 11
2773.499228297052
 21
-2391.922223442454
 31
0.0
  0
LINE
  5
47D
330
1F
100
AcDbEntity
  8
0-C_ハッチ
  6
JWW_DASHED1
 62
   120
370
     5
100
AcDbLine
 10
2663.529232295587
 20
-2487.750083820242
 30
0.0
 11
2773.499228297052
 21
-2377.780087818776
 31
0.0
  0
LINE
  5
47E
330
1F
100
AcDbEntity
  8
0-C_ハッチ
  6
JWW_DASHED1
 62
   120
370
     5
100
AcDbLine
 10
2649.387096671853
 20
-2487.750083820242
 30
0.0
 11
2773.499228297052
 21
-2363.637952195043
 31
0.0
  0
LINE
  5
47F
330
1F
100
AcDbEntity
  8
0-C_ハッチ
  6
JWW_DASHED1
 62
   120
370
     5
100
AcDbLine
 10
2635.24496104812
 20
-2487.750083820242
 30
0.0
 11
2773.499228297052
 21
-2349.495816571309
 31
0.0
  0
LINE
  5
480
330
1F
100
AcDbEntity
  8
0-C_ハッチ
  6
JWW_DASHED1
 62
   120
370
     5
100
AcDbLine
 10
2621.102825424387
 20
-2487.750083820242
 30
0.0
 11
2773.499228297052
 21
-2335.353680947575
 31
0.0
  0
LINE
  5
481
330
1F
100
AcDbEntity
  8
0-C_ハッチ
  6
JWW_DASHED1
 62
   120
370
     5
100
AcDbLine
 10
2606.960689800652
 20
-2487.750083820242
 30
0.0
 11
2773.499228297052
 21
-2321.211545323843
 31
0.0
  0
LINE
  5
482
330
1F
100
AcDbEntity
  8
0-C_ハッチ
  6
JWW_DASHED1
 62
   120
370
     5
100
AcDbLine
 10
2592.818554176919
 20
-2487.750083820242
 30
0.0
 11
2773.499228297052
 21
-2307.06940970011
 31
0.0
  0
LINE
  5
483
330
1F
100
AcDbEntity
  8
0-C_ハッチ
  6
JWW_DASHED1
 62
   120
370
     5
100
AcDbLine
 10
2578.676418553187
 20
-2487.750083820242
 30
0.0
 11
2773.499228297052
 21
-2292.927274076375
 31
0.0
  0
LINE
  5
484
330
1F
100
AcDbEntity
  8
0-C_ハッチ
  6
JWW_DASHED1
 62
   120
370
     5
100
AcDbLine
 10
2553.999228297054
 20
-2484.143002828906
 30
0.0
 11
2773.499228297052
 21
-2264.64300282891
 31
0.0
  0
LINE
  5
485
330
1F
100
AcDbEntity
  8
0-C_ハッチ
  6
JWW_DASHED1
 62
   120
370
     5
100
AcDbLine
 10
2553.999228297054
 20
-2470.000867205175
 30
0.0
 11
2773.499228297052
 21
-2250.500867205177
 31
0.0
  0
LINE
  5
486
330
1F
100
AcDbEntity
  8
0-C_ハッチ
  6
JWW_DASHED1
 62
   120
370
     5
100
AcDbLine
 10
2553.999228297054
 20
-2455.85873158144
 30
0.0
 11
2773.499228297052
 21
-2236.358731581442
 31
0.0
  0
LINE
  5
487
330
1F
100
AcDbEntity
  8
0-C_ハッチ
  6
JWW_DASHED1
 62
   120
370
     5
100
AcDbLine
 10
2553.999228297054
 20
-2441.716595957708
 30
0.0
 11
2773.499228297052
 21
-2222.216595957708
 31
0.0
  0
LINE
  5
488
330
1F
100
AcDbEntity
  8
0-C_ハッチ
  6
JWW_DASHED1
 62
   120
370
     5
100
AcDbLine
 10
2553.999228297054
 20
-2427.574460333972
 30
0.0
 11
2773.499228297052
 21
-2208.074460333975
 31
0.0
  0
LINE
  5
489
330
1F
100
AcDbEntity
  8
0-C_ハッチ
  6
JWW_DASHED1
 62
   120
370
     5
100
AcDbLine
 10
2553.999228297054
 20
-2413.432324710242
 30
0.0
 11
2773.499228297052
 21
-2193.932324710242
 31
0.0
  0
LINE
  5
48A
330
1F
100
AcDbEntity
  8
0-C_ハッチ
  6
JWW_DASHED1
 62
   120
370
     5
100
AcDbLine
 10
2553.999228297054
 20
-2399.290189086509
 30
0.0
 11
2773.499228297052
 21
-2179.790189086509
 31
0.0
  0
LINE
  5
48B
330
1F
100
AcDbEntity
  8
0-C_ハッチ
  6
JWW_DASHED1
 62
   120
370
     5
100
AcDbLine
 10
2553.999228297054
 20
-2385.148053462775
 30
0.0
 11
2773.499228297052
 21
-2165.648053462775
 31
0.0
  0
LINE
  5
48C
330
1F
100
AcDbEntity
  8
0-C_ハッチ
  6
JWW_DASHED1
 62
   120
370
     5
100
AcDbLine
 10
2553.999228297054
 20
-2371.005917839039
 30
0.0
 11
2773.499228297052
 21
-2151.505917839043
 31
0.0
  0
LINE
  5
48D
330
1F
100
AcDbEntity
  8
0-C_ハッチ
  6
JWW_DASHED1
 62
   120
370
     5
100
AcDbLine
 10
2553.999228297054
 20
-2356.863782215308
 30
0.0
 11
2773.499228297052
 21
-2137.363782215309
 31
0.0
  0
LINE
  5
48E
330
1F
100
AcDbEntity
  8
0-C_ハッチ
  6
JWW_DASHED1
 62
   120
370
     5
100
AcDbLine
 10
2553.999228297054
 20
-2342.721646591573
 30
0.0
 11
2773.499228297052
 21
-2123.221646591576
 31
0.0
  0
LINE
  5
48F
330
1F
100
AcDbEntity
  8
0-C_ハッチ
  6
JWW_DASHED1
 62
   120
370
     5
100
AcDbLine
 10
2553.999228297054
 20
-2328.579510967841
 30
0.0
 11
2773.499228297052
 21
-2109.079510967842
 31
0.0
  0
LINE
  5
490
330
1F
100
AcDbEntity
  8
0-C_ハッチ
  6
JWW_DASHED1
 62
   120
370
     5
100
AcDbLine
 10
2553.999228297054
 20
-2314.437375344108
 30
0.0
 11
2773.499228297052
 21
-2094.937375344109
 31
0.0
  0
LINE
  5
491
330
1F
100
AcDbEntity
  8
0-C_ハッチ
  6
JWW_DASHED1
 62
   120
370
     5
100
AcDbLine
 10
2553.999228297054
 20
-2300.295239720375
 30
0.0
 11
2773.499228297052
 21
-2080.795239720376
 31
0.0
  0
LINE
  5
492
330
1F
100
AcDbEntity
  8
0-C_ハッチ
  6
JWW_DASHED1
 62
   120
370
     5
100
AcDbLine
 10
2553.999228297054
 20
-2286.153104096695
 30
0.0
 11
2773.499228297052
 21
-2066.653104096697
 31
0.0
  0
LINE
  5
493
330
1F
100
AcDbEntity
  8
0-C_ハッチ
  6
JWW_DASHED1
 62
   120
370
     5
100
AcDbLine
 10
2553.999228297054
 20
-2272.01096847296
 30
0.0
 11
2773.499228297052
 21
-2052.510968472963
 31
0.0
  0
LINE
  5
494
330
1F
100
AcDbEntity
  8
0-C_ハッチ
  6
JWW_DASHED1
 62
   120
370
     5
100
AcDbLine
 10
2553.999228297054
 20
-2257.86883284923
 30
0.0
 11
2773.499228297052
 21
-2038.36883284923
 31
0.0
  0
LINE
  5
495
330
1F
100
AcDbEntity
  8
0-C_ハッチ
  6
JWW_DASHED1
 62
   120
370
     5
100
AcDbLine
 10
2553.999228297054
 20
-2243.726697225496
 30
0.0
 11
2773.499228297052
 21
-2024.226697225497
 31
0.0
  0
LINE
  5
496
330
1F
100
AcDbEntity
  8
0-C_ハッチ
  6
JWW_DASHED1
 62
   120
370
     5
100
AcDbLine
 10
2553.999228297054
 20
-2229.584561601764
 30
0.0
 11
2773.499228297052
 21
-2010.084561601764
 31
0.0
  0
LINE
  5
497
330
1F
100
AcDbEntity
  8
0-C_ハッチ
  6
JWW_DASHED1
 62
   120
370
     5
100
AcDbLine
 10
2553.999228297054
 20
-2215.442425978026
 30
0.0
 11
2773.499228297052
 21
-1995.94242597803
 31
0.0
  0
LINE
  5
498
330
1F
100
AcDbEntity
  8
0-C_ハッチ
  6
JWW_DASHED1
 62
   120
370
     5
100
AcDbLine
 10
2553.999228297054
 20
-2201.300290354296
 30
0.0
 11
2773.499228297052
 21
-1981.800290354297
 31
0.0
  0
LINE
  5
499
330
1F
100
AcDbEntity
  8
0-C_ハッチ
  6
JWW_DASHED1
 62
   120
370
     5
100
AcDbLine
 10
2553.999228297054
 20
-2187.158154730561
 30
0.0
 11
2773.499228297052
 21
-1967.658154730564
 31
0.0
  0
LINE
  5
49A
330
1F
100
AcDbEntity
  8
0-C_ハッチ
  6
JWW_DASHED1
 62
   120
370
     5
100
AcDbLine
 10
2553.999228297054
 20
-2173.016019106828
 30
0.0
 11
2773.499228297052
 21
-1953.516019106831
 31
0.0
  0
LINE
  5
49B
330
1F
100
AcDbEntity
  8
0-C_ハッチ
  6
JWW_DASHED1
 62
   120
370
     5
100
AcDbLine
 10
2553.999228297054
 20
-2158.873883483096
 30
0.0
 11
2773.499228297052
 21
-1939.373883483097
 31
0.0
  0
LINE
  5
49C
330
1F
100
AcDbEntity
  8
0-C_ハッチ
  6
JWW_DASHED1
 62
   120
370
     5
100
AcDbLine
 10
2553.999228297054
 20
-2144.731747859363
 30
0.0
 11
2773.499228297052
 21
-1925.231747859363
 31
0.0
  0
LINE
  5
49D
330
1F
100
AcDbEntity
  8
0-C_ハッチ
  6
JWW_DASHED1
 62
   120
370
     5
100
AcDbLine
 10
2553.999228297054
 20
-2130.589612235628
 30
0.0
 11
2773.499228297052
 21
-1911.089612235631
 31
0.0
  0
LINE
  5
49E
330
1F
100
AcDbEntity
  8
0-C_ハッチ
  6
JWW_DASHED1
 62
   120
370
     5
100
AcDbLine
 10
2553.999228297054
 20
-2116.447476611897
 30
0.0
 11
2773.499228297052
 21
-1896.947476611897
 31
0.0
  0
LINE
  5
49F
330
1F
100
AcDbEntity
  8
0-C_ハッチ
  6
JWW_DASHED1
 62
   120
370
     5
100
AcDbLine
 10
2553.999228297054
 20
-2102.30534098816
 30
0.0
 11
2773.499228297052
 21
-1882.805340988163
 31
0.0
  0
LINE
  5
4A0
330
1F
100
AcDbEntity
  8
0-C_ハッチ
  6
JWW_DASHED1
 62
   120
370
     5
100
AcDbLine
 10
2553.999228297054
 20
-2088.163205364428
 30
0.0
 11
2773.499228297052
 21
-1868.66320536443
 31
0.0
  0
LINE
  5
4A1
330
1F
100
AcDbEntity
  8
0-C_ハッチ
  6
JWW_DASHED1
 62
   120
370
     5
100
AcDbLine
 10
2553.999228297054
 20
-2074.021069740694
 30
0.0
 11
2773.499228297052
 21
-1854.521069740698
 31
0.0
  0
LINE
  5
4A2
330
1F
100
AcDbEntity
  8
0-C_ハッチ
  6
JWW_DASHED1
 62
   120
370
     5
100
AcDbLine
 10
2553.999228297054
 20
-2059.878934116963
 30
0.0
 11
2773.499228297052
 21
-1840.378934116965
 31
0.0
  0
LINE
  5
4A3
330
1F
100
AcDbEntity
  8
0-C_ハッチ
  6
JWW_DASHED1
 62
   120
370
     5
100
AcDbLine
 10
2553.999228297054
 20
-2045.736798493228
 30
0.0
 11
2773.499228297052
 21
-1826.236798493229
 31
0.0
  0
LINE
  5
4A4
330
1F
100
AcDbEntity
  8
0-C_ハッチ
  6
JWW_DASHED1
 62
   120
370
     5
100
AcDbLine
 10
2553.999228297054
 20
-2031.594662869495
 30
0.0
 11
2773.499228297052
 21
-1812.094662869496
 31
0.0
  0
LINE
  5
4A5
330
1F
100
AcDbEntity
  8
0-C_ハッチ
  6
JWW_DASHED1
 62
   120
370
     5
100
AcDbLine
 10
2553.999228297054
 20
-2017.452527245763
 30
0.0
 11
2773.499228297052
 21
-1797.952527245765
 31
0.0
  0
LINE
  5
4A6
330
1F
100
AcDbEntity
  8
0-C_ハッチ
  6
JWW_DASHED1
 62
   120
370
     5
100
AcDbLine
 10
2553.999228297054
 20
-2003.310391622083
 30
0.0
 11
2773.499228297052
 21
-1783.810391622084
 31
0.0
  0
LINE
  5
4A7
330
1F
100
AcDbEntity
  8
0-C_ハッチ
  6
JWW_DASHED1
 62
   120
370
     5
100
AcDbLine
 10
2553.999228297054
 20
-1989.168255998349
 30
0.0
 11
2773.499228297052
 21
-1769.668255998352
 31
0.0
  0
LINE
  5
4A8
330
1F
100
AcDbEntity
  8
0-C_ハッチ
  6
JWW_DASHED1
 62
   120
370
     5
100
AcDbLine
 10
2553.999228297054
 20
-1975.026120374615
 30
0.0
 11
2773.499228297052
 21
-1755.526120374618
 31
0.0
  0
LINE
  5
4A9
330
1F
100
AcDbEntity
  8
0-C_ハッチ
  6
JWW_DASHED1
 62
   120
370
     5
100
AcDbLine
 10
2553.999228297054
 20
-1960.883984750883
 30
0.0
 11
2773.499228297052
 21
-1741.383984750884
 31
0.0
  0
LINE
  5
4AA
330
1F
100
AcDbEntity
  8
0-C_ハッチ
  6
JWW_DASHED1
 62
   120
370
     5
100
AcDbLine
 10
2553.999228297054
 20
-1946.741849127151
 30
0.0
 11
2773.499228297052
 21
-1727.241849127153
 31
0.0
  0
LINE
  5
4AB
330
1F
100
AcDbEntity
  8
0-C_ハッチ
  6
JWW_DASHED1
 62
   120
370
     5
100
AcDbLine
 10
2553.999228297054
 20
-1932.599713503415
 30
0.0
 11
2773.499228297052
 21
-1713.099713503418
 31
0.0
  0
LINE
  5
4AC
330
1F
100
AcDbEntity
  8
0-C_ハッチ
  6
JWW_DASHED1
 62
   120
370
     5
100
AcDbLine
 10
2553.999228297054
 20
-1918.457577879682
 30
0.0
 11
2773.499228297052
 21
-1698.957577879685
 31
0.0
  0
LINE
  5
4AD
330
1F
100
AcDbEntity
  8
0-C_ハッチ
  6
JWW_DASHED1
 62
   120
370
     5
100
AcDbLine
 10
2553.999228297054
 20
-1904.315442255951
 30
0.0
 11
2773.499228297052
 21
-1684.815442255953
 31
0.0
  0
LINE
  5
4AE
330
1F
100
AcDbEntity
  8
0-C_ハッチ
  6
JWW_DASHED1
 62
   120
370
     5
100
AcDbLine
 10
2553.999228297054
 20
-1890.173306632216
 30
0.0
 11
2773.499228297052
 21
-1670.673306632218
 31
0.0
  0
LINE
  5
4AF
330
1F
100
AcDbEntity
  8
0-C_ハッチ
  6
JWW_DASHED1
 62
   120
370
     5
100
AcDbLine
 10
2553.999228297054
 20
-1876.031171008482
 30
0.0
 11
2773.499228297052
 21
-1656.531171008485
 31
0.0
  0
LINE
  5
4B0
330
1F
100
AcDbEntity
  8
0-C_ハッチ
  6
JWW_DASHED1
 62
   120
370
     5
100
AcDbLine
 10
2553.999228297054
 20
-1861.889035384751
 30
0.0
 11
2773.499228297052
 21
-1642.389035384753
 31
0.0
  0
LINE
  5
4B1
330
1F
100
AcDbEntity
  8
0-C_ハッチ
  6
JWW_DASHED1
 62
   120
370
     5
100
AcDbLine
 10
2553.999228297054
 20
-1847.746899761016
 30
0.0
 11
2773.499228297052
 21
-1628.246899761018
 31
0.0
  0
LINE
  5
4B2
330
1F
100
AcDbEntity
  8
0-C_ハッチ
  6
JWW_DASHED1
 62
   120
370
     5
100
AcDbLine
 10
2553.999228297054
 20
-1833.604764137283
 30
0.0
 11
2773.499228297052
 21
-1614.104764137285
 31
0.0
  0
LINE
  5
4B3
330
1F
100
AcDbEntity
  8
0-C_ハッチ
  6
JWW_DASHED1
 62
   120
370
     5
100
AcDbLine
 10
2553.999228297054
 20
-1819.462628513548
 30
0.0
 11
2773.499228297052
 21
-1599.962628513553
 31
0.0
  0
LINE
  5
4B4
330
1F
100
AcDbEntity
  8
0-C_ハッチ
  6
JWW_DASHED1
 62
   120
370
     5
100
AcDbLine
 10
2553.999228297054
 20
-1805.320492889815
 30
0.0
 11
2773.499228297052
 21
-1585.820492889818
 31
0.0
  0
LINE
  5
4B5
330
1F
100
AcDbEntity
  8
0-C_ハッチ
  6
JWW_DASHED1
 62
   120
370
     5
100
AcDbLine
 10
2553.999228297054
 20
-1791.178357266083
 30
0.0
 11
2773.499228297052
 21
-1571.678357266085
 31
0.0
  0
LINE
  5
4B6
330
1F
100
AcDbEntity
  8
0-C_ハッチ
  6
JWW_DASHED1
 62
   120
370
     5
100
AcDbLine
 10
2553.999228297054
 20
-1777.036221642349
 30
0.0
 11
2773.499228297052
 21
-1557.536221642351
 31
0.0
  0
LINE
  5
4B7
330
1F
100
AcDbEntity
  8
0-C_ハッチ
  6
JWW_DASHED1
 62
   120
370
     5
100
AcDbLine
 10
2553.999228297054
 20
-1762.894086018619
 30
0.0
 11
2773.499228297052
 21
-1543.394086018619
 31
0.0
  0
LINE
  5
4B8
330
1F
100
AcDbEntity
  8
0-C_ハッチ
  6
JWW_DASHED1
 62
   120
370
     5
100
AcDbLine
 10
2553.999228297054
 20
-1748.751950394883
 30
0.0
 11
2773.499228297052
 21
-1529.251950394885
 31
0.0
  0
LINE
  5
4B9
330
1F
100
AcDbEntity
  8
0-C_ハッチ
  6
JWW_DASHED1
 62
   120
370
     5
100
AcDbLine
 10
2553.999228297054
 20
-1734.609814771149
 30
0.0
 11
2773.499228297052
 21
-1515.109814771152
 31
0.0
  0
LINE
  5
4BA
330
1F
100
AcDbEntity
  8
0-C_ハッチ
  6
JWW_DASHED1
 62
   120
370
     5
100
AcDbLine
 10
2553.999228297054
 20
-1720.467679147415
 30
0.0
 11
2773.499228297052
 21
-1500.967679147418
 31
0.0
  0
LINE
  5
4BB
330
1F
100
AcDbEntity
  8
0-C_ハッチ
  6
JWW_DASHED1
 62
   120
370
     5
100
AcDbLine
 10
2553.999228297054
 20
-1706.325543523683
 30
0.0
 11
2773.499228297052
 21
-1486.825543523685
 31
0.0
  0
LINE
  5
4BC
330
1F
100
AcDbEntity
  8
0-C_ハッチ
  6
JWW_DASHED1
 62
   120
370
     5
100
AcDbLine
 10
2553.999228297054
 20
-1692.183407900004
 30
0.0
 11
2773.499228297052
 21
-1472.683407900005
 31
0.0
  0
LINE
  5
4BD
330
1F
100
AcDbEntity
  8
0-C_ハッチ
  6
JWW_DASHED1
 62
   120
370
     5
100
AcDbLine
 10
2553.999228297054
 20
-1678.041272276271
 30
0.0
 11
2773.499228297052
 21
-1458.541272276272
 31
0.0
  0
LINE
  5
4BE
330
1F
100
AcDbEntity
  8
0-C_ハッチ
  6
JWW_DASHED1
 62
   120
370
     5
100
AcDbLine
 10
2553.999228297054
 20
-1663.899136652538
 30
0.0
 11
2773.499228297052
 21
-1444.399136652539
 31
0.0
  0
LINE
  5
4BF
330
1F
100
AcDbEntity
  8
0-C_ハッチ
  6
JWW_DASHED1
 62
   120
370
     5
100
AcDbLine
 10
2553.999228297054
 20
-1649.757001028803
 30
0.0
 11
2773.499228297052
 21
-1430.257001028806
 31
0.0
  0
LINE
  5
4C0
330
1F
100
AcDbEntity
  8
0-C_ハッチ
  6
JWW_DASHED1
 62
   120
370
     5
100
AcDbLine
 10
2553.999228297054
 20
-1635.614865405071
 30
0.0
 11
2773.499228297052
 21
-1416.114865405072
 31
0.0
  0
LINE
  5
4C1
330
1F
100
AcDbEntity
  8
0-C_ハッチ
  6
JWW_DASHED1
 62
   120
370
     5
100
AcDbLine
 10
2553.999228297054
 20
-1621.472729781336
 30
0.0
 11
2773.499228297052
 21
-1401.97272978134
 31
0.0
  0
LINE
  5
4C2
330
1F
100
AcDbEntity
  8
0-C_ハッチ
  6
JWW_DASHED1
 62
   120
370
     5
100
AcDbLine
 10
2553.999228297054
 20
-1607.330594157607
 30
0.0
 11
2773.499228297052
 21
-1387.830594157606
 31
0.0
  0
LINE
  5
4C3
330
1F
100
AcDbEntity
  8
0-C_ハッチ
  6
JWW_DASHED1
 62
   120
370
     5
100
AcDbLine
 10
2553.999228297054
 20
-1593.188458533871
 30
0.0
 11
2773.499228297052
 21
-1373.688458533873
 31
0.0
  0
LINE
  5
4C4
330
1F
100
AcDbEntity
  8
0-C_ハッチ
  6
JWW_DASHED1
 62
   120
370
     5
100
AcDbLine
 10
2553.999228297054
 20
-1579.046322910137
 30
0.0
 11
2773.499228297052
 21
-1359.546322910139
 31
0.0
  0
LINE
  5
4C5
330
1F
100
AcDbEntity
  8
0-C_ハッチ
  6
JWW_DASHED1
 62
   120
370
     5
100
AcDbLine
 10
2553.999228297054
 20
-1564.904187286403
 30
0.0
 11
2773.499228297052
 21
-1345.404187286406
 31
0.0
  0
LINE
  5
4C6
330
1F
100
AcDbEntity
  8
0-C_ハッチ
  6
JWW_DASHED1
 62
   120
370
     5
100
AcDbLine
 10
2553.999228297054
 20
-1550.762051662671
 30
0.0
 11
2773.499228297052
 21
-1331.262051662673
 31
0.0
  0
LINE
  5
4C7
330
1F
100
AcDbEntity
  8
0-C_ハッチ
  6
JWW_DASHED1
 62
   120
370
     5
100
AcDbLine
 10
2553.999228297054
 20
-1536.619916038939
 30
0.0
 11
2773.499228297052
 21
-1317.11991603894
 31
0.0
  0
LINE
  5
4C8
330
1F
100
AcDbEntity
  8
0-C_ハッチ
  6
JWW_DASHED1
 62
   120
370
     5
100
AcDbLine
 10
2553.999228297054
 20
-1522.477780415203
 30
0.0
 11
2773.499228297052
 21
-1302.977780415206
 31
0.0
  0
LINE
  5
4C9
330
1F
100
AcDbEntity
  8
0-C_ハッチ
  6
JWW_DASHED1
 62
   120
370
     5
100
AcDbLine
 10
2553.999228297054
 20
-1508.335644791471
 30
0.0
 11
2773.499228297052
 21
-1288.835644791473
 31
0.0
  0
LINE
  5
4CA
330
1F
100
AcDbEntity
  8
0-C_ハッチ
  6
JWW_DASHED1
 62
   120
370
     5
100
AcDbLine
 10
2553.999228297054
 20
-1494.193509167739
 30
0.0
 11
2773.499228297052
 21
-1274.69350916774
 31
0.0
  0
LINE
  5
4CB
330
1F
100
AcDbEntity
  8
0-C_ハッチ
  6
JWW_DASHED1
 62
   120
370
     5
100
AcDbLine
 10
2553.999228297054
 20
-1480.051373544004
 30
0.0
 11
2773.499228297052
 21
-1260.551373544006
 31
0.0
  0
LINE
  5
4CC
330
1F
100
AcDbEntity
  8
0-C_ハッチ
  6
JWW_DASHED1
 62
   120
370
     5
100
AcDbLine
 10
2553.999228297054
 20
-1465.90923792027
 30
0.0
 11
2773.499228297052
 21
-1246.409237920274
 31
0.0
  0
LINE
  5
4CD
330
1F
100
AcDbEntity
  8
0-C_ハッチ
  6
JWW_DASHED1
 62
   120
370
     5
100
AcDbLine
 10
2553.999228297054
 20
-1451.767102296538
 30
0.0
 11
2773.499228297052
 21
-1232.26710229654
 31
0.0
  0
LINE
  5
4CE
330
1F
100
AcDbEntity
  8
0-C_ハッチ
  6
JWW_DASHED1
 62
   120
370
     5
100
AcDbLine
 10
2553.999228297054
 20
-1437.624966672804
 30
0.0
 11
2773.499228297052
 21
-1218.124966672806
 31
0.0
  0
LINE
  5
4CF
330
1F
100
AcDbEntity
  8
0-C_ハッチ
  6
JWW_DASHED1
 62
   120
370
     5
100
AcDbLine
 10
2553.999228297054
 20
-1423.48283104907
 30
0.0
 11
2773.499228297052
 21
-1203.982831049073
 31
0.0
  0
LINE
  5
4D0
330
1F
100
AcDbEntity
  8
0-C_ハッチ
  6
JWW_DASHED1
 62
   120
370
     5
100
AcDbLine
 10
2553.999228297054
 20
-1409.340695425339
 30
0.0
 11
2773.499228297052
 21
-1189.84069542534
 31
0.0
  0
LINE
  5
4D1
330
1F
100
AcDbEntity
  8
0-C_ハッチ
  6
JWW_DASHED1
 62
   120
370
     5
100
AcDbLine
 10
2553.999228297054
 20
-1395.198559801658
 30
0.0
 11
2773.499228297052
 21
-1175.69855980166
 31
0.0
  0
LINE
  5
4D2
330
1F
100
AcDbEntity
  8
0-C_ハッチ
  6
JWW_DASHED1
 62
   120
370
     5
100
AcDbLine
 10
2553.999228297054
 20
-1381.056424177926
 30
0.0
 11
2773.499228297052
 21
-1161.556424177927
 31
0.0
  0
LINE
  5
4D3
330
1F
100
AcDbEntity
  8
0-C_ハッチ
  6
JWW_DASHED1
 62
   120
370
     5
100
AcDbLine
 10
2553.999228297054
 20
-1366.914288554193
 30
0.0
 11
2773.499228297052
 21
-1147.414288554193
 31
0.0
  0
LINE
  5
4D4
330
1F
100
AcDbEntity
  8
0-C_ハッチ
  6
JWW_DASHED1
 62
   120
370
     5
100
AcDbLine
 10
2553.999228297054
 20
-1352.772152930459
 30
0.0
 11
2773.499228297052
 21
-1133.272152930461
 31
0.0
  0
LINE
  5
4D5
330
1F
100
AcDbEntity
  8
0-C_ハッチ
  6
JWW_DASHED1
 62
   120
370
     5
100
AcDbLine
 10
2553.999228297054
 20
-1338.630017306726
 30
0.0
 11
2773.499228297052
 21
-1119.130017306728
 31
0.0
  0
LINE
  5
4D6
330
1F
100
AcDbEntity
  8
0-C_ハッチ
  6
JWW_DASHED1
 62
   120
370
     5
100
AcDbLine
 10
2553.999228297054
 20
-1324.487881682993
 30
0.0
 11
2773.499228297052
 21
-1104.987881682995
 31
0.0
  0
LINE
  5
4D7
330
1F
100
AcDbEntity
  8
0-C_ハッチ
  6
JWW_DASHED1
 62
   120
370
     5
100
AcDbLine
 10
2553.999228297054
 20
-1310.345746059258
 30
0.0
 11
2773.499228297052
 21
-1090.84574605926
 31
0.0
  0
LINE
  5
4D8
330
1F
100
AcDbEntity
  8
0-C_ハッチ
  6
JWW_DASHED1
 62
   120
370
     5
100
AcDbLine
 10
2553.999228297054
 20
-1296.203610435526
 30
0.0
 11
2773.499228297052
 21
-1076.703610435528
 31
0.0
  0
LINE
  5
4D9
330
1F
100
AcDbEntity
  8
0-C_ハッチ
  6
JWW_DASHED1
 62
   120
370
     5
100
AcDbLine
 10
2553.999228297054
 20
-1282.061474811792
 30
0.0
 11
2773.499228297052
 21
-1062.561474811793
 31
0.0
  0
LINE
  5
4DA
330
1F
100
AcDbEntity
  8
0-C_ハッチ
  6
JWW_DASHED1
 62
   120
370
     5
100
AcDbLine
 10
2553.999228297054
 20
-1267.919339188058
 30
0.0
 11
2773.499228297052
 21
-1048.41933918806
 31
0.0
  0
LINE
  5
4DB
330
1F
100
AcDbEntity
  8
0-C_ハッチ
  6
JWW_DASHED1
 62
   120
370
     5
100
AcDbLine
 10
2553.999228297054
 20
-1253.777203564326
 30
0.0
 11
2773.499228297052
 21
-1034.277203564327
 31
0.0
  0
LINE
  5
4DC
330
1F
100
AcDbEntity
  8
0-C_ハッチ
  6
JWW_DASHED1
 62
   120
370
     5
100
AcDbLine
 10
2553.999228297054
 20
-1239.635067940592
 30
0.0
 11
2773.499228297052
 21
-1020.135067940594
 31
0.0
  0
LINE
  5
4DD
330
1F
100
AcDbEntity
  8
0-C_ハッチ
  6
JWW_DASHED1
 62
   120
370
     5
100
AcDbLine
 10
2553.999228297054
 20
-1225.492932316858
 30
0.0
 11
2773.499228297052
 21
-1005.99293231686
 31
0.0
  0
LINE
  5
4DE
330
1F
100
AcDbEntity
  8
0-C_ハッチ
  6
JWW_DASHED1
 62
   120
370
     5
100
AcDbLine
 10
2553.999228297054
 20
-1211.350796693126
 30
0.0
 11
2773.499228297052
 21
-991.8507966931269
 31
0.0
  0
LINE
  5
4DF
330
1F
100
AcDbEntity
  8
0-C_ハッチ
  6
JWW_DASHED1
 62
   120
370
     5
100
AcDbLine
 10
2553.999228297054
 20
-1197.20866106939
 30
0.0
 11
2773.499228297052
 21
-977.7086610693939
 31
0.0
  0
LINE
  5
4E0
330
1F
100
AcDbEntity
  8
0-C_ハッチ
  6
JWW_DASHED1
 62
   120
370
     5
100
AcDbLine
 10
2553.999228297054
 20
-1183.066525445659
 30
0.0
 11
2773.499228297052
 21
-963.5665254456602
 31
0.0
  0
LINE
  5
4E1
330
1F
100
AcDbEntity
  8
0-C_ハッチ
  6
JWW_DASHED1
 62
   120
370
     5
100
AcDbLine
 10
2553.999228297054
 20
-1168.924389821925
 30
0.0
 11
2773.499228297052
 21
-949.4243898219269
 31
0.0
  0
LINE
  5
4E2
330
1F
100
AcDbEntity
  8
0-C_ハッチ
  6
JWW_DASHED1
 62
   120
370
     5
100
AcDbLine
 10
2553.999228297054
 20
-1154.782254198194
 30
0.0
 11
2773.499228297052
 21
-935.2822541981941
 31
0.0
  0
LINE
  5
4E3
330
1F
100
AcDbEntity
  8
0-C_ハッチ
  6
JWW_DASHED1
 62
   120
370
     5
100
AcDbLine
 10
2553.999228297054
 20
-1140.640118574459
 30
0.0
 11
2773.499228297052
 21
-921.1401185744602
 31
0.0
  0
LINE
  5
4E4
330
1F
100
AcDbEntity
  8
0-C_ハッチ
  6
JWW_DASHED1
 62
   120
370
     5
100
AcDbLine
 10
2553.999228297054
 20
-1126.497982950725
 30
0.0
 11
2773.499228297052
 21
-906.9979829507264
 31
0.0
  0
LINE
  5
4E5
330
1F
100
AcDbEntity
  8
0-C_ハッチ
  6
JWW_DASHED1
 62
   120
370
     5
100
AcDbLine
 10
2553.999228297054
 20
-1112.355847326991
 30
0.0
 11
2773.499228297052
 21
-892.8558473269939
 31
0.0
  0
LINE
  5
4E6
330
1F
100
AcDbEntity
  8
0-C_ハッチ
  6
JWW_DASHED1
 62
   120
370
     5
100
AcDbLine
 10
3016.499228297053
 20
-871.9395417235808
 30
0.0
 11
3023.688686200391
 21
-864.7500838202426
 31
0.0
  0
LINE
  5
4E7
330
1F
100
AcDbEntity
  8
0-C_ハッチ
  6
JWW_DASHED1
 62
   120
370
     5
100
AcDbLine
 10
3016.499228297053
 20
-1069.929440455847
 30
0.0
 11
3221.678584932658
 21
-864.7500838202426
 31
0.0
  0
LINE
  5
4E8
330
1F
100
AcDbEntity
  8
0-C_ハッチ
  6
JWW_DASHED1
 62
   120
370
     5
100
AcDbLine
 10
3016.499228297053
 20
-1055.787304832114
 30
0.0
 11
3207.536449308926
 21
-864.7500838202426
 31
0.0
  0
LINE
  5
4E9
330
1F
100
AcDbEntity
  8
0-C_ハッチ
  6
JWW_DASHED1
 62
   120
370
     5
100
AcDbLine
 10
3016.499228297053
 20
-1041.64516920838
 30
0.0
 11
3193.39431368519
 21
-864.7500838202426
 31
0.0
  0
LINE
  5
4EA
330
1F
100
AcDbEntity
  8
0-C_ハッチ
  6
JWW_DASHED1
 62
   120
370
     5
100
AcDbLine
 10
3016.499228297053
 20
-1027.503033584648
 30
0.0
 11
3179.252178061457
 21
-864.7500838202426
 31
0.0
  0
LINE
  5
4EB
330
1F
100
AcDbEntity
  8
0-C_ハッチ
  6
JWW_DASHED1
 62
   120
370
     5
100
AcDbLine
 10
3016.499228297053
 20
-1013.360897960914
 30
0.0
 11
3165.110042437723
 21
-864.7500838202426
 31
0.0
  0
LINE
  5
4EC
330
1F
100
AcDbEntity
  8
0-C_ハッチ
  6
JWW_DASHED1
 62
   120
370
     5
100
AcDbLine
 10
3016.499228297053
 20
-999.2187623371799
 30
0.0
 11
3150.967906813991
 21
-864.7500838202426
 31
0.0
  0
LINE
  5
4ED
330
1F
100
AcDbEntity
  8
0-C_ハッチ
  6
JWW_DASHED1
 62
   120
370
     5
100
AcDbLine
 10
3016.499228297053
 20
-985.0766267134475
 30
0.0
 11
3136.825771190258
 21
-864.7500838202426
 31
0.0
  0
LINE
  5
4EE
330
1F
100
AcDbEntity
  8
0-C_ハッチ
  6
JWW_DASHED1
 62
   120
370
     5
100
AcDbLine
 10
3016.499228297053
 20
-970.9344910897137
 30
0.0
 11
3122.683635566525
 21
-864.7500838202426
 31
0.0
  0
LINE
  5
4EF
330
1F
100
AcDbEntity
  8
0-C_ハッチ
  6
JWW_DASHED1
 62
   120
370
     5
100
AcDbLine
 10
3016.499228297053
 20
-956.7923554659808
 30
0.0
 11
3108.541499942791
 21
-864.7500838202426
 31
0.0
  0
LINE
  5
4F0
330
1F
100
AcDbEntity
  8
0-C_ハッチ
  6
JWW_DASHED1
 62
   120
370
     5
100
AcDbLine
 10
3016.499228297053
 20
-942.650219842247
 30
0.0
 11
3094.399364319058
 21
-864.7500838202426
 31
0.0
  0
LINE
  5
4F1
330
1F
100
AcDbEntity
  8
0-C_ハッチ
  6
JWW_DASHED1
 62
   120
370
     5
100
AcDbLine
 10
3016.499228297053
 20
-928.5080842185141
 30
0.0
 11
3080.257228695325
 21
-864.7500838202426
 31
0.0
  0
LINE
  5
4F2
330
1F
100
AcDbEntity
  8
0-C_ハッチ
  6
JWW_DASHED1
 62
   120
370
     5
100
AcDbLine
 10
3016.499228297053
 20
-914.365948594781
 30
0.0
 11
3066.11509307159
 21
-864.7500838202426
 31
0.0
  0
LINE
  5
4F3
330
1F
100
AcDbEntity
  8
0-C_ハッチ
  6
JWW_DASHED1
 62
   120
370
     5
100
AcDbLine
 10
3016.499228297053
 20
-900.2238129710473
 30
0.0
 11
3051.972957447857
 21
-864.7500838202426
 31
0.0
  0
LINE
  5
4F4
330
1F
100
AcDbEntity
  8
0-C_ハッチ
  6
JWW_DASHED1
 62
   120
370
     5
100
AcDbLine
 10
3016.499228297053
 20
-886.081677347314
 30
0.0
 11
3037.830821824124
 21
-864.7500838202426
 31
0.0
  0
LINE
  5
4F5
330
1F
100
AcDbEntity
  8
0-C_ハッチ
  6
JWW_DASHED1
 62
   120
370
     5
100
AcDbLine
 10
3016.499228297053
 20
-1084.07157607958
 30
0.0
 11
3235.820720556392
 21
-864.7500838202426
 31
0.0
  0
LINE
  5
4F6
330
1F
100
AcDbEntity
  8
0-C_ハッチ
  6
JWW_DASHED1
 62
   120
370
     5
100
AcDbLine
 10
3016.499228297053
 20
-1098.213711703313
 30
0.0
 11
3235.999228297053
 21
-878.7137117033135
 31
0.0
  0
LINE
  5
4F7
330
1F
100
AcDbEntity
  8
0-C_ハッチ
  6
JWW_DASHED1
 62
   120
370
     5
100
AcDbLine
 10
3225.024181661664
 20
-2487.750083820242
 30
0.0
 11
3235.999228297053
 21
-2476.775037184853
 31
0.0
  0
LINE
  5
4F8
330
1F
100
AcDbEntity
  8
0-C_ハッチ
  6
JWW_DASHED1
 62
   120
370
     5
100
AcDbLine
 10
3027.034282929452
 20
-2487.750083820242
 30
0.0
 11
3235.999228297053
 21
-2278.785138452642
 31
0.0
  0
LINE
  5
4F9
330
1F
100
AcDbEntity
  8
0-C_ハッチ
  6
JWW_DASHED1
 62
   120
370
     5
100
AcDbLine
 10
3210.882046037931
 20
-2487.750083820242
 30
0.0
 11
3235.999228297053
 21
-2462.63290156112
 31
0.0
  0
LINE
  5
4FA
330
1F
100
AcDbEntity
  8
0-C_ハッチ
  6
JWW_DASHED1
 62
   120
370
     5
100
AcDbLine
 10
3196.739910414198
 20
-2487.750083820242
 30
0.0
 11
3235.999228297053
 21
-2448.490765937388
 31
0.0
  0
LINE
  5
4FB
330
1F
100
AcDbEntity
  8
0-C_ハッチ
  6
JWW_DASHED1
 62
   120
370
     5
100
AcDbLine
 10
3182.597774790465
 20
-2487.750083820242
 30
0.0
 11
3235.999228297053
 21
-2434.348630313654
 31
0.0
  0
LINE
  5
4FC
330
1F
100
AcDbEntity
  8
0-C_ハッチ
  6
JWW_DASHED1
 62
   120
370
     5
100
AcDbLine
 10
3168.455639166732
 20
-2487.750083820242
 30
0.0
 11
3235.999228297053
 21
-2420.206494689921
 31
0.0
  0
LINE
  5
4FD
330
1F
100
AcDbEntity
  8
0-C_ハッチ
  6
JWW_DASHED1
 62
   120
370
     5
100
AcDbLine
 10
3154.313503542998
 20
-2487.750083820242
 30
0.0
 11
3235.999228297053
 21
-2406.064359066187
 31
0.0
  0
LINE
  5
4FE
330
1F
100
AcDbEntity
  8
0-C_ハッチ
  6
JWW_DASHED1
 62
   120
370
     5
100
AcDbLine
 10
3140.171367919264
 20
-2487.750083820242
 30
0.0
 11
3235.999228297053
 21
-2391.922223442454
 31
0.0
  0
LINE
  5
4FF
330
1F
100
AcDbEntity
  8
0-C_ハッチ
  6
JWW_DASHED1
 62
   120
370
     5
100
AcDbLine
 10
3126.029232295586
 20
-2487.750083820242
 30
0.0
 11
3235.999228297053
 21
-2377.780087818775
 31
0.0
  0
LINE
  5
500
330
1F
100
AcDbEntity
  8
0-C_ハッチ
  6
JWW_DASHED1
 62
   120
370
     5
100
AcDbLine
 10
3111.887096671852
 20
-2487.750083820242
 30
0.0
 11
3235.999228297053
 21
-2363.637952195041
 31
0.0
  0
LINE
  5
501
330
1F
100
AcDbEntity
  8
0-C_ハッチ
  6
JWW_DASHED1
 62
   120
370
     5
100
AcDbLine
 10
3097.744961048119
 20
-2487.750083820242
 30
0.0
 11
3235.999228297053
 21
-2349.495816571307
 31
0.0
  0
LINE
  5
502
330
1F
100
AcDbEntity
  8
0-C_ハッチ
  6
JWW_DASHED1
 62
   120
370
     5
100
AcDbLine
 10
3083.602825424386
 20
-2487.750083820242
 30
0.0
 11
3235.999228297053
 21
-2335.353680947575
 31
0.0
  0
LINE
  5
503
330
1F
100
AcDbEntity
  8
0-C_ハッチ
  6
JWW_DASHED1
 62
   120
370
     5
100
AcDbLine
 10
3069.460689800653
 20
-2487.750083820242
 30
0.0
 11
3235.999228297053
 21
-2321.211545323841
 31
0.0
  0
LINE
  5
504
330
1F
100
AcDbEntity
  8
0-C_ハッチ
  6
JWW_DASHED1
 62
   120
370
     5
100
AcDbLine
 10
3055.318554176918
 20
-2487.750083820242
 30
0.0
 11
3235.999228297053
 21
-2307.069409700108
 31
0.0
  0
LINE
  5
505
330
1F
100
AcDbEntity
  8
0-C_ハッチ
  6
JWW_DASHED1
 62
   120
370
     5
100
AcDbLine
 10
3041.176418553186
 20
-2487.750083820242
 30
0.0
 11
3235.999228297053
 21
-2292.927274076375
 31
0.0
  0
LINE
  5
506
330
1F
100
AcDbEntity
  8
0-C_ハッチ
  6
JWW_DASHED1
 62
   120
370
     5
100
AcDbLine
 10
3016.499228297053
 20
-2484.143002828908
 30
0.0
 11
3235.999228297053
 21
-2264.643002828908
 31
0.0
  0
LINE
  5
507
330
1F
100
AcDbEntity
  8
0-C_ハッチ
  6
JWW_DASHED1
 62
   120
370
     5
100
AcDbLine
 10
3016.499228297053
 20
-2470.000867205175
 30
0.0
 11
3235.999228297053
 21
-2250.500867205175
 31
0.0
  0
LINE
  5
508
330
1F
100
AcDbEntity
  8
0-C_ハッチ
  6
JWW_DASHED1
 62
   120
370
     5
100
AcDbLine
 10
3016.499228297053
 20
-2455.858731581442
 30
0.0
 11
3235.999228297053
 21
-2236.358731581442
 31
0.0
  0
LINE
  5
509
330
1F
100
AcDbEntity
  8
0-C_ハッチ
  6
JWW_DASHED1
 62
   120
370
     5
100
AcDbLine
 10
3016.499228297053
 20
-2441.716595957708
 30
0.0
 11
3235.999228297053
 21
-2222.216595957708
 31
0.0
  0
LINE
  5
50A
330
1F
100
AcDbEntity
  8
0-C_ハッチ
  6
JWW_DASHED1
 62
   120
370
     5
100
AcDbLine
 10
3016.499228297053
 20
-2427.574460333975
 30
0.0
 11
3235.999228297053
 21
-2208.074460333975
 31
0.0
  0
LINE
  5
50B
330
1F
100
AcDbEntity
  8
0-C_ハッチ
  6
JWW_DASHED1
 62
   120
370
     5
100
AcDbLine
 10
3016.499228297053
 20
-2413.432324710242
 30
0.0
 11
3235.999228297053
 21
-2193.932324710241
 31
0.0
  0
LINE
  5
50C
330
1F
100
AcDbEntity
  8
0-C_ハッチ
  6
JWW_DASHED1
 62
   120
370
     5
100
AcDbLine
 10
3016.499228297053
 20
-2399.290189086509
 30
0.0
 11
3235.999228297053
 21
-2179.790189086507
 31
0.0
  0
LINE
  5
50D
330
1F
100
AcDbEntity
  8
0-C_ハッチ
  6
JWW_DASHED1
 62
   120
370
     5
100
AcDbLine
 10
3016.499228297053
 20
-2385.148053462775
 30
0.0
 11
3235.999228297053
 21
-2165.648053462775
 31
0.0
  0
LINE
  5
50E
330
1F
100
AcDbEntity
  8
0-C_ハッチ
  6
JWW_DASHED1
 62
   120
370
     5
100
AcDbLine
 10
3016.499228297053
 20
-2371.005917839041
 30
0.0
 11
3235.999228297053
 21
-2151.505917839041
 31
0.0
  0
LINE
  5
50F
330
1F
100
AcDbEntity
  8
0-C_ハッチ
  6
JWW_DASHED1
 62
   120
370
     5
100
AcDbLine
 10
3016.499228297053
 20
-2356.863782215308
 30
0.0
 11
3235.999228297053
 21
-2137.363782215307
 31
0.0
  0
LINE
  5
510
330
1F
100
AcDbEntity
  8
0-C_ハッチ
  6
JWW_DASHED1
 62
   120
370
     5
100
AcDbLine
 10
3016.499228297053
 20
-2342.721646591576
 30
0.0
 11
3235.999228297053
 21
-2123.221646591576
 31
0.0
  0
LINE
  5
511
330
1F
100
AcDbEntity
  8
0-C_ハッチ
  6
JWW_DASHED1
 62
   120
370
     5
100
AcDbLine
 10
3016.499228297053
 20
-2328.579510967841
 30
0.0
 11
3235.999228297053
 21
-2109.079510967842
 31
0.0
  0
LINE
  5
512
330
1F
100
AcDbEntity
  8
0-C_ハッチ
  6
JWW_DASHED1
 62
   120
370
     5
100
AcDbLine
 10
3016.499228297053
 20
-2314.437375344108
 30
0.0
 11
3235.999228297053
 21
-2094.937375344107
 31
0.0
  0
LINE
  5
513
330
1F
100
AcDbEntity
  8
0-C_ハッチ
  6
JWW_DASHED1
 62
   120
370
     5
100
AcDbLine
 10
3016.499228297053
 20
-2300.295239720375
 30
0.0
 11
3235.999228297053
 21
-2080.795239720374
 31
0.0
  0
LINE
  5
514
330
1F
100
AcDbEntity
  8
0-C_ハッチ
  6
JWW_DASHED1
 62
   120
370
     5
100
AcDbLine
 10
3016.499228297053
 20
-2286.153104096695
 30
0.0
 11
3235.999228297053
 21
-2066.653104096695
 31
0.0
  0
LINE
  5
515
330
1F
100
AcDbEntity
  8
0-C_ハッチ
  6
JWW_DASHED1
 62
   120
370
     5
100
AcDbLine
 10
3016.499228297053
 20
-2272.010968472963
 30
0.0
 11
3235.999228297053
 21
-2052.510968472963
 31
0.0
  0
LINE
  5
516
330
1F
100
AcDbEntity
  8
0-C_ハッチ
  6
JWW_DASHED1
 62
   120
370
     5
100
AcDbLine
 10
3016.499228297053
 20
-2257.86883284923
 30
0.0
 11
3235.999228297053
 21
-2038.36883284923
 31
0.0
  0
LINE
  5
517
330
1F
100
AcDbEntity
  8
0-C_ハッチ
  6
JWW_DASHED1
 62
   120
370
     5
100
AcDbLine
 10
3016.499228297053
 20
-2243.726697225496
 30
0.0
 11
3235.999228297053
 21
-2024.226697225495
 31
0.0
  0
LINE
  5
518
330
1F
100
AcDbEntity
  8
0-C_ハッチ
  6
JWW_DASHED1
 62
   120
370
     5
100
AcDbLine
 10
3016.499228297053
 20
-2229.584561601762
 30
0.0
 11
3235.999228297053
 21
-2010.084561601762
 31
0.0
  0
LINE
  5
519
330
1F
100
AcDbEntity
  8
0-C_ハッチ
  6
JWW_DASHED1
 62
   120
370
     5
100
AcDbLine
 10
3016.499228297053
 20
-2215.44242597803
 30
0.0
 11
3235.999228297053
 21
-1995.942425978028
 31
0.0
  0
LINE
  5
51A
330
1F
100
AcDbEntity
  8
0-C_ハッチ
  6
JWW_DASHED1
 62
   120
370
     5
100
AcDbLine
 10
3016.499228297053
 20
-2201.300290354296
 30
0.0
 11
3235.999228297053
 21
-1981.800290354295
 31
0.0
  0
LINE
  5
51B
330
1F
100
AcDbEntity
  8
0-C_ハッチ
  6
JWW_DASHED1
 62
   120
370
     5
100
AcDbLine
 10
3016.499228297053
 20
-2187.158154730563
 30
0.0
 11
3235.999228297053
 21
-1967.658154730563
 31
0.0
  0
LINE
  5
51C
330
1F
100
AcDbEntity
  8
0-C_ハッチ
  6
JWW_DASHED1
 62
   120
370
     5
100
AcDbLine
 10
3016.499228297053
 20
-2173.016019106829
 30
0.0
 11
3235.999228297053
 21
-1953.516019106829
 31
0.0
  0
LINE
  5
51D
330
1F
100
AcDbEntity
  8
0-C_ハッチ
  6
JWW_DASHED1
 62
   120
370
     5
100
AcDbLine
 10
3016.499228297053
 20
-2158.873883483096
 30
0.0
 11
3235.999228297053
 21
-1939.373883483095
 31
0.0
  0
LINE
  5
51E
330
1F
100
AcDbEntity
  8
0-C_ハッチ
  6
JWW_DASHED1
 62
   120
370
     5
100
AcDbLine
 10
3016.499228297053
 20
-2144.731747859363
 30
0.0
 11
3235.999228297053
 21
-1925.231747859363
 31
0.0
  0
LINE
  5
51F
330
1F
100
AcDbEntity
  8
0-C_ハッチ
  6
JWW_DASHED1
 62
   120
370
     5
100
AcDbLine
 10
3016.499228297053
 20
-2130.589612235629
 30
0.0
 11
3235.999228297053
 21
-1911.089612235629
 31
0.0
  0
LINE
  5
520
330
1F
100
AcDbEntity
  8
0-C_ハッチ
  6
JWW_DASHED1
 62
   120
370
     5
100
AcDbLine
 10
3016.499228297053
 20
-2116.447476611896
 30
0.0
 11
3235.999228297053
 21
-1896.947476611896
 31
0.0
  0
LINE
  5
521
330
1F
100
AcDbEntity
  8
0-C_ハッチ
  6
JWW_DASHED1
 62
   120
370
     5
100
AcDbLine
 10
3016.499228297053
 20
-2102.305340988163
 30
0.0
 11
3235.999228297053
 21
-1882.805340988162
 31
0.0
  0
LINE
  5
522
330
1F
100
AcDbEntity
  8
0-C_ハッチ
  6
JWW_DASHED1
 62
   120
370
     5
100
AcDbLine
 10
3016.499228297053
 20
-2088.16320536443
 30
0.0
 11
3235.999228297053
 21
-1868.663205364429
 31
0.0
  0
LINE
  5
523
330
1F
100
AcDbEntity
  8
0-C_ハッチ
  6
JWW_DASHED1
 62
   120
370
     5
100
AcDbLine
 10
3016.499228297053
 20
-2074.021069740696
 30
0.0
 11
3235.999228297053
 21
-1854.521069740696
 31
0.0
  0
LINE
  5
524
330
1F
100
AcDbEntity
  8
0-C_ハッチ
  6
JWW_DASHED1
 62
   120
370
     5
100
AcDbLine
 10
3016.499228297053
 20
-2059.878934116963
 30
0.0
 11
3235.999228297053
 21
-1840.378934116963
 31
0.0
  0
LINE
  5
525
330
1F
100
AcDbEntity
  8
0-C_ハッチ
  6
JWW_DASHED1
 62
   120
370
     5
100
AcDbLine
 10
3016.499228297053
 20
-2045.73679849323
 30
0.0
 11
3235.999228297053
 21
-1826.236798493229
 31
0.0
  0
LINE
  5
526
330
1F
100
AcDbEntity
  8
0-C_ハッチ
  6
JWW_DASHED1
 62
   120
370
     5
100
AcDbLine
 10
3016.499228297053
 20
-2031.594662869496
 30
0.0
 11
3235.999228297053
 21
-1812.094662869496
 31
0.0
  0
LINE
  5
527
330
1F
100
AcDbEntity
  8
0-C_ハッチ
  6
JWW_DASHED1
 62
   120
370
     5
100
AcDbLine
 10
3016.499228297053
 20
-2017.452527245763
 30
0.0
 11
3235.999228297053
 21
-1797.952527245763
 31
0.0
  0
LINE
  5
528
330
1F
100
AcDbEntity
  8
0-C_ハッチ
  6
JWW_DASHED1
 62
   120
370
     5
100
AcDbLine
 10
3016.499228297053
 20
-2003.310391622084
 30
0.0
 11
3235.999228297053
 21
-1783.810391622084
 31
0.0
  0
LINE
  5
529
330
1F
100
AcDbEntity
  8
0-C_ハッチ
  6
JWW_DASHED1
 62
   120
370
     5
100
AcDbLine
 10
3016.499228297053
 20
-1989.16825599835
 30
0.0
 11
3235.999228297053
 21
-1769.668255998351
 31
0.0
  0
LINE
  5
52A
330
1F
100
AcDbEntity
  8
0-C_ハッチ
  6
JWW_DASHED1
 62
   120
370
     5
100
AcDbLine
 10
3016.499228297053
 20
-1975.026120374617
 30
0.0
 11
3235.999228297053
 21
-1755.526120374617
 31
0.0
  0
LINE
  5
52B
330
1F
100
AcDbEntity
  8
0-C_ハッチ
  6
JWW_DASHED1
 62
   120
370
     5
100
AcDbLine
 10
3016.499228297053
 20
-1960.883984750883
 30
0.0
 11
3235.999228297053
 21
-1741.383984750883
 31
0.0
  0
LINE
  5
52C
330
1F
100
AcDbEntity
  8
0-C_ハッチ
  6
JWW_DASHED1
 62
   120
370
     5
100
AcDbLine
 10
3016.499228297053
 20
-1946.741849127151
 30
0.0
 11
3235.999228297053
 21
-1727.241849127151
 31
0.0
  0
LINE
  5
52D
330
1F
100
AcDbEntity
  8
0-C_ハッチ
  6
JWW_DASHED1
 62
   120
370
     5
100
AcDbLine
 10
3016.499228297053
 20
-1932.599713503417
 30
0.0
 11
3235.999228297053
 21
-1713.099713503417
 31
0.0
  0
LINE
  5
52E
330
1F
100
AcDbEntity
  8
0-C_ハッチ
  6
JWW_DASHED1
 62
   120
370
     5
100
AcDbLine
 10
3016.499228297053
 20
-1918.457577879685
 30
0.0
 11
3235.999228297053
 21
-1698.957577879683
 31
0.0
  0
LINE
  5
52F
330
1F
100
AcDbEntity
  8
0-C_ハッチ
  6
JWW_DASHED1
 62
   120
370
     5
100
AcDbLine
 10
3016.499228297053
 20
-1904.315442255951
 30
0.0
 11
3235.999228297053
 21
-1684.815442255951
 31
0.0
  0
LINE
  5
530
330
1F
100
AcDbEntity
  8
0-C_ハッチ
  6
JWW_DASHED1
 62
   120
370
     5
100
AcDbLine
 10
3016.499228297053
 20
-1890.173306632217
 30
0.0
 11
3235.999228297053
 21
-1670.673306632218
 31
0.0
  0
LINE
  5
531
330
1F
100
AcDbEntity
  8
0-C_ハッチ
  6
JWW_DASHED1
 62
   120
370
     5
100
AcDbLine
 10
3016.499228297053
 20
-1876.031171008484
 30
0.0
 11
3235.999228297053
 21
-1656.531171008484
 31
0.0
  0
LINE
  5
532
330
1F
100
AcDbEntity
  8
0-C_ハッチ
  6
JWW_DASHED1
 62
   120
370
     5
100
AcDbLine
 10
3016.499228297053
 20
-1861.889035384751
 30
0.0
 11
3235.999228297053
 21
-1642.389035384751
 31
0.0
  0
LINE
  5
533
330
1F
100
AcDbEntity
  8
0-C_ハッチ
  6
JWW_DASHED1
 62
   120
370
     5
100
AcDbLine
 10
3016.499228297053
 20
-1847.746899761016
 30
0.0
 11
3235.999228297053
 21
-1628.246899761016
 31
0.0
  0
LINE
  5
534
330
1F
100
AcDbEntity
  8
0-C_ハッチ
  6
JWW_DASHED1
 62
   120
370
     5
100
AcDbLine
 10
3016.499228297053
 20
-1833.604764137283
 30
0.0
 11
3235.999228297053
 21
-1614.104764137283
 31
0.0
  0
LINE
  5
535
330
1F
100
AcDbEntity
  8
0-C_ハッチ
  6
JWW_DASHED1
 62
   120
370
     5
100
AcDbLine
 10
3016.499228297053
 20
-1819.462628513551
 30
0.0
 11
3235.999228297053
 21
-1599.962628513551
 31
0.0
  0
LINE
  5
536
330
1F
100
AcDbEntity
  8
0-C_ハッチ
  6
JWW_DASHED1
 62
   120
370
     5
100
AcDbLine
 10
3016.499228297053
 20
-1805.320492889818
 30
0.0
 11
3235.999228297053
 21
-1585.820492889817
 31
0.0
  0
LINE
  5
537
330
1F
100
AcDbEntity
  8
0-C_ハッチ
  6
JWW_DASHED1
 62
   120
370
     5
100
AcDbLine
 10
3016.499228297053
 20
-1791.178357266083
 30
0.0
 11
3235.999228297053
 21
-1571.678357266083
 31
0.0
  0
LINE
  5
538
330
1F
100
AcDbEntity
  8
0-C_ハッチ
  6
JWW_DASHED1
 62
   120
370
     5
100
AcDbLine
 10
3016.499228297053
 20
-1777.03622164235
 30
0.0
 11
3235.999228297053
 21
-1557.536221642351
 31
0.0
  0
LINE
  5
539
330
1F
100
AcDbEntity
  8
0-C_ハッチ
  6
JWW_DASHED1
 62
   120
370
     5
100
AcDbLine
 10
3016.499228297053
 20
-1762.894086018617
 30
0.0
 11
3235.999228297053
 21
-1543.394086018618
 31
0.0
  0
LINE
  5
53A
330
1F
100
AcDbEntity
  8
0-C_ハッチ
  6
JWW_DASHED1
 62
   120
370
     5
100
AcDbLine
 10
3016.499228297053
 20
-1748.751950394883
 30
0.0
 11
3235.999228297053
 21
-1529.251950394883
 31
0.0
  0
LINE
  5
53B
330
1F
100
AcDbEntity
  8
0-C_ハッチ
  6
JWW_DASHED1
 62
   120
370
     5
100
AcDbLine
 10
3016.499228297053
 20
-1734.609814771149
 30
0.0
 11
3235.999228297053
 21
-1515.10981477115
 31
0.0
  0
LINE
  5
53C
330
1F
100
AcDbEntity
  8
0-C_ハッチ
  6
JWW_DASHED1
 62
   120
370
     5
100
AcDbLine
 10
3016.499228297053
 20
-1720.467679147417
 30
0.0
 11
3235.999228297053
 21
-1500.967679147417
 31
0.0
  0
LINE
  5
53D
330
1F
100
AcDbEntity
  8
0-C_ハッチ
  6
JWW_DASHED1
 62
   120
370
     5
100
AcDbLine
 10
3016.499228297053
 20
-1706.325543523683
 30
0.0
 11
3235.999228297053
 21
-1486.825543523683
 31
0.0
  0
LINE
  5
53E
330
1F
100
AcDbEntity
  8
0-C_ハッチ
  6
JWW_DASHED1
 62
   120
370
     5
100
AcDbLine
 10
3016.499228297053
 20
-1692.183407900005
 30
0.0
 11
3235.999228297053
 21
-1472.683407900005
 31
0.0
  0
LINE
  5
53F
330
1F
100
AcDbEntity
  8
0-C_ハッチ
  6
JWW_DASHED1
 62
   120
370
     5
100
AcDbLine
 10
3016.499228297053
 20
-1678.041272276271
 30
0.0
 11
3235.999228297053
 21
-1458.541272276271
 31
0.0
  0
LINE
  5
540
330
1F
100
AcDbEntity
  8
0-C_ハッチ
  6
JWW_DASHED1
 62
   120
370
     5
100
AcDbLine
 10
3016.499228297053
 20
-1663.899136652538
 30
0.0
 11
3235.999228297053
 21
-1444.399136652538
 31
0.0
  0
LINE
  5
541
330
1F
100
AcDbEntity
  8
0-C_ハッチ
  6
JWW_DASHED1
 62
   120
370
     5
100
AcDbLine
 10
3016.499228297053
 20
-1649.757001028804
 30
0.0
 11
3235.999228297053
 21
-1430.257001028805
 31
0.0
  0
LINE
  5
542
330
1F
100
AcDbEntity
  8
0-C_ハッチ
  6
JWW_DASHED1
 62
   120
370
     5
100
AcDbLine
 10
3016.499228297053
 20
-1635.614865405071
 30
0.0
 11
3235.999228297053
 21
-1416.114865405071
 31
0.0
  0
LINE
  5
543
330
1F
100
AcDbEntity
  8
0-C_ハッチ
  6
JWW_DASHED1
 62
   120
370
     5
100
AcDbLine
 10
3016.499228297053
 20
-1621.472729781338
 30
0.0
 11
3235.999228297053
 21
-1401.972729781338
 31
0.0
  0
LINE
  5
544
330
1F
100
AcDbEntity
  8
0-C_ハッチ
  6
JWW_DASHED1
 62
   120
370
     5
100
AcDbLine
 10
3016.499228297053
 20
-1607.330594157605
 30
0.0
 11
3235.999228297053
 21
-1387.830594157606
 31
0.0
  0
LINE
  5
545
330
1F
100
AcDbEntity
  8
0-C_ハッチ
  6
JWW_DASHED1
 62
   120
370
     5
100
AcDbLine
 10
3016.499228297053
 20
-1593.188458533871
 30
0.0
 11
3235.999228297053
 21
-1373.688458533873
 31
0.0
  0
LINE
  5
546
330
1F
100
AcDbEntity
  8
0-C_ハッチ
  6
JWW_DASHED1
 62
   120
370
     5
100
AcDbLine
 10
3016.499228297053
 20
-1579.046322910139
 30
0.0
 11
3235.999228297053
 21
-1359.546322910139
 31
0.0
  0
LINE
  5
547
330
1F
100
AcDbEntity
  8
0-C_ハッチ
  6
JWW_DASHED1
 62
   120
370
     5
100
AcDbLine
 10
3016.499228297053
 20
-1564.904187286405
 30
0.0
 11
3235.999228297053
 21
-1345.404187286405
 31
0.0
  0
LINE
  5
548
330
1F
100
AcDbEntity
  8
0-C_ハッチ
  6
JWW_DASHED1
 62
   120
370
     5
100
AcDbLine
 10
3016.499228297053
 20
-1550.762051662671
 30
0.0
 11
3235.999228297053
 21
-1331.262051662671
 31
0.0
  0
LINE
  5
549
330
1F
100
AcDbEntity
  8
0-C_ハッチ
  6
JWW_DASHED1
 62
   120
370
     5
100
AcDbLine
 10
3016.499228297053
 20
-1536.619916038939
 30
0.0
 11
3235.999228297053
 21
-1317.119916038938
 31
0.0
  0
LINE
  5
54A
330
1F
100
AcDbEntity
  8
0-C_ハッチ
  6
JWW_DASHED1
 62
   120
370
     5
100
AcDbLine
 10
3016.499228297053
 20
-1522.477780415205
 30
0.0
 11
3235.999228297053
 21
-1302.977780415205
 31
0.0
  0
LINE
  5
54B
330
1F
100
AcDbEntity
  8
0-C_ハッチ
  6
JWW_DASHED1
 62
   120
370
     5
100
AcDbLine
 10
3016.499228297053
 20
-1508.335644791471
 30
0.0
 11
3235.999228297053
 21
-1288.835644791472
 31
0.0
  0
LINE
  5
54C
330
1F
100
AcDbEntity
  8
0-C_ハッチ
  6
JWW_DASHED1
 62
   120
370
     5
100
AcDbLine
 10
3016.499228297053
 20
-1494.193509167739
 30
0.0
 11
3235.999228297053
 21
-1274.693509167738
 31
0.0
  0
LINE
  5
54D
330
1F
100
AcDbEntity
  8
0-C_ハッチ
  6
JWW_DASHED1
 62
   120
370
     5
100
AcDbLine
 10
3016.499228297053
 20
-1480.051373544004
 30
0.0
 11
3235.999228297053
 21
-1260.551373544006
 31
0.0
  0
LINE
  5
54E
330
1F
100
AcDbEntity
  8
0-C_ハッチ
  6
JWW_DASHED1
 62
   120
370
     5
100
AcDbLine
 10
3016.499228297053
 20
-1465.909237920272
 30
0.0
 11
3235.999228297053
 21
-1246.409237920272
 31
0.0
  0
LINE
  5
54F
330
1F
100
AcDbEntity
  8
0-C_ハッチ
  6
JWW_DASHED1
 62
   120
370
     5
100
AcDbLine
 10
3016.499228297053
 20
-1451.767102296538
 30
0.0
 11
3235.999228297053
 21
-1232.267102296539
 31
0.0
  0
LINE
  5
550
330
1F
100
AcDbEntity
  8
0-C_ハッチ
  6
JWW_DASHED1
 62
   120
370
     5
100
AcDbLine
 10
3016.499228297053
 20
-1437.624966672804
 30
0.0
 11
3235.999228297053
 21
-1218.124966672804
 31
0.0
  0
LINE
  5
551
330
1F
100
AcDbEntity
  8
0-C_ハッチ
  6
JWW_DASHED1
 62
   120
370
     5
100
AcDbLine
 10
3016.499228297053
 20
-1423.48283104907
 30
0.0
 11
3235.999228297053
 21
-1203.982831049073
 31
0.0
  0
LINE
  5
552
330
1F
100
AcDbEntity
  8
0-C_ハッチ
  6
JWW_DASHED1
 62
   120
370
     5
100
AcDbLine
 10
3016.499228297053
 20
-1409.340695425339
 30
0.0
 11
3235.999228297053
 21
-1189.840695425339
 31
0.0
  0
LINE
  5
553
330
1F
100
AcDbEntity
  8
0-C_ハッチ
  6
JWW_DASHED1
 62
   120
370
     5
100
AcDbLine
 10
3016.499228297053
 20
-1395.198559801658
 30
0.0
 11
3235.999228297053
 21
-1175.69855980166
 31
0.0
  0
LINE
  5
554
330
1F
100
AcDbEntity
  8
0-C_ハッチ
  6
JWW_DASHED1
 62
   120
370
     5
100
AcDbLine
 10
3016.499228297053
 20
-1381.056424177926
 30
0.0
 11
3235.999228297053
 21
-1161.556424177926
 31
0.0
  0
LINE
  5
555
330
1F
100
AcDbEntity
  8
0-C_ハッチ
  6
JWW_DASHED1
 62
   120
370
     5
100
AcDbLine
 10
3016.499228297053
 20
-1366.914288554193
 30
0.0
 11
3235.999228297053
 21
-1147.414288554193
 31
0.0
  0
LINE
  5
556
330
1F
100
AcDbEntity
  8
0-C_ハッチ
  6
JWW_DASHED1
 62
   120
370
     5
100
AcDbLine
 10
3016.499228297053
 20
-1352.772152930459
 30
0.0
 11
3235.999228297053
 21
-1133.272152930459
 31
0.0
  0
LINE
  5
557
330
1F
100
AcDbEntity
  8
0-C_ハッチ
  6
JWW_DASHED1
 62
   120
370
     5
100
AcDbLine
 10
3016.499228297053
 20
-1338.630017306726
 30
0.0
 11
3235.999228297053
 21
-1119.130017306726
 31
0.0
  0
LINE
  5
558
330
1F
100
AcDbEntity
  8
0-C_ハッチ
  6
JWW_DASHED1
 62
   120
370
     5
100
AcDbLine
 10
3016.499228297053
 20
-1324.487881682993
 30
0.0
 11
3235.999228297053
 21
-1104.987881682993
 31
0.0
  0
LINE
  5
559
330
1F
100
AcDbEntity
  8
0-C_ハッチ
  6
JWW_DASHED1
 62
   120
370
     5
100
AcDbLine
 10
3016.499228297053
 20
-1310.345746059258
 30
0.0
 11
3235.999228297053
 21
-1090.84574605926
 31
0.0
  0
LINE
  5
55A
330
1F
100
AcDbEntity
  8
0-C_ハッチ
  6
JWW_DASHED1
 62
   120
370
     5
100
AcDbLine
 10
3016.499228297053
 20
-1296.203610435526
 30
0.0
 11
3235.999228297053
 21
-1076.703610435527
 31
0.0
  0
LINE
  5
55B
330
1F
100
AcDbEntity
  8
0-C_ハッチ
  6
JWW_DASHED1
 62
   120
370
     5
100
AcDbLine
 10
3016.499228297053
 20
-1282.061474811792
 30
0.0
 11
3235.999228297053
 21
-1062.561474811793
 31
0.0
  0
LINE
  5
55C
330
1F
100
AcDbEntity
  8
0-C_ハッチ
  6
JWW_DASHED1
 62
   120
370
     5
100
AcDbLine
 10
3016.499228297053
 20
-1267.919339188058
 30
0.0
 11
3235.999228297053
 21
-1048.41933918806
 31
0.0
  0
LINE
  5
55D
330
1F
100
AcDbEntity
  8
0-C_ハッチ
  6
JWW_DASHED1
 62
   120
370
     5
100
AcDbLine
 10
3016.499228297053
 20
-1253.777203564326
 30
0.0
 11
3235.999228297053
 21
-1034.277203564327
 31
0.0
  0
LINE
  5
55E
330
1F
100
AcDbEntity
  8
0-C_ハッチ
  6
JWW_DASHED1
 62
   120
370
     5
100
AcDbLine
 10
3016.499228297053
 20
-1239.635067940592
 30
0.0
 11
3235.999228297053
 21
-1020.135067940592
 31
0.0
  0
LINE
  5
55F
330
1F
100
AcDbEntity
  8
0-C_ハッチ
  6
JWW_DASHED1
 62
   120
370
     5
100
AcDbLine
 10
3016.499228297053
 20
-1225.492932316858
 30
0.0
 11
3235.999228297053
 21
-1005.992932316859
 31
0.0
  0
LINE
  5
560
330
1F
100
AcDbEntity
  8
0-C_ハッチ
  6
JWW_DASHED1
 62
   120
370
     5
100
AcDbLine
 10
3016.499228297053
 20
-1211.350796693126
 30
0.0
 11
3235.999228297053
 21
-991.8507966931252
 31
0.0
  0
LINE
  5
561
330
1F
100
AcDbEntity
  8
0-C_ハッチ
  6
JWW_DASHED1
 62
   120
370
     5
100
AcDbLine
 10
3016.499228297053
 20
-1197.208661069392
 30
0.0
 11
3235.999228297053
 21
-977.7086610693939
 31
0.0
  0
LINE
  5
562
330
1F
100
AcDbEntity
  8
0-C_ハッチ
  6
JWW_DASHED1
 62
   120
370
     5
100
AcDbLine
 10
3016.499228297053
 20
-1183.066525445659
 30
0.0
 11
3235.999228297053
 21
-963.5665254456585
 31
0.0
  0
LINE
  5
563
330
1F
100
AcDbEntity
  8
0-C_ハッチ
  6
JWW_DASHED1
 62
   120
370
     5
100
AcDbLine
 10
3016.499228297053
 20
-1168.924389821925
 30
0.0
 11
3235.999228297053
 21
-949.4243898219269
 31
0.0
  0
LINE
  5
564
330
1F
100
AcDbEntity
  8
0-C_ハッチ
  6
JWW_DASHED1
 62
   120
370
     5
100
AcDbLine
 10
3016.499228297053
 20
-1154.782254198192
 30
0.0
 11
3235.999228297053
 21
-935.2822541981923
 31
0.0
  0
LINE
  5
565
330
1F
100
AcDbEntity
  8
0-C_ハッチ
  6
JWW_DASHED1
 62
   120
370
     5
100
AcDbLine
 10
3016.499228297053
 20
-1140.640118574459
 30
0.0
 11
3235.999228297053
 21
-921.1401185744602
 31
0.0
  0
LINE
  5
566
330
1F
100
AcDbEntity
  8
0-C_ハッチ
  6
JWW_DASHED1
 62
   120
370
     5
100
AcDbLine
 10
3016.499228297053
 20
-1126.497982950725
 30
0.0
 11
3235.999228297053
 21
-906.9979829507264
 31
0.0
  0
LINE
  5
567
330
1F
100
AcDbEntity
  8
0-C_ハッチ
  6
JWW_DASHED1
 62
   120
370
     5
100
AcDbLine
 10
3016.499228297053
 20
-1112.355847326993
 30
0.0
 11
3235.999228297053
 21
-892.8558473269923
 31
0.0
  0
LINE
  5
568
330
1F
100
AcDbEntity
  8
0-C_ハッチ
  6
Continuous
 62
   120
370
     5
100
AcDbLine
 10
3363.999228297052
 20
-864.7500838202426
 30
0.0
 11
3583.499228297052
 21
-864.7500838202426
 31
0.0
  0
LINE
  5
569
330
1F
100
AcDbEntity
  8
0-C_ハッチ
  6
JWW_DASHED1
 62
   120
370
     5
100
AcDbLine
 10
3363.999228297052
 20
-871.9395417235812
 30
0.0
 11
3371.188686200392
 21
-864.7500838202426
 31
0.0
  0
LINE
  5
56A
330
1F
100
AcDbEntity
  8
0-C_ハッチ
  6
JWW_DASHED1
 62
   120
370
     5
100
AcDbLine
 10
3363.999228297052
 20
-1084.071576079582
 30
0.0
 11
3583.320720556391
 21
-864.7500838202426
 31
0.0
  0
LINE
  5
56B
330
1F
100
AcDbEntity
  8
0-C_ハッチ
  6
JWW_DASHED1
 62
   120
370
     5
100
AcDbLine
 10
3363.999228297052
 20
-1069.929440455849
 30
0.0
 11
3569.178584932657
 21
-864.7500838202426
 31
0.0
  0
LINE
  5
56C
330
1F
100
AcDbEntity
  8
0-C_ハッチ
  6
JWW_DASHED1
 62
   120
370
     5
100
AcDbLine
 10
3363.999228297052
 20
-1055.787304832116
 30
0.0
 11
3555.036449308925
 21
-864.7500838202426
 31
0.0
  0
LINE
  5
56D
330
1F
100
AcDbEntity
  8
0-C_ハッチ
  6
JWW_DASHED1
 62
   120
370
     5
100
AcDbLine
 10
3363.999228297052
 20
-1041.645169208382
 30
0.0
 11
3540.894313685192
 21
-864.7500838202426
 31
0.0
  0
LINE
  5
56E
330
1F
100
AcDbEntity
  8
0-C_ハッチ
  6
JWW_DASHED1
 62
   120
370
     5
100
AcDbLine
 10
3363.999228297052
 20
-1027.503033584648
 30
0.0
 11
3526.752178061459
 21
-864.7500838202426
 31
0.0
  0
LINE
  5
56F
330
1F
100
AcDbEntity
  8
0-C_ハッチ
  6
JWW_DASHED1
 62
   120
370
     5
100
AcDbLine
 10
3363.999228297052
 20
-1013.360897960915
 30
0.0
 11
3512.610042437725
 21
-864.7500838202426
 31
0.0
  0
LINE
  5
570
330
1F
100
AcDbEntity
  8
0-C_ハッチ
  6
JWW_DASHED1
 62
   120
370
     5
100
AcDbLine
 10
3363.999228297052
 20
-999.2187623371817
 30
0.0
 11
3498.467906813991
 21
-864.7500838202426
 31
0.0
  0
LINE
  5
571
330
1F
100
AcDbEntity
  8
0-C_ハッチ
  6
JWW_DASHED1
 62
   120
370
     5
100
AcDbLine
 10
3363.999228297052
 20
-985.0766267134475
 30
0.0
 11
3484.325771190257
 21
-864.7500838202426
 31
0.0
  0
LINE
  5
572
330
1F
100
AcDbEntity
  8
0-C_ハッチ
  6
JWW_DASHED1
 62
   120
370
     5
100
AcDbLine
 10
3363.999228297052
 20
-970.9344910897154
 30
0.0
 11
3470.183635566525
 21
-864.7500838202426
 31
0.0
  0
LINE
  5
573
330
1F
100
AcDbEntity
  8
0-C_ハッチ
  6
JWW_DASHED1
 62
   120
370
     5
100
AcDbLine
 10
3363.999228297052
 20
-956.7923554659825
 30
0.0
 11
3456.041499942792
 21
-864.7500838202426
 31
0.0
  0
LINE
  5
574
330
1F
100
AcDbEntity
  8
0-C_ハッチ
  6
JWW_DASHED1
 62
   120
370
     5
100
AcDbLine
 10
3363.999228297052
 20
-942.6502198422487
 30
0.0
 11
3441.899364319059
 21
-864.7500838202426
 31
0.0
  0
LINE
  5
575
330
1F
100
AcDbEntity
  8
0-C_ハッチ
  6
JWW_DASHED1
 62
   120
370
     5
100
AcDbLine
 10
3363.999228297052
 20
-928.5080842185157
 30
0.0
 11
3427.757228695325
 21
-864.7500838202426
 31
0.0
  0
LINE
  5
576
330
1F
100
AcDbEntity
  8
0-C_ハッチ
  6
JWW_DASHED1
 62
   120
370
     5
100
AcDbLine
 10
3363.999228297052
 20
-914.3659485947811
 30
0.0
 11
3413.615093071591
 21
-864.7500838202426
 31
0.0
  0
LINE
  5
577
330
1F
100
AcDbEntity
  8
0-C_ハッチ
  6
JWW_DASHED1
 62
   120
370
     5
100
AcDbLine
 10
3363.999228297052
 20
-900.223812971049
 30
0.0
 11
3399.472957447859
 21
-864.7500838202426
 31
0.0
  0
LINE
  5
578
330
1F
100
AcDbEntity
  8
0-C_ハッチ
  6
JWW_DASHED1
 62
   120
370
     5
100
AcDbLine
 10
3363.999228297052
 20
-886.0816773473157
 30
0.0
 11
3385.330821824125
 21
-864.7500838202426
 31
0.0
  0
LINE
  5
579
330
1F
100
AcDbEntity
  8
0-C_ハッチ
  6
JWW_DASHED1
 62
   120
370
     5
100
AcDbLine
 10
3363.999228297052
 20
-1098.213711703315
 30
0.0
 11
3583.499228297052
 21
-878.7137117033152
 31
0.0
  0
LINE
  5
57A
330
1F
100
AcDbEntity
  8
0-C_ハッチ
  6
JWW_DASHED1
 62
   120
370
     5
100
AcDbLine
 10
3572.524181661665
 20
-2487.750083820242
 30
0.0
 11
3583.499228297052
 21
-2476.775037184855
 31
0.0
  0
LINE
  5
57B
330
1F
100
AcDbEntity
  8
0-C_ハッチ
  6
JWW_DASHED1
 62
   120
370
     5
100
AcDbLine
 10
3374.534282929453
 20
-2487.750083820242
 30
0.0
 11
3583.499228297052
 21
-2278.785138452642
 31
0.0
  0
LINE
  5
57C
330
1F
100
AcDbEntity
  8
0-C_ハッチ
  6
JWW_DASHED1
 62
   120
370
     5
100
AcDbLine
 10
3558.382046037932
 20
-2487.750083820242
 30
0.0
 11
3583.499228297052
 21
-2462.632901561122
 31
0.0
  0
LINE
  5
57D
330
1F
100
AcDbEntity
  8
0-C_ハッチ
  6
JWW_DASHED1
 62
   120
370
     5
100
AcDbLine
 10
3544.239910414198
 20
-2487.750083820242
 30
0.0
 11
3583.499228297052
 21
-2448.490765937388
 31
0.0
  0
LINE
  5
57E
330
1F
100
AcDbEntity
  8
0-C_ハッチ
  6
JWW_DASHED1
 62
   120
370
     5
100
AcDbLine
 10
3530.097774790466
 20
-2487.750083820242
 30
0.0
 11
3583.499228297052
 21
-2434.348630313654
 31
0.0
  0
LINE
  5
57F
330
1F
100
AcDbEntity
  8
0-C_ハッチ
  6
JWW_DASHED1
 62
   120
370
     5
100
AcDbLine
 10
3515.955639166732
 20
-2487.750083820242
 30
0.0
 11
3583.499228297052
 21
-2420.206494689921
 31
0.0
  0
LINE
  5
580
330
1F
100
AcDbEntity
  8
0-C_ハッチ
  6
JWW_DASHED1
 62
   120
370
     5
100
AcDbLine
 10
3501.813503542999
 20
-2487.750083820242
 30
0.0
 11
3583.499228297052
 21
-2406.064359066188
 31
0.0
  0
LINE
  5
581
330
1F
100
AcDbEntity
  8
0-C_ハッチ
  6
JWW_DASHED1
 62
   120
370
     5
100
AcDbLine
 10
3487.671367919265
 20
-2487.750083820242
 30
0.0
 11
3583.499228297052
 21
-2391.922223442454
 31
0.0
  0
LINE
  5
582
330
1F
100
AcDbEntity
  8
0-C_ハッチ
  6
JWW_DASHED1
 62
   120
370
     5
100
AcDbLine
 10
3473.529232295587
 20
-2487.750083820242
 30
0.0
 11
3583.499228297052
 21
-2377.780087818776
 31
0.0
  0
LINE
  5
583
330
1F
100
AcDbEntity
  8
0-C_ハッチ
  6
JWW_DASHED1
 62
   120
370
     5
100
AcDbLine
 10
3459.387096671853
 20
-2487.750083820242
 30
0.0
 11
3583.499228297052
 21
-2363.637952195043
 31
0.0
  0
LINE
  5
584
330
1F
100
AcDbEntity
  8
0-C_ハッチ
  6
JWW_DASHED1
 62
   120
370
     5
100
AcDbLine
 10
3445.24496104812
 20
-2487.750083820242
 30
0.0
 11
3583.499228297052
 21
-2349.495816571309
 31
0.0
  0
LINE
  5
585
330
1F
100
AcDbEntity
  8
0-C_ハッチ
  6
JWW_DASHED1
 62
   120
370
     5
100
AcDbLine
 10
3431.102825424387
 20
-2487.750083820242
 30
0.0
 11
3583.499228297052
 21
-2335.353680947575
 31
0.0
  0
LINE
  5
586
330
1F
100
AcDbEntity
  8
0-C_ハッチ
  6
JWW_DASHED1
 62
   120
370
     5
100
AcDbLine
 10
3416.960689800652
 20
-2487.750083820242
 30
0.0
 11
3583.499228297052
 21
-2321.211545323843
 31
0.0
  0
LINE
  5
587
330
1F
100
AcDbEntity
  8
0-C_ハッチ
  6
JWW_DASHED1
 62
   120
370
     5
100
AcDbLine
 10
3402.818554176919
 20
-2487.750083820242
 30
0.0
 11
3583.499228297052
 21
-2307.06940970011
 31
0.0
  0
LINE
  5
588
330
1F
100
AcDbEntity
  8
0-C_ハッチ
  6
JWW_DASHED1
 62
   120
370
     5
100
AcDbLine
 10
3388.676418553187
 20
-2487.750083820242
 30
0.0
 11
3583.499228297052
 21
-2292.927274076375
 31
0.0
  0
LINE
  5
589
330
1F
100
AcDbEntity
  8
0-C_ハッチ
  6
JWW_DASHED1
 62
   120
370
     5
100
AcDbLine
 10
3363.999228297052
 20
-2484.143002828909
 30
0.0
 11
3583.499228297052
 21
-2264.64300282891
 31
0.0
  0
LINE
  5
58A
330
1F
100
AcDbEntity
  8
0-C_ハッチ
  6
JWW_DASHED1
 62
   120
370
     5
100
AcDbLine
 10
3363.999228297052
 20
-2470.000867205175
 30
0.0
 11
3583.499228297052
 21
-2250.500867205177
 31
0.0
  0
LINE
  5
58B
330
1F
100
AcDbEntity
  8
0-C_ハッチ
  6
JWW_DASHED1
 62
   120
370
     5
100
AcDbLine
 10
3363.999228297052
 20
-2455.858731581442
 30
0.0
 11
3583.499228297052
 21
-2236.358731581442
 31
0.0
  0
LINE
  5
58C
330
1F
100
AcDbEntity
  8
0-C_ハッチ
  6
JWW_DASHED1
 62
   120
370
     5
100
AcDbLine
 10
3363.999228297052
 20
-2441.716595957709
 30
0.0
 11
3583.499228297052
 21
-2222.216595957708
 31
0.0
  0
LINE
  5
58D
330
1F
100
AcDbEntity
  8
0-C_ハッチ
  6
JWW_DASHED1
 62
   120
370
     5
100
AcDbLine
 10
3363.999228297052
 20
-2427.574460333975
 30
0.0
 11
3583.499228297052
 21
-2208.074460333975
 31
0.0
  0
LINE
  5
58E
330
1F
100
AcDbEntity
  8
0-C_ハッチ
  6
JWW_DASHED1
 62
   120
370
     5
100
AcDbLine
 10
3363.999228297052
 20
-2413.432324710242
 30
0.0
 11
3583.499228297052
 21
-2193.932324710242
 31
0.0
  0
LINE
  5
58F
330
1F
100
AcDbEntity
  8
0-C_ハッチ
  6
JWW_DASHED1
 62
   120
370
     5
100
AcDbLine
 10
3363.999228297052
 20
-2399.29018908651
 30
0.0
 11
3583.499228297052
 21
-2179.790189086509
 31
0.0
  0
LINE
  5
590
330
1F
100
AcDbEntity
  8
0-C_ハッチ
  6
JWW_DASHED1
 62
   120
370
     5
100
AcDbLine
 10
3363.999228297052
 20
-2385.148053462775
 30
0.0
 11
3583.499228297052
 21
-2165.648053462775
 31
0.0
  0
LINE
  5
591
330
1F
100
AcDbEntity
  8
0-C_ハッチ
  6
JWW_DASHED1
 62
   120
370
     5
100
AcDbLine
 10
3363.999228297052
 20
-2371.005917839042
 30
0.0
 11
3583.499228297052
 21
-2151.505917839043
 31
0.0
  0
LINE
  5
592
330
1F
100
AcDbEntity
  8
0-C_ハッチ
  6
JWW_DASHED1
 62
   120
370
     5
100
AcDbLine
 10
3363.999228297052
 20
-2356.863782215309
 30
0.0
 11
3583.499228297052
 21
-2137.363782215309
 31
0.0
  0
LINE
  5
593
330
1F
100
AcDbEntity
  8
0-C_ハッチ
  6
JWW_DASHED1
 62
   120
370
     5
100
AcDbLine
 10
3363.999228297052
 20
-2342.721646591576
 30
0.0
 11
3583.499228297052
 21
-2123.221646591576
 31
0.0
  0
LINE
  5
594
330
1F
100
AcDbEntity
  8
0-C_ハッチ
  6
JWW_DASHED1
 62
   120
370
     5
100
AcDbLine
 10
3363.999228297052
 20
-2328.579510967842
 30
0.0
 11
3583.499228297052
 21
-2109.079510967842
 31
0.0
  0
LINE
  5
595
330
1F
100
AcDbEntity
  8
0-C_ハッチ
  6
JWW_DASHED1
 62
   120
370
     5
100
AcDbLine
 10
3363.999228297052
 20
-2314.437375344109
 30
0.0
 11
3583.499228297052
 21
-2094.937375344109
 31
0.0
  0
LINE
  5
596
330
1F
100
AcDbEntity
  8
0-C_ハッチ
  6
JWW_DASHED1
 62
   120
370
     5
100
AcDbLine
 10
3363.999228297052
 20
-2300.295239720375
 30
0.0
 11
3583.499228297052
 21
-2080.795239720376
 31
0.0
  0
LINE
  5
597
330
1F
100
AcDbEntity
  8
0-C_ハッチ
  6
JWW_DASHED1
 62
   120
370
     5
100
AcDbLine
 10
3363.999228297052
 20
-2286.153104096697
 30
0.0
 11
3583.499228297052
 21
-2066.653104096697
 31
0.0
  0
LINE
  5
598
330
1F
100
AcDbEntity
  8
0-C_ハッチ
  6
JWW_DASHED1
 62
   120
370
     5
100
AcDbLine
 10
3363.999228297052
 20
-2272.010968472963
 30
0.0
 11
3583.499228297052
 21
-2052.510968472963
 31
0.0
  0
LINE
  5
599
330
1F
100
AcDbEntity
  8
0-C_ハッチ
  6
JWW_DASHED1
 62
   120
370
     5
100
AcDbLine
 10
3363.999228297052
 20
-2257.868832849231
 30
0.0
 11
3583.499228297052
 21
-2038.36883284923
 31
0.0
  0
LINE
  5
59A
330
1F
100
AcDbEntity
  8
0-C_ハッチ
  6
JWW_DASHED1
 62
   120
370
     5
100
AcDbLine
 10
3363.999228297052
 20
-2243.726697225497
 30
0.0
 11
3583.499228297052
 21
-2024.226697225497
 31
0.0
  0
LINE
  5
59B
330
1F
100
AcDbEntity
  8
0-C_ハッチ
  6
JWW_DASHED1
 62
   120
370
     5
100
AcDbLine
 10
3363.999228297052
 20
-2229.584561601764
 30
0.0
 11
3583.499228297052
 21
-2010.084561601764
 31
0.0
  0
LINE
  5
59C
330
1F
100
AcDbEntity
  8
0-C_ハッチ
  6
JWW_DASHED1
 62
   120
370
     5
100
AcDbLine
 10
3363.999228297052
 20
-2215.44242597803
 30
0.0
 11
3583.499228297052
 21
-1995.94242597803
 31
0.0
  0
LINE
  5
59D
330
1F
100
AcDbEntity
  8
0-C_ハッチ
  6
JWW_DASHED1
 62
   120
370
     5
100
AcDbLine
 10
3363.999228297052
 20
-2201.300290354297
 30
0.0
 11
3583.499228297052
 21
-1981.800290354297
 31
0.0
  0
LINE
  5
59E
330
1F
100
AcDbEntity
  8
0-C_ハッチ
  6
JWW_DASHED1
 62
   120
370
     5
100
AcDbLine
 10
3363.999228297052
 20
-2187.158154730563
 30
0.0
 11
3583.499228297052
 21
-1967.658154730564
 31
0.0
  0
LINE
  5
59F
330
1F
100
AcDbEntity
  8
0-C_ハッチ
  6
JWW_DASHED1
 62
   120
370
     5
100
AcDbLine
 10
3363.999228297052
 20
-2173.016019106829
 30
0.0
 11
3583.499228297052
 21
-1953.516019106831
 31
0.0
  0
LINE
  5
5A0
330
1F
100
AcDbEntity
  8
0-C_ハッチ
  6
JWW_DASHED1
 62
   120
370
     5
100
AcDbLine
 10
3363.999228297052
 20
-2158.873883483097
 30
0.0
 11
3583.499228297052
 21
-1939.373883483097
 31
0.0
  0
LINE
  5
5A1
330
1F
100
AcDbEntity
  8
0-C_ハッチ
  6
JWW_DASHED1
 62
   120
370
     5
100
AcDbLine
 10
3363.999228297052
 20
-2144.731747859364
 30
0.0
 11
3583.499228297052
 21
-1925.231747859363
 31
0.0
  0
LINE
  5
5A2
330
1F
100
AcDbEntity
  8
0-C_ハッチ
  6
JWW_DASHED1
 62
   120
370
     5
100
AcDbLine
 10
3363.999228297052
 20
-2130.589612235629
 30
0.0
 11
3583.499228297052
 21
-1911.089612235631
 31
0.0
  0
LINE
  5
5A3
330
1F
100
AcDbEntity
  8
0-C_ハッチ
  6
JWW_DASHED1
 62
   120
370
     5
100
AcDbLine
 10
3363.999228297052
 20
-2116.447476611897
 30
0.0
 11
3583.499228297052
 21
-1896.947476611897
 31
0.0
  0
LINE
  5
5A4
330
1F
100
AcDbEntity
  8
0-C_ハッチ
  6
JWW_DASHED1
 62
   120
370
     5
100
AcDbLine
 10
3363.999228297052
 20
-2102.305340988163
 30
0.0
 11
3583.499228297052
 21
-1882.805340988163
 31
0.0
  0
LINE
  5
5A5
330
1F
100
AcDbEntity
  8
0-C_ハッチ
  6
JWW_DASHED1
 62
   120
370
     5
100
AcDbLine
 10
3363.999228297052
 20
-2088.16320536443
 30
0.0
 11
3583.499228297052
 21
-1868.66320536443
 31
0.0
  0
LINE
  5
5A6
330
1F
100
AcDbEntity
  8
0-C_ハッチ
  6
JWW_DASHED1
 62
   120
370
     5
100
AcDbLine
 10
3363.999228297052
 20
-2074.021069740696
 30
0.0
 11
3583.499228297052
 21
-1854.521069740698
 31
0.0
  0
LINE
  5
5A7
330
1F
100
AcDbEntity
  8
0-C_ハッチ
  6
JWW_DASHED1
 62
   120
370
     5
100
AcDbLine
 10
3363.999228297052
 20
-2059.878934116965
 30
0.0
 11
3583.499228297052
 21
-1840.378934116965
 31
0.0
  0
LINE
  5
5A8
330
1F
100
AcDbEntity
  8
0-C_ハッチ
  6
JWW_DASHED1
 62
   120
370
     5
100
AcDbLine
 10
3363.999228297052
 20
-2045.73679849323
 30
0.0
 11
3583.499228297052
 21
-1826.236798493229
 31
0.0
  0
LINE
  5
5A9
330
1F
100
AcDbEntity
  8
0-C_ハッチ
  6
JWW_DASHED1
 62
   120
370
     5
100
AcDbLine
 10
3363.999228297052
 20
-2031.594662869496
 30
0.0
 11
3583.499228297052
 21
-1812.094662869496
 31
0.0
  0
LINE
  5
5AA
330
1F
100
AcDbEntity
  8
0-C_ハッチ
  6
JWW_DASHED1
 62
   120
370
     5
100
AcDbLine
 10
3363.999228297052
 20
-2017.452527245763
 30
0.0
 11
3583.499228297052
 21
-1797.952527245765
 31
0.0
  0
LINE
  5
5AB
330
1F
100
AcDbEntity
  8
0-C_ハッチ
  6
JWW_DASHED1
 62
   120
370
     5
100
AcDbLine
 10
3363.999228297052
 20
-2003.310391622084
 30
0.0
 11
3583.499228297052
 21
-1783.810391622084
 31
0.0
  0
LINE
  5
5AC
330
1F
100
AcDbEntity
  8
0-C_ハッチ
  6
JWW_DASHED1
 62
   120
370
     5
100
AcDbLine
 10
3363.999228297052
 20
-1989.16825599835
 30
0.0
 11
3583.499228297052
 21
-1769.668255998352
 31
0.0
  0
LINE
  5
5AD
330
1F
100
AcDbEntity
  8
0-C_ハッチ
  6
JWW_DASHED1
 62
   120
370
     5
100
AcDbLine
 10
3363.999228297052
 20
-1975.026120374617
 30
0.0
 11
3583.499228297052
 21
-1755.526120374618
 31
0.0
  0
LINE
  5
5AE
330
1F
100
AcDbEntity
  8
0-C_ハッチ
  6
JWW_DASHED1
 62
   120
370
     5
100
AcDbLine
 10
3363.999228297052
 20
-1960.883984750885
 30
0.0
 11
3583.499228297052
 21
-1741.383984750884
 31
0.0
  0
LINE
  5
5AF
330
1F
100
AcDbEntity
  8
0-C_ハッチ
  6
JWW_DASHED1
 62
   120
370
     5
100
AcDbLine
 10
3363.999228297052
 20
-1946.741849127152
 30
0.0
 11
3583.499228297052
 21
-1727.241849127153
 31
0.0
  0
LINE
  5
5B0
330
1F
100
AcDbEntity
  8
0-C_ハッチ
  6
JWW_DASHED1
 62
   120
370
     5
100
AcDbLine
 10
3363.999228297052
 20
-1932.599713503417
 30
0.0
 11
3583.499228297052
 21
-1713.099713503418
 31
0.0
  0
LINE
  5
5B1
330
1F
100
AcDbEntity
  8
0-C_ハッチ
  6
JWW_DASHED1
 62
   120
370
     5
100
AcDbLine
 10
3363.999228297052
 20
-1918.457577879685
 30
0.0
 11
3583.499228297052
 21
-1698.957577879685
 31
0.0
  0
LINE
  5
5B2
330
1F
100
AcDbEntity
  8
0-C_ハッチ
  6
JWW_DASHED1
 62
   120
370
     5
100
AcDbLine
 10
3363.999228297052
 20
-1904.315442255952
 30
0.0
 11
3583.499228297052
 21
-1684.815442255953
 31
0.0
  0
LINE
  5
5B3
330
1F
100
AcDbEntity
  8
0-C_ハッチ
  6
JWW_DASHED1
 62
   120
370
     5
100
AcDbLine
 10
3363.999228297052
 20
-1890.173306632217
 30
0.0
 11
3583.499228297052
 21
-1670.673306632218
 31
0.0
  0
LINE
  5
5B4
330
1F
100
AcDbEntity
  8
0-C_ハッチ
  6
JWW_DASHED1
 62
   120
370
     5
100
AcDbLine
 10
3363.999228297052
 20
-1876.031171008484
 30
0.0
 11
3583.499228297052
 21
-1656.531171008485
 31
0.0
  0
LINE
  5
5B5
330
1F
100
AcDbEntity
  8
0-C_ハッチ
  6
JWW_DASHED1
 62
   120
370
     5
100
AcDbLine
 10
3363.999228297052
 20
-1861.889035384752
 30
0.0
 11
3583.499228297052
 21
-1642.389035384753
 31
0.0
  0
LINE
  5
5B6
330
1F
100
AcDbEntity
  8
0-C_ハッチ
  6
JWW_DASHED1
 62
   120
370
     5
100
AcDbLine
 10
3363.999228297052
 20
-1847.746899761018
 30
0.0
 11
3583.499228297052
 21
-1628.246899761018
 31
0.0
  0
LINE
  5
5B7
330
1F
100
AcDbEntity
  8
0-C_ハッチ
  6
JWW_DASHED1
 62
   120
370
     5
100
AcDbLine
 10
3363.999228297052
 20
-1833.604764137285
 30
0.0
 11
3583.499228297052
 21
-1614.104764137285
 31
0.0
  0
LINE
  5
5B8
330
1F
100
AcDbEntity
  8
0-C_ハッチ
  6
JWW_DASHED1
 62
   120
370
     5
100
AcDbLine
 10
3363.999228297052
 20
-1819.462628513551
 30
0.0
 11
3583.499228297052
 21
-1599.962628513553
 31
0.0
  0
LINE
  5
5B9
330
1F
100
AcDbEntity
  8
0-C_ハッチ
  6
JWW_DASHED1
 62
   120
370
     5
100
AcDbLine
 10
3363.999228297052
 20
-1805.320492889818
 30
0.0
 11
3583.499228297052
 21
-1585.820492889818
 31
0.0
  0
LINE
  5
5BA
330
1F
100
AcDbEntity
  8
0-C_ハッチ
  6
JWW_DASHED1
 62
   120
370
     5
100
AcDbLine
 10
3363.999228297052
 20
-1791.178357266085
 30
0.0
 11
3583.499228297052
 21
-1571.678357266085
 31
0.0
  0
LINE
  5
5BB
330
1F
100
AcDbEntity
  8
0-C_ハッチ
  6
JWW_DASHED1
 62
   120
370
     5
100
AcDbLine
 10
3363.999228297052
 20
-1777.03622164235
 30
0.0
 11
3583.499228297052
 21
-1557.536221642351
 31
0.0
  0
LINE
  5
5BC
330
1F
100
AcDbEntity
  8
0-C_ハッチ
  6
JWW_DASHED1
 62
   120
370
     5
100
AcDbLine
 10
3363.999228297052
 20
-1762.894086018619
 30
0.0
 11
3583.499228297052
 21
-1543.394086018619
 31
0.0
  0
LINE
  5
5BD
330
1F
100
AcDbEntity
  8
0-C_ハッチ
  6
JWW_DASHED1
 62
   120
370
     5
100
AcDbLine
 10
3363.999228297052
 20
-1748.751950394885
 30
0.0
 11
3583.499228297052
 21
-1529.251950394885
 31
0.0
  0
LINE
  5
5BE
330
1F
100
AcDbEntity
  8
0-C_ハッチ
  6
JWW_DASHED1
 62
   120
370
     5
100
AcDbLine
 10
3363.999228297052
 20
-1734.609814771151
 30
0.0
 11
3583.499228297052
 21
-1515.109814771152
 31
0.0
  0
LINE
  5
5BF
330
1F
100
AcDbEntity
  8
0-C_ハッチ
  6
JWW_DASHED1
 62
   120
370
     5
100
AcDbLine
 10
3363.999228297052
 20
-1720.467679147419
 30
0.0
 11
3583.499228297052
 21
-1500.967679147418
 31
0.0
  0
LINE
  5
5C0
330
1F
100
AcDbEntity
  8
0-C_ハッチ
  6
JWW_DASHED1
 62
   120
370
     5
100
AcDbLine
 10
3363.999228297052
 20
-1706.325543523685
 30
0.0
 11
3583.499228297052
 21
-1486.825543523685
 31
0.0
  0
LINE
  5
5C1
330
1F
100
AcDbEntity
  8
0-C_ハッチ
  6
JWW_DASHED1
 62
   120
370
     5
100
AcDbLine
 10
3363.999228297052
 20
-1692.183407900005
 30
0.0
 11
3583.499228297052
 21
-1472.683407900005
 31
0.0
  0
LINE
  5
5C2
330
1F
100
AcDbEntity
  8
0-C_ハッチ
  6
JWW_DASHED1
 62
   120
370
     5
100
AcDbLine
 10
3363.999228297052
 20
-1678.041272276272
 30
0.0
 11
3583.499228297052
 21
-1458.541272276272
 31
0.0
  0
LINE
  5
5C3
330
1F
100
AcDbEntity
  8
0-C_ハッチ
  6
JWW_DASHED1
 62
   120
370
     5
100
AcDbLine
 10
3363.999228297052
 20
-1663.899136652539
 30
0.0
 11
3583.499228297052
 21
-1444.399136652539
 31
0.0
  0
LINE
  5
5C4
330
1F
100
AcDbEntity
  8
0-C_ハッチ
  6
JWW_DASHED1
 62
   120
370
     5
100
AcDbLine
 10
3363.999228297052
 20
-1649.757001028806
 30
0.0
 11
3583.499228297052
 21
-1430.257001028806
 31
0.0
  0
LINE
  5
5C5
330
1F
100
AcDbEntity
  8
0-C_ハッチ
  6
JWW_DASHED1
 62
   120
370
     5
100
AcDbLine
 10
3363.999228297052
 20
-1635.614865405073
 30
0.0
 11
3583.499228297052
 21
-1416.114865405072
 31
0.0
  0
LINE
  5
5C6
330
1F
100
AcDbEntity
  8
0-C_ハッチ
  6
JWW_DASHED1
 62
   120
370
     5
100
AcDbLine
 10
3363.999228297052
 20
-1621.472729781339
 30
0.0
 11
3583.499228297052
 21
-1401.97272978134
 31
0.0
  0
LINE
  5
5C7
330
1F
100
AcDbEntity
  8
0-C_ハッチ
  6
JWW_DASHED1
 62
   120
370
     5
100
AcDbLine
 10
3363.999228297052
 20
-1607.330594157607
 30
0.0
 11
3583.499228297052
 21
-1387.830594157606
 31
0.0
  0
LINE
  5
5C8
330
1F
100
AcDbEntity
  8
0-C_ハッチ
  6
JWW_DASHED1
 62
   120
370
     5
100
AcDbLine
 10
3363.999228297052
 20
-1593.188458533872
 30
0.0
 11
3583.499228297052
 21
-1373.688458533873
 31
0.0
  0
LINE
  5
5C9
330
1F
100
AcDbEntity
  8
0-C_ハッチ
  6
JWW_DASHED1
 62
   120
370
     5
100
AcDbLine
 10
3363.999228297052
 20
-1579.046322910139
 30
0.0
 11
3583.499228297052
 21
-1359.546322910139
 31
0.0
  0
LINE
  5
5CA
330
1F
100
AcDbEntity
  8
0-C_ハッチ
  6
JWW_DASHED1
 62
   120
370
     5
100
AcDbLine
 10
3363.999228297052
 20
-1564.904187286407
 30
0.0
 11
3583.499228297052
 21
-1345.404187286406
 31
0.0
  0
LINE
  5
5CB
330
1F
100
AcDbEntity
  8
0-C_ハッチ
  6
JWW_DASHED1
 62
   120
370
     5
100
AcDbLine
 10
3363.999228297052
 20
-1550.762051662673
 30
0.0
 11
3583.499228297052
 21
-1331.262051662673
 31
0.0
  0
LINE
  5
5CC
330
1F
100
AcDbEntity
  8
0-C_ハッチ
  6
JWW_DASHED1
 62
   120
370
     5
100
AcDbLine
 10
3363.999228297052
 20
-1536.61991603894
 30
0.0
 11
3583.499228297052
 21
-1317.11991603894
 31
0.0
  0
LINE
  5
5CD
330
1F
100
AcDbEntity
  8
0-C_ハッチ
  6
JWW_DASHED1
 62
   120
370
     5
100
AcDbLine
 10
3363.999228297052
 20
-1522.477780415205
 30
0.0
 11
3583.499228297052
 21
-1302.977780415206
 31
0.0
  0
LINE
  5
5CE
330
1F
100
AcDbEntity
  8
0-C_ハッチ
  6
JWW_DASHED1
 62
   120
370
     5
100
AcDbLine
 10
3363.999228297052
 20
-1508.335644791473
 30
0.0
 11
3583.499228297052
 21
-1288.835644791473
 31
0.0
  0
LINE
  5
5CF
330
1F
100
AcDbEntity
  8
0-C_ハッチ
  6
JWW_DASHED1
 62
   120
370
     5
100
AcDbLine
 10
3363.999228297052
 20
-1494.19350916774
 30
0.0
 11
3583.499228297052
 21
-1274.69350916774
 31
0.0
  0
LINE
  5
5D0
330
1F
100
AcDbEntity
  8
0-C_ハッチ
  6
JWW_DASHED1
 62
   120
370
     5
100
AcDbLine
 10
3363.999228297052
 20
-1480.051373544006
 30
0.0
 11
3583.499228297052
 21
-1260.551373544006
 31
0.0
  0
LINE
  5
5D1
330
1F
100
AcDbEntity
  8
0-C_ハッチ
  6
JWW_DASHED1
 62
   120
370
     5
100
AcDbLine
 10
3363.999228297052
 20
-1465.909237920272
 30
0.0
 11
3583.499228297052
 21
-1246.409237920274
 31
0.0
  0
LINE
  5
5D2
330
1F
100
AcDbEntity
  8
0-C_ハッチ
  6
JWW_DASHED1
 62
   120
370
     5
100
AcDbLine
 10
3363.999228297052
 20
-1451.76710229654
 30
0.0
 11
3583.499228297052
 21
-1232.26710229654
 31
0.0
  0
LINE
  5
5D3
330
1F
100
AcDbEntity
  8
0-C_ハッチ
  6
JWW_DASHED1
 62
   120
370
     5
100
AcDbLine
 10
3363.999228297052
 20
-1437.624966672806
 30
0.0
 11
3583.499228297052
 21
-1218.124966672806
 31
0.0
  0
LINE
  5
5D4
330
1F
100
AcDbEntity
  8
0-C_ハッチ
  6
JWW_DASHED1
 62
   120
370
     5
100
AcDbLine
 10
3363.999228297052
 20
-1423.482831049072
 30
0.0
 11
3583.499228297052
 21
-1203.982831049073
 31
0.0
  0
LINE
  5
5D5
330
1F
100
AcDbEntity
  8
0-C_ハッチ
  6
JWW_DASHED1
 62
   120
370
     5
100
AcDbLine
 10
3363.999228297052
 20
-1409.340695425339
 30
0.0
 11
3583.499228297052
 21
-1189.84069542534
 31
0.0
  0
LINE
  5
5D6
330
1F
100
AcDbEntity
  8
0-C_ハッチ
  6
JWW_DASHED1
 62
   120
370
     5
100
AcDbLine
 10
3363.999228297052
 20
-1395.19855980166
 30
0.0
 11
3583.499228297052
 21
-1175.69855980166
 31
0.0
  0
LINE
  5
5D7
330
1F
100
AcDbEntity
  8
0-C_ハッチ
  6
JWW_DASHED1
 62
   120
370
     5
100
AcDbLine
 10
3363.999228297052
 20
-1381.056424177928
 30
0.0
 11
3583.499228297052
 21
-1161.556424177927
 31
0.0
  0
LINE
  5
5D8
330
1F
100
AcDbEntity
  8
0-C_ハッチ
  6
JWW_DASHED1
 62
   120
370
     5
100
AcDbLine
 10
3363.999228297052
 20
-1366.914288554194
 30
0.0
 11
3583.499228297052
 21
-1147.414288554193
 31
0.0
  0
LINE
  5
5D9
330
1F
100
AcDbEntity
  8
0-C_ハッチ
  6
JWW_DASHED1
 62
   120
370
     5
100
AcDbLine
 10
3363.999228297052
 20
-1352.772152930461
 30
0.0
 11
3583.499228297052
 21
-1133.272152930461
 31
0.0
  0
LINE
  5
5DA
330
1F
100
AcDbEntity
  8
0-C_ハッチ
  6
JWW_DASHED1
 62
   120
370
     5
100
AcDbLine
 10
3363.999228297052
 20
-1338.630017306728
 30
0.0
 11
3583.499228297052
 21
-1119.130017306728
 31
0.0
  0
LINE
  5
5DB
330
1F
100
AcDbEntity
  8
0-C_ハッチ
  6
JWW_DASHED1
 62
   120
370
     5
100
AcDbLine
 10
3363.999228297052
 20
-1324.487881682995
 30
0.0
 11
3583.499228297052
 21
-1104.987881682995
 31
0.0
  0
LINE
  5
5DC
330
1F
100
AcDbEntity
  8
0-C_ハッチ
  6
JWW_DASHED1
 62
   120
370
     5
100
AcDbLine
 10
3363.999228297052
 20
-1310.34574605926
 30
0.0
 11
3583.499228297052
 21
-1090.84574605926
 31
0.0
  0
LINE
  5
5DD
330
1F
100
AcDbEntity
  8
0-C_ハッチ
  6
JWW_DASHED1
 62
   120
370
     5
100
AcDbLine
 10
3363.999228297052
 20
-1296.203610435528
 30
0.0
 11
3583.499228297052
 21
-1076.703610435528
 31
0.0
  0
LINE
  5
5DE
330
1F
100
AcDbEntity
  8
0-C_ハッチ
  6
JWW_DASHED1
 62
   120
370
     5
100
AcDbLine
 10
3363.999228297052
 20
-1282.061474811793
 30
0.0
 11
3583.499228297052
 21
-1062.561474811793
 31
0.0
  0
LINE
  5
5DF
330
1F
100
AcDbEntity
  8
0-C_ハッチ
  6
JWW_DASHED1
 62
   120
370
     5
100
AcDbLine
 10
3363.999228297052
 20
-1267.91933918806
 30
0.0
 11
3583.499228297052
 21
-1048.41933918806
 31
0.0
  0
LINE
  5
5E0
330
1F
100
AcDbEntity
  8
0-C_ハッチ
  6
JWW_DASHED1
 62
   120
370
     5
100
AcDbLine
 10
3363.999228297052
 20
-1253.777203564328
 30
0.0
 11
3583.499228297052
 21
-1034.277203564327
 31
0.0
  0
LINE
  5
5E1
330
1F
100
AcDbEntity
  8
0-C_ハッチ
  6
JWW_DASHED1
 62
   120
370
     5
100
AcDbLine
 10
3363.999228297052
 20
-1239.635067940594
 30
0.0
 11
3583.499228297052
 21
-1020.135067940594
 31
0.0
  0
LINE
  5
5E2
330
1F
100
AcDbEntity
  8
0-C_ハッチ
  6
JWW_DASHED1
 62
   120
370
     5
100
AcDbLine
 10
3363.999228297052
 20
-1225.49293231686
 30
0.0
 11
3583.499228297052
 21
-1005.99293231686
 31
0.0
  0
LINE
  5
5E3
330
1F
100
AcDbEntity
  8
0-C_ハッチ
  6
JWW_DASHED1
 62
   120
370
     5
100
AcDbLine
 10
3363.999228297052
 20
-1211.350796693128
 30
0.0
 11
3583.499228297052
 21
-991.8507966931269
 31
0.0
  0
LINE
  5
5E4
330
1F
100
AcDbEntity
  8
0-C_ハッチ
  6
JWW_DASHED1
 62
   120
370
     5
100
AcDbLine
 10
3363.999228297052
 20
-1197.208661069394
 30
0.0
 11
3583.499228297052
 21
-977.7086610693939
 31
0.0
  0
LINE
  5
5E5
330
1F
100
AcDbEntity
  8
0-C_ハッチ
  6
JWW_DASHED1
 62
   120
370
     5
100
AcDbLine
 10
3363.999228297052
 20
-1183.066525445661
 30
0.0
 11
3583.499228297052
 21
-963.5665254456602
 31
0.0
  0
LINE
  5
5E6
330
1F
100
AcDbEntity
  8
0-C_ハッチ
  6
JWW_DASHED1
 62
   120
370
     5
100
AcDbLine
 10
3363.999228297052
 20
-1168.924389821927
 30
0.0
 11
3583.499228297052
 21
-949.4243898219269
 31
0.0
  0
LINE
  5
5E7
330
1F
100
AcDbEntity
  8
0-C_ハッチ
  6
JWW_DASHED1
 62
   120
370
     5
100
AcDbLine
 10
3363.999228297052
 20
-1154.782254198194
 30
0.0
 11
3583.499228297052
 21
-935.282254198194
 31
0.0
  0
LINE
  5
5E8
330
1F
100
AcDbEntity
  8
0-C_ハッチ
  6
JWW_DASHED1
 62
   120
370
     5
100
AcDbLine
 10
3363.999228297052
 20
-1140.640118574461
 30
0.0
 11
3583.499228297052
 21
-921.1401185744602
 31
0.0
  0
LINE
  5
5E9
330
1F
100
AcDbEntity
  8
0-C_ハッチ
  6
JWW_DASHED1
 62
   120
370
     5
100
AcDbLine
 10
3363.999228297052
 20
-1126.497982950727
 30
0.0
 11
3583.499228297052
 21
-906.9979829507264
 31
0.0
  0
LINE
  5
5EA
330
1F
100
AcDbEntity
  8
0-C_ハッチ
  6
JWW_DASHED1
 62
   120
370
     5
100
AcDbLine
 10
3363.999228297052
 20
-1112.355847326993
 30
0.0
 11
3583.499228297052
 21
-892.855847326994
 31
0.0
  0
ENDSEC
  0
SECTION
  2
OBJECTS
  0
DICTIONARY
  5
C
330
0
100
AcDbDictionary
281
     1
  3
ACAD_GROUP
350
D
  3
ACAD_LAYOUT
350
1A
  3
ACAD_MATERIAL
350
3B
  3
ACAD_MLEADERSTYLE
350
5EC
  3
ACAD_MLINESTYLE
350
17
  3
ACAD_PLOTSETTINGS
350
19
  3
ACAD_PLOTSTYLENAME
350
E
  3
ACAD_TABLESTYLE
350
5EB
  3
ACAD_VISUALSTYLE
350
2A
  0
DICTIONARY
  5
D
102
{ACAD_REACTORS
330
C
102
}
330
C
100
AcDbDictionary
281
     1
  0
DICTIONARY
  5
1A
102
{ACAD_REACTORS
330
C
102
}
330
C
100
AcDbDictionary
281
     1
  3
Layout1
350
1E
  3
Layout2
350
26
  3
Model
350
22
  0
DICTIONARY
  5
3B
102
{ACAD_REACTORS
330
C
102
}
330
C
100
AcDbDictionary
281
     1
  3
ByBlock
350
3D
  3
ByLayer
350
3C
  3
Global
350
3E
  0
DICTIONARY
  5
5EC
102
{ACAD_REACTORS
330
C
102
}
330
C
100
AcDbDictionary
281
     1
  0
DICTIONARY
  5
17
102
{ACAD_REACTORS
330
C
102
}
330
C
100
AcDbDictionary
281
     1
  3
Standard
350
18
  0
DICTIONARY
  5
19
102
{ACAD_REACTORS
330
C
102
}
330
C
100
AcDbDictionary
281
     1
  0
ACDBDICTIONARYWDFLT
  5
E
102
{ACAD_REACTORS
330
C
102
}
330
C
100
AcDbDictionary
281
     1
  3
Normal
350
F
100
AcDbDictionaryWithDefault
340
F
  0
DICTIONARY
  5
5EB
102
{ACAD_REACTORS
330
C
102
}
330
C
100
AcDbDictionary
281
     1
  0
DICTIONARY
  5
2A
102
{ACAD_REACTORS
330
C
102
}
330
C
100
AcDbDictionary
281
     1
  3
2dWireframe
350
2F
  3
3D Hidden
350
31
  3
3dWireframe
350
30
  3
Basic
350
32
  3
Brighten
350
36
  3
ColorChange
350
3A
  3
Conceptual
350
34
  3
Dim
350
35
  3
Facepattern
350
39
  3
Flat
350
2B
  3
FlatWithEdges
350
2C
  3
Gouraud
350
2D
  3
GouraudWithEdges
350
2E
  3
Linepattern
350
38
  3
Realistic
350
33
  3
Thicken
350
37
  0
LAYOUT
  5
1E
102
{ACAD_REACTORS
330
1A
102
}
330
1A
100
AcDbPlotSettings
  1

  2
none_device
  4

  6

 40
0.0
 41
0.0
 42
0.0
 43
0.0
 44
0.0
 45
0.0
 46
0.0
 47
0.0
 48
0.0
 49
0.0
140
0.0
141
0.0
142
1.0
143
1.0
 70
   688
 72
     0
 73
     0
 74
     5
  7

 75
    16
 76
     0
 77
     5
 78
   300
147
1.0
148
0.0
149
0.0
100
AcDbLayout
  1
Layout1
 70
     1
 71
     1
 10
0.0
 20
0.0
 11
420.0
 21
297.0
 12
0.0
 22
0.0
 32
0.0
 14
1.000000000000000E+20
 24
1.000000000000000E+20
 34
1.000000000000000E+20
 15
-1.000000000000000E+20
 25
-1.000000000000000E+20
 35
-1.000000000000000E+20
146
0.0
 13
0.0
 23
0.0
 33
0.0
 16
1.0
 26
0.0
 36
0.0
 17
0.0
 27
1.0
 37
0.0
 76
     0
330
1B
  0
LAYOUT
  5
26
102
{ACAD_REACTORS
330
1A
102
}
330
1A
100
AcDbPlotSettings
  1

  2
none_device
  4

  6

 40
0.0
 41
0.0
 42
0.0
 43
0.0
 44
0.0
 45
0.0
 46
0.0
 47
0.0
 48
0.0
 49
0.0
140
0.0
141
0.0
142
1.0
143
1.0
 70
   688
 72
     0
 73
     0
 74
     5
  7

 75
    16
 76
     0
 77
     5
 78
   300
147
1.0
148
0.0
149
0.0
100
AcDbLayout
  1
Layout2
 70
     1
 71
     2
 10
0.0
 20
0.0
 11
0.0
 21
0.0
 12
0.0
 22
0.0
 32
0.0
 14
0.0
 24
0.0
 34
0.0
 15
0.0
 25
0.0
 35
0.0
146
0.0
 13
0.0
 23
0.0
 33
0.0
 16
1.0
 26
0.0
 36
0.0
 17
0.0
 27
1.0
 37
0.0
 76
     0
330
23
  0
LAYOUT
  5
22
102
{ACAD_REACTORS
330
1A
102
}
330
1A
100
AcDbPlotSettings
  1

  2
none_device
  4

  6

 40
0.0
 41
0.0
 42
0.0
 43
0.0
 44
0.0
 45
0.0
 46
0.0
 47
0.0
 48
0.0
 49
0.0
140
0.0
141
0.0
142
1.0
143
1.0
 70
  1712
 72
     0
 73
     0
 74
     0
  7

 75
     0
 76
     0
 77
     5
 78
   300
147
1.0
148
0.0
149
0.0
100
AcDbLayout
  1
Model
 70
     1
 71
     0
 10
-6300.0
 20
-4455.0
 11
6300.0
 21
4455.0
 12
0.0
 22
0.0
 32
0.0
 14
-6300.0
 24
-4455.0
 34
0.0
 15
6300.0
 25
4455.0
 35
0.0
146
0.0
 13
0.0
 23
0.0
 33
0.0
 16
1.0
 26
0.0
 36
0.0
 17
0.0
 27
1.0
 37
0.0
 76
     0
330
1F
331
29
  0
MATERIAL
  5
3D
102
{ACAD_REACTORS
330
3B
102
}
330
3B
100
AcDbMaterial
  1
ByBlock
 72
     1
 94
      127
  0
MATERIAL
  5
3C
102
{ACAD_REACTORS
330
3B
102
}
330
3B
100
AcDbMaterial
  1
ByLayer
 72
     1
 94
      127
  0
MATERIAL
  5
3E
102
{ACAD_REACTORS
330
3B
102
}
330
3B
100
AcDbMaterial
  1
Global
 72
     1
 94
      127
  0
MLINESTYLE
  5
18
102
{ACAD_REACTORS
330
17
102
}
330
17
100
AcDbMlineStyle
  2
Standard
 70
     0
  3

 62
   256
 51
90.0
 52
90.0
 71
     2
 49
0.5
 62
   256
  6
BYLAYER
 49
-0.5
 62
   256
  6
BYLAYER
  0
ACDBPLACEHOLDER
  5
F
102
{ACAD_REACTORS
330
E
102
}
330
E
  0
VISUALSTYLE
  5
2F
102
{ACAD_REACTORS
330
2A
102
}
330
2A
100
AcDbVisualStyle
  2
2dWireframe
 70
     4
177
     2
291
     0
 71
     0
176
     1
 72
     2
176
     1
 73
     0
176
     1
 90
        0
176
     1
 40
-0.6
176
     1
 41
-30.0
176
     1
 62
     5
 63
     7
421
 16777215
176
     1
 74
     1
176
     1
 91
        4
176
     1
 64
     7
176
     1
 65
   257
176
     1
 75
     1
176
     1
175
     1
176
     1
 42
1.0
176
     1
 92
        0
176
     1
 66
   257
176
     1
 43
1.0
176
     1
 76
     1
176
     1
 77
     6
176
     1
 78
     2
176
     1
 67
     7
176
     1
 79
     5
176
     1
170
     0
176
     1
171
     0
176
     1
290
     0
176
     1
 93
        1
176
     1
 44
0.0
176
     1
173
     0
176
     1
  0
VISUALSTYLE
  5
31
102
{ACAD_REACTORS
330
2A
102
}
330
2A
100
AcDbVisualStyle
  2
3D Hidden
 70
     6
177
     2
291
     0
 71
     1
176
     1
 72
     2
176
     1
 73
     2
176
     1
 90
        0
176
     1
 40
-0.6
176
     1
 41
-30.0
176
     1
 62
     5
 63
     7
421
 16777215
176
     1
 74
     2
176
     1
 91
        2
176
     1
 64
     7
176
     1
 65
   257
176
     1
 75
     2
176
     1
175
     1
176
     1
 42
40.0
176
     1
 92
        0
176
     1
 66
   257
176
     1
 43
1.0
176
     1
 76
     1
176
     1
 77
     6
176
     1
 78
     2
176
     1
 67
     7
176
     1
 79
     3
176
     1
170
     0
176
     1
171
     0
176
     1
290
     0
176
     1
 93
        1
176
     1
 44
0.0
176
     1
173
     0
176
     1
  0
VISUALSTYLE
  5
30
102
{ACAD_REACTORS
330
2A
102
}
330
2A
100
AcDbVisualStyle
  2
3dWireframe
 70
     5
177
     2
291
     0
 71
     0
176
     1
 72
     2
176
     1
 73
     0
176
     1
 90
        0
176
     1
 40
-0.6
176
     1
 41
-30.0
176
     1
 62
     5
 63
     7
421
 16777215
176
     1
 74
     1
176
     1
 91
        4
176
     1
 64
     7
176
     1
 65
   257
176
     1
 75
     1
176
     1
175
     1
176
     1
 42
1.0
176
     1
 92
        0
176
     1
 66
   257
176
     1
 43
1.0
176
     1
 76
     1
176
     1
 77
     6
176
     1
 78
     2
176
     1
 67
     7
176
     1
 79
     5
176
     1
170
     0
176
     1
171
     0
176
     1
290
     0
176
     1
 93
        1
176
     1
 44
0.0
176
     1
173
     0
176
     1
  0
VISUALSTYLE
  5
32
102
{ACAD_REACTORS
330
2A
102
}
330
2A
100
AcDbVisualStyle
  2
Basic
 70
     7
177
     2
291
     1
 71
     1
176
     1
 72
     0
176
     1
 73
     1
176
     1
 90
        0
176
     1
 40
-0.6
176
     1
 41
-30.0
176
     1
 62
     5
 63
     7
421
 16777215
176
     1
 74
     0
176
     1
 91
        4
176
     1
 64
     7
176
     1
 65
   257
176
     1
 75
     1
176
     1
175
     1
176
     1
 42
1.0
176
     1
 92
        8
176
     1
 66
     7
176
     1
 43
1.0
176
     1
 76
     1
176
     1
 77
     6
176
     1
 78
     2
176
     1
 67
     7
176
     1
 79
     5
176
     1
170
     0
176
     1
171
     0
176
     1
290
     0
176
     1
 93
        1
176
     1
 44
0.0
176
     1
173
     0
176
     1
  0
VISUALSTYLE
  5
36
102
{ACAD_REACTORS
330
2A
102
}
330
2A
100
AcDbVisualStyle
  2
Brighten
 70
    12
177
     2
291
     1
 71
     2
176
     1
 72
     2
176
     1
 73
     0
176
     1
 90
        0
176
     1
 40
-0.6
176
     1
 41
-30.0
176
     1
 62
     5
 63
     7
421
 16777215
176
     1
 74
     1
176
     1
 91
        4
176
     1
 64
     7
176
     1
 65
   257
176
     1
 75
     1
176
     1
175
     1
176
     1
 42
1.0
176
     1
 92
        8
176
     1
 66
     7
176
     1
 43
1.0
176
     1
 76
     1
176
     1
 77
     6
176
     1
 78
     2
176
     1
 67
     7
176
     1
 79
     5
176
     1
170
     0
176
     1
171
     0
176
     1
290
     0
176
     1
 93
        1
176
     1
 44
50.0
176
     1
173
     0
176
     1
  0
VISUALSTYLE
  5
3A
102
{ACAD_REACTORS
330
2A
102
}
330
2A
100
AcDbVisualStyle
  2
ColorChange
 70
    16
177
     2
291
     1
 71
     2
176
     1
 72
     2
176
     1
 73
     3
176
     1
 90
        0
176
     1
 40
-0.6
176
     1
 41
-30.0
176
     1
 62
     5
 63
     8
421
  8421504
176
     1
 74
     1
176
     1
 91
        4
176
     1
 64
     7
176
     1
 65
   257
176
     1
 75
     1
176
     1
175
     1
176
     1
 42
1.0
176
     1
 92
        8
176
     1
 66
     8
424
  8421504
176
     1
 43
1.0
176
     1
 76
     1
176
     1
 77
     6
176
     1
 78
     2
176
     1
 67
     7
176
     1
 79
     5
176
     1
170
     0
176
     1
171
     0
176
     1
290
     0
176
     1
 93
        1
176
     1
 44
0.0
176
     1
173
     0
176
     1
  0
VISUALSTYLE
  5
34
102
{ACAD_REACTORS
330
2A
102
}
330
2A
100
AcDbVisualStyle
  2
Conceptual
 70
     9
177
     2
291
     0
 71
     3
176
     1
 72
     2
176
     1
 73
     0
176
     1
 90
        0
176
     1
 40
-0.6
176
     1
 41
-30.0
176
     1
 62
     5
 63
     7
421
 16777215
176
     1
 74
     2
176
     1
 91
        2
176
     1
 64
     7
176
     1
 65
   257
176
     1
 75
     1
176
     1
175
     1
176
     1
 42
40.0
176
     1
 92
        8
176
     1
 66
     7
176
     1
 43
1.0
176
     1
 76
     1
176
     1
 77
     6
176
     1
 78
     2
176
     1
 67
     7
176
     1
 79
     3
176
     1
170
     0
176
     1
171
     0
176
     1
290
     0
176
     1
 93
        1
176
     1
 44
0.0
176
     1
173
     0
176
     1
  0
VISUALSTYLE
  5
35
102
{ACAD_REACTORS
330
2A
102
}
330
2A
100
AcDbVisualStyle
  2
Dim
 70
    11
177
     2
291
     1
 71
     2
176
     1
 72
     2
176
     1
 73
     0
176
     1
 90
        0
176
     1
 40
-0.6
176
     1
 41
-30.0
176
     1
 62
     5
 63
     7
421
 16777215
176
     1
 74
     1
176
     1
 91
        4
176
     1
 64
     7
176
     1
 65
   257
176
     1
 75
     1
176
     1
175
     1
176
     1
 42
1.0
176
     1
 92
        8
176
     1
 66
     7
176
     1
 43
1.0
176
     1
 76
     1
176
     1
 77
     6
176
     1
 78
     2
176
     1
 67
     7
176
     1
 79
     5
176
     1
170
     0
176
     1
171
     0
176
     1
290
     0
176
     1
 93
        1
176
     1
 44
-50.0
176
     1
173
     0
176
     1
  0
VISUALSTYLE
  5
39
102
{ACAD_REACTORS
330
2A
102
}
330
2A
100
AcDbVisualStyle
  2
Facepattern
 70
    15
177
     2
291
     1
 71
     2
176
     1
 72
     2
176
     1
 73
     0
176
     1
 90
        0
176
     1
 40
-0.6
176
     1
 41
-30.0
176
     1
 62
     5
 63
     7
421
 16777215
176
     1
 74
     1
176
     1
 91
        4
176
     1
 64
     7
176
     1
 65
   257
176
     1
 75
     1
176
     1
175
     1
176
     1
 42
1.0
176
     1
 92
        8
176
     1
 66
     7
176
     1
 43
1.0
176
     1
 76
     1
176
     1
 77
     6
176
     1
 78
     2
176
     1
 67
     7
176
     1
 79
     5
176
     1
170
     0
176
     1
171
     0
176
     1
290
     0
176
     1
 93
        1
176
     1
 44
0.0
176
     1
173
     0
176
     1
  0
VISUALSTYLE
  5
2B
102
{ACAD_REACTORS
330
2A
102
}
330
2A
100
AcDbVisualStyle
  2
Flat
 70
     0
177
     2
291
     1
 71
     2
176
     1
 72
     1
176
     1
 73
     1
176
     1
 90
        2
176
     1
 40
-0.6
176
     1
 41
30.0
176
     1
 62
     5
 63
     7
421
 16777215
176
     1
 74
     0
176
     1
 91
        4
176
     1
 64
     7
176
     1
 65
   257
176
     1
 75
     1
176
     1
175
     1
176
     1
 42
1.0
176
     1
 92
        8
176
     1
 66
     7
176
     1
 43
1.0
176
     1
 76
     1
176
     1
 77
     6
176
     1
 78
     2
176
     1
 67
     7
176
     1
 79
     5
176
     1
170
     0
176
     1
171
     0
176
     1
290
     0
176
     1
 93
       13
176
     1
 44
0.0
176
     1
173
     0
176
     1
  0
VISUALSTYLE
  5
2C
102
{ACAD_REACTORS
330
2A
102
}
330
2A
100
AcDbVisualStyle
  2
FlatWithEdges
 70
     1
177
     2
291
     1
 71
     2
176
     1
 72
     1
176
     1
 73
     1
176
     1
 90
        2
176
     1
 40
-0.6
176
     1
 41
30.0
176
     1
 62
     5
 63
     7
421
 16777215
176
     1
 74
     1
176
     1
 91
        4
176
     1
 64
     7
176
     1
 65
   257
176
     1
 75
     1
176
     1
175
     1
176
     1
 42
1.0
176
     1
 92
        0
176
     1
 66
   257
176
     1
 43
1.0
176
     1
 76
     1
176
     1
 77
     6
176
     1
 78
     2
176
     1
 67
     7
176
     1
 79
     5
176
     1
170
     0
176
     1
171
     0
176
     1
290
     0
176
     1
 93
       13
176
     1
 44
0.0
176
     1
173
     0
176
     1
  0
VISUALSTYLE
  5
2D
102
{ACAD_REACTORS
330
2A
102
}
330
2A
100
AcDbVisualStyle
  2
Gouraud
 70
     2
177
     2
291
     1
 71
     2
176
     1
 72
     2
176
     1
 73
     1
176
     1
 90
        2
176
     1
 40
-0.6
176
     1
 41
30.0
176
     1
 62
     5
 63
     7
421
 16777215
176
     1
 74
     0
176
     1
 91
        4
176
     1
 64
     7
176
     1
 65
   257
176
     1
 75
     1
176
     1
175
     1
176
     1
 42
1.0
176
     1
 92
        0
176
     1
 66
     7
176
     1
 43
1.0
176
     1
 76
     1
176
     1
 77
     6
176
     1
 78
     2
176
     1
 67
     7
176
     1
 79
     5
176
     1
170
     0
176
     1
171
     0
176
     1
290
     0
176
     1
 93
       13
176
     1
 44
0.0
176
     1
173
     0
176
     1
  0
VISUALSTYLE
  5
2E
102
{ACAD_REACTORS
330
2A
102
}
330
2A
100
AcDbVisualStyle
  2
GouraudWithEdges
 70
     3
177
     2
291
     1
 71
     2
176
     1
 72
     2
176
     1
 73
     1
176
     1
 90
        2
176
     1
 40
-0.6
176
     1
 41
30.0
176
     1
 62
     5
 63
     7
421
 16777215
176
     1
 74
     1
176
     1
 91
        4
176
     1
 64
     7
176
     1
 65
   257
176
     1
 75
     1
176
     1
175
     1
176
     1
 42
1.0
176
     1
 92
        0
176
     1
 66
   257
176
     1
 43
1.0
176
     1
 76
     1
176
     1
 77
     6
176
     1
 78
     2
176
     1
 67
     7
176
     1
 79
     5
176
     1
170
     0
176
     1
171
     0
176
     1
290
     0
176
     1
 93
       13
176
     1
 44
0.0
176
     1
173
     0
176
     1
  0
VISUALSTYLE
  5
38
102
{ACAD_REACTORS
330
2A
102
}
330
2A
100
AcDbVisualStyle
  2
Linepattern
 70
    14
177
     2
291
     1
 71
     2
176
     1
 72
     2
176
     1
 73
     0
176
     1
 90
        0
176
     1
 40
-0.6
176
     1
 41
-30.0
176
     1
 62
     5
 63
     7
421
 16777215
176
     1
 74
     1
176
     1
 91
        4
176
     1
 64
     7
176
     1
 65
   257
176
     1
 75
     7
176
     1
175
     7
176
     1
 42
1.0
176
     1
 92
        8
176
     1
 66
     7
176
     1
 43
1.0
176
     1
 76
     1
176
     1
 77
     6
176
     1
 78
     2
176
     1
 67
     7
176
     1
 79
     5
176
     1
170
     0
176
     1
171
     0
176
     1
290
     0
176
     1
 93
        1
176
     1
 44
0.0
176
     1
173
     0
176
     1
  0
VISUALSTYLE
  5
33
102
{ACAD_REACTORS
330
2A
102
}
330
2A
100
AcDbVisualStyle
  2
Realistic
 70
     8
177
     2
291
     0
 71
     2
176
     1
 72
     2
176
     1
 73
     0
176
     1
 90
        0
176
     1
 40
-0.6
176
     1
 41
-30.0
176
     1
 62
     5
 63
     7
421
 16777215
176
     1
 74
     1
176
     1
 91
        0
176
     1
 64
     7
176
     1
 65
   257
176
     1
 75
     1
176
     1
175
     1
176
     1
 42
1.0
176
     1
 92
        8
176
     1
 66
     8
424
  7895160
176
     1
 43
1.0
176
     1
 76
     1
176
     1
 77
     6
176
     1
 78
     2
176
     1
 67
     7
176
     1
 79
     5
176
     1
170
     0
176
     1
171
     0
176
     1
290
     0
176
     1
 93
       13
176
     1
 44
0.0
176
     1
173
     0
176
     1
  0
VISUALSTYLE
  5
37
102
{ACAD_REACTORS
330
2A
102
}
330
2A
100
AcDbVisualStyle
  2
Thicken
 70
    13
177
     2
291
     1
 71
     2
176
     1
 72
     2
176
     1
 73
     0
176
     1
 90
        0
176
     1
 40
-0.6
176
     1
 41
-30.0
176
     1
 62
     5
 63
     7
421
 16777215
176
     1
 74
     1
176
     1
 91
        4
176
     1
 64
     7
176
     1
 65
   257
176
     1
 75
     1
176
     1
175
     1
176
     1
 42
1.0
176
     1
 92
       12
176
     1
 66
     7
176
     1
 43
1.0
176
     1
 76
     1
176
     1
 77
     6
176
     1
 78
     2
176
     1
 67
     7
176
     1
 79
     5
176
     1
170
     0
176
     1
171
     0
176
     1
290
     0
176
     1
 93
        1
176
     1
 44
0.0
176
     1
173
     0
176
     1
  0
ENDSEC
  0
EOF
