  0
SECTION
  2
HEADER
  9
$ACADVER
  1
AC1024
  9
$ACADMAINTVER
 70
     6
  9
$DWGCODEPAGE
  3
ANSI_932
  9
$INSBASE
 10
0.0
 20
0.0
 30
0.0
  9
$EXTMIN
 10
-6300.0
 20
-4455.0
 30
0.0
  9
$EXTMAX
 10
6300.0
 20
4455.0
 30
0.0
  9
$LIMMIN
 10
-6300.0
 20
-4455.0
  9
$LIMMAX
 10
6300.0
 20
4455.0
  9
$ORTHOMODE
 70
     0
  9
$REGENMODE
 70
     1
  9
$FILLMODE
 70
     1
  9
$QTEXTMODE
 70
     0
  9
$MIRRTEXT
 70
     1
  9
$LTSCALE
 40
30.0
  9
$ATTMODE
 70
     1
  9
$TEXTSIZE
 40
2.5
  9
$TRACEWID
 40
1.0
  9
$TEXTSTYLE
  7
Standard
  9
$CLAYER
  8
0
  9
$CELTYPE
  6
ByLayer
  9
$CECOLOR
 62
   256
  9
$CELTSCALE
 40
1.0
  9
$DISPSILH
 70
     0
  9
$DIMSCALE
 40
1.0
  9
$DIMASZ
 40
2.5
  9
$DIMEXO
 40
0.625
  9
$DIMDLI
 40
3.75
  9
$DIMRND
 40
0.0
  9
$DIMDLE
 40
0.0
  9
$DIMEXE
 40
1.25
  9
$DIMTP
 40
0.0
  9
$DIMTM
 40
0.0
  9
$DIMTXT
 40
2.5
  9
$DIMCEN
 40
2.5
  9
$DIMTSZ
 40
0.0
  9
$DIMTOL
 70
     0
  9
$DIMLIM
 70
     0
  9
$DIMTIH
 70
     0
  9
$DIMTOH
 70
     0
  9
$DIMSE1
 70
     0
  9
$DIMSE2
 70
     0
  9
$DIMTAD
 70
     1
  9
$DIMZIN
 70
     8
  9
$DIMBLK
  1

  9
$DIMASO
 70
     1
  9
$DIMSHO
 70
     1
  9
$DIMPOST
  1

  9
$DIMAPOST
  1

  9
$DIMALT
 70
     0
  9
$DIMALTD
 70
     3
  9
$DIMALTF
 40
0.03937007874016
  9
$DIMLFAC
 40
1.0
  9
$DIMTOFL
 70
     1
  9
$DIMTVP
 40
0.0
  9
$DIMTIX
 70
     0
  9
$DIMSOXD
 70
     0
  9
$DIMSAH
 70
     0
  9
$DIMBLK1
  1

  9
$DIMBLK2
  1

  9
$DIMSTYLE
  2
ISO-25
  9
$DIMCLRD
 70
     0
  9
$DIMCLRE
 70
     0
  9
$DIMCLRT
 70
     0
  9
$DIMTFAC
 40
1.0
  9
$DIMGAP
 40
0.625
  9
$DIMJUST
 70
     0
  9
$DIMSD1
 70
     0
  9
$DIMSD2
 70
     0
  9
$DIMTOLJ
 70
     0
  9
$DIMTZIN
 70
     8
  9
$DIMALTZ
 70
     0
  9
$DIMALTTZ
 70
     0
  9
$DIMUPT
 70
     0
  9
$DIMDEC
 70
     2
  9
$DIMTDEC
 70
     2
  9
$DIMALTU
 70
     2
  9
$DIMALTTD
 70
     3
  9
$DIMTXSTY
  7
Standard
  9
$DIMAUNIT
 70
     0
  9
$DIMADEC
 70
     0
  9
$DIMALTRND
 40
0.0
  9
$DIMAZIN
 70
     0
  9
$DIMDSEP
 70
    44
  9
$DIMATFIT
 70
     3
  9
$DIMFRAC
 70
     0
  9
$DIMLDRBLK
  1

  9
$DIMLUNIT
 70
     2
  9
$DIMLWD
 70
    -2
  9
$DIMLWE
 70
    -2
  9
$DIMTMOVE
 70
     0
  9
$DIMFXL
 40
1.0
  9
$DIMFXLON
 70
     0
  9
$DIMJOGANG
 40
0.7853981633974483
  9
$DIMTFILL
 70
     0
  9
$DIMTFILLCLR
 70
     0
  9
$DIMARCSYM
 70
     0
  9
$DIMLTYPE
  6

  9
$DIMLTEX1
  6

  9
$DIMLTEX2
  6

  9
$DIMTXTDIRECTION
 70
     0
  9
$LUNITS
 70
     2
  9
$LUPREC
 70
     4
  9
$SKETCHINC
 40
1.0
  9
$FILLETRAD
 40
10.0
  9
$AUNITS
 70
     0
  9
$AUPREC
 70
     0
  9
$MENU
  1
.
  9
$ELEVATION
 40
0.0
  9
$PELEVATION
 40
0.0
  9
$THICKNESS
 40
0.0
  9
$LIMCHECK
 70
     0
  9
$CHAMFERA
 40
10.0
  9
$CHAMFERB
 40
10.0
  9
$CHAMFERC
 40
20.0
  9
$CHAMFERD
 40
0.0
  9
$SKPOLY
 70
     0
  9
$TDCREATE
 40
2459432.491370336
  9
$TDUCREATE
 40
2459432.116370336
  9
$TDUPDATE
 40
2459432.491370347
  9
$TDUUPDATE
 40
2459432.116370347
  9
$TDINDWG
 40
0.0000000116
  9
$TDUSRTIMER
 40
0.0000000116
  9
$USRTIMER
 70
     1
  9
$ANGBASE
 50
0.0
  9
$ANGDIR
 70
     0
  9
$PDMODE
 70
     0
  9
$PDSIZE
 40
0.0
  9
$PLINEWID
 40
0.0
  9
$SPLFRAME
 70
     0
  9
$SPLINETYPE
 70
     6
  9
$SPLINESEGS
 70
     8
  9
$HANDSEED
  5
60A
  9
$SURFTAB1
 70
     6
  9
$SURFTAB2
 70
     6
  9
$SURFTYPE
 70
     6
  9
$SURFU
 70
     6
  9
$SURFV
 70
     6
  9
$UCSBASE
  2

  9
$UCSNAME
  2

  9
$UCSORG
 10
0.0
 20
0.0
 30
0.0
  9
$UCSXDIR
 10
1.0
 20
0.0
 30
0.0
  9
$UCSYDIR
 10
0.0
 20
1.0
 30
0.0
  9
$UCSORTHOREF
  2

  9
$UCSORTHOVIEW
 70
     0
  9
$UCSORGTOP
 10
0.0
 20
0.0
 30
0.0
  9
$UCSORGBOTTOM
 10
0.0
 20
0.0
 30
0.0
  9
$UCSORGLEFT
 10
0.0
 20
0.0
 30
0.0
  9
$UCSORGRIGHT
 10
0.0
 20
0.0
 30
0.0
  9
$UCSORGFRONT
 10
0.0
 20
0.0
 30
0.0
  9
$UCSORGBACK
 10
0.0
 20
0.0
 30
0.0
  9
$PUCSBASE
  2

  9
$PUCSNAME
  2

  9
$PUCSORG
 10
0.0
 20
0.0
 30
0.0
  9
$PUCSXDIR
 10
1.0
 20
0.0
 30
0.0
  9
$PUCSYDIR
 10
0.0
 20
1.0
 30
0.0
  9
$PUCSORTHOREF
  2

  9
$PUCSORTHOVIEW
 70
     0
  9
$PUCSORGTOP
 10
0.0
 20
0.0
 30
0.0
  9
$PUCSORGBOTTOM
 10
0.0
 20
0.0
 30
0.0
  9
$PUCSORGLEFT
 10
0.0
 20
0.0
 30
0.0
  9
$PUCSORGRIGHT
 10
0.0
 20
0.0
 30
0.0
  9
$PUCSORGFRONT
 10
0.0
 20
0.0
 30
0.0
  9
$PUCSORGBACK
 10
0.0
 20
0.0
 30
0.0
  9
$USERI1
 70
     0
  9
$USERI2
 70
     0
  9
$USERI3
 70
     0
  9
$USERI4
 70
     0
  9
$USERI5
 70
     0
  9
$USERR1
 40
0.0
  9
$USERR2
 40
0.0
  9
$USERR3
 40
0.0
  9
$USERR4
 40
0.0
  9
$USERR5
 40
0.0
  9
$WORLDVIEW
 70
     1
  9
$SHADEDGE
 70
     3
  9
$SHADEDIF
 70
    70
  9
$TILEMODE
 70
     1
  9
$MAXACTVP
 70
    64
  9
$PINSBASE
 10
0.0
 20
0.0
 30
0.0
  9
$PLIMCHECK
 70
     0
  9
$PEXTMIN
 10
1.000000000000000E+20
 20
1.000000000000000E+20
 30
1.000000000000000E+20
  9
$PEXTMAX
 10
-1.000000000000000E+20
 20
-1.000000000000000E+20
 30
-1.000000000000000E+20
  9
$PLIMMIN
 10
0.0
 20
0.0
  9
$PLIMMAX
 10
420.0
 20
297.0
  9
$UNITMODE
 70
     0
  9
$VISRETAIN
 70
     1
  9
$PLINEGEN
 70
     0
  9
$PSLTSCALE
 70
     1
  9
$TREEDEPTH
 70
  3020
  9
$CMLSTYLE
  2
Standard
  9
$CMLJUST
 70
     0
  9
$CMLSCALE
 40
20.0
  9
$PROXYGRAPHICS
 70
     1
  9
$MEASUREMENT
 70
     1
  9
$CELWEIGHT
370
    -1
  9
$ENDCAPS
280
     0
  9
$JOINSTYLE
280
     0
  9
$LWDISPLAY
290
     0
  9
$INSUNITS
 70
     4
  9
$HYPERLINKBASE
  1

  9
$STYLESHEET
  1

  9
$XEDIT
290
     1
  9
$CEPSNTYPE
380
     0
  9
$PSTYLEMODE
290
     1
  9
$FINGERPRINTGUID
  2
{E0D434A7-FFEE-4EE2-9791-61E6941F7A5F}
  9
$VERSIONGUID
  2
{FAEB1C32-E019-11D5-929B-00C0DF256EC4}
  9
$EXTNAMES
290
     1
  9
$PSVPSCALE
 40
0.0
  9
$OLESTARTUP
290
     0
  9
$SORTENTS
280
   127
  9
$INDEXCTL
280
     0
  9
$HIDETEXT
280
     1
  9
$XCLIPFRAME
280
     2
  9
$HALOGAP
280
     0
  9
$OBSCOLOR
 70
   257
  9
$OBSLTYPE
280
     0
  9
$INTERSECTIONDISPLAY
280
     0
  9
$INTERSECTIONCOLOR
 70
   257
  9
$DIMASSOC
280
     2
  9
$PROJECTNAME
  1

  9
$CAMERADISPLAY
290
     0
  9
$LENSLENGTH
 40
50.0
  9
$CAMERAHEIGHT
 40
0.0
  9
$STEPSPERSEC
 40
2.0
  9
$STEPSIZE
 40
6.0
  9
$3DDWFPREC
 40
2.0
  9
$PSOLWIDTH
 40
5.0
  9
$PSOLHEIGHT
 40
80.0
  9
$LOFTANG1
 40
1.570796326794897
  9
$LOFTANG2
 40
1.570796326794897
  9
$LOFTMAG1
 40
0.0
  9
$LOFTMAG2
 40
0.0
  9
$LOFTPARAM
 70
     7
  9
$LOFTNORMALS
280
     1
  9
$LATITUDE
 40
37.795
  9
$LONGITUDE
 40
-122.394
  9
$NORTHDIRECTION
 40
0.0
  9
$TIMEZONE
 70
 -8000
  9
$LIGHTGLYPHDISPLAY
280
     1
  9
$TILEMODELIGHTSYNCH
280
     1
  9
$SOLIDHIST
280
     1
  9
$SHOWHIST
280
     1
  9
$DWFFRAME
280
     2
  9
$DGNFRAME
280
     2
  9
$REALWORLDSCALE
290
     1
  9
$INTERFERECOLOR
 62
   256
  9
$CSHADOW
280
     0
  9
$SHADOWPLANELOCATION
 40
0.0
  0
ENDSEC
  0
SECTION
  2
CLASSES
  0
CLASS
  1
ACDBDICTIONARYWDFLT
  2
AcDbDictionaryWithDefault
  3
ObjectDBX Classes
 90
        0
 91
        4
280
     0
281
     0
  0
CLASS
  1
VISUALSTYLE
  2
AcDbVisualStyle
  3
ObjectDBX Classes
 90
     4095
 91
        4
280
     0
281
     0
  0
CLASS
  1
MATERIAL
  2
AcDbMaterial
  3
ObjectDBX Classes
 90
     1153
 91
        4
280
     0
281
     0
  0
ENDSEC
  0
SECTION
  2
TABLES
  0
TABLE
  2
VPORT
  5
8
330
0
100
AcDbSymbolTable
 70
     1
  0
VPORT
  5
29
330
8
100
AcDbSymbolTableRecord
100
AcDbViewportTableRecord
  2
*Active
 70
     0
 10
0.0
 20
0.0
 11
1.0
 21
1.0
 12
0.0
 22
0.0
 13
0.0
 23
0.0
 14
10.0
 24
10.0
 15
10.0
 25
10.0
 16
0.0
 26
0.0
 36
1.0
 17
0.0
 27
0.0
 37
0.0
 40
9801.0
 41
1.414141414141414
 42
50.0
 43
0.0
 44
0.0
 50
0.0
 51
0.0
 71
     0
 72
 10000
 73
     1
 74
     3
 75
     0
 76
     0
 77
     0
 78
     0
281
     0
 65
     1
110
0.0
120
0.0
130
0.0
111
1.0
121
0.0
131
0.0
112
0.0
122
1.0
132
0.0
 79
     0
146
0.0
 60
     3
 61
     5
292
     1
282
     1
141
0.0
142
0.0
 63
   250
  0
ENDTAB
  0
TABLE
  2
LTYPE
  5
5
330
0
100
AcDbSymbolTable
 70
     4
  0
LTYPE
  5
14
330
5
100
AcDbSymbolTableRecord
100
AcDbLinetypeTableRecord
  2
ByBlock
 70
     0
  3

 72
    65
 73
     0
 40
0.0
  0
LTYPE
  5
15
330
5
100
AcDbSymbolTableRecord
100
AcDbLinetypeTableRecord
  2
ByLayer
 70
     0
  3

 72
    65
 73
     0
 40
0.0
  0
LTYPE
  5
16
330
5
100
AcDbSymbolTableRecord
100
AcDbLinetypeTableRecord
  2
Continuous
 70
     0
  3
Solid line
 72
    65
 73
     0
 40
0.0
  0
LTYPE
  5
3F
330
5
100
AcDbSymbolTableRecord
100
AcDbLinetypeTableRecord
  2
JWW_DASHED1
 70
     0
  3
-  --  --  --  --  --  --  --  -
 72
    65
 73
     2
 40
0.3386666666666667
 49
0.1693333333333333
 74
     0
 49
-0.1693333333333333
 74
     0
  0
LTYPE
  5
40
330
5
100
AcDbSymbolTableRecord
100
AcDbLinetypeTableRecord
  2
JWW_HOJO
 70
     0
  3
  -   -   -   -   -   -   -   - 
 72
    65
 73
     2
 40
1.693333333333333
 49
-1.27
 74
     0
 49
0.4233333333333333
 74
     0
  0
LTYPE
  5
41
330
5
100
AcDbSymbolTableRecord
100
AcDbLinetypeTableRecord
  2
JWW_CENTER1
 70
     0
  3
-----  --  ----------  --  -----
 72
    65
 73
     4
 40
3.386666666666667
 49
2.116666666666667
 74
     0
 49
-0.4233333333333333
 74
     0
 49
0.4233333333333333
 74
     0
 49
-0.4233333333333333
 74
     0
  0
ENDTAB
  0
TABLE
  2
LAYER
  5
2
330
0
100
AcDbSymbolTable
 70
    12
  0
LAYER
  5
10
330
2
100
AcDbSymbolTableRecord
100
AcDbLayerTableRecord
  2
0
 70
     0
 62
     7
  6
Continuous
370
    -3
390
F
347
3E
  0
LAYER
  5
42
330
2
100
AcDbSymbolTableRecord
100
AcDbLayerTableRecord
  2
0-4_枠
 70
     0
 62
     7
  6
Continuous
370
    -3
390
F
347
3E
  0
LAYER
  5
43
330
2
100
AcDbSymbolTableRecord
100
AcDbLayerTableRecord
  2
0-0_補助線
 70
     0
 62
     7
  6
Continuous
370
    -3
390
F
347
3E
  0
LAYER
  5
44
330
2
100
AcDbSymbolTableRecord
100
AcDbLayerTableRecord
  2
F-0_補助線
 70
     0
 62
     7
  6
Continuous
370
    -3
390
F
347
3E
  0
LAYER
  5
45
330
2
100
AcDbSymbolTableRecord
100
AcDbLayerTableRecord
  2
F-1_枠
 70
     0
 62
     7
  6
Continuous
370
    -3
390
F
347
3E
  0
LAYER
  5
46
330
2
100
AcDbSymbolTableRecord
100
AcDbLayerTableRecord
  2
F-A_文字
 70
     0
 62
     7
  6
Continuous
370
    -3
390
F
347
3E
  0
LAYER
  5
47
330
2
100
AcDbSymbolTableRecord
100
AcDbLayerTableRecord
  2
0-A_文字
 70
     0
 62
     7
  6
Continuous
370
    -3
390
F
347
3E
  0
LAYER
  5
48
330
2
100
AcDbSymbolTableRecord
100
AcDbLayerTableRecord
  2
0-B_寸法
 70
     0
 62
     7
  6
Continuous
370
    -3
390
F
347
3E
  0
LAYER
  5
49
330
2
100
AcDbSymbolTableRecord
100
AcDbLayerTableRecord
  2
引手
 70
     0
 62
     7
  6
Continuous
370
    -3
390
F
347
3E
  0
LAYER
  5
4A
330
2
100
AcDbSymbolTableRecord
100
AcDbLayerTableRecord
  2
0-3_仕上げ
 70
     0
 62
     7
  6
Continuous
370
    -3
390
F
347
3E
  0
LAYER
  5
4B
330
2
100
AcDbSymbolTableRecord
100
AcDbLayerTableRecord
  2
0-2_扉
 70
     0
 62
     7
  6
Continuous
370
    -3
390
F
347
3E
  0
LAYER
  5
4C
330
2
100
AcDbSymbolTableRecord
100
AcDbLayerTableRecord
  2
0-C_ハッチ
 70
     0
 62
     7
  6
Continuous
370
    -3
390
F
347
3E
  0
ENDTAB
  0
TABLE
  2
STYLE
  5
3
330
0
100
AcDbSymbolTable
 70
     1
  0
STYLE
  5
11
330
3
100
AcDbSymbolTableRecord
100
AcDbTextStyleTableRecord
  2
Standard
 70
     0
 40
0.0
 41
1.0
 50
0.0
 71
     0
 42
2.5
  3
txt
  4

  0
ENDTAB
  0
TABLE
  2
VIEW
  5
6
330
0
100
AcDbSymbolTable
 70
     0
  0
ENDTAB
  0
TABLE
  2
UCS
  5
7
330
0
100
AcDbSymbolTable
 70
     0
  0
ENDTAB
  0
TABLE
  2
APPID
  5
9
330
0
100
AcDbSymbolTable
 70
     1
  0
APPID
  5
12
330
9
100
AcDbSymbolTableRecord
100
AcDbRegAppTableRecord
  2
ACAD
 70
     0
  0
ENDTAB
  0
TABLE
  2
DIMSTYLE
  5
A
330
0
100
AcDbSymbolTable
 70
     1
100
AcDbDimStyleTable
  0
DIMSTYLE
105
27
330
A
100
AcDbSymbolTableRecord
100
AcDbDimStyleTableRecord
  2
ISO-25
 70
     0
 41
2.5
 42
0.625
 43
3.75
 44
1.25
 73
     0
 74
     0
 77
     1
 78
     8
140
2.5
141
2.5
143
0.03937007874016
147
0.625
171
     3
172
     1
178
     0
271
     2
272
     2
274
     3
278
    44
283
     0
284
     8
340
11
  0
ENDTAB
  0
TABLE
  2
BLOCK_RECORD
  5
1
330
0
100
AcDbSymbolTable
 70
     1
  0
BLOCK_RECORD
  5
1F
330
1
100
AcDbSymbolTableRecord
100
AcDbBlockTableRecord
  2
*Model_Space
340
22
 70
     0
280
     1
281
     0
  0
BLOCK_RECORD
  5
1B
330
1
100
AcDbSymbolTableRecord
100
AcDbBlockTableRecord
  2
*Paper_Space
340
1E
 70
     0
280
     1
281
     0
  0
BLOCK_RECORD
  5
23
330
1
100
AcDbSymbolTableRecord
100
AcDbBlockTableRecord
  2
*Paper_Space0
340
26
 70
     0
280
     1
281
     0
  0
ENDTAB
  0
ENDSEC
  0
SECTION
  2
BLOCKS
  0
BLOCK
  5
20
330
1F
100
AcDbEntity
  8
0
100
AcDbBlockBegin
  2
*Model_Space
 70
     0
 10
0.0
 20
0.0
 30
0.0
  3
*Model_Space
  1

  0
ENDBLK
  5
21
330
1F
100
AcDbEntity
  8
0
100
AcDbBlockEnd
  0
BLOCK
  5
1C
330
1B
100
AcDbEntity
 67
     1
  8
0
100
AcDbBlockBegin
  2
*Paper_Space
 70
     0
 10
0.0
 20
0.0
 30
0.0
  3
*Paper_Space
  1

  0
ENDBLK
  5
1D
330
1B
100
AcDbEntity
 67
     1
  8
0
100
AcDbBlockEnd
  0
BLOCK
  5
24
330
23
100
AcDbEntity
  8
0
100
AcDbBlockBegin
  2
*Paper_Space0
 70
     0
 10
0.0
 20
0.0
 30
0.0
  3
*Paper_Space0
  1

  0
ENDBLK
  5
25
330
23
100
AcDbEntity
  8
0
100
AcDbBlockEnd
  0
ENDSEC
  0
SECTION
  2
ENTITIES
  0
LINE
  5
4D
330
1F
100
AcDbEntity
  8
0-4_枠
  6
JWW_DASHED1
 62
   120
370
     5
100
AcDbLine
 10
-3505.000269606304
 20
-2698.250083820243
 30
0.0
 11
-3505.000269606304
 21
-696.2500838202433
 31
0.0
  0
LINE
  5
4E
330
1F
100
AcDbEntity
  8
0-4_枠
  6
JWW_DASHED1
 62
   120
370
     5
100
AcDbLine
 10
-3475.000269606304
 20
-2698.250083820243
 30
0.0
 11
-3475.000269606304
 21
-696.2500838202433
 31
0.0
  0
LINE
  5
4F
330
1F
100
AcDbEntity
  8
0-4_枠
  6
JWW_DASHED1
 62
   120
370
     5
100
AcDbLine
 10
-1885.000269606304
 20
-2698.250083820243
 30
0.0
 11
-1885.000269606304
 21
-696.2500838202433
 31
0.0
  0
LINE
  5
50
330
1F
100
AcDbEntity
  8
0-4_枠
  6
JWW_DASHED1
 62
   120
370
     5
100
AcDbLine
 10
-1915.000269606304
 20
-2698.250083820243
 30
0.0
 11
-1915.000269606304
 21
-696.2500838202433
 31
0.0
  0
LINE
  5
51
330
1F
100
AcDbEntity
  8
0-4_枠
  6
Continuous
 62
    92
370
    13
100
AcDbLine
 10
-1108.000269606305
 20
-2698.250083820242
 30
0.0
 11
-4282.000269606305
 21
-2698.250083820242
 31
0.0
  0
LINE
  5
52
330
1F
100
AcDbEntity
  8
0-4_枠
  6
JWW_DASHED1
 62
   120
370
     5
100
AcDbLine
 10
2114.999228297054
 20
-2698.250083820243
 30
0.0
 11
2114.999228297054
 21
-696.2500838202433
 31
0.0
  0
LINE
  5
53
330
1F
100
AcDbEntity
  8
0-4_枠
  6
JWW_DASHED1
 62
   120
370
     5
100
AcDbLine
 10
2084.999228297054
 20
-2698.250083820243
 30
0.0
 11
2084.999228297054
 21
-696.2500838202433
 31
0.0
  0
LINE
  5
54
330
1F
100
AcDbEntity
  8
0-4_枠
  6
JWW_DASHED1
 62
   120
370
     5
100
AcDbLine
 10
3704.999228297054
 20
-2698.250083820243
 30
0.0
 11
3704.999228297054
 21
-696.2500838202433
 31
0.0
  0
LINE
  5
55
330
1F
100
AcDbEntity
  8
0-4_枠
  6
JWW_DASHED1
 62
   120
370
     5
100
AcDbLine
 10
3674.999228297054
 20
-2698.250083820243
 30
0.0
 11
3674.999228297054
 21
-696.2500838202433
 31
0.0
  0
LINE
  5
56
330
1F
100
AcDbEntity
  8
0-4_枠
  6
Continuous
 62
    92
370
    13
100
AcDbLine
 10
1307.999228297053
 20
-696.2500838202433
 30
0.0
 11
4481.999228297053
 21
-696.2500838202433
 31
0.0
  0
LINE
  5
57
330
1F
100
AcDbEntity
  8
0-4_枠
  6
Continuous
 62
    92
370
    13
100
AcDbLine
 10
4481.999228297053
 20
-2698.250083820242
 30
0.0
 11
1307.999228297053
 21
-2698.250083820242
 31
0.0
  0
LINE
  5
58
330
1F
100
AcDbEntity
  8
0-4_枠
  6
Continuous
 62
    92
370
    13
100
AcDbLine
 10
4511.999228297053
 20
-2713.250083820242
 30
0.0
 11
1277.999228297053
 21
-2713.250083820242
 31
0.0
  0
LINE
  5
59
330
1F
100
AcDbEntity
  8
0-4_枠
  6
Continuous
 62
    92
370
    13
100
AcDbLine
 10
1277.999228297053
 20
-2713.250083820242
 30
0.0
 11
1277.999228297053
 21
-666.2500838202419
 31
0.0
  0
LINE
  5
5A
330
1F
100
AcDbEntity
  8
0-4_枠
  6
Continuous
 62
    92
370
    13
100
AcDbLine
 10
4511.999228297053
 20
-2713.250083820242
 30
0.0
 11
4511.999228297053
 21
-666.2500838202419
 31
0.0
  0
LINE
  5
5B
330
1F
100
AcDbEntity
  8
0-4_枠
  6
Continuous
 62
    92
370
    13
100
AcDbLine
 10
1307.999228297053
 20
-2713.250083820242
 30
0.0
 11
1307.999228297053
 21
-666.2500838202419
 31
0.0
  0
LINE
  5
5C
330
1F
100
AcDbEntity
  8
0-4_枠
  6
Continuous
 62
    92
370
    13
100
AcDbLine
 10
4481.999228297053
 20
-2713.250083820242
 30
0.0
 11
4481.999228297053
 21
-666.2500838202419
 31
0.0
  0
LINE
  5
5D
330
1F
100
AcDbEntity
  8
0-4_枠
  6
Continuous
 62
    92
370
    13
100
AcDbLine
 10
1277.999228297053
 20
-666.2500838202419
 30
0.0
 11
4511.999228297053
 21
-666.2500838202419
 31
0.0
  0
LINE
  5
5E
330
1F
100
AcDbEntity
  8
0-4_枠
  6
Continuous
 62
    92
370
    13
100
AcDbLine
 10
-4282.000269606305
 20
-696.2500838202433
 30
0.0
 11
-1108.000269606305
 21
-696.2500838202433
 31
0.0
  0
LINE
  5
5F
330
1F
100
AcDbEntity
  8
0-4_枠
  6
Continuous
 62
    92
370
    13
100
AcDbLine
 10
-1078.000269606305
 20
-2713.250083820242
 30
0.0
 11
-4312.000269606305
 21
-2713.250083820242
 31
0.0
  0
LINE
  5
60
330
1F
100
AcDbEntity
  8
0-4_枠
  6
Continuous
 62
    92
370
    13
100
AcDbLine
 10
-4312.000269606305
 20
-2713.250083820242
 30
0.0
 11
-4312.000269606305
 21
-666.2500838202419
 31
0.0
  0
LINE
  5
61
330
1F
100
AcDbEntity
  8
0-4_枠
  6
Continuous
 62
    92
370
    13
100
AcDbLine
 10
-1078.000269606305
 20
-2713.250083820242
 30
0.0
 11
-1078.000269606305
 21
-666.2500838202419
 31
0.0
  0
LINE
  5
62
330
1F
100
AcDbEntity
  8
0-4_枠
  6
Continuous
 62
    92
370
    13
100
AcDbLine
 10
-4282.000269606305
 20
-2713.250083820242
 30
0.0
 11
-4282.000269606305
 21
-666.2500838202419
 31
0.0
  0
LINE
  5
63
330
1F
100
AcDbEntity
  8
0-4_枠
  6
Continuous
 62
    92
370
    13
100
AcDbLine
 10
-1108.000269606305
 20
-2713.250083820242
 30
0.0
 11
-1108.000269606305
 21
-666.2500838202419
 31
0.0
  0
LINE
  5
64
330
1F
100
AcDbEntity
  8
0-4_枠
  6
Continuous
 62
    92
370
    13
100
AcDbLine
 10
-4312.000269606305
 20
-666.2500838202419
 30
0.0
 11
-1078.000269606305
 21
-666.2500838202419
 31
0.0
  0
LINE
  5
65
330
1F
100
AcDbEntity
  8
0-0_補助線
  6
JWW_HOJO
 62
   120
370
     5
100
AcDbLine
 10
-5999.99998453501
 20
550.5001831054688
 30
0.0
 11
5699.998762800888
 21
550.5001831054688
 31
0.0
  0
LINE
  5
66
330
1F
100
AcDbEntity
  8
F-0_補助線
  6
JWW_HOJO
 62
   200
370
    20
100
AcDbLine
 10
-5999.99998453501
 20
84.49993236644843
 30
0.0
 11
5694.998498865077
 21
84.49993236644843
 31
0.0
  0
LINE
  5
67
330
1F
100
AcDbEntity
  8
0-0_補助線
  6
JWW_HOJO
 62
   120
370
     5
100
AcDbLine
 10
-5999.99998453501
 20
670.5001831054692
 30
0.0
 11
5699.998762800888
 21
670.5001831054692
 31
0.0
  0
LINE
  5
68
330
1F
100
AcDbEntity
  8
F-0_補助線
  6
JWW_HOJO
 62
     7
370
     9
100
AcDbLine
 10
849.9995876002961
 20
-3795.000003092998
 30
0.0
 11
849.9995876002961
 21
-4195.000008247994
 31
0.0
  0
LINE
  5
69
330
1F
100
AcDbEntity
  8
F-0_補助線
  6
JWW_HOJO
 62
     7
370
     9
100
AcDbLine
 10
349.9999175200594
 20
-3795.000003092998
 30
0.0
 11
349.9999175200594
 21
-4195.000008247994
 31
0.0
  0
LINE
  5
6A
330
1F
100
AcDbEntity
  8
F-1_枠
  6
Continuous
 62
   200
370
    20
100
AcDbLine
 10
5699.998762800888
 20
-4205.000002577498
 30
0.0
 11
-5999.999752560178
 21
-4205.000002577498
 31
0.0
  0
LINE
  5
6B
330
1F
100
AcDbEntity
  8
F-1_枠
  6
Continuous
 62
   200
370
    20
100
AcDbLine
 10
5699.998762800888
 20
-4199.999993814004
 30
0.0
 11
-5999.999752560178
 21
-4199.999993814004
 31
0.0
  0
LINE
  5
6C
330
1F
100
AcDbEntity
  8
F-1_枠
  6
Continuous
 62
   200
370
    20
100
AcDbLine
 10
5699.998762800888
 20
-4195.000008247994
 30
0.0
 11
-5999.999752560178
 21
-4195.000008247994
 31
0.0
  0
LINE
  5
6D
330
1F
100
AcDbEntity
  8
F-1_枠
  6
Continuous
 62
   200
370
    20
100
AcDbLine
 10
4189.999224688556
 20
-3795.000003092998
 30
0.0
 11
4189.999224688556
 21
-4195.000008247994
 31
0.0
  0
LINE
  5
6E
330
1F
100
AcDbEntity
  8
F-1_枠
  6
Continuous
 62
   200
370
    20
100
AcDbLine
 10
2689.998729808911
 20
-3795.000003092998
 30
0.0
 11
2689.998729808911
 21
-4195.000008247994
 31
0.0
  0
LINE
  5
6F
330
1F
100
AcDbEntity
  8
F-1_枠
  6
Continuous
 62
   200
370
    20
100
AcDbLine
 10
-150.0001237199109
 20
-3795.000003092998
 30
0.0
 11
-150.0001237199109
 21
-4195.000008247994
 31
0.0
  0
LINE
  5
70
330
1F
100
AcDbEntity
  8
F-1_枠
  6
Continuous
 62
   200
370
    20
100
AcDbLine
 10
-150.0001237199109
 20
-3994.999936078046
 30
0.0
 11
5689.998977248734
 21
-3995.005364289155
 31
0.0
  0
LINE
  5
71
330
1F
100
AcDbEntity
  8
F-0_補助線
  6
JWW_HOJO
 62
     7
370
     9
100
AcDbLine
 10
-5989.999990205507
 20
-3994.99993607839
 30
0.0
 11
-150.0001237199109
 21
-3994.99993607839
 31
0.0
  0
LINE
  5
72
330
1F
100
AcDbEntity
  8
F-0_補助線
  6
JWW_HOJO
 62
     7
370
     9
100
AcDbLine
 10
-5989.999990205507
 20
-3904.99993607839
 30
0.0
 11
-150.0001237199109
 21
-3904.99993607839
 31
0.0
  0
LINE
  5
73
330
1F
100
AcDbEntity
  8
F-0_補助線
  6
JWW_HOJO
 62
     7
370
     9
100
AcDbLine
 10
-5989.999990205507
 20
-4084.99993607839
 30
0.0
 11
-150.0001237199109
 21
-4084.99993607839
 31
0.0
  0
LINE
  5
74
330
1F
100
AcDbEntity
  8
F-0_補助線
  6
JWW_HOJO
 62
     7
370
     9
100
AcDbLine
 10
-150.0002584955388
 20
-4139.999739777983
 30
0.0
 11
5689.998842473105
 21
-4140.005167989091
 31
0.0
  0
LINE
  5
75
330
1F
100
AcDbEntity
  8
F-0_補助線
  6
JWW_HOJO
 62
     7
370
     9
100
AcDbLine
 10
-150.0001748415872
 20
-4049.999739778022
 30
0.0
 11
5689.998926127057
 21
-4050.005167989131
 31
0.0
  0
LINE
  5
76
330
1F
100
AcDbEntity
  8
F-0_補助線
  6
JWW_HOJO
 62
     7
370
     9
100
AcDbLine
 10
-150.0000725978671
 20
-3939.99973721807
 30
0.0
 11
5689.999028370777
 21
-3940.005165429179
 31
0.0
  0
LINE
  5
77
330
1F
100
AcDbEntity
  8
F-0_補助線
  6
JWW_HOJO
 62
     7
370
     9
100
AcDbLine
 10
-149.9999889439155
 20
-3849.999737218109
 30
0.0
 11
5689.999112024728
 21
-3850.005165429218
 31
0.0
  0
LINE
  5
78
330
1F
100
AcDbEntity
  8
F-0_補助線
  6
JWW_HOJO
 62
     7
370
     9
100
AcDbLine
 10
2779.998729808911
 20
-3795.000003092998
 30
0.0
 11
2779.998729808911
 21
-4195.000008247994
 31
0.0
  0
LINE
  5
79
330
1F
100
AcDbEntity
  8
F-0_補助線
  6
JWW_HOJO
 62
     7
370
     9
100
AcDbLine
 10
-60.0001237199109
 20
-3795.000003092998
 30
0.0
 11
-60.0001237199109
 21
-4195.000008247994
 31
0.0
  0
LINE
  5
7A
330
1F
100
AcDbEntity
  8
F-0_補助線
  6
JWW_HOJO
 62
     7
370
     9
100
AcDbLine
 10
4279.999224688556
 20
-3795.000003092998
 30
0.0
 11
4279.999224688556
 21
-4195.000008247994
 31
0.0
  0
LINE
  5
7B
330
1F
100
AcDbEntity
  8
F-0_補助線
  6
JWW_HOJO
 62
     7
370
     9
100
AcDbLine
 10
-5247.547376752838
 20
-3795.000003092999
 30
0.0
 11
-5247.547376752838
 21
-4205.000164959882
 31
0.0
  0
LINE
  5
7C
330
1F
100
AcDbEntity
  8
F-0_補助線
  6
JWW_HOJO
 62
     7
370
     9
100
AcDbLine
 10
-210.0001237199109
 20
-3795.000003092998
 30
0.0
 11
-210.0001237199109
 21
-4195.000008247994
 31
0.0
  0
LINE
  5
7D
330
1F
100
AcDbEntity
  8
F-1_枠
  6
Continuous
 62
   200
370
    20
100
AcDbLine
 10
5699.998762800888
 20
-3795.000003092998
 30
0.0
 11
-5999.99998453501
 21
-3795.000003092998
 31
0.0
  0
LINE
  5
7E
330
1F
100
AcDbEntity
  8
F-1_枠
  6
Continuous
 62
   200
370
    20
100
AcDbLine
 10
5699.998762800888
 20
-3790.000017526987
 30
0.0
 11
-5999.99998453501
 21
-3790.000017526987
 31
0.0
  0
LINE
  5
7F
330
1F
100
AcDbEntity
  8
F-1_枠
  6
Continuous
 62
   200
370
    20
100
AcDbLine
 10
-5999.999752560178
 20
4174.999769056166
 30
0.0
 11
5699.998762800888
 21
4174.999769056166
 31
0.0
  0
LINE
  5
80
330
1F
100
AcDbEntity
  8
F-0_補助線
  6
JWW_HOJO
 62
   120
370
     5
100
AcDbLine
 10
-6300.0
 20
-4455.0
 30
0.0
 11
-6300.0
 21
4424.999604096284
 31
0.0
  0
LINE
  5
81
330
1F
100
AcDbEntity
  8
F-0_補助線
  6
JWW_HOJO
 62
   120
370
     5
100
AcDbLine
 10
5999.999010240709
 20
4424.999604096284
 30
0.0
 11
5999.999010240709
 21
-4455.0
 31
0.0
  0
LINE
  5
82
330
1F
100
AcDbEntity
  8
F-0_補助線
  6
JWW_HOJO
 62
   120
370
     5
100
AcDbLine
 10
5999.999010240709
 20
-4455.0
 30
0.0
 11
-6300.0
 21
-4455.0
 31
0.0
  0
LINE
  5
83
330
1F
100
AcDbEntity
  8
F-1_枠
  6
Continuous
 62
   200
370
    20
100
AcDbLine
 10
-5999.999752560178
 20
4164.999983504013
 30
0.0
 11
5699.998762800888
 21
4164.999983504013
 31
0.0
  0
LINE
  5
84
330
1F
100
AcDbEntity
  8
F-1_枠
  6
Continuous
 62
   200
370
    20
100
AcDbLine
 10
-5999.999752560178
 20
4169.999505120355
 30
0.0
 11
5699.998762800888
 21
4169.999505120355
 31
0.0
  0
LINE
  5
85
330
1F
100
AcDbEntity
  8
F-1_枠
  6
Continuous
 62
   200
370
    20
100
AcDbLine
 10
5689.998977248734
 20
4174.999769056166
 30
0.0
 11
5689.998977248734
 21
-4205.000164959882
 31
0.0
  0
LINE
  5
86
330
1F
100
AcDbEntity
  8
F-1_枠
  6
Continuous
 62
   200
370
    20
100
AcDbLine
 10
5694.998498865077
 20
4174.999769056166
 30
0.0
 11
5694.998498865077
 21
-4205.000164959882
 31
0.0
  0
LINE
  5
87
330
1F
100
AcDbEntity
  8
F-1_枠
  6
Continuous
 62
   200
370
    20
100
AcDbLine
 10
5699.998762800888
 20
4174.999769056166
 30
0.0
 11
5699.998762800888
 21
-4205.000164959882
 31
0.0
  0
LINE
  5
88
330
1F
100
AcDbEntity
  8
F-1_枠
  6
Continuous
 62
   200
370
    20
100
AcDbLine
 10
-5989.999990205507
 20
4174.999769056166
 30
0.0
 11
-5989.999990205507
 21
-4205.000164959882
 31
0.0
  0
LINE
  5
89
330
1F
100
AcDbEntity
  8
F-1_枠
  6
Continuous
 62
   200
370
    20
100
AcDbLine
 10
-5994.999975771518
 20
4174.999769056166
 30
0.0
 11
-5994.999975771518
 21
-4205.000164959882
 31
0.0
  0
LINE
  5
8A
330
1F
100
AcDbEntity
  8
F-1_枠
  6
Continuous
 62
   200
370
    20
100
AcDbLine
 10
-5999.99998453501
 20
4174.999769056166
 30
0.0
 11
-5999.99998453501
 21
-4205.000164959882
 31
0.0
  0
LINE
  5
8B
330
1F
100
AcDbEntity
  8
F-1_枠
  6
Continuous
 62
   200
370
    20
100
AcDbLine
 10
-5490.000018557986
 20
4174.999769056166
 30
0.0
 11
-5490.000018557986
 21
-3790.000179909372
 31
0.0
  0
LINE
  5
8C
330
1F
100
AcDbEntity
  8
F-0_補助線
  6
JWW_HOJO
 62
   120
370
     5
100
AcDbLine
 10
-6300.0
 20
4424.999604096284
 30
0.0
 11
5999.999010240709
 21
4424.999604096284
 31
0.0
  0
LINE
  5
8D
330
1F
100
AcDbEntity
  8
F-1_枠
  6
Continuous
 62
   200
370
    20
100
AcDbLine
 10
-5999.99998453501
 20
3964.999818544131
 30
0.0
 11
5699.998762800888
 21
3964.999818544131
 31
0.0
  0
LINE
  5
8E
330
1F
100
AcDbEntity
  8
F-1_枠
  6
Continuous
 62
   200
370
    20
100
AcDbLine
 10
-5999.99998453501
 20
190.5001831054688
 30
0.0
 11
5699.998762800888
 21
190.5001831054688
 31
0.0
  0
LINE
  5
8F
330
1F
100
AcDbEntity
  8
F-1_枠
  6
Continuous
 62
   200
370
    20
100
AcDbLine
 10
-5999.99998453501
 20
-15.50015011349217
 30
0.0
 11
5699.998762800888
 21
-15.50015011349217
 31
0.0
  0
LINE
  5
90
330
1F
100
AcDbEntity
  8
F-1_枠
  6
Continuous
 62
   200
370
    20
100
AcDbLine
 10
-5999.99998453501
 20
184.5000148463899
 30
0.0
 11
5699.998762800888
 21
184.5000148463899
 31
0.0
  0
LINE
  5
91
330
1F
100
AcDbEntity
  8
F-1_枠
  6
Continuous
 62
   200
370
    20
100
AcDbLine
 10
-5999.99998453501
 20
187.5000989759289
 30
0.0
 11
5699.998762800888
 21
187.5000989759289
 31
0.0
  0
LINE
  5
92
330
1F
100
AcDbEntity
  8
F-1_枠
  6
Continuous
 62
   200
370
    20
100
AcDbLine
 10
99.99947934537431
 20
-3790.000179909372
 30
0.0
 11
99.99947934537431
 21
4174.999769056166
 31
0.0
  0
LINE
  5
93
330
1F
100
AcDbEntity
  8
0-0_補助線
  6
JWW_HOJO
 62
   120
370
     5
100
AcDbLine
 10
-4362.000269606306
 20
3964.999818544131
 30
0.0
 11
-4362.000269606306
 21
-3790.000179909372
 31
0.0
  0
LINE
  5
94
330
1F
100
AcDbEntity
  8
0-0_補助線
  6
JWW_HOJO
 62
     7
370
     9
100
AcDbLine
 10
-4312.000269606305
 20
3964.999818544131
 30
0.0
 11
-4312.000269606305
 21
-3790.000179909372
 31
0.0
  0
LINE
  5
95
330
1F
100
AcDbEntity
  8
0-0_補助線
  6
JWW_HOJO
 62
   120
370
     5
100
AcDbLine
 10
1227.999228297055
 20
3964.999818544131
 30
0.0
 11
1227.999228297055
 21
190.5001831054688
 31
0.0
  0
LINE
  5
96
330
1F
100
AcDbEntity
  8
0-0_補助線
  6
JWW_HOJO
 62
     7
370
     9
100
AcDbLine
 10
1277.999228297055
 20
3964.999818544131
 30
0.0
 11
1277.999228297055
 21
190.5001831054688
 31
0.0
  0
MTEXT
  5
97
330
1F
100
AcDbEntity
  8
F-A_文字
  6
Continuous
 62
     7
370
     9
100
AcDbMText
 10
-5890.000004381747
 20
4018.575148463894
 30
0.0
 40
57.15
 41
300.0
 46
0.0
 71
     7
 72
     1
  1
{\fＭＳ ゴシック|b0|i0|c128|p49;デザイン}
 73
     1
 44
1.0
  0
MTEXT
  5
98
330
1F
100
AcDbEntity
  8
F-A_文字
  6
Continuous
 62
     7
370
     9
100
AcDbMText
 10
-5852.500004381747
 20
2031.325062684755
 30
0.0
 40
57.15
 41
225.0
 46
0.0
 71
     7
 72
     1
  1
{\fＭＳ ゴシック|b0|i0|c128|p49;姿　図}
 73
     1
 44
1.0
  0
MTEXT
  5
99
330
1F
100
AcDbEntity
  8
F-A_文字
  6
Continuous
 62
     7
370
     9
100
AcDbMText
 10
-5890.000004381747
 20
38.07493236644844
 30
0.0
 40
57.15
 41
300.0
 46
0.0
 71
     7
 72
     1
  1
{\fＭＳ ゴシック|b0|i0|c128|p49;デザイン}
 73
     1
 44
1.0
  0
MTEXT
  5
9A
330
1F
100
AcDbEntity
  8
F-A_文字
  6
Continuous
 62
     7
370
     9
100
AcDbMText
 10
-5852.500004381747
 20
-1949.175091552734
 30
0.0
 40
57.15
 41
225.0
 46
0.0
 71
     7
 72
     1
  1
{\fＭＳ ゴシック|b0|i0|c128|p49;姿　図}
 73
     1
 44
1.0
  0
MTEXT
  5
9B
330
1F
100
AcDbEntity
  8
F-A_文字
  6
Continuous
 62
     7
370
     0
100
AcDbMText
 10
-60.0001237199109
 20
-3887.139820871936
 30
0.0
 40
45.72
 41
180.0
 46
0.0
 71
     7
 72
     1
  1
{\fＭＳ ゴシック|b0|i0|c128|p49;図面名}
 73
     1
 44
1.0
  0
MTEXT
  5
9C
330
1F
100
AcDbEntity
  8
F-A_文字
  6
Continuous
 62
     7
370
     0
100
AcDbMText
 10
2779.998729808911
 20
-3887.142460617774
 30
0.0
 40
45.72
 41
300.0
 46
0.0
 71
     7
 72
     1
  1
{\fＭＳ ゴシック|b0|i0|c128|p49;ＳＣＡＬＥ}
 73
     1
 44
1.0
  0
MTEXT
  5
9D
330
1F
100
AcDbEntity
  8
F-A_文字
  6
Continuous
 62
     7
370
     0
100
AcDbMText
 10
4279.999224688556
 20
-3887.143854850754
 30
0.0
 40
45.72
 41
240.0
 46
0.0
 71
     7
 72
     1
  1
{\fＭＳ ゴシック|b0|i0|c128|p49;ＤＡＴＥ}
 73
     1
 44
1.0
  0
MTEXT
  5
9E
330
1F
100
AcDbEntity
  8
F-A_文字
  6
Continuous
 62
     7
370
     0
100
AcDbMText
 10
1180.417701903719
 20
-3946.423911599839
 30
0.0
 40
77.15249999999999
 41
405.0
 46
0.0
 71
     7
 72
     1
  1
{\fＭＳ ゴシック|b0|i0|c128|p49;建具姿図}
 73
     1
 44
1.0
  0
MTEXT
  5
9F
330
1F
100
AcDbEntity
  8
F-A_文字
  6
Continuous
 62
     7
370
     0
100
AcDbMText
 10
3383.748977248734
 20
-3946.426865907308
 30
0.0
 40
77.15249999999999
 41
202.5
 46
0.0
 71
     7
 72
     1
  1
{\fＭＳ ゴシック|b0|i0|c128|p49;1/30}
 73
     1
 44
1.0
  0
MTEXT
  5
A0
330
1F
100
AcDbEntity
  8
F-A_文字
  6
Continuous
 62
     7
370
     0
100
AcDbMText
 10
2779.998729808911
 20
-4087.14246317786
 30
0.0
 40
45.72
 41
240.0
 46
0.0
 71
     7
 72
     1
  1
{\fＭＳ ゴシック|b0|i0|c128|p49;ＦＩＬＥ}
 73
     1
 44
1.0
  0
MTEXT
  5
A1
330
1F
100
AcDbEntity
  8
F-A_文字
  6
Continuous
 62
     7
370
     0
100
AcDbMText
 10
4279.999224688556
 20
-4087.143857410839
 30
0.0
 40
45.72
 41
180.0
 46
0.0
 71
     7
 72
     1
  1
{\fＭＳ ゴシック|b0|i0|c128|p49;ＮＯ．}
 73
     1
 44
1.0
  0
MTEXT
  5
A2
330
1F
100
AcDbEntity
  8
F-A_文字
  6
Continuous
 62
     7
370
     0
100
AcDbMText
 10
1234.998729808911
 20
-4096.140669266149
 30
0.0
 40
45.72
 41
120.0
 46
0.0
 71
     7
 72
     1
  1
{\fＭＳ ゴシック|b0|i0|c128|p49;株式}
 73
     1
 44
1.0
  0
MTEXT
  5
A3
330
1F
100
AcDbEntity
  8
F-A_文字
  6
Continuous
 62
     7
370
     9
100
AcDbMText
 10
4936.249033580831
 20
-4147.857012699985
 30
0.0
 40
74.295
 41
97.5
 46
0.0
 71
     7
 72
     1
  1
{\fＭＳ ゴシック|b0|i0|c128|p49;01}
 73
     1
 44
1.0
  0
MTEXT
  5
A4
330
1F
100
AcDbEntity
  8
F-A_文字
  6
Continuous
 62
     7
370
     0
100
AcDbMText
 10
1444.998729808911
 20
-4164.281754523929
 30
0.0
 40
101.44125
 41
1065.0
 46
0.0
 71
     7
 72
     1
  1
{\fＭＳ ゴシック|b0|i0|c128|p49;ウッドワン・・・}
 73
     1
 44
1.0
  0
MTEXT
  5
A5
330
1F
100
AcDbEntity
  8
F-A_文字
  6
Continuous
 62
     7
370
     0
100
AcDbMText
 10
1234.998729808911
 20
-4168.140669266187
 30
0.0
 40
45.72
 41
120.0
 46
0.0
 71
     7
 72
     1
  1
{\fＭＳ ゴシック|b0|i0|c128|p49;会社}
 73
     1
 44
1.0
  0
MTEXT
  5
A6
330
1F
100
AcDbEntity
  8
F-A_文字
  6
Continuous
 62
     7
370
     0
100
AcDbMText
 10
5608.403311109712
 20
-4314.841419020919
 30
0.0
 40
68.58
 41
90.0
 46
0.0
 71
     7
 72
     1
  1
{\fＭＳ ゴシック|b0|i0|c128|p49;）}
 73
     1
 44
1.0
  0
MTEXT
  5
A7
330
1F
100
AcDbEntity
  8
F-A_文字
  6
Continuous
 62
     7
370
     0
100
AcDbMText
 10
5190.195950842071
 20
-4316.235443869856
 30
0.0
 40
68.58
 41
45.0
 46
0.0
 71
     7
 72
     1
  1
{\fＭＳ ゴシック|b0|i0|c128|p49;,}
 73
     1
 44
1.0
  0
MTEXT
  5
A8
330
1F
100
AcDbEntity
  8
F-A_文字
  6
Continuous
 62
     7
370
     0
100
AcDbMText
 10
4923.937261915373
 20
-4314.771967288282
 30
0.0
 40
74.295
 41
97.5
 46
0.0
 71
     7
 72
     1
  1
{\fＭＳ ゴシック|b0|i0|c128|p49;$y}
 73
     1
 44
1.0
  0
MTEXT
  5
A9
330
1F
100
AcDbEntity
  8
F-A_文字
  6
Continuous
 62
     7
370
     0
100
AcDbMText
 10
5078.673982954195
 20
-4314.771967288282
 30
0.0
 40
74.295
 41
97.5
 46
0.0
 71
     7
 72
     1
  1
{\fＭＳ ゴシック|b0|i0|c128|p49;$m}
 73
     1
 44
1.0
  0
MTEXT
  5
AA
330
1F
100
AcDbEntity
  8
F-A_文字
  6
Continuous
 62
     7
370
     0
100
AcDbMText
 10
5233.410715437103
 20
-4314.771967288282
 30
0.0
 40
74.295
 41
97.5
 46
0.0
 71
     7
 72
     1
  1
{\fＭＳ ゴシック|b0|i0|c128|p49;$d}
 73
     1
 44
1.0
  0
MTEXT
  5
AB
330
1F
100
AcDbEntity
  8
F-A_文字
  6
Continuous
 62
     7
370
     0
100
AcDbMText
 10
5388.147447920011
 20
-4314.771967288282
 30
0.0
 40
74.295
 41
195.0
 46
0.0
 71
     7
 72
     1
  1
{\fＭＳ ゴシック|b0|i0|c128|p49;印刷}
 73
     1
 44
1.0
  0
MTEXT
  5
AC
330
1F
100
AcDbEntity
  8
F-A_文字
  6
Continuous
 62
     7
370
     0
100
AcDbMText
 10
4784.033374252999
 20
-4319.023493567732
 30
0.0
 40
68.58
 41
90.0
 46
0.0
 71
     7
 72
     1
  1
{\fＭＳ ゴシック|b0|i0|c128|p49;（}
 73
     1
 44
1.0
  0
MTEXT
  5
AD
330
1F
100
AcDbEntity
  8
F-A_文字
  6
Continuous
 62
     7
370
     0
100
AcDbMText
 10
5031.277143812345
 20
-4319.023493567732
 30
0.0
 40
68.58
 41
45.0
 46
0.0
 71
     7
 72
     1
  1
{\fＭＳ ゴシック|b0|i0|c128|p49;,}
 73
     1
 44
1.0
  0
LINE
  5
AE
330
1F
100
AcDbEntity
  8
0-0_補助線
  6
JWW_HOJO
 62
   120
370
     5
100
AcDbLine
 10
-5999.99998453501
 20
430.5001831054688
 30
0.0
 11
5699.998762800888
 21
430.5001831054688
 31
0.0
  0
LINE
  5
AF
330
1F
100
AcDbEntity
  8
0-0_補助線
  6
JWW_HOJO
 62
   120
370
     5
100
AcDbLine
 10
-5999.99998453501
 20
310.5001831054688
 30
0.0
 11
5699.998762800888
 21
310.5001831054688
 31
0.0
  0
LINE
  5
B0
330
1F
100
AcDbEntity
  8
0-0_補助線
  6
JWW_HOJO
 62
   120
370
     5
100
AcDbLine
 10
219.9994793453743
 20
4174.999769056166
 30
0.0
 11
219.9994793453743
 21
-3790.000179909371
 31
0.0
  0
LINE
  5
B1
330
1F
100
AcDbEntity
  8
0-0_補助線
  6
JWW_HOJO
 62
   120
370
     5
100
AcDbLine
 10
-5370.000018557986
 20
4174.999769056166
 30
0.0
 11
-5370.000018557986
 21
-3790.000179909371
 31
0.0
  0
LINE
  5
B2
330
1F
100
AcDbEntity
  8
0-0_補助線
  6
JWW_HOJO
 62
   120
370
     5
100
AcDbLine
 10
5699.998762800888
 20
-3430.000017526988
 30
0.0
 11
-5999.99998453501
 21
-3430.000017526988
 31
0.0
  0
LINE
  5
B3
330
1F
100
AcDbEntity
  8
0-0_補助線
  6
JWW_HOJO
 62
   120
370
     5
100
AcDbLine
 10
5699.998762800888
 20
-3550.000017526988
 30
0.0
 11
-5999.99998453501
 21
-3550.000017526988
 31
0.0
  0
LINE
  5
B4
330
1F
100
AcDbEntity
  8
0-0_補助線
  6
JWW_HOJO
 62
   120
370
     5
100
AcDbLine
 10
5699.998762800888
 20
-3670.000017526988
 30
0.0
 11
-5999.99998453501
 21
-3670.000017526988
 31
0.0
  0
MTEXT
  5
B5
330
1F
100
AcDbEntity
  8
F-A_文字
  6
Continuous
 62
     7
370
     0
100
AcDbMText
 10
4726.249126529666
 20
-3938.071010139966
 30
0.0
 40
78.86699999999999
 41
517.5
 46
0.0
 71
     7
 72
     1
  1
{\fＭＳ ゴシック|b0|i0|c128|p49;2021.04.01}
 73
     1
 44
1.0
  0
LINE
  5
B6
330
1F
100
AcDbEntity
  8
F-0_補助線
  6
JWW_HOJO
 62
   200
370
    20
100
AcDbLine
 10
-5999.99998453501
 20
4064.999901024072
 30
0.0
 11
5699.998762800888
 21
4064.999901024072
 31
0.0
  0
LINE
  5
B7
330
1F
100
AcDbEntity
  8
0-0_補助線
  6
JWW_HOJO
 62
     7
370
     9
100
AcDbLine
 10
-5490.000018557986
 20
3453.000148463893
 30
0.0
 11
5689.998977248734
 21
3453.000148463893
 31
0.0
  0
LINE
  5
B8
330
1F
100
AcDbEntity
  8
0-0_補助線
  6
JWW_HOJO
 62
   120
370
     5
100
AcDbLine
 10
-5999.99998453501
 20
790.5001831054697
 30
0.0
 11
5699.998762800888
 21
790.5001831054697
 31
0.0
  0
LINE
  5
B9
330
1F
100
AcDbEntity
  8
0-0_補助線
  6
JWW_HOJO
 62
   120
370
     5
100
AcDbLine
 10
5699.998762800888
 20
-3190.000017526988
 30
0.0
 11
-5999.99998453501
 21
-3190.000017526988
 31
0.0
  0
LINE
  5
BA
330
1F
100
AcDbEntity
  8
0-0_補助線
  6
JWW_HOJO
 62
   120
370
     5
100
AcDbLine
 10
5699.998762800888
 20
-3310.000017526988
 30
0.0
 11
-5999.99998453501
 21
-3310.000017526988
 31
0.0
  0
MTEXT
  5
BB
330
1F
100
AcDbEntity
  8
0-A_文字
  6
Continuous
 62
     7
370
     9
100
AcDbMText
 10
-5370.000018557987
 20
661.5754150803022
 30
0.0
 40
57.15000000000027
 41
975.0000000000051
 46
0.0
 71
     7
 72
     1
  1
{\fＭＳ ゴシック|b0|i0|c128|p49;枠外幅 3,234mm（DW=810mm）}
 73
     1
 44
1.0
  0
LINE
  5
BC
330
1F
100
AcDbEntity
  8
0-0_補助線
  6
JWW_HOJO
 62
   120
370
     5
100
AcDbLine
 10
1227.999228297055
 20
-15.50015011349217
 30
0.0
 11
1227.999228297055
 21
-3790.000179909372
 31
0.0
  0
LINE
  5
BD
330
1F
100
AcDbEntity
  8
0-0_補助線
  6
JWW_HOJO
 62
     7
370
     9
100
AcDbLine
 10
1277.999228297053
 20
-15.50015011349217
 30
0.0
 11
1277.999228297053
 21
-3790.000179909372
 31
0.0
  0
MTEXT
  5
BE
330
1F
100
AcDbEntity
  8
F-A_文字
  6
Continuous
 62
     7
370
     0
100
AcDbMText
 10
349.9999175200594
 20
-3946.417291872503
 30
0.0
 40
78.74000000000001
 41
465.0
 46
0.0
 71
     7
 72
     1
  1
{\fＭＳ ゴシック|b0|i0|c128|p49;PINOEARTH}
 73
     1
 44
1.0
  0
MTEXT
  5
BF
330
1F
100
AcDbEntity
  8
0-A_文字
  6
Continuous
 62
     7
370
     9
100
AcDbMText
 10
-2897.500269606306
 20
4013.576151024072
 30
0.0
 40
77.15249999999999
 41
405.0
 46
0.0
 71
     7
 72
     1
  1
{\fＭＳ ゴシック|b0|i0|c128|p49;Ｎ－ＶＭ}
 73
     1
 44
1.0
  0
MTEXT
  5
C0
330
1F
100
AcDbEntity
  8
0-A_文字
  6
Continuous
 62
     7
370
     9
100
AcDbMText
 10
-5370.000018557987
 20
541.5751831054683
 30
0.0
 40
57.15000000000006
 41
825.0000000000009
 46
0.0
 71
     7
 72
     1
  1
{\fＭＳ ゴシック|b0|i0|c128|p49;ステンド調熱処理ガラス}
 73
     1
 44
1.0
  0
LINE
  5
C1
330
1F
100
AcDbEntity
  8
0-0_補助線
  6
JWW_HOJO
 62
     7
370
     9
100
AcDbLine
 10
-5490.000018557986
 20
-666.2500838202419
 30
0.0
 11
5699.998762800888
 21
-666.2500838202419
 31
0.0
  0
MTEXT
  5
C2
330
1F
100
AcDbEntity
  8
0-A_文字
  6
Continuous
 62
     7
370
     9
100
AcDbMText
 10
2692.499228297054
 20
4013.576151024072
 30
0.0
 40
77.15249999999999
 41
405.0
 46
0.0
 71
     7
 72
     1
  1
{\fＭＳ ゴシック|b0|i0|c128|p49;Ｎ－ＶＪ}
 73
     1
 44
1.0
  0
MTEXT
  5
C3
330
1F
100
AcDbEntity
  8
0-A_文字
  6
Continuous
 62
     7
370
     9
100
AcDbMText
 10
-2897.500269606306
 20
33.07618236644843
 30
0.0
 40
77.15249999999999
 41
405.0
 46
0.0
 71
     7
 72
     1
  1
{\fＭＳ ゴシック|b0|i0|c128|p49;Ｎ－ＶＮ}
 73
     1
 44
1.0
  0
MTEXT
  5
C4
330
1F
100
AcDbEntity
  8
0-A_文字
  6
Continuous
 62
     7
370
     9
100
AcDbMText
 10
2692.499228297054
 20
33.07618236644843
 30
0.0
 40
77.15249999999999
 41
405.0
 46
0.0
 71
     7
 72
     1
  1
{\fＭＳ ゴシック|b0|i0|c128|p49;Ｎ－ＶＧ}
 73
     1
 44
1.0
  0
MTEXT
  5
C5
330
1F
100
AcDbEntity
  8
0-A_文字
  6
Continuous
 62
     7
370
     9
100
AcDbMText
 10
219.9994793453735
 20
541.5751831054683
 30
0.0
 40
57.15000000000006
 41
825.0000000000009
 46
0.0
 71
     7
 72
     1
  1
{\fＭＳ ゴシック|b0|i0|c128|p49;ステンド調熱処理ガラス}
 73
     1
 44
1.0
  0
MTEXT
  5
C6
330
1F
100
AcDbEntity
  8
0-A_文字
  6
Continuous
 62
     7
370
     9
100
AcDbMText
 10
219.9994793453726
 20
661.5754150803022
 30
0.0
 40
57.15000000000027
 41
975.0000000000051
 46
0.0
 71
     7
 72
     1
  1
{\fＭＳ ゴシック|b0|i0|c128|p49;枠外幅 3,234mm（DW=810mm）}
 73
     1
 44
1.0
  0
MTEXT
  5
C7
330
1F
100
AcDbEntity
  8
0-A_文字
  6
Continuous
 62
     7
370
     9
100
AcDbMText
 10
-5370.000018557987
 20
-3318.924785552156
 30
0.0
 40
57.15000000000027
 41
975.0000000000051
 46
0.0
 71
     7
 72
     1
  1
{\fＭＳ ゴシック|b0|i0|c128|p49;枠外幅 3,234mm（DW=810mm）}
 73
     1
 44
1.0
  0
MTEXT
  5
C8
330
1F
100
AcDbEntity
  8
0-A_文字
  6
Continuous
 62
     7
370
     9
100
AcDbMText
 10
219.9994793453726
 20
-3318.924785552156
 30
0.0
 40
57.15000000000027
 41
975.0000000000051
 46
0.0
 71
     7
 72
     1
  1
{\fＭＳ ゴシック|b0|i0|c128|p49;枠外幅 3,234mm（DW=810mm）}
 73
     1
 44
1.0
  0
MTEXT
  5
C9
330
1F
100
AcDbEntity
  8
0-A_文字
  6
Continuous
 62
     7
370
     9
100
AcDbMText
 10
-5370.000018557987
 20
-3438.925017526989
 30
0.0
 40
57.15000000000006
 41
825.0000000000009
 46
0.0
 71
     7
 72
     1
  1
{\fＭＳ ゴシック|b0|i0|c128|p49;熱処理ストライプガラス}
 73
     1
 44
1.0
  0
MTEXT
  5
CA
330
1F
100
AcDbEntity
  8
0-A_文字
  6
Continuous
 62
     7
370
     9
100
AcDbMText
 10
219.9994793453735
 20
-3438.925017526989
 30
0.0
 40
57.15000000000006
 41
825.0000000000009
 46
0.0
 71
     7
 72
     1
  1
{\fＭＳ ゴシック|b0|i0|c128|p49;熱処理ストライプガラス}
 73
     1
 44
1.0
  0
MTEXT
  5
CB
330
1F
100
AcDbEntity
  8
F-A_文字
  6
Continuous
 62
     7
370
     0
100
AcDbMText
 10
-5247.547376752838
 20
-4045.12193607839
 30
0.0
 40
79.75599999999994
 41
4710.0
 46
0.0
 71
     7
 72
     1
  1
{\fＭＳ ゴシック|b0|i0|c128|p49;ピノアース　引き分け戸　レールタイプ　框組のライン　Ｎ－ＶＭ／Ｎ－ＶＪ／Ｎ－ＶＮ／Ｎ－ＶＧ}
 73
     1
 44
1.0
  0
LINE
  5
CC
330
1F
100
AcDbEntity
  8
0-0_補助線
  6
JWW_HOJO
 62
     7
370
     9
100
AcDbLine
 10
-5490.000018557986
 20
1406.000148463892
 30
0.0
 11
5689.998977248734
 21
1406.000148463892
 31
0.0
  0
LINE
  5
CD
330
1F
100
AcDbEntity
  8
0-0_補助線
  6
JWW_HOJO
 62
   120
370
     5
100
AcDbLine
 10
-5490.000018557986
 20
1356.000148463893
 30
0.0
 11
5689.998977248734
 21
1356.000148463893
 31
0.0
  0
LINE
  5
CE
330
1F
100
AcDbEntity
  8
0-0_補助線
  6
JWW_HOJO
 62
     7
370
     9
100
AcDbLine
 10
-5490.000018557986
 20
1156.000148463893
 30
0.0
 11
5689.998977248734
 21
1156.000148463893
 31
0.0
  0
LINE
  5
CF
330
1F
100
AcDbEntity
  8
0-0_補助線
  6
JWW_HOJO
 62
     7
370
     9
100
AcDbLine
 10
-5490.000018557986
 20
-2713.250083820242
 30
0.0
 11
5699.998762800888
 21
-2713.250083820242
 31
0.0
  0
LINE
  5
D0
330
1F
100
AcDbEntity
  8
0-0_補助線
  6
JWW_HOJO
 62
   120
370
     5
100
AcDbLine
 10
-5490.000018557986
 20
-2763.250083820242
 30
0.0
 11
5699.998762800888
 21
-2763.250083820242
 31
0.0
  0
LINE
  5
D1
330
1F
100
AcDbEntity
  8
0-0_補助線
  6
JWW_HOJO
 62
     7
370
     9
100
AcDbLine
 10
-5490.000018557986
 20
-2963.250083820242
 30
0.0
 11
5699.998762800888
 21
-2963.250083820242
 31
0.0
  0
LINE
  5
D2
330
1F
100
AcDbEntity
  8
0-B_寸法
  6
Continuous
 62
   120
370
     5
100
AcDbLine
 10
-4562.000269606305
 20
1426.000148463893
 30
0.0
 11
-4362.000269606306
 21
1426.000148463893
 31
0.0
  0
LWPOLYLINE
  5
D3
330
1F
100
AcDbEntity
  8
0-B_寸法
  6
Continuous
 62
     7
370
     9
100
AcDbPolyline
 90
        4
 70
     1
 43
3.0
 10
-4560.500269606304
 20
1426.000148463893
 42
0.4142135623731
 10
-4562.000269606305
 20
1427.500148463893
 42
0.4142135623731
 10
-4563.500269606305
 20
1426.000148463893
 42
0.4142135623731
 10
-4562.000269606305
 20
1424.500148463893
 42
0.4142135623731
  0
LWPOLYLINE
  5
D4
330
1F
100
AcDbEntity
  8
0-B_寸法
  6
Continuous
 62
     7
370
     9
100
AcDbPolyline
 90
        4
 70
     1
 43
3.0
 10
-4560.500269606304
 20
3409.000148463892
 42
0.4142135623731
 10
-4562.000269606305
 20
3410.500148463892
 42
0.4142135623731
 10
-4563.500269606305
 20
3409.000148463892
 42
0.4142135623731
 10
-4562.000269606305
 20
3407.500148463892
 42
0.4142135623731
  0
LINE
  5
D5
330
1F
100
AcDbEntity
  8
0-B_寸法
  6
Continuous
 62
   120
370
     5
100
AcDbLine
 10
-4562.000269606305
 20
3409.000148463892
 30
0.0
 11
-4562.000269606305
 21
1426.000148463893
 31
0.0
  0
LINE
  5
D6
330
1F
100
AcDbEntity
  8
0-B_寸法
  6
Continuous
 62
   120
370
     5
100
AcDbLine
 10
-4562.000269606305
 20
3409.000148463892
 30
0.0
 11
-4362.000269606306
 21
3409.000148463892
 31
0.0
  0
LINE
  5
D7
330
1F
100
AcDbEntity
  8
0-B_寸法
  6
Continuous
 62
   120
370
     5
100
AcDbLine
 10
-2695.000269606305
 20
1156.000148463893
 30
0.0
 11
-2695.000269606305
 21
1356.000148463892
 31
0.0
  0
LINE
  5
D8
330
1F
100
AcDbEntity
  8
0-B_寸法
  6
Continuous
 62
   120
370
     5
100
AcDbLine
 10
-3505.000269606305
 20
1156.000148463893
 30
0.0
 11
-3505.000269606305
 21
1356.000148463892
 31
0.0
  0
LINE
  5
D9
330
1F
100
AcDbEntity
  8
0-B_寸法
  6
Continuous
 62
   120
370
     5
100
AcDbLine
 10
-3505.000269606305
 20
1156.000148463893
 30
0.0
 11
-1885.000269606305
 21
1156.000148463893
 31
0.0
  0
LINE
  5
DA
330
1F
100
AcDbEntity
  8
0-B_寸法
  6
Continuous
 62
   120
370
     5
100
AcDbLine
 10
-1885.000269606305
 20
1156.000148463893
 30
0.0
 11
-1885.000269606305
 21
1356.000148463892
 31
0.0
  0
LWPOLYLINE
  5
DB
330
1F
100
AcDbEntity
  8
0-B_寸法
  6
Continuous
 62
     7
370
     9
100
AcDbPolyline
 90
        4
 70
     1
 43
3.0
 10
-2693.500269606305
 20
1156.000148463893
 42
0.4142135623731
 10
-2695.000269606305
 20
1157.500148463893
 42
0.4142135623731
 10
-2696.500269606305
 20
1156.000148463893
 42
0.4142135623731
 10
-2695.000269606305
 20
1154.500148463893
 42
0.4142135623731
  0
LWPOLYLINE
  5
DC
330
1F
100
AcDbEntity
  8
0-B_寸法
  6
Continuous
 62
     7
370
     9
100
AcDbPolyline
 90
        4
 70
     1
 43
3.0
 10
-3503.500269606305
 20
1156.000148463893
 42
0.4142135623731
 10
-3505.000269606305
 20
1157.500148463893
 42
0.4142135623731
 10
-3506.500269606305
 20
1156.000148463893
 42
0.4142135623731
 10
-3505.000269606305
 20
1154.500148463893
 42
0.4142135623731
  0
LWPOLYLINE
  5
DD
330
1F
100
AcDbEntity
  8
0-B_寸法
  6
Continuous
 62
     7
370
     9
100
AcDbPolyline
 90
        4
 70
     1
 43
3.0
 10
-1883.500269606305
 20
1156.000148463893
 42
0.4142135623731
 10
-1885.000269606305
 20
1157.500148463893
 42
0.4142135623731
 10
-1886.500269606305
 20
1156.000148463893
 42
0.4142135623731
 10
-1885.000269606305
 20
1154.500148463893
 42
0.4142135623731
  0
MTEXT
  5
DE
330
1F
100
AcDbEntity
  8
0-B_寸法
  6
Continuous
 62
     7
370
    70
100
AcDbMText
 10
-4577.000269606305
 20
2208.325148463891
 30
0.0
 40
57.1500000000003
 41
412.5000000000022
 46
0.0
 71
     7
 72
     1
  1
{\fＭＳ ゴシック|b0|i0|c128|p49;ＤＨ＝1,983}
 11
6.123031769111886E-17
 21
1.0
 31
0.0
 73
     1
 44
1.0
  0
MTEXT
  5
DF
330
1F
100
AcDbEntity
  8
0-B_寸法
  6
Continuous
 62
     7
370
   211
100
AcDbMText
 10
-3268.750269606306
 20
1162.075148463897
 30
0.0
 40
57.14999999999999
 41
337.5
 46
0.0
 71
     7
 72
     1
  1
{\fＭＳ ゴシック|b0|i0|c128|p49;ＤＷ＝810}
 73
     1
 44
1.0
  0
MTEXT
  5
E0
330
1F
100
AcDbEntity
  8
0-B_寸法
  6
Continuous
 62
     7
370
   211
100
AcDbMText
 10
-2458.750269606306
 20
1162.075148463897
 30
0.0
 40
57.14999999999999
 41
337.5
 46
0.0
 71
     7
 72
     1
  1
{\fＭＳ ゴシック|b0|i0|c128|p49;ＤＷ＝810}
 73
     1
 44
1.0
  0
LINE
  5
E1
330
1F
100
AcDbEntity
  8
0-B_寸法
  6
Continuous
 62
   120
370
     5
100
AcDbLine
 10
1027.999228297056
 20
1426.000148463893
 30
0.0
 11
1227.999228297055
 21
1426.000148463893
 31
0.0
  0
LWPOLYLINE
  5
E2
330
1F
100
AcDbEntity
  8
0-B_寸法
  6
Continuous
 62
     7
370
     9
100
AcDbPolyline
 90
        4
 70
     1
 43
3.0
 10
1029.499228297056
 20
1426.000148463893
 42
0.4142135623731
 10
1027.999228297056
 20
1427.500148463893
 42
0.4142135623731
 10
1026.499228297056
 20
1426.000148463893
 42
0.4142135623731
 10
1027.999228297056
 20
1424.500148463893
 42
0.4142135623731
  0
LWPOLYLINE
  5
E3
330
1F
100
AcDbEntity
  8
0-B_寸法
  6
Continuous
 62
     7
370
     9
100
AcDbPolyline
 90
        4
 70
     1
 43
3.0
 10
1029.499228297056
 20
3409.000148463892
 42
0.4142135623731
 10
1027.999228297056
 20
3410.500148463892
 42
0.4142135623731
 10
1026.499228297056
 20
3409.000148463892
 42
0.4142135623731
 10
1027.999228297056
 20
3407.500148463892
 42
0.4142135623731
  0
LINE
  5
E4
330
1F
100
AcDbEntity
  8
0-B_寸法
  6
Continuous
 62
   120
370
     5
100
AcDbLine
 10
1027.999228297056
 20
3409.000148463892
 30
0.0
 11
1027.999228297056
 21
1426.000148463893
 31
0.0
  0
LINE
  5
E5
330
1F
100
AcDbEntity
  8
0-B_寸法
  6
Continuous
 62
   120
370
     5
100
AcDbLine
 10
1027.999228297056
 20
3409.000148463892
 30
0.0
 11
1227.999228297055
 21
3409.000148463892
 31
0.0
  0
LINE
  5
E6
330
1F
100
AcDbEntity
  8
0-B_寸法
  6
Continuous
 62
   120
370
     5
100
AcDbLine
 10
2894.999228297055
 20
1156.000148463893
 30
0.0
 11
2894.999228297055
 21
1356.000148463892
 31
0.0
  0
LINE
  5
E7
330
1F
100
AcDbEntity
  8
0-B_寸法
  6
Continuous
 62
   120
370
     5
100
AcDbLine
 10
2084.999228297055
 20
1156.000148463893
 30
0.0
 11
2084.999228297055
 21
1356.000148463892
 31
0.0
  0
LINE
  5
E8
330
1F
100
AcDbEntity
  8
0-B_寸法
  6
Continuous
 62
   120
370
     5
100
AcDbLine
 10
2084.999228297055
 20
1156.000148463893
 30
0.0
 11
3704.999228297055
 21
1156.000148463893
 31
0.0
  0
LINE
  5
E9
330
1F
100
AcDbEntity
  8
0-B_寸法
  6
Continuous
 62
   120
370
     5
100
AcDbLine
 10
3704.999228297055
 20
1156.000148463893
 30
0.0
 11
3704.999228297055
 21
1356.000148463892
 31
0.0
  0
LWPOLYLINE
  5
EA
330
1F
100
AcDbEntity
  8
0-B_寸法
  6
Continuous
 62
     7
370
     9
100
AcDbPolyline
 90
        4
 70
     1
 43
3.0
 10
2896.499228297055
 20
1156.000148463893
 42
0.4142135623731
 10
2894.999228297055
 20
1157.500148463893
 42
0.4142135623731
 10
2893.499228297055
 20
1156.000148463893
 42
0.4142135623731
 10
2894.999228297055
 20
1154.500148463893
 42
0.4142135623731
  0
LWPOLYLINE
  5
EB
330
1F
100
AcDbEntity
  8
0-B_寸法
  6
Continuous
 62
     7
370
     9
100
AcDbPolyline
 90
        4
 70
     1
 43
3.0
 10
2086.499228297055
 20
1156.000148463893
 42
0.4142135623731
 10
2084.999228297055
 20
1157.500148463893
 42
0.4142135623731
 10
2083.499228297055
 20
1156.000148463893
 42
0.4142135623731
 10
2084.999228297055
 20
1154.500148463893
 42
0.4142135623731
  0
LWPOLYLINE
  5
EC
330
1F
100
AcDbEntity
  8
0-B_寸法
  6
Continuous
 62
     7
370
     9
100
AcDbPolyline
 90
        4
 70
     1
 43
3.0
 10
3706.499228297055
 20
1156.000148463893
 42
0.4142135623731
 10
3704.999228297055
 20
1157.500148463893
 42
0.4142135623731
 10
3703.499228297055
 20
1156.000148463893
 42
0.4142135623731
 10
3704.999228297055
 20
1154.500148463893
 42
0.4142135623731
  0
MTEXT
  5
ED
330
1F
100
AcDbEntity
  8
0-B_寸法
  6
Continuous
 62
     7
370
    70
100
AcDbMText
 10
1012.999228297056
 20
2208.325148463891
 30
0.0
 40
57.1500000000003
 41
412.5000000000022
 46
0.0
 71
     7
 72
     1
  1
{\fＭＳ ゴシック|b0|i0|c128|p49;ＤＨ＝1,983}
 11
6.123031769111886E-17
 21
1.0
 31
0.0
 73
     1
 44
1.0
  0
MTEXT
  5
EE
330
1F
100
AcDbEntity
  8
0-B_寸法
  6
Continuous
 62
     7
370
   211
100
AcDbMText
 10
2321.249228297055
 20
1162.075148463897
 30
0.0
 40
57.14999999999999
 41
337.5
 46
0.0
 71
     7
 72
     1
  1
{\fＭＳ ゴシック|b0|i0|c128|p49;ＤＷ＝810}
 73
     1
 44
1.0
  0
MTEXT
  5
EF
330
1F
100
AcDbEntity
  8
0-B_寸法
  6
Continuous
 62
     7
370
   211
100
AcDbMText
 10
3131.249228297055
 20
1162.075148463897
 30
0.0
 40
57.14999999999999
 41
337.5
 46
0.0
 71
     7
 72
     1
  1
{\fＭＳ ゴシック|b0|i0|c128|p49;ＤＷ＝810}
 73
     1
 44
1.0
  0
LINE
  5
F0
330
1F
100
AcDbEntity
  8
0-B_寸法
  6
Continuous
 62
   120
370
     5
100
AcDbLine
 10
-4562.000269606305
 20
-2693.250083820242
 30
0.0
 11
-4362.000269606306
 21
-2693.250083820242
 31
0.0
  0
LWPOLYLINE
  5
F1
330
1F
100
AcDbEntity
  8
0-B_寸法
  6
Continuous
 62
     7
370
     9
100
AcDbPolyline
 90
        4
 70
     1
 43
3.0
 10
-4560.500269606304
 20
-2693.250083820242
 42
0.4142135623731
 10
-4562.000269606305
 20
-2691.750083820242
 42
0.4142135623731
 10
-4563.500269606305
 20
-2693.250083820242
 42
0.4142135623731
 10
-4562.000269606305
 20
-2694.750083820242
 42
0.4142135623731
  0
LWPOLYLINE
  5
F2
330
1F
100
AcDbEntity
  8
0-B_寸法
  6
Continuous
 62
     7
370
     9
100
AcDbPolyline
 90
        4
 70
     1
 43
3.0
 10
-4560.500269606304
 20
-710.2500838202428
 42
0.4142135623731
 10
-4562.000269606305
 20
-708.7500838202428
 42
0.4142135623731
 10
-4563.500269606305
 20
-710.2500838202428
 42
0.4142135623731
 10
-4562.000269606305
 20
-711.7500838202428
 42
0.4142135623731
  0
LINE
  5
F3
330
1F
100
AcDbEntity
  8
0-B_寸法
  6
Continuous
 62
   120
370
     5
100
AcDbLine
 10
-4562.000269606305
 20
-710.2500838202428
 30
0.0
 11
-4562.000269606305
 21
-2693.250083820242
 31
0.0
  0
LINE
  5
F4
330
1F
100
AcDbEntity
  8
0-B_寸法
  6
Continuous
 62
   120
370
     5
100
AcDbLine
 10
-4562.000269606305
 20
-710.2500838202428
 30
0.0
 11
-4362.000269606306
 21
-710.2500838202428
 31
0.0
  0
LINE
  5
F5
330
1F
100
AcDbEntity
  8
0-B_寸法
  6
Continuous
 62
   120
370
     5
100
AcDbLine
 10
-2695.000269606305
 20
-2963.250083820242
 30
0.0
 11
-2695.000269606305
 21
-2763.250083820243
 31
0.0
  0
LINE
  5
F6
330
1F
100
AcDbEntity
  8
0-B_寸法
  6
Continuous
 62
   120
370
     5
100
AcDbLine
 10
-3505.000269606305
 20
-2963.250083820242
 30
0.0
 11
-3505.000269606305
 21
-2763.250083820243
 31
0.0
  0
LINE
  5
F7
330
1F
100
AcDbEntity
  8
0-B_寸法
  6
Continuous
 62
   120
370
     5
100
AcDbLine
 10
-3505.000269606305
 20
-2963.250083820242
 30
0.0
 11
-1885.000269606305
 21
-2963.250083820242
 31
0.0
  0
LINE
  5
F8
330
1F
100
AcDbEntity
  8
0-B_寸法
  6
Continuous
 62
   120
370
     5
100
AcDbLine
 10
-1885.000269606305
 20
-2963.250083820242
 30
0.0
 11
-1885.000269606305
 21
-2763.250083820243
 31
0.0
  0
LWPOLYLINE
  5
F9
330
1F
100
AcDbEntity
  8
0-B_寸法
  6
Continuous
 62
     7
370
     9
100
AcDbPolyline
 90
        4
 70
     1
 43
3.0
 10
-2693.500269606305
 20
-2963.250083820242
 42
0.4142135623731
 10
-2695.000269606305
 20
-2961.750083820242
 42
0.4142135623731
 10
-2696.500269606305
 20
-2963.250083820242
 42
0.4142135623731
 10
-2695.000269606305
 20
-2964.750083820242
 42
0.4142135623731
  0
LWPOLYLINE
  5
FA
330
1F
100
AcDbEntity
  8
0-B_寸法
  6
Continuous
 62
     7
370
     9
100
AcDbPolyline
 90
        4
 70
     1
 43
3.0
 10
-3503.500269606305
 20
-2963.250083820242
 42
0.4142135623731
 10
-3505.000269606305
 20
-2961.750083820242
 42
0.4142135623731
 10
-3506.500269606305
 20
-2963.250083820242
 42
0.4142135623731
 10
-3505.000269606305
 20
-2964.750083820242
 42
0.4142135623731
  0
LWPOLYLINE
  5
FB
330
1F
100
AcDbEntity
  8
0-B_寸法
  6
Continuous
 62
     7
370
     9
100
AcDbPolyline
 90
        4
 70
     1
 43
3.0
 10
-1883.500269606305
 20
-2963.250083820242
 42
0.4142135623731
 10
-1885.000269606305
 20
-2961.750083820242
 42
0.4142135623731
 10
-1886.500269606305
 20
-2963.250083820242
 42
0.4142135623731
 10
-1885.000269606305
 20
-2964.750083820242
 42
0.4142135623731
  0
MTEXT
  5
FC
330
1F
100
AcDbEntity
  8
0-B_寸法
  6
Continuous
 62
     7
370
    70
100
AcDbMText
 10
-4577.000269606305
 20
-1910.925083820243
 30
0.0
 40
57.1500000000003
 41
412.5000000000022
 46
0.0
 71
     7
 72
     1
  1
{\fＭＳ ゴシック|b0|i0|c128|p49;ＤＨ＝1,983}
 11
6.123031769111886E-17
 21
1.0
 31
0.0
 73
     1
 44
1.0
  0
MTEXT
  5
FD
330
1F
100
AcDbEntity
  8
0-B_寸法
  6
Continuous
 62
     7
370
   211
100
AcDbMText
 10
-3268.750269606305
 20
-2957.175083820237
 30
0.0
 40
57.14999999999999
 41
337.5
 46
0.0
 71
     7
 72
     1
  1
{\fＭＳ ゴシック|b0|i0|c128|p49;ＤＷ＝810}
 73
     1
 44
1.0
  0
MTEXT
  5
FE
330
1F
100
AcDbEntity
  8
0-B_寸法
  6
Continuous
 62
     7
370
   211
100
AcDbMText
 10
-2458.750269606305
 20
-2957.175083820237
 30
0.0
 40
57.14999999999999
 41
337.5
 46
0.0
 71
     7
 72
     1
  1
{\fＭＳ ゴシック|b0|i0|c128|p49;ＤＷ＝810}
 73
     1
 44
1.0
  0
LINE
  5
FF
330
1F
100
AcDbEntity
  8
0-B_寸法
  6
Continuous
 62
   120
370
     5
100
AcDbLine
 10
1027.999228297054
 20
-2693.250083820242
 30
0.0
 11
1227.999228297053
 21
-2693.250083820242
 31
0.0
  0
LWPOLYLINE
  5
100
330
1F
100
AcDbEntity
  8
0-B_寸法
  6
Continuous
 62
     7
370
     9
100
AcDbPolyline
 90
        4
 70
     1
 43
3.0
 10
1029.499228297054
 20
-2693.250083820242
 42
0.4142135623731
 10
1027.999228297054
 20
-2691.750083820242
 42
0.4142135623731
 10
1026.499228297054
 20
-2693.250083820242
 42
0.4142135623731
 10
1027.999228297054
 20
-2694.750083820242
 42
0.4142135623731
  0
LWPOLYLINE
  5
101
330
1F
100
AcDbEntity
  8
0-B_寸法
  6
Continuous
 62
     7
370
     9
100
AcDbPolyline
 90
        4
 70
     1
 43
3.0
 10
1029.499228297054
 20
-710.2500838202428
 42
0.4142135623731
 10
1027.999228297054
 20
-708.7500838202428
 42
0.4142135623731
 10
1026.499228297054
 20
-710.2500838202428
 42
0.4142135623731
 10
1027.999228297054
 20
-711.7500838202428
 42
0.4142135623731
  0
LINE
  5
102
330
1F
100
AcDbEntity
  8
0-B_寸法
  6
Continuous
 62
   120
370
     5
100
AcDbLine
 10
1027.999228297054
 20
-710.2500838202428
 30
0.0
 11
1027.999228297054
 21
-2693.250083820242
 31
0.0
  0
LINE
  5
103
330
1F
100
AcDbEntity
  8
0-B_寸法
  6
Continuous
 62
   120
370
     5
100
AcDbLine
 10
1027.999228297054
 20
-710.2500838202428
 30
0.0
 11
1227.999228297053
 21
-710.2500838202428
 31
0.0
  0
LINE
  5
104
330
1F
100
AcDbEntity
  8
0-B_寸法
  6
Continuous
 62
   120
370
     5
100
AcDbLine
 10
2894.999228297053
 20
-2963.250083820242
 30
0.0
 11
2894.999228297053
 21
-2763.250083820243
 31
0.0
  0
LINE
  5
105
330
1F
100
AcDbEntity
  8
0-B_寸法
  6
Continuous
 62
   120
370
     5
100
AcDbLine
 10
2084.999228297053
 20
-2963.250083820242
 30
0.0
 11
2084.999228297053
 21
-2763.250083820243
 31
0.0
  0
LINE
  5
106
330
1F
100
AcDbEntity
  8
0-B_寸法
  6
Continuous
 62
   120
370
     5
100
AcDbLine
 10
2084.999228297053
 20
-2963.250083820242
 30
0.0
 11
3704.999228297053
 21
-2963.250083820242
 31
0.0
  0
LINE
  5
107
330
1F
100
AcDbEntity
  8
0-B_寸法
  6
Continuous
 62
   120
370
     5
100
AcDbLine
 10
3704.999228297053
 20
-2963.250083820242
 30
0.0
 11
3704.999228297053
 21
-2763.250083820243
 31
0.0
  0
LWPOLYLINE
  5
108
330
1F
100
AcDbEntity
  8
0-B_寸法
  6
Continuous
 62
     7
370
     9
100
AcDbPolyline
 90
        4
 70
     1
 43
3.0
 10
2896.499228297053
 20
-2963.250083820242
 42
0.4142135623731
 10
2894.999228297053
 20
-2961.750083820242
 42
0.4142135623731
 10
2893.499228297054
 20
-2963.250083820242
 42
0.4142135623731
 10
2894.999228297053
 20
-2964.750083820242
 42
0.4142135623731
  0
LWPOLYLINE
  5
109
330
1F
100
AcDbEntity
  8
0-B_寸法
  6
Continuous
 62
     7
370
     9
100
AcDbPolyline
 90
        4
 70
     1
 43
3.0
 10
2086.499228297053
 20
-2963.250083820242
 42
0.4142135623731
 10
2084.999228297053
 20
-2961.750083820242
 42
0.4142135623731
 10
2083.499228297054
 20
-2963.250083820242
 42
0.4142135623731
 10
2084.999228297053
 20
-2964.750083820242
 42
0.4142135623731
  0
LWPOLYLINE
  5
10A
330
1F
100
AcDbEntity
  8
0-B_寸法
  6
Continuous
 62
     7
370
     9
100
AcDbPolyline
 90
        4
 70
     1
 43
3.0
 10
3706.499228297053
 20
-2963.250083820242
 42
0.4142135623731
 10
3704.999228297053
 20
-2961.750083820242
 42
0.4142135623731
 10
3703.499228297054
 20
-2963.250083820242
 42
0.4142135623731
 10
3704.999228297053
 20
-2964.750083820242
 42
0.4142135623731
  0
MTEXT
  5
10B
330
1F
100
AcDbEntity
  8
0-B_寸法
  6
Continuous
 62
     7
370
    70
100
AcDbMText
 10
1012.999228297053
 20
-1910.925083820242
 30
0.0
 40
57.15000000000029
 41
412.5000000000022
 46
0.0
 71
     7
 72
     1
  1
{\fＭＳ ゴシック|b0|i0|c128|p49;ＤＨ＝1,983}
 11
6.123031769111886E-17
 21
1.0
 31
0.0
 73
     1
 44
1.0
  0
MTEXT
  5
10C
330
1F
100
AcDbEntity
  8
0-B_寸法
  6
Continuous
 62
     7
370
   211
100
AcDbMText
 10
2321.249228297053
 20
-2957.175083820237
 30
0.0
 40
57.14999999999999
 41
337.5
 46
0.0
 71
     7
 72
     1
  1
{\fＭＳ ゴシック|b0|i0|c128|p49;ＤＷ＝810}
 73
     1
 44
1.0
  0
MTEXT
  5
10D
330
1F
100
AcDbEntity
  8
0-B_寸法
  6
Continuous
 62
     7
370
   211
100
AcDbMText
 10
3131.249228297053
 20
-2957.175083820237
 30
0.0
 40
57.14999999999999
 41
337.5
 46
0.0
 71
     7
 72
     1
  1
{\fＭＳ ゴシック|b0|i0|c128|p49;ＤＷ＝810}
 73
     1
 44
1.0
  0
LINE
  5
10E
330
1F
100
AcDbEntity
  8
0-4_枠
  6
Continuous
 62
    92
370
    13
100
AcDbLine
 10
-4312.000269606305
 20
3453.000148463893
 30
0.0
 11
-1078.000269606305
 21
3453.000148463893
 31
0.0
  0
LINE
  5
10F
330
1F
100
AcDbEntity
  8
0-4_枠
  6
Continuous
 62
    92
370
    13
100
AcDbLine
 10
-1108.000269606305
 20
1406.000148463892
 30
0.0
 11
-1108.000269606305
 21
3453.000148463893
 31
0.0
  0
LINE
  5
110
330
1F
100
AcDbEntity
  8
0-4_枠
  6
Continuous
 62
    92
370
    13
100
AcDbLine
 10
-4282.000269606305
 20
1406.000148463892
 30
0.0
 11
-4282.000269606305
 21
3453.000148463893
 31
0.0
  0
LINE
  5
111
330
1F
100
AcDbEntity
  8
0-4_枠
  6
Continuous
 62
    92
370
    13
100
AcDbLine
 10
-1078.000269606305
 20
1406.000148463892
 30
0.0
 11
-1078.000269606305
 21
3453.000148463893
 31
0.0
  0
LINE
  5
112
330
1F
100
AcDbEntity
  8
0-4_枠
  6
Continuous
 62
    92
370
    13
100
AcDbLine
 10
-4312.000269606305
 20
1406.000148463892
 30
0.0
 11
-4312.000269606305
 21
3453.000148463893
 31
0.0
  0
LINE
  5
113
330
1F
100
AcDbEntity
  8
0-4_枠
  6
Continuous
 62
    92
370
    13
100
AcDbLine
 10
-1078.000269606305
 20
1406.000148463892
 30
0.0
 11
-4312.000269606305
 21
1406.000148463892
 31
0.0
  0
LINE
  5
114
330
1F
100
AcDbEntity
  8
0-4_枠
  6
Continuous
 62
    92
370
    13
100
AcDbLine
 10
-1108.000269606305
 20
1421.000148463892
 30
0.0
 11
-4282.000269606305
 21
1421.000148463892
 31
0.0
  0
LINE
  5
115
330
1F
100
AcDbEntity
  8
0-4_枠
  6
Continuous
 62
    92
370
    13
100
AcDbLine
 10
-4282.000269606305
 20
3423.000148463891
 30
0.0
 11
-1108.000269606305
 21
3423.000148463891
 31
0.0
  0
LINE
  5
116
330
1F
100
AcDbEntity
  8
0-4_枠
  6
JWW_DASHED1
 62
   120
370
     5
100
AcDbLine
 10
-3505.000269606304
 20
1421.000148463891
 30
0.0
 11
-3505.000269606304
 21
3423.000148463891
 31
0.0
  0
LINE
  5
117
330
1F
100
AcDbEntity
  8
0-4_枠
  6
JWW_DASHED1
 62
   120
370
     5
100
AcDbLine
 10
-3475.000269606304
 20
1421.000148463891
 30
0.0
 11
-3475.000269606304
 21
3423.000148463891
 31
0.0
  0
LINE
  5
118
330
1F
100
AcDbEntity
  8
0-4_枠
  6
Continuous
 62
    92
370
    13
100
AcDbLine
 10
1277.999228297055
 20
3453.000148463893
 30
0.0
 11
4511.999228297055
 21
3453.000148463893
 31
0.0
  0
LINE
  5
119
330
1F
100
AcDbEntity
  8
0-4_枠
  6
Continuous
 62
    92
370
    13
100
AcDbLine
 10
4481.999228297055
 20
1406.000148463892
 30
0.0
 11
4481.999228297055
 21
3453.000148463893
 31
0.0
  0
LINE
  5
11A
330
1F
100
AcDbEntity
  8
0-4_枠
  6
Continuous
 62
    92
370
    13
100
AcDbLine
 10
1307.999228297055
 20
1406.000148463892
 30
0.0
 11
1307.999228297055
 21
3453.000148463893
 31
0.0
  0
LINE
  5
11B
330
1F
100
AcDbEntity
  8
0-4_枠
  6
Continuous
 62
    92
370
    13
100
AcDbLine
 10
4511.999228297055
 20
1406.000148463892
 30
0.0
 11
4511.999228297055
 21
3453.000148463893
 31
0.0
  0
LINE
  5
11C
330
1F
100
AcDbEntity
  8
0-4_枠
  6
Continuous
 62
    92
370
    13
100
AcDbLine
 10
1277.999228297055
 20
1406.000148463892
 30
0.0
 11
1277.999228297055
 21
3453.000148463893
 31
0.0
  0
LINE
  5
11D
330
1F
100
AcDbEntity
  8
0-4_枠
  6
Continuous
 62
    92
370
    13
100
AcDbLine
 10
4511.999228297055
 20
1406.000148463892
 30
0.0
 11
1277.999228297055
 21
1406.000148463892
 31
0.0
  0
LINE
  5
11E
330
1F
100
AcDbEntity
  8
0-4_枠
  6
Continuous
 62
    92
370
    13
100
AcDbLine
 10
4481.999228297055
 20
1421.000148463892
 30
0.0
 11
1307.999228297055
 21
1421.000148463892
 31
0.0
  0
LINE
  5
11F
330
1F
100
AcDbEntity
  8
0-4_枠
  6
Continuous
 62
    92
370
    13
100
AcDbLine
 10
1307.999228297055
 20
3423.000148463891
 30
0.0
 11
4481.999228297055
 21
3423.000148463891
 31
0.0
  0
LINE
  5
120
330
1F
100
AcDbEntity
  8
0-4_枠
  6
JWW_DASHED1
 62
   120
370
     5
100
AcDbLine
 10
3674.999228297056
 20
1421.000148463891
 30
0.0
 11
3674.999228297056
 21
3423.000148463891
 31
0.0
  0
LINE
  5
121
330
1F
100
AcDbEntity
  8
0-4_枠
  6
JWW_DASHED1
 62
   120
370
     5
100
AcDbLine
 10
3704.999228297056
 20
1421.000148463891
 30
0.0
 11
3704.999228297056
 21
3423.000148463891
 31
0.0
  0
LINE
  5
122
330
1F
100
AcDbEntity
  8
0-4_枠
  6
JWW_DASHED1
 62
   120
370
     5
100
AcDbLine
 10
2084.999228297056
 20
1421.000148463891
 30
0.0
 11
2084.999228297056
 21
3423.000148463891
 31
0.0
  0
LINE
  5
123
330
1F
100
AcDbEntity
  8
0-4_枠
  6
JWW_DASHED1
 62
   120
370
     5
100
AcDbLine
 10
2114.999228297056
 20
1421.000148463891
 30
0.0
 11
2114.999228297056
 21
3423.000148463891
 31
0.0
  0
LINE
  5
124
330
1F
100
AcDbEntity
  8
0-4_枠
  6
JWW_DASHED1
 62
   120
370
     5
100
AcDbLine
 10
-1915.000269606304
 20
1421.000148463891
 30
0.0
 11
-1915.000269606304
 21
3423.000148463891
 31
0.0
  0
LINE
  5
125
330
1F
100
AcDbEntity
  8
0-4_枠
  6
JWW_DASHED1
 62
   120
370
     5
100
AcDbLine
 10
-1885.000269606304
 20
1421.000148463891
 30
0.0
 11
-1885.000269606304
 21
3423.000148463891
 31
0.0
  0
ARC
  5
126
330
1F
100
AcDbEntity
  8
引手
  6
Continuous
 62
    92
370
    13
100
AcDbCircle
 10
-2765.500269606303
 20
2437.000148463892
 30
0.0
 40
1.5
100
AcDbArc
 50
90.0
 51
180.0
  0
LINE
  5
127
330
1F
100
AcDbEntity
  8
引手
  6
Continuous
 62
    92
370
    13
100
AcDbLine
 10
-2767.000269606303
 20
2330.000148463893
 30
0.0
 11
-2767.000269606303
 21
2437.000148463892
 31
0.0
  0
ARC
  5
128
330
1F
100
AcDbEntity
  8
引手
  6
Continuous
 62
    92
370
    13
100
AcDbCircle
 10
-2765.500269606303
 20
2330.000148463893
 30
0.0
 40
1.5
100
AcDbArc
 50
180.0
 51
270.0
  0
LINE
  5
129
330
1F
100
AcDbEntity
  8
引手
  6
Continuous
 62
    92
370
    13
100
AcDbLine
 10
-2726.500269606304
 20
2328.500148463894
 30
0.0
 11
-2765.500269606303
 21
2328.500148463894
 31
0.0
  0
ARC
  5
12A
330
1F
100
AcDbEntity
  8
引手
  6
Continuous
 62
    92
370
    13
100
AcDbCircle
 10
-2726.500269606304
 20
2330.000148463893
 30
0.0
 40
1.5
100
AcDbArc
 50
270.0
 51
0.0
  0
LINE
  5
12B
330
1F
100
AcDbEntity
  8
引手
  6
Continuous
 62
    92
370
    13
100
AcDbLine
 10
-2725.000269606304
 20
2437.000148463892
 30
0.0
 11
-2725.000269606304
 21
2330.000148463893
 31
0.0
  0
LINE
  5
12C
330
1F
100
AcDbEntity
  8
引手
  6
Continuous
 62
    92
370
    13
100
AcDbLine
 10
-2726.500269606304
 20
2438.500148463893
 30
0.0
 11
-2765.500269606303
 21
2438.500148463893
 31
0.0
  0
ARC
  5
12D
330
1F
100
AcDbEntity
  8
引手
  6
Continuous
 62
    92
370
    13
100
AcDbCircle
 10
-2726.500269606304
 20
2437.000148463892
 30
0.0
 40
1.5
100
AcDbArc
 50
0.0
 51
90.0
  0
ARC
  5
12E
330
1F
100
AcDbEntity
  8
引手
  6
Continuous
 62
     7
370
     9
100
AcDbCircle
 10
-2757.000269606303
 20
2421.000148463893
 30
0.0
 40
1.5
100
AcDbArc
 50
90.0
 51
180.0
  0
LINE
  5
12F
330
1F
100
AcDbEntity
  8
引手
  6
Continuous
 62
     7
370
     9
100
AcDbLine
 10
-2758.500269606304
 20
2346.000148463893
 30
0.0
 11
-2758.500269606304
 21
2421.000148463893
 31
0.0
  0
ARC
  5
130
330
1F
100
AcDbEntity
  8
引手
  6
Continuous
 62
     7
370
     9
100
AcDbCircle
 10
-2757.000269606303
 20
2346.000148463893
 30
0.0
 40
1.5
100
AcDbArc
 50
180.0
 51
270.0
  0
LINE
  5
131
330
1F
100
AcDbEntity
  8
引手
  6
Continuous
 62
     7
370
     9
100
AcDbLine
 10
-2735.000269606303
 20
2344.500148463893
 30
0.0
 11
-2757.000269606303
 21
2344.500148463893
 31
0.0
  0
ARC
  5
132
330
1F
100
AcDbEntity
  8
引手
  6
Continuous
 62
     7
370
     9
100
AcDbCircle
 10
-2735.000269606303
 20
2346.000148463893
 30
0.0
 40
1.5
100
AcDbArc
 50
270.0
 51
0.0
  0
LINE
  5
133
330
1F
100
AcDbEntity
  8
引手
  6
Continuous
 62
     7
370
     9
100
AcDbLine
 10
-2733.500269606303
 20
2421.000148463893
 30
0.0
 11
-2733.500269606303
 21
2346.000148463893
 31
0.0
  0
LINE
  5
134
330
1F
100
AcDbEntity
  8
引手
  6
Continuous
 62
     7
370
     9
100
AcDbLine
 10
-2735.000269606303
 20
2422.500148463894
 30
0.0
 11
-2757.000269606303
 21
2422.500148463894
 31
0.0
  0
ARC
  5
135
330
1F
100
AcDbEntity
  8
引手
  6
Continuous
 62
     7
370
     9
100
AcDbCircle
 10
-2735.000269606303
 20
2421.000148463893
 30
0.0
 40
1.5
100
AcDbArc
 50
0.0
 51
90.0
  0
ARC
  5
136
330
1F
100
AcDbEntity
  8
引手
  6
Continuous
 62
    92
370
    13
100
AcDbCircle
 10
-2663.500269606307
 20
2437.000148463892
 30
0.0
 40
1.5
100
AcDbArc
 50
90.0
 51
180.0
  0
LINE
  5
137
330
1F
100
AcDbEntity
  8
引手
  6
Continuous
 62
    92
370
    13
100
AcDbLine
 10
-2665.000269606305
 20
2330.000148463893
 30
0.0
 11
-2665.000269606305
 21
2437.000148463892
 31
0.0
  0
ARC
  5
138
330
1F
100
AcDbEntity
  8
引手
  6
Continuous
 62
    92
370
    13
100
AcDbCircle
 10
-2663.500269606307
 20
2330.000148463893
 30
0.0
 40
1.5
100
AcDbArc
 50
180.0
 51
270.0
  0
LINE
  5
139
330
1F
100
AcDbEntity
  8
引手
  6
Continuous
 62
    92
370
    13
100
AcDbLine
 10
-2624.500269606305
 20
2328.500148463894
 30
0.0
 11
-2663.500269606307
 21
2328.500148463894
 31
0.0
  0
ARC
  5
13A
330
1F
100
AcDbEntity
  8
引手
  6
Continuous
 62
    92
370
    13
100
AcDbCircle
 10
-2624.500269606305
 20
2330.000148463893
 30
0.0
 40
1.5
100
AcDbArc
 50
270.0
 51
0.0
  0
LINE
  5
13B
330
1F
100
AcDbEntity
  8
引手
  6
Continuous
 62
    92
370
    13
100
AcDbLine
 10
-2623.000269606307
 20
2437.000148463892
 30
0.0
 11
-2623.000269606307
 21
2330.000148463893
 31
0.0
  0
LINE
  5
13C
330
1F
100
AcDbEntity
  8
引手
  6
Continuous
 62
    92
370
    13
100
AcDbLine
 10
-2624.500269606305
 20
2438.500148463893
 30
0.0
 11
-2663.500269606307
 21
2438.500148463893
 31
0.0
  0
ARC
  5
13D
330
1F
100
AcDbEntity
  8
引手
  6
Continuous
 62
    92
370
    13
100
AcDbCircle
 10
-2624.500269606305
 20
2437.000148463892
 30
0.0
 40
1.5
100
AcDbArc
 50
0.0
 51
90.0
  0
ARC
  5
13E
330
1F
100
AcDbEntity
  8
引手
  6
Continuous
 62
     7
370
     9
100
AcDbCircle
 10
-2655.000269606307
 20
2421.000148463893
 30
0.0
 40
1.5
100
AcDbArc
 50
90.0
 51
180.0
  0
LINE
  5
13F
330
1F
100
AcDbEntity
  8
引手
  6
Continuous
 62
     7
370
     9
100
AcDbLine
 10
-2656.500269606307
 20
2346.000148463893
 30
0.0
 11
-2656.500269606307
 21
2421.000148463893
 31
0.0
  0
ARC
  5
140
330
1F
100
AcDbEntity
  8
引手
  6
Continuous
 62
     7
370
     9
100
AcDbCircle
 10
-2655.000269606307
 20
2346.000148463893
 30
0.0
 40
1.5
100
AcDbArc
 50
180.0
 51
270.0
  0
LINE
  5
141
330
1F
100
AcDbEntity
  8
引手
  6
Continuous
 62
     7
370
     9
100
AcDbLine
 10
-2633.000269606306
 20
2344.500148463893
 30
0.0
 11
-2655.000269606307
 21
2344.500148463893
 31
0.0
  0
ARC
  5
142
330
1F
100
AcDbEntity
  8
引手
  6
Continuous
 62
     7
370
     9
100
AcDbCircle
 10
-2633.000269606306
 20
2346.000148463893
 30
0.0
 40
1.5
100
AcDbArc
 50
270.0
 51
0.0
  0
LINE
  5
143
330
1F
100
AcDbEntity
  8
引手
  6
Continuous
 62
     7
370
     9
100
AcDbLine
 10
-2631.500269606306
 20
2421.000148463893
 30
0.0
 11
-2631.500269606306
 21
2346.000148463893
 31
0.0
  0
LINE
  5
144
330
1F
100
AcDbEntity
  8
引手
  6
Continuous
 62
     7
370
     9
100
AcDbLine
 10
-2633.000269606306
 20
2422.500148463894
 30
0.0
 11
-2655.000269606307
 21
2422.500148463894
 31
0.0
  0
ARC
  5
145
330
1F
100
AcDbEntity
  8
引手
  6
Continuous
 62
     7
370
     9
100
AcDbCircle
 10
-2633.000269606306
 20
2421.000148463893
 30
0.0
 40
1.5
100
AcDbArc
 50
0.0
 51
90.0
  0
ARC
  5
146
330
1F
100
AcDbEntity
  8
引手
  6
Continuous
 62
    92
370
    13
100
AcDbCircle
 10
2824.499228297057
 20
2437.000148463892
 30
0.0
 40
1.5
100
AcDbArc
 50
90.0
 51
180.0
  0
LINE
  5
147
330
1F
100
AcDbEntity
  8
引手
  6
Continuous
 62
    92
370
    13
100
AcDbLine
 10
2822.999228297057
 20
2330.000148463893
 30
0.0
 11
2822.999228297057
 21
2437.000148463892
 31
0.0
  0
ARC
  5
148
330
1F
100
AcDbEntity
  8
引手
  6
Continuous
 62
    92
370
    13
100
AcDbCircle
 10
2824.499228297057
 20
2330.000148463893
 30
0.0
 40
1.5
100
AcDbArc
 50
180.0
 51
270.0
  0
LINE
  5
149
330
1F
100
AcDbEntity
  8
引手
  6
Continuous
 62
    92
370
    13
100
AcDbLine
 10
2863.499228297056
 20
2328.500148463894
 30
0.0
 11
2824.499228297057
 21
2328.500148463894
 31
0.0
  0
ARC
  5
14A
330
1F
100
AcDbEntity
  8
引手
  6
Continuous
 62
    92
370
    13
100
AcDbCircle
 10
2863.499228297056
 20
2330.000148463893
 30
0.0
 40
1.5
100
AcDbArc
 50
270.0
 51
0.0
  0
LINE
  5
14B
330
1F
100
AcDbEntity
  8
引手
  6
Continuous
 62
    92
370
    13
100
AcDbLine
 10
2864.999228297056
 20
2437.000148463892
 30
0.0
 11
2864.999228297056
 21
2330.000148463893
 31
0.0
  0
LINE
  5
14C
330
1F
100
AcDbEntity
  8
引手
  6
Continuous
 62
    92
370
    13
100
AcDbLine
 10
2863.499228297056
 20
2438.500148463893
 30
0.0
 11
2824.499228297057
 21
2438.500148463893
 31
0.0
  0
ARC
  5
14D
330
1F
100
AcDbEntity
  8
引手
  6
Continuous
 62
    92
370
    13
100
AcDbCircle
 10
2863.499228297056
 20
2437.000148463892
 30
0.0
 40
1.5
100
AcDbArc
 50
0.0
 51
90.0
  0
ARC
  5
14E
330
1F
100
AcDbEntity
  8
引手
  6
Continuous
 62
     7
370
     9
100
AcDbCircle
 10
2832.999228297057
 20
2421.000148463893
 30
0.0
 40
1.5
100
AcDbArc
 50
90.0
 51
180.0
  0
LINE
  5
14F
330
1F
100
AcDbEntity
  8
引手
  6
Continuous
 62
     7
370
     9
100
AcDbLine
 10
2831.499228297056
 20
2346.000148463893
 30
0.0
 11
2831.499228297056
 21
2421.000148463893
 31
0.0
  0
ARC
  5
150
330
1F
100
AcDbEntity
  8
引手
  6
Continuous
 62
     7
370
     9
100
AcDbCircle
 10
2832.999228297057
 20
2346.000148463893
 30
0.0
 40
1.5
100
AcDbArc
 50
180.0
 51
270.0
  0
LINE
  5
151
330
1F
100
AcDbEntity
  8
引手
  6
Continuous
 62
     7
370
     9
100
AcDbLine
 10
2854.999228297057
 20
2344.500148463893
 30
0.0
 11
2832.999228297057
 21
2344.500148463893
 31
0.0
  0
ARC
  5
152
330
1F
100
AcDbEntity
  8
引手
  6
Continuous
 62
     7
370
     9
100
AcDbCircle
 10
2854.999228297057
 20
2346.000148463893
 30
0.0
 40
1.5
100
AcDbArc
 50
270.0
 51
0.0
  0
LINE
  5
153
330
1F
100
AcDbEntity
  8
引手
  6
Continuous
 62
     7
370
     9
100
AcDbLine
 10
2856.499228297057
 20
2421.000148463893
 30
0.0
 11
2856.499228297057
 21
2346.000148463893
 31
0.0
  0
LINE
  5
154
330
1F
100
AcDbEntity
  8
引手
  6
Continuous
 62
     7
370
     9
100
AcDbLine
 10
2854.999228297057
 20
2422.500148463894
 30
0.0
 11
2832.999228297057
 21
2422.500148463894
 31
0.0
  0
ARC
  5
155
330
1F
100
AcDbEntity
  8
引手
  6
Continuous
 62
     7
370
     9
100
AcDbCircle
 10
2854.999228297057
 20
2421.000148463893
 30
0.0
 40
1.5
100
AcDbArc
 50
0.0
 51
90.0
  0
ARC
  5
156
330
1F
100
AcDbEntity
  8
引手
  6
Continuous
 62
    92
370
    13
100
AcDbCircle
 10
2926.499228297053
 20
2437.000148463892
 30
0.0
 40
1.5
100
AcDbArc
 50
90.0
 51
180.0
  0
LINE
  5
157
330
1F
100
AcDbEntity
  8
引手
  6
Continuous
 62
    92
370
    13
100
AcDbLine
 10
2924.999228297055
 20
2330.000148463893
 30
0.0
 11
2924.999228297055
 21
2437.000148463892
 31
0.0
  0
ARC
  5
158
330
1F
100
AcDbEntity
  8
引手
  6
Continuous
 62
    92
370
    13
100
AcDbCircle
 10
2926.499228297053
 20
2330.000148463893
 30
0.0
 40
1.5
100
AcDbArc
 50
180.0
 51
270.0
  0
LINE
  5
159
330
1F
100
AcDbEntity
  8
引手
  6
Continuous
 62
    92
370
    13
100
AcDbLine
 10
2965.499228297055
 20
2328.500148463894
 30
0.0
 11
2926.499228297053
 21
2328.500148463894
 31
0.0
  0
ARC
  5
15A
330
1F
100
AcDbEntity
  8
引手
  6
Continuous
 62
    92
370
    13
100
AcDbCircle
 10
2965.499228297055
 20
2330.000148463893
 30
0.0
 40
1.5
100
AcDbArc
 50
270.0
 51
0.0
  0
LINE
  5
15B
330
1F
100
AcDbEntity
  8
引手
  6
Continuous
 62
    92
370
    13
100
AcDbLine
 10
2966.999228297054
 20
2437.000148463892
 30
0.0
 11
2966.999228297054
 21
2330.000148463893
 31
0.0
  0
LINE
  5
15C
330
1F
100
AcDbEntity
  8
引手
  6
Continuous
 62
    92
370
    13
100
AcDbLine
 10
2965.499228297055
 20
2438.500148463893
 30
0.0
 11
2926.499228297053
 21
2438.500148463893
 31
0.0
  0
ARC
  5
15D
330
1F
100
AcDbEntity
  8
引手
  6
Continuous
 62
    92
370
    13
100
AcDbCircle
 10
2965.499228297055
 20
2437.000148463892
 30
0.0
 40
1.5
100
AcDbArc
 50
0.0
 51
90.0
  0
ARC
  5
15E
330
1F
100
AcDbEntity
  8
引手
  6
Continuous
 62
     7
370
     9
100
AcDbCircle
 10
2934.999228297054
 20
2421.000148463893
 30
0.0
 40
1.5
100
AcDbArc
 50
90.0
 51
180.0
  0
LINE
  5
15F
330
1F
100
AcDbEntity
  8
引手
  6
Continuous
 62
     7
370
     9
100
AcDbLine
 10
2933.499228297053
 20
2346.000148463893
 30
0.0
 11
2933.499228297053
 21
2421.000148463893
 31
0.0
  0
ARC
  5
160
330
1F
100
AcDbEntity
  8
引手
  6
Continuous
 62
     7
370
     9
100
AcDbCircle
 10
2934.999228297054
 20
2346.000148463893
 30
0.0
 40
1.5
100
AcDbArc
 50
180.0
 51
270.0
  0
LINE
  5
161
330
1F
100
AcDbEntity
  8
引手
  6
Continuous
 62
     7
370
     9
100
AcDbLine
 10
2956.999228297054
 20
2344.500148463893
 30
0.0
 11
2934.999228297054
 21
2344.500148463893
 31
0.0
  0
ARC
  5
162
330
1F
100
AcDbEntity
  8
引手
  6
Continuous
 62
     7
370
     9
100
AcDbCircle
 10
2956.999228297054
 20
2346.000148463893
 30
0.0
 40
1.5
100
AcDbArc
 50
270.0
 51
0.0
  0
LINE
  5
163
330
1F
100
AcDbEntity
  8
引手
  6
Continuous
 62
     7
370
     9
100
AcDbLine
 10
2958.499228297055
 20
2421.000148463893
 30
0.0
 11
2958.499228297055
 21
2346.000148463893
 31
0.0
  0
LINE
  5
164
330
1F
100
AcDbEntity
  8
引手
  6
Continuous
 62
     7
370
     9
100
AcDbLine
 10
2956.999228297054
 20
2422.500148463894
 30
0.0
 11
2934.999228297054
 21
2422.500148463894
 31
0.0
  0
ARC
  5
165
330
1F
100
AcDbEntity
  8
引手
  6
Continuous
 62
     7
370
     9
100
AcDbCircle
 10
2956.999228297054
 20
2421.000148463893
 30
0.0
 40
1.5
100
AcDbArc
 50
0.0
 51
90.0
  0
ARC
  5
166
330
1F
100
AcDbEntity
  8
引手
  6
Continuous
 62
    92
370
    13
100
AcDbCircle
 10
-2765.500269606303
 20
-1682.250083820242
 30
0.0
 40
1.5
100
AcDbArc
 50
90.0
 51
180.0
  0
LINE
  5
167
330
1F
100
AcDbEntity
  8
引手
  6
Continuous
 62
    92
370
    13
100
AcDbLine
 10
-2767.000269606303
 20
-1789.250083820241
 30
0.0
 11
-2767.000269606303
 21
-1682.250083820242
 31
0.0
  0
ARC
  5
168
330
1F
100
AcDbEntity
  8
引手
  6
Continuous
 62
    92
370
    13
100
AcDbCircle
 10
-2765.500269606303
 20
-1789.250083820241
 30
0.0
 40
1.5
100
AcDbArc
 50
180.0
 51
270.0
  0
LINE
  5
169
330
1F
100
AcDbEntity
  8
引手
  6
Continuous
 62
    92
370
    13
100
AcDbLine
 10
-2726.500269606304
 20
-1790.75008382024
 30
0.0
 11
-2765.500269606303
 21
-1790.75008382024
 31
0.0
  0
ARC
  5
16A
330
1F
100
AcDbEntity
  8
引手
  6
Continuous
 62
    92
370
    13
100
AcDbCircle
 10
-2726.500269606304
 20
-1789.250083820241
 30
0.0
 40
1.5
100
AcDbArc
 50
270.0
 51
0.0
  0
LINE
  5
16B
330
1F
100
AcDbEntity
  8
引手
  6
Continuous
 62
    92
370
    13
100
AcDbLine
 10
-2725.000269606304
 20
-1682.250083820242
 30
0.0
 11
-2725.000269606304
 21
-1789.250083820241
 31
0.0
  0
LINE
  5
16C
330
1F
100
AcDbEntity
  8
引手
  6
Continuous
 62
    92
370
    13
100
AcDbLine
 10
-2726.500269606304
 20
-1680.750083820242
 30
0.0
 11
-2765.500269606303
 21
-1680.750083820242
 31
0.0
  0
ARC
  5
16D
330
1F
100
AcDbEntity
  8
引手
  6
Continuous
 62
    92
370
    13
100
AcDbCircle
 10
-2726.500269606304
 20
-1682.250083820242
 30
0.0
 40
1.5
100
AcDbArc
 50
0.0
 51
90.0
  0
ARC
  5
16E
330
1F
100
AcDbEntity
  8
引手
  6
Continuous
 62
     7
370
     9
100
AcDbCircle
 10
-2757.000269606303
 20
-1698.250083820241
 30
0.0
 40
1.5
100
AcDbArc
 50
90.0
 51
180.0
  0
LINE
  5
16F
330
1F
100
AcDbEntity
  8
引手
  6
Continuous
 62
     7
370
     9
100
AcDbLine
 10
-2758.500269606304
 20
-1773.250083820241
 30
0.0
 11
-2758.500269606304
 21
-1698.250083820241
 31
0.0
  0
ARC
  5
170
330
1F
100
AcDbEntity
  8
引手
  6
Continuous
 62
     7
370
     9
100
AcDbCircle
 10
-2757.000269606303
 20
-1773.250083820241
 30
0.0
 40
1.5
100
AcDbArc
 50
180.0
 51
270.0
  0
LINE
  5
171
330
1F
100
AcDbEntity
  8
引手
  6
Continuous
 62
     7
370
     9
100
AcDbLine
 10
-2735.000269606303
 20
-1774.750083820241
 30
0.0
 11
-2757.000269606303
 21
-1774.750083820241
 31
0.0
  0
ARC
  5
172
330
1F
100
AcDbEntity
  8
引手
  6
Continuous
 62
     7
370
     9
100
AcDbCircle
 10
-2735.000269606303
 20
-1773.250083820241
 30
0.0
 40
1.5
100
AcDbArc
 50
270.0
 51
0.0
  0
LINE
  5
173
330
1F
100
AcDbEntity
  8
引手
  6
Continuous
 62
     7
370
     9
100
AcDbLine
 10
-2733.500269606303
 20
-1698.250083820241
 30
0.0
 11
-2733.500269606303
 21
-1773.250083820241
 31
0.0
  0
LINE
  5
174
330
1F
100
AcDbEntity
  8
引手
  6
Continuous
 62
     7
370
     9
100
AcDbLine
 10
-2735.000269606303
 20
-1696.750083820241
 30
0.0
 11
-2757.000269606303
 21
-1696.750083820241
 31
0.0
  0
ARC
  5
175
330
1F
100
AcDbEntity
  8
引手
  6
Continuous
 62
     7
370
     9
100
AcDbCircle
 10
-2735.000269606303
 20
-1698.250083820241
 30
0.0
 40
1.5
100
AcDbArc
 50
0.0
 51
90.0
  0
ARC
  5
176
330
1F
100
AcDbEntity
  8
引手
  6
Continuous
 62
    92
370
    13
100
AcDbCircle
 10
-2663.500269606307
 20
-1682.250083820242
 30
0.0
 40
1.5
100
AcDbArc
 50
90.0
 51
180.0
  0
LINE
  5
177
330
1F
100
AcDbEntity
  8
引手
  6
Continuous
 62
    92
370
    13
100
AcDbLine
 10
-2665.000269606305
 20
-1789.250083820241
 30
0.0
 11
-2665.000269606305
 21
-1682.250083820242
 31
0.0
  0
ARC
  5
178
330
1F
100
AcDbEntity
  8
引手
  6
Continuous
 62
    92
370
    13
100
AcDbCircle
 10
-2663.500269606307
 20
-1789.250083820241
 30
0.0
 40
1.5
100
AcDbArc
 50
180.0
 51
270.0
  0
LINE
  5
179
330
1F
100
AcDbEntity
  8
引手
  6
Continuous
 62
    92
370
    13
100
AcDbLine
 10
-2624.500269606305
 20
-1790.75008382024
 30
0.0
 11
-2663.500269606307
 21
-1790.75008382024
 31
0.0
  0
ARC
  5
17A
330
1F
100
AcDbEntity
  8
引手
  6
Continuous
 62
    92
370
    13
100
AcDbCircle
 10
-2624.500269606305
 20
-1789.250083820241
 30
0.0
 40
1.5
100
AcDbArc
 50
270.0
 51
0.0
  0
LINE
  5
17B
330
1F
100
AcDbEntity
  8
引手
  6
Continuous
 62
    92
370
    13
100
AcDbLine
 10
-2623.000269606307
 20
-1682.250083820242
 30
0.0
 11
-2623.000269606307
 21
-1789.250083820241
 31
0.0
  0
LINE
  5
17C
330
1F
100
AcDbEntity
  8
引手
  6
Continuous
 62
    92
370
    13
100
AcDbLine
 10
-2624.500269606305
 20
-1680.750083820242
 30
0.0
 11
-2663.500269606307
 21
-1680.750083820242
 31
0.0
  0
ARC
  5
17D
330
1F
100
AcDbEntity
  8
引手
  6
Continuous
 62
    92
370
    13
100
AcDbCircle
 10
-2624.500269606305
 20
-1682.250083820242
 30
0.0
 40
1.5
100
AcDbArc
 50
0.0
 51
90.0
  0
ARC
  5
17E
330
1F
100
AcDbEntity
  8
引手
  6
Continuous
 62
     7
370
     9
100
AcDbCircle
 10
-2655.000269606307
 20
-1698.250083820241
 30
0.0
 40
1.5
100
AcDbArc
 50
90.0
 51
180.0
  0
LINE
  5
17F
330
1F
100
AcDbEntity
  8
引手
  6
Continuous
 62
     7
370
     9
100
AcDbLine
 10
-2656.500269606307
 20
-1773.250083820241
 30
0.0
 11
-2656.500269606307
 21
-1698.250083820241
 31
0.0
  0
ARC
  5
180
330
1F
100
AcDbEntity
  8
引手
  6
Continuous
 62
     7
370
     9
100
AcDbCircle
 10
-2655.000269606307
 20
-1773.250083820241
 30
0.0
 40
1.5
100
AcDbArc
 50
180.0
 51
270.0
  0
LINE
  5
181
330
1F
100
AcDbEntity
  8
引手
  6
Continuous
 62
     7
370
     9
100
AcDbLine
 10
-2633.000269606306
 20
-1774.750083820241
 30
0.0
 11
-2655.000269606307
 21
-1774.750083820241
 31
0.0
  0
ARC
  5
182
330
1F
100
AcDbEntity
  8
引手
  6
Continuous
 62
     7
370
     9
100
AcDbCircle
 10
-2633.000269606306
 20
-1773.250083820241
 30
0.0
 40
1.5
100
AcDbArc
 50
270.0
 51
0.0
  0
LINE
  5
183
330
1F
100
AcDbEntity
  8
引手
  6
Continuous
 62
     7
370
     9
100
AcDbLine
 10
-2631.500269606306
 20
-1698.250083820241
 30
0.0
 11
-2631.500269606306
 21
-1773.250083820241
 31
0.0
  0
LINE
  5
184
330
1F
100
AcDbEntity
  8
引手
  6
Continuous
 62
     7
370
     9
100
AcDbLine
 10
-2633.000269606306
 20
-1696.750083820241
 30
0.0
 11
-2655.000269606307
 21
-1696.750083820241
 31
0.0
  0
ARC
  5
185
330
1F
100
AcDbEntity
  8
引手
  6
Continuous
 62
     7
370
     9
100
AcDbCircle
 10
-2633.000269606306
 20
-1698.250083820241
 30
0.0
 40
1.5
100
AcDbArc
 50
0.0
 51
90.0
  0
ARC
  5
186
330
1F
100
AcDbEntity
  8
引手
  6
Continuous
 62
    92
370
    13
100
AcDbCircle
 10
2824.499228297055
 20
-1682.250083820242
 30
0.0
 40
1.5
100
AcDbArc
 50
90.0
 51
180.0
  0
LINE
  5
187
330
1F
100
AcDbEntity
  8
引手
  6
Continuous
 62
    92
370
    13
100
AcDbLine
 10
2822.999228297055
 20
-1789.250083820241
 30
0.0
 11
2822.999228297055
 21
-1682.250083820242
 31
0.0
  0
ARC
  5
188
330
1F
100
AcDbEntity
  8
引手
  6
Continuous
 62
    92
370
    13
100
AcDbCircle
 10
2824.499228297055
 20
-1789.250083820241
 30
0.0
 40
1.5
100
AcDbArc
 50
180.0
 51
270.0
  0
LINE
  5
189
330
1F
100
AcDbEntity
  8
引手
  6
Continuous
 62
    92
370
    13
100
AcDbLine
 10
2863.499228297054
 20
-1790.75008382024
 30
0.0
 11
2824.499228297055
 21
-1790.75008382024
 31
0.0
  0
ARC
  5
18A
330
1F
100
AcDbEntity
  8
引手
  6
Continuous
 62
    92
370
    13
100
AcDbCircle
 10
2863.499228297054
 20
-1789.250083820241
 30
0.0
 40
1.5
100
AcDbArc
 50
270.0
 51
0.0
  0
LINE
  5
18B
330
1F
100
AcDbEntity
  8
引手
  6
Continuous
 62
    92
370
    13
100
AcDbLine
 10
2864.999228297054
 20
-1682.250083820242
 30
0.0
 11
2864.999228297054
 21
-1789.250083820241
 31
0.0
  0
LINE
  5
18C
330
1F
100
AcDbEntity
  8
引手
  6
Continuous
 62
    92
370
    13
100
AcDbLine
 10
2863.499228297054
 20
-1680.750083820242
 30
0.0
 11
2824.499228297055
 21
-1680.750083820242
 31
0.0
  0
ARC
  5
18D
330
1F
100
AcDbEntity
  8
引手
  6
Continuous
 62
    92
370
    13
100
AcDbCircle
 10
2863.499228297054
 20
-1682.250083820242
 30
0.0
 40
1.5
100
AcDbArc
 50
0.0
 51
90.0
  0
ARC
  5
18E
330
1F
100
AcDbEntity
  8
引手
  6
Continuous
 62
     7
370
     9
100
AcDbCircle
 10
2832.999228297055
 20
-1698.250083820241
 30
0.0
 40
1.5
100
AcDbArc
 50
90.0
 51
180.0
  0
LINE
  5
18F
330
1F
100
AcDbEntity
  8
引手
  6
Continuous
 62
     7
370
     9
100
AcDbLine
 10
2831.499228297054
 20
-1773.250083820241
 30
0.0
 11
2831.499228297054
 21
-1698.250083820241
 31
0.0
  0
ARC
  5
190
330
1F
100
AcDbEntity
  8
引手
  6
Continuous
 62
     7
370
     9
100
AcDbCircle
 10
2832.999228297055
 20
-1773.250083820241
 30
0.0
 40
1.5
100
AcDbArc
 50
180.0
 51
270.0
  0
LINE
  5
191
330
1F
100
AcDbEntity
  8
引手
  6
Continuous
 62
     7
370
     9
100
AcDbLine
 10
2854.999228297055
 20
-1774.750083820241
 30
0.0
 11
2832.999228297055
 21
-1774.750083820241
 31
0.0
  0
ARC
  5
192
330
1F
100
AcDbEntity
  8
引手
  6
Continuous
 62
     7
370
     9
100
AcDbCircle
 10
2854.999228297055
 20
-1773.250083820241
 30
0.0
 40
1.5
100
AcDbArc
 50
270.0
 51
0.0
  0
LINE
  5
193
330
1F
100
AcDbEntity
  8
引手
  6
Continuous
 62
     7
370
     9
100
AcDbLine
 10
2856.499228297055
 20
-1698.250083820241
 30
0.0
 11
2856.499228297055
 21
-1773.250083820241
 31
0.0
  0
LINE
  5
194
330
1F
100
AcDbEntity
  8
引手
  6
Continuous
 62
     7
370
     9
100
AcDbLine
 10
2854.999228297055
 20
-1696.750083820241
 30
0.0
 11
2832.999228297055
 21
-1696.750083820241
 31
0.0
  0
ARC
  5
195
330
1F
100
AcDbEntity
  8
引手
  6
Continuous
 62
     7
370
     9
100
AcDbCircle
 10
2854.999228297055
 20
-1698.250083820241
 30
0.0
 40
1.5
100
AcDbArc
 50
0.0
 51
90.0
  0
ARC
  5
196
330
1F
100
AcDbEntity
  8
引手
  6
Continuous
 62
    92
370
    13
100
AcDbCircle
 10
2926.499228297052
 20
-1682.250083820242
 30
0.0
 40
1.5
100
AcDbArc
 50
90.0
 51
180.0
  0
LINE
  5
197
330
1F
100
AcDbEntity
  8
引手
  6
Continuous
 62
    92
370
    13
100
AcDbLine
 10
2924.999228297053
 20
-1789.250083820241
 30
0.0
 11
2924.999228297053
 21
-1682.250083820242
 31
0.0
  0
ARC
  5
198
330
1F
100
AcDbEntity
  8
引手
  6
Continuous
 62
    92
370
    13
100
AcDbCircle
 10
2926.499228297052
 20
-1789.250083820241
 30
0.0
 40
1.5
100
AcDbArc
 50
180.0
 51
270.0
  0
LINE
  5
199
330
1F
100
AcDbEntity
  8
引手
  6
Continuous
 62
    92
370
    13
100
AcDbLine
 10
2965.499228297053
 20
-1790.75008382024
 30
0.0
 11
2926.499228297052
 21
-1790.75008382024
 31
0.0
  0
ARC
  5
19A
330
1F
100
AcDbEntity
  8
引手
  6
Continuous
 62
    92
370
    13
100
AcDbCircle
 10
2965.499228297053
 20
-1789.250083820241
 30
0.0
 40
1.5
100
AcDbArc
 50
270.0
 51
0.0
  0
LINE
  5
19B
330
1F
100
AcDbEntity
  8
引手
  6
Continuous
 62
    92
370
    13
100
AcDbLine
 10
2966.999228297052
 20
-1682.250083820242
 30
0.0
 11
2966.999228297052
 21
-1789.250083820241
 31
0.0
  0
LINE
  5
19C
330
1F
100
AcDbEntity
  8
引手
  6
Continuous
 62
    92
370
    13
100
AcDbLine
 10
2965.499228297053
 20
-1680.750083820242
 30
0.0
 11
2926.499228297052
 21
-1680.750083820242
 31
0.0
  0
ARC
  5
19D
330
1F
100
AcDbEntity
  8
引手
  6
Continuous
 62
    92
370
    13
100
AcDbCircle
 10
2965.499228297053
 20
-1682.250083820242
 30
0.0
 40
1.5
100
AcDbArc
 50
0.0
 51
90.0
  0
ARC
  5
19E
330
1F
100
AcDbEntity
  8
引手
  6
Continuous
 62
     7
370
     9
100
AcDbCircle
 10
2934.999228297052
 20
-1698.250083820241
 30
0.0
 40
1.5
100
AcDbArc
 50
90.0
 51
180.0
  0
LINE
  5
19F
330
1F
100
AcDbEntity
  8
引手
  6
Continuous
 62
     7
370
     9
100
AcDbLine
 10
2933.499228297052
 20
-1773.250083820241
 30
0.0
 11
2933.499228297052
 21
-1698.250083820241
 31
0.0
  0
ARC
  5
1A0
330
1F
100
AcDbEntity
  8
引手
  6
Continuous
 62
     7
370
     9
100
AcDbCircle
 10
2934.999228297052
 20
-1773.250083820241
 30
0.0
 40
1.5
100
AcDbArc
 50
180.0
 51
270.0
  0
LINE
  5
1A1
330
1F
100
AcDbEntity
  8
引手
  6
Continuous
 62
     7
370
     9
100
AcDbLine
 10
2956.999228297052
 20
-1774.750083820241
 30
0.0
 11
2934.999228297052
 21
-1774.750083820241
 31
0.0
  0
ARC
  5
1A2
330
1F
100
AcDbEntity
  8
引手
  6
Continuous
 62
     7
370
     9
100
AcDbCircle
 10
2956.999228297052
 20
-1773.250083820241
 30
0.0
 40
1.5
100
AcDbArc
 50
270.0
 51
0.0
  0
LINE
  5
1A3
330
1F
100
AcDbEntity
  8
引手
  6
Continuous
 62
     7
370
     9
100
AcDbLine
 10
2958.499228297053
 20
-1698.250083820241
 30
0.0
 11
2958.499228297053
 21
-1773.250083820241
 31
0.0
  0
LINE
  5
1A4
330
1F
100
AcDbEntity
  8
引手
  6
Continuous
 62
     7
370
     9
100
AcDbLine
 10
2956.999228297052
 20
-1696.750083820241
 30
0.0
 11
2934.999228297052
 21
-1696.750083820241
 31
0.0
  0
ARC
  5
1A5
330
1F
100
AcDbEntity
  8
引手
  6
Continuous
 62
     7
370
     9
100
AcDbCircle
 10
2956.999228297052
 20
-1698.250083820241
 30
0.0
 40
1.5
100
AcDbArc
 50
0.0
 51
90.0
  0
LINE
  5
1A6
330
1F
100
AcDbEntity
  8
0-3_仕上げ
  6
Continuous
 62
     7
370
     9
100
AcDbLine
 10
-3374.000269606306
 20
1426.000148463891
 30
0.0
 11
-3374.000269606306
 21
1622.000148463892
 31
0.0
  0
LINE
  5
1A7
330
1F
100
AcDbEntity
  8
0-3_仕上げ
  6
Continuous
 62
    92
370
    13
100
AcDbLine
 10
-2827.000269606307
 20
1626.000148463892
 30
0.0
 11
-3373.000269606307
 21
1626.000148463892
 31
0.0
  0
LINE
  5
1A8
330
1F
100
AcDbEntity
  8
0-3_仕上げ
  6
Continuous
 62
     7
370
     9
100
AcDbLine
 10
-2826.000269606306
 20
1426.000148463891
 30
0.0
 11
-2826.000269606306
 21
1622.000148463892
 31
0.0
  0
LINE
  5
1A9
330
1F
100
AcDbEntity
  8
0-3_仕上げ
  6
Continuous
 62
     7
370
     9
100
AcDbLine
 10
-2824.500269606307
 20
1426.000148463891
 30
0.0
 11
-2824.500269606307
 21
1623.500148463892
 31
0.0
  0
LINE
  5
1AA
330
1F
100
AcDbEntity
  8
0-3_仕上げ
  6
Continuous
 62
     7
370
     9
100
AcDbLine
 10
-2826.000269606306
 20
1622.000148463892
 30
0.0
 11
-3374.000269606306
 21
1622.000148463892
 31
0.0
  0
LINE
  5
1AB
330
1F
100
AcDbEntity
  8
0-3_仕上げ
  6
Continuous
 62
     7
370
     9
100
AcDbLine
 10
-3375.500269606304
 20
1426.000148463891
 30
0.0
 11
-3375.500269606304
 21
1623.500148463892
 31
0.0
  0
LINE
  5
1AC
330
1F
100
AcDbEntity
  8
0-3_仕上げ
  6
Continuous
 62
     7
370
     9
100
AcDbLine
 10
-2827.000269606307
 20
1626.000148463892
 30
0.0
 11
-2824.500269606307
 21
1623.500148463892
 31
0.0
  0
LINE
  5
1AD
330
1F
100
AcDbEntity
  8
0-3_仕上げ
  6
Continuous
 62
     7
370
     9
100
AcDbLine
 10
-2826.000269606306
 20
1622.000148463892
 30
0.0
 11
-2824.500269606307
 21
1623.500148463892
 31
0.0
  0
LINE
  5
1AE
330
1F
100
AcDbEntity
  8
0-3_仕上げ
  6
Continuous
 62
     7
370
     9
100
AcDbLine
 10
-3374.000269606306
 20
1622.000148463892
 30
0.0
 11
-3375.500269606304
 21
1623.500148463892
 31
0.0
  0
LINE
  5
1AF
330
1F
100
AcDbEntity
  8
0-3_仕上げ
  6
Continuous
 62
     7
370
     9
100
AcDbLine
 10
-3375.500269606304
 20
1623.500148463892
 30
0.0
 11
-3373.000269606307
 21
1626.000148463892
 31
0.0
  0
LINE
  5
1B0
330
1F
100
AcDbEntity
  8
0-3_仕上げ
  6
Continuous
 62
    92
370
    13
100
AcDbLine
 10
-3373.000269606307
 20
2201.000148463892
 30
0.0
 11
-3373.000269606307
 21
1626.000148463892
 31
0.0
  0
LINE
  5
1B1
330
1F
100
AcDbEntity
  8
0-3_仕上げ
  6
Continuous
 62
    92
370
    13
100
AcDbLine
 10
-3373.000269606307
 20
2301.000148463892
 30
0.0
 11
-3373.000269606307
 21
3259.000148463892
 31
0.0
  0
LINE
  5
1B2
330
1F
100
AcDbEntity
  8
0-3_仕上げ
  6
Continuous
 62
    92
370
    13
100
AcDbLine
 10
-2827.000269606307
 20
3259.000148463892
 30
0.0
 11
-3373.000269606307
 21
3259.000148463892
 31
0.0
  0
LINE
  5
1B3
330
1F
100
AcDbEntity
  8
0-3_仕上げ
  6
Continuous
 62
    92
370
    13
100
AcDbLine
 10
-2827.000269606307
 20
2301.000148463892
 30
0.0
 11
-3373.000269606307
 21
2301.000148463892
 31
0.0
  0
LINE
  5
1B4
330
1F
100
AcDbEntity
  8
0-3_仕上げ
  6
Continuous
 62
    92
370
    13
100
AcDbLine
 10
-3373.000269606307
 20
2201.000148463892
 30
0.0
 11
-2827.000269606307
 21
2201.000148463892
 31
0.0
  0
LINE
  5
1B5
330
1F
100
AcDbEntity
  8
0-3_仕上げ
  6
Continuous
 62
    92
370
    13
100
AcDbLine
 10
-2827.000269606307
 20
2201.000148463892
 30
0.0
 11
-2827.000269606307
 21
1626.000148463892
 31
0.0
  0
LINE
  5
1B6
330
1F
100
AcDbEntity
  8
0-3_仕上げ
  6
Continuous
 62
    92
370
    13
100
AcDbLine
 10
-2827.000269606307
 20
2301.000148463892
 30
0.0
 11
-2827.000269606307
 21
3259.000148463892
 31
0.0
  0
LINE
  5
1B7
330
1F
100
AcDbEntity
  8
0-3_仕上げ
  6
Continuous
 62
     7
370
     9
100
AcDbLine
 10
-2826.000269606306
 20
2205.000148463892
 30
0.0
 11
-2826.000269606306
 21
2297.000148463892
 31
0.0
  0
LINE
  5
1B8
330
1F
100
AcDbEntity
  8
0-3_仕上げ
  6
Continuous
 62
     7
370
     9
100
AcDbLine
 10
-2826.000269606306
 20
3263.000148463892
 30
0.0
 11
-3374.000269606306
 21
3263.000148463892
 31
0.0
  0
LINE
  5
1B9
330
1F
100
AcDbEntity
  8
0-3_仕上げ
  6
Continuous
 62
     7
370
     9
100
AcDbLine
 10
-3375.500269606304
 20
2203.500148463892
 30
0.0
 11
-3375.500269606304
 21
2298.500148463892
 31
0.0
  0
LINE
  5
1BA
330
1F
100
AcDbEntity
  8
0-3_仕上げ
  6
Continuous
 62
     7
370
     9
100
AcDbLine
 10
-3374.000269606306
 20
2205.000148463892
 30
0.0
 11
-3374.000269606306
 21
2297.000148463892
 31
0.0
  0
LINE
  5
1BB
330
1F
100
AcDbEntity
  8
0-3_仕上げ
  6
Continuous
 62
     7
370
     9
100
AcDbLine
 10
-3374.000269606306
 20
2205.000148463892
 30
0.0
 11
-2826.000269606306
 21
2205.000148463892
 31
0.0
  0
LINE
  5
1BC
330
1F
100
AcDbEntity
  8
0-3_仕上げ
  6
Continuous
 62
     7
370
     9
100
AcDbLine
 10
-2824.500269606307
 20
2203.500148463892
 30
0.0
 11
-2824.500269606307
 21
2298.500148463892
 31
0.0
  0
LINE
  5
1BD
330
1F
100
AcDbEntity
  8
0-3_仕上げ
  6
Continuous
 62
     7
370
     9
100
AcDbLine
 10
-2826.000269606306
 20
2297.000148463892
 30
0.0
 11
-3374.000269606306
 21
2297.000148463892
 31
0.0
  0
LINE
  5
1BE
330
1F
100
AcDbEntity
  8
0-3_仕上げ
  6
Continuous
 62
     7
370
     9
100
AcDbLine
 10
-3374.000269606306
 20
2205.000148463892
 30
0.0
 11
-3375.500269606304
 21
2203.500148463892
 31
0.0
  0
LINE
  5
1BF
330
1F
100
AcDbEntity
  8
0-3_仕上げ
  6
Continuous
 62
     7
370
     9
100
AcDbLine
 10
-3374.000269606306
 20
3263.000148463892
 30
0.0
 11
-3375.500269606304
 21
3261.500148463891
 31
0.0
  0
LINE
  5
1C0
330
1F
100
AcDbEntity
  8
0-3_仕上げ
  6
Continuous
 62
     7
370
     9
100
AcDbLine
 10
-2826.000269606306
 20
3263.000148463892
 30
0.0
 11
-2824.500269606307
 21
3261.500148463891
 31
0.0
  0
LINE
  5
1C1
330
1F
100
AcDbEntity
  8
0-3_仕上げ
  6
Continuous
 62
     7
370
     9
100
AcDbLine
 10
-2824.500269606307
 20
3261.500148463891
 30
0.0
 11
-2827.000269606307
 21
3259.000148463892
 31
0.0
  0
LINE
  5
1C2
330
1F
100
AcDbEntity
  8
0-3_仕上げ
  6
Continuous
 62
     7
370
     9
100
AcDbLine
 10
-3373.000269606307
 20
3259.000148463892
 30
0.0
 11
-3375.500269606304
 21
3261.500148463891
 31
0.0
  0
LINE
  5
1C3
330
1F
100
AcDbEntity
  8
0-3_仕上げ
  6
Continuous
 62
     7
370
     9
100
AcDbLine
 10
-3374.000269606306
 20
2297.000148463892
 30
0.0
 11
-3375.500269606304
 21
2298.500148463892
 31
0.0
  0
LINE
  5
1C4
330
1F
100
AcDbEntity
  8
0-3_仕上げ
  6
Continuous
 62
     7
370
     9
100
AcDbLine
 10
-3375.500269606304
 20
2298.500148463892
 30
0.0
 11
-3373.000269606307
 21
2301.000148463892
 31
0.0
  0
LINE
  5
1C5
330
1F
100
AcDbEntity
  8
0-3_仕上げ
  6
Continuous
 62
     7
370
     9
100
AcDbLine
 10
-3373.000269606307
 20
2201.000148463892
 30
0.0
 11
-3375.500269606304
 21
2203.500148463892
 31
0.0
  0
LINE
  5
1C6
330
1F
100
AcDbEntity
  8
0-3_仕上げ
  6
Continuous
 62
     7
370
     9
100
AcDbLine
 10
-2826.000269606306
 20
2205.000148463892
 30
0.0
 11
-2824.500269606307
 21
2203.500148463892
 31
0.0
  0
LINE
  5
1C7
330
1F
100
AcDbEntity
  8
0-3_仕上げ
  6
Continuous
 62
     7
370
     9
100
AcDbLine
 10
-2824.500269606307
 20
2203.500148463892
 30
0.0
 11
-2827.000269606307
 21
2201.000148463892
 31
0.0
  0
LINE
  5
1C8
330
1F
100
AcDbEntity
  8
0-3_仕上げ
  6
Continuous
 62
     7
370
     9
100
AcDbLine
 10
-2827.000269606307
 20
2301.000148463892
 30
0.0
 11
-2824.500269606307
 21
2298.500148463892
 31
0.0
  0
LINE
  5
1C9
330
1F
100
AcDbEntity
  8
0-3_仕上げ
  6
Continuous
 62
     7
370
     9
100
AcDbLine
 10
-2826.000269606306
 20
2297.000148463892
 30
0.0
 11
-2824.500269606307
 21
2298.500148463892
 31
0.0
  0
ARC
  5
1CA
330
1F
100
AcDbEntity
  8
0-3_仕上げ
  6
JWW_CENTER1
 62
   120
370
     5
100
AcDbCircle
 10
-3090.122074239381
 20
3157.821368112183
 30
0.0
 40
60.0
100
AcDbArc
 50
183.6514672287091
 51
234.4577409694452
  0
LINE
  5
1CB
330
1F
100
AcDbEntity
  8
0-3_仕上げ
  6
JWW_CENTER1
 62
   120
370
     5
100
AcDbLine
 10
-3250.000269606306
 20
3154.000148463892
 30
0.0
 11
-3250.000269606306
 21
3259.000148463892
 31
0.0
  0
LINE
  5
1CC
330
1F
100
AcDbEntity
  8
0-3_仕上げ
  6
Continuous
 62
   120
370
     5
100
AcDbLine
 10
-3253.000269606307
 20
3154.191209446306
 30
0.0
 11
-3253.000269606307
 21
3259.000148463892
 31
0.0
  0
LINE
  5
1CD
330
1F
100
AcDbEntity
  8
0-3_仕上げ
  6
Continuous
 62
   120
370
     5
100
AcDbLine
 10
-3247.000269606305
 20
3154.000148463892
 30
0.0
 11
-3247.000269606305
 21
3259.000148463892
 31
0.0
  0
ARC
  5
1CE
330
1F
100
AcDbEntity
  8
0-3_仕上げ
  6
JWW_CENTER1
 62
   120
370
     5
100
AcDbCircle
 10
-3190.122074239382
 20
3157.821368112183
 30
0.0
 40
60.0
100
AcDbArc
 50
183.6514672287091
 51
234.4577409694452
  0
ARC
  5
1CF
330
1F
100
AcDbEntity
  8
0-3_仕上げ
  6
Continuous
 62
   120
370
     5
100
AcDbCircle
 10
-3190.122074239382
 20
3157.821368112183
 30
0.0
 40
57.0
100
AcDbArc
 50
183.6514672287091
 51
233.502329744074
  0
ARC
  5
1D0
330
1F
100
AcDbEntity
  8
0-3_仕上げ
  6
JWW_CENTER1
 62
   120
370
     5
100
AcDbCircle
 10
-3190.122074239382
 20
3060.178928815601
 30
0.0
 40
60.0
100
AcDbArc
 50
125.5422590305548
 51
176.3485327712908
  0
ARC
  5
1D1
330
1F
100
AcDbEntity
  8
0-3_仕上げ
  6
Continuous
 62
   120
370
     5
100
AcDbCircle
 10
-3190.122074239382
 20
3060.178928815601
 30
0.0
 40
63.0
100
AcDbArc
 50
129.200407421848
 51
161.8874291519458
  0
ARC
  5
1D2
330
1F
100
AcDbEntity
  8
0-3_仕上げ
  6
Continuous
 62
   120
370
     5
100
AcDbCircle
 10
-3190.122074239382
 20
3157.821368112183
 30
0.0
 40
63.0
100
AcDbArc
 50
198.1125708480542
 51
230.799592578152
  0
ARC
  5
1D3
330
1F
100
AcDbEntity
  8
0-3_仕上げ
  6
Continuous
 62
   120
370
     5
100
AcDbCircle
 10
-3309.87846497323
 20
3157.821368112183
 30
0.0
 40
63.0
100
AcDbArc
 50
309.200407421848
 51
341.8874291519458
  0
ARC
  5
1D4
330
1F
100
AcDbEntity
  8
0-3_仕上げ
  6
Continuous
 62
   120
370
     5
100
AcDbCircle
 10
-3309.87846497323
 20
3060.178928815601
 30
0.0
 40
63.0
100
AcDbArc
 50
18.11257084805418
 51
50.79959257815202
  0
ARC
  5
1D5
330
1F
100
AcDbEntity
  8
0-3_仕上げ
  6
Continuous
 62
   120
370
     5
100
AcDbCircle
 10
-3190.122074239382
 20
3060.178928815601
 30
0.0
 40
57.0
100
AcDbArc
 50
126.497670255926
 51
176.2536402876275
  0
ARC
  5
1D6
330
1F
100
AcDbEntity
  8
0-3_仕上げ
  6
JWW_CENTER1
 62
   120
370
     5
100
AcDbCircle
 10
-3090.122074239381
 20
3060.178928815601
 30
0.0
 40
60.0
100
AcDbArc
 50
125.5422590305548
 51
176.3485327712908
  0
ARC
  5
1D7
330
1F
100
AcDbEntity
  8
0-3_仕上げ
  6
Continuous
 62
   120
370
     5
100
AcDbCircle
 10
-3090.122074239381
 20
3060.178928815601
 30
0.0
 40
63.0
100
AcDbArc
 50
129.200407421848
 51
161.8874291519458
  0
ARC
  5
1D8
330
1F
100
AcDbEntity
  8
0-3_仕上げ
  6
Continuous
 62
   120
370
     5
100
AcDbCircle
 10
-3090.122074239381
 20
3157.821368112183
 30
0.0
 40
63.0
100
AcDbArc
 50
198.1125708480542
 51
230.799592578152
  0
ARC
  5
1D9
330
1F
100
AcDbEntity
  8
0-3_仕上げ
  6
Continuous
 62
   120
370
     5
100
AcDbCircle
 10
-3209.87846497323
 20
3157.821368112183
 30
0.0
 40
63.0
100
AcDbArc
 50
309.200407421848
 51
341.8874291519458
  0
ARC
  5
1DA
330
1F
100
AcDbEntity
  8
0-3_仕上げ
  6
Continuous
 62
   120
370
     5
100
AcDbCircle
 10
-3209.87846497323
 20
3060.178928815601
 30
0.0
 40
63.0
100
AcDbArc
 50
18.11257084805418
 51
50.79959257815202
  0
LINE
  5
1DB
330
1F
100
AcDbEntity
  8
0-3_仕上げ
  6
Continuous
 62
   120
370
     5
100
AcDbLine
 10
-3224.025109943328
 20
3112.000148463891
 30
0.0
 11
-3175.975429269282
 21
3112.000148463891
 31
0.0
  0
LINE
  5
1DC
330
1F
100
AcDbEntity
  8
0-3_仕上げ
  6
Continuous
 62
   120
370
     5
100
AcDbLine
 10
-3224.025109943328
 20
3106.000148463892
 30
0.0
 11
-3175.975429269282
 21
3106.000148463892
 31
0.0
  0
LINE
  5
1DD
330
1F
100
AcDbEntity
  8
0-3_仕上げ
  6
JWW_CENTER1
 62
   120
370
     5
100
AcDbLine
 10
-3225.000269606305
 20
3109.000148463892
 30
0.0
 11
-3175.000269606306
 21
3109.000148463892
 31
0.0
  0
ARC
  5
1DE
330
1F
100
AcDbEntity
  8
0-3_仕上げ
  6
Continuous
 62
   120
370
     5
100
AcDbCircle
 10
-3209.87846497323
 20
3157.821368112183
 30
0.0
 40
57.0
100
AcDbArc
 50
306.497670255926
 51
356.2536402876231
  0
LINE
  5
1DF
330
1F
100
AcDbEntity
  8
0-3_仕上げ
  6
Continuous
 62
   120
370
     5
100
AcDbLine
 10
-3153.000269606305
 20
3154.097003494957
 30
0.0
 11
-3153.000269606305
 21
3259.000148463892
 31
0.0
  0
LINE
  5
1E0
330
1F
100
AcDbEntity
  8
0-3_仕上げ
  6
JWW_CENTER1
 62
   120
370
     5
100
AcDbLine
 10
-3150.000269606305
 20
3154.000148463892
 30
0.0
 11
-3150.000269606305
 21
3259.000148463892
 31
0.0
  0
ARC
  5
1E1
330
1F
100
AcDbEntity
  8
0-3_仕上げ
  6
JWW_CENTER1
 62
   120
370
     5
100
AcDbCircle
 10
-3209.87846497323
 20
3157.821368112183
 30
0.0
 40
60.0
100
AcDbArc
 50
305.5422590305548
 51
356.3485327712913
  0
LINE
  5
1E2
330
1F
100
AcDbEntity
  8
0-3_仕上げ
  6
Continuous
 62
   120
370
     5
100
AcDbLine
 10
-3147.000269606304
 20
3154.09700349496
 30
0.0
 11
-3147.000269606304
 21
3259.000148463892
 31
0.0
  0
ARC
  5
1E3
330
1F
100
AcDbEntity
  8
0-3_仕上げ
  6
Continuous
 62
   120
370
     5
100
AcDbCircle
 10
-3209.87846497323
 20
3060.178928815601
 30
0.0
 40
57.0
100
AcDbArc
 50
3.746359712376933
 51
53.50232974407399
  0
ARC
  5
1E4
330
1F
100
AcDbEntity
  8
0-3_仕上げ
  6
JWW_CENTER1
 62
   120
370
     5
100
AcDbCircle
 10
-3209.87846497323
 20
3060.178928815601
 30
0.0
 40
60.0
100
AcDbArc
 50
3.651467228708674
 51
54.45774096944522
  0
ARC
  5
1E5
330
1F
100
AcDbEntity
  8
0-3_仕上げ
  6
JWW_CENTER1
 62
   120
370
     5
100
AcDbCircle
 10
-3190.122074239382
 20
2509.821368112183
 30
0.0
 40
60.0
100
AcDbArc
 50
183.6514672287091
 51
234.4577409694452
  0
ARC
  5
1E6
330
1F
100
AcDbEntity
  8
0-3_仕上げ
  6
JWW_CENTER1
 62
   120
370
     5
100
AcDbCircle
 10
-3190.122074239382
 20
2412.178928815601
 30
0.0
 40
60.0
100
AcDbArc
 50
125.5422590305548
 51
176.3485327712908
  0
ARC
  5
1E7
330
1F
100
AcDbEntity
  8
0-3_仕上げ
  6
Continuous
 62
   120
370
     5
100
AcDbCircle
 10
-3190.122074239382
 20
2412.178928815601
 30
0.0
 40
63.0
100
AcDbArc
 50
129.200407421848
 51
161.8874291519458
  0
ARC
  5
1E8
330
1F
100
AcDbEntity
  8
0-3_仕上げ
  6
Continuous
 62
   120
370
     5
100
AcDbCircle
 10
-3190.122074239382
 20
2509.821368112183
 30
0.0
 40
63.0
100
AcDbArc
 50
198.1125708480542
 51
230.799592578152
  0
ARC
  5
1E9
330
1F
100
AcDbEntity
  8
0-3_仕上げ
  6
Continuous
 62
   120
370
     5
100
AcDbCircle
 10
-3309.87846497323
 20
2509.821368112183
 30
0.0
 40
63.0
100
AcDbArc
 50
309.200407421848
 51
341.8874291519458
  0
ARC
  5
1EA
330
1F
100
AcDbEntity
  8
0-3_仕上げ
  6
Continuous
 62
   120
370
     5
100
AcDbCircle
 10
-3309.87846497323
 20
2412.178928815601
 30
0.0
 40
63.0
100
AcDbArc
 50
18.11257084805418
 51
50.79959257815202
  0
LINE
  5
1EB
330
1F
100
AcDbEntity
  8
0-3_仕上げ
  6
Continuous
 62
   120
370
     5
100
AcDbLine
 10
-3253.000269606307
 20
2301.000148463891
 30
0.0
 11
-3253.000269606307
 21
2415.903293432826
 31
0.0
  0
LINE
  5
1EC
330
1F
100
AcDbEntity
  8
0-3_仕上げ
  6
JWW_CENTER1
 62
   120
370
     5
100
AcDbLine
 10
-3250.000269606306
 20
2301.000148463891
 30
0.0
 11
-3250.000269606306
 21
2416.000148463891
 31
0.0
  0
LINE
  5
1ED
330
1F
100
AcDbEntity
  8
0-3_仕上げ
  6
Continuous
 62
   120
370
     5
100
AcDbLine
 10
-3247.000269606305
 20
2301.000148463891
 30
0.0
 11
-3247.000269606305
 21
2415.903293432821
 31
0.0
  0
ARC
  5
1EE
330
1F
100
AcDbEntity
  8
0-3_仕上げ
  6
Continuous
 62
   120
370
     5
100
AcDbCircle
 10
-3190.122074239382
 20
2412.178928815601
 30
0.0
 40
57.0
100
AcDbArc
 50
126.497670255926
 51
176.2536402876274
  0
LINE
  5
1EF
330
1F
100
AcDbEntity
  8
0-3_仕上げ
  6
Continuous
 62
   120
370
     5
100
AcDbLine
 10
-3253.000269606307
 20
2506.097003494958
 30
0.0
 11
-3253.000269606307
 21
3063.903293432826
 31
0.0
  0
LINE
  5
1F0
330
1F
100
AcDbEntity
  8
0-3_仕上げ
  6
JWW_CENTER1
 62
   120
370
     5
100
AcDbLine
 10
-3250.000269606306
 20
2506.000148463892
 30
0.0
 11
-3250.000269606306
 21
3064.000148463892
 31
0.0
  0
LINE
  5
1F1
330
1F
100
AcDbEntity
  8
0-3_仕上げ
  6
Continuous
 62
   120
370
     5
100
AcDbLine
 10
-3247.000269606305
 20
2506.097003494962
 30
0.0
 11
-3247.000269606305
 21
3063.903293432822
 31
0.0
  0
ARC
  5
1F2
330
1F
100
AcDbEntity
  8
0-3_仕上げ
  6
Continuous
 62
   120
370
     5
100
AcDbCircle
 10
-3190.122074239382
 20
2509.821368112183
 30
0.0
 40
57.0
100
AcDbArc
 50
183.7463597123725
 51
233.502329744074
  0
ARC
  5
1F3
330
1F
100
AcDbEntity
  8
0-3_仕上げ
  6
JWW_CENTER1
 62
   120
370
     5
100
AcDbCircle
 10
-3090.122074239381
 20
2509.821368112183
 30
0.0
 40
60.0
100
AcDbArc
 50
183.6514672287091
 51
234.4577409694452
  0
ARC
  5
1F4
330
1F
100
AcDbEntity
  8
0-3_仕上げ
  6
Continuous
 62
   120
370
     5
100
AcDbCircle
 10
-3090.122074239381
 20
2412.178928815601
 30
0.0
 40
63.0
100
AcDbArc
 50
129.200407421848
 51
161.8874291519458
  0
ARC
  5
1F5
330
1F
100
AcDbEntity
  8
0-3_仕上げ
  6
Continuous
 62
   120
370
     5
100
AcDbCircle
 10
-3090.122074239381
 20
2509.821368112183
 30
0.0
 40
63.0
100
AcDbArc
 50
198.1125708480542
 51
230.799592578152
  0
ARC
  5
1F6
330
1F
100
AcDbEntity
  8
0-3_仕上げ
  6
Continuous
 62
   120
370
     5
100
AcDbCircle
 10
-3209.87846497323
 20
2509.821368112183
 30
0.0
 40
63.0
100
AcDbArc
 50
309.200407421848
 51
341.8874291519458
  0
ARC
  5
1F7
330
1F
100
AcDbEntity
  8
0-3_仕上げ
  6
Continuous
 62
   120
370
     5
100
AcDbCircle
 10
-3209.87846497323
 20
2412.178928815601
 30
0.0
 40
63.0
100
AcDbArc
 50
18.11257084805418
 51
50.79959257815202
  0
LINE
  5
1F8
330
1F
100
AcDbEntity
  8
0-3_仕上げ
  6
Continuous
 62
   120
370
     5
100
AcDbLine
 10
-3224.025109943328
 20
2464.000148463892
 30
0.0
 11
-3175.975429269282
 21
2464.000148463892
 31
0.0
  0
LINE
  5
1F9
330
1F
100
AcDbEntity
  8
0-3_仕上げ
  6
Continuous
 62
   120
370
     5
100
AcDbLine
 10
-3224.025109943328
 20
2458.000148463892
 30
0.0
 11
-3175.975429269282
 21
2458.000148463892
 31
0.0
  0
LINE
  5
1FA
330
1F
100
AcDbEntity
  8
0-3_仕上げ
  6
JWW_CENTER1
 62
   120
370
     5
100
AcDbLine
 10
-3225.000269606305
 20
2461.000148463891
 30
0.0
 11
-3175.000269606306
 21
2461.000148463891
 31
0.0
  0
ARC
  5
1FB
330
1F
100
AcDbEntity
  8
0-3_仕上げ
  6
JWW_CENTER1
 62
   120
370
     5
100
AcDbCircle
 10
-3209.87846497323
 20
2412.178928815601
 30
0.0
 40
60.0
100
AcDbArc
 50
3.651467228708674
 51
54.45774096944522
  0
ARC
  5
1FC
330
1F
100
AcDbEntity
  8
0-3_仕上げ
  6
Continuous
 62
   120
370
     5
100
AcDbCircle
 10
-3209.87846497323
 20
2509.821368112183
 30
0.0
 40
57.0
100
AcDbArc
 50
306.497670255926
 51
356.2536402876231
  0
LINE
  5
1FD
330
1F
100
AcDbEntity
  8
0-3_仕上げ
  6
Continuous
 62
   120
370
     5
100
AcDbLine
 10
-3153.000269606305
 20
2506.097003494958
 30
0.0
 11
-3153.000269606305
 21
3063.903293432826
 31
0.0
  0
ARC
  5
1FE
330
1F
100
AcDbEntity
  8
0-3_仕上げ
  6
Continuous
 62
   120
370
     5
100
AcDbCircle
 10
-3209.87846497323
 20
2412.178928815601
 30
0.0
 40
57.0
100
AcDbArc
 50
3.74635971237695
 51
53.50232974407399
  0
LINE
  5
1FF
330
1F
100
AcDbEntity
  8
0-3_仕上げ
  6
Continuous
 62
   120
370
     5
100
AcDbLine
 10
-3153.000269606305
 20
2301.000148463891
 30
0.0
 11
-3153.000269606305
 21
2415.903293432826
 31
0.0
  0
LINE
  5
200
330
1F
100
AcDbEntity
  8
0-3_仕上げ
  6
Continuous
 62
   120
370
     5
100
AcDbLine
 10
-3124.025109943329
 20
2458.000148463892
 30
0.0
 11
-3075.975429269283
 21
2458.000148463892
 31
0.0
  0
LINE
  5
201
330
1F
100
AcDbEntity
  8
0-3_仕上げ
  6
JWW_CENTER1
 62
   120
370
     5
100
AcDbLine
 10
-3125.000269606305
 20
2461.000148463891
 30
0.0
 11
-3075.000269606305
 21
2461.000148463891
 31
0.0
  0
LINE
  5
202
330
1F
100
AcDbEntity
  8
0-3_仕上げ
  6
Continuous
 62
   120
370
     5
100
AcDbLine
 10
-3124.025109943329
 20
2464.000148463892
 30
0.0
 11
-3075.975429269283
 21
2464.000148463892
 31
0.0
  0
LINE
  5
203
330
1F
100
AcDbEntity
  8
0-3_仕上げ
  6
JWW_CENTER1
 62
   120
370
     5
100
AcDbLine
 10
-3150.000269606305
 20
2506.000148463892
 30
0.0
 11
-3150.000269606305
 21
3064.000148463891
 31
0.0
  0
ARC
  5
204
330
1F
100
AcDbEntity
  8
0-3_仕上げ
  6
JWW_CENTER1
 62
   120
370
     5
100
AcDbCircle
 10
-3209.87846497323
 20
2509.821368112183
 30
0.0
 40
60.0
100
AcDbArc
 50
305.5422590305548
 51
356.3485327712913
  0
LINE
  5
205
330
1F
100
AcDbEntity
  8
0-3_仕上げ
  6
Continuous
 62
   120
370
     5
100
AcDbLine
 10
-3147.000269606304
 20
2506.09700349496
 30
0.0
 11
-3147.000269606304
 21
3063.903293432823
 31
0.0
  0
ARC
  5
206
330
1F
100
AcDbEntity
  8
0-3_仕上げ
  6
Continuous
 62
   120
370
     5
100
AcDbCircle
 10
-3090.122074239381
 20
2509.821368112183
 30
0.0
 40
57.0
100
AcDbArc
 50
183.7463597123748
 51
233.502329744074
  0
ARC
  5
207
330
1F
100
AcDbEntity
  8
0-3_仕上げ
  6
Continuous
 62
   120
370
     5
100
AcDbCircle
 10
-3090.122074239381
 20
2412.178928815601
 30
0.0
 40
57.0
100
AcDbArc
 50
126.497670255926
 51
176.2536402876256
  0
LINE
  5
208
330
1F
100
AcDbEntity
  8
0-3_仕上げ
  6
Continuous
 62
   120
370
     5
100
AcDbLine
 10
-3147.000269606304
 20
2301.000148463891
 30
0.0
 11
-3147.000269606304
 21
2415.903293432823
 31
0.0
  0
ARC
  5
209
330
1F
100
AcDbEntity
  8
0-3_仕上げ
  6
JWW_CENTER1
 62
   120
370
     5
100
AcDbCircle
 10
-3090.122074239381
 20
2412.178928815601
 30
0.0
 40
60.0
100
AcDbArc
 50
125.5422590305548
 51
176.348532771291
  0
LINE
  5
20A
330
1F
100
AcDbEntity
  8
0-3_仕上げ
  6
JWW_CENTER1
 62
   120
370
     5
100
AcDbLine
 10
-3150.000269606305
 20
2301.000148463891
 30
0.0
 11
-3150.000269606305
 21
2416.000148463891
 31
0.0
  0
LINE
  5
20B
330
1F
100
AcDbEntity
  8
0-3_仕上げ
  6
Continuous
 62
   120
370
     5
100
AcDbLine
 10
-3124.025109943329
 20
3106.000148463892
 30
0.0
 11
-3075.975429269283
 21
3106.000148463892
 31
0.0
  0
LINE
  5
20C
330
1F
100
AcDbEntity
  8
0-3_仕上げ
  6
Continuous
 62
   120
370
     5
100
AcDbLine
 10
-3124.025109943329
 20
3112.000148463891
 30
0.0
 11
-3075.975429269283
 21
3112.000148463891
 31
0.0
  0
LINE
  5
20D
330
1F
100
AcDbEntity
  8
0-3_仕上げ
  6
JWW_CENTER1
 62
   120
370
     5
100
AcDbLine
 10
-3125.000269606305
 20
3109.000148463892
 30
0.0
 11
-3075.000269606305
 21
3109.000148463892
 31
0.0
  0
ARC
  5
20E
330
1F
100
AcDbEntity
  8
0-3_仕上げ
  6
Continuous
 62
   120
370
     5
100
AcDbCircle
 10
-3090.122074239381
 20
3060.178928815601
 30
0.0
 40
57.0
100
AcDbArc
 50
126.497670255926
 51
176.2536402876275
  0
ARC
  5
20F
330
1F
100
AcDbEntity
  8
0-3_仕上げ
  6
Continuous
 62
   120
370
     5
100
AcDbCircle
 10
-3090.122074239381
 20
3157.821368112183
 30
0.0
 40
57.0
100
AcDbArc
 50
183.6514672287091
 51
233.502329744074
  0
ARC
  5
210
330
1F
100
AcDbEntity
  8
0-3_仕上げ
  6
JWW_CENTER1
 62
   120
370
     5
100
AcDbCircle
 10
-2990.122074239382
 20
3157.821368112183
 30
0.0
 40
60.0
100
AcDbArc
 50
183.6514672287091
 51
234.4577409694452
  0
ARC
  5
211
330
1F
100
AcDbEntity
  8
0-3_仕上げ
  6
JWW_CENTER1
 62
   120
370
     5
100
AcDbCircle
 10
-2990.122074239382
 20
3060.178928815601
 30
0.0
 40
60.0
100
AcDbArc
 50
125.5422590305548
 51
176.3485327712908
  0
ARC
  5
212
330
1F
100
AcDbEntity
  8
0-3_仕上げ
  6
Continuous
 62
   120
370
     5
100
AcDbCircle
 10
-2990.122074239382
 20
3060.178928815601
 30
0.0
 40
63.0
100
AcDbArc
 50
129.200407421848
 51
161.8874291519458
  0
ARC
  5
213
330
1F
100
AcDbEntity
  8
0-3_仕上げ
  6
Continuous
 62
   120
370
     5
100
AcDbCircle
 10
-2990.122074239382
 20
3157.821368112183
 30
0.0
 40
63.0
100
AcDbArc
 50
198.1125708480542
 51
230.799592578152
  0
ARC
  5
214
330
1F
100
AcDbEntity
  8
0-3_仕上げ
  6
Continuous
 62
   120
370
     5
100
AcDbCircle
 10
-3109.878464973229
 20
3157.821368112183
 30
0.0
 40
63.0
100
AcDbArc
 50
309.200407421848
 51
341.8874291519458
  0
ARC
  5
215
330
1F
100
AcDbEntity
  8
0-3_仕上げ
  6
Continuous
 62
   120
370
     5
100
AcDbCircle
 10
-3109.878464973229
 20
3060.178928815601
 30
0.0
 40
63.0
100
AcDbArc
 50
18.11257084805418
 51
50.79959257815202
  0
ARC
  5
216
330
1F
100
AcDbEntity
  8
0-3_仕上げ
  6
Continuous
 62
   120
370
     5
100
AcDbCircle
 10
-3109.878464973229
 20
3157.821368112183
 30
0.0
 40
57.0
100
AcDbArc
 50
306.497670255926
 51
356.2536402876231
  0
LINE
  5
217
330
1F
100
AcDbEntity
  8
0-3_仕上げ
  6
Continuous
 62
   120
370
     5
100
AcDbLine
 10
-3053.000269606306
 20
3154.097003494957
 30
0.0
 11
-3053.000269606306
 21
3259.000148463892
 31
0.0
  0
LINE
  5
218
330
1F
100
AcDbEntity
  8
0-3_仕上げ
  6
JWW_CENTER1
 62
   120
370
     5
100
AcDbLine
 10
-3050.000269606305
 20
3154.000148463892
 30
0.0
 11
-3050.000269606305
 21
3259.000148463892
 31
0.0
  0
ARC
  5
219
330
1F
100
AcDbEntity
  8
0-3_仕上げ
  6
JWW_CENTER1
 62
   120
370
     5
100
AcDbCircle
 10
-3109.878464973229
 20
3157.821368112183
 30
0.0
 40
60.0
100
AcDbArc
 50
305.5422590305548
 51
356.3485327712913
  0
LINE
  5
21A
330
1F
100
AcDbEntity
  8
0-3_仕上げ
  6
Continuous
 62
   120
370
     5
100
AcDbLine
 10
-3047.000269606305
 20
3154.09700349496
 30
0.0
 11
-3047.000269606305
 21
3259.000148463892
 31
0.0
  0
ARC
  5
21B
330
1F
100
AcDbEntity
  8
0-3_仕上げ
  6
Continuous
 62
   120
370
     5
100
AcDbCircle
 10
-3109.878464973229
 20
3060.178928815601
 30
0.0
 40
57.0
100
AcDbArc
 50
3.746359712376933
 51
53.50232974407399
  0
ARC
  5
21C
330
1F
100
AcDbEntity
  8
0-3_仕上げ
  6
JWW_CENTER1
 62
   120
370
     5
100
AcDbCircle
 10
-3109.878464973229
 20
3060.178928815601
 30
0.0
 40
60.0
100
AcDbArc
 50
3.651467228708674
 51
54.45774096944522
  0
ARC
  5
21D
330
1F
100
AcDbEntity
  8
0-3_仕上げ
  6
JWW_CENTER1
 62
   120
370
     5
100
AcDbCircle
 10
-2990.122074239382
 20
2509.821368112183
 30
0.0
 40
60.0
100
AcDbArc
 50
183.6514672287091
 51
234.4577409694452
  0
ARC
  5
21E
330
1F
100
AcDbEntity
  8
0-3_仕上げ
  6
Continuous
 62
   120
370
     5
100
AcDbCircle
 10
-2990.122074239382
 20
2412.178928815601
 30
0.0
 40
63.0
100
AcDbArc
 50
129.200407421848
 51
161.8874291519458
  0
ARC
  5
21F
330
1F
100
AcDbEntity
  8
0-3_仕上げ
  6
Continuous
 62
   120
370
     5
100
AcDbCircle
 10
-2990.122074239382
 20
2509.821368112183
 30
0.0
 40
63.0
100
AcDbArc
 50
198.1125708480542
 51
230.799592578152
  0
ARC
  5
220
330
1F
100
AcDbEntity
  8
0-3_仕上げ
  6
Continuous
 62
   120
370
     5
100
AcDbCircle
 10
-3109.878464973229
 20
2509.821368112183
 30
0.0
 40
63.0
100
AcDbArc
 50
309.200407421848
 51
341.8874291519458
  0
ARC
  5
221
330
1F
100
AcDbEntity
  8
0-3_仕上げ
  6
Continuous
 62
   120
370
     5
100
AcDbCircle
 10
-3109.878464973229
 20
2412.178928815601
 30
0.0
 40
63.0
100
AcDbArc
 50
18.11257084805418
 51
50.79959257815202
  0
ARC
  5
222
330
1F
100
AcDbEntity
  8
0-3_仕上げ
  6
JWW_CENTER1
 62
   120
370
     5
100
AcDbCircle
 10
-3109.878464973229
 20
2412.178928815601
 30
0.0
 40
60.0
100
AcDbArc
 50
3.651467228708674
 51
54.45774096944522
  0
ARC
  5
223
330
1F
100
AcDbEntity
  8
0-3_仕上げ
  6
Continuous
 62
   120
370
     5
100
AcDbCircle
 10
-3109.878464973229
 20
2509.821368112183
 30
0.0
 40
57.0
100
AcDbArc
 50
306.497670255926
 51
356.2536402876231
  0
LINE
  5
224
330
1F
100
AcDbEntity
  8
0-3_仕上げ
  6
Continuous
 62
   120
370
     5
100
AcDbLine
 10
-3053.000269606306
 20
2506.097003494958
 30
0.0
 11
-3053.000269606306
 21
3063.903293432826
 31
0.0
  0
ARC
  5
225
330
1F
100
AcDbEntity
  8
0-3_仕上げ
  6
Continuous
 62
   120
370
     5
100
AcDbCircle
 10
-3109.878464973229
 20
2412.178928815601
 30
0.0
 40
57.0
100
AcDbArc
 50
3.74635971237695
 51
53.50232974407399
  0
LINE
  5
226
330
1F
100
AcDbEntity
  8
0-3_仕上げ
  6
Continuous
 62
   120
370
     5
100
AcDbLine
 10
-3053.000269606306
 20
2301.000148463891
 30
0.0
 11
-3053.000269606306
 21
2415.903293432826
 31
0.0
  0
LINE
  5
227
330
1F
100
AcDbEntity
  8
0-3_仕上げ
  6
Continuous
 62
   120
370
     5
100
AcDbLine
 10
-3024.025109943328
 20
2458.000148463892
 30
0.0
 11
-2975.975429269281
 21
2458.000148463892
 31
0.0
  0
LINE
  5
228
330
1F
100
AcDbEntity
  8
0-3_仕上げ
  6
JWW_CENTER1
 62
   120
370
     5
100
AcDbLine
 10
-3025.000269606306
 20
2461.000148463891
 30
0.0
 11
-2975.000269606305
 21
2461.000148463891
 31
0.0
  0
LINE
  5
229
330
1F
100
AcDbEntity
  8
0-3_仕上げ
  6
Continuous
 62
   120
370
     5
100
AcDbLine
 10
-3024.025109943328
 20
2464.000148463892
 30
0.0
 11
-2975.975429269281
 21
2464.000148463892
 31
0.0
  0
LINE
  5
22A
330
1F
100
AcDbEntity
  8
0-3_仕上げ
  6
JWW_CENTER1
 62
   120
370
     5
100
AcDbLine
 10
-3050.000269606305
 20
2506.000148463892
 30
0.0
 11
-3050.000269606305
 21
3064.000148463891
 31
0.0
  0
ARC
  5
22B
330
1F
100
AcDbEntity
  8
0-3_仕上げ
  6
JWW_CENTER1
 62
   120
370
     5
100
AcDbCircle
 10
-3109.878464973229
 20
2509.821368112183
 30
0.0
 40
60.0
100
AcDbArc
 50
305.5422590305548
 51
356.3485327712913
  0
LINE
  5
22C
330
1F
100
AcDbEntity
  8
0-3_仕上げ
  6
Continuous
 62
   120
370
     5
100
AcDbLine
 10
-3047.000269606305
 20
2506.09700349496
 30
0.0
 11
-3047.000269606305
 21
3063.903293432823
 31
0.0
  0
ARC
  5
22D
330
1F
100
AcDbEntity
  8
0-3_仕上げ
  6
Continuous
 62
   120
370
     5
100
AcDbCircle
 10
-2990.122074239382
 20
2509.821368112183
 30
0.0
 40
57.0
100
AcDbArc
 50
183.7463597123748
 51
233.502329744074
  0
ARC
  5
22E
330
1F
100
AcDbEntity
  8
0-3_仕上げ
  6
Continuous
 62
   120
370
     5
100
AcDbCircle
 10
-2990.122074239382
 20
2412.178928815601
 30
0.0
 40
57.0
100
AcDbArc
 50
126.497670255926
 51
176.2536402876256
  0
LINE
  5
22F
330
1F
100
AcDbEntity
  8
0-3_仕上げ
  6
Continuous
 62
   120
370
     5
100
AcDbLine
 10
-3047.000269606305
 20
2301.000148463891
 30
0.0
 11
-3047.000269606305
 21
2415.903293432823
 31
0.0
  0
ARC
  5
230
330
1F
100
AcDbEntity
  8
0-3_仕上げ
  6
JWW_CENTER1
 62
   120
370
     5
100
AcDbCircle
 10
-2990.122074239382
 20
2412.178928815601
 30
0.0
 40
60.0
100
AcDbArc
 50
125.5422590305548
 51
176.348532771291
  0
LINE
  5
231
330
1F
100
AcDbEntity
  8
0-3_仕上げ
  6
JWW_CENTER1
 62
   120
370
     5
100
AcDbLine
 10
-3050.000269606305
 20
2301.000148463891
 30
0.0
 11
-3050.000269606305
 21
2416.000148463891
 31
0.0
  0
LINE
  5
232
330
1F
100
AcDbEntity
  8
0-3_仕上げ
  6
Continuous
 62
   120
370
     5
100
AcDbLine
 10
-3024.025109943328
 20
3106.000148463892
 30
0.0
 11
-2975.975429269281
 21
3106.000148463892
 31
0.0
  0
LINE
  5
233
330
1F
100
AcDbEntity
  8
0-3_仕上げ
  6
Continuous
 62
   120
370
     5
100
AcDbLine
 10
-3024.025109943328
 20
3112.000148463891
 30
0.0
 11
-2975.975429269281
 21
3112.000148463891
 31
0.0
  0
LINE
  5
234
330
1F
100
AcDbEntity
  8
0-3_仕上げ
  6
JWW_CENTER1
 62
   120
370
     5
100
AcDbLine
 10
-3025.000269606306
 20
3109.000148463892
 30
0.0
 11
-2975.000269606305
 21
3109.000148463892
 31
0.0
  0
ARC
  5
235
330
1F
100
AcDbEntity
  8
0-3_仕上げ
  6
Continuous
 62
   120
370
     5
100
AcDbCircle
 10
-2990.122074239382
 20
3060.178928815601
 30
0.0
 40
57.0
100
AcDbArc
 50
126.497670255926
 51
176.2536402876275
  0
ARC
  5
236
330
1F
100
AcDbEntity
  8
0-3_仕上げ
  6
Continuous
 62
   120
370
     5
100
AcDbCircle
 10
-2990.122074239382
 20
3157.821368112183
 30
0.0
 40
57.0
100
AcDbArc
 50
183.6514672287091
 51
233.502329744074
  0
ARC
  5
237
330
1F
100
AcDbEntity
  8
0-3_仕上げ
  6
JWW_CENTER1
 62
   120
370
     5
100
AcDbCircle
 10
-2890.12207423938
 20
3157.821368112183
 30
0.0
 40
60.0
100
AcDbArc
 50
183.6514672287091
 51
234.4577409694452
  0
ARC
  5
238
330
1F
100
AcDbEntity
  8
0-3_仕上げ
  6
JWW_CENTER1
 62
   120
370
     5
100
AcDbCircle
 10
-2890.12207423938
 20
3060.178928815601
 30
0.0
 40
60.0
100
AcDbArc
 50
125.5422590305548
 51
176.3485327712908
  0
ARC
  5
239
330
1F
100
AcDbEntity
  8
0-3_仕上げ
  6
Continuous
 62
   120
370
     5
100
AcDbCircle
 10
-2890.12207423938
 20
3060.178928815601
 30
0.0
 40
63.0
100
AcDbArc
 50
129.200407421848
 51
161.8874291519458
  0
ARC
  5
23A
330
1F
100
AcDbEntity
  8
0-3_仕上げ
  6
Continuous
 62
   120
370
     5
100
AcDbCircle
 10
-2890.12207423938
 20
3157.821368112183
 30
0.0
 40
63.0
100
AcDbArc
 50
198.1125708480542
 51
230.799592578152
  0
ARC
  5
23B
330
1F
100
AcDbEntity
  8
0-3_仕上げ
  6
Continuous
 62
   120
370
     5
100
AcDbCircle
 10
-3009.87846497323
 20
3157.821368112183
 30
0.0
 40
63.0
100
AcDbArc
 50
309.200407421848
 51
341.8874291519458
  0
ARC
  5
23C
330
1F
100
AcDbEntity
  8
0-3_仕上げ
  6
Continuous
 62
   120
370
     5
100
AcDbCircle
 10
-3009.87846497323
 20
3060.178928815601
 30
0.0
 40
63.0
100
AcDbArc
 50
18.11257084805418
 51
50.79959257815202
  0
ARC
  5
23D
330
1F
100
AcDbEntity
  8
0-3_仕上げ
  6
Continuous
 62
   120
370
     5
100
AcDbCircle
 10
-3009.87846497323
 20
3157.821368112183
 30
0.0
 40
57.0
100
AcDbArc
 50
306.497670255926
 51
356.2536402876231
  0
LINE
  5
23E
330
1F
100
AcDbEntity
  8
0-3_仕上げ
  6
Continuous
 62
   120
370
     5
100
AcDbLine
 10
-2953.000269606307
 20
3154.097003494957
 30
0.0
 11
-2953.000269606307
 21
3259.000148463892
 31
0.0
  0
LINE
  5
23F
330
1F
100
AcDbEntity
  8
0-3_仕上げ
  6
JWW_CENTER1
 62
   120
370
     5
100
AcDbLine
 10
-2950.000269606306
 20
3154.000148463892
 30
0.0
 11
-2950.000269606306
 21
3259.000148463892
 31
0.0
  0
ARC
  5
240
330
1F
100
AcDbEntity
  8
0-3_仕上げ
  6
JWW_CENTER1
 62
   120
370
     5
100
AcDbCircle
 10
-3009.87846497323
 20
3157.821368112183
 30
0.0
 40
60.0
100
AcDbArc
 50
305.5422590305548
 51
356.3485327712913
  0
LINE
  5
241
330
1F
100
AcDbEntity
  8
0-3_仕上げ
  6
Continuous
 62
   120
370
     5
100
AcDbLine
 10
-2947.000269606305
 20
3154.09700349496
 30
0.0
 11
-2947.000269606305
 21
3259.000148463892
 31
0.0
  0
ARC
  5
242
330
1F
100
AcDbEntity
  8
0-3_仕上げ
  6
Continuous
 62
   120
370
     5
100
AcDbCircle
 10
-3009.87846497323
 20
3060.178928815601
 30
0.0
 40
57.0
100
AcDbArc
 50
3.746359712376933
 51
53.50232974407399
  0
ARC
  5
243
330
1F
100
AcDbEntity
  8
0-3_仕上げ
  6
JWW_CENTER1
 62
   120
370
     5
100
AcDbCircle
 10
-3009.87846497323
 20
3060.178928815601
 30
0.0
 40
60.0
100
AcDbArc
 50
3.651467228708674
 51
54.45774096944522
  0
ARC
  5
244
330
1F
100
AcDbEntity
  8
0-3_仕上げ
  6
JWW_CENTER1
 62
   120
370
     5
100
AcDbCircle
 10
-2890.12207423938
 20
2509.821368112183
 30
0.0
 40
60.0
100
AcDbArc
 50
183.6514672287091
 51
234.4577409694452
  0
ARC
  5
245
330
1F
100
AcDbEntity
  8
0-3_仕上げ
  6
Continuous
 62
   120
370
     5
100
AcDbCircle
 10
-2890.12207423938
 20
2412.178928815601
 30
0.0
 40
63.0
100
AcDbArc
 50
129.200407421848
 51
161.8874291519458
  0
ARC
  5
246
330
1F
100
AcDbEntity
  8
0-3_仕上げ
  6
Continuous
 62
   120
370
     5
100
AcDbCircle
 10
-2890.12207423938
 20
2509.821368112183
 30
0.0
 40
63.0
100
AcDbArc
 50
198.1125708480542
 51
230.799592578152
  0
ARC
  5
247
330
1F
100
AcDbEntity
  8
0-3_仕上げ
  6
Continuous
 62
   120
370
     5
100
AcDbCircle
 10
-3009.87846497323
 20
2509.821368112183
 30
0.0
 40
63.0
100
AcDbArc
 50
309.200407421848
 51
341.8874291519458
  0
ARC
  5
248
330
1F
100
AcDbEntity
  8
0-3_仕上げ
  6
Continuous
 62
   120
370
     5
100
AcDbCircle
 10
-3009.87846497323
 20
2412.178928815601
 30
0.0
 40
63.0
100
AcDbArc
 50
18.11257084805418
 51
50.79959257815202
  0
ARC
  5
249
330
1F
100
AcDbEntity
  8
0-3_仕上げ
  6
JWW_CENTER1
 62
   120
370
     5
100
AcDbCircle
 10
-3009.87846497323
 20
2412.178928815601
 30
0.0
 40
60.0
100
AcDbArc
 50
3.651467228708674
 51
54.45774096944522
  0
ARC
  5
24A
330
1F
100
AcDbEntity
  8
0-3_仕上げ
  6
Continuous
 62
   120
370
     5
100
AcDbCircle
 10
-3009.87846497323
 20
2509.821368112183
 30
0.0
 40
57.0
100
AcDbArc
 50
306.497670255926
 51
356.2536402876231
  0
LINE
  5
24B
330
1F
100
AcDbEntity
  8
0-3_仕上げ
  6
Continuous
 62
   120
370
     5
100
AcDbLine
 10
-2953.000269606307
 20
2506.097003494958
 30
0.0
 11
-2953.000269606307
 21
3063.903293432826
 31
0.0
  0
ARC
  5
24C
330
1F
100
AcDbEntity
  8
0-3_仕上げ
  6
Continuous
 62
   120
370
     5
100
AcDbCircle
 10
-3009.87846497323
 20
2412.178928815601
 30
0.0
 40
57.0
100
AcDbArc
 50
3.74635971237695
 51
53.50232974407399
  0
LINE
  5
24D
330
1F
100
AcDbEntity
  8
0-3_仕上げ
  6
Continuous
 62
   120
370
     5
100
AcDbLine
 10
-2953.000269606307
 20
2301.000148463891
 30
0.0
 11
-2953.000269606307
 21
2415.903293432826
 31
0.0
  0
LINE
  5
24E
330
1F
100
AcDbEntity
  8
0-3_仕上げ
  6
JWW_CENTER1
 62
   120
370
     5
100
AcDbLine
 10
-2950.000269606306
 20
2506.000148463892
 30
0.0
 11
-2950.000269606306
 21
3064.000148463891
 31
0.0
  0
ARC
  5
24F
330
1F
100
AcDbEntity
  8
0-3_仕上げ
  6
JWW_CENTER1
 62
   120
370
     5
100
AcDbCircle
 10
-3009.87846497323
 20
2509.821368112183
 30
0.0
 40
60.0
100
AcDbArc
 50
305.5422590305548
 51
356.3485327712913
  0
LINE
  5
250
330
1F
100
AcDbEntity
  8
0-3_仕上げ
  6
Continuous
 62
   120
370
     5
100
AcDbLine
 10
-2947.000269606305
 20
2506.09700349496
 30
0.0
 11
-2947.000269606305
 21
3063.903293432823
 31
0.0
  0
ARC
  5
251
330
1F
100
AcDbEntity
  8
0-3_仕上げ
  6
Continuous
 62
   120
370
     5
100
AcDbCircle
 10
-2890.12207423938
 20
2509.821368112183
 30
0.0
 40
57.0
100
AcDbArc
 50
183.7463597123748
 51
233.502329744074
  0
ARC
  5
252
330
1F
100
AcDbEntity
  8
0-3_仕上げ
  6
Continuous
 62
   120
370
     5
100
AcDbCircle
 10
-2890.12207423938
 20
2412.178928815601
 30
0.0
 40
57.0
100
AcDbArc
 50
126.497670255926
 51
176.2536402876256
  0
LINE
  5
253
330
1F
100
AcDbEntity
  8
0-3_仕上げ
  6
Continuous
 62
   120
370
     5
100
AcDbLine
 10
-2947.000269606305
 20
2301.000148463891
 30
0.0
 11
-2947.000269606305
 21
2415.903293432823
 31
0.0
  0
ARC
  5
254
330
1F
100
AcDbEntity
  8
0-3_仕上げ
  6
JWW_CENTER1
 62
   120
370
     5
100
AcDbCircle
 10
-2890.12207423938
 20
2412.178928815601
 30
0.0
 40
60.0
100
AcDbArc
 50
125.5422590305548
 51
176.348532771291
  0
LINE
  5
255
330
1F
100
AcDbEntity
  8
0-3_仕上げ
  6
JWW_CENTER1
 62
   120
370
     5
100
AcDbLine
 10
-2950.000269606306
 20
2301.000148463891
 30
0.0
 11
-2950.000269606306
 21
2416.000148463891
 31
0.0
  0
ARC
  5
256
330
1F
100
AcDbEntity
  8
0-3_仕上げ
  6
Continuous
 62
   120
370
     5
100
AcDbCircle
 10
-2890.12207423938
 20
3060.178928815601
 30
0.0
 40
57.0
100
AcDbArc
 50
126.497670255926
 51
176.2536402876275
  0
ARC
  5
257
330
1F
100
AcDbEntity
  8
0-3_仕上げ
  6
Continuous
 62
   120
370
     5
100
AcDbCircle
 10
-2890.12207423938
 20
3157.821368112183
 30
0.0
 40
57.0
100
AcDbArc
 50
183.6514672287091
 51
233.502329744074
  0
ARC
  5
258
330
1F
100
AcDbEntity
  8
0-3_仕上げ
  6
Continuous
 62
   120
370
     5
100
AcDbCircle
 10
-3309.87846497323
 20
3157.821368112183
 30
0.0
 40
57.0
100
AcDbArc
 50
306.497670255926
 51
356.3485327712909
  0
ARC
  5
259
330
1F
100
AcDbEntity
  8
0-3_仕上げ
  6
JWW_CENTER1
 62
   120
370
     5
100
AcDbCircle
 10
-3309.87846497323
 20
3157.821368112183
 30
0.0
 40
60.0
100
AcDbArc
 50
305.5422590305548
 51
356.3485327712909
  0
ARC
  5
25A
330
1F
100
AcDbEntity
  8
0-3_仕上げ
  6
JWW_CENTER1
 62
   120
370
     5
100
AcDbCircle
 10
-3309.87846497323
 20
3060.178928815601
 30
0.0
 40
60.0
100
AcDbArc
 50
3.651467228709083
 51
54.45774096944522
  0
ARC
  5
25B
330
1F
100
AcDbEntity
  8
0-3_仕上げ
  6
Continuous
 62
   120
370
     5
100
AcDbCircle
 10
-3309.87846497323
 20
3060.178928815601
 30
0.0
 40
57.0
100
AcDbArc
 50
3.746359712376933
 51
53.50232974407399
  0
ARC
  5
25C
330
1F
100
AcDbEntity
  8
0-3_仕上げ
  6
Continuous
 62
   120
370
     5
100
AcDbCircle
 10
-3309.87846497323
 20
2412.178928815601
 30
0.0
 40
57.0
100
AcDbArc
 50
3.74635971237695
 51
53.50232974407398
  0
ARC
  5
25D
330
1F
100
AcDbEntity
  8
0-3_仕上げ
  6
JWW_CENTER1
 62
   120
370
     5
100
AcDbCircle
 10
-3309.87846497323
 20
2412.178928815601
 30
0.0
 40
60.0
100
AcDbArc
 50
3.651467228708674
 51
54.45774096944522
  0
ARC
  5
25E
330
1F
100
AcDbEntity
  8
0-3_仕上げ
  6
Continuous
 62
   120
370
     5
100
AcDbCircle
 10
-3309.87846497323
 20
2509.821368112183
 30
0.0
 40
57.0
100
AcDbArc
 50
306.497670255926
 51
356.2536402876231
  0
ARC
  5
25F
330
1F
100
AcDbEntity
  8
0-3_仕上げ
  6
JWW_CENTER1
 62
   120
370
     5
100
AcDbCircle
 10
-3309.87846497323
 20
2509.821368112183
 30
0.0
 40
60.0
100
AcDbArc
 50
305.5422590305548
 51
356.3485327712913
  0
LINE
  5
260
330
1F
100
AcDbEntity
  8
0-3_仕上げ
  6
Continuous
 62
   120
370
     5
100
AcDbLine
 10
-3373.000269606307
 20
2464.000148463892
 30
0.0
 11
-3275.975429269283
 21
2464.000148463892
 31
0.0
  0
LINE
  5
261
330
1F
100
AcDbEntity
  8
0-3_仕上げ
  6
JWW_CENTER1
 62
   120
370
     5
100
AcDbLine
 10
-3373.000269606307
 20
2461.000148463891
 30
0.0
 11
-3275.000269606307
 21
2461.000148463891
 31
0.0
  0
LINE
  5
262
330
1F
100
AcDbEntity
  8
0-3_仕上げ
  6
Continuous
 62
   120
370
     5
100
AcDbLine
 10
-3373.000269606307
 20
2458.000148463892
 30
0.0
 11
-3275.975429269283
 21
2458.000148463892
 31
0.0
  0
LINE
  5
263
330
1F
100
AcDbEntity
  8
0-3_仕上げ
  6
Continuous
 62
   120
370
     5
100
AcDbLine
 10
-3373.000269606307
 20
3112.000148463891
 30
0.0
 11
-3275.975429269283
 21
3112.000148463891
 31
0.0
  0
LINE
  5
264
330
1F
100
AcDbEntity
  8
0-3_仕上げ
  6
JWW_CENTER1
 62
   120
370
     5
100
AcDbLine
 10
-3373.000269606307
 20
3109.000148463892
 30
0.0
 11
-3275.000269606307
 21
3109.000148463892
 31
0.0
  0
LINE
  5
265
330
1F
100
AcDbEntity
  8
0-3_仕上げ
  6
Continuous
 62
   120
370
     5
100
AcDbLine
 10
-3373.000269606307
 20
3106.000148463892
 30
0.0
 11
-3275.975429269283
 21
3106.000148463892
 31
0.0
  0
LINE
  5
266
330
1F
100
AcDbEntity
  8
0-3_仕上げ
  6
Continuous
 62
   120
370
     5
100
AcDbLine
 10
-2924.025109943328
 20
2458.000148463892
 30
0.0
 11
-2827.000269606305
 21
2458.000148463892
 31
0.0
  0
LINE
  5
267
330
1F
100
AcDbEntity
  8
0-3_仕上げ
  6
JWW_CENTER1
 62
   120
370
     5
100
AcDbLine
 10
-2925.000269606305
 20
2461.000148463891
 30
0.0
 11
-2827.000269606305
 21
2461.000148463891
 31
0.0
  0
LINE
  5
268
330
1F
100
AcDbEntity
  8
0-3_仕上げ
  6
Continuous
 62
   120
370
     5
100
AcDbLine
 10
-2924.025109943328
 20
2464.000148463892
 30
0.0
 11
-2827.000269606305
 21
2464.000148463892
 31
0.0
  0
LINE
  5
269
330
1F
100
AcDbEntity
  8
0-3_仕上げ
  6
Continuous
 62
   120
370
     5
100
AcDbLine
 10
-2924.025109943328
 20
3106.000148463892
 30
0.0
 11
-2827.000269606305
 21
3106.000148463892
 31
0.0
  0
LINE
  5
26A
330
1F
100
AcDbEntity
  8
0-3_仕上げ
  6
Continuous
 62
   120
370
     5
100
AcDbLine
 10
-2924.025109943328
 20
3112.000148463891
 30
0.0
 11
-2827.000269606305
 21
3112.000148463891
 31
0.0
  0
LINE
  5
26B
330
1F
100
AcDbEntity
  8
0-3_仕上げ
  6
JWW_CENTER1
 62
   120
370
     5
100
AcDbLine
 10
-2925.000269606305
 20
3109.000148463892
 30
0.0
 11
-2827.000269606305
 21
3109.000148463892
 31
0.0
  0
LINE
  5
26C
330
1F
100
AcDbEntity
  8
0-3_仕上げ
  6
Continuous
 62
     7
370
     9
100
AcDbLine
 10
-3377.000269606306
 20
1426.000148463891
 30
0.0
 11
-3377.000269606306
 21
3409.000148463892
 31
0.0
  0
LINE
  5
26D
330
1F
100
AcDbEntity
  8
0-3_仕上げ
  6
Continuous
 62
     7
370
     9
100
AcDbLine
 10
-2823.000269606305
 20
1426.000148463891
 30
0.0
 11
-2823.000269606305
 21
3409.000148463892
 31
0.0
  0
LINE
  5
26E
330
1F
100
AcDbEntity
  8
0-3_仕上げ
  6
Continuous
 62
     7
370
     9
100
AcDbLine
 10
-2826.000269606306
 20
3263.000148463892
 30
0.0
 11
-2826.000269606306
 21
3409.000148463892
 31
0.0
  0
LINE
  5
26F
330
1F
100
AcDbEntity
  8
0-3_仕上げ
  6
Continuous
 62
     7
370
     9
100
AcDbLine
 10
-2824.500269606307
 20
3261.500148463891
 30
0.0
 11
-2824.500269606307
 21
3409.000148463892
 31
0.0
  0
LINE
  5
270
330
1F
100
AcDbEntity
  8
0-3_仕上げ
  6
Continuous
 62
     7
370
     9
100
AcDbLine
 10
-3375.500269606304
 20
3261.500148463891
 30
0.0
 11
-3375.500269606304
 21
3409.000148463892
 31
0.0
  0
LINE
  5
271
330
1F
100
AcDbEntity
  8
0-3_仕上げ
  6
Continuous
 62
     7
370
     9
100
AcDbLine
 10
-3374.000269606306
 20
3263.000148463892
 30
0.0
 11
-3374.000269606306
 21
3409.000148463892
 31
0.0
  0
LINE
  5
272
330
1F
100
AcDbEntity
  8
0-3_仕上げ
  6
Continuous
 62
     7
370
     9
100
AcDbLine
 10
-2564.0002696063
 20
1426.000148463891
 30
0.0
 11
-2564.0002696063
 21
1622.000148463892
 31
0.0
  0
LINE
  5
273
330
1F
100
AcDbEntity
  8
0-3_仕上げ
  6
Continuous
 62
    92
370
    13
100
AcDbLine
 10
-2017.000269606302
 20
1626.000148463892
 30
0.0
 11
-2563.000269606301
 21
1626.000148463892
 31
0.0
  0
LINE
  5
274
330
1F
100
AcDbEntity
  8
0-3_仕上げ
  6
Continuous
 62
     7
370
     9
100
AcDbLine
 10
-2016.000269606302
 20
1426.000148463891
 30
0.0
 11
-2016.000269606302
 21
1622.000148463892
 31
0.0
  0
LINE
  5
275
330
1F
100
AcDbEntity
  8
0-3_仕上げ
  6
Continuous
 62
     7
370
     9
100
AcDbLine
 10
-2014.500269606302
 20
1426.000148463891
 30
0.0
 11
-2014.500269606302
 21
1623.500148463892
 31
0.0
  0
LINE
  5
276
330
1F
100
AcDbEntity
  8
0-3_仕上げ
  6
Continuous
 62
     7
370
     9
100
AcDbLine
 10
-2016.000269606302
 20
1622.000148463892
 30
0.0
 11
-2564.0002696063
 21
1622.000148463892
 31
0.0
  0
LINE
  5
277
330
1F
100
AcDbEntity
  8
0-3_仕上げ
  6
Continuous
 62
     7
370
     9
100
AcDbLine
 10
-2565.500269606301
 20
1426.000148463891
 30
0.0
 11
-2565.500269606301
 21
1623.500148463892
 31
0.0
  0
LINE
  5
278
330
1F
100
AcDbEntity
  8
0-3_仕上げ
  6
Continuous
 62
     7
370
     9
100
AcDbLine
 10
-2017.000269606302
 20
1626.000148463892
 30
0.0
 11
-2014.500269606302
 21
1623.500148463892
 31
0.0
  0
LINE
  5
279
330
1F
100
AcDbEntity
  8
0-3_仕上げ
  6
Continuous
 62
     7
370
     9
100
AcDbLine
 10
-2016.000269606302
 20
1622.000148463892
 30
0.0
 11
-2014.500269606302
 21
1623.500148463892
 31
0.0
  0
LINE
  5
27A
330
1F
100
AcDbEntity
  8
0-3_仕上げ
  6
Continuous
 62
     7
370
     9
100
AcDbLine
 10
-2564.0002696063
 20
1622.000148463892
 30
0.0
 11
-2565.500269606301
 21
1623.500148463892
 31
0.0
  0
LINE
  5
27B
330
1F
100
AcDbEntity
  8
0-3_仕上げ
  6
Continuous
 62
     7
370
     9
100
AcDbLine
 10
-2565.500269606301
 20
1623.500148463892
 30
0.0
 11
-2563.000269606301
 21
1626.000148463892
 31
0.0
  0
LINE
  5
27C
330
1F
100
AcDbEntity
  8
0-3_仕上げ
  6
Continuous
 62
    92
370
    13
100
AcDbLine
 10
-2563.000269606301
 20
2201.000148463892
 30
0.0
 11
-2563.000269606301
 21
1626.000148463892
 31
0.0
  0
LINE
  5
27D
330
1F
100
AcDbEntity
  8
0-3_仕上げ
  6
Continuous
 62
    92
370
    13
100
AcDbLine
 10
-2563.000269606301
 20
2301.000148463892
 30
0.0
 11
-2563.000269606301
 21
3259.000148463892
 31
0.0
  0
LINE
  5
27E
330
1F
100
AcDbEntity
  8
0-3_仕上げ
  6
Continuous
 62
    92
370
    13
100
AcDbLine
 10
-2017.000269606302
 20
3259.000148463892
 30
0.0
 11
-2563.000269606301
 21
3259.000148463892
 31
0.0
  0
LINE
  5
27F
330
1F
100
AcDbEntity
  8
0-3_仕上げ
  6
Continuous
 62
    92
370
    13
100
AcDbLine
 10
-2017.000269606302
 20
2301.000148463892
 30
0.0
 11
-2563.000269606301
 21
2301.000148463892
 31
0.0
  0
LINE
  5
280
330
1F
100
AcDbEntity
  8
0-3_仕上げ
  6
Continuous
 62
    92
370
    13
100
AcDbLine
 10
-2563.000269606301
 20
2201.000148463892
 30
0.0
 11
-2017.000269606302
 21
2201.000148463892
 31
0.0
  0
LINE
  5
281
330
1F
100
AcDbEntity
  8
0-3_仕上げ
  6
Continuous
 62
    92
370
    13
100
AcDbLine
 10
-2017.000269606302
 20
2201.000148463892
 30
0.0
 11
-2017.000269606302
 21
1626.000148463892
 31
0.0
  0
LINE
  5
282
330
1F
100
AcDbEntity
  8
0-3_仕上げ
  6
Continuous
 62
    92
370
    13
100
AcDbLine
 10
-2017.000269606302
 20
2301.000148463892
 30
0.0
 11
-2017.000269606302
 21
3259.000148463892
 31
0.0
  0
LINE
  5
283
330
1F
100
AcDbEntity
  8
0-3_仕上げ
  6
Continuous
 62
     7
370
     9
100
AcDbLine
 10
-2016.000269606302
 20
2205.000148463892
 30
0.0
 11
-2016.000269606302
 21
2297.000148463892
 31
0.0
  0
LINE
  5
284
330
1F
100
AcDbEntity
  8
0-3_仕上げ
  6
Continuous
 62
     7
370
     9
100
AcDbLine
 10
-2016.000269606302
 20
3263.000148463892
 30
0.0
 11
-2564.0002696063
 21
3263.000148463892
 31
0.0
  0
LINE
  5
285
330
1F
100
AcDbEntity
  8
0-3_仕上げ
  6
Continuous
 62
     7
370
     9
100
AcDbLine
 10
-2565.500269606301
 20
2203.500148463892
 30
0.0
 11
-2565.500269606301
 21
2298.500148463892
 31
0.0
  0
LINE
  5
286
330
1F
100
AcDbEntity
  8
0-3_仕上げ
  6
Continuous
 62
     7
370
     9
100
AcDbLine
 10
-2564.0002696063
 20
2205.000148463892
 30
0.0
 11
-2564.0002696063
 21
2297.000148463892
 31
0.0
  0
LINE
  5
287
330
1F
100
AcDbEntity
  8
0-3_仕上げ
  6
Continuous
 62
     7
370
     9
100
AcDbLine
 10
-2564.0002696063
 20
2205.000148463892
 30
0.0
 11
-2016.000269606302
 21
2205.000148463892
 31
0.0
  0
LINE
  5
288
330
1F
100
AcDbEntity
  8
0-3_仕上げ
  6
Continuous
 62
     7
370
     9
100
AcDbLine
 10
-2014.500269606302
 20
2203.500148463892
 30
0.0
 11
-2014.500269606302
 21
2298.500148463892
 31
0.0
  0
LINE
  5
289
330
1F
100
AcDbEntity
  8
0-3_仕上げ
  6
Continuous
 62
     7
370
     9
100
AcDbLine
 10
-2016.000269606302
 20
2297.000148463892
 30
0.0
 11
-2564.0002696063
 21
2297.000148463892
 31
0.0
  0
LINE
  5
28A
330
1F
100
AcDbEntity
  8
0-3_仕上げ
  6
Continuous
 62
     7
370
     9
100
AcDbLine
 10
-2564.0002696063
 20
2205.000148463892
 30
0.0
 11
-2565.500269606301
 21
2203.500148463892
 31
0.0
  0
LINE
  5
28B
330
1F
100
AcDbEntity
  8
0-3_仕上げ
  6
Continuous
 62
     7
370
     9
100
AcDbLine
 10
-2564.0002696063
 20
3263.000148463892
 30
0.0
 11
-2565.500269606301
 21
3261.500148463891
 31
0.0
  0
LINE
  5
28C
330
1F
100
AcDbEntity
  8
0-3_仕上げ
  6
Continuous
 62
     7
370
     9
100
AcDbLine
 10
-2016.000269606302
 20
3263.000148463892
 30
0.0
 11
-2014.500269606302
 21
3261.500148463891
 31
0.0
  0
LINE
  5
28D
330
1F
100
AcDbEntity
  8
0-3_仕上げ
  6
Continuous
 62
     7
370
     9
100
AcDbLine
 10
-2014.500269606302
 20
3261.500148463891
 30
0.0
 11
-2017.000269606302
 21
3259.000148463892
 31
0.0
  0
LINE
  5
28E
330
1F
100
AcDbEntity
  8
0-3_仕上げ
  6
Continuous
 62
     7
370
     9
100
AcDbLine
 10
-2563.000269606301
 20
3259.000148463892
 30
0.0
 11
-2565.500269606301
 21
3261.500148463891
 31
0.0
  0
LINE
  5
28F
330
1F
100
AcDbEntity
  8
0-3_仕上げ
  6
Continuous
 62
     7
370
     9
100
AcDbLine
 10
-2564.0002696063
 20
2297.000148463892
 30
0.0
 11
-2565.500269606301
 21
2298.500148463892
 31
0.0
  0
LINE
  5
290
330
1F
100
AcDbEntity
  8
0-3_仕上げ
  6
Continuous
 62
     7
370
     9
100
AcDbLine
 10
-2565.500269606301
 20
2298.500148463892
 30
0.0
 11
-2563.000269606301
 21
2301.000148463892
 31
0.0
  0
LINE
  5
291
330
1F
100
AcDbEntity
  8
0-3_仕上げ
  6
Continuous
 62
     7
370
     9
100
AcDbLine
 10
-2563.000269606301
 20
2201.000148463892
 30
0.0
 11
-2565.500269606301
 21
2203.500148463892
 31
0.0
  0
LINE
  5
292
330
1F
100
AcDbEntity
  8
0-3_仕上げ
  6
Continuous
 62
     7
370
     9
100
AcDbLine
 10
-2016.000269606302
 20
2205.000148463892
 30
0.0
 11
-2014.500269606302
 21
2203.500148463892
 31
0.0
  0
LINE
  5
293
330
1F
100
AcDbEntity
  8
0-3_仕上げ
  6
Continuous
 62
     7
370
     9
100
AcDbLine
 10
-2014.500269606302
 20
2203.500148463892
 30
0.0
 11
-2017.000269606302
 21
2201.000148463892
 31
0.0
  0
LINE
  5
294
330
1F
100
AcDbEntity
  8
0-3_仕上げ
  6
Continuous
 62
     7
370
     9
100
AcDbLine
 10
-2017.000269606302
 20
2301.000148463892
 30
0.0
 11
-2014.500269606302
 21
2298.500148463892
 31
0.0
  0
LINE
  5
295
330
1F
100
AcDbEntity
  8
0-3_仕上げ
  6
Continuous
 62
     7
370
     9
100
AcDbLine
 10
-2016.000269606302
 20
2297.000148463892
 30
0.0
 11
-2014.500269606302
 21
2298.500148463892
 31
0.0
  0
ARC
  5
296
330
1F
100
AcDbEntity
  8
0-3_仕上げ
  6
JWW_CENTER1
 62
   120
370
     5
100
AcDbCircle
 10
-2280.122074239376
 20
3157.821368112183
 30
0.0
 40
60.0
100
AcDbArc
 50
183.6514672287091
 51
234.4577409694452
  0
LINE
  5
297
330
1F
100
AcDbEntity
  8
0-3_仕上げ
  6
JWW_CENTER1
 62
   120
370
     5
100
AcDbLine
 10
-2440.000269606302
 20
3154.000148463892
 30
0.0
 11
-2440.000269606302
 21
3259.000148463892
 31
0.0
  0
LINE
  5
298
330
1F
100
AcDbEntity
  8
0-3_仕上げ
  6
Continuous
 62
   120
370
     5
100
AcDbLine
 10
-2443.000269606301
 20
3154.191209446306
 30
0.0
 11
-2443.000269606301
 21
3259.000148463892
 31
0.0
  0
LINE
  5
299
330
1F
100
AcDbEntity
  8
0-3_仕上げ
  6
Continuous
 62
   120
370
     5
100
AcDbLine
 10
-2437.000269606302
 20
3154.000148463892
 30
0.0
 11
-2437.000269606302
 21
3259.000148463892
 31
0.0
  0
ARC
  5
29A
330
1F
100
AcDbEntity
  8
0-3_仕上げ
  6
JWW_CENTER1
 62
   120
370
     5
100
AcDbCircle
 10
-2380.122074239377
 20
3157.821368112183
 30
0.0
 40
60.0
100
AcDbArc
 50
183.6514672287091
 51
234.4577409694452
  0
ARC
  5
29B
330
1F
100
AcDbEntity
  8
0-3_仕上げ
  6
Continuous
 62
   120
370
     5
100
AcDbCircle
 10
-2380.122074239377
 20
3157.821368112183
 30
0.0
 40
57.0
100
AcDbArc
 50
183.6514672287091
 51
233.502329744074
  0
ARC
  5
29C
330
1F
100
AcDbEntity
  8
0-3_仕上げ
  6
JWW_CENTER1
 62
   120
370
     5
100
AcDbCircle
 10
-2380.122074239377
 20
3060.178928815601
 30
0.0
 40
60.0
100
AcDbArc
 50
125.5422590305548
 51
176.3485327712908
  0
ARC
  5
29D
330
1F
100
AcDbEntity
  8
0-3_仕上げ
  6
Continuous
 62
   120
370
     5
100
AcDbCircle
 10
-2380.122074239377
 20
3060.178928815601
 30
0.0
 40
63.0
100
AcDbArc
 50
129.200407421848
 51
161.8874291519458
  0
ARC
  5
29E
330
1F
100
AcDbEntity
  8
0-3_仕上げ
  6
Continuous
 62
   120
370
     5
100
AcDbCircle
 10
-2380.122074239377
 20
3157.821368112183
 30
0.0
 40
63.0
100
AcDbArc
 50
198.1125708480542
 51
230.799592578152
  0
ARC
  5
29F
330
1F
100
AcDbEntity
  8
0-3_仕上げ
  6
Continuous
 62
   120
370
     5
100
AcDbCircle
 10
-2499.878464973224
 20
3157.821368112183
 30
0.0
 40
63.0
100
AcDbArc
 50
309.200407421848
 51
341.8874291519458
  0
ARC
  5
2A0
330
1F
100
AcDbEntity
  8
0-3_仕上げ
  6
Continuous
 62
   120
370
     5
100
AcDbCircle
 10
-2499.878464973224
 20
3060.178928815601
 30
0.0
 40
63.0
100
AcDbArc
 50
18.11257084805418
 51
50.79959257815202
  0
ARC
  5
2A1
330
1F
100
AcDbEntity
  8
0-3_仕上げ
  6
Continuous
 62
   120
370
     5
100
AcDbCircle
 10
-2380.122074239377
 20
3060.178928815601
 30
0.0
 40
57.0
100
AcDbArc
 50
126.497670255926
 51
176.2536402876275
  0
ARC
  5
2A2
330
1F
100
AcDbEntity
  8
0-3_仕上げ
  6
JWW_CENTER1
 62
   120
370
     5
100
AcDbCircle
 10
-2280.122074239376
 20
3060.178928815601
 30
0.0
 40
60.0
100
AcDbArc
 50
125.5422590305548
 51
176.3485327712908
  0
ARC
  5
2A3
330
1F
100
AcDbEntity
  8
0-3_仕上げ
  6
Continuous
 62
   120
370
     5
100
AcDbCircle
 10
-2280.122074239376
 20
3060.178928815601
 30
0.0
 40
63.0
100
AcDbArc
 50
129.200407421848
 51
161.8874291519458
  0
ARC
  5
2A4
330
1F
100
AcDbEntity
  8
0-3_仕上げ
  6
Continuous
 62
   120
370
     5
100
AcDbCircle
 10
-2280.122074239376
 20
3157.821368112183
 30
0.0
 40
63.0
100
AcDbArc
 50
198.1125708480542
 51
230.799592578152
  0
ARC
  5
2A5
330
1F
100
AcDbEntity
  8
0-3_仕上げ
  6
Continuous
 62
   120
370
     5
100
AcDbCircle
 10
-2399.878464973227
 20
3157.821368112183
 30
0.0
 40
63.0
100
AcDbArc
 50
309.200407421848
 51
341.8874291519458
  0
ARC
  5
2A6
330
1F
100
AcDbEntity
  8
0-3_仕上げ
  6
Continuous
 62
   120
370
     5
100
AcDbCircle
 10
-2399.878464973227
 20
3060.178928815601
 30
0.0
 40
63.0
100
AcDbArc
 50
18.11257084805418
 51
50.79959257815202
  0
LINE
  5
2A7
330
1F
100
AcDbEntity
  8
0-3_仕上げ
  6
Continuous
 62
   120
370
     5
100
AcDbLine
 10
-2414.025109943323
 20
3112.000148463891
 30
0.0
 11
-2365.975429269277
 21
3112.000148463891
 31
0.0
  0
LINE
  5
2A8
330
1F
100
AcDbEntity
  8
0-3_仕上げ
  6
Continuous
 62
   120
370
     5
100
AcDbLine
 10
-2414.025109943323
 20
3106.000148463892
 30
0.0
 11
-2365.975429269277
 21
3106.000148463892
 31
0.0
  0
LINE
  5
2A9
330
1F
100
AcDbEntity
  8
0-3_仕上げ
  6
JWW_CENTER1
 62
   120
370
     5
100
AcDbLine
 10
-2415.000269606301
 20
3109.000148463892
 30
0.0
 11
-2365.000269606302
 21
3109.000148463892
 31
0.0
  0
ARC
  5
2AA
330
1F
100
AcDbEntity
  8
0-3_仕上げ
  6
Continuous
 62
   120
370
     5
100
AcDbCircle
 10
-2399.878464973227
 20
3157.821368112183
 30
0.0
 40
57.0
100
AcDbArc
 50
306.497670255926
 51
356.2536402876231
  0
LINE
  5
2AB
330
1F
100
AcDbEntity
  8
0-3_仕上げ
  6
Continuous
 62
   120
370
     5
100
AcDbLine
 10
-2343.000269606302
 20
3154.097003494957
 30
0.0
 11
-2343.000269606302
 21
3259.000148463892
 31
0.0
  0
LINE
  5
2AC
330
1F
100
AcDbEntity
  8
0-3_仕上げ
  6
JWW_CENTER1
 62
   120
370
     5
100
AcDbLine
 10
-2340.000269606301
 20
3154.000148463892
 30
0.0
 11
-2340.000269606301
 21
3259.000148463892
 31
0.0
  0
ARC
  5
2AD
330
1F
100
AcDbEntity
  8
0-3_仕上げ
  6
JWW_CENTER1
 62
   120
370
     5
100
AcDbCircle
 10
-2399.878464973227
 20
3157.821368112183
 30
0.0
 40
60.0
100
AcDbArc
 50
305.5422590305548
 51
356.3485327712913
  0
LINE
  5
2AE
330
1F
100
AcDbEntity
  8
0-3_仕上げ
  6
Continuous
 62
   120
370
     5
100
AcDbLine
 10
-2337.000269606301
 20
3154.09700349496
 30
0.0
 11
-2337.000269606301
 21
3259.000148463892
 31
0.0
  0
ARC
  5
2AF
330
1F
100
AcDbEntity
  8
0-3_仕上げ
  6
Continuous
 62
   120
370
     5
100
AcDbCircle
 10
-2399.878464973227
 20
3060.178928815601
 30
0.0
 40
57.0
100
AcDbArc
 50
3.746359712376933
 51
53.50232974407399
  0
ARC
  5
2B0
330
1F
100
AcDbEntity
  8
0-3_仕上げ
  6
JWW_CENTER1
 62
   120
370
     5
100
AcDbCircle
 10
-2399.878464973227
 20
3060.178928815601
 30
0.0
 40
60.0
100
AcDbArc
 50
3.651467228708674
 51
54.45774096944522
  0
ARC
  5
2B1
330
1F
100
AcDbEntity
  8
0-3_仕上げ
  6
JWW_CENTER1
 62
   120
370
     5
100
AcDbCircle
 10
-2380.122074239377
 20
2509.821368112183
 30
0.0
 40
60.0
100
AcDbArc
 50
183.6514672287091
 51
234.4577409694452
  0
ARC
  5
2B2
330
1F
100
AcDbEntity
  8
0-3_仕上げ
  6
JWW_CENTER1
 62
   120
370
     5
100
AcDbCircle
 10
-2380.122074239377
 20
2412.178928815601
 30
0.0
 40
60.0
100
AcDbArc
 50
125.5422590305548
 51
176.3485327712908
  0
ARC
  5
2B3
330
1F
100
AcDbEntity
  8
0-3_仕上げ
  6
Continuous
 62
   120
370
     5
100
AcDbCircle
 10
-2380.122074239377
 20
2412.178928815601
 30
0.0
 40
63.0
100
AcDbArc
 50
129.200407421848
 51
161.8874291519458
  0
ARC
  5
2B4
330
1F
100
AcDbEntity
  8
0-3_仕上げ
  6
Continuous
 62
   120
370
     5
100
AcDbCircle
 10
-2380.122074239377
 20
2509.821368112183
 30
0.0
 40
63.0
100
AcDbArc
 50
198.1125708480542
 51
230.799592578152
  0
ARC
  5
2B5
330
1F
100
AcDbEntity
  8
0-3_仕上げ
  6
Continuous
 62
   120
370
     5
100
AcDbCircle
 10
-2499.878464973224
 20
2509.821368112183
 30
0.0
 40
63.0
100
AcDbArc
 50
309.200407421848
 51
341.8874291519458
  0
ARC
  5
2B6
330
1F
100
AcDbEntity
  8
0-3_仕上げ
  6
Continuous
 62
   120
370
     5
100
AcDbCircle
 10
-2499.878464973224
 20
2412.178928815601
 30
0.0
 40
63.0
100
AcDbArc
 50
18.11257084805418
 51
50.79959257815202
  0
LINE
  5
2B7
330
1F
100
AcDbEntity
  8
0-3_仕上げ
  6
Continuous
 62
   120
370
     5
100
AcDbLine
 10
-2443.000269606301
 20
2301.000148463891
 30
0.0
 11
-2443.000269606301
 21
2415.903293432826
 31
0.0
  0
LINE
  5
2B8
330
1F
100
AcDbEntity
  8
0-3_仕上げ
  6
JWW_CENTER1
 62
   120
370
     5
100
AcDbLine
 10
-2440.000269606302
 20
2301.000148463891
 30
0.0
 11
-2440.000269606302
 21
2416.000148463891
 31
0.0
  0
LINE
  5
2B9
330
1F
100
AcDbEntity
  8
0-3_仕上げ
  6
Continuous
 62
   120
370
     5
100
AcDbLine
 10
-2437.000269606302
 20
2301.000148463891
 30
0.0
 11
-2437.000269606302
 21
2415.903293432821
 31
0.0
  0
ARC
  5
2BA
330
1F
100
AcDbEntity
  8
0-3_仕上げ
  6
Continuous
 62
   120
370
     5
100
AcDbCircle
 10
-2380.122074239377
 20
2412.178928815601
 30
0.0
 40
57.0
100
AcDbArc
 50
126.497670255926
 51
176.2536402876274
  0
LINE
  5
2BB
330
1F
100
AcDbEntity
  8
0-3_仕上げ
  6
Continuous
 62
   120
370
     5
100
AcDbLine
 10
-2443.000269606301
 20
2506.097003494958
 30
0.0
 11
-2443.000269606301
 21
3063.903293432826
 31
0.0
  0
LINE
  5
2BC
330
1F
100
AcDbEntity
  8
0-3_仕上げ
  6
JWW_CENTER1
 62
   120
370
     5
100
AcDbLine
 10
-2440.000269606302
 20
2506.000148463892
 30
0.0
 11
-2440.000269606302
 21
3064.000148463892
 31
0.0
  0
LINE
  5
2BD
330
1F
100
AcDbEntity
  8
0-3_仕上げ
  6
Continuous
 62
   120
370
     5
100
AcDbLine
 10
-2437.000269606302
 20
2506.097003494962
 30
0.0
 11
-2437.000269606302
 21
3063.903293432822
 31
0.0
  0
ARC
  5
2BE
330
1F
100
AcDbEntity
  8
0-3_仕上げ
  6
Continuous
 62
   120
370
     5
100
AcDbCircle
 10
-2380.122074239377
 20
2509.821368112183
 30
0.0
 40
57.0
100
AcDbArc
 50
183.7463597123725
 51
233.502329744074
  0
ARC
  5
2BF
330
1F
100
AcDbEntity
  8
0-3_仕上げ
  6
JWW_CENTER1
 62
   120
370
     5
100
AcDbCircle
 10
-2280.122074239376
 20
2509.821368112183
 30
0.0
 40
60.0
100
AcDbArc
 50
183.6514672287091
 51
234.4577409694452
  0
ARC
  5
2C0
330
1F
100
AcDbEntity
  8
0-3_仕上げ
  6
Continuous
 62
   120
370
     5
100
AcDbCircle
 10
-2280.122074239376
 20
2412.178928815601
 30
0.0
 40
63.0
100
AcDbArc
 50
129.200407421848
 51
161.8874291519458
  0
ARC
  5
2C1
330
1F
100
AcDbEntity
  8
0-3_仕上げ
  6
Continuous
 62
   120
370
     5
100
AcDbCircle
 10
-2280.122074239376
 20
2509.821368112183
 30
0.0
 40
63.0
100
AcDbArc
 50
198.1125708480542
 51
230.799592578152
  0
ARC
  5
2C2
330
1F
100
AcDbEntity
  8
0-3_仕上げ
  6
Continuous
 62
   120
370
     5
100
AcDbCircle
 10
-2399.878464973227
 20
2509.821368112183
 30
0.0
 40
63.0
100
AcDbArc
 50
309.200407421848
 51
341.8874291519458
  0
ARC
  5
2C3
330
1F
100
AcDbEntity
  8
0-3_仕上げ
  6
Continuous
 62
   120
370
     5
100
AcDbCircle
 10
-2399.878464973227
 20
2412.178928815601
 30
0.0
 40
63.0
100
AcDbArc
 50
18.11257084805418
 51
50.79959257815202
  0
LINE
  5
2C4
330
1F
100
AcDbEntity
  8
0-3_仕上げ
  6
Continuous
 62
   120
370
     5
100
AcDbLine
 10
-2414.025109943323
 20
2464.000148463892
 30
0.0
 11
-2365.975429269277
 21
2464.000148463892
 31
0.0
  0
LINE
  5
2C5
330
1F
100
AcDbEntity
  8
0-3_仕上げ
  6
Continuous
 62
   120
370
     5
100
AcDbLine
 10
-2414.025109943323
 20
2458.000148463892
 30
0.0
 11
-2365.975429269277
 21
2458.000148463892
 31
0.0
  0
LINE
  5
2C6
330
1F
100
AcDbEntity
  8
0-3_仕上げ
  6
JWW_CENTER1
 62
   120
370
     5
100
AcDbLine
 10
-2415.000269606301
 20
2461.000148463891
 30
0.0
 11
-2365.000269606302
 21
2461.000148463891
 31
0.0
  0
ARC
  5
2C7
330
1F
100
AcDbEntity
  8
0-3_仕上げ
  6
JWW_CENTER1
 62
   120
370
     5
100
AcDbCircle
 10
-2399.878464973227
 20
2412.178928815601
 30
0.0
 40
60.0
100
AcDbArc
 50
3.651467228708674
 51
54.45774096944522
  0
ARC
  5
2C8
330
1F
100
AcDbEntity
  8
0-3_仕上げ
  6
Continuous
 62
   120
370
     5
100
AcDbCircle
 10
-2399.878464973227
 20
2509.821368112183
 30
0.0
 40
57.0
100
AcDbArc
 50
306.497670255926
 51
356.2536402876231
  0
LINE
  5
2C9
330
1F
100
AcDbEntity
  8
0-3_仕上げ
  6
Continuous
 62
   120
370
     5
100
AcDbLine
 10
-2343.000269606302
 20
2506.097003494958
 30
0.0
 11
-2343.000269606302
 21
3063.903293432826
 31
0.0
  0
ARC
  5
2CA
330
1F
100
AcDbEntity
  8
0-3_仕上げ
  6
Continuous
 62
   120
370
     5
100
AcDbCircle
 10
-2399.878464973227
 20
2412.178928815601
 30
0.0
 40
57.0
100
AcDbArc
 50
3.74635971237695
 51
53.50232974407399
  0
LINE
  5
2CB
330
1F
100
AcDbEntity
  8
0-3_仕上げ
  6
Continuous
 62
   120
370
     5
100
AcDbLine
 10
-2343.000269606302
 20
2301.000148463891
 30
0.0
 11
-2343.000269606302
 21
2415.903293432826
 31
0.0
  0
LINE
  5
2CC
330
1F
100
AcDbEntity
  8
0-3_仕上げ
  6
Continuous
 62
   120
370
     5
100
AcDbLine
 10
-2314.025109943325
 20
2458.000148463892
 30
0.0
 11
-2265.975429269279
 21
2458.000148463892
 31
0.0
  0
LINE
  5
2CD
330
1F
100
AcDbEntity
  8
0-3_仕上げ
  6
JWW_CENTER1
 62
   120
370
     5
100
AcDbLine
 10
-2315.0002696063
 20
2461.000148463891
 30
0.0
 11
-2265.000269606301
 21
2461.000148463891
 31
0.0
  0
LINE
  5
2CE
330
1F
100
AcDbEntity
  8
0-3_仕上げ
  6
Continuous
 62
   120
370
     5
100
AcDbLine
 10
-2314.025109943325
 20
2464.000148463892
 30
0.0
 11
-2265.975429269279
 21
2464.000148463892
 31
0.0
  0
LINE
  5
2CF
330
1F
100
AcDbEntity
  8
0-3_仕上げ
  6
JWW_CENTER1
 62
   120
370
     5
100
AcDbLine
 10
-2340.000269606301
 20
2506.000148463892
 30
0.0
 11
-2340.000269606301
 21
3064.000148463891
 31
0.0
  0
ARC
  5
2D0
330
1F
100
AcDbEntity
  8
0-3_仕上げ
  6
JWW_CENTER1
 62
   120
370
     5
100
AcDbCircle
 10
-2399.878464973227
 20
2509.821368112183
 30
0.0
 40
60.0
100
AcDbArc
 50
305.5422590305548
 51
356.3485327712913
  0
LINE
  5
2D1
330
1F
100
AcDbEntity
  8
0-3_仕上げ
  6
Continuous
 62
   120
370
     5
100
AcDbLine
 10
-2337.000269606301
 20
2506.09700349496
 30
0.0
 11
-2337.000269606301
 21
3063.903293432823
 31
0.0
  0
ARC
  5
2D2
330
1F
100
AcDbEntity
  8
0-3_仕上げ
  6
Continuous
 62
   120
370
     5
100
AcDbCircle
 10
-2280.122074239376
 20
2509.821368112183
 30
0.0
 40
57.0
100
AcDbArc
 50
183.7463597123748
 51
233.502329744074
  0
ARC
  5
2D3
330
1F
100
AcDbEntity
  8
0-3_仕上げ
  6
Continuous
 62
   120
370
     5
100
AcDbCircle
 10
-2280.122074239376
 20
2412.178928815601
 30
0.0
 40
57.0
100
AcDbArc
 50
126.497670255926
 51
176.2536402876256
  0
LINE
  5
2D4
330
1F
100
AcDbEntity
  8
0-3_仕上げ
  6
Continuous
 62
   120
370
     5
100
AcDbLine
 10
-2337.000269606301
 20
2301.000148463891
 30
0.0
 11
-2337.000269606301
 21
2415.903293432823
 31
0.0
  0
ARC
  5
2D5
330
1F
100
AcDbEntity
  8
0-3_仕上げ
  6
JWW_CENTER1
 62
   120
370
     5
100
AcDbCircle
 10
-2280.122074239376
 20
2412.178928815601
 30
0.0
 40
60.0
100
AcDbArc
 50
125.5422590305548
 51
176.348532771291
  0
LINE
  5
2D6
330
1F
100
AcDbEntity
  8
0-3_仕上げ
  6
JWW_CENTER1
 62
   120
370
     5
100
AcDbLine
 10
-2340.000269606301
 20
2301.000148463891
 30
0.0
 11
-2340.000269606301
 21
2416.000148463891
 31
0.0
  0
LINE
  5
2D7
330
1F
100
AcDbEntity
  8
0-3_仕上げ
  6
Continuous
 62
   120
370
     5
100
AcDbLine
 10
-2314.025109943325
 20
3106.000148463892
 30
0.0
 11
-2265.975429269279
 21
3106.000148463892
 31
0.0
  0
LINE
  5
2D8
330
1F
100
AcDbEntity
  8
0-3_仕上げ
  6
Continuous
 62
   120
370
     5
100
AcDbLine
 10
-2314.025109943325
 20
3112.000148463891
 30
0.0
 11
-2265.975429269279
 21
3112.000148463891
 31
0.0
  0
LINE
  5
2D9
330
1F
100
AcDbEntity
  8
0-3_仕上げ
  6
JWW_CENTER1
 62
   120
370
     5
100
AcDbLine
 10
-2315.0002696063
 20
3109.000148463892
 30
0.0
 11
-2265.000269606301
 21
3109.000148463892
 31
0.0
  0
ARC
  5
2DA
330
1F
100
AcDbEntity
  8
0-3_仕上げ
  6
Continuous
 62
   120
370
     5
100
AcDbCircle
 10
-2280.122074239376
 20
3060.178928815601
 30
0.0
 40
57.0
100
AcDbArc
 50
126.497670255926
 51
176.2536402876275
  0
ARC
  5
2DB
330
1F
100
AcDbEntity
  8
0-3_仕上げ
  6
Continuous
 62
   120
370
     5
100
AcDbCircle
 10
-2280.122074239376
 20
3157.821368112183
 30
0.0
 40
57.0
100
AcDbArc
 50
183.6514672287091
 51
233.502329744074
  0
ARC
  5
2DC
330
1F
100
AcDbEntity
  8
0-3_仕上げ
  6
JWW_CENTER1
 62
   120
370
     5
100
AcDbCircle
 10
-2180.122074239378
 20
3157.821368112183
 30
0.0
 40
60.0
100
AcDbArc
 50
183.6514672287091
 51
234.4577409694452
  0
ARC
  5
2DD
330
1F
100
AcDbEntity
  8
0-3_仕上げ
  6
JWW_CENTER1
 62
   120
370
     5
100
AcDbCircle
 10
-2180.122074239378
 20
3060.178928815601
 30
0.0
 40
60.0
100
AcDbArc
 50
125.5422590305548
 51
176.3485327712908
  0
ARC
  5
2DE
330
1F
100
AcDbEntity
  8
0-3_仕上げ
  6
Continuous
 62
   120
370
     5
100
AcDbCircle
 10
-2180.122074239378
 20
3060.178928815601
 30
0.0
 40
63.0
100
AcDbArc
 50
129.200407421848
 51
161.8874291519458
  0
ARC
  5
2DF
330
1F
100
AcDbEntity
  8
0-3_仕上げ
  6
Continuous
 62
   120
370
     5
100
AcDbCircle
 10
-2180.122074239378
 20
3157.821368112183
 30
0.0
 40
63.0
100
AcDbArc
 50
198.1125708480542
 51
230.799592578152
  0
ARC
  5
2E0
330
1F
100
AcDbEntity
  8
0-3_仕上げ
  6
Continuous
 62
   120
370
     5
100
AcDbCircle
 10
-2299.878464973226
 20
3157.821368112183
 30
0.0
 40
63.0
100
AcDbArc
 50
309.200407421848
 51
341.8874291519458
  0
ARC
  5
2E1
330
1F
100
AcDbEntity
  8
0-3_仕上げ
  6
Continuous
 62
   120
370
     5
100
AcDbCircle
 10
-2299.878464973226
 20
3060.178928815601
 30
0.0
 40
63.0
100
AcDbArc
 50
18.11257084805418
 51
50.79959257815202
  0
ARC
  5
2E2
330
1F
100
AcDbEntity
  8
0-3_仕上げ
  6
Continuous
 62
   120
370
     5
100
AcDbCircle
 10
-2299.878464973226
 20
3157.821368112183
 30
0.0
 40
57.0
100
AcDbArc
 50
306.497670255926
 51
356.2536402876231
  0
LINE
  5
2E3
330
1F
100
AcDbEntity
  8
0-3_仕上げ
  6
Continuous
 62
   120
370
     5
100
AcDbLine
 10
-2243.000269606301
 20
3154.097003494957
 30
0.0
 11
-2243.000269606301
 21
3259.000148463892
 31
0.0
  0
LINE
  5
2E4
330
1F
100
AcDbEntity
  8
0-3_仕上げ
  6
JWW_CENTER1
 62
   120
370
     5
100
AcDbLine
 10
-2240.0002696063
 20
3154.000148463892
 30
0.0
 11
-2240.0002696063
 21
3259.000148463892
 31
0.0
  0
ARC
  5
2E5
330
1F
100
AcDbEntity
  8
0-3_仕上げ
  6
JWW_CENTER1
 62
   120
370
     5
100
AcDbCircle
 10
-2299.878464973226
 20
3157.821368112183
 30
0.0
 40
60.0
100
AcDbArc
 50
305.5422590305548
 51
356.3485327712913
  0
LINE
  5
2E6
330
1F
100
AcDbEntity
  8
0-3_仕上げ
  6
Continuous
 62
   120
370
     5
100
AcDbLine
 10
-2237.0002696063
 20
3154.09700349496
 30
0.0
 11
-2237.0002696063
 21
3259.000148463892
 31
0.0
  0
ARC
  5
2E7
330
1F
100
AcDbEntity
  8
0-3_仕上げ
  6
Continuous
 62
   120
370
     5
100
AcDbCircle
 10
-2299.878464973226
 20
3060.178928815601
 30
0.0
 40
57.0
100
AcDbArc
 50
3.746359712376933
 51
53.50232974407399
  0
ARC
  5
2E8
330
1F
100
AcDbEntity
  8
0-3_仕上げ
  6
JWW_CENTER1
 62
   120
370
     5
100
AcDbCircle
 10
-2299.878464973226
 20
3060.178928815601
 30
0.0
 40
60.0
100
AcDbArc
 50
3.651467228708674
 51
54.45774096944522
  0
ARC
  5
2E9
330
1F
100
AcDbEntity
  8
0-3_仕上げ
  6
JWW_CENTER1
 62
   120
370
     5
100
AcDbCircle
 10
-2180.122074239378
 20
2509.821368112183
 30
0.0
 40
60.0
100
AcDbArc
 50
183.6514672287091
 51
234.4577409694452
  0
ARC
  5
2EA
330
1F
100
AcDbEntity
  8
0-3_仕上げ
  6
Continuous
 62
   120
370
     5
100
AcDbCircle
 10
-2180.122074239378
 20
2412.178928815601
 30
0.0
 40
63.0
100
AcDbArc
 50
129.200407421848
 51
161.8874291519458
  0
ARC
  5
2EB
330
1F
100
AcDbEntity
  8
0-3_仕上げ
  6
Continuous
 62
   120
370
     5
100
AcDbCircle
 10
-2180.122074239378
 20
2509.821368112183
 30
0.0
 40
63.0
100
AcDbArc
 50
198.1125708480542
 51
230.799592578152
  0
ARC
  5
2EC
330
1F
100
AcDbEntity
  8
0-3_仕上げ
  6
Continuous
 62
   120
370
     5
100
AcDbCircle
 10
-2299.878464973226
 20
2509.821368112183
 30
0.0
 40
63.0
100
AcDbArc
 50
309.200407421848
 51
341.8874291519458
  0
ARC
  5
2ED
330
1F
100
AcDbEntity
  8
0-3_仕上げ
  6
Continuous
 62
   120
370
     5
100
AcDbCircle
 10
-2299.878464973226
 20
2412.178928815601
 30
0.0
 40
63.0
100
AcDbArc
 50
18.11257084805418
 51
50.79959257815202
  0
ARC
  5
2EE
330
1F
100
AcDbEntity
  8
0-3_仕上げ
  6
JWW_CENTER1
 62
   120
370
     5
100
AcDbCircle
 10
-2299.878464973226
 20
2412.178928815601
 30
0.0
 40
60.0
100
AcDbArc
 50
3.651467228708674
 51
54.45774096944522
  0
ARC
  5
2EF
330
1F
100
AcDbEntity
  8
0-3_仕上げ
  6
Continuous
 62
   120
370
     5
100
AcDbCircle
 10
-2299.878464973226
 20
2509.821368112183
 30
0.0
 40
57.0
100
AcDbArc
 50
306.497670255926
 51
356.2536402876231
  0
LINE
  5
2F0
330
1F
100
AcDbEntity
  8
0-3_仕上げ
  6
Continuous
 62
   120
370
     5
100
AcDbLine
 10
-2243.000269606301
 20
2506.097003494958
 30
0.0
 11
-2243.000269606301
 21
3063.903293432826
 31
0.0
  0
ARC
  5
2F1
330
1F
100
AcDbEntity
  8
0-3_仕上げ
  6
Continuous
 62
   120
370
     5
100
AcDbCircle
 10
-2299.878464973226
 20
2412.178928815601
 30
0.0
 40
57.0
100
AcDbArc
 50
3.74635971237695
 51
53.50232974407399
  0
LINE
  5
2F2
330
1F
100
AcDbEntity
  8
0-3_仕上げ
  6
Continuous
 62
   120
370
     5
100
AcDbLine
 10
-2243.000269606301
 20
2301.000148463891
 30
0.0
 11
-2243.000269606301
 21
2415.903293432826
 31
0.0
  0
LINE
  5
2F3
330
1F
100
AcDbEntity
  8
0-3_仕上げ
  6
Continuous
 62
   120
370
     5
100
AcDbLine
 10
-2214.025109943324
 20
2458.000148463892
 30
0.0
 11
-2165.975429269278
 21
2458.000148463892
 31
0.0
  0
LINE
  5
2F4
330
1F
100
AcDbEntity
  8
0-3_仕上げ
  6
JWW_CENTER1
 62
   120
370
     5
100
AcDbLine
 10
-2215.000269606302
 20
2461.000148463891
 30
0.0
 11
-2165.0002696063
 21
2461.000148463891
 31
0.0
  0
LINE
  5
2F5
330
1F
100
AcDbEntity
  8
0-3_仕上げ
  6
Continuous
 62
   120
370
     5
100
AcDbLine
 10
-2214.025109943324
 20
2464.000148463892
 30
0.0
 11
-2165.975429269278
 21
2464.000148463892
 31
0.0
  0
LINE
  5
2F6
330
1F
100
AcDbEntity
  8
0-3_仕上げ
  6
JWW_CENTER1
 62
   120
370
     5
100
AcDbLine
 10
-2240.0002696063
 20
2506.000148463892
 30
0.0
 11
-2240.0002696063
 21
3064.000148463891
 31
0.0
  0
ARC
  5
2F7
330
1F
100
AcDbEntity
  8
0-3_仕上げ
  6
JWW_CENTER1
 62
   120
370
     5
100
AcDbCircle
 10
-2299.878464973226
 20
2509.821368112183
 30
0.0
 40
60.0
100
AcDbArc
 50
305.5422590305548
 51
356.3485327712913
  0
LINE
  5
2F8
330
1F
100
AcDbEntity
  8
0-3_仕上げ
  6
Continuous
 62
   120
370
     5
100
AcDbLine
 10
-2237.0002696063
 20
2506.09700349496
 30
0.0
 11
-2237.0002696063
 21
3063.903293432823
 31
0.0
  0
ARC
  5
2F9
330
1F
100
AcDbEntity
  8
0-3_仕上げ
  6
Continuous
 62
   120
370
     5
100
AcDbCircle
 10
-2180.122074239378
 20
2509.821368112183
 30
0.0
 40
57.0
100
AcDbArc
 50
183.7463597123748
 51
233.502329744074
  0
ARC
  5
2FA
330
1F
100
AcDbEntity
  8
0-3_仕上げ
  6
Continuous
 62
   120
370
     5
100
AcDbCircle
 10
-2180.122074239378
 20
2412.178928815601
 30
0.0
 40
57.0
100
AcDbArc
 50
126.497670255926
 51
176.2536402876256
  0
LINE
  5
2FB
330
1F
100
AcDbEntity
  8
0-3_仕上げ
  6
Continuous
 62
   120
370
     5
100
AcDbLine
 10
-2237.0002696063
 20
2301.000148463891
 30
0.0
 11
-2237.0002696063
 21
2415.903293432823
 31
0.0
  0
ARC
  5
2FC
330
1F
100
AcDbEntity
  8
0-3_仕上げ
  6
JWW_CENTER1
 62
   120
370
     5
100
AcDbCircle
 10
-2180.122074239378
 20
2412.178928815601
 30
0.0
 40
60.0
100
AcDbArc
 50
125.5422590305548
 51
176.348532771291
  0
LINE
  5
2FD
330
1F
100
AcDbEntity
  8
0-3_仕上げ
  6
JWW_CENTER1
 62
   120
370
     5
100
AcDbLine
 10
-2240.0002696063
 20
2301.000148463891
 30
0.0
 11
-2240.0002696063
 21
2416.000148463891
 31
0.0
  0
LINE
  5
2FE
330
1F
100
AcDbEntity
  8
0-3_仕上げ
  6
Continuous
 62
   120
370
     5
100
AcDbLine
 10
-2214.025109943324
 20
3106.000148463892
 30
0.0
 11
-2165.975429269278
 21
3106.000148463892
 31
0.0
  0
LINE
  5
2FF
330
1F
100
AcDbEntity
  8
0-3_仕上げ
  6
Continuous
 62
   120
370
     5
100
AcDbLine
 10
-2214.025109943324
 20
3112.000148463891
 30
0.0
 11
-2165.975429269278
 21
3112.000148463891
 31
0.0
  0
LINE
  5
300
330
1F
100
AcDbEntity
  8
0-3_仕上げ
  6
JWW_CENTER1
 62
   120
370
     5
100
AcDbLine
 10
-2215.000269606302
 20
3109.000148463892
 30
0.0
 11
-2165.0002696063
 21
3109.000148463892
 31
0.0
  0
ARC
  5
301
330
1F
100
AcDbEntity
  8
0-3_仕上げ
  6
Continuous
 62
   120
370
     5
100
AcDbCircle
 10
-2180.122074239378
 20
3060.178928815601
 30
0.0
 40
57.0
100
AcDbArc
 50
126.497670255926
 51
176.2536402876275
  0
ARC
  5
302
330
1F
100
AcDbEntity
  8
0-3_仕上げ
  6
Continuous
 62
   120
370
     5
100
AcDbCircle
 10
-2180.122074239378
 20
3157.821368112183
 30
0.0
 40
57.0
100
AcDbArc
 50
183.6514672287091
 51
233.502329744074
  0
ARC
  5
303
330
1F
100
AcDbEntity
  8
0-3_仕上げ
  6
JWW_CENTER1
 62
   120
370
     5
100
AcDbCircle
 10
-2080.122074239377
 20
3157.821368112183
 30
0.0
 40
60.0
100
AcDbArc
 50
183.6514672287091
 51
234.4577409694452
  0
ARC
  5
304
330
1F
100
AcDbEntity
  8
0-3_仕上げ
  6
JWW_CENTER1
 62
   120
370
     5
100
AcDbCircle
 10
-2080.122074239377
 20
3060.178928815601
 30
0.0
 40
60.0
100
AcDbArc
 50
125.5422590305548
 51
176.3485327712908
  0
ARC
  5
305
330
1F
100
AcDbEntity
  8
0-3_仕上げ
  6
Continuous
 62
   120
370
     5
100
AcDbCircle
 10
-2080.122074239377
 20
3060.178928815601
 30
0.0
 40
63.0
100
AcDbArc
 50
129.200407421848
 51
161.8874291519458
  0
ARC
  5
306
330
1F
100
AcDbEntity
  8
0-3_仕上げ
  6
Continuous
 62
   120
370
     5
100
AcDbCircle
 10
-2080.122074239377
 20
3157.821368112183
 30
0.0
 40
63.0
100
AcDbArc
 50
198.1125708480542
 51
230.799592578152
  0
ARC
  5
307
330
1F
100
AcDbEntity
  8
0-3_仕上げ
  6
Continuous
 62
   120
370
     5
100
AcDbCircle
 10
-2199.878464973225
 20
3157.821368112183
 30
0.0
 40
63.0
100
AcDbArc
 50
309.200407421848
 51
341.8874291519458
  0
ARC
  5
308
330
1F
100
AcDbEntity
  8
0-3_仕上げ
  6
Continuous
 62
   120
370
     5
100
AcDbCircle
 10
-2199.878464973225
 20
3060.178928815601
 30
0.0
 40
63.0
100
AcDbArc
 50
18.11257084805418
 51
50.79959257815202
  0
ARC
  5
309
330
1F
100
AcDbEntity
  8
0-3_仕上げ
  6
Continuous
 62
   120
370
     5
100
AcDbCircle
 10
-2199.878464973225
 20
3157.821368112183
 30
0.0
 40
57.0
100
AcDbArc
 50
306.497670255926
 51
356.2536402876231
  0
LINE
  5
30A
330
1F
100
AcDbEntity
  8
0-3_仕上げ
  6
Continuous
 62
   120
370
     5
100
AcDbLine
 10
-2143.000269606303
 20
3154.097003494957
 30
0.0
 11
-2143.000269606303
 21
3259.000148463892
 31
0.0
  0
LINE
  5
30B
330
1F
100
AcDbEntity
  8
0-3_仕上げ
  6
JWW_CENTER1
 62
   120
370
     5
100
AcDbLine
 10
-2140.000269606302
 20
3154.000148463892
 30
0.0
 11
-2140.000269606302
 21
3259.000148463892
 31
0.0
  0
ARC
  5
30C
330
1F
100
AcDbEntity
  8
0-3_仕上げ
  6
JWW_CENTER1
 62
   120
370
     5
100
AcDbCircle
 10
-2199.878464973225
 20
3157.821368112183
 30
0.0
 40
60.0
100
AcDbArc
 50
305.5422590305548
 51
356.3485327712913
  0
LINE
  5
30D
330
1F
100
AcDbEntity
  8
0-3_仕上げ
  6
Continuous
 62
   120
370
     5
100
AcDbLine
 10
-2137.000269606302
 20
3154.09700349496
 30
0.0
 11
-2137.000269606302
 21
3259.000148463892
 31
0.0
  0
ARC
  5
30E
330
1F
100
AcDbEntity
  8
0-3_仕上げ
  6
Continuous
 62
   120
370
     5
100
AcDbCircle
 10
-2199.878464973225
 20
3060.178928815601
 30
0.0
 40
57.0
100
AcDbArc
 50
3.746359712376933
 51
53.50232974407399
  0
ARC
  5
30F
330
1F
100
AcDbEntity
  8
0-3_仕上げ
  6
JWW_CENTER1
 62
   120
370
     5
100
AcDbCircle
 10
-2199.878464973225
 20
3060.178928815601
 30
0.0
 40
60.0
100
AcDbArc
 50
3.651467228708674
 51
54.45774096944522
  0
ARC
  5
310
330
1F
100
AcDbEntity
  8
0-3_仕上げ
  6
JWW_CENTER1
 62
   120
370
     5
100
AcDbCircle
 10
-2080.122074239377
 20
2509.821368112183
 30
0.0
 40
60.0
100
AcDbArc
 50
183.6514672287091
 51
234.4577409694452
  0
ARC
  5
311
330
1F
100
AcDbEntity
  8
0-3_仕上げ
  6
Continuous
 62
   120
370
     5
100
AcDbCircle
 10
-2080.122074239377
 20
2412.178928815601
 30
0.0
 40
63.0
100
AcDbArc
 50
129.200407421848
 51
161.8874291519458
  0
ARC
  5
312
330
1F
100
AcDbEntity
  8
0-3_仕上げ
  6
Continuous
 62
   120
370
     5
100
AcDbCircle
 10
-2080.122074239377
 20
2509.821368112183
 30
0.0
 40
63.0
100
AcDbArc
 50
198.1125708480542
 51
230.799592578152
  0
ARC
  5
313
330
1F
100
AcDbEntity
  8
0-3_仕上げ
  6
Continuous
 62
   120
370
     5
100
AcDbCircle
 10
-2199.878464973225
 20
2509.821368112183
 30
0.0
 40
63.0
100
AcDbArc
 50
309.200407421848
 51
341.8874291519458
  0
ARC
  5
314
330
1F
100
AcDbEntity
  8
0-3_仕上げ
  6
Continuous
 62
   120
370
     5
100
AcDbCircle
 10
-2199.878464973225
 20
2412.178928815601
 30
0.0
 40
63.0
100
AcDbArc
 50
18.11257084805418
 51
50.79959257815202
  0
ARC
  5
315
330
1F
100
AcDbEntity
  8
0-3_仕上げ
  6
JWW_CENTER1
 62
   120
370
     5
100
AcDbCircle
 10
-2199.878464973225
 20
2412.178928815601
 30
0.0
 40
60.0
100
AcDbArc
 50
3.651467228708674
 51
54.45774096944522
  0
ARC
  5
316
330
1F
100
AcDbEntity
  8
0-3_仕上げ
  6
Continuous
 62
   120
370
     5
100
AcDbCircle
 10
-2199.878464973225
 20
2509.821368112183
 30
0.0
 40
57.0
100
AcDbArc
 50
306.497670255926
 51
356.2536402876231
  0
LINE
  5
317
330
1F
100
AcDbEntity
  8
0-3_仕上げ
  6
Continuous
 62
   120
370
     5
100
AcDbLine
 10
-2143.000269606303
 20
2506.097003494958
 30
0.0
 11
-2143.000269606303
 21
3063.903293432826
 31
0.0
  0
ARC
  5
318
330
1F
100
AcDbEntity
  8
0-3_仕上げ
  6
Continuous
 62
   120
370
     5
100
AcDbCircle
 10
-2199.878464973225
 20
2412.178928815601
 30
0.0
 40
57.0
100
AcDbArc
 50
3.74635971237695
 51
53.50232974407399
  0
LINE
  5
319
330
1F
100
AcDbEntity
  8
0-3_仕上げ
  6
Continuous
 62
   120
370
     5
100
AcDbLine
 10
-2143.000269606303
 20
2301.000148463891
 30
0.0
 11
-2143.000269606303
 21
2415.903293432826
 31
0.0
  0
LINE
  5
31A
330
1F
100
AcDbEntity
  8
0-3_仕上げ
  6
JWW_CENTER1
 62
   120
370
     5
100
AcDbLine
 10
-2140.000269606302
 20
2506.000148463892
 30
0.0
 11
-2140.000269606302
 21
3064.000148463891
 31
0.0
  0
ARC
  5
31B
330
1F
100
AcDbEntity
  8
0-3_仕上げ
  6
JWW_CENTER1
 62
   120
370
     5
100
AcDbCircle
 10
-2199.878464973225
 20
2509.821368112183
 30
0.0
 40
60.0
100
AcDbArc
 50
305.5422590305548
 51
356.3485327712913
  0
LINE
  5
31C
330
1F
100
AcDbEntity
  8
0-3_仕上げ
  6
Continuous
 62
   120
370
     5
100
AcDbLine
 10
-2137.000269606302
 20
2506.09700349496
 30
0.0
 11
-2137.000269606302
 21
3063.903293432823
 31
0.0
  0
ARC
  5
31D
330
1F
100
AcDbEntity
  8
0-3_仕上げ
  6
Continuous
 62
   120
370
     5
100
AcDbCircle
 10
-2080.122074239377
 20
2509.821368112183
 30
0.0
 40
57.0
100
AcDbArc
 50
183.7463597123748
 51
233.502329744074
  0
ARC
  5
31E
330
1F
100
AcDbEntity
  8
0-3_仕上げ
  6
Continuous
 62
   120
370
     5
100
AcDbCircle
 10
-2080.122074239377
 20
2412.178928815601
 30
0.0
 40
57.0
100
AcDbArc
 50
126.497670255926
 51
176.2536402876256
  0
LINE
  5
31F
330
1F
100
AcDbEntity
  8
0-3_仕上げ
  6
Continuous
 62
   120
370
     5
100
AcDbLine
 10
-2137.000269606302
 20
2301.000148463891
 30
0.0
 11
-2137.000269606302
 21
2415.903293432823
 31
0.0
  0
ARC
  5
320
330
1F
100
AcDbEntity
  8
0-3_仕上げ
  6
JWW_CENTER1
 62
   120
370
     5
100
AcDbCircle
 10
-2080.122074239377
 20
2412.178928815601
 30
0.0
 40
60.0
100
AcDbArc
 50
125.5422590305548
 51
176.348532771291
  0
LINE
  5
321
330
1F
100
AcDbEntity
  8
0-3_仕上げ
  6
JWW_CENTER1
 62
   120
370
     5
100
AcDbLine
 10
-2140.000269606302
 20
2301.000148463891
 30
0.0
 11
-2140.000269606302
 21
2416.000148463891
 31
0.0
  0
ARC
  5
322
330
1F
100
AcDbEntity
  8
0-3_仕上げ
  6
Continuous
 62
   120
370
     5
100
AcDbCircle
 10
-2080.122074239377
 20
3060.178928815601
 30
0.0
 40
57.0
100
AcDbArc
 50
126.497670255926
 51
176.2536402876275
  0
ARC
  5
323
330
1F
100
AcDbEntity
  8
0-3_仕上げ
  6
Continuous
 62
   120
370
     5
100
AcDbCircle
 10
-2080.122074239377
 20
3157.821368112183
 30
0.0
 40
57.0
100
AcDbArc
 50
183.6514672287091
 51
233.502329744074
  0
ARC
  5
324
330
1F
100
AcDbEntity
  8
0-3_仕上げ
  6
Continuous
 62
   120
370
     5
100
AcDbCircle
 10
-2499.878464973224
 20
3157.821368112183
 30
0.0
 40
57.0
100
AcDbArc
 50
306.497670255926
 51
356.3485327712909
  0
ARC
  5
325
330
1F
100
AcDbEntity
  8
0-3_仕上げ
  6
JWW_CENTER1
 62
   120
370
     5
100
AcDbCircle
 10
-2499.878464973224
 20
3157.821368112183
 30
0.0
 40
60.0
100
AcDbArc
 50
305.5422590305548
 51
356.3485327712909
  0
ARC
  5
326
330
1F
100
AcDbEntity
  8
0-3_仕上げ
  6
JWW_CENTER1
 62
   120
370
     5
100
AcDbCircle
 10
-2499.878464973224
 20
3060.178928815601
 30
0.0
 40
60.0
100
AcDbArc
 50
3.651467228709083
 51
54.45774096944522
  0
ARC
  5
327
330
1F
100
AcDbEntity
  8
0-3_仕上げ
  6
Continuous
 62
   120
370
     5
100
AcDbCircle
 10
-2499.878464973224
 20
3060.178928815601
 30
0.0
 40
57.0
100
AcDbArc
 50
3.746359712376933
 51
53.50232974407399
  0
ARC
  5
328
330
1F
100
AcDbEntity
  8
0-3_仕上げ
  6
Continuous
 62
   120
370
     5
100
AcDbCircle
 10
-2499.878464973224
 20
2412.178928815601
 30
0.0
 40
57.0
100
AcDbArc
 50
3.74635971237695
 51
53.50232974407398
  0
ARC
  5
329
330
1F
100
AcDbEntity
  8
0-3_仕上げ
  6
JWW_CENTER1
 62
   120
370
     5
100
AcDbCircle
 10
-2499.878464973224
 20
2412.178928815601
 30
0.0
 40
60.0
100
AcDbArc
 50
3.651467228708674
 51
54.45774096944522
  0
ARC
  5
32A
330
1F
100
AcDbEntity
  8
0-3_仕上げ
  6
Continuous
 62
   120
370
     5
100
AcDbCircle
 10
-2499.878464973224
 20
2509.821368112183
 30
0.0
 40
57.0
100
AcDbArc
 50
306.497670255926
 51
356.2536402876231
  0
ARC
  5
32B
330
1F
100
AcDbEntity
  8
0-3_仕上げ
  6
JWW_CENTER1
 62
   120
370
     5
100
AcDbCircle
 10
-2499.878464973224
 20
2509.821368112183
 30
0.0
 40
60.0
100
AcDbArc
 50
305.5422590305548
 51
356.3485327712913
  0
LINE
  5
32C
330
1F
100
AcDbEntity
  8
0-3_仕上げ
  6
Continuous
 62
   120
370
     5
100
AcDbLine
 10
-2563.000269606301
 20
2464.000148463892
 30
0.0
 11
-2465.975429269278
 21
2464.000148463892
 31
0.0
  0
LINE
  5
32D
330
1F
100
AcDbEntity
  8
0-3_仕上げ
  6
JWW_CENTER1
 62
   120
370
     5
100
AcDbLine
 10
-2563.000269606301
 20
2461.000148463891
 30
0.0
 11
-2465.000269606302
 21
2461.000148463891
 31
0.0
  0
LINE
  5
32E
330
1F
100
AcDbEntity
  8
0-3_仕上げ
  6
Continuous
 62
   120
370
     5
100
AcDbLine
 10
-2563.000269606301
 20
2458.000148463892
 30
0.0
 11
-2465.975429269278
 21
2458.000148463892
 31
0.0
  0
LINE
  5
32F
330
1F
100
AcDbEntity
  8
0-3_仕上げ
  6
Continuous
 62
   120
370
     5
100
AcDbLine
 10
-2563.000269606301
 20
3112.000148463891
 30
0.0
 11
-2465.975429269278
 21
3112.000148463891
 31
0.0
  0
LINE
  5
330
330
1F
100
AcDbEntity
  8
0-3_仕上げ
  6
JWW_CENTER1
 62
   120
370
     5
100
AcDbLine
 10
-2563.000269606301
 20
3109.000148463892
 30
0.0
 11
-2465.000269606302
 21
3109.000148463892
 31
0.0
  0
LINE
  5
331
330
1F
100
AcDbEntity
  8
0-3_仕上げ
  6
Continuous
 62
   120
370
     5
100
AcDbLine
 10
-2563.000269606301
 20
3106.000148463892
 30
0.0
 11
-2465.975429269278
 21
3106.000148463892
 31
0.0
  0
LINE
  5
332
330
1F
100
AcDbEntity
  8
0-3_仕上げ
  6
Continuous
 62
   120
370
     5
100
AcDbLine
 10
-2114.025109943323
 20
2458.000148463892
 30
0.0
 11
-2017.000269606302
 21
2458.000148463892
 31
0.0
  0
LINE
  5
333
330
1F
100
AcDbEntity
  8
0-3_仕上げ
  6
JWW_CENTER1
 62
   120
370
     5
100
AcDbLine
 10
-2115.000269606302
 20
2461.000148463891
 30
0.0
 11
-2017.000269606302
 21
2461.000148463891
 31
0.0
  0
LINE
  5
334
330
1F
100
AcDbEntity
  8
0-3_仕上げ
  6
Continuous
 62
   120
370
     5
100
AcDbLine
 10
-2114.025109943323
 20
2464.000148463892
 30
0.0
 11
-2017.000269606302
 21
2464.000148463892
 31
0.0
  0
LINE
  5
335
330
1F
100
AcDbEntity
  8
0-3_仕上げ
  6
Continuous
 62
   120
370
     5
100
AcDbLine
 10
-2114.025109943323
 20
3106.000148463892
 30
0.0
 11
-2017.000269606302
 21
3106.000148463892
 31
0.0
  0
LINE
  5
336
330
1F
100
AcDbEntity
  8
0-3_仕上げ
  6
Continuous
 62
   120
370
     5
100
AcDbLine
 10
-2114.025109943323
 20
3112.000148463891
 30
0.0
 11
-2017.000269606302
 21
3112.000148463891
 31
0.0
  0
LINE
  5
337
330
1F
100
AcDbEntity
  8
0-3_仕上げ
  6
JWW_CENTER1
 62
   120
370
     5
100
AcDbLine
 10
-2115.000269606302
 20
3109.000148463892
 30
0.0
 11
-2017.000269606302
 21
3109.000148463892
 31
0.0
  0
LINE
  5
338
330
1F
100
AcDbEntity
  8
0-3_仕上げ
  6
Continuous
 62
     7
370
     9
100
AcDbLine
 10
-2567.000269606301
 20
1426.000148463891
 30
0.0
 11
-2567.000269606301
 21
3409.000148463892
 31
0.0
  0
LINE
  5
339
330
1F
100
AcDbEntity
  8
0-3_仕上げ
  6
Continuous
 62
     7
370
     9
100
AcDbLine
 10
-2013.000269606302
 20
1426.000148463891
 30
0.0
 11
-2013.000269606302
 21
3409.000148463892
 31
0.0
  0
LINE
  5
33A
330
1F
100
AcDbEntity
  8
0-3_仕上げ
  6
Continuous
 62
     7
370
     9
100
AcDbLine
 10
-2016.000269606302
 20
3263.000148463892
 30
0.0
 11
-2016.000269606302
 21
3409.000148463892
 31
0.0
  0
LINE
  5
33B
330
1F
100
AcDbEntity
  8
0-3_仕上げ
  6
Continuous
 62
     7
370
     9
100
AcDbLine
 10
-2014.500269606302
 20
3261.500148463891
 30
0.0
 11
-2014.500269606302
 21
3409.000148463892
 31
0.0
  0
LINE
  5
33C
330
1F
100
AcDbEntity
  8
0-3_仕上げ
  6
Continuous
 62
     7
370
     9
100
AcDbLine
 10
-2565.500269606301
 20
3261.500148463891
 30
0.0
 11
-2565.500269606301
 21
3409.000148463892
 31
0.0
  0
LINE
  5
33D
330
1F
100
AcDbEntity
  8
0-3_仕上げ
  6
Continuous
 62
     7
370
     9
100
AcDbLine
 10
-2564.0002696063
 20
3263.000148463892
 30
0.0
 11
-2564.0002696063
 21
3409.000148463892
 31
0.0
  0
LINE
  5
33E
330
1F
100
AcDbEntity
  8
0-3_仕上げ
  6
Continuous
 62
     7
370
     9
100
AcDbLine
 10
2212.999228297055
 20
1426.000148463892
 30
0.0
 11
2212.999228297055
 21
3409.000148463891
 31
0.0
  0
LINE
  5
33F
330
1F
100
AcDbEntity
  8
0-3_仕上げ
  6
Continuous
 62
     7
370
     9
100
AcDbLine
 10
2766.999228297055
 20
1426.000148463892
 30
0.0
 11
2766.999228297055
 21
3409.000148463891
 31
0.0
  0
LINE
  5
340
330
1F
100
AcDbEntity
  8
0-3_仕上げ
  6
Continuous
 62
     7
370
     9
100
AcDbLine
 10
2214.999228297056
 20
3269.000148463892
 30
0.0
 11
2213.999228297056
 21
3268.000148463892
 31
0.0
  0
LINE
  5
341
330
1F
100
AcDbEntity
  8
0-3_仕上げ
  6
Continuous
 62
     7
370
     9
100
AcDbLine
 10
2213.999228297056
 20
3268.000148463892
 30
0.0
 11
2216.999228297055
 21
3265.000148463892
 31
0.0
  0
LINE
  5
342
330
1F
100
AcDbEntity
  8
0-3_仕上げ
  6
Continuous
 62
     7
370
     9
100
AcDbLine
 10
2764.999228297055
 20
3269.000148463892
 30
0.0
 11
2765.999228297056
 21
3268.000148463892
 31
0.0
  0
LINE
  5
343
330
1F
100
AcDbEntity
  8
0-3_仕上げ
  6
Continuous
 62
     7
370
     9
100
AcDbLine
 10
2762.999228297055
 20
3265.000148463892
 30
0.0
 11
2765.999228297056
 21
3268.000148463892
 31
0.0
  0
LINE
  5
344
330
1F
100
AcDbEntity
  8
0-3_仕上げ
  6
Continuous
 62
     7
370
     9
100
AcDbLine
 10
2214.999228297056
 20
3269.000148463892
 30
0.0
 11
2764.999228297055
 21
3269.000148463892
 31
0.0
  0
LINE
  5
345
330
1F
100
AcDbEntity
  8
0-3_仕上げ
  6
Continuous
 62
     7
370
     9
100
AcDbLine
 10
2213.999228297056
 20
2892.000148463892
 30
0.0
 11
2216.999228297055
 21
2895.000148463892
 31
0.0
  0
LINE
  5
346
330
1F
100
AcDbEntity
  8
0-3_仕上げ
  6
Continuous
 62
     7
370
     9
100
AcDbLine
 10
2213.999228297056
 20
2892.000148463892
 30
0.0
 11
2214.999228297056
 21
2891.000148463892
 31
0.0
  0
LINE
  5
347
330
1F
100
AcDbEntity
  8
0-3_仕上げ
  6
Continuous
 62
     7
370
     9
100
AcDbLine
 10
2214.999228297056
 20
2799.000148463892
 30
0.0
 11
2213.999228297056
 21
2798.000148463892
 31
0.0
  0
LINE
  5
348
330
1F
100
AcDbEntity
  8
0-3_仕上げ
  6
Continuous
 62
     7
370
     9
100
AcDbLine
 10
2213.999228297056
 20
2798.000148463892
 30
0.0
 11
2216.999228297055
 21
2795.000148463892
 31
0.0
  0
LINE
  5
349
330
1F
100
AcDbEntity
  8
0-3_仕上げ
  6
Continuous
 62
     7
370
     9
100
AcDbLine
 10
2213.999228297056
 20
2892.000148463892
 30
0.0
 11
2213.999228297056
 21
2798.000148463892
 31
0.0
  0
LINE
  5
34A
330
1F
100
AcDbEntity
  8
0-3_仕上げ
  6
Continuous
 62
     7
370
     9
100
AcDbLine
 10
2214.999228297056
 20
2799.000148463892
 30
0.0
 11
2214.999228297056
 21
2891.000148463892
 31
0.0
  0
LINE
  5
34B
330
1F
100
AcDbEntity
  8
0-3_仕上げ
  6
Continuous
 62
     7
370
     9
100
AcDbLine
 10
2762.999228297055
 20
2895.000148463892
 30
0.0
 11
2765.999228297056
 21
2892.000148463892
 31
0.0
  0
LINE
  5
34C
330
1F
100
AcDbEntity
  8
0-3_仕上げ
  6
Continuous
 62
     7
370
     9
100
AcDbLine
 10
2765.999228297056
 20
2892.000148463892
 30
0.0
 11
2764.999228297055
 21
2891.000148463892
 31
0.0
  0
LINE
  5
34D
330
1F
100
AcDbEntity
  8
0-3_仕上げ
  6
Continuous
 62
     7
370
     9
100
AcDbLine
 10
2764.999228297055
 20
2799.000148463892
 30
0.0
 11
2765.999228297056
 21
2798.000148463892
 31
0.0
  0
LINE
  5
34E
330
1F
100
AcDbEntity
  8
0-3_仕上げ
  6
Continuous
 62
     7
370
     9
100
AcDbLine
 10
2762.999228297055
 20
2795.000148463892
 30
0.0
 11
2765.999228297056
 21
2798.000148463892
 31
0.0
  0
LINE
  5
34F
330
1F
100
AcDbEntity
  8
0-3_仕上げ
  6
Continuous
 62
     7
370
     9
100
AcDbLine
 10
2765.999228297056
 20
2892.000148463892
 30
0.0
 11
2765.999228297056
 21
2798.000148463892
 31
0.0
  0
LINE
  5
350
330
1F
100
AcDbEntity
  8
0-3_仕上げ
  6
Continuous
 62
     7
370
     9
100
AcDbLine
 10
2214.999228297056
 20
2891.000148463892
 30
0.0
 11
2764.999228297055
 21
2891.000148463892
 31
0.0
  0
LINE
  5
351
330
1F
100
AcDbEntity
  8
0-3_仕上げ
  6
Continuous
 62
     7
370
     9
100
AcDbLine
 10
2764.999228297055
 20
2799.000148463892
 30
0.0
 11
2764.999228297055
 21
2891.000148463892
 31
0.0
  0
LINE
  5
352
330
1F
100
AcDbEntity
  8
0-3_仕上げ
  6
Continuous
 62
     7
370
     9
100
AcDbLine
 10
2214.999228297056
 20
2799.000148463892
 30
0.0
 11
2764.999228297055
 21
2799.000148463892
 31
0.0
  0
LINE
  5
353
330
1F
100
AcDbEntity
  8
0-3_仕上げ
  6
Continuous
 62
     7
370
     9
100
AcDbLine
 10
2213.999228297056
 20
1617.000148463892
 30
0.0
 11
2216.999228297055
 21
1620.000148463892
 31
0.0
  0
LINE
  5
354
330
1F
100
AcDbEntity
  8
0-3_仕上げ
  6
Continuous
 62
     7
370
     9
100
AcDbLine
 10
2213.999228297056
 20
1617.000148463892
 30
0.0
 11
2214.999228297056
 21
1616.000148463892
 31
0.0
  0
LINE
  5
355
330
1F
100
AcDbEntity
  8
0-3_仕上げ
  6
Continuous
 62
     7
370
     9
100
AcDbLine
 10
2762.999228297055
 20
1620.000148463892
 30
0.0
 11
2765.999228297056
 21
1617.000148463892
 31
0.0
  0
LINE
  5
356
330
1F
100
AcDbEntity
  8
0-3_仕上げ
  6
Continuous
 62
     7
370
     9
100
AcDbLine
 10
2765.999228297056
 20
1617.000148463892
 30
0.0
 11
2764.999228297055
 21
1616.000148463892
 31
0.0
  0
LINE
  5
357
330
1F
100
AcDbEntity
  8
0-3_仕上げ
  6
Continuous
 62
     7
370
     9
100
AcDbLine
 10
2214.999228297056
 20
1616.000148463892
 30
0.0
 11
2764.999228297055
 21
1616.000148463892
 31
0.0
  0
LINE
  5
358
330
1F
100
AcDbEntity
  8
0-3_仕上げ
  6
Continuous
 62
     7
370
     9
100
AcDbLine
 10
2214.999228297056
 20
3269.000148463892
 30
0.0
 11
2214.999228297056
 21
3409.000148463892
 31
0.0
  0
LINE
  5
359
330
1F
100
AcDbEntity
  8
0-3_仕上げ
  6
Continuous
 62
     7
370
     9
100
AcDbLine
 10
2213.999228297056
 20
3268.000148463892
 30
0.0
 11
2213.999228297056
 21
3409.000148463892
 31
0.0
  0
LINE
  5
35A
330
1F
100
AcDbEntity
  8
0-3_仕上げ
  6
Continuous
 62
     7
370
     9
100
AcDbLine
 10
2764.999228297055
 20
3269.000148463892
 30
0.0
 11
2764.999228297055
 21
3409.000148463892
 31
0.0
  0
LINE
  5
35B
330
1F
100
AcDbEntity
  8
0-3_仕上げ
  6
Continuous
 62
     7
370
     9
100
AcDbLine
 10
2765.999228297056
 20
3268.000148463892
 30
0.0
 11
2765.999228297056
 21
3409.000148463892
 31
0.0
  0
LINE
  5
35C
330
1F
100
AcDbEntity
  8
0-3_仕上げ
  6
Continuous
 62
     7
370
     9
100
AcDbLine
 10
2214.999228297056
 20
1426.000148463892
 30
0.0
 11
2214.999228297056
 21
1616.000148463892
 31
0.0
  0
LINE
  5
35D
330
1F
100
AcDbEntity
  8
0-3_仕上げ
  6
Continuous
 62
     7
370
     9
100
AcDbLine
 10
2213.999228297056
 20
1426.000148463892
 30
0.0
 11
2213.999228297056
 21
1617.000148463892
 31
0.0
  0
LINE
  5
35E
330
1F
100
AcDbEntity
  8
0-3_仕上げ
  6
Continuous
 62
     7
370
     9
100
AcDbLine
 10
2764.999228297055
 20
1426.000148463892
 30
0.0
 11
2764.999228297055
 21
1616.000148463892
 31
0.0
  0
LINE
  5
35F
330
1F
100
AcDbEntity
  8
0-3_仕上げ
  6
Continuous
 62
     7
370
     9
100
AcDbLine
 10
2765.999228297056
 20
1426.000148463892
 30
0.0
 11
2765.999228297056
 21
1617.000148463892
 31
0.0
  0
LINE
  5
360
330
1F
100
AcDbEntity
  8
0-3_仕上げ
  6
Continuous
 62
    92
370
    13
100
AcDbLine
 10
2491.834987503031
 20
3145.552951751541
 30
0.0
 11
2472.195753839596
 21
3125.913718088106
 31
0.0
  0
LINE
  5
361
330
1F
100
AcDbEntity
  8
0-3_仕上げ
  6
Continuous
 62
    92
370
    13
100
AcDbLine
 10
2495.299579455374
 20
3140.532262329646
 30
0.0
 11
2467.976518946413
 21
3113.209201820685
 31
0.0
  0
LINE
  5
362
330
1F
100
AcDbEntity
  8
0-3_仕上げ
  6
Continuous
 62
    92
370
    13
100
AcDbLine
 10
2499.448979823226
 20
3136.196381323258
 30
0.0
 11
2467.791962254921
 21
3104.539363754954
 31
0.0
  0
LINE
  5
363
330
1F
100
AcDbEntity
  8
0-3_仕上げ
  6
Continuous
 62
    92
370
    13
100
AcDbLine
 10
2503.67185952318
 20
3131.933979648975
 30
0.0
 11
2469.185304307632
 21
3097.447424433426
 31
0.0
  0
LINE
  5
364
330
1F
100
AcDbEntity
  8
0-3_仕上げ
  6
Continuous
 62
    92
370
    13
100
AcDbLine
 10
2507.197035305014
 20
3126.973874056569
 30
0.0
 11
2471.607950831405
 21
3091.38478958296
 31
0.0
  0
LINE
  5
365
330
1F
100
AcDbEntity
  8
0-3_仕上げ
  6
Continuous
 62
    92
370
    13
100
AcDbLine
 10
2509.958760030052
 20
3121.25031740737
 30
0.0
 11
2474.841734945928
 21
3086.133292323246
 31
0.0
  0
LINE
  5
366
330
1F
100
AcDbEntity
  8
0-3_仕上げ
  6
Continuous
 62
    92
370
    13
100
AcDbLine
 10
2511.799615774974
 20
3114.605891778054
 30
0.0
 11
2478.792646534963
 21
3081.598922538042
 31
0.0
  0
LINE
  5
367
330
1F
100
AcDbEntity
  8
0-3_仕上げ
  6
Continuous
 62
    92
370
    13
100
AcDbLine
 10
2512.350170675465
 20
3106.671165304305
 30
0.0
 11
2482.7956913398
 21
3077.11668596864
 31
0.0
  0
LINE
  5
368
330
1F
100
AcDbEntity
  8
0-3_仕上げ
  6
Continuous
 62
    92
370
    13
100
AcDbLine
 10
2510.439748676394
 20
3096.275461930997
 30
0.0
 11
2486.254979836694
 21
3072.090693091296
 31
0.0
  0
LINE
  5
369
330
1F
100
AcDbEntity
  8
0-3_仕上げ
  6
Continuous
 62
    40
370
    15
100
AcDbLine
 10
2462.369217699653
 20
3085.714319211992
 30
0.0
 11
2483.335580140106
 21
3064.747956771538
 31
0.0
  0
LINE
  5
36A
330
1F
100
AcDbEntity
  8
0-3_仕上げ
  6
Continuous
 62
    40
370
    15
100
AcDbLine
 10
2450.507951842292
 20
3089.090303695114
 30
0.0
 11
2484.517098105171
 21
3055.081157432234
 31
0.0
  0
LINE
  5
36B
330
1F
100
AcDbEntity
  8
0-3_仕上げ
  6
Continuous
 62
    40
370
    15
100
AcDbLine
 10
2441.796036474946
 20
3089.316937688222
 30
0.0
 11
2457.964268247755
 21
3073.148705915413
 31
0.0
  0
LINE
  5
36C
330
1F
100
AcDbEntity
  8
0-3_仕上げ
  6
Continuous
 62
    40
370
    15
100
AcDbLine
 10
2428.223016368242
 20
3085.919395046448
 30
0.0
 11
2432.887774932687
 21
3081.254636482005
 31
0.0
  0
LINE
  5
36D
330
1F
100
AcDbEntity
  8
0-3_仕上げ
  6
Continuous
 62
    40
370
    15
100
AcDbLine
 10
2434.526976847744
 20
3088.100715941186
 30
0.0
 11
2444.131705228792
 21
3078.495987560137
 31
0.0
  0
LINE
  5
36E
330
1F
100
AcDbEntity
  8
0-3_仕上げ
  6
Continuous
 62
    40
370
    15
100
AcDbLine
 10
2509.412971986644
 20
3080.802133444165
 30
0.0
 11
2518.709301201966
 21
3071.505804228843
 31
0.0
  0
LINE
  5
36F
330
1F
100
AcDbEntity
  8
0-3_仕上げ
  6
Continuous
 62
    40
370
    15
100
AcDbLine
 10
2504.912390899087
 20
3076.817433157483
 30
0.0
 11
2513.255098544416
 21
3068.474725512155
 31
0.0
  0
LINE
  5
370
330
1F
100
AcDbEntity
  8
0-3_仕上げ
  6
Continuous
 62
    40
370
    15
100
AcDbLine
 10
2501.021136439709
 20
3072.223406242623
 30
0.0
 11
2508.07248328711
 21
3065.172059395222
 31
0.0
  0
LINE
  5
371
330
1F
100
AcDbEntity
  8
0-3_仕上げ
  6
Continuous
 62
    40
370
    15
100
AcDbLine
 10
2497.761847036146
 20
3066.997414271947
 30
0.0
 11
2503.150850907251
 21
3061.608410400842
 31
0.0
  0
LINE
  5
372
330
1F
100
AcDbEntity
  8
0-3_仕上げ
  6
Continuous
 62
    40
370
    15
100
AcDbLine
 10
2495.204317051004
 20
3061.069662882851
 30
0.0
 11
2498.482883582647
 21
3057.791096351208
 31
0.0
  0
LINE
  5
373
330
1F
100
AcDbEntity
  8
0-3_仕上げ
  6
Continuous
 62
    40
370
    15
100
AcDbLine
 10
2544.241725506053
 20
3088.399786795949
 30
0.0
 11
2550.772151201308
 21
3081.869361100694
 31
0.0
  0
LINE
  5
374
330
1F
100
AcDbEntity
  8
0-3_仕上げ
  6
Continuous
 62
    40
370
    15
100
AcDbLine
 10
2534.71241100707
 20
3089.443819920694
 30
0.0
 11
2543.61609181012
 21
3080.540139117643
 31
0.0
  0
LINE
  5
375
330
1F
100
AcDbEntity
  8
0-3_仕上げ
  6
Continuous
 62
    40
370
    15
100
AcDbLine
 10
2526.985335932303
 20
3088.685613621222
 30
0.0
 11
2536.872841420689
 21
3078.798108132837
 31
0.0
  0
LINE
  5
376
330
1F
100
AcDbEntity
  8
0-3_仕上げ
  6
Continuous
 62
    40
370
    15
100
AcDbLine
 10
2520.353058482982
 20
3086.832609696304
 30
0.0
 11
2530.495528276542
 21
3076.690139902745
 31
0.0
  0
LINE
  5
377
330
1F
100
AcDbEntity
  8
0-3_仕上げ
  6
Continuous
 62
    40
370
    15
100
AcDbLine
 10
2514.539387267338
 20
3084.16099953771
 30
0.0
 11
2524.449628454604
 21
3074.250758350443
 31
0.0
  0
LINE
  5
378
330
1F
100
AcDbEntity
  8
0-3_仕上げ
  6
Continuous
 62
    92
370
    13
100
AcDbLine
 10
2216.999228297055
 20
3265.000148463892
 30
0.0
 11
2762.999228297055
 21
3265.000148463892
 31
0.0
  0
LINE
  5
379
330
1F
100
AcDbEntity
  8
0-3_仕上げ
  6
Continuous
 62
    92
370
    13
100
AcDbLine
 10
2216.999228297055
 20
2895.000148463892
 30
0.0
 11
2762.999228297055
 21
2895.000148463892
 31
0.0
  0
LINE
  5
37A
330
1F
100
AcDbEntity
  8
0-3_仕上げ
  6
Continuous
 62
    92
370
    13
100
AcDbLine
 10
2216.999228297055
 20
2795.000148463892
 30
0.0
 11
2762.999228297055
 21
2795.000148463892
 31
0.0
  0
LINE
  5
37B
330
1F
100
AcDbEntity
  8
0-3_仕上げ
  6
Continuous
 62
    92
370
    13
100
AcDbLine
 10
2216.999228297055
 20
2895.000148463892
 30
0.0
 11
2216.999228297055
 21
3265.000148463892
 31
0.0
  0
LINE
  5
37C
330
1F
100
AcDbEntity
  8
0-3_仕上げ
  6
Continuous
 62
    92
370
    13
100
AcDbLine
 10
2762.999228297055
 20
2895.000148463892
 30
0.0
 11
2762.999228297055
 21
3265.000148463892
 31
0.0
  0
LINE
  5
37D
330
1F
100
AcDbEntity
  8
0-3_仕上げ
  6
Continuous
 62
    92
370
    13
100
AcDbLine
 10
2492.999228297055
 20
3160.324023541088
 30
0.0
 11
2492.999228297055
 21
3265.000148463891
 31
0.0
  0
LINE
  5
37E
330
1F
100
AcDbEntity
  8
0-3_仕上げ
  6
Continuous
 62
    92
370
    13
100
AcDbLine
 10
2486.999228297056
 20
3160.324023541088
 30
0.0
 11
2486.999228297056
 21
3265.000148463891
 31
0.0
  0
ARC
  5
37F
330
1F
100
AcDbEntity
  8
0-3_仕上げ
  6
JWW_CENTER1
 62
    92
370
    13
100
AcDbCircle
 10
2414.005807344091
 20
2980.000148680311
 30
0.0
 40
100.0
100
AcDbArc
 50
40.54160171033374
 51
90.00376951628597
  0
ARC
  5
380
330
1F
100
AcDbEntity
  8
0-3_仕上げ
  6
JWW_CENTER1
 62
    92
370
    13
100
AcDbCircle
 10
2445.065659069658
 20
3047.444398141543
 30
0.0
 40
45.0
100
AcDbArc
 50
3.113647660734046
 51
133.6590188873627
  0
ARC
  5
381
330
1F
100
AcDbEntity
  8
0-3_仕上げ
  6
JWW_CENTER1
 62
    92
370
    13
100
AcDbCircle
 10
2534.932797524454
 20
3047.444398141543
 30
0.0
 40
45.0
100
AcDbArc
 50
46.34098111263735
 51
176.886352339266
  0
ARC
  5
382
330
1F
100
AcDbEntity
  8
0-3_仕上げ
  6
JWW_CENTER1
 62
    92
370
    13
100
AcDbCircle
 10
2565.992649250021
 20
2980.000148680311
 30
0.0
 40
100.0
100
AcDbArc
 50
89.99623048371403
 51
139.4583982896663
  0
ARC
  5
383
330
1F
100
AcDbEntity
  8
0-3_仕上げ
  6
JWW_CENTER1
 62
    92
370
    13
100
AcDbCircle
 10
2524.742499083105
 20
3164.555469521756
 30
0.0
 40
35.0
100
AcDbArc
 50
186.9439578850277
 51
228.8372333122856
  0
ARC
  5
384
330
1F
100
AcDbEntity
  8
0-3_仕上げ
  6
JWW_CENTER1
 62
    92
370
    13
100
AcDbCircle
 10
2475.377471420113
 20
3108.092259873064
 30
0.0
 40
40.0
100
AcDbArc
 50
314.4792487798384
 51
48.83723331228539
  0
ARC
  5
385
330
1F
100
AcDbEntity
  8
0-3_仕上げ
  6
JWW_CENTER1
 62
    92
370
    13
100
AcDbCircle
 10
2455.255957511007
 20
3164.555469521756
 30
0.0
 40
35.0
100
AcDbArc
 50
311.1627666877145
 51
353.0560421149723
  0
ARC
  5
386
330
1F
100
AcDbEntity
  8
0-3_仕上げ
  6
JWW_CENTER1
 62
    92
370
    13
100
AcDbCircle
 10
2504.620985173999
 20
3108.092259873064
 30
0.0
 40
40.0
100
AcDbArc
 50
131.1627666877146
 51
225.5207512201617
  0
LINE
  5
387
330
1F
100
AcDbEntity
  8
0-3_仕上げ
  6
JWW_CENTER1
 62
    92
370
    13
100
AcDbLine
 10
2489.999228297056
 20
3160.324023541088
 30
0.0
 11
2489.999228297056
 21
3265.000148463891
 31
0.0
  0
LINE
  5
388
330
1F
100
AcDbEntity
  8
0-3_仕上げ
  6
JWW_CENTER1
 62
    92
370
    13
100
AcDbLine
 10
2489.999228297056
 20
2895.000148463892
 30
0.0
 11
2489.999228297056
 21
3049.888647819188
 31
0.0
  0
ARC
  5
389
330
1F
100
AcDbEntity
  8
0-3_仕上げ
  6
Continuous
 62
    92
370
    13
100
AcDbCircle
 10
2475.377471420113
 20
3108.092259873064
 30
0.0
 40
37.0
100
AcDbArc
 50
314.4792487798384
 51
48.83723331228539
  0
ARC
  5
38A
330
1F
100
AcDbEntity
  8
0-3_仕上げ
  6
Continuous
 62
    92
370
    13
100
AcDbCircle
 10
2524.742499083105
 20
3164.555469521756
 30
0.0
 40
32.0
100
AcDbArc
 50
186.9439578850277
 51
228.8372333122856
  0
ARC
  5
38B
330
1F
100
AcDbEntity
  8
0-3_仕上げ
  6
Continuous
 62
    92
370
    13
100
AcDbCircle
 10
2455.255957511007
 20
3164.555469521756
 30
0.0
 40
32.0
100
AcDbArc
 50
311.1627666877145
 51
353.0560421149723
  0
ARC
  5
38C
330
1F
100
AcDbEntity
  8
0-3_仕上げ
  6
Continuous
 62
    92
370
    13
100
AcDbCircle
 10
2504.620985173999
 20
3108.092259873064
 30
0.0
 40
37.0
100
AcDbArc
 50
131.1627666877146
 51
225.5207512201617
  0
ARC
  5
38D
330
1F
100
AcDbEntity
  8
0-3_仕上げ
  6
Continuous
 62
    92
370
    13
100
AcDbCircle
 10
2414.005807344091
 20
2980.000148680311
 30
0.0
 40
103.0
100
AcDbArc
 50
45.10773387316914
 51
85.43763735345068
  0
ARC
  5
38E
330
1F
100
AcDbEntity
  8
0-3_仕上げ
  6
Continuous
 62
    92
370
    13
100
AcDbCircle
 10
2445.065659069658
 20
3047.444398141543
 30
0.0
 40
42.0
100
AcDbArc
 50
7.558436535392484
 51
122.9869346912273
  0
ARC
  5
38F
330
1F
100
AcDbEntity
  8
0-3_仕上げ
  6
Continuous
 62
    92
370
    13
100
AcDbCircle
 10
2414.005807344091
 20
2980.000148680311
 30
0.0
 40
97.00000000000001
100
AcDbArc
 50
41.19177185484618
 51
90.00376951628597
  0
LINE
  5
390
330
1F
100
AcDbEntity
  8
0-3_仕上げ
  6
Continuous
 62
    92
370
    13
100
AcDbLine
 10
2486.999228297056
 20
2895.000148463892
 30
0.0
 11
2486.999228297056
 21
3043.882544515027
 31
0.0
  0
LINE
  5
391
330
1F
100
AcDbEntity
  8
0-3_仕上げ
  6
Continuous
 62
    92
370
    13
100
AcDbLine
 10
2492.999228297055
 20
2895.000148463892
 30
0.0
 11
2492.999228297055
 21
3043.882544515026
 31
0.0
  0
ARC
  5
392
330
1F
100
AcDbEntity
  8
0-3_仕上げ
  6
Continuous
 62
    92
370
    13
100
AcDbCircle
 10
2504.620985173999
 20
3108.092259873064
 30
0.0
 40
43.0
100
AcDbArc
 50
131.1627666877146
 51
203.3599080664725
  0
ARC
  5
393
330
1F
100
AcDbEntity
  8
0-3_仕上げ
  6
Continuous
 62
    92
370
    13
100
AcDbCircle
 10
2475.377471420113
 20
3108.092259873064
 30
0.0
 40
43.0
100
AcDbArc
 50
336.6400919335275
 51
48.83723331228539
  0
ARC
  5
394
330
1F
100
AcDbEntity
  8
0-3_仕上げ
  6
Continuous
 62
    92
370
    13
100
AcDbCircle
 10
2565.992649250021
 20
2980.000148680311
 30
0.0
 40
97.00000000000001
100
AcDbArc
 50
90.0
 51
138.8082281451543
  0
ARC
  5
395
330
1F
100
AcDbEntity
  8
0-3_仕上げ
  6
Continuous
 62
    92
370
    13
100
AcDbCircle
 10
2534.932797524454
 20
3047.444398141543
 30
0.0
 40
42.0
100
AcDbArc
 50
57.01306530877268
 51
172.4415634646074
  0
ARC
  5
396
330
1F
100
AcDbEntity
  8
0-3_仕上げ
  6
Continuous
 62
    92
370
    13
100
AcDbCircle
 10
2565.992649250021
 20
2980.000148680311
 30
0.0
 40
103.0
100
AcDbArc
 50
94.56236264654935
 51
134.8922661268309
  0
ARC
  5
397
330
1F
100
AcDbEntity
  8
0-3_仕上げ
  6
Continuous
 62
    92
370
    13
100
AcDbCircle
 10
2455.255957511007
 20
3164.555469521756
 30
0.0
 40
38.0
100
AcDbArc
 50
311.1627666877145
 51
336.1060315563597
  0
ARC
  5
398
330
1F
100
AcDbEntity
  8
0-3_仕上げ
  6
Continuous
 62
    92
370
    13
100
AcDbCircle
 10
2524.742499083105
 20
3164.555469521756
 30
0.0
 40
38.0
100
AcDbArc
 50
203.8939684436403
 51
228.8372333122856
  0
ARC
  5
399
330
1F
100
AcDbEntity
  8
0-3_仕上げ
  6
Continuous
 62
    92
370
    13
100
AcDbCircle
 10
2445.065659069658
 20
3047.444398141543
 30
0.0
 40
48.00000000000001
100
AcDbArc
 50
20.59079892749086
 51
45.52075122016139
  0
ARC
  5
39A
330
1F
100
AcDbEntity
  8
0-3_仕上げ
  6
Continuous
 62
    92
370
    13
100
AcDbCircle
 10
2445.065659069658
 20
3047.444398141543
 30
0.0
 40
48.00000000000001
100
AcDbArc
 50
65.27067401580403
 51
132.2051003340379
  0
ARC
  5
39B
330
1F
100
AcDbEntity
  8
0-3_仕上げ
  6
Continuous
 62
    92
370
    13
100
AcDbCircle
 10
2534.932797524454
 20
3047.444398141543
 30
0.0
 40
48.00000000000001
100
AcDbArc
 50
47.79489966596212
 51
114.729325984196
  0
ARC
  5
39C
330
1F
100
AcDbEntity
  8
0-3_仕上げ
  6
Continuous
 62
    92
370
    13
100
AcDbCircle
 10
2534.932797524454
 20
3047.444398141543
 30
0.0
 40
48.00000000000001
100
AcDbArc
 50
134.4792487798386
 51
159.4092010725091
  0
LINE
  5
39D
330
1F
100
AcDbEntity
  8
0-3_仕上げ
  6
Continuous
 62
    92
370
    13
100
AcDbLine
 10
2346.999228297056
 20
2895.000148463892
 30
0.0
 11
2346.999228297056
 21
3265.000148463891
 31
0.0
  0
LINE
  5
39E
330
1F
100
AcDbEntity
  8
0-3_仕上げ
  6
JWW_CENTER1
 62
    92
370
    13
100
AcDbLine
 10
2349.999228297056
 20
2895.000148463892
 30
0.0
 11
2349.999228297056
 21
3265.000148463891
 31
0.0
  0
LINE
  5
39F
330
1F
100
AcDbEntity
  8
0-3_仕上げ
  6
Continuous
 62
    92
370
    13
100
AcDbLine
 10
2352.999228297055
 20
2895.000148463892
 30
0.0
 11
2352.999228297055
 21
3265.000148463891
 31
0.0
  0
LINE
  5
3A0
330
1F
100
AcDbEntity
  8
0-3_仕上げ
  6
Continuous
 62
    92
370
    13
100
AcDbLine
 10
2626.999228297056
 20
2895.000148463892
 30
0.0
 11
2626.999228297056
 21
3265.000148463891
 31
0.0
  0
LINE
  5
3A1
330
1F
100
AcDbEntity
  8
0-3_仕上げ
  6
JWW_CENTER1
 62
    92
370
    13
100
AcDbLine
 10
2629.999228297056
 20
2895.000148463892
 30
0.0
 11
2629.999228297056
 21
3265.000148463891
 31
0.0
  0
LINE
  5
3A2
330
1F
100
AcDbEntity
  8
0-3_仕上げ
  6
Continuous
 62
    92
370
    13
100
AcDbLine
 10
2632.999228297056
 20
2895.000148463892
 30
0.0
 11
2632.999228297056
 21
3265.000148463891
 31
0.0
  0
LINE
  5
3A3
330
1F
100
AcDbEntity
  8
0-3_仕上げ
  6
Continuous
 62
    92
370
    13
100
AcDbLine
 10
2567.178551028052
 20
3083.000148463892
 30
0.0
 11
2762.999228297055
 21
3083.000148463892
 31
0.0
  0
LINE
  5
3A4
330
1F
100
AcDbEntity
  8
0-3_仕上げ
  6
JWW_CENTER1
 62
    92
370
    13
100
AcDbLine
 10
2565.999228297056
 20
3080.000148463892
 30
0.0
 11
2762.999228297055
 21
3080.000148463892
 31
0.0
  0
LINE
  5
3A5
330
1F
100
AcDbEntity
  8
0-3_仕上げ
  6
Continuous
 62
    92
370
    13
100
AcDbLine
 10
2565.992649250021
 20
3077.000148463892
 30
0.0
 11
2762.999228297055
 21
3077.000148463892
 31
0.0
  0
LINE
  5
3A6
330
1F
100
AcDbEntity
  8
0-3_仕上げ
  6
Continuous
 62
    92
370
    13
100
AcDbLine
 10
2216.999228297055
 20
3077.000148463892
 30
0.0
 11
2413.999228297056
 21
3077.000148463892
 31
0.0
  0
LINE
  5
3A7
330
1F
100
AcDbEntity
  8
0-3_仕上げ
  6
JWW_CENTER1
 62
    92
370
    13
100
AcDbLine
 10
2216.999228297055
 20
3080.000148463892
 30
0.0
 11
2413.999228297056
 21
3080.000148463892
 31
0.0
  0
LINE
  5
3A8
330
1F
100
AcDbEntity
  8
0-3_仕上げ
  6
Continuous
 62
    92
370
    13
100
AcDbLine
 10
2216.999228297055
 20
3083.000148463892
 30
0.0
 11
2412.81990556606
 21
3083.000148463892
 31
0.0
  0
LINE
  5
3A9
330
1F
100
AcDbEntity
  8
0-3_仕上げ
  6
Continuous
 62
    92
370
    13
100
AcDbLine
 10
2216.999228297055
 20
1620.000148463892
 30
0.0
 11
2762.999228297055
 21
1620.000148463892
 31
0.0
  0
LINE
  5
3AA
330
1F
100
AcDbEntity
  8
0-3_仕上げ
  6
Continuous
 62
    92
370
    13
100
AcDbLine
 10
2216.999228297055
 20
1620.000148463892
 30
0.0
 11
2216.999228297055
 21
2795.000148463892
 31
0.0
  0
LINE
  5
3AB
330
1F
100
AcDbEntity
  8
0-3_仕上げ
  6
Continuous
 62
    92
370
    13
100
AcDbLine
 10
2762.999228297055
 20
1620.000148463892
 30
0.0
 11
2762.999228297055
 21
2795.000148463892
 31
0.0
  0
LINE
  5
3AC
330
1F
100
AcDbEntity
  8
0-3_仕上げ
  6
Continuous
 62
     7
370
     9
100
AcDbLine
 10
3022.999228297055
 20
1426.000148463892
 30
0.0
 11
3022.999228297055
 21
3409.000148463891
 31
0.0
  0
LINE
  5
3AD
330
1F
100
AcDbEntity
  8
0-3_仕上げ
  6
Continuous
 62
     7
370
     9
100
AcDbLine
 10
3576.999228297055
 20
1426.000148463892
 30
0.0
 11
3576.999228297055
 21
3409.000148463891
 31
0.0
  0
LINE
  5
3AE
330
1F
100
AcDbEntity
  8
0-3_仕上げ
  6
Continuous
 62
     7
370
     9
100
AcDbLine
 10
3024.999228297056
 20
3269.000148463892
 30
0.0
 11
3023.999228297056
 21
3268.000148463892
 31
0.0
  0
LINE
  5
3AF
330
1F
100
AcDbEntity
  8
0-3_仕上げ
  6
Continuous
 62
     7
370
     9
100
AcDbLine
 10
3023.999228297056
 20
3268.000148463892
 30
0.0
 11
3026.999228297055
 21
3265.000148463892
 31
0.0
  0
LINE
  5
3B0
330
1F
100
AcDbEntity
  8
0-3_仕上げ
  6
Continuous
 62
     7
370
     9
100
AcDbLine
 10
3574.999228297055
 20
3269.000148463892
 30
0.0
 11
3575.999228297056
 21
3268.000148463892
 31
0.0
  0
LINE
  5
3B1
330
1F
100
AcDbEntity
  8
0-3_仕上げ
  6
Continuous
 62
     7
370
     9
100
AcDbLine
 10
3572.999228297055
 20
3265.000148463892
 30
0.0
 11
3575.999228297056
 21
3268.000148463892
 31
0.0
  0
LINE
  5
3B2
330
1F
100
AcDbEntity
  8
0-3_仕上げ
  6
Continuous
 62
     7
370
     9
100
AcDbLine
 10
3024.999228297056
 20
3269.000148463892
 30
0.0
 11
3574.999228297055
 21
3269.000148463892
 31
0.0
  0
LINE
  5
3B3
330
1F
100
AcDbEntity
  8
0-3_仕上げ
  6
Continuous
 62
     7
370
     9
100
AcDbLine
 10
3023.999228297056
 20
2892.000148463892
 30
0.0
 11
3026.999228297055
 21
2895.000148463892
 31
0.0
  0
LINE
  5
3B4
330
1F
100
AcDbEntity
  8
0-3_仕上げ
  6
Continuous
 62
     7
370
     9
100
AcDbLine
 10
3023.999228297056
 20
2892.000148463892
 30
0.0
 11
3024.999228297056
 21
2891.000148463892
 31
0.0
  0
LINE
  5
3B5
330
1F
100
AcDbEntity
  8
0-3_仕上げ
  6
Continuous
 62
     7
370
     9
100
AcDbLine
 10
3024.999228297056
 20
2799.000148463892
 30
0.0
 11
3023.999228297056
 21
2798.000148463892
 31
0.0
  0
LINE
  5
3B6
330
1F
100
AcDbEntity
  8
0-3_仕上げ
  6
Continuous
 62
     7
370
     9
100
AcDbLine
 10
3023.999228297056
 20
2798.000148463892
 30
0.0
 11
3026.999228297055
 21
2795.000148463892
 31
0.0
  0
LINE
  5
3B7
330
1F
100
AcDbEntity
  8
0-3_仕上げ
  6
Continuous
 62
     7
370
     9
100
AcDbLine
 10
3023.999228297056
 20
2892.000148463892
 30
0.0
 11
3023.999228297056
 21
2798.000148463892
 31
0.0
  0
LINE
  5
3B8
330
1F
100
AcDbEntity
  8
0-3_仕上げ
  6
Continuous
 62
     7
370
     9
100
AcDbLine
 10
3024.999228297056
 20
2799.000148463892
 30
0.0
 11
3024.999228297056
 21
2891.000148463892
 31
0.0
  0
LINE
  5
3B9
330
1F
100
AcDbEntity
  8
0-3_仕上げ
  6
Continuous
 62
     7
370
     9
100
AcDbLine
 10
3572.999228297055
 20
2895.000148463892
 30
0.0
 11
3575.999228297056
 21
2892.000148463892
 31
0.0
  0
LINE
  5
3BA
330
1F
100
AcDbEntity
  8
0-3_仕上げ
  6
Continuous
 62
     7
370
     9
100
AcDbLine
 10
3575.999228297056
 20
2892.000148463892
 30
0.0
 11
3574.999228297055
 21
2891.000148463892
 31
0.0
  0
LINE
  5
3BB
330
1F
100
AcDbEntity
  8
0-3_仕上げ
  6
Continuous
 62
     7
370
     9
100
AcDbLine
 10
3574.999228297055
 20
2799.000148463892
 30
0.0
 11
3575.999228297056
 21
2798.000148463892
 31
0.0
  0
LINE
  5
3BC
330
1F
100
AcDbEntity
  8
0-3_仕上げ
  6
Continuous
 62
     7
370
     9
100
AcDbLine
 10
3572.999228297055
 20
2795.000148463892
 30
0.0
 11
3575.999228297056
 21
2798.000148463892
 31
0.0
  0
LINE
  5
3BD
330
1F
100
AcDbEntity
  8
0-3_仕上げ
  6
Continuous
 62
     7
370
     9
100
AcDbLine
 10
3575.999228297056
 20
2892.000148463892
 30
0.0
 11
3575.999228297056
 21
2798.000148463892
 31
0.0
  0
LINE
  5
3BE
330
1F
100
AcDbEntity
  8
0-3_仕上げ
  6
Continuous
 62
     7
370
     9
100
AcDbLine
 10
3024.999228297056
 20
2891.000148463892
 30
0.0
 11
3574.999228297055
 21
2891.000148463892
 31
0.0
  0
LINE
  5
3BF
330
1F
100
AcDbEntity
  8
0-3_仕上げ
  6
Continuous
 62
     7
370
     9
100
AcDbLine
 10
3574.999228297055
 20
2799.000148463892
 30
0.0
 11
3574.999228297055
 21
2891.000148463892
 31
0.0
  0
LINE
  5
3C0
330
1F
100
AcDbEntity
  8
0-3_仕上げ
  6
Continuous
 62
     7
370
     9
100
AcDbLine
 10
3024.999228297056
 20
2799.000148463892
 30
0.0
 11
3574.999228297055
 21
2799.000148463892
 31
0.0
  0
LINE
  5
3C1
330
1F
100
AcDbEntity
  8
0-3_仕上げ
  6
Continuous
 62
     7
370
     9
100
AcDbLine
 10
3023.999228297056
 20
1617.000148463892
 30
0.0
 11
3026.999228297055
 21
1620.000148463892
 31
0.0
  0
LINE
  5
3C2
330
1F
100
AcDbEntity
  8
0-3_仕上げ
  6
Continuous
 62
     7
370
     9
100
AcDbLine
 10
3023.999228297056
 20
1617.000148463892
 30
0.0
 11
3024.999228297056
 21
1616.000148463892
 31
0.0
  0
LINE
  5
3C3
330
1F
100
AcDbEntity
  8
0-3_仕上げ
  6
Continuous
 62
     7
370
     9
100
AcDbLine
 10
3572.999228297055
 20
1620.000148463892
 30
0.0
 11
3575.999228297056
 21
1617.000148463892
 31
0.0
  0
LINE
  5
3C4
330
1F
100
AcDbEntity
  8
0-3_仕上げ
  6
Continuous
 62
     7
370
     9
100
AcDbLine
 10
3575.999228297056
 20
1617.000148463892
 30
0.0
 11
3574.999228297055
 21
1616.000148463892
 31
0.0
  0
LINE
  5
3C5
330
1F
100
AcDbEntity
  8
0-3_仕上げ
  6
Continuous
 62
     7
370
     9
100
AcDbLine
 10
3024.999228297056
 20
1616.000148463892
 30
0.0
 11
3574.999228297055
 21
1616.000148463892
 31
0.0
  0
LINE
  5
3C6
330
1F
100
AcDbEntity
  8
0-3_仕上げ
  6
Continuous
 62
     7
370
     9
100
AcDbLine
 10
3024.999228297056
 20
3269.000148463892
 30
0.0
 11
3024.999228297056
 21
3409.000148463892
 31
0.0
  0
LINE
  5
3C7
330
1F
100
AcDbEntity
  8
0-3_仕上げ
  6
Continuous
 62
     7
370
     9
100
AcDbLine
 10
3023.999228297056
 20
3268.000148463892
 30
0.0
 11
3023.999228297056
 21
3409.000148463892
 31
0.0
  0
LINE
  5
3C8
330
1F
100
AcDbEntity
  8
0-3_仕上げ
  6
Continuous
 62
     7
370
     9
100
AcDbLine
 10
3574.999228297055
 20
3269.000148463892
 30
0.0
 11
3574.999228297055
 21
3409.000148463892
 31
0.0
  0
LINE
  5
3C9
330
1F
100
AcDbEntity
  8
0-3_仕上げ
  6
Continuous
 62
     7
370
     9
100
AcDbLine
 10
3575.999228297056
 20
3268.000148463892
 30
0.0
 11
3575.999228297056
 21
3409.000148463892
 31
0.0
  0
LINE
  5
3CA
330
1F
100
AcDbEntity
  8
0-3_仕上げ
  6
Continuous
 62
     7
370
     9
100
AcDbLine
 10
3024.999228297056
 20
1426.000148463892
 30
0.0
 11
3024.999228297056
 21
1616.000148463892
 31
0.0
  0
LINE
  5
3CB
330
1F
100
AcDbEntity
  8
0-3_仕上げ
  6
Continuous
 62
     7
370
     9
100
AcDbLine
 10
3023.999228297056
 20
1426.000148463892
 30
0.0
 11
3023.999228297056
 21
1617.000148463892
 31
0.0
  0
LINE
  5
3CC
330
1F
100
AcDbEntity
  8
0-3_仕上げ
  6
Continuous
 62
     7
370
     9
100
AcDbLine
 10
3574.999228297055
 20
1426.000148463892
 30
0.0
 11
3574.999228297055
 21
1616.000148463892
 31
0.0
  0
LINE
  5
3CD
330
1F
100
AcDbEntity
  8
0-3_仕上げ
  6
Continuous
 62
     7
370
     9
100
AcDbLine
 10
3575.999228297056
 20
1426.000148463892
 30
0.0
 11
3575.999228297056
 21
1617.000148463892
 31
0.0
  0
LINE
  5
3CE
330
1F
100
AcDbEntity
  8
0-3_仕上げ
  6
Continuous
 62
    92
370
    13
100
AcDbLine
 10
3301.834987503031
 20
3145.552951751541
 30
0.0
 11
3282.195753839596
 21
3125.913718088106
 31
0.0
  0
LINE
  5
3CF
330
1F
100
AcDbEntity
  8
0-3_仕上げ
  6
Continuous
 62
    92
370
    13
100
AcDbLine
 10
3305.299579455374
 20
3140.532262329646
 30
0.0
 11
3277.976518946413
 21
3113.209201820685
 31
0.0
  0
LINE
  5
3D0
330
1F
100
AcDbEntity
  8
0-3_仕上げ
  6
Continuous
 62
    92
370
    13
100
AcDbLine
 10
3309.448979823226
 20
3136.196381323258
 30
0.0
 11
3277.791962254922
 21
3104.539363754954
 31
0.0
  0
LINE
  5
3D1
330
1F
100
AcDbEntity
  8
0-3_仕上げ
  6
Continuous
 62
    92
370
    13
100
AcDbLine
 10
3313.67185952318
 20
3131.933979648975
 30
0.0
 11
3279.185304307632
 21
3097.447424433426
 31
0.0
  0
LINE
  5
3D2
330
1F
100
AcDbEntity
  8
0-3_仕上げ
  6
Continuous
 62
    92
370
    13
100
AcDbLine
 10
3317.197035305014
 20
3126.973874056569
 30
0.0
 11
3281.607950831405
 21
3091.38478958296
 31
0.0
  0
LINE
  5
3D3
330
1F
100
AcDbEntity
  8
0-3_仕上げ
  6
Continuous
 62
    92
370
    13
100
AcDbLine
 10
3319.958760030052
 20
3121.25031740737
 30
0.0
 11
3284.841734945928
 21
3086.133292323246
 31
0.0
  0
LINE
  5
3D4
330
1F
100
AcDbEntity
  8
0-3_仕上げ
  6
Continuous
 62
    92
370
    13
100
AcDbLine
 10
3321.799615774974
 20
3114.605891778054
 30
0.0
 11
3288.792646534963
 21
3081.598922538042
 31
0.0
  0
LINE
  5
3D5
330
1F
100
AcDbEntity
  8
0-3_仕上げ
  6
Continuous
 62
    92
370
    13
100
AcDbLine
 10
3322.350170675465
 20
3106.671165304305
 30
0.0
 11
3292.7956913398
 21
3077.11668596864
 31
0.0
  0
LINE
  5
3D6
330
1F
100
AcDbEntity
  8
0-3_仕上げ
  6
Continuous
 62
    92
370
    13
100
AcDbLine
 10
3320.439748676394
 20
3096.275461930997
 30
0.0
 11
3296.254979836695
 21
3072.090693091296
 31
0.0
  0
LINE
  5
3D7
330
1F
100
AcDbEntity
  8
0-3_仕上げ
  6
Continuous
 62
    40
370
    15
100
AcDbLine
 10
3272.369217699653
 20
3085.714319211992
 30
0.0
 11
3293.335580140106
 21
3064.747956771538
 31
0.0
  0
LINE
  5
3D8
330
1F
100
AcDbEntity
  8
0-3_仕上げ
  6
Continuous
 62
    40
370
    15
100
AcDbLine
 10
3260.507951842292
 20
3089.090303695114
 30
0.0
 11
3294.517098105171
 21
3055.081157432234
 31
0.0
  0
LINE
  5
3D9
330
1F
100
AcDbEntity
  8
0-3_仕上げ
  6
Continuous
 62
    40
370
    15
100
AcDbLine
 10
3251.796036474947
 20
3089.316937688222
 30
0.0
 11
3267.964268247755
 21
3073.148705915413
 31
0.0
  0
LINE
  5
3DA
330
1F
100
AcDbEntity
  8
0-3_仕上げ
  6
Continuous
 62
    40
370
    15
100
AcDbLine
 10
3238.223016368243
 20
3085.919395046448
 30
0.0
 11
3242.887774932687
 21
3081.254636482005
 31
0.0
  0
LINE
  5
3DB
330
1F
100
AcDbEntity
  8
0-3_仕上げ
  6
Continuous
 62
    40
370
    15
100
AcDbLine
 10
3244.526976847744
 20
3088.100715941186
 30
0.0
 11
3254.131705228792
 21
3078.495987560137
 31
0.0
  0
LINE
  5
3DC
330
1F
100
AcDbEntity
  8
0-3_仕上げ
  6
Continuous
 62
    40
370
    15
100
AcDbLine
 10
3319.412971986645
 20
3080.802133444165
 30
0.0
 11
3328.709301201966
 21
3071.505804228843
 31
0.0
  0
LINE
  5
3DD
330
1F
100
AcDbEntity
  8
0-3_仕上げ
  6
Continuous
 62
    40
370
    15
100
AcDbLine
 10
3314.912390899087
 20
3076.817433157483
 30
0.0
 11
3323.255098544416
 21
3068.474725512155
 31
0.0
  0
LINE
  5
3DE
330
1F
100
AcDbEntity
  8
0-3_仕上げ
  6
Continuous
 62
    40
370
    15
100
AcDbLine
 10
3311.021136439709
 20
3072.223406242623
 30
0.0
 11
3318.07248328711
 21
3065.172059395222
 31
0.0
  0
LINE
  5
3DF
330
1F
100
AcDbEntity
  8
0-3_仕上げ
  6
Continuous
 62
    40
370
    15
100
AcDbLine
 10
3307.761847036147
 20
3066.997414271947
 30
0.0
 11
3313.150850907251
 21
3061.608410400842
 31
0.0
  0
LINE
  5
3E0
330
1F
100
AcDbEntity
  8
0-3_仕上げ
  6
Continuous
 62
    40
370
    15
100
AcDbLine
 10
3305.204317051004
 20
3061.069662882851
 30
0.0
 11
3308.482883582647
 21
3057.791096351208
 31
0.0
  0
LINE
  5
3E1
330
1F
100
AcDbEntity
  8
0-3_仕上げ
  6
Continuous
 62
    40
370
    15
100
AcDbLine
 10
3354.241725506053
 20
3088.399786795949
 30
0.0
 11
3360.772151201308
 21
3081.869361100694
 31
0.0
  0
LINE
  5
3E2
330
1F
100
AcDbEntity
  8
0-3_仕上げ
  6
Continuous
 62
    40
370
    15
100
AcDbLine
 10
3344.71241100707
 20
3089.443819920694
 30
0.0
 11
3353.61609181012
 21
3080.540139117643
 31
0.0
  0
LINE
  5
3E3
330
1F
100
AcDbEntity
  8
0-3_仕上げ
  6
Continuous
 62
    40
370
    15
100
AcDbLine
 10
3336.985335932302
 20
3088.685613621222
 30
0.0
 11
3346.872841420689
 21
3078.798108132837
 31
0.0
  0
LINE
  5
3E4
330
1F
100
AcDbEntity
  8
0-3_仕上げ
  6
Continuous
 62
    40
370
    15
100
AcDbLine
 10
3330.353058482982
 20
3086.832609696304
 30
0.0
 11
3340.495528276542
 21
3076.690139902745
 31
0.0
  0
LINE
  5
3E5
330
1F
100
AcDbEntity
  8
0-3_仕上げ
  6
Continuous
 62
    40
370
    15
100
AcDbLine
 10
3324.539387267338
 20
3084.16099953771
 30
0.0
 11
3334.449628454604
 21
3074.250758350443
 31
0.0
  0
LINE
  5
3E6
330
1F
100
AcDbEntity
  8
0-3_仕上げ
  6
Continuous
 62
    92
370
    13
100
AcDbLine
 10
3026.999228297055
 20
3265.000148463892
 30
0.0
 11
3572.999228297055
 21
3265.000148463892
 31
0.0
  0
LINE
  5
3E7
330
1F
100
AcDbEntity
  8
0-3_仕上げ
  6
Continuous
 62
    92
370
    13
100
AcDbLine
 10
3026.999228297055
 20
2895.000148463892
 30
0.0
 11
3572.999228297055
 21
2895.000148463892
 31
0.0
  0
LINE
  5
3E8
330
1F
100
AcDbEntity
  8
0-3_仕上げ
  6
Continuous
 62
    92
370
    13
100
AcDbLine
 10
3026.999228297055
 20
2795.000148463892
 30
0.0
 11
3572.999228297055
 21
2795.000148463892
 31
0.0
  0
LINE
  5
3E9
330
1F
100
AcDbEntity
  8
0-3_仕上げ
  6
Continuous
 62
    92
370
    13
100
AcDbLine
 10
3026.999228297055
 20
2895.000148463892
 30
0.0
 11
3026.999228297055
 21
3265.000148463892
 31
0.0
  0
LINE
  5
3EA
330
1F
100
AcDbEntity
  8
0-3_仕上げ
  6
Continuous
 62
    92
370
    13
100
AcDbLine
 10
3572.999228297055
 20
2895.000148463892
 30
0.0
 11
3572.999228297055
 21
3265.000148463892
 31
0.0
  0
LINE
  5
3EB
330
1F
100
AcDbEntity
  8
0-3_仕上げ
  6
Continuous
 62
    92
370
    13
100
AcDbLine
 10
3302.999228297056
 20
3160.324023541088
 30
0.0
 11
3302.999228297056
 21
3265.000148463891
 31
0.0
  0
LINE
  5
3EC
330
1F
100
AcDbEntity
  8
0-3_仕上げ
  6
Continuous
 62
    92
370
    13
100
AcDbLine
 10
3296.999228297056
 20
3160.324023541088
 30
0.0
 11
3296.999228297056
 21
3265.000148463891
 31
0.0
  0
ARC
  5
3ED
330
1F
100
AcDbEntity
  8
0-3_仕上げ
  6
JWW_CENTER1
 62
    92
370
    13
100
AcDbCircle
 10
3224.005807344091
 20
2980.000148680311
 30
0.0
 40
100.0
100
AcDbArc
 50
40.54160171033374
 51
90.00376951628597
  0
ARC
  5
3EE
330
1F
100
AcDbEntity
  8
0-3_仕上げ
  6
JWW_CENTER1
 62
    92
370
    13
100
AcDbCircle
 10
3255.065659069659
 20
3047.444398141543
 30
0.0
 40
45.0
100
AcDbArc
 50
3.113647660734046
 51
133.6590188873627
  0
ARC
  5
3EF
330
1F
100
AcDbEntity
  8
0-3_仕上げ
  6
JWW_CENTER1
 62
    92
370
    13
100
AcDbCircle
 10
3344.932797524454
 20
3047.444398141543
 30
0.0
 40
45.0
100
AcDbArc
 50
46.34098111263735
 51
176.886352339266
  0
ARC
  5
3F0
330
1F
100
AcDbEntity
  8
0-3_仕上げ
  6
JWW_CENTER1
 62
    92
370
    13
100
AcDbCircle
 10
3375.99264925002
 20
2980.000148680311
 30
0.0
 40
100.0
100
AcDbArc
 50
89.99623048371403
 51
139.4583982896663
  0
ARC
  5
3F1
330
1F
100
AcDbEntity
  8
0-3_仕上げ
  6
JWW_CENTER1
 62
    92
370
    13
100
AcDbCircle
 10
3334.742499083105
 20
3164.555469521756
 30
0.0
 40
35.0
100
AcDbArc
 50
186.9439578850277
 51
228.8372333122856
  0
ARC
  5
3F2
330
1F
100
AcDbEntity
  8
0-3_仕上げ
  6
JWW_CENTER1
 62
    92
370
    13
100
AcDbCircle
 10
3285.377471420114
 20
3108.092259873064
 30
0.0
 40
40.0
100
AcDbArc
 50
314.4792487798384
 51
48.83723331228539
  0
ARC
  5
3F3
330
1F
100
AcDbEntity
  8
0-3_仕上げ
  6
JWW_CENTER1
 62
    92
370
    13
100
AcDbCircle
 10
3265.255957511008
 20
3164.555469521756
 30
0.0
 40
35.0
100
AcDbArc
 50
311.1627666877145
 51
353.0560421149723
  0
ARC
  5
3F4
330
1F
100
AcDbEntity
  8
0-3_仕上げ
  6
JWW_CENTER1
 62
    92
370
    13
100
AcDbCircle
 10
3314.620985173999
 20
3108.092259873064
 30
0.0
 40
40.0
100
AcDbArc
 50
131.1627666877146
 51
225.5207512201617
  0
LINE
  5
3F5
330
1F
100
AcDbEntity
  8
0-3_仕上げ
  6
JWW_CENTER1
 62
    92
370
    13
100
AcDbLine
 10
3299.999228297056
 20
3160.324023541088
 30
0.0
 11
3299.999228297056
 21
3265.000148463891
 31
0.0
  0
LINE
  5
3F6
330
1F
100
AcDbEntity
  8
0-3_仕上げ
  6
JWW_CENTER1
 62
    92
370
    13
100
AcDbLine
 10
3299.999228297056
 20
2895.000148463892
 30
0.0
 11
3299.999228297056
 21
3049.888647819188
 31
0.0
  0
ARC
  5
3F7
330
1F
100
AcDbEntity
  8
0-3_仕上げ
  6
Continuous
 62
    92
370
    13
100
AcDbCircle
 10
3285.377471420114
 20
3108.092259873064
 30
0.0
 40
37.0
100
AcDbArc
 50
314.4792487798384
 51
48.83723331228539
  0
ARC
  5
3F8
330
1F
100
AcDbEntity
  8
0-3_仕上げ
  6
Continuous
 62
    92
370
    13
100
AcDbCircle
 10
3334.742499083105
 20
3164.555469521756
 30
0.0
 40
32.0
100
AcDbArc
 50
186.9439578850277
 51
228.8372333122856
  0
ARC
  5
3F9
330
1F
100
AcDbEntity
  8
0-3_仕上げ
  6
Continuous
 62
    92
370
    13
100
AcDbCircle
 10
3265.255957511008
 20
3164.555469521756
 30
0.0
 40
32.0
100
AcDbArc
 50
311.1627666877145
 51
353.0560421149723
  0
ARC
  5
3FA
330
1F
100
AcDbEntity
  8
0-3_仕上げ
  6
Continuous
 62
    92
370
    13
100
AcDbCircle
 10
3314.620985173999
 20
3108.092259873064
 30
0.0
 40
37.0
100
AcDbArc
 50
131.1627666877146
 51
225.5207512201617
  0
ARC
  5
3FB
330
1F
100
AcDbEntity
  8
0-3_仕上げ
  6
Continuous
 62
    92
370
    13
100
AcDbCircle
 10
3224.005807344091
 20
2980.000148680311
 30
0.0
 40
103.0
100
AcDbArc
 50
45.10773387316914
 51
85.43763735345068
  0
ARC
  5
3FC
330
1F
100
AcDbEntity
  8
0-3_仕上げ
  6
Continuous
 62
    92
370
    13
100
AcDbCircle
 10
3255.065659069659
 20
3047.444398141543
 30
0.0
 40
42.0
100
AcDbArc
 50
7.558436535392484
 51
122.9869346912273
  0
ARC
  5
3FD
330
1F
100
AcDbEntity
  8
0-3_仕上げ
  6
Continuous
 62
    92
370
    13
100
AcDbCircle
 10
3224.005807344091
 20
2980.000148680311
 30
0.0
 40
97.00000000000001
100
AcDbArc
 50
41.19177185484618
 51
90.00376951628597
  0
LINE
  5
3FE
330
1F
100
AcDbEntity
  8
0-3_仕上げ
  6
Continuous
 62
    92
370
    13
100
AcDbLine
 10
3296.999228297056
 20
2895.000148463892
 30
0.0
 11
3296.999228297056
 21
3043.882544515027
 31
0.0
  0
LINE
  5
3FF
330
1F
100
AcDbEntity
  8
0-3_仕上げ
  6
Continuous
 62
    92
370
    13
100
AcDbLine
 10
3302.999228297056
 20
2895.000148463892
 30
0.0
 11
3302.999228297056
 21
3043.882544515026
 31
0.0
  0
ARC
  5
400
330
1F
100
AcDbEntity
  8
0-3_仕上げ
  6
Continuous
 62
    92
370
    13
100
AcDbCircle
 10
3314.620985173999
 20
3108.092259873064
 30
0.0
 40
43.0
100
AcDbArc
 50
131.1627666877146
 51
203.3599080664725
  0
ARC
  5
401
330
1F
100
AcDbEntity
  8
0-3_仕上げ
  6
Continuous
 62
    92
370
    13
100
AcDbCircle
 10
3285.377471420114
 20
3108.092259873064
 30
0.0
 40
43.0
100
AcDbArc
 50
336.6400919335275
 51
48.83723331228539
  0
ARC
  5
402
330
1F
100
AcDbEntity
  8
0-3_仕上げ
  6
Continuous
 62
    92
370
    13
100
AcDbCircle
 10
3375.99264925002
 20
2980.000148680311
 30
0.0
 40
97.00000000000001
100
AcDbArc
 50
90.0
 51
138.8082281451543
  0
ARC
  5
403
330
1F
100
AcDbEntity
  8
0-3_仕上げ
  6
Continuous
 62
    92
370
    13
100
AcDbCircle
 10
3344.932797524454
 20
3047.444398141543
 30
0.0
 40
42.0
100
AcDbArc
 50
57.01306530877268
 51
172.4415634646074
  0
ARC
  5
404
330
1F
100
AcDbEntity
  8
0-3_仕上げ
  6
Continuous
 62
    92
370
    13
100
AcDbCircle
 10
3375.99264925002
 20
2980.000148680311
 30
0.0
 40
103.0
100
AcDbArc
 50
94.56236264654935
 51
134.8922661268309
  0
ARC
  5
405
330
1F
100
AcDbEntity
  8
0-3_仕上げ
  6
Continuous
 62
    92
370
    13
100
AcDbCircle
 10
3265.255957511008
 20
3164.555469521756
 30
0.0
 40
38.0
100
AcDbArc
 50
311.1627666877145
 51
336.1060315563597
  0
ARC
  5
406
330
1F
100
AcDbEntity
  8
0-3_仕上げ
  6
Continuous
 62
    92
370
    13
100
AcDbCircle
 10
3334.742499083105
 20
3164.555469521756
 30
0.0
 40
38.0
100
AcDbArc
 50
203.8939684436403
 51
228.8372333122856
  0
ARC
  5
407
330
1F
100
AcDbEntity
  8
0-3_仕上げ
  6
Continuous
 62
    92
370
    13
100
AcDbCircle
 10
3255.065659069659
 20
3047.444398141543
 30
0.0
 40
48.00000000000001
100
AcDbArc
 50
20.59079892749086
 51
45.52075122016139
  0
ARC
  5
408
330
1F
100
AcDbEntity
  8
0-3_仕上げ
  6
Continuous
 62
    92
370
    13
100
AcDbCircle
 10
3255.065659069659
 20
3047.444398141543
 30
0.0
 40
48.00000000000001
100
AcDbArc
 50
65.27067401580403
 51
132.2051003340379
  0
ARC
  5
409
330
1F
100
AcDbEntity
  8
0-3_仕上げ
  6
Continuous
 62
    92
370
    13
100
AcDbCircle
 10
3344.932797524454
 20
3047.444398141543
 30
0.0
 40
48.00000000000001
100
AcDbArc
 50
47.79489966596212
 51
114.729325984196
  0
ARC
  5
40A
330
1F
100
AcDbEntity
  8
0-3_仕上げ
  6
Continuous
 62
    92
370
    13
100
AcDbCircle
 10
3344.932797524454
 20
3047.444398141543
 30
0.0
 40
48.00000000000001
100
AcDbArc
 50
134.4792487798386
 51
159.4092010725091
  0
LINE
  5
40B
330
1F
100
AcDbEntity
  8
0-3_仕上げ
  6
Continuous
 62
    92
370
    13
100
AcDbLine
 10
3156.999228297056
 20
2895.000148463892
 30
0.0
 11
3156.999228297056
 21
3265.000148463891
 31
0.0
  0
LINE
  5
40C
330
1F
100
AcDbEntity
  8
0-3_仕上げ
  6
JWW_CENTER1
 62
    92
370
    13
100
AcDbLine
 10
3159.999228297056
 20
2895.000148463892
 30
0.0
 11
3159.999228297056
 21
3265.000148463891
 31
0.0
  0
LINE
  5
40D
330
1F
100
AcDbEntity
  8
0-3_仕上げ
  6
Continuous
 62
    92
370
    13
100
AcDbLine
 10
3162.999228297055
 20
2895.000148463892
 30
0.0
 11
3162.999228297055
 21
3265.000148463891
 31
0.0
  0
LINE
  5
40E
330
1F
100
AcDbEntity
  8
0-3_仕上げ
  6
Continuous
 62
    92
370
    13
100
AcDbLine
 10
3436.999228297056
 20
2895.000148463892
 30
0.0
 11
3436.999228297056
 21
3265.000148463891
 31
0.0
  0
LINE
  5
40F
330
1F
100
AcDbEntity
  8
0-3_仕上げ
  6
JWW_CENTER1
 62
    92
370
    13
100
AcDbLine
 10
3439.999228297056
 20
2895.000148463892
 30
0.0
 11
3439.999228297056
 21
3265.000148463891
 31
0.0
  0
LINE
  5
410
330
1F
100
AcDbEntity
  8
0-3_仕上げ
  6
Continuous
 62
    92
370
    13
100
AcDbLine
 10
3442.999228297056
 20
2895.000148463892
 30
0.0
 11
3442.999228297056
 21
3265.000148463891
 31
0.0
  0
LINE
  5
411
330
1F
100
AcDbEntity
  8
0-3_仕上げ
  6
Continuous
 62
    92
370
    13
100
AcDbLine
 10
3377.178551028052
 20
3083.000148463892
 30
0.0
 11
3572.999228297055
 21
3083.000148463892
 31
0.0
  0
LINE
  5
412
330
1F
100
AcDbEntity
  8
0-3_仕上げ
  6
JWW_CENTER1
 62
    92
370
    13
100
AcDbLine
 10
3375.999228297056
 20
3080.000148463892
 30
0.0
 11
3572.999228297055
 21
3080.000148463892
 31
0.0
  0
LINE
  5
413
330
1F
100
AcDbEntity
  8
0-3_仕上げ
  6
Continuous
 62
    92
370
    13
100
AcDbLine
 10
3375.99264925002
 20
3077.000148463892
 30
0.0
 11
3572.999228297055
 21
3077.000148463892
 31
0.0
  0
LINE
  5
414
330
1F
100
AcDbEntity
  8
0-3_仕上げ
  6
Continuous
 62
    92
370
    13
100
AcDbLine
 10
3026.999228297055
 20
3077.000148463892
 30
0.0
 11
3223.999228297056
 21
3077.000148463892
 31
0.0
  0
LINE
  5
415
330
1F
100
AcDbEntity
  8
0-3_仕上げ
  6
JWW_CENTER1
 62
    92
370
    13
100
AcDbLine
 10
3026.999228297055
 20
3080.000148463892
 30
0.0
 11
3223.999228297056
 21
3080.000148463892
 31
0.0
  0
LINE
  5
416
330
1F
100
AcDbEntity
  8
0-3_仕上げ
  6
Continuous
 62
    92
370
    13
100
AcDbLine
 10
3026.999228297055
 20
3083.000148463892
 30
0.0
 11
3222.81990556606
 21
3083.000148463892
 31
0.0
  0
LINE
  5
417
330
1F
100
AcDbEntity
  8
0-3_仕上げ
  6
Continuous
 62
    92
370
    13
100
AcDbLine
 10
3026.999228297055
 20
1620.000148463892
 30
0.0
 11
3572.999228297055
 21
1620.000148463892
 31
0.0
  0
LINE
  5
418
330
1F
100
AcDbEntity
  8
0-3_仕上げ
  6
Continuous
 62
    92
370
    13
100
AcDbLine
 10
3026.999228297055
 20
1620.000148463892
 30
0.0
 11
3026.999228297055
 21
2795.000148463892
 31
0.0
  0
LINE
  5
419
330
1F
100
AcDbEntity
  8
0-3_仕上げ
  6
Continuous
 62
    92
370
    13
100
AcDbLine
 10
3572.999228297055
 20
1620.000148463892
 30
0.0
 11
3572.999228297055
 21
2795.000148463892
 31
0.0
  0
LINE
  5
41A
330
1F
100
AcDbEntity
  8
0-3_仕上げ
  6
Continuous
 62
     7
370
     9
100
AcDbLine
 10
-3374.000269606306
 20
-2693.250083820243
 30
0.0
 11
-3374.000269606306
 21
-2509.250083820243
 31
0.0
  0
LINE
  5
41B
330
1F
100
AcDbEntity
  8
0-3_仕上げ
  6
Continuous
 62
    92
370
    13
100
AcDbLine
 10
-3373.000269606307
 20
-1918.250083820242
 30
0.0
 11
-3373.000269606307
 21
-2505.250083820243
 31
0.0
  0
LINE
  5
41C
330
1F
100
AcDbEntity
  8
0-3_仕上げ
  6
Continuous
 62
    92
370
    13
100
AcDbLine
 10
-3373.000269606307
 20
-1818.250083820242
 30
0.0
 11
-3373.000269606307
 21
-860.2500838202428
 31
0.0
  0
LINE
  5
41D
330
1F
100
AcDbEntity
  8
0-3_仕上げ
  6
Continuous
 62
    92
370
    13
100
AcDbLine
 10
-2827.000269606308
 20
-2505.250083820243
 30
0.0
 11
-3373.000269606307
 21
-2505.250083820243
 31
0.0
  0
LINE
  5
41E
330
1F
100
AcDbEntity
  8
0-3_仕上げ
  6
Continuous
 62
    92
370
    13
100
AcDbLine
 10
-2827.000269606308
 20
-860.2500838202428
 30
0.0
 11
-3373.000269606307
 21
-860.2500838202428
 31
0.0
  0
LINE
  5
41F
330
1F
100
AcDbEntity
  8
0-3_仕上げ
  6
Continuous
 62
     7
370
     9
100
AcDbLine
 10
-2826.000269606307
 20
-2693.250083820243
 30
0.0
 11
-2826.000269606307
 21
-2509.250083820243
 31
0.0
  0
LINE
  5
420
330
1F
100
AcDbEntity
  8
0-3_仕上げ
  6
Continuous
 62
    92
370
    13
100
AcDbLine
 10
-2827.000269606308
 20
-1818.250083820242
 30
0.0
 11
-3373.000269606307
 21
-1818.250083820242
 31
0.0
  0
LINE
  5
421
330
1F
100
AcDbEntity
  8
0-3_仕上げ
  6
Continuous
 62
    92
370
    13
100
AcDbLine
 10
-3373.000269606307
 20
-1918.250083820242
 30
0.0
 11
-2827.000269606308
 21
-1918.250083820242
 31
0.0
  0
LINE
  5
422
330
1F
100
AcDbEntity
  8
0-3_仕上げ
  6
Continuous
 62
    92
370
    13
100
AcDbLine
 10
-2827.000269606308
 20
-1918.250083820242
 30
0.0
 11
-2827.000269606308
 21
-2505.250083820243
 31
0.0
  0
LINE
  5
423
330
1F
100
AcDbEntity
  8
0-3_仕上げ
  6
Continuous
 62
    92
370
    13
100
AcDbLine
 10
-2827.000269606308
 20
-1818.250083820242
 30
0.0
 11
-2827.000269606308
 21
-860.2500838202428
 31
0.0
  0
LINE
  5
424
330
1F
100
AcDbEntity
  8
0-3_仕上げ
  6
Continuous
 62
     7
370
     9
100
AcDbLine
 10
-2826.000269606307
 20
-1914.250083820242
 30
0.0
 11
-2826.000269606307
 21
-1822.250083820243
 31
0.0
  0
LINE
  5
425
330
1F
100
AcDbEntity
  8
0-3_仕上げ
  6
Continuous
 62
     7
370
     9
100
AcDbLine
 10
-2826.000269606307
 20
-856.2500838202426
 30
0.0
 11
-3374.000269606306
 21
-856.2500838202426
 31
0.0
  0
LINE
  5
426
330
1F
100
AcDbEntity
  8
0-3_仕上げ
  6
Continuous
 62
     7
370
     9
100
AcDbLine
 10
-3375.500269606306
 20
-1915.750083820242
 30
0.0
 11
-3375.500269606306
 21
-1820.750083820242
 31
0.0
  0
LINE
  5
427
330
1F
100
AcDbEntity
  8
0-3_仕上げ
  6
Continuous
 62
     7
370
     9
100
AcDbLine
 10
-3374.000269606306
 20
-1914.250083820242
 30
0.0
 11
-3374.000269606306
 21
-1822.250083820243
 31
0.0
  0
LINE
  5
428
330
1F
100
AcDbEntity
  8
0-3_仕上げ
  6
Continuous
 62
     7
370
     9
100
AcDbLine
 10
-3374.000269606306
 20
-1914.250083820242
 30
0.0
 11
-2826.000269606307
 21
-1914.250083820242
 31
0.0
  0
LINE
  5
429
330
1F
100
AcDbEntity
  8
0-3_仕上げ
  6
Continuous
 62
     7
370
     9
100
AcDbLine
 10
-2824.500269606307
 20
-1915.750083820242
 30
0.0
 11
-2824.500269606307
 21
-1820.750083820242
 31
0.0
  0
LINE
  5
42A
330
1F
100
AcDbEntity
  8
0-3_仕上げ
  6
Continuous
 62
     7
370
     9
100
AcDbLine
 10
-2826.000269606307
 20
-1822.250083820243
 30
0.0
 11
-3374.000269606306
 21
-1822.250083820243
 31
0.0
  0
LINE
  5
42B
330
1F
100
AcDbEntity
  8
0-3_仕上げ
  6
Continuous
 62
     7
370
     9
100
AcDbLine
 10
-2824.500269606307
 20
-2693.250083820243
 30
0.0
 11
-2824.500269606307
 21
-2507.750083820243
 31
0.0
  0
LINE
  5
42C
330
1F
100
AcDbEntity
  8
0-3_仕上げ
  6
Continuous
 62
     7
370
     9
100
AcDbLine
 10
-2826.000269606307
 20
-2509.250083820243
 30
0.0
 11
-3374.000269606306
 21
-2509.250083820243
 31
0.0
  0
LINE
  5
42D
330
1F
100
AcDbEntity
  8
0-3_仕上げ
  6
Continuous
 62
     7
370
     9
100
AcDbLine
 10
-3375.500269606306
 20
-2693.250083820243
 30
0.0
 11
-3375.500269606306
 21
-2507.750083820243
 31
0.0
  0
LINE
  5
42E
330
1F
100
AcDbEntity
  8
0-3_仕上げ
  6
Continuous
 62
     7
370
     9
100
AcDbLine
 10
-3374.000269606306
 20
-1914.250083820242
 30
0.0
 11
-3375.500269606306
 21
-1915.750083820242
 31
0.0
  0
LINE
  5
42F
330
1F
100
AcDbEntity
  8
0-3_仕上げ
  6
Continuous
 62
     7
370
     9
100
AcDbLine
 10
-3374.000269606306
 20
-856.2500838202426
 30
0.0
 11
-3375.500269606306
 21
-857.7500838202429
 31
0.0
  0
LINE
  5
430
330
1F
100
AcDbEntity
  8
0-3_仕上げ
  6
Continuous
 62
     7
370
     9
100
AcDbLine
 10
-2826.000269606307
 20
-856.2500838202426
 30
0.0
 11
-2824.500269606307
 21
-857.7500838202429
 31
0.0
  0
LINE
  5
431
330
1F
100
AcDbEntity
  8
0-3_仕上げ
  6
Continuous
 62
     7
370
     9
100
AcDbLine
 10
-2824.500269606307
 20
-857.7500838202429
 30
0.0
 11
-2827.000269606308
 21
-860.2500838202428
 31
0.0
  0
LINE
  5
432
330
1F
100
AcDbEntity
  8
0-3_仕上げ
  6
Continuous
 62
     7
370
     9
100
AcDbLine
 10
-3373.000269606307
 20
-860.2500838202428
 30
0.0
 11
-3375.500269606306
 21
-857.7500838202429
 31
0.0
  0
LINE
  5
433
330
1F
100
AcDbEntity
  8
0-3_仕上げ
  6
Continuous
 62
     7
370
     9
100
AcDbLine
 10
-3374.000269606306
 20
-1822.250083820243
 30
0.0
 11
-3375.500269606306
 21
-1820.750083820242
 31
0.0
  0
LINE
  5
434
330
1F
100
AcDbEntity
  8
0-3_仕上げ
  6
Continuous
 62
     7
370
     9
100
AcDbLine
 10
-3375.500269606306
 20
-1820.750083820242
 30
0.0
 11
-3373.000269606307
 21
-1818.250083820242
 31
0.0
  0
LINE
  5
435
330
1F
100
AcDbEntity
  8
0-3_仕上げ
  6
Continuous
 62
     7
370
     9
100
AcDbLine
 10
-3373.000269606307
 20
-1918.250083820242
 30
0.0
 11
-3375.500269606306
 21
-1915.750083820242
 31
0.0
  0
LINE
  5
436
330
1F
100
AcDbEntity
  8
0-3_仕上げ
  6
Continuous
 62
     7
370
     9
100
AcDbLine
 10
-2826.000269606307
 20
-1914.250083820242
 30
0.0
 11
-2824.500269606307
 21
-1915.750083820242
 31
0.0
  0
LINE
  5
437
330
1F
100
AcDbEntity
  8
0-3_仕上げ
  6
Continuous
 62
     7
370
     9
100
AcDbLine
 10
-2824.500269606307
 20
-1915.750083820242
 30
0.0
 11
-2827.000269606308
 21
-1918.250083820242
 31
0.0
  0
LINE
  5
438
330
1F
100
AcDbEntity
  8
0-3_仕上げ
  6
Continuous
 62
     7
370
     9
100
AcDbLine
 10
-2827.000269606308
 20
-1818.250083820242
 30
0.0
 11
-2824.500269606307
 21
-1820.750083820242
 31
0.0
  0
LINE
  5
439
330
1F
100
AcDbEntity
  8
0-3_仕上げ
  6
Continuous
 62
     7
370
     9
100
AcDbLine
 10
-2826.000269606307
 20
-1822.250083820243
 30
0.0
 11
-2824.500269606307
 21
-1820.750083820242
 31
0.0
  0
LINE
  5
43A
330
1F
100
AcDbEntity
  8
0-3_仕上げ
  6
Continuous
 62
     7
370
     9
100
AcDbLine
 10
-2827.000269606308
 20
-2505.250083820243
 30
0.0
 11
-2824.500269606307
 21
-2507.750083820243
 31
0.0
  0
LINE
  5
43B
330
1F
100
AcDbEntity
  8
0-3_仕上げ
  6
Continuous
 62
     7
370
     9
100
AcDbLine
 10
-2826.000269606307
 20
-2509.250083820243
 30
0.0
 11
-2824.500269606307
 21
-2507.750083820243
 31
0.0
  0
LINE
  5
43C
330
1F
100
AcDbEntity
  8
0-3_仕上げ
  6
Continuous
 62
     7
370
     9
100
AcDbLine
 10
-3374.000269606306
 20
-2509.250083820243
 30
0.0
 11
-3375.500269606306
 21
-2507.750083820243
 31
0.0
  0
LINE
  5
43D
330
1F
100
AcDbEntity
  8
0-3_仕上げ
  6
Continuous
 62
     7
370
     9
100
AcDbLine
 10
-3375.500269606306
 20
-2507.750083820243
 30
0.0
 11
-3373.000269606307
 21
-2505.250083820243
 31
0.0
  0
LINE
  5
43E
330
1F
100
AcDbEntity
  8
0-3_仕上げ
  6
Continuous
 62
     7
370
     9
100
AcDbLine
 10
-2823.000269606307
 20
-2693.250083820243
 30
0.0
 11
-2823.000269606307
 21
-710.2500838202428
 31
0.0
  0
LINE
  5
43F
330
1F
100
AcDbEntity
  8
0-3_仕上げ
  6
Continuous
 62
     7
370
     9
100
AcDbLine
 10
-3377.000269606306
 20
-2693.250083820243
 30
0.0
 11
-3377.000269606306
 21
-710.2500838202428
 31
0.0
  0
LINE
  5
440
330
1F
100
AcDbEntity
  8
0-3_仕上げ
  6
Continuous
 62
     7
370
     9
100
AcDbLine
 10
-2826.000269606307
 20
-856.2500838202426
 30
0.0
 11
-2826.000269606307
 21
-710.2500838202428
 31
0.0
  0
LINE
  5
441
330
1F
100
AcDbEntity
  8
0-3_仕上げ
  6
Continuous
 62
     7
370
     9
100
AcDbLine
 10
-2824.500269606307
 20
-857.7500838202429
 30
0.0
 11
-2824.500269606307
 21
-710.2500838202428
 31
0.0
  0
LINE
  5
442
330
1F
100
AcDbEntity
  8
0-3_仕上げ
  6
Continuous
 62
     7
370
     9
100
AcDbLine
 10
-3375.500269606306
 20
-857.7500838202429
 30
0.0
 11
-3375.500269606306
 21
-710.2500838202428
 31
0.0
  0
LINE
  5
443
330
1F
100
AcDbEntity
  8
0-3_仕上げ
  6
Continuous
 62
     7
370
     9
100
AcDbLine
 10
-3374.000269606306
 20
-856.2500838202426
 30
0.0
 11
-3374.000269606306
 21
-710.2500838202428
 31
0.0
  0
LINE
  5
444
330
1F
100
AcDbEntity
  8
0-3_仕上げ
  6
Continuous
 62
     7
370
     9
100
AcDbLine
 10
-2564.000269606304
 20
-2693.250083820243
 30
0.0
 11
-2564.000269606304
 21
-2509.250083820243
 31
0.0
  0
LINE
  5
445
330
1F
100
AcDbEntity
  8
0-3_仕上げ
  6
Continuous
 62
    92
370
    13
100
AcDbLine
 10
-2563.000269606305
 20
-1918.250083820242
 30
0.0
 11
-2563.000269606305
 21
-2505.250083820243
 31
0.0
  0
LINE
  5
446
330
1F
100
AcDbEntity
  8
0-3_仕上げ
  6
Continuous
 62
    92
370
    13
100
AcDbLine
 10
-2563.000269606305
 20
-1818.250083820242
 30
0.0
 11
-2563.000269606305
 21
-860.2500838202428
 31
0.0
  0
LINE
  5
447
330
1F
100
AcDbEntity
  8
0-3_仕上げ
  6
Continuous
 62
    92
370
    13
100
AcDbLine
 10
-2017.000269606305
 20
-2505.250083820243
 30
0.0
 11
-2563.000269606305
 21
-2505.250083820243
 31
0.0
  0
LINE
  5
448
330
1F
100
AcDbEntity
  8
0-3_仕上げ
  6
Continuous
 62
    92
370
    13
100
AcDbLine
 10
-2017.000269606305
 20
-860.2500838202428
 30
0.0
 11
-2563.000269606305
 21
-860.2500838202428
 31
0.0
  0
LINE
  5
449
330
1F
100
AcDbEntity
  8
0-3_仕上げ
  6
Continuous
 62
     7
370
     9
100
AcDbLine
 10
-2016.000269606306
 20
-2693.250083820243
 30
0.0
 11
-2016.000269606306
 21
-2509.250083820243
 31
0.0
  0
LINE
  5
44A
330
1F
100
AcDbEntity
  8
0-3_仕上げ
  6
Continuous
 62
    92
370
    13
100
AcDbLine
 10
-2017.000269606305
 20
-1818.250083820242
 30
0.0
 11
-2563.000269606305
 21
-1818.250083820242
 31
0.0
  0
LINE
  5
44B
330
1F
100
AcDbEntity
  8
0-3_仕上げ
  6
Continuous
 62
    92
370
    13
100
AcDbLine
 10
-2563.000269606305
 20
-1918.250083820242
 30
0.0
 11
-2017.000269606305
 21
-1918.250083820242
 31
0.0
  0
LINE
  5
44C
330
1F
100
AcDbEntity
  8
0-3_仕上げ
  6
Continuous
 62
    92
370
    13
100
AcDbLine
 10
-2017.000269606305
 20
-1918.250083820242
 30
0.0
 11
-2017.000269606305
 21
-2505.250083820243
 31
0.0
  0
LINE
  5
44D
330
1F
100
AcDbEntity
  8
0-3_仕上げ
  6
Continuous
 62
    92
370
    13
100
AcDbLine
 10
-2017.000269606305
 20
-1818.250083820242
 30
0.0
 11
-2017.000269606305
 21
-860.2500838202428
 31
0.0
  0
LINE
  5
44E
330
1F
100
AcDbEntity
  8
0-3_仕上げ
  6
Continuous
 62
     7
370
     9
100
AcDbLine
 10
-2016.000269606306
 20
-1914.250083820242
 30
0.0
 11
-2016.000269606306
 21
-1822.250083820243
 31
0.0
  0
LINE
  5
44F
330
1F
100
AcDbEntity
  8
0-3_仕上げ
  6
Continuous
 62
     7
370
     9
100
AcDbLine
 10
-2016.000269606306
 20
-856.2500838202426
 30
0.0
 11
-2564.000269606304
 21
-856.2500838202426
 31
0.0
  0
LINE
  5
450
330
1F
100
AcDbEntity
  8
0-3_仕上げ
  6
Continuous
 62
     7
370
     9
100
AcDbLine
 10
-2565.500269606304
 20
-1915.750083820242
 30
0.0
 11
-2565.500269606304
 21
-1820.750083820242
 31
0.0
  0
LINE
  5
451
330
1F
100
AcDbEntity
  8
0-3_仕上げ
  6
Continuous
 62
     7
370
     9
100
AcDbLine
 10
-2564.000269606304
 20
-1914.250083820242
 30
0.0
 11
-2564.000269606304
 21
-1822.250083820243
 31
0.0
  0
LINE
  5
452
330
1F
100
AcDbEntity
  8
0-3_仕上げ
  6
Continuous
 62
     7
370
     9
100
AcDbLine
 10
-2564.000269606304
 20
-1914.250083820242
 30
0.0
 11
-2016.000269606306
 21
-1914.250083820242
 31
0.0
  0
LINE
  5
453
330
1F
100
AcDbEntity
  8
0-3_仕上げ
  6
Continuous
 62
     7
370
     9
100
AcDbLine
 10
-2014.500269606306
 20
-1915.750083820242
 30
0.0
 11
-2014.500269606306
 21
-1820.750083820242
 31
0.0
  0
LINE
  5
454
330
1F
100
AcDbEntity
  8
0-3_仕上げ
  6
Continuous
 62
     7
370
     9
100
AcDbLine
 10
-2016.000269606306
 20
-1822.250083820243
 30
0.0
 11
-2564.000269606304
 21
-1822.250083820243
 31
0.0
  0
LINE
  5
455
330
1F
100
AcDbEntity
  8
0-3_仕上げ
  6
Continuous
 62
     7
370
     9
100
AcDbLine
 10
-2014.500269606306
 20
-2693.250083820243
 30
0.0
 11
-2014.500269606306
 21
-2507.750083820243
 31
0.0
  0
LINE
  5
456
330
1F
100
AcDbEntity
  8
0-3_仕上げ
  6
Continuous
 62
     7
370
     9
100
AcDbLine
 10
-2016.000269606306
 20
-2509.250083820243
 30
0.0
 11
-2564.000269606304
 21
-2509.250083820243
 31
0.0
  0
LINE
  5
457
330
1F
100
AcDbEntity
  8
0-3_仕上げ
  6
Continuous
 62
     7
370
     9
100
AcDbLine
 10
-2565.500269606304
 20
-2693.250083820243
 30
0.0
 11
-2565.500269606304
 21
-2507.750083820243
 31
0.0
  0
LINE
  5
458
330
1F
100
AcDbEntity
  8
0-3_仕上げ
  6
Continuous
 62
     7
370
     9
100
AcDbLine
 10
-2564.000269606304
 20
-1914.250083820242
 30
0.0
 11
-2565.500269606304
 21
-1915.750083820242
 31
0.0
  0
LINE
  5
459
330
1F
100
AcDbEntity
  8
0-3_仕上げ
  6
Continuous
 62
     7
370
     9
100
AcDbLine
 10
-2564.000269606304
 20
-856.2500838202426
 30
0.0
 11
-2565.500269606304
 21
-857.7500838202429
 31
0.0
  0
LINE
  5
45A
330
1F
100
AcDbEntity
  8
0-3_仕上げ
  6
Continuous
 62
     7
370
     9
100
AcDbLine
 10
-2016.000269606306
 20
-856.2500838202426
 30
0.0
 11
-2014.500269606306
 21
-857.7500838202429
 31
0.0
  0
LINE
  5
45B
330
1F
100
AcDbEntity
  8
0-3_仕上げ
  6
Continuous
 62
     7
370
     9
100
AcDbLine
 10
-2014.500269606306
 20
-857.7500838202429
 30
0.0
 11
-2017.000269606305
 21
-860.2500838202428
 31
0.0
  0
LINE
  5
45C
330
1F
100
AcDbEntity
  8
0-3_仕上げ
  6
Continuous
 62
     7
370
     9
100
AcDbLine
 10
-2563.000269606305
 20
-860.2500838202428
 30
0.0
 11
-2565.500269606304
 21
-857.7500838202429
 31
0.0
  0
LINE
  5
45D
330
1F
100
AcDbEntity
  8
0-3_仕上げ
  6
Continuous
 62
     7
370
     9
100
AcDbLine
 10
-2564.000269606304
 20
-1822.250083820243
 30
0.0
 11
-2565.500269606304
 21
-1820.750083820242
 31
0.0
  0
LINE
  5
45E
330
1F
100
AcDbEntity
  8
0-3_仕上げ
  6
Continuous
 62
     7
370
     9
100
AcDbLine
 10
-2565.500269606304
 20
-1820.750083820242
 30
0.0
 11
-2563.000269606305
 21
-1818.250083820242
 31
0.0
  0
LINE
  5
45F
330
1F
100
AcDbEntity
  8
0-3_仕上げ
  6
Continuous
 62
     7
370
     9
100
AcDbLine
 10
-2563.000269606305
 20
-1918.250083820242
 30
0.0
 11
-2565.500269606304
 21
-1915.750083820242
 31
0.0
  0
LINE
  5
460
330
1F
100
AcDbEntity
  8
0-3_仕上げ
  6
Continuous
 62
     7
370
     9
100
AcDbLine
 10
-2016.000269606306
 20
-1914.250083820242
 30
0.0
 11
-2014.500269606306
 21
-1915.750083820242
 31
0.0
  0
LINE
  5
461
330
1F
100
AcDbEntity
  8
0-3_仕上げ
  6
Continuous
 62
     7
370
     9
100
AcDbLine
 10
-2014.500269606306
 20
-1915.750083820242
 30
0.0
 11
-2017.000269606305
 21
-1918.250083820242
 31
0.0
  0
LINE
  5
462
330
1F
100
AcDbEntity
  8
0-3_仕上げ
  6
Continuous
 62
     7
370
     9
100
AcDbLine
 10
-2017.000269606305
 20
-1818.250083820242
 30
0.0
 11
-2014.500269606306
 21
-1820.750083820242
 31
0.0
  0
LINE
  5
463
330
1F
100
AcDbEntity
  8
0-3_仕上げ
  6
Continuous
 62
     7
370
     9
100
AcDbLine
 10
-2016.000269606306
 20
-1822.250083820243
 30
0.0
 11
-2014.500269606306
 21
-1820.750083820242
 31
0.0
  0
LINE
  5
464
330
1F
100
AcDbEntity
  8
0-3_仕上げ
  6
Continuous
 62
     7
370
     9
100
AcDbLine
 10
-2017.000269606305
 20
-2505.250083820243
 30
0.0
 11
-2014.500269606306
 21
-2507.750083820243
 31
0.0
  0
LINE
  5
465
330
1F
100
AcDbEntity
  8
0-3_仕上げ
  6
Continuous
 62
     7
370
     9
100
AcDbLine
 10
-2016.000269606306
 20
-2509.250083820243
 30
0.0
 11
-2014.500269606306
 21
-2507.750083820243
 31
0.0
  0
LINE
  5
466
330
1F
100
AcDbEntity
  8
0-3_仕上げ
  6
Continuous
 62
     7
370
     9
100
AcDbLine
 10
-2564.000269606304
 20
-2509.250083820243
 30
0.0
 11
-2565.500269606304
 21
-2507.750083820243
 31
0.0
  0
LINE
  5
467
330
1F
100
AcDbEntity
  8
0-3_仕上げ
  6
Continuous
 62
     7
370
     9
100
AcDbLine
 10
-2565.500269606304
 20
-2507.750083820243
 30
0.0
 11
-2563.000269606305
 21
-2505.250083820243
 31
0.0
  0
LINE
  5
468
330
1F
100
AcDbEntity
  8
0-3_仕上げ
  6
Continuous
 62
     7
370
     9
100
AcDbLine
 10
-2013.000269606305
 20
-2693.250083820243
 30
0.0
 11
-2013.000269606305
 21
-710.2500838202428
 31
0.0
  0
LINE
  5
469
330
1F
100
AcDbEntity
  8
0-3_仕上げ
  6
Continuous
 62
     7
370
     9
100
AcDbLine
 10
-2567.000269606305
 20
-2693.250083820243
 30
0.0
 11
-2567.000269606305
 21
-710.2500838202428
 31
0.0
  0
LINE
  5
46A
330
1F
100
AcDbEntity
  8
0-3_仕上げ
  6
Continuous
 62
     7
370
     9
100
AcDbLine
 10
-2016.000269606306
 20
-856.2500838202426
 30
0.0
 11
-2016.000269606306
 21
-710.2500838202428
 31
0.0
  0
LINE
  5
46B
330
1F
100
AcDbEntity
  8
0-3_仕上げ
  6
Continuous
 62
     7
370
     9
100
AcDbLine
 10
-2014.500269606306
 20
-857.7500838202429
 30
0.0
 11
-2014.500269606306
 21
-710.2500838202428
 31
0.0
  0
LINE
  5
46C
330
1F
100
AcDbEntity
  8
0-3_仕上げ
  6
Continuous
 62
     7
370
     9
100
AcDbLine
 10
-2565.500269606304
 20
-857.7500838202429
 30
0.0
 11
-2565.500269606304
 21
-710.2500838202428
 31
0.0
  0
LINE
  5
46D
330
1F
100
AcDbEntity
  8
0-3_仕上げ
  6
Continuous
 62
     7
370
     9
100
AcDbLine
 10
-2564.000269606304
 20
-856.2500838202426
 30
0.0
 11
-2564.000269606304
 21
-710.2500838202428
 31
0.0
  0
LINE
  5
46E
330
1F
100
AcDbEntity
  8
0-3_仕上げ
  6
Continuous
 62
     7
370
     9
100
AcDbLine
 10
2212.999228297053
 20
-2693.250083820243
 30
0.0
 11
2212.999228297053
 21
-710.2500838202433
 31
0.0
  0
LINE
  5
46F
330
1F
100
AcDbEntity
  8
0-3_仕上げ
  6
Continuous
 62
     7
370
     9
100
AcDbLine
 10
2766.999228297053
 20
-2693.250083820243
 30
0.0
 11
2766.999228297053
 21
-710.2500838202433
 31
0.0
  0
LINE
  5
470
330
1F
100
AcDbEntity
  8
0-3_仕上げ
  6
Continuous
 62
     7
370
     9
100
AcDbLine
 10
2214.999228297054
 20
-1320.250083820243
 30
0.0
 11
2213.999228297054
 21
-1321.250083820242
 31
0.0
  0
LINE
  5
471
330
1F
100
AcDbEntity
  8
0-3_仕上げ
  6
Continuous
 62
     7
370
     9
100
AcDbLine
 10
2213.999228297054
 20
-1321.250083820242
 30
0.0
 11
2216.999228297053
 21
-1324.250083820243
 31
0.0
  0
LINE
  5
472
330
1F
100
AcDbEntity
  8
0-3_仕上げ
  6
Continuous
 62
     7
370
     9
100
AcDbLine
 10
2213.999228297054
 20
-1227.250083820242
 30
0.0
 11
2213.999228297054
 21
-1321.250083820242
 31
0.0
  0
LINE
  5
473
330
1F
100
AcDbEntity
  8
0-3_仕上げ
  6
Continuous
 62
     7
370
     9
100
AcDbLine
 10
2214.999228297054
 20
-1320.250083820243
 30
0.0
 11
2214.999228297054
 21
-1228.250083820242
 31
0.0
  0
LINE
  5
474
330
1F
100
AcDbEntity
  8
0-3_仕上げ
  6
Continuous
 62
     7
370
     9
100
AcDbLine
 10
2764.999228297053
 20
-1320.250083820243
 30
0.0
 11
2765.999228297054
 21
-1321.250083820242
 31
0.0
  0
LINE
  5
475
330
1F
100
AcDbEntity
  8
0-3_仕上げ
  6
Continuous
 62
     7
370
     9
100
AcDbLine
 10
2762.999228297053
 20
-1324.250083820243
 30
0.0
 11
2765.999228297054
 21
-1321.250083820242
 31
0.0
  0
LINE
  5
476
330
1F
100
AcDbEntity
  8
0-3_仕上げ
  6
Continuous
 62
     7
370
     9
100
AcDbLine
 10
2765.999228297054
 20
-1227.250083820242
 30
0.0
 11
2765.999228297054
 21
-1321.250083820242
 31
0.0
  0
LINE
  5
477
330
1F
100
AcDbEntity
  8
0-3_仕上げ
  6
Continuous
 62
     7
370
     9
100
AcDbLine
 10
2764.999228297053
 20
-1320.250083820243
 30
0.0
 11
2764.999228297053
 21
-1228.250083820242
 31
0.0
  0
LINE
  5
478
330
1F
100
AcDbEntity
  8
0-3_仕上げ
  6
Continuous
 62
     7
370
     9
100
AcDbLine
 10
2214.999228297054
 20
-1320.250083820243
 30
0.0
 11
2764.999228297053
 21
-1320.250083820243
 31
0.0
  0
LINE
  5
479
330
1F
100
AcDbEntity
  8
0-3_仕上げ
  6
Continuous
 62
     7
370
     9
100
AcDbLine
 10
2214.999228297054
 20
-850.2500838202425
 30
0.0
 11
2213.999228297054
 21
-851.2500838202425
 31
0.0
  0
LINE
  5
47A
330
1F
100
AcDbEntity
  8
0-3_仕上げ
  6
Continuous
 62
     7
370
     9
100
AcDbLine
 10
2213.999228297054
 20
-851.2500838202425
 30
0.0
 11
2216.999228297053
 21
-854.2500838202423
 31
0.0
  0
LINE
  5
47B
330
1F
100
AcDbEntity
  8
0-3_仕上げ
  6
Continuous
 62
     7
370
     9
100
AcDbLine
 10
2764.999228297053
 20
-850.2500838202425
 30
0.0
 11
2765.999228297054
 21
-851.2500838202425
 31
0.0
  0
LINE
  5
47C
330
1F
100
AcDbEntity
  8
0-3_仕上げ
  6
Continuous
 62
     7
370
     9
100
AcDbLine
 10
2762.999228297053
 20
-854.2500838202423
 30
0.0
 11
2765.999228297054
 21
-851.2500838202425
 31
0.0
  0
LINE
  5
47D
330
1F
100
AcDbEntity
  8
0-3_仕上げ
  6
Continuous
 62
     7
370
     9
100
AcDbLine
 10
2214.999228297054
 20
-850.2500838202425
 30
0.0
 11
2764.999228297053
 21
-850.2500838202425
 31
0.0
  0
LINE
  5
47E
330
1F
100
AcDbEntity
  8
0-3_仕上げ
  6
Continuous
 62
     7
370
     9
100
AcDbLine
 10
2213.999228297054
 20
-1227.250083820242
 30
0.0
 11
2216.999228297053
 21
-1224.250083820242
 31
0.0
  0
LINE
  5
47F
330
1F
100
AcDbEntity
  8
0-3_仕上げ
  6
Continuous
 62
     7
370
     9
100
AcDbLine
 10
2213.999228297054
 20
-1227.250083820242
 30
0.0
 11
2214.999228297054
 21
-1228.250083820242
 31
0.0
  0
LINE
  5
480
330
1F
100
AcDbEntity
  8
0-3_仕上げ
  6
Continuous
 62
     7
370
     9
100
AcDbLine
 10
2762.999228297053
 20
-1224.250083820242
 30
0.0
 11
2765.999228297054
 21
-1227.250083820242
 31
0.0
  0
LINE
  5
481
330
1F
100
AcDbEntity
  8
0-3_仕上げ
  6
Continuous
 62
     7
370
     9
100
AcDbLine
 10
2765.999228297054
 20
-1227.250083820242
 30
0.0
 11
2764.999228297053
 21
-1228.250083820242
 31
0.0
  0
LINE
  5
482
330
1F
100
AcDbEntity
  8
0-3_仕上げ
  6
Continuous
 62
     7
370
     9
100
AcDbLine
 10
2214.999228297054
 20
-1228.250083820242
 30
0.0
 11
2764.999228297053
 21
-1228.250083820242
 31
0.0
  0
LINE
  5
483
330
1F
100
AcDbEntity
  8
0-3_仕上げ
  6
Continuous
 62
     7
370
     9
100
AcDbLine
 10
2213.999228297054
 20
-2502.250083820242
 30
0.0
 11
2216.999228297053
 21
-2499.250083820242
 31
0.0
  0
LINE
  5
484
330
1F
100
AcDbEntity
  8
0-3_仕上げ
  6
Continuous
 62
     7
370
     9
100
AcDbLine
 10
2213.999228297054
 20
-2502.250083820242
 30
0.0
 11
2214.999228297054
 21
-2503.250083820242
 31
0.0
  0
LINE
  5
485
330
1F
100
AcDbEntity
  8
0-3_仕上げ
  6
Continuous
 62
     7
370
     9
100
AcDbLine
 10
2762.999228297053
 20
-2499.250083820242
 30
0.0
 11
2765.999228297054
 21
-2502.250083820242
 31
0.0
  0
LINE
  5
486
330
1F
100
AcDbEntity
  8
0-3_仕上げ
  6
Continuous
 62
     7
370
     9
100
AcDbLine
 10
2765.999228297054
 20
-2502.250083820242
 30
0.0
 11
2764.999228297053
 21
-2503.250083820242
 31
0.0
  0
LINE
  5
487
330
1F
100
AcDbEntity
  8
0-3_仕上げ
  6
Continuous
 62
     7
370
     9
100
AcDbLine
 10
2214.999228297054
 20
-2503.250083820242
 30
0.0
 11
2764.999228297053
 21
-2503.250083820242
 31
0.0
  0
LINE
  5
488
330
1F
100
AcDbEntity
  8
0-3_仕上げ
  6
Continuous
 62
     7
370
     9
100
AcDbLine
 10
2213.999228297054
 20
-2693.250083820243
 30
0.0
 11
2213.999228297054
 21
-2502.250083820242
 31
0.0
  0
LINE
  5
489
330
1F
100
AcDbEntity
  8
0-3_仕上げ
  6
Continuous
 62
     7
370
     9
100
AcDbLine
 10
2214.999228297054
 20
-2693.250083820243
 30
0.0
 11
2214.999228297054
 21
-2503.250083820242
 31
0.0
  0
LINE
  5
48A
330
1F
100
AcDbEntity
  8
0-3_仕上げ
  6
Continuous
 62
     7
370
     9
100
AcDbLine
 10
2764.999228297053
 20
-2693.250083820243
 30
0.0
 11
2764.999228297053
 21
-2503.250083820242
 31
0.0
  0
LINE
  5
48B
330
1F
100
AcDbEntity
  8
0-3_仕上げ
  6
Continuous
 62
     7
370
     9
100
AcDbLine
 10
2765.999228297054
 20
-2693.250083820243
 30
0.0
 11
2765.999228297054
 21
-2502.250083820242
 31
0.0
  0
LINE
  5
48C
330
1F
100
AcDbEntity
  8
0-3_仕上げ
  6
Continuous
 62
     7
370
     9
100
AcDbLine
 10
2214.999228297054
 20
-850.2500838202425
 30
0.0
 11
2214.999228297054
 21
-710.2500838202428
 31
0.0
  0
LINE
  5
48D
330
1F
100
AcDbEntity
  8
0-3_仕上げ
  6
Continuous
 62
     7
370
     9
100
AcDbLine
 10
2213.999228297054
 20
-851.2500838202425
 30
0.0
 11
2213.999228297054
 21
-710.2500838202428
 31
0.0
  0
LINE
  5
48E
330
1F
100
AcDbEntity
  8
0-3_仕上げ
  6
Continuous
 62
     7
370
     9
100
AcDbLine
 10
2764.999228297053
 20
-850.2500838202425
 30
0.0
 11
2764.999228297053
 21
-710.2500838202428
 31
0.0
  0
LINE
  5
48F
330
1F
100
AcDbEntity
  8
0-3_仕上げ
  6
Continuous
 62
     7
370
     9
100
AcDbLine
 10
2765.999228297054
 20
-851.2500838202425
 30
0.0
 11
2765.999228297054
 21
-710.2500838202428
 31
0.0
  0
LINE
  5
490
330
1F
100
AcDbEntity
  8
0-3_仕上げ
  6
Continuous
 62
    92
370
    13
100
AcDbLine
 10
2216.999228297053
 20
-1324.250083820243
 30
0.0
 11
2762.999228297053
 21
-1324.250083820243
 31
0.0
  0
LINE
  5
491
330
1F
100
AcDbEntity
  8
0-3_仕上げ
  6
Continuous
 62
    92
370
    13
100
AcDbLine
 10
2216.999228297053
 20
-854.2500838202423
 30
0.0
 11
2762.999228297053
 21
-854.2500838202423
 31
0.0
  0
LINE
  5
492
330
1F
100
AcDbEntity
  8
0-3_仕上げ
  6
Continuous
 62
    92
370
    13
100
AcDbLine
 10
2216.999228297053
 20
-1224.250083820242
 30
0.0
 11
2762.999228297053
 21
-1224.250083820242
 31
0.0
  0
LINE
  5
493
330
1F
100
AcDbEntity
  8
0-3_仕上げ
  6
Continuous
 62
    92
370
    13
100
AcDbLine
 10
2216.999228297053
 20
-1224.250083820242
 30
0.0
 11
2216.999228297053
 21
-854.2500838202423
 31
0.0
  0
LINE
  5
494
330
1F
100
AcDbEntity
  8
0-3_仕上げ
  6
Continuous
 62
    92
370
    13
100
AcDbLine
 10
2762.999228297053
 20
-1224.250083820242
 30
0.0
 11
2762.999228297053
 21
-854.2500838202423
 31
0.0
  0
LINE
  5
495
330
1F
100
AcDbEntity
  8
0-3_仕上げ
  6
Continuous
 62
    92
370
    13
100
AcDbLine
 10
2216.999228297053
 20
-2499.250083820242
 30
0.0
 11
2762.999228297053
 21
-2499.250083820242
 31
0.0
  0
LINE
  5
496
330
1F
100
AcDbEntity
  8
0-3_仕上げ
  6
Continuous
 62
    92
370
    13
100
AcDbLine
 10
2216.999228297053
 20
-2499.250083820242
 30
0.0
 11
2216.999228297053
 21
-1324.250083820242
 31
0.0
  0
LINE
  5
497
330
1F
100
AcDbEntity
  8
0-3_仕上げ
  6
Continuous
 62
    92
370
    13
100
AcDbLine
 10
2762.999228297053
 20
-2499.250083820242
 30
0.0
 11
2762.999228297053
 21
-1324.250083820242
 31
0.0
  0
LINE
  5
498
330
1F
100
AcDbEntity
  8
0-3_仕上げ
  6
Continuous
 62
     7
370
     9
100
AcDbLine
 10
3022.999228297053
 20
-2693.250083820243
 30
0.0
 11
3022.999228297053
 21
-710.2500838202433
 31
0.0
  0
LINE
  5
499
330
1F
100
AcDbEntity
  8
0-3_仕上げ
  6
Continuous
 62
     7
370
     9
100
AcDbLine
 10
3576.999228297053
 20
-2693.250083820243
 30
0.0
 11
3576.999228297053
 21
-710.2500838202433
 31
0.0
  0
LINE
  5
49A
330
1F
100
AcDbEntity
  8
0-3_仕上げ
  6
Continuous
 62
     7
370
     9
100
AcDbLine
 10
3024.999228297054
 20
-1320.250083820243
 30
0.0
 11
3023.999228297054
 21
-1321.250083820242
 31
0.0
  0
LINE
  5
49B
330
1F
100
AcDbEntity
  8
0-3_仕上げ
  6
Continuous
 62
     7
370
     9
100
AcDbLine
 10
3023.999228297054
 20
-1321.250083820242
 30
0.0
 11
3026.999228297053
 21
-1324.250083820243
 31
0.0
  0
LINE
  5
49C
330
1F
100
AcDbEntity
  8
0-3_仕上げ
  6
Continuous
 62
     7
370
     9
100
AcDbLine
 10
3023.999228297054
 20
-1227.250083820242
 30
0.0
 11
3023.999228297054
 21
-1321.250083820242
 31
0.0
  0
LINE
  5
49D
330
1F
100
AcDbEntity
  8
0-3_仕上げ
  6
Continuous
 62
     7
370
     9
100
AcDbLine
 10
3024.999228297054
 20
-1320.250083820243
 30
0.0
 11
3024.999228297054
 21
-1228.250083820242
 31
0.0
  0
LINE
  5
49E
330
1F
100
AcDbEntity
  8
0-3_仕上げ
  6
Continuous
 62
     7
370
     9
100
AcDbLine
 10
3574.999228297053
 20
-1320.250083820243
 30
0.0
 11
3575.999228297054
 21
-1321.250083820242
 31
0.0
  0
LINE
  5
49F
330
1F
100
AcDbEntity
  8
0-3_仕上げ
  6
Continuous
 62
     7
370
     9
100
AcDbLine
 10
3572.999228297053
 20
-1324.250083820243
 30
0.0
 11
3575.999228297054
 21
-1321.250083820242
 31
0.0
  0
LINE
  5
4A0
330
1F
100
AcDbEntity
  8
0-3_仕上げ
  6
Continuous
 62
     7
370
     9
100
AcDbLine
 10
3575.999228297054
 20
-1227.250083820242
 30
0.0
 11
3575.999228297054
 21
-1321.250083820242
 31
0.0
  0
LINE
  5
4A1
330
1F
100
AcDbEntity
  8
0-3_仕上げ
  6
Continuous
 62
     7
370
     9
100
AcDbLine
 10
3574.999228297053
 20
-1320.250083820243
 30
0.0
 11
3574.999228297053
 21
-1228.250083820242
 31
0.0
  0
LINE
  5
4A2
330
1F
100
AcDbEntity
  8
0-3_仕上げ
  6
Continuous
 62
     7
370
     9
100
AcDbLine
 10
3024.999228297054
 20
-1320.250083820243
 30
0.0
 11
3574.999228297053
 21
-1320.250083820243
 31
0.0
  0
LINE
  5
4A3
330
1F
100
AcDbEntity
  8
0-3_仕上げ
  6
Continuous
 62
     7
370
     9
100
AcDbLine
 10
3024.999228297054
 20
-850.2500838202425
 30
0.0
 11
3023.999228297054
 21
-851.2500838202425
 31
0.0
  0
LINE
  5
4A4
330
1F
100
AcDbEntity
  8
0-3_仕上げ
  6
Continuous
 62
     7
370
     9
100
AcDbLine
 10
3023.999228297054
 20
-851.2500838202425
 30
0.0
 11
3026.999228297053
 21
-854.2500838202423
 31
0.0
  0
LINE
  5
4A5
330
1F
100
AcDbEntity
  8
0-3_仕上げ
  6
Continuous
 62
     7
370
     9
100
AcDbLine
 10
3574.999228297053
 20
-850.2500838202425
 30
0.0
 11
3575.999228297054
 21
-851.2500838202425
 31
0.0
  0
LINE
  5
4A6
330
1F
100
AcDbEntity
  8
0-3_仕上げ
  6
Continuous
 62
     7
370
     9
100
AcDbLine
 10
3572.999228297053
 20
-854.2500838202423
 30
0.0
 11
3575.999228297054
 21
-851.2500838202425
 31
0.0
  0
LINE
  5
4A7
330
1F
100
AcDbEntity
  8
0-3_仕上げ
  6
Continuous
 62
     7
370
     9
100
AcDbLine
 10
3024.999228297054
 20
-850.2500838202425
 30
0.0
 11
3574.999228297053
 21
-850.2500838202425
 31
0.0
  0
LINE
  5
4A8
330
1F
100
AcDbEntity
  8
0-3_仕上げ
  6
Continuous
 62
     7
370
     9
100
AcDbLine
 10
3023.999228297054
 20
-1227.250083820242
 30
0.0
 11
3026.999228297053
 21
-1224.250083820242
 31
0.0
  0
LINE
  5
4A9
330
1F
100
AcDbEntity
  8
0-3_仕上げ
  6
Continuous
 62
     7
370
     9
100
AcDbLine
 10
3023.999228297054
 20
-1227.250083820242
 30
0.0
 11
3024.999228297054
 21
-1228.250083820242
 31
0.0
  0
LINE
  5
4AA
330
1F
100
AcDbEntity
  8
0-3_仕上げ
  6
Continuous
 62
     7
370
     9
100
AcDbLine
 10
3572.999228297053
 20
-1224.250083820242
 30
0.0
 11
3575.999228297054
 21
-1227.250083820242
 31
0.0
  0
LINE
  5
4AB
330
1F
100
AcDbEntity
  8
0-3_仕上げ
  6
Continuous
 62
     7
370
     9
100
AcDbLine
 10
3575.999228297054
 20
-1227.250083820242
 30
0.0
 11
3574.999228297053
 21
-1228.250083820242
 31
0.0
  0
LINE
  5
4AC
330
1F
100
AcDbEntity
  8
0-3_仕上げ
  6
Continuous
 62
     7
370
     9
100
AcDbLine
 10
3024.999228297054
 20
-1228.250083820242
 30
0.0
 11
3574.999228297053
 21
-1228.250083820242
 31
0.0
  0
LINE
  5
4AD
330
1F
100
AcDbEntity
  8
0-3_仕上げ
  6
Continuous
 62
     7
370
     9
100
AcDbLine
 10
3023.999228297054
 20
-2502.250083820242
 30
0.0
 11
3026.999228297053
 21
-2499.250083820242
 31
0.0
  0
LINE
  5
4AE
330
1F
100
AcDbEntity
  8
0-3_仕上げ
  6
Continuous
 62
     7
370
     9
100
AcDbLine
 10
3023.999228297054
 20
-2502.250083820242
 30
0.0
 11
3024.999228297054
 21
-2503.250083820242
 31
0.0
  0
LINE
  5
4AF
330
1F
100
AcDbEntity
  8
0-3_仕上げ
  6
Continuous
 62
     7
370
     9
100
AcDbLine
 10
3572.999228297053
 20
-2499.250083820242
 30
0.0
 11
3575.999228297054
 21
-2502.250083820242
 31
0.0
  0
LINE
  5
4B0
330
1F
100
AcDbEntity
  8
0-3_仕上げ
  6
Continuous
 62
     7
370
     9
100
AcDbLine
 10
3575.999228297054
 20
-2502.250083820242
 30
0.0
 11
3574.999228297053
 21
-2503.250083820242
 31
0.0
  0
LINE
  5
4B1
330
1F
100
AcDbEntity
  8
0-3_仕上げ
  6
Continuous
 62
     7
370
     9
100
AcDbLine
 10
3024.999228297054
 20
-2503.250083820242
 30
0.0
 11
3574.999228297053
 21
-2503.250083820242
 31
0.0
  0
LINE
  5
4B2
330
1F
100
AcDbEntity
  8
0-3_仕上げ
  6
Continuous
 62
     7
370
     9
100
AcDbLine
 10
3023.999228297054
 20
-2693.250083820243
 30
0.0
 11
3023.999228297054
 21
-2502.250083820242
 31
0.0
  0
LINE
  5
4B3
330
1F
100
AcDbEntity
  8
0-3_仕上げ
  6
Continuous
 62
     7
370
     9
100
AcDbLine
 10
3024.999228297054
 20
-2693.250083820243
 30
0.0
 11
3024.999228297054
 21
-2503.250083820242
 31
0.0
  0
LINE
  5
4B4
330
1F
100
AcDbEntity
  8
0-3_仕上げ
  6
Continuous
 62
     7
370
     9
100
AcDbLine
 10
3574.999228297053
 20
-2693.250083820243
 30
0.0
 11
3574.999228297053
 21
-2503.250083820242
 31
0.0
  0
LINE
  5
4B5
330
1F
100
AcDbEntity
  8
0-3_仕上げ
  6
Continuous
 62
     7
370
     9
100
AcDbLine
 10
3575.999228297054
 20
-2693.250083820243
 30
0.0
 11
3575.999228297054
 21
-2502.250083820242
 31
0.0
  0
LINE
  5
4B6
330
1F
100
AcDbEntity
  8
0-3_仕上げ
  6
Continuous
 62
     7
370
     9
100
AcDbLine
 10
3024.999228297054
 20
-850.2500838202425
 30
0.0
 11
3024.999228297054
 21
-710.2500838202428
 31
0.0
  0
LINE
  5
4B7
330
1F
100
AcDbEntity
  8
0-3_仕上げ
  6
Continuous
 62
     7
370
     9
100
AcDbLine
 10
3023.999228297054
 20
-851.2500838202425
 30
0.0
 11
3023.999228297054
 21
-710.2500838202428
 31
0.0
  0
LINE
  5
4B8
330
1F
100
AcDbEntity
  8
0-3_仕上げ
  6
Continuous
 62
     7
370
     9
100
AcDbLine
 10
3574.999228297053
 20
-850.2500838202425
 30
0.0
 11
3574.999228297053
 21
-710.2500838202428
 31
0.0
  0
LINE
  5
4B9
330
1F
100
AcDbEntity
  8
0-3_仕上げ
  6
Continuous
 62
     7
370
     9
100
AcDbLine
 10
3575.999228297054
 20
-851.2500838202425
 30
0.0
 11
3575.999228297054
 21
-710.2500838202428
 31
0.0
  0
LINE
  5
4BA
330
1F
100
AcDbEntity
  8
0-3_仕上げ
  6
Continuous
 62
    92
370
    13
100
AcDbLine
 10
3026.999228297053
 20
-1324.250083820243
 30
0.0
 11
3572.999228297053
 21
-1324.250083820243
 31
0.0
  0
LINE
  5
4BB
330
1F
100
AcDbEntity
  8
0-3_仕上げ
  6
Continuous
 62
    92
370
    13
100
AcDbLine
 10
3026.999228297053
 20
-854.2500838202423
 30
0.0
 11
3572.999228297053
 21
-854.2500838202423
 31
0.0
  0
LINE
  5
4BC
330
1F
100
AcDbEntity
  8
0-3_仕上げ
  6
Continuous
 62
    92
370
    13
100
AcDbLine
 10
3026.999228297053
 20
-1224.250083820242
 30
0.0
 11
3572.999228297053
 21
-1224.250083820242
 31
0.0
  0
LINE
  5
4BD
330
1F
100
AcDbEntity
  8
0-3_仕上げ
  6
Continuous
 62
    92
370
    13
100
AcDbLine
 10
3026.999228297053
 20
-1224.250083820242
 30
0.0
 11
3026.999228297053
 21
-854.2500838202423
 31
0.0
  0
LINE
  5
4BE
330
1F
100
AcDbEntity
  8
0-3_仕上げ
  6
Continuous
 62
    92
370
    13
100
AcDbLine
 10
3572.999228297053
 20
-1224.250083820242
 30
0.0
 11
3572.999228297053
 21
-854.2500838202423
 31
0.0
  0
LINE
  5
4BF
330
1F
100
AcDbEntity
  8
0-3_仕上げ
  6
Continuous
 62
    92
370
    13
100
AcDbLine
 10
3026.999228297053
 20
-2499.250083820242
 30
0.0
 11
3572.999228297053
 21
-2499.250083820242
 31
0.0
  0
LINE
  5
4C0
330
1F
100
AcDbEntity
  8
0-3_仕上げ
  6
Continuous
 62
    92
370
    13
100
AcDbLine
 10
3026.999228297053
 20
-2499.250083820242
 30
0.0
 11
3026.999228297053
 21
-1324.250083820242
 31
0.0
  0
LINE
  5
4C1
330
1F
100
AcDbEntity
  8
0-3_仕上げ
  6
Continuous
 62
    92
370
    13
100
AcDbLine
 10
3572.999228297053
 20
-2499.250083820242
 30
0.0
 11
3572.999228297053
 21
-1324.250083820242
 31
0.0
  0
LINE
  5
4C2
330
1F
100
AcDbEntity
  8
0-2_扉
  6
Continuous
 62
    92
370
    13
100
AcDbLine
 10
-3505.000269606305
 20
1426.000148463892
 30
0.0
 11
-3505.000269606305
 21
3409.000148463892
 31
0.0
  0
LINE
  5
4C3
330
1F
100
AcDbEntity
  8
0-2_扉
  6
JWW_DASHED1
 62
   120
370
     5
100
AcDbLine
 10
-3475.000269606305
 20
1426.000148463892
 30
0.0
 11
-3475.000269606305
 21
3409.000148463892
 31
0.0
  0
LINE
  5
4C4
330
1F
100
AcDbEntity
  8
0-2_扉
  6
Continuous
 62
    92
370
    13
100
AcDbLine
 10
-3505.000269606305
 20
1426.000148463892
 30
0.0
 11
-2695.000269606305
 21
1426.000148463892
 31
0.0
  0
LINE
  5
4C5
330
1F
100
AcDbEntity
  8
0-2_扉
  6
Continuous
 62
    92
370
    13
100
AcDbLine
 10
-3505.000269606305
 20
3409.000148463892
 30
0.0
 11
-2695.000269606305
 21
3409.000148463892
 31
0.0
  0
LINE
  5
4C6
330
1F
100
AcDbEntity
  8
0-2_扉
  6
Continuous
 62
    92
370
    13
100
AcDbLine
 10
-2695.000269606305
 20
1426.000148463892
 30
0.0
 11
-2695.000269606305
 21
3409.000148463892
 31
0.0
  0
LINE
  5
4C7
330
1F
100
AcDbEntity
  8
0-2_扉
  6
Continuous
 62
    92
370
    13
100
AcDbLine
 10
-1885.000269606305
 20
1426.000148463892
 30
0.0
 11
-1885.000269606305
 21
3409.000148463892
 31
0.0
  0
LINE
  5
4C8
330
1F
100
AcDbEntity
  8
0-2_扉
  6
JWW_DASHED1
 62
   120
370
     5
100
AcDbLine
 10
-1915.000269606305
 20
1426.000148463892
 30
0.0
 11
-1915.000269606305
 21
3409.000148463892
 31
0.0
  0
LINE
  5
4C9
330
1F
100
AcDbEntity
  8
0-2_扉
  6
Continuous
 62
    92
370
    13
100
AcDbLine
 10
-1885.000269606305
 20
1426.000148463892
 30
0.0
 11
-2695.000269606305
 21
1426.000148463892
 31
0.0
  0
LINE
  5
4CA
330
1F
100
AcDbEntity
  8
0-2_扉
  6
Continuous
 62
    92
370
    13
100
AcDbLine
 10
-1885.000269606305
 20
3409.000148463892
 30
0.0
 11
-2695.000269606305
 21
3409.000148463892
 31
0.0
  0
LINE
  5
4CB
330
1F
100
AcDbEntity
  8
0-2_扉
  6
Continuous
 62
    92
370
    13
100
AcDbLine
 10
2084.999228297055
 20
1426.000148463892
 30
0.0
 11
2084.999228297055
 21
3409.000148463892
 31
0.0
  0
LINE
  5
4CC
330
1F
100
AcDbEntity
  8
0-2_扉
  6
JWW_DASHED1
 62
   120
370
     5
100
AcDbLine
 10
2114.999228297055
 20
1426.000148463892
 30
0.0
 11
2114.999228297055
 21
3409.000148463892
 31
0.0
  0
LINE
  5
4CD
330
1F
100
AcDbEntity
  8
0-2_扉
  6
Continuous
 62
    92
370
    13
100
AcDbLine
 10
2084.999228297055
 20
1426.000148463892
 30
0.0
 11
2894.999228297055
 21
1426.000148463892
 31
0.0
  0
LINE
  5
4CE
330
1F
100
AcDbEntity
  8
0-2_扉
  6
Continuous
 62
    92
370
    13
100
AcDbLine
 10
2084.999228297055
 20
3409.000148463892
 30
0.0
 11
2894.999228297055
 21
3409.000148463892
 31
0.0
  0
LINE
  5
4CF
330
1F
100
AcDbEntity
  8
0-2_扉
  6
Continuous
 62
    92
370
    13
100
AcDbLine
 10
2894.999228297055
 20
1426.000148463892
 30
0.0
 11
2894.999228297055
 21
3409.000148463892
 31
0.0
  0
LINE
  5
4D0
330
1F
100
AcDbEntity
  8
0-2_扉
  6
Continuous
 62
    92
370
    13
100
AcDbLine
 10
3704.999228297055
 20
1426.000148463892
 30
0.0
 11
3704.999228297055
 21
3409.000148463892
 31
0.0
  0
LINE
  5
4D1
330
1F
100
AcDbEntity
  8
0-2_扉
  6
JWW_DASHED1
 62
   120
370
     5
100
AcDbLine
 10
3674.999228297055
 20
1426.000148463892
 30
0.0
 11
3674.999228297055
 21
3409.000148463892
 31
0.0
  0
LINE
  5
4D2
330
1F
100
AcDbEntity
  8
0-2_扉
  6
Continuous
 62
    92
370
    13
100
AcDbLine
 10
3704.999228297055
 20
1426.000148463892
 30
0.0
 11
2894.999228297055
 21
1426.000148463892
 31
0.0
  0
LINE
  5
4D3
330
1F
100
AcDbEntity
  8
0-2_扉
  6
Continuous
 62
    92
370
    13
100
AcDbLine
 10
3704.999228297055
 20
3409.000148463892
 30
0.0
 11
2894.999228297055
 21
3409.000148463892
 31
0.0
  0
LINE
  5
4D4
330
1F
100
AcDbEntity
  8
0-2_扉
  6
Continuous
 62
    92
370
    13
100
AcDbLine
 10
-3505.000269606305
 20
-2693.250083820243
 30
0.0
 11
-3505.000269606305
 21
-710.2500838202428
 31
0.0
  0
LINE
  5
4D5
330
1F
100
AcDbEntity
  8
0-2_扉
  6
JWW_DASHED1
 62
   120
370
     5
100
AcDbLine
 10
-3475.000269606305
 20
-2693.250083820243
 30
0.0
 11
-3475.000269606305
 21
-710.2500838202428
 31
0.0
  0
LINE
  5
4D6
330
1F
100
AcDbEntity
  8
0-2_扉
  6
Continuous
 62
    92
370
    13
100
AcDbLine
 10
-3505.000269606305
 20
-2693.250083820243
 30
0.0
 11
-2695.000269606305
 21
-2693.250083820243
 31
0.0
  0
LINE
  5
4D7
330
1F
100
AcDbEntity
  8
0-2_扉
  6
Continuous
 62
    92
370
    13
100
AcDbLine
 10
-3505.000269606305
 20
-710.2500838202428
 30
0.0
 11
-2695.000269606305
 21
-710.2500838202428
 31
0.0
  0
LINE
  5
4D8
330
1F
100
AcDbEntity
  8
0-2_扉
  6
Continuous
 62
    92
370
    13
100
AcDbLine
 10
-2695.000269606305
 20
-2693.250083820243
 30
0.0
 11
-2695.000269606305
 21
-710.2500838202428
 31
0.0
  0
LINE
  5
4D9
330
1F
100
AcDbEntity
  8
0-2_扉
  6
Continuous
 62
    92
370
    13
100
AcDbLine
 10
-1885.000269606305
 20
-2693.250083820243
 30
0.0
 11
-1885.000269606305
 21
-710.2500838202428
 31
0.0
  0
LINE
  5
4DA
330
1F
100
AcDbEntity
  8
0-2_扉
  6
JWW_DASHED1
 62
   120
370
     5
100
AcDbLine
 10
-1915.000269606305
 20
-2693.250083820243
 30
0.0
 11
-1915.000269606305
 21
-710.2500838202428
 31
0.0
  0
LINE
  5
4DB
330
1F
100
AcDbEntity
  8
0-2_扉
  6
Continuous
 62
    92
370
    13
100
AcDbLine
 10
-1885.000269606305
 20
-2693.250083820243
 30
0.0
 11
-2695.000269606305
 21
-2693.250083820243
 31
0.0
  0
LINE
  5
4DC
330
1F
100
AcDbEntity
  8
0-2_扉
  6
Continuous
 62
    92
370
    13
100
AcDbLine
 10
-1885.000269606305
 20
-710.2500838202428
 30
0.0
 11
-2695.000269606305
 21
-710.2500838202428
 31
0.0
  0
LINE
  5
4DD
330
1F
100
AcDbEntity
  8
0-2_扉
  6
Continuous
 62
    92
370
    13
100
AcDbLine
 10
2084.999228297053
 20
-2693.250083820243
 30
0.0
 11
2084.999228297053
 21
-710.2500838202428
 31
0.0
  0
LINE
  5
4DE
330
1F
100
AcDbEntity
  8
0-2_扉
  6
JWW_DASHED1
 62
   120
370
     5
100
AcDbLine
 10
2114.999228297053
 20
-2693.250083820243
 30
0.0
 11
2114.999228297053
 21
-710.2500838202428
 31
0.0
  0
LINE
  5
4DF
330
1F
100
AcDbEntity
  8
0-2_扉
  6
Continuous
 62
    92
370
    13
100
AcDbLine
 10
2084.999228297053
 20
-2693.250083820243
 30
0.0
 11
2894.999228297053
 21
-2693.250083820243
 31
0.0
  0
LINE
  5
4E0
330
1F
100
AcDbEntity
  8
0-2_扉
  6
Continuous
 62
    92
370
    13
100
AcDbLine
 10
2084.999228297053
 20
-710.2500838202428
 30
0.0
 11
2894.999228297053
 21
-710.2500838202428
 31
0.0
  0
LINE
  5
4E1
330
1F
100
AcDbEntity
  8
0-2_扉
  6
Continuous
 62
    92
370
    13
100
AcDbLine
 10
2894.999228297053
 20
-2693.250083820243
 30
0.0
 11
2894.999228297053
 21
-710.2500838202428
 31
0.0
  0
LINE
  5
4E2
330
1F
100
AcDbEntity
  8
0-2_扉
  6
Continuous
 62
    92
370
    13
100
AcDbLine
 10
3704.999228297053
 20
-2693.250083820243
 30
0.0
 11
3704.999228297053
 21
-710.2500838202428
 31
0.0
  0
LINE
  5
4E3
330
1F
100
AcDbEntity
  8
0-2_扉
  6
JWW_DASHED1
 62
   120
370
     5
100
AcDbLine
 10
3674.999228297053
 20
-2693.250083820243
 30
0.0
 11
3674.999228297053
 21
-710.2500838202428
 31
0.0
  0
LINE
  5
4E4
330
1F
100
AcDbEntity
  8
0-2_扉
  6
Continuous
 62
    92
370
    13
100
AcDbLine
 10
3704.999228297053
 20
-2693.250083820243
 30
0.0
 11
2894.999228297053
 21
-2693.250083820243
 31
0.0
  0
LINE
  5
4E5
330
1F
100
AcDbEntity
  8
0-2_扉
  6
Continuous
 62
    92
370
    13
100
AcDbLine
 10
3704.999228297053
 20
-710.2500838202428
 30
0.0
 11
2894.999228297053
 21
-710.2500838202428
 31
0.0
  0
LINE
  5
4E6
330
1F
100
AcDbEntity
  8
0-C_ハッチ
  6
JWW_DASHED1
 62
   120
370
     5
100
AcDbLine
 10
-3373.000269606307
 20
3224.058973090533
 30
0.0
 11
-3338.059094232949
 21
3259.000148463891
 31
0.0
  0
LINE
  5
4E7
330
1F
100
AcDbEntity
  8
0-C_ハッチ
  6
JWW_DASHED1
 62
   120
370
     5
100
AcDbLine
 10
-3373.000269606307
 20
3139.206159348133
 30
0.0
 11
-3253.206280490555
 21
3259.000148463884
 31
0.0
  0
LINE
  5
4E8
330
1F
100
AcDbEntity
  8
0-C_ハッチ
  6
JWW_DASHED1
 62
   120
370
     5
100
AcDbLine
 10
-3373.000269606307
 20
3181.632566219334
 30
0.0
 11
-3295.632687361752
 21
3259.000148463887
 31
0.0
  0
LINE
  5
4E9
330
1F
100
AcDbEntity
  8
0-C_ハッチ
  6
JWW_DASHED1
 62
   120
370
     5
100
AcDbLine
 10
-2853.561260612365
 20
2301.000148463892
 30
0.0
 11
-2827.000269606307
 21
2327.56113946995
 31
0.0
  0
LINE
  5
4EA
330
1F
100
AcDbEntity
  8
0-C_ハッチ
  6
JWW_DASHED1
 62
   120
370
     5
100
AcDbLine
 10
-2895.987667483565
 20
2301.000148463892
 30
0.0
 11
-2827.000269606307
 21
2369.987546341151
 31
0.0
  0
LINE
  5
4EB
330
1F
100
AcDbEntity
  8
0-C_ハッチ
  6
JWW_DASHED1
 62
   120
370
     5
100
AcDbLine
 10
-3373.000269606307
 20
2757.368497507388
 30
0.0
 11
-2871.368618649796
 21
3259.000148463898
 31
0.0
  0
LINE
  5
4EC
330
1F
100
AcDbEntity
  8
0-C_ハッチ
  6
JWW_DASHED1
 62
   120
370
     5
100
AcDbLine
 10
-3373.000269606307
 20
2799.794904378588
 30
0.0
 11
-2913.795025520993
 21
3259.000148463901
 31
0.0
  0
LINE
  5
4ED
330
1F
100
AcDbEntity
  8
0-C_ハッチ
  6
JWW_DASHED1
 62
   120
370
     5
100
AcDbLine
 10
-3373.000269606307
 20
2842.221311249788
 30
0.0
 11
-2956.221432392206
 21
3259.000148463888
 31
0.0
  0
LINE
  5
4EE
330
1F
100
AcDbEntity
  8
0-C_ハッチ
  6
JWW_DASHED1
 62
   120
370
     5
100
AcDbLine
 10
-3373.000269606307
 20
2884.647718120988
 30
0.0
 11
-2998.647839263403
 21
3259.000148463892
 31
0.0
  0
LINE
  5
4EF
330
1F
100
AcDbEntity
  8
0-C_ハッチ
  6
JWW_DASHED1
 62
   120
370
     5
100
AcDbLine
 10
-3373.000269606307
 20
2927.074124992188
 30
0.0
 11
-3041.074246134599
 21
3259.000148463895
 31
0.0
  0
LINE
  5
4F0
330
1F
100
AcDbEntity
  8
0-C_ハッチ
  6
JWW_DASHED1
 62
   120
370
     5
100
AcDbLine
 10
-3373.000269606307
 20
2969.500531863388
 30
0.0
 11
-3083.500653005804
 21
3259.000148463889
 31
0.0
  0
LINE
  5
4F1
330
1F
100
AcDbEntity
  8
0-C_ハッチ
  6
JWW_DASHED1
 62
   120
370
     5
100
AcDbLine
 10
-3373.000269606307
 20
3011.926938734533
 30
0.0
 11
-3125.927059876942
 21
3259.000148463898
 31
0.0
  0
LINE
  5
4F2
330
1F
100
AcDbEntity
  8
0-C_ハッチ
  6
JWW_DASHED1
 62
   120
370
     5
100
AcDbLine
 10
-3373.000269606307
 20
3054.353345605733
 30
0.0
 11
-3168.353466748136
 21
3259.000148463903
 31
0.0
  0
LINE
  5
4F3
330
1F
100
AcDbEntity
  8
0-C_ハッチ
  6
JWW_DASHED1
 62
   120
370
     5
100
AcDbLine
 10
-3373.000269606307
 20
3096.779752476933
 30
0.0
 11
-3210.779873619331
 21
3259.000148463907
 31
0.0
  0
LINE
  5
4F4
330
1F
100
AcDbEntity
  8
0-C_ハッチ
  6
JWW_DASHED1
 62
   120
370
     5
100
AcDbLine
 10
-3373.000269606307
 20
2714.942090636187
 30
0.0
 11
-2828.942211778601
 21
3259.000148463892
 31
0.0
  0
LINE
  5
4F5
330
1F
100
AcDbEntity
  8
0-C_ハッチ
  6
JWW_DASHED1
 62
   120
370
     5
100
AcDbLine
 10
-3373.000269606307
 20
2672.515683765042
 30
0.0
 11
-2827.000269606307
 21
3218.515683765041
 31
0.0
  0
LINE
  5
4F6
330
1F
100
AcDbEntity
  8
0-C_ハッチ
  6
JWW_DASHED1
 62
   120
370
     5
100
AcDbLine
 10
-3373.000269606307
 20
2333.104428795498
 30
0.0
 11
-2827.000269606307
 21
2879.104428795495
 31
0.0
  0
LINE
  5
4F7
330
1F
100
AcDbEntity
  8
0-C_ハッチ
  6
JWW_DASHED1
 62
   120
370
     5
100
AcDbLine
 10
-3373.000269606307
 20
2375.530835666642
 30
0.0
 11
-2827.000269606307
 21
2921.530835666641
 31
0.0
  0
LINE
  5
4F8
330
1F
100
AcDbEntity
  8
0-C_ハッチ
  6
JWW_DASHED1
 62
   120
370
     5
100
AcDbLine
 10
-3373.000269606307
 20
2417.957242537843
 30
0.0
 11
-2827.000269606307
 21
2963.957242537841
 31
0.0
  0
LINE
  5
4F9
330
1F
100
AcDbEntity
  8
0-C_ハッチ
  6
JWW_DASHED1
 62
   120
370
     5
100
AcDbLine
 10
-3373.000269606307
 20
2460.383649409043
 30
0.0
 11
-2827.000269606307
 21
3006.383649409041
 31
0.0
  0
LINE
  5
4FA
330
1F
100
AcDbEntity
  8
0-C_ハッチ
  6
JWW_DASHED1
 62
   120
370
     5
100
AcDbLine
 10
-3373.000269606307
 20
2502.810056280242
 30
0.0
 11
-2827.000269606307
 21
3048.810056280241
 31
0.0
  0
LINE
  5
4FB
330
1F
100
AcDbEntity
  8
0-C_ハッチ
  6
JWW_DASHED1
 62
   120
370
     5
100
AcDbLine
 10
-3373.000269606307
 20
2545.236463151443
 30
0.0
 11
-2827.000269606307
 21
3091.236463151441
 31
0.0
  0
LINE
  5
4FC
330
1F
100
AcDbEntity
  8
0-C_ハッチ
  6
JWW_DASHED1
 62
   120
370
     5
100
AcDbLine
 10
-3373.000269606307
 20
2587.662870022642
 30
0.0
 11
-2827.000269606307
 21
3133.662870022641
 31
0.0
  0
LINE
  5
4FD
330
1F
100
AcDbEntity
  8
0-C_ハッチ
  6
JWW_DASHED1
 62
   120
370
     5
100
AcDbLine
 10
-3373.000269606307
 20
2630.089276893842
 30
0.0
 11
-2827.000269606307
 21
3176.089276893841
 31
0.0
  0
LINE
  5
4FE
330
1F
100
AcDbEntity
  8
0-C_ハッチ
  6
JWW_DASHED1
 62
   120
370
     5
100
AcDbLine
 10
-3362.67814306671
 20
2301.000148463892
 30
0.0
 11
-2827.000269606307
 21
2836.678021924296
 31
0.0
  0
LINE
  5
4FF
330
1F
100
AcDbEntity
  8
0-C_ハッチ
  6
JWW_DASHED1
 62
   120
370
     5
100
AcDbLine
 10
-3320.25173619551
 20
2301.000148463892
 30
0.0
 11
-2827.000269606307
 21
2794.251615053095
 31
0.0
  0
LINE
  5
500
330
1F
100
AcDbEntity
  8
0-C_ハッチ
  6
JWW_DASHED1
 62
   120
370
     5
100
AcDbLine
 10
-2938.414074354765
 20
2301.000148463892
 30
0.0
 11
-2827.000269606307
 21
2412.41395321235
 31
0.0
  0
LINE
  5
501
330
1F
100
AcDbEntity
  8
0-C_ハッチ
  6
JWW_DASHED1
 62
   120
370
     5
100
AcDbLine
 10
-2980.840481225965
 20
2301.000148463892
 30
0.0
 11
-2827.000269606307
 21
2454.84036008355
 31
0.0
  0
LINE
  5
502
330
1F
100
AcDbEntity
  8
0-C_ハッチ
  6
JWW_DASHED1
 62
   120
370
     5
100
AcDbLine
 10
-3023.266888097165
 20
2301.000148463892
 30
0.0
 11
-2827.000269606307
 21
2497.26676695475
 31
0.0
  0
LINE
  5
503
330
1F
100
AcDbEntity
  8
0-C_ハッチ
  6
JWW_DASHED1
 62
   120
370
     5
100
AcDbLine
 10
-3065.693294968365
 20
2301.000148463892
 30
0.0
 11
-2827.000269606307
 21
2539.69317382595
 31
0.0
  0
LINE
  5
504
330
1F
100
AcDbEntity
  8
0-C_ハッチ
  6
JWW_DASHED1
 62
   120
370
     5
100
AcDbLine
 10
-3108.119701839565
 20
2301.000148463892
 30
0.0
 11
-2827.000269606307
 21
2582.11958069715
 31
0.0
  0
LINE
  5
505
330
1F
100
AcDbEntity
  8
0-C_ハッチ
  6
JWW_DASHED1
 62
   120
370
     5
100
AcDbLine
 10
-3150.54610871071
 20
2301.000148463892
 30
0.0
 11
-2827.000269606307
 21
2624.545987568295
 31
0.0
  0
LINE
  5
506
330
1F
100
AcDbEntity
  8
0-C_ハッチ
  6
JWW_DASHED1
 62
   120
370
     5
100
AcDbLine
 10
-3192.97251558191
 20
2301.000148463892
 30
0.0
 11
-2827.000269606307
 21
2666.972394439495
 31
0.0
  0
LINE
  5
507
330
1F
100
AcDbEntity
  8
0-C_ハッチ
  6
JWW_DASHED1
 62
   120
370
     5
100
AcDbLine
 10
-3235.39892245311
 20
2301.000148463892
 30
0.0
 11
-2827.000269606307
 21
2709.398801310695
 31
0.0
  0
LINE
  5
508
330
1F
100
AcDbEntity
  8
0-C_ハッチ
  6
JWW_DASHED1
 62
   120
370
     5
100
AcDbLine
 10
-3277.82532932431
 20
2301.000148463892
 30
0.0
 11
-2827.000269606307
 21
2751.825208181895
 31
0.0
  0
LINE
  5
509
330
1F
100
AcDbEntity
  8
0-C_ハッチ
  6
JWW_DASHED1
 62
   120
370
     5
100
AcDbLine
 10
-2563.000269606301
 20
3224.058973090533
 30
0.0
 11
-2528.059094232945
 21
3259.000148463891
 31
0.0
  0
LINE
  5
50A
330
1F
100
AcDbEntity
  8
0-C_ハッチ
  6
JWW_DASHED1
 62
   120
370
     5
100
AcDbLine
 10
-2563.000269606301
 20
3139.206159348133
 30
0.0
 11
-2443.206280490552
 21
3259.000148463884
 31
0.0
  0
LINE
  5
50B
330
1F
100
AcDbEntity
  8
0-C_ハッチ
  6
JWW_DASHED1
 62
   120
370
     5
100
AcDbLine
 10
-2563.000269606301
 20
3181.632566219334
 30
0.0
 11
-2485.632687361749
 21
3259.000148463887
 31
0.0
  0
LINE
  5
50C
330
1F
100
AcDbEntity
  8
0-C_ハッチ
  6
JWW_DASHED1
 62
   120
370
     5
100
AcDbLine
 10
-2043.561260612361
 20
2301.000148463892
 30
0.0
 11
-2017.000269606302
 21
2327.56113946995
 31
0.0
  0
LINE
  5
50D
330
1F
100
AcDbEntity
  8
0-C_ハッチ
  6
JWW_DASHED1
 62
   120
370
     5
100
AcDbLine
 10
-2085.987667483561
 20
2301.000148463892
 30
0.0
 11
-2017.000269606302
 21
2369.987546341151
 31
0.0
  0
LINE
  5
50E
330
1F
100
AcDbEntity
  8
0-C_ハッチ
  6
JWW_DASHED1
 62
   120
370
     5
100
AcDbLine
 10
-2563.000269606301
 20
2757.368497507388
 30
0.0
 11
-2061.368618649793
 21
3259.000148463898
 31
0.0
  0
LINE
  5
50F
330
1F
100
AcDbEntity
  8
0-C_ハッチ
  6
JWW_DASHED1
 62
   120
370
     5
100
AcDbLine
 10
-2563.000269606301
 20
2799.794904378588
 30
0.0
 11
-2103.795025520989
 21
3259.000148463901
 31
0.0
  0
LINE
  5
510
330
1F
100
AcDbEntity
  8
0-C_ハッチ
  6
JWW_DASHED1
 62
   120
370
     5
100
AcDbLine
 10
-2563.000269606301
 20
2842.221311249788
 30
0.0
 11
-2146.221432392201
 21
3259.000148463888
 31
0.0
  0
LINE
  5
511
330
1F
100
AcDbEntity
  8
0-C_ハッチ
  6
JWW_DASHED1
 62
   120
370
     5
100
AcDbLine
 10
-2563.000269606301
 20
2884.647718120988
 30
0.0
 11
-2188.647839263398
 21
3259.000148463892
 31
0.0
  0
LINE
  5
512
330
1F
100
AcDbEntity
  8
0-C_ハッチ
  6
JWW_DASHED1
 62
   120
370
     5
100
AcDbLine
 10
-2563.000269606301
 20
2927.074124992188
 30
0.0
 11
-2231.074246134594
 21
3259.000148463895
 31
0.0
  0
LINE
  5
513
330
1F
100
AcDbEntity
  8
0-C_ハッチ
  6
JWW_DASHED1
 62
   120
370
     5
100
AcDbLine
 10
-2563.000269606301
 20
2969.500531863388
 30
0.0
 11
-2273.500653005799
 21
3259.000148463889
 31
0.0
  0
LINE
  5
514
330
1F
100
AcDbEntity
  8
0-C_ハッチ
  6
JWW_DASHED1
 62
   120
370
     5
100
AcDbLine
 10
-2563.000269606301
 20
3011.926938734533
 30
0.0
 11
-2315.927059876936
 21
3259.000148463898
 31
0.0
  0
LINE
  5
515
330
1F
100
AcDbEntity
  8
0-C_ハッチ
  6
JWW_DASHED1
 62
   120
370
     5
100
AcDbLine
 10
-2563.000269606301
 20
3054.353345605733
 30
0.0
 11
-2358.353466748131
 21
3259.000148463903
 31
0.0
  0
LINE
  5
516
330
1F
100
AcDbEntity
  8
0-C_ハッチ
  6
JWW_DASHED1
 62
   120
370
     5
100
AcDbLine
 10
-2563.000269606301
 20
3096.779752476933
 30
0.0
 11
-2400.779873619328
 21
3259.000148463907
 31
0.0
  0
LINE
  5
517
330
1F
100
AcDbEntity
  8
0-C_ハッチ
  6
JWW_DASHED1
 62
   120
370
     5
100
AcDbLine
 10
-2563.000269606301
 20
2714.942090636187
 30
0.0
 11
-2018.942211778596
 21
3259.000148463892
 31
0.0
  0
LINE
  5
518
330
1F
100
AcDbEntity
  8
0-C_ハッチ
  6
JWW_DASHED1
 62
   120
370
     5
100
AcDbLine
 10
-2563.000269606301
 20
2672.515683765042
 30
0.0
 11
-2017.000269606302
 21
3218.515683765041
 31
0.0
  0
LINE
  5
519
330
1F
100
AcDbEntity
  8
0-C_ハッチ
  6
JWW_DASHED1
 62
   120
370
     5
100
AcDbLine
 10
-2563.000269606301
 20
2333.104428795498
 30
0.0
 11
-2017.000269606302
 21
2879.104428795495
 31
0.0
  0
LINE
  5
51A
330
1F
100
AcDbEntity
  8
0-C_ハッチ
  6
JWW_DASHED1
 62
   120
370
     5
100
AcDbLine
 10
-2563.000269606301
 20
2375.530835666642
 30
0.0
 11
-2017.000269606302
 21
2921.530835666641
 31
0.0
  0
LINE
  5
51B
330
1F
100
AcDbEntity
  8
0-C_ハッチ
  6
JWW_DASHED1
 62
   120
370
     5
100
AcDbLine
 10
-2563.000269606301
 20
2417.957242537843
 30
0.0
 11
-2017.000269606302
 21
2963.957242537841
 31
0.0
  0
LINE
  5
51C
330
1F
100
AcDbEntity
  8
0-C_ハッチ
  6
JWW_DASHED1
 62
   120
370
     5
100
AcDbLine
 10
-2563.000269606301
 20
2460.383649409043
 30
0.0
 11
-2017.000269606302
 21
3006.383649409041
 31
0.0
  0
LINE
  5
51D
330
1F
100
AcDbEntity
  8
0-C_ハッチ
  6
JWW_DASHED1
 62
   120
370
     5
100
AcDbLine
 10
-2563.000269606301
 20
2502.810056280242
 30
0.0
 11
-2017.000269606302
 21
3048.810056280241
 31
0.0
  0
LINE
  5
51E
330
1F
100
AcDbEntity
  8
0-C_ハッチ
  6
JWW_DASHED1
 62
   120
370
     5
100
AcDbLine
 10
-2563.000269606301
 20
2545.236463151443
 30
0.0
 11
-2017.000269606302
 21
3091.236463151441
 31
0.0
  0
LINE
  5
51F
330
1F
100
AcDbEntity
  8
0-C_ハッチ
  6
JWW_DASHED1
 62
   120
370
     5
100
AcDbLine
 10
-2563.000269606301
 20
2587.662870022642
 30
0.0
 11
-2017.000269606302
 21
3133.662870022641
 31
0.0
  0
LINE
  5
520
330
1F
100
AcDbEntity
  8
0-C_ハッチ
  6
JWW_DASHED1
 62
   120
370
     5
100
AcDbLine
 10
-2563.000269606301
 20
2630.089276893842
 30
0.0
 11
-2017.000269606302
 21
3176.089276893841
 31
0.0
  0
LINE
  5
521
330
1F
100
AcDbEntity
  8
0-C_ハッチ
  6
JWW_DASHED1
 62
   120
370
     5
100
AcDbLine
 10
-2552.678143066705
 20
2301.000148463892
 30
0.0
 11
-2017.000269606302
 21
2836.678021924296
 31
0.0
  0
LINE
  5
522
330
1F
100
AcDbEntity
  8
0-C_ハッチ
  6
JWW_DASHED1
 62
   120
370
     5
100
AcDbLine
 10
-2510.251736195507
 20
2301.000148463892
 30
0.0
 11
-2017.000269606302
 21
2794.251615053095
 31
0.0
  0
LINE
  5
523
330
1F
100
AcDbEntity
  8
0-C_ハッチ
  6
JWW_DASHED1
 62
   120
370
     5
100
AcDbLine
 10
-2128.414074354761
 20
2301.000148463892
 30
0.0
 11
-2017.000269606302
 21
2412.41395321235
 31
0.0
  0
LINE
  5
524
330
1F
100
AcDbEntity
  8
0-C_ハッチ
  6
JWW_DASHED1
 62
   120
370
     5
100
AcDbLine
 10
-2170.840481225961
 20
2301.000148463892
 30
0.0
 11
-2017.000269606302
 21
2454.84036008355
 31
0.0
  0
LINE
  5
525
330
1F
100
AcDbEntity
  8
0-C_ハッチ
  6
JWW_DASHED1
 62
   120
370
     5
100
AcDbLine
 10
-2213.266888097161
 20
2301.000148463892
 30
0.0
 11
-2017.000269606302
 21
2497.26676695475
 31
0.0
  0
LINE
  5
526
330
1F
100
AcDbEntity
  8
0-C_ハッチ
  6
JWW_DASHED1
 62
   120
370
     5
100
AcDbLine
 10
-2255.693294968361
 20
2301.000148463892
 30
0.0
 11
-2017.000269606302
 21
2539.69317382595
 31
0.0
  0
LINE
  5
527
330
1F
100
AcDbEntity
  8
0-C_ハッチ
  6
JWW_DASHED1
 62
   120
370
     5
100
AcDbLine
 10
-2298.119701839561
 20
2301.000148463892
 30
0.0
 11
-2017.000269606302
 21
2582.11958069715
 31
0.0
  0
LINE
  5
528
330
1F
100
AcDbEntity
  8
0-C_ハッチ
  6
JWW_DASHED1
 62
   120
370
     5
100
AcDbLine
 10
-2340.546108710707
 20
2301.000148463892
 30
0.0
 11
-2017.000269606302
 21
2624.545987568295
 31
0.0
  0
LINE
  5
529
330
1F
100
AcDbEntity
  8
0-C_ハッチ
  6
JWW_DASHED1
 62
   120
370
     5
100
AcDbLine
 10
-2382.972515581907
 20
2301.000148463892
 30
0.0
 11
-2017.000269606302
 21
2666.972394439495
 31
0.0
  0
LINE
  5
52A
330
1F
100
AcDbEntity
  8
0-C_ハッチ
  6
JWW_DASHED1
 62
   120
370
     5
100
AcDbLine
 10
-2425.398922453107
 20
2301.000148463892
 30
0.0
 11
-2017.000269606302
 21
2709.398801310695
 31
0.0
  0
LINE
  5
52B
330
1F
100
AcDbEntity
  8
0-C_ハッチ
  6
JWW_DASHED1
 62
   120
370
     5
100
AcDbLine
 10
-2467.825329324307
 20
2301.000148463892
 30
0.0
 11
-2017.000269606302
 21
2751.825208181895
 31
0.0
  0
LINE
  5
52C
330
1F
100
AcDbEntity
  8
0-C_ハッチ
  6
JWW_DASHED1
 62
   120
370
     5
100
AcDbLine
 10
2725.049183782796
 20
2895.000148463902
 30
0.0
 11
2762.99922829705
 21
2932.950192978156
 31
0.0
  0
LINE
  5
52D
330
1F
100
AcDbEntity
  8
0-C_ハッチ
  6
JWW_DASHED1
 62
   120
370
     5
100
AcDbLine
 10
2682.622776911601
 20
2895.000148463907
 30
0.0
 11
2762.999228297048
 21
2975.376599849355
 31
0.0
  0
LINE
  5
52E
330
1F
100
AcDbEntity
  8
0-C_ハッチ
  6
JWW_DASHED1
 62
   120
370
     5
100
AcDbLine
 10
2640.196370040406
 20
2895.000148463912
 30
0.0
 11
2762.999228297063
 21
3017.80300672057
 31
0.0
  0
LINE
  5
52F
330
1F
100
AcDbEntity
  8
0-C_ハッチ
  6
JWW_DASHED1
 62
   120
370
     5
100
AcDbLine
 10
2597.769963169185
 20
2895.000148463892
 30
0.0
 11
2626.999228297053
 21
2924.22941359176
 31
0.0
  0
LINE
  5
530
330
1F
100
AcDbEntity
  8
0-C_ハッチ
  6
JWW_DASHED1
 62
   120
370
     5
100
AcDbLine
 10
2632.999228297061
 20
2930.229413591767
 30
0.0
 11
2762.999228297063
 21
3060.22941359177
 31
0.0
  0
LINE
  5
531
330
1F
100
AcDbEntity
  8
0-C_ハッチ
  6
JWW_DASHED1
 62
   120
370
     5
100
AcDbLine
 10
2555.343556297986
 20
2895.000148463892
 30
0.0
 11
2626.999228297048
 21
2966.655820462955
 31
0.0
  0
LINE
  5
532
330
1F
100
AcDbEntity
  8
0-C_ハッチ
  6
JWW_DASHED1
 62
   120
370
     5
100
AcDbLine
 10
2632.999228297056
 20
2972.655820462962
 30
0.0
 11
2737.343556297983
 21
3077.00014846389
 31
0.0
  0
LINE
  5
533
330
1F
100
AcDbEntity
  8
0-C_ハッチ
  6
JWW_DASHED1
 62
   120
370
     5
100
AcDbLine
 10
2743.343556297976
 20
3083.000148463882
 30
0.0
 11
2762.999228297066
 21
3102.655820462972
 31
0.0
  0
LINE
  5
534
330
1F
100
AcDbEntity
  8
0-C_ハッチ
  6
JWW_DASHED1
 62
   120
370
     5
100
AcDbLine
 10
2512.917149426787
 20
2895.000148463893
 30
0.0
 11
2626.999228297043
 21
3009.08222733415
 31
0.0
  0
LINE
  5
535
330
1F
100
AcDbEntity
  8
0-C_ハッチ
  6
JWW_DASHED1
 62
   120
370
     5
100
AcDbLine
 10
2632.999228297051
 20
3015.082227334157
 30
0.0
 11
2694.917149426789
 21
3077.000148463896
 31
0.0
  0
LINE
  5
536
330
1F
100
AcDbEntity
  8
0-C_ハッチ
  6
JWW_DASHED1
 62
   120
370
     5
100
AcDbLine
 10
2700.917149426781
 20
3083.000148463887
 30
0.0
 11
2762.999228297061
 21
3145.082227334167
 31
0.0
  0
LINE
  5
537
330
1F
100
AcDbEntity
  8
0-C_ハッチ
  6
JWW_DASHED1
 62
   120
370
     5
100
AcDbLine
 10
2470.490742555596
 20
2895.000148463902
 30
0.0
 11
2486.999228297045
 21
2911.508634205352
 31
0.0
  0
LINE
  5
538
330
1F
100
AcDbEntity
  8
0-C_ハッチ
  6
JWW_DASHED1
 62
   120
370
     5
100
AcDbLine
 10
2492.999228297053
 20
2917.508634205359
 30
0.0
 11
2626.999228297053
 21
3051.50863420536
 31
0.0
  0
LINE
  5
539
330
1F
100
AcDbEntity
  8
0-C_ハッチ
  6
JWW_DASHED1
 62
   120
370
     5
100
AcDbLine
 10
2632.999228297045
 20
3057.508634205352
 30
0.0
 11
2652.490742555596
 21
3077.000148463902
 31
0.0
  0
LINE
  5
53A
330
1F
100
AcDbEntity
  8
0-C_ハッチ
  6
JWW_DASHED1
 62
   120
370
     5
100
AcDbLine
 10
2658.490742555587
 20
3083.000148463893
 30
0.0
 11
2762.999228297064
 21
3187.508634205371
 31
0.0
  0
LINE
  5
53B
330
1F
100
AcDbEntity
  8
0-C_ハッチ
  6
JWW_DASHED1
 62
   120
370
     5
100
AcDbLine
 10
2428.064335684455
 20
2895.000148463907
 30
0.0
 11
2486.999228297039
 21
2953.935041076491
 31
0.0
  0
LINE
  5
53C
330
1F
100
AcDbEntity
  8
0-C_ハッチ
  6
JWW_DASHED1
 62
   120
370
     5
100
AcDbLine
 10
2492.999228297062
 20
2959.935041076514
 30
0.0
 11
2610.064335684434
 21
3077.000148463886
 31
0.0
  0
LINE
  5
53D
330
1F
100
AcDbEntity
  8
0-C_ハッチ
  6
JWW_DASHED1
 62
   120
370
     5
100
AcDbLine
 10
2616.064335684445
 20
3083.000148463897
 30
0.0
 11
2626.999228297053
 21
3093.935041076506
 31
0.0
  0
LINE
  5
53E
330
1F
100
AcDbEntity
  8
0-C_ハッチ
  6
JWW_DASHED1
 62
   120
370
     5
100
AcDbLine
 10
2632.999228297045
 20
3099.935041076497
 30
0.0
 11
2762.999228297059
 21
3229.935041076511
 31
0.0
  0
LINE
  5
53F
330
1F
100
AcDbEntity
  8
0-C_ハッチ
  6
JWW_DASHED1
 62
   120
370
     5
100
AcDbLine
 10
2385.637928813252
 20
2895.000148463904
 30
0.0
 11
2486.999228297053
 21
2996.361447947705
 31
0.0
  0
LINE
  5
540
330
1F
100
AcDbEntity
  8
0-C_ハッチ
  6
JWW_DASHED1
 62
   120
370
     5
100
AcDbLine
 10
2492.99922829706
 20
3002.361447947712
 30
0.0
 11
2567.637928813235
 21
3077.000148463887
 31
0.0
  0
LINE
  5
541
330
1F
100
AcDbEntity
  8
0-C_ハッチ
  6
JWW_DASHED1
 62
   120
370
     5
100
AcDbLine
 10
2573.637928813243
 20
3083.000148463895
 30
0.0
 11
2626.999228297052
 21
3136.361447947704
 31
0.0
  0
LINE
  5
542
330
1F
100
AcDbEntity
  8
0-C_ハッチ
  6
JWW_DASHED1
 62
   120
370
     5
100
AcDbLine
 10
2632.999228297044
 20
3142.361447947696
 30
0.0
 11
2755.637928813238
 21
3265.000148463891
 31
0.0
  0
LINE
  5
543
330
1F
100
AcDbEntity
  8
0-C_ハッチ
  6
JWW_DASHED1
 62
   120
370
     5
100
AcDbLine
 10
2343.21152194205
 20
2895.000148463902
 30
0.0
 11
2346.999228297046
 21
2898.787854818898
 31
0.0
  0
LINE
  5
544
330
1F
100
AcDbEntity
  8
0-C_ハッチ
  6
JWW_DASHED1
 62
   120
370
     5
100
AcDbLine
 10
2352.999228297039
 20
2904.787854818891
 30
0.0
 11
2486.999228297051
 21
3038.787854818902
 31
0.0
  0
LINE
  5
545
330
1F
100
AcDbEntity
  8
0-C_ハッチ
  6
JWW_DASHED1
 62
   120
370
     5
100
AcDbLine
 10
2542.976929117302
 20
3094.765555639154
 30
0.0
 11
2626.999228297058
 21
3178.78785481891
 31
0.0
  0
LINE
  5
546
330
1F
100
AcDbEntity
  8
0-C_ハッチ
  6
JWW_DASHED1
 62
   120
370
     5
100
AcDbLine
 10
2632.99922829705
 20
3184.787854818902
 30
0.0
 11
2713.211521942044
 21
3265.000148463896
 31
0.0
  0
LINE
  5
547
330
1F
100
AcDbEntity
  8
0-C_ハッチ
  6
JWW_DASHED1
 62
   120
370
     5
100
AcDbLine
 10
2300.78511507084
 20
2895.000148463892
 30
0.0
 11
2346.999228297057
 21
2941.214261690109
 31
0.0
  0
LINE
  5
548
330
1F
100
AcDbEntity
  8
0-C_ハッチ
  6
JWW_DASHED1
 62
   120
370
     5
100
AcDbLine
 10
2352.999228297065
 20
2947.214261690116
 30
0.0
 11
2467.01772390388
 21
3061.232757296933
 31
0.0
  0
LINE
  5
549
330
1F
100
AcDbEntity
  8
0-C_ハッチ
  6
JWW_DASHED1
 62
   120
370
     5
100
AcDbLine
 10
2518.16332598698
 20
3112.378359380033
 30
0.0
 11
2626.999228297053
 21
3221.214261690105
 31
0.0
  0
LINE
  5
54A
330
1F
100
AcDbEntity
  8
0-C_ハッチ
  6
JWW_DASHED1
 62
   120
370
     5
100
AcDbLine
 10
2632.999228297045
 20
3227.214261690097
 30
0.0
 11
2670.785115070846
 21
3265.000148463898
 31
0.0
  0
LINE
  5
54B
330
1F
100
AcDbEntity
  8
0-C_ハッチ
  6
JWW_DASHED1
 62
   120
370
     5
100
AcDbLine
 10
2258.358708199645
 20
2895.000148463897
 30
0.0
 11
2346.999228297052
 21
2983.640668561304
 31
0.0
  0
LINE
  5
54C
330
1F
100
AcDbEntity
  8
0-C_ハッチ
  6
JWW_DASHED1
 62
   120
370
     5
100
AcDbLine
 10
2352.999228297059
 20
2989.640668561311
 30
0.0
 11
2437.47636347978
 21
3074.117803744032
 31
0.0
  0
LINE
  5
54D
330
1F
100
AcDbEntity
  8
0-C_ハッチ
  6
JWW_DASHED1
 62
   120
370
     5
100
AcDbLine
 10
2457.234766264276
 20
3093.876206528527
 30
0.0
 11
2462.551887223151
 21
3099.193327487404
 31
0.0
  0
LINE
  5
54E
330
1F
100
AcDbEntity
  8
0-C_ハッチ
  6
JWW_DASHED1
 62
   120
370
     5
100
AcDbLine
 10
2503.756283728331
 20
3140.397723992583
 30
0.0
 11
2626.999228297048
 21
3263.6406685613
 31
0.0
  0
LINE
  5
54F
330
1F
100
AcDbEntity
  8
0-C_ハッチ
  6
JWW_DASHED1
 62
   120
370
     5
100
AcDbLine
 10
2216.999228297044
 20
2896.067075432496
 30
0.0
 11
2346.999228297047
 21
3026.067075432499
 31
0.0
  0
LINE
  5
550
330
1F
100
AcDbEntity
  8
0-C_ハッチ
  6
JWW_DASHED1
 62
   120
370
     5
100
AcDbLine
 10
2352.999228297054
 20
3032.067075432506
 30
0.0
 11
2397.932301328446
 21
3077.000148463898
 31
0.0
  0
LINE
  5
551
330
1F
100
AcDbEntity
  8
0-C_ハッチ
  6
JWW_DASHED1
 62
   120
370
     5
100
AcDbLine
 10
2403.932301328438
 20
3083.000148463891
 30
0.0
 11
2486.999228297052
 21
3166.067075432504
 31
0.0
  0
LINE
  5
552
330
1F
100
AcDbEntity
  8
0-C_ハッチ
  6
JWW_DASHED1
 62
   120
370
     5
100
AcDbLine
 10
2492.999228297063
 20
3172.067075432515
 30
0.0
 11
2585.932301328449
 21
3265.000148463901
 31
0.0
  0
LINE
  5
553
330
1F
100
AcDbEntity
  8
0-C_ハッチ
  6
JWW_DASHED1
 62
   120
370
     5
100
AcDbLine
 10
2216.999228297039
 20
2938.493482303692
 30
0.0
 11
2346.999228297057
 21
3068.49348230371
 31
0.0
  0
LINE
  5
554
330
1F
100
AcDbEntity
  8
0-C_ハッチ
  6
JWW_DASHED1
 62
   120
370
     5
100
AcDbLine
 10
2352.999228297049
 20
3074.493482303701
 30
0.0
 11
2355.505894457247
 21
3077.000148463898
 31
0.0
  0
LINE
  5
555
330
1F
100
AcDbEntity
  8
0-C_ハッチ
  6
JWW_DASHED1
 62
   120
370
     5
100
AcDbLine
 10
2361.505894457239
 20
3083.000148463891
 30
0.0
 11
2486.999228297046
 21
3208.493482303698
 31
0.0
  0
LINE
  5
556
330
1F
100
AcDbEntity
  8
0-C_ハッチ
  6
JWW_DASHED1
 62
   120
370
     5
100
AcDbLine
 10
2492.999228297054
 20
3214.493482303707
 30
0.0
 11
2543.505894457249
 21
3265.000148463901
 31
0.0
  0
LINE
  5
557
330
1F
100
AcDbEntity
  8
0-C_ハッチ
  6
JWW_DASHED1
 62
   120
370
     5
100
AcDbLine
 10
2216.999228297053
 20
2980.919889174851
 30
0.0
 11
2313.079487586087
 21
3077.000148463884
 31
0.0
  0
LINE
  5
558
330
1F
100
AcDbEntity
  8
0-C_ハッチ
  6
JWW_DASHED1
 62
   120
370
     5
100
AcDbLine
 10
2319.079487586094
 20
3083.000148463891
 30
0.0
 11
2346.999228297059
 21
3110.919889174857
 31
0.0
  0
LINE
  5
559
330
1F
100
AcDbEntity
  8
0-C_ハッチ
  6
JWW_DASHED1
 62
   120
370
     5
100
AcDbLine
 10
2352.999228297051
 20
3116.919889174848
 30
0.0
 11
2486.999228297049
 21
3250.919889174847
 31
0.0
  0
LINE
  5
55A
330
1F
100
AcDbEntity
  8
0-C_ハッチ
  6
JWW_DASHED1
 62
   120
370
     5
100
AcDbLine
 10
2492.999228297073
 20
3256.919889174871
 30
0.0
 11
2501.079487586077
 21
3265.000148463875
 31
0.0
  0
LINE
  5
55B
330
1F
100
AcDbEntity
  8
0-C_ハッチ
  6
JWW_DASHED1
 62
   120
370
     5
100
AcDbLine
 10
2216.999228297052
 20
3023.346296046049
 30
0.0
 11
2270.653080714892
 21
3077.00014846389
 31
0.0
  0
LINE
  5
55C
330
1F
100
AcDbEntity
  8
0-C_ハッチ
  6
JWW_DASHED1
 62
   120
370
     5
100
AcDbLine
 10
2276.6530807149
 20
3083.000148463897
 30
0.0
 11
2346.999228297057
 21
3153.346296046055
 31
0.0
  0
LINE
  5
55D
330
1F
100
AcDbEntity
  8
0-C_ハッチ
  6
JWW_DASHED1
 62
   120
370
     5
100
AcDbLine
 10
2352.999228297049
 20
3159.346296046047
 30
0.0
 11
2458.653080714902
 21
3265.0001484639
 31
0.0
  0
LINE
  5
55E
330
1F
100
AcDbEntity
  8
0-C_ハッチ
  6
JWW_DASHED1
 62
   120
370
     5
100
AcDbLine
 10
2216.99922829705
 20
3065.772702917248
 30
0.0
 11
2228.226673843698
 21
3077.000148463896
 31
0.0
  0
LINE
  5
55F
330
1F
100
AcDbEntity
  8
0-C_ハッチ
  6
JWW_DASHED1
 62
   120
370
     5
100
AcDbLine
 10
2234.226673843706
 20
3083.000148463903
 30
0.0
 11
2346.999228297056
 21
3195.772702917253
 31
0.0
  0
LINE
  5
560
330
1F
100
AcDbEntity
  8
0-C_ハッチ
  6
JWW_DASHED1
 62
   120
370
     5
100
AcDbLine
 10
2352.999228297048
 20
3201.772702917246
 30
0.0
 11
2416.226673843696
 21
3265.000148463893
 31
0.0
  0
LINE
  5
561
330
1F
100
AcDbEntity
  8
0-C_ハッチ
  6
JWW_DASHED1
 62
   120
370
     5
100
AcDbLine
 10
2216.999228297054
 20
3108.199109788452
 30
0.0
 11
2346.999228297057
 21
3238.199109788454
 31
0.0
  0
LINE
  5
562
330
1F
100
AcDbEntity
  8
0-C_ハッチ
  6
JWW_DASHED1
 62
   120
370
     5
100
AcDbLine
 10
2352.999228297064
 20
3244.199109788462
 30
0.0
 11
2373.800266972488
 21
3265.000148463886
 31
0.0
  0
LINE
  5
563
330
1F
100
AcDbEntity
  8
0-C_ハッチ
  6
JWW_DASHED1
 62
   120
370
     5
100
AcDbLine
 10
2216.999228297049
 20
3150.625516659647
 30
0.0
 11
2331.373860101299
 21
3265.000148463896
 31
0.0
  0
LINE
  5
564
330
1F
100
AcDbEntity
  8
0-C_ハッチ
  6
JWW_DASHED1
 62
   120
370
     5
100
AcDbLine
 10
2216.999228297044
 20
3193.051923530842
 30
0.0
 11
2288.947453230104
 21
3265.000148463901
 31
0.0
  0
LINE
  5
565
330
1F
100
AcDbEntity
  8
0-C_ハッチ
  6
JWW_DASHED1
 62
   120
370
     5
100
AcDbLine
 10
2216.999228297039
 20
3235.478330402037
 30
0.0
 11
2246.521046358906
 21
3265.000148463904
 31
0.0
  0
LINE
  5
566
330
1F
100
AcDbEntity
  8
0-C_ハッチ
  6
JWW_DASHED1
 62
   120
370
     5
100
AcDbLine
 10
3535.049183782796
 20
2895.000148463902
 30
0.0
 11
3572.99922829705
 21
2932.950192978156
 31
0.0
  0
LINE
  5
567
330
1F
100
AcDbEntity
  8
0-C_ハッチ
  6
JWW_DASHED1
 62
   120
370
     5
100
AcDbLine
 10
3492.622776911601
 20
2895.000148463907
 30
0.0
 11
3572.999228297048
 21
2975.376599849355
 31
0.0
  0
LINE
  5
568
330
1F
100
AcDbEntity
  8
0-C_ハッチ
  6
JWW_DASHED1
 62
   120
370
     5
100
AcDbLine
 10
3450.196370040405
 20
2895.000148463912
 30
0.0
 11
3572.999228297063
 21
3017.80300672057
 31
0.0
  0
LINE
  5
569
330
1F
100
AcDbEntity
  8
0-C_ハッチ
  6
JWW_DASHED1
 62
   120
370
     5
100
AcDbLine
 10
3407.769963169185
 20
2895.000148463892
 30
0.0
 11
3436.999228297053
 21
2924.22941359176
 31
0.0
  0
LINE
  5
56A
330
1F
100
AcDbEntity
  8
0-C_ハッチ
  6
JWW_DASHED1
 62
   120
370
     5
100
AcDbLine
 10
3442.99922829706
 20
2930.229413591767
 30
0.0
 11
3572.999228297063
 21
3060.22941359177
 31
0.0
  0
LINE
  5
56B
330
1F
100
AcDbEntity
  8
0-C_ハッチ
  6
JWW_DASHED1
 62
   120
370
     5
100
AcDbLine
 10
3365.343556297986
 20
2895.000148463892
 30
0.0
 11
3436.999228297048
 21
2966.655820462955
 31
0.0
  0
LINE
  5
56C
330
1F
100
AcDbEntity
  8
0-C_ハッチ
  6
JWW_DASHED1
 62
   120
370
     5
100
AcDbLine
 10
3442.999228297056
 20
2972.655820462962
 30
0.0
 11
3547.343556297983
 21
3077.00014846389
 31
0.0
  0
LINE
  5
56D
330
1F
100
AcDbEntity
  8
0-C_ハッチ
  6
JWW_DASHED1
 62
   120
370
     5
100
AcDbLine
 10
3553.343556297976
 20
3083.000148463882
 30
0.0
 11
3572.999228297065
 21
3102.655820462972
 31
0.0
  0
LINE
  5
56E
330
1F
100
AcDbEntity
  8
0-C_ハッチ
  6
JWW_DASHED1
 62
   120
370
     5
100
AcDbLine
 10
3322.917149426787
 20
2895.000148463893
 30
0.0
 11
3436.999228297043
 21
3009.08222733415
 31
0.0
  0
LINE
  5
56F
330
1F
100
AcDbEntity
  8
0-C_ハッチ
  6
JWW_DASHED1
 62
   120
370
     5
100
AcDbLine
 10
3442.999228297051
 20
3015.082227334157
 30
0.0
 11
3504.917149426789
 21
3077.000148463896
 31
0.0
  0
LINE
  5
570
330
1F
100
AcDbEntity
  8
0-C_ハッチ
  6
JWW_DASHED1
 62
   120
370
     5
100
AcDbLine
 10
3510.917149426781
 20
3083.000148463887
 30
0.0
 11
3572.999228297061
 21
3145.082227334167
 31
0.0
  0
LINE
  5
571
330
1F
100
AcDbEntity
  8
0-C_ハッチ
  6
JWW_DASHED1
 62
   120
370
     5
100
AcDbLine
 10
3280.490742555596
 20
2895.000148463902
 30
0.0
 11
3296.999228297045
 21
2911.508634205352
 31
0.0
  0
LINE
  5
572
330
1F
100
AcDbEntity
  8
0-C_ハッチ
  6
JWW_DASHED1
 62
   120
370
     5
100
AcDbLine
 10
3302.999228297053
 20
2917.508634205359
 30
0.0
 11
3436.999228297053
 21
3051.50863420536
 31
0.0
  0
LINE
  5
573
330
1F
100
AcDbEntity
  8
0-C_ハッチ
  6
JWW_DASHED1
 62
   120
370
     5
100
AcDbLine
 10
3442.999228297045
 20
3057.508634205352
 30
0.0
 11
3462.490742555596
 21
3077.000148463902
 31
0.0
  0
LINE
  5
574
330
1F
100
AcDbEntity
  8
0-C_ハッチ
  6
JWW_DASHED1
 62
   120
370
     5
100
AcDbLine
 10
3468.490742555587
 20
3083.000148463893
 30
0.0
 11
3572.999228297064
 21
3187.508634205371
 31
0.0
  0
LINE
  5
575
330
1F
100
AcDbEntity
  8
0-C_ハッチ
  6
JWW_DASHED1
 62
   120
370
     5
100
AcDbLine
 10
3238.064335684456
 20
2895.000148463907
 30
0.0
 11
3296.999228297039
 21
2953.935041076491
 31
0.0
  0
LINE
  5
576
330
1F
100
AcDbEntity
  8
0-C_ハッチ
  6
JWW_DASHED1
 62
   120
370
     5
100
AcDbLine
 10
3302.999228297062
 20
2959.935041076514
 30
0.0
 11
3420.064335684434
 21
3077.000148463886
 31
0.0
  0
LINE
  5
577
330
1F
100
AcDbEntity
  8
0-C_ハッチ
  6
JWW_DASHED1
 62
   120
370
     5
100
AcDbLine
 10
3426.064335684445
 20
3083.000148463897
 30
0.0
 11
3436.999228297053
 21
3093.935041076506
 31
0.0
  0
LINE
  5
578
330
1F
100
AcDbEntity
  8
0-C_ハッチ
  6
JWW_DASHED1
 62
   120
370
     5
100
AcDbLine
 10
3442.999228297045
 20
3099.935041076497
 30
0.0
 11
3572.999228297059
 21
3229.935041076511
 31
0.0
  0
LINE
  5
579
330
1F
100
AcDbEntity
  8
0-C_ハッチ
  6
JWW_DASHED1
 62
   120
370
     5
100
AcDbLine
 10
3195.637928813252
 20
2895.000148463904
 30
0.0
 11
3296.999228297053
 21
2996.361447947705
 31
0.0
  0
LINE
  5
57A
330
1F
100
AcDbEntity
  8
0-C_ハッチ
  6
JWW_DASHED1
 62
   120
370
     5
100
AcDbLine
 10
3302.99922829706
 20
3002.361447947712
 30
0.0
 11
3377.637928813235
 21
3077.000148463887
 31
0.0
  0
LINE
  5
57B
330
1F
100
AcDbEntity
  8
0-C_ハッチ
  6
JWW_DASHED1
 62
   120
370
     5
100
AcDbLine
 10
3383.637928813243
 20
3083.000148463895
 30
0.0
 11
3436.999228297052
 21
3136.361447947704
 31
0.0
  0
LINE
  5
57C
330
1F
100
AcDbEntity
  8
0-C_ハッチ
  6
JWW_DASHED1
 62
   120
370
     5
100
AcDbLine
 10
3442.999228297044
 20
3142.361447947696
 30
0.0
 11
3565.637928813238
 21
3265.000148463891
 31
0.0
  0
LINE
  5
57D
330
1F
100
AcDbEntity
  8
0-C_ハッチ
  6
JWW_DASHED1
 62
   120
370
     5
100
AcDbLine
 10
3153.21152194205
 20
2895.000148463902
 30
0.0
 11
3156.999228297046
 21
2898.787854818898
 31
0.0
  0
LINE
  5
57E
330
1F
100
AcDbEntity
  8
0-C_ハッチ
  6
JWW_DASHED1
 62
   120
370
     5
100
AcDbLine
 10
3162.999228297039
 20
2904.787854818891
 30
0.0
 11
3296.999228297051
 21
3038.787854818902
 31
0.0
  0
LINE
  5
57F
330
1F
100
AcDbEntity
  8
0-C_ハッチ
  6
JWW_DASHED1
 62
   120
370
     5
100
AcDbLine
 10
3352.976929117302
 20
3094.765555639154
 30
0.0
 11
3436.999228297058
 21
3178.78785481891
 31
0.0
  0
LINE
  5
580
330
1F
100
AcDbEntity
  8
0-C_ハッチ
  6
JWW_DASHED1
 62
   120
370
     5
100
AcDbLine
 10
3442.99922829705
 20
3184.787854818902
 30
0.0
 11
3523.211521942044
 21
3265.000148463896
 31
0.0
  0
LINE
  5
581
330
1F
100
AcDbEntity
  8
0-C_ハッチ
  6
JWW_DASHED1
 62
   120
370
     5
100
AcDbLine
 10
3110.78511507084
 20
2895.000148463892
 30
0.0
 11
3156.999228297057
 21
2941.214261690109
 31
0.0
  0
LINE
  5
582
330
1F
100
AcDbEntity
  8
0-C_ハッチ
  6
JWW_DASHED1
 62
   120
370
     5
100
AcDbLine
 10
3162.999228297065
 20
2947.214261690116
 30
0.0
 11
3277.01772390388
 21
3061.232757296933
 31
0.0
  0
LINE
  5
583
330
1F
100
AcDbEntity
  8
0-C_ハッチ
  6
JWW_DASHED1
 62
   120
370
     5
100
AcDbLine
 10
3328.16332598698
 20
3112.378359380033
 30
0.0
 11
3436.999228297052
 21
3221.214261690105
 31
0.0
  0
LINE
  5
584
330
1F
100
AcDbEntity
  8
0-C_ハッチ
  6
JWW_DASHED1
 62
   120
370
     5
100
AcDbLine
 10
3442.999228297045
 20
3227.214261690097
 30
0.0
 11
3480.785115070846
 21
3265.000148463898
 31
0.0
  0
LINE
  5
585
330
1F
100
AcDbEntity
  8
0-C_ハッチ
  6
JWW_DASHED1
 62
   120
370
     5
100
AcDbLine
 10
3068.358708199645
 20
2895.000148463897
 30
0.0
 11
3156.999228297052
 21
2983.640668561304
 31
0.0
  0
LINE
  5
586
330
1F
100
AcDbEntity
  8
0-C_ハッチ
  6
JWW_DASHED1
 62
   120
370
     5
100
AcDbLine
 10
3162.999228297059
 20
2989.640668561311
 30
0.0
 11
3247.47636347978
 21
3074.117803744032
 31
0.0
  0
LINE
  5
587
330
1F
100
AcDbEntity
  8
0-C_ハッチ
  6
JWW_DASHED1
 62
   120
370
     5
100
AcDbLine
 10
3267.234766264276
 20
3093.876206528527
 30
0.0
 11
3272.551887223151
 21
3099.193327487404
 31
0.0
  0
LINE
  5
588
330
1F
100
AcDbEntity
  8
0-C_ハッチ
  6
JWW_DASHED1
 62
   120
370
     5
100
AcDbLine
 10
3313.756283728331
 20
3140.397723992583
 30
0.0
 11
3436.999228297048
 21
3263.6406685613
 31
0.0
  0
LINE
  5
589
330
1F
100
AcDbEntity
  8
0-C_ハッチ
  6
JWW_DASHED1
 62
   120
370
     5
100
AcDbLine
 10
3026.999228297044
 20
2896.067075432496
 30
0.0
 11
3156.999228297046
 21
3026.067075432499
 31
0.0
  0
LINE
  5
58A
330
1F
100
AcDbEntity
  8
0-C_ハッチ
  6
JWW_DASHED1
 62
   120
370
     5
100
AcDbLine
 10
3162.999228297054
 20
3032.067075432506
 30
0.0
 11
3207.932301328446
 21
3077.000148463898
 31
0.0
  0
LINE
  5
58B
330
1F
100
AcDbEntity
  8
0-C_ハッチ
  6
JWW_DASHED1
 62
   120
370
     5
100
AcDbLine
 10
3213.932301328438
 20
3083.000148463891
 30
0.0
 11
3296.999228297052
 21
3166.067075432504
 31
0.0
  0
LINE
  5
58C
330
1F
100
AcDbEntity
  8
0-C_ハッチ
  6
JWW_DASHED1
 62
   120
370
     5
100
AcDbLine
 10
3302.999228297063
 20
3172.067075432515
 30
0.0
 11
3395.932301328449
 21
3265.000148463901
 31
0.0
  0
LINE
  5
58D
330
1F
100
AcDbEntity
  8
0-C_ハッチ
  6
JWW_DASHED1
 62
   120
370
     5
100
AcDbLine
 10
3026.999228297039
 20
2938.493482303692
 30
0.0
 11
3156.999228297057
 21
3068.49348230371
 31
0.0
  0
LINE
  5
58E
330
1F
100
AcDbEntity
  8
0-C_ハッチ
  6
JWW_DASHED1
 62
   120
370
     5
100
AcDbLine
 10
3162.999228297049
 20
3074.493482303701
 30
0.0
 11
3165.505894457247
 21
3077.000148463898
 31
0.0
  0
LINE
  5
58F
330
1F
100
AcDbEntity
  8
0-C_ハッチ
  6
JWW_DASHED1
 62
   120
370
     5
100
AcDbLine
 10
3171.505894457239
 20
3083.000148463891
 30
0.0
 11
3296.999228297046
 21
3208.493482303698
 31
0.0
  0
LINE
  5
590
330
1F
100
AcDbEntity
  8
0-C_ハッチ
  6
JWW_DASHED1
 62
   120
370
     5
100
AcDbLine
 10
3302.999228297055
 20
3214.493482303707
 30
0.0
 11
3353.505894457249
 21
3265.000148463901
 31
0.0
  0
LINE
  5
591
330
1F
100
AcDbEntity
  8
0-C_ハッチ
  6
JWW_DASHED1
 62
   120
370
     5
100
AcDbLine
 10
3026.999228297053
 20
2980.919889174851
 30
0.0
 11
3123.079487586087
 21
3077.000148463884
 31
0.0
  0
LINE
  5
592
330
1F
100
AcDbEntity
  8
0-C_ハッチ
  6
JWW_DASHED1
 62
   120
370
     5
100
AcDbLine
 10
3129.079487586094
 20
3083.000148463891
 30
0.0
 11
3156.999228297059
 21
3110.919889174857
 31
0.0
  0
LINE
  5
593
330
1F
100
AcDbEntity
  8
0-C_ハッチ
  6
JWW_DASHED1
 62
   120
370
     5
100
AcDbLine
 10
3162.999228297051
 20
3116.919889174848
 30
0.0
 11
3296.999228297049
 21
3250.919889174847
 31
0.0
  0
LINE
  5
594
330
1F
100
AcDbEntity
  8
0-C_ハッチ
  6
JWW_DASHED1
 62
   120
370
     5
100
AcDbLine
 10
3302.999228297073
 20
3256.919889174871
 30
0.0
 11
3311.079487586077
 21
3265.000148463875
 31
0.0
  0
LINE
  5
595
330
1F
100
AcDbEntity
  8
0-C_ハッチ
  6
JWW_DASHED1
 62
   120
370
     5
100
AcDbLine
 10
3026.999228297052
 20
3023.346296046049
 30
0.0
 11
3080.653080714892
 21
3077.00014846389
 31
0.0
  0
LINE
  5
596
330
1F
100
AcDbEntity
  8
0-C_ハッチ
  6
JWW_DASHED1
 62
   120
370
     5
100
AcDbLine
 10
3086.6530807149
 20
3083.000148463897
 30
0.0
 11
3156.999228297057
 21
3153.346296046055
 31
0.0
  0
LINE
  5
597
330
1F
100
AcDbEntity
  8
0-C_ハッチ
  6
JWW_DASHED1
 62
   120
370
     5
100
AcDbLine
 10
3162.999228297049
 20
3159.346296046047
 30
0.0
 11
3268.653080714903
 21
3265.0001484639
 31
0.0
  0
LINE
  5
598
330
1F
100
AcDbEntity
  8
0-C_ハッチ
  6
JWW_DASHED1
 62
   120
370
     5
100
AcDbLine
 10
3026.99922829705
 20
3065.772702917248
 30
0.0
 11
3038.226673843697
 21
3077.000148463896
 31
0.0
  0
LINE
  5
599
330
1F
100
AcDbEntity
  8
0-C_ハッチ
  6
JWW_DASHED1
 62
   120
370
     5
100
AcDbLine
 10
3044.226673843706
 20
3083.000148463903
 30
0.0
 11
3156.999228297056
 21
3195.772702917253
 31
0.0
  0
LINE
  5
59A
330
1F
100
AcDbEntity
  8
0-C_ハッチ
  6
JWW_DASHED1
 62
   120
370
     5
100
AcDbLine
 10
3162.999228297048
 20
3201.772702917246
 30
0.0
 11
3226.226673843696
 21
3265.000148463893
 31
0.0
  0
LINE
  5
59B
330
1F
100
AcDbEntity
  8
0-C_ハッチ
  6
JWW_DASHED1
 62
   120
370
     5
100
AcDbLine
 10
3026.999228297054
 20
3108.199109788452
 30
0.0
 11
3156.999228297057
 21
3238.199109788454
 31
0.0
  0
LINE
  5
59C
330
1F
100
AcDbEntity
  8
0-C_ハッチ
  6
JWW_DASHED1
 62
   120
370
     5
100
AcDbLine
 10
3162.999228297064
 20
3244.199109788462
 30
0.0
 11
3183.800266972488
 21
3265.000148463886
 31
0.0
  0
LINE
  5
59D
330
1F
100
AcDbEntity
  8
0-C_ハッチ
  6
JWW_DASHED1
 62
   120
370
     5
100
AcDbLine
 10
3026.999228297049
 20
3150.625516659647
 30
0.0
 11
3141.373860101299
 21
3265.000148463896
 31
0.0
  0
LINE
  5
59E
330
1F
100
AcDbEntity
  8
0-C_ハッチ
  6
JWW_DASHED1
 62
   120
370
     5
100
AcDbLine
 10
3026.999228297044
 20
3193.051923530842
 30
0.0
 11
3098.947453230104
 21
3265.000148463901
 31
0.0
  0
LINE
  5
59F
330
1F
100
AcDbEntity
  8
0-C_ハッチ
  6
JWW_DASHED1
 62
   120
370
     5
100
AcDbLine
 10
3026.999228297039
 20
3235.478330402037
 30
0.0
 11
3056.521046358906
 21
3265.000148463904
 31
0.0
  0
LINE
  5
5A0
330
1F
100
AcDbEntity
  8
0-C_ハッチ
  6
JWW_DASHED1
 62
   120
370
     5
100
AcDbLine
 10
-3353.000269606306
 20
-1818.250083820242
 30
0.0
 11
-3353.000269606306
 21
-860.2500838202428
 31
0.0
  0
LINE
  5
5A1
330
1F
100
AcDbEntity
  8
0-C_ハッチ
  6
JWW_DASHED1
 62
   120
370
     5
100
AcDbLine
 10
-3333.000269606307
 20
-1818.250083820242
 30
0.0
 11
-3333.000269606307
 21
-860.2500838202428
 31
0.0
  0
LINE
  5
5A2
330
1F
100
AcDbEntity
  8
0-C_ハッチ
  6
JWW_DASHED1
 62
   120
370
     5
100
AcDbLine
 10
-3313.000269606307
 20
-1818.250083820242
 30
0.0
 11
-3313.000269606307
 21
-860.2500838202428
 31
0.0
  0
LINE
  5
5A3
330
1F
100
AcDbEntity
  8
0-C_ハッチ
  6
JWW_DASHED1
 62
   120
370
     5
100
AcDbLine
 10
-3293.000269606306
 20
-1818.250083820242
 30
0.0
 11
-3293.000269606306
 21
-860.2500838202428
 31
0.0
  0
LINE
  5
5A4
330
1F
100
AcDbEntity
  8
0-C_ハッチ
  6
JWW_DASHED1
 62
   120
370
     5
100
AcDbLine
 10
-3273.000269606307
 20
-1818.250083820242
 30
0.0
 11
-3273.000269606307
 21
-860.2500838202428
 31
0.0
  0
LINE
  5
5A5
330
1F
100
AcDbEntity
  8
0-C_ハッチ
  6
JWW_DASHED1
 62
   120
370
     5
100
AcDbLine
 10
-3253.000269606307
 20
-1818.250083820242
 30
0.0
 11
-3253.000269606307
 21
-860.2500838202428
 31
0.0
  0
LINE
  5
5A6
330
1F
100
AcDbEntity
  8
0-C_ハッチ
  6
JWW_DASHED1
 62
   120
370
     5
100
AcDbLine
 10
-3233.000269606306
 20
-1818.250083820242
 30
0.0
 11
-3233.000269606306
 21
-860.2500838202428
 31
0.0
  0
LINE
  5
5A7
330
1F
100
AcDbEntity
  8
0-C_ハッチ
  6
JWW_DASHED1
 62
   120
370
     5
100
AcDbLine
 10
-3213.000269606307
 20
-1818.250083820242
 30
0.0
 11
-3213.000269606307
 21
-860.2500838202428
 31
0.0
  0
LINE
  5
5A8
330
1F
100
AcDbEntity
  8
0-C_ハッチ
  6
JWW_DASHED1
 62
   120
370
     5
100
AcDbLine
 10
-3193.000269606307
 20
-1818.250083820242
 30
0.0
 11
-3193.000269606307
 21
-860.2500838202428
 31
0.0
  0
LINE
  5
5A9
330
1F
100
AcDbEntity
  8
0-C_ハッチ
  6
JWW_DASHED1
 62
   120
370
     5
100
AcDbLine
 10
-3173.000269606306
 20
-1818.250083820242
 30
0.0
 11
-3173.000269606306
 21
-860.2500838202428
 31
0.0
  0
LINE
  5
5AA
330
1F
100
AcDbEntity
  8
0-C_ハッチ
  6
JWW_DASHED1
 62
   120
370
     5
100
AcDbLine
 10
-3153.000269606307
 20
-1818.250083820242
 30
0.0
 11
-3153.000269606307
 21
-860.2500838202428
 31
0.0
  0
LINE
  5
5AB
330
1F
100
AcDbEntity
  8
0-C_ハッチ
  6
JWW_DASHED1
 62
   120
370
     5
100
AcDbLine
 10
-3133.000269606307
 20
-1818.250083820242
 30
0.0
 11
-3133.000269606307
 21
-860.2500838202428
 31
0.0
  0
LINE
  5
5AC
330
1F
100
AcDbEntity
  8
0-C_ハッチ
  6
JWW_DASHED1
 62
   120
370
     5
100
AcDbLine
 10
-3113.000269606306
 20
-1818.250083820242
 30
0.0
 11
-3113.000269606306
 21
-860.2500838202428
 31
0.0
  0
LINE
  5
5AD
330
1F
100
AcDbEntity
  8
0-C_ハッチ
  6
JWW_DASHED1
 62
   120
370
     5
100
AcDbLine
 10
-3093.000269606307
 20
-1818.250083820242
 30
0.0
 11
-3093.000269606307
 21
-860.2500838202428
 31
0.0
  0
LINE
  5
5AE
330
1F
100
AcDbEntity
  8
0-C_ハッチ
  6
JWW_DASHED1
 62
   120
370
     5
100
AcDbLine
 10
-3073.000269606307
 20
-1818.250083820242
 30
0.0
 11
-3073.000269606307
 21
-860.2500838202428
 31
0.0
  0
LINE
  5
5AF
330
1F
100
AcDbEntity
  8
0-C_ハッチ
  6
JWW_DASHED1
 62
   120
370
     5
100
AcDbLine
 10
-3053.000269606307
 20
-1818.250083820242
 30
0.0
 11
-3053.000269606307
 21
-860.2500838202428
 31
0.0
  0
LINE
  5
5B0
330
1F
100
AcDbEntity
  8
0-C_ハッチ
  6
JWW_DASHED1
 62
   120
370
     5
100
AcDbLine
 10
-3033.000269606307
 20
-1818.250083820242
 30
0.0
 11
-3033.000269606307
 21
-860.2500838202428
 31
0.0
  0
LINE
  5
5B1
330
1F
100
AcDbEntity
  8
0-C_ハッチ
  6
JWW_DASHED1
 62
   120
370
     5
100
AcDbLine
 10
-3013.000269606307
 20
-1818.250083820242
 30
0.0
 11
-3013.000269606307
 21
-860.2500838202428
 31
0.0
  0
LINE
  5
5B2
330
1F
100
AcDbEntity
  8
0-C_ハッチ
  6
JWW_DASHED1
 62
   120
370
     5
100
AcDbLine
 10
-2993.000269606307
 20
-1818.250083820242
 30
0.0
 11
-2993.000269606307
 21
-860.2500838202428
 31
0.0
  0
LINE
  5
5B3
330
1F
100
AcDbEntity
  8
0-C_ハッチ
  6
JWW_DASHED1
 62
   120
370
     5
100
AcDbLine
 10
-2973.000269606307
 20
-1818.250083820242
 30
0.0
 11
-2973.000269606307
 21
-860.2500838202428
 31
0.0
  0
LINE
  5
5B4
330
1F
100
AcDbEntity
  8
0-C_ハッチ
  6
JWW_DASHED1
 62
   120
370
     5
100
AcDbLine
 10
-2953.000269606307
 20
-1818.250083820242
 30
0.0
 11
-2953.000269606307
 21
-860.2500838202428
 31
0.0
  0
LINE
  5
5B5
330
1F
100
AcDbEntity
  8
0-C_ハッチ
  6
JWW_DASHED1
 62
   120
370
     5
100
AcDbLine
 10
-2933.000269606307
 20
-1818.250083820242
 30
0.0
 11
-2933.000269606307
 21
-860.2500838202428
 31
0.0
  0
LINE
  5
5B6
330
1F
100
AcDbEntity
  8
0-C_ハッチ
  6
JWW_DASHED1
 62
   120
370
     5
100
AcDbLine
 10
-2913.000269606307
 20
-1818.250083820242
 30
0.0
 11
-2913.000269606307
 21
-860.2500838202428
 31
0.0
  0
LINE
  5
5B7
330
1F
100
AcDbEntity
  8
0-C_ハッチ
  6
JWW_DASHED1
 62
   120
370
     5
100
AcDbLine
 10
-2893.000269606307
 20
-1818.250083820242
 30
0.0
 11
-2893.000269606307
 21
-860.2500838202428
 31
0.0
  0
LINE
  5
5B8
330
1F
100
AcDbEntity
  8
0-C_ハッチ
  6
JWW_DASHED1
 62
   120
370
     5
100
AcDbLine
 10
-2873.000269606307
 20
-1818.250083820242
 30
0.0
 11
-2873.000269606307
 21
-860.2500838202428
 31
0.0
  0
LINE
  5
5B9
330
1F
100
AcDbEntity
  8
0-C_ハッチ
  6
JWW_DASHED1
 62
   120
370
     5
100
AcDbLine
 10
-2853.000269606307
 20
-1818.250083820242
 30
0.0
 11
-2853.000269606307
 21
-860.2500838202428
 31
0.0
  0
LINE
  5
5BA
330
1F
100
AcDbEntity
  8
0-C_ハッチ
  6
JWW_DASHED1
 62
   120
370
     5
100
AcDbLine
 10
-2543.000269606305
 20
-1818.250083820242
 30
0.0
 11
-2543.000269606305
 21
-860.2500838202428
 31
0.0
  0
LINE
  5
5BB
330
1F
100
AcDbEntity
  8
0-C_ハッチ
  6
JWW_DASHED1
 62
   120
370
     5
100
AcDbLine
 10
-2523.000269606305
 20
-1818.250083820242
 30
0.0
 11
-2523.000269606305
 21
-860.2500838202428
 31
0.0
  0
LINE
  5
5BC
330
1F
100
AcDbEntity
  8
0-C_ハッチ
  6
JWW_DASHED1
 62
   120
370
     5
100
AcDbLine
 10
-2503.000269606305
 20
-1818.250083820242
 30
0.0
 11
-2503.000269606305
 21
-860.2500838202428
 31
0.0
  0
LINE
  5
5BD
330
1F
100
AcDbEntity
  8
0-C_ハッチ
  6
JWW_DASHED1
 62
   120
370
     5
100
AcDbLine
 10
-2483.000269606305
 20
-1818.250083820242
 30
0.0
 11
-2483.000269606305
 21
-860.2500838202428
 31
0.0
  0
LINE
  5
5BE
330
1F
100
AcDbEntity
  8
0-C_ハッチ
  6
JWW_DASHED1
 62
   120
370
     5
100
AcDbLine
 10
-2463.000269606305
 20
-1818.250083820242
 30
0.0
 11
-2463.000269606305
 21
-860.2500838202428
 31
0.0
  0
LINE
  5
5BF
330
1F
100
AcDbEntity
  8
0-C_ハッチ
  6
JWW_DASHED1
 62
   120
370
     5
100
AcDbLine
 10
-2443.000269606305
 20
-1818.250083820242
 30
0.0
 11
-2443.000269606305
 21
-860.2500838202428
 31
0.0
  0
LINE
  5
5C0
330
1F
100
AcDbEntity
  8
0-C_ハッチ
  6
JWW_DASHED1
 62
   120
370
     5
100
AcDbLine
 10
-2423.000269606305
 20
-1818.250083820242
 30
0.0
 11
-2423.000269606305
 21
-860.2500838202428
 31
0.0
  0
LINE
  5
5C1
330
1F
100
AcDbEntity
  8
0-C_ハッチ
  6
JWW_DASHED1
 62
   120
370
     5
100
AcDbLine
 10
-2403.000269606305
 20
-1818.250083820242
 30
0.0
 11
-2403.000269606305
 21
-860.2500838202428
 31
0.0
  0
LINE
  5
5C2
330
1F
100
AcDbEntity
  8
0-C_ハッチ
  6
JWW_DASHED1
 62
   120
370
     5
100
AcDbLine
 10
-2383.000269606305
 20
-1818.250083820242
 30
0.0
 11
-2383.000269606305
 21
-860.2500838202428
 31
0.0
  0
LINE
  5
5C3
330
1F
100
AcDbEntity
  8
0-C_ハッチ
  6
JWW_DASHED1
 62
   120
370
     5
100
AcDbLine
 10
-2363.000269606305
 20
-1818.250083820242
 30
0.0
 11
-2363.000269606305
 21
-860.2500838202428
 31
0.0
  0
LINE
  5
5C4
330
1F
100
AcDbEntity
  8
0-C_ハッチ
  6
JWW_DASHED1
 62
   120
370
     5
100
AcDbLine
 10
-2343.000269606305
 20
-1818.250083820242
 30
0.0
 11
-2343.000269606305
 21
-860.2500838202428
 31
0.0
  0
LINE
  5
5C5
330
1F
100
AcDbEntity
  8
0-C_ハッチ
  6
JWW_DASHED1
 62
   120
370
     5
100
AcDbLine
 10
-2323.000269606305
 20
-1818.250083820242
 30
0.0
 11
-2323.000269606305
 21
-860.2500838202428
 31
0.0
  0
LINE
  5
5C6
330
1F
100
AcDbEntity
  8
0-C_ハッチ
  6
JWW_DASHED1
 62
   120
370
     5
100
AcDbLine
 10
-2303.000269606305
 20
-1818.250083820242
 30
0.0
 11
-2303.000269606305
 21
-860.2500838202428
 31
0.0
  0
LINE
  5
5C7
330
1F
100
AcDbEntity
  8
0-C_ハッチ
  6
JWW_DASHED1
 62
   120
370
     5
100
AcDbLine
 10
-2283.000269606305
 20
-1818.250083820242
 30
0.0
 11
-2283.000269606305
 21
-860.2500838202428
 31
0.0
  0
LINE
  5
5C8
330
1F
100
AcDbEntity
  8
0-C_ハッチ
  6
JWW_DASHED1
 62
   120
370
     5
100
AcDbLine
 10
-2263.000269606305
 20
-1818.250083820242
 30
0.0
 11
-2263.000269606305
 21
-860.2500838202428
 31
0.0
  0
LINE
  5
5C9
330
1F
100
AcDbEntity
  8
0-C_ハッチ
  6
JWW_DASHED1
 62
   120
370
     5
100
AcDbLine
 10
-2243.000269606305
 20
-1818.250083820242
 30
0.0
 11
-2243.000269606305
 21
-860.2500838202428
 31
0.0
  0
LINE
  5
5CA
330
1F
100
AcDbEntity
  8
0-C_ハッチ
  6
JWW_DASHED1
 62
   120
370
     5
100
AcDbLine
 10
-2223.000269606305
 20
-1818.250083820242
 30
0.0
 11
-2223.000269606305
 21
-860.2500838202428
 31
0.0
  0
LINE
  5
5CB
330
1F
100
AcDbEntity
  8
0-C_ハッチ
  6
JWW_DASHED1
 62
   120
370
     5
100
AcDbLine
 10
-2203.000269606305
 20
-1818.250083820242
 30
0.0
 11
-2203.000269606305
 21
-860.2500838202428
 31
0.0
  0
LINE
  5
5CC
330
1F
100
AcDbEntity
  8
0-C_ハッチ
  6
JWW_DASHED1
 62
   120
370
     5
100
AcDbLine
 10
-2183.000269606305
 20
-1818.250083820242
 30
0.0
 11
-2183.000269606305
 21
-860.2500838202428
 31
0.0
  0
LINE
  5
5CD
330
1F
100
AcDbEntity
  8
0-C_ハッチ
  6
JWW_DASHED1
 62
   120
370
     5
100
AcDbLine
 10
-2163.000269606305
 20
-1818.250083820242
 30
0.0
 11
-2163.000269606305
 21
-860.2500838202428
 31
0.0
  0
LINE
  5
5CE
330
1F
100
AcDbEntity
  8
0-C_ハッチ
  6
JWW_DASHED1
 62
   120
370
     5
100
AcDbLine
 10
-2143.000269606305
 20
-1818.250083820242
 30
0.0
 11
-2143.000269606305
 21
-860.2500838202428
 31
0.0
  0
LINE
  5
5CF
330
1F
100
AcDbEntity
  8
0-C_ハッチ
  6
JWW_DASHED1
 62
   120
370
     5
100
AcDbLine
 10
-2123.000269606305
 20
-1818.250083820242
 30
0.0
 11
-2123.000269606305
 21
-860.2500838202428
 31
0.0
  0
LINE
  5
5D0
330
1F
100
AcDbEntity
  8
0-C_ハッチ
  6
JWW_DASHED1
 62
   120
370
     5
100
AcDbLine
 10
-2103.000269606305
 20
-1818.250083820242
 30
0.0
 11
-2103.000269606305
 21
-860.2500838202428
 31
0.0
  0
LINE
  5
5D1
330
1F
100
AcDbEntity
  8
0-C_ハッチ
  6
JWW_DASHED1
 62
   120
370
     5
100
AcDbLine
 10
-2083.000269606305
 20
-1818.250083820242
 30
0.0
 11
-2083.000269606305
 21
-860.2500838202428
 31
0.0
  0
LINE
  5
5D2
330
1F
100
AcDbEntity
  8
0-C_ハッチ
  6
JWW_DASHED1
 62
   120
370
     5
100
AcDbLine
 10
-2063.000269606305
 20
-1818.250083820242
 30
0.0
 11
-2063.000269606305
 21
-860.2500838202428
 31
0.0
  0
LINE
  5
5D3
330
1F
100
AcDbEntity
  8
0-C_ハッチ
  6
JWW_DASHED1
 62
   120
370
     5
100
AcDbLine
 10
-2043.000269606305
 20
-1818.250083820242
 30
0.0
 11
-2043.000269606305
 21
-860.2500838202428
 31
0.0
  0
LINE
  5
5D4
330
1F
100
AcDbEntity
  8
0-C_ハッチ
  6
JWW_DASHED1
 62
   120
370
     5
100
AcDbLine
 10
2236.999228297053
 20
-1224.250083820242
 30
0.0
 11
2236.999228297053
 21
-854.2500838202423
 31
0.0
  0
LINE
  5
5D5
330
1F
100
AcDbEntity
  8
0-C_ハッチ
  6
JWW_DASHED1
 62
   120
370
     5
100
AcDbLine
 10
2256.999228297053
 20
-1224.250083820242
 30
0.0
 11
2256.999228297053
 21
-854.2500838202423
 31
0.0
  0
LINE
  5
5D6
330
1F
100
AcDbEntity
  8
0-C_ハッチ
  6
JWW_DASHED1
 62
   120
370
     5
100
AcDbLine
 10
2276.999228297053
 20
-1224.250083820242
 30
0.0
 11
2276.999228297053
 21
-854.2500838202423
 31
0.0
  0
LINE
  5
5D7
330
1F
100
AcDbEntity
  8
0-C_ハッチ
  6
JWW_DASHED1
 62
   120
370
     5
100
AcDbLine
 10
2296.999228297053
 20
-1224.250083820242
 30
0.0
 11
2296.999228297053
 21
-854.2500838202423
 31
0.0
  0
LINE
  5
5D8
330
1F
100
AcDbEntity
  8
0-C_ハッチ
  6
JWW_DASHED1
 62
   120
370
     5
100
AcDbLine
 10
2316.999228297053
 20
-1224.250083820242
 30
0.0
 11
2316.999228297053
 21
-854.2500838202423
 31
0.0
  0
LINE
  5
5D9
330
1F
100
AcDbEntity
  8
0-C_ハッチ
  6
JWW_DASHED1
 62
   120
370
     5
100
AcDbLine
 10
2336.999228297053
 20
-1224.250083820242
 30
0.0
 11
2336.999228297053
 21
-854.2500838202423
 31
0.0
  0
LINE
  5
5DA
330
1F
100
AcDbEntity
  8
0-C_ハッチ
  6
JWW_DASHED1
 62
   120
370
     5
100
AcDbLine
 10
2356.999228297053
 20
-1224.250083820242
 30
0.0
 11
2356.999228297053
 21
-854.2500838202423
 31
0.0
  0
LINE
  5
5DB
330
1F
100
AcDbEntity
  8
0-C_ハッチ
  6
JWW_DASHED1
 62
   120
370
     5
100
AcDbLine
 10
2376.999228297053
 20
-1224.250083820242
 30
0.0
 11
2376.999228297053
 21
-854.2500838202423
 31
0.0
  0
LINE
  5
5DC
330
1F
100
AcDbEntity
  8
0-C_ハッチ
  6
JWW_DASHED1
 62
   120
370
     5
100
AcDbLine
 10
2396.999228297053
 20
-1224.250083820242
 30
0.0
 11
2396.999228297053
 21
-854.2500838202423
 31
0.0
  0
LINE
  5
5DD
330
1F
100
AcDbEntity
  8
0-C_ハッチ
  6
JWW_DASHED1
 62
   120
370
     5
100
AcDbLine
 10
2416.999228297053
 20
-1224.250083820242
 30
0.0
 11
2416.999228297053
 21
-854.2500838202423
 31
0.0
  0
LINE
  5
5DE
330
1F
100
AcDbEntity
  8
0-C_ハッチ
  6
JWW_DASHED1
 62
   120
370
     5
100
AcDbLine
 10
2436.999228297053
 20
-1224.250083820242
 30
0.0
 11
2436.999228297053
 21
-854.2500838202423
 31
0.0
  0
LINE
  5
5DF
330
1F
100
AcDbEntity
  8
0-C_ハッチ
  6
JWW_DASHED1
 62
   120
370
     5
100
AcDbLine
 10
2456.999228297053
 20
-1224.250083820242
 30
0.0
 11
2456.999228297053
 21
-854.2500838202423
 31
0.0
  0
LINE
  5
5E0
330
1F
100
AcDbEntity
  8
0-C_ハッチ
  6
JWW_DASHED1
 62
   120
370
     5
100
AcDbLine
 10
2476.999228297053
 20
-1224.250083820242
 30
0.0
 11
2476.999228297053
 21
-854.2500838202423
 31
0.0
  0
LINE
  5
5E1
330
1F
100
AcDbEntity
  8
0-C_ハッチ
  6
JWW_DASHED1
 62
   120
370
     5
100
AcDbLine
 10
2496.999228297053
 20
-1224.250083820242
 30
0.0
 11
2496.999228297053
 21
-854.2500838202423
 31
0.0
  0
LINE
  5
5E2
330
1F
100
AcDbEntity
  8
0-C_ハッチ
  6
JWW_DASHED1
 62
   120
370
     5
100
AcDbLine
 10
2516.999228297053
 20
-1224.250083820242
 30
0.0
 11
2516.999228297053
 21
-854.2500838202423
 31
0.0
  0
LINE
  5
5E3
330
1F
100
AcDbEntity
  8
0-C_ハッチ
  6
JWW_DASHED1
 62
   120
370
     5
100
AcDbLine
 10
2536.999228297053
 20
-1224.250083820242
 30
0.0
 11
2536.999228297053
 21
-854.2500838202423
 31
0.0
  0
LINE
  5
5E4
330
1F
100
AcDbEntity
  8
0-C_ハッチ
  6
JWW_DASHED1
 62
   120
370
     5
100
AcDbLine
 10
2556.999228297053
 20
-1224.250083820242
 30
0.0
 11
2556.999228297053
 21
-854.2500838202423
 31
0.0
  0
LINE
  5
5E5
330
1F
100
AcDbEntity
  8
0-C_ハッチ
  6
JWW_DASHED1
 62
   120
370
     5
100
AcDbLine
 10
2576.999228297053
 20
-1224.250083820242
 30
0.0
 11
2576.999228297053
 21
-854.2500838202423
 31
0.0
  0
LINE
  5
5E6
330
1F
100
AcDbEntity
  8
0-C_ハッチ
  6
JWW_DASHED1
 62
   120
370
     5
100
AcDbLine
 10
2596.999228297053
 20
-1224.250083820242
 30
0.0
 11
2596.999228297053
 21
-854.2500838202423
 31
0.0
  0
LINE
  5
5E7
330
1F
100
AcDbEntity
  8
0-C_ハッチ
  6
JWW_DASHED1
 62
   120
370
     5
100
AcDbLine
 10
2616.999228297053
 20
-1224.250083820242
 30
0.0
 11
2616.999228297053
 21
-854.2500838202423
 31
0.0
  0
LINE
  5
5E8
330
1F
100
AcDbEntity
  8
0-C_ハッチ
  6
JWW_DASHED1
 62
   120
370
     5
100
AcDbLine
 10
2636.999228297053
 20
-1224.250083820242
 30
0.0
 11
2636.999228297053
 21
-854.2500838202423
 31
0.0
  0
LINE
  5
5E9
330
1F
100
AcDbEntity
  8
0-C_ハッチ
  6
JWW_DASHED1
 62
   120
370
     5
100
AcDbLine
 10
2656.999228297053
 20
-1224.250083820242
 30
0.0
 11
2656.999228297053
 21
-854.2500838202423
 31
0.0
  0
LINE
  5
5EA
330
1F
100
AcDbEntity
  8
0-C_ハッチ
  6
JWW_DASHED1
 62
   120
370
     5
100
AcDbLine
 10
2676.999228297053
 20
-1224.250083820242
 30
0.0
 11
2676.999228297053
 21
-854.2500838202423
 31
0.0
  0
LINE
  5
5EB
330
1F
100
AcDbEntity
  8
0-C_ハッチ
  6
JWW_DASHED1
 62
   120
370
     5
100
AcDbLine
 10
2696.999228297053
 20
-1224.250083820242
 30
0.0
 11
2696.999228297053
 21
-854.2500838202423
 31
0.0
  0
LINE
  5
5EC
330
1F
100
AcDbEntity
  8
0-C_ハッチ
  6
JWW_DASHED1
 62
   120
370
     5
100
AcDbLine
 10
2716.999228297053
 20
-1224.250083820242
 30
0.0
 11
2716.999228297053
 21
-854.2500838202423
 31
0.0
  0
LINE
  5
5ED
330
1F
100
AcDbEntity
  8
0-C_ハッチ
  6
JWW_DASHED1
 62
   120
370
     5
100
AcDbLine
 10
2736.999228297053
 20
-1224.250083820242
 30
0.0
 11
2736.999228297053
 21
-854.2500838202423
 31
0.0
  0
LINE
  5
5EE
330
1F
100
AcDbEntity
  8
0-C_ハッチ
  6
JWW_DASHED1
 62
   120
370
     5
100
AcDbLine
 10
3046.999228297053
 20
-1224.250083820242
 30
0.0
 11
3046.999228297053
 21
-854.2500838202423
 31
0.0
  0
LINE
  5
5EF
330
1F
100
AcDbEntity
  8
0-C_ハッチ
  6
JWW_DASHED1
 62
   120
370
     5
100
AcDbLine
 10
3066.999228297053
 20
-1224.250083820242
 30
0.0
 11
3066.999228297053
 21
-854.2500838202423
 31
0.0
  0
LINE
  5
5F0
330
1F
100
AcDbEntity
  8
0-C_ハッチ
  6
JWW_DASHED1
 62
   120
370
     5
100
AcDbLine
 10
3086.999228297053
 20
-1224.250083820242
 30
0.0
 11
3086.999228297053
 21
-854.2500838202423
 31
0.0
  0
LINE
  5
5F1
330
1F
100
AcDbEntity
  8
0-C_ハッチ
  6
JWW_DASHED1
 62
   120
370
     5
100
AcDbLine
 10
3106.999228297053
 20
-1224.250083820242
 30
0.0
 11
3106.999228297053
 21
-854.2500838202423
 31
0.0
  0
LINE
  5
5F2
330
1F
100
AcDbEntity
  8
0-C_ハッチ
  6
JWW_DASHED1
 62
   120
370
     5
100
AcDbLine
 10
3126.999228297053
 20
-1224.250083820242
 30
0.0
 11
3126.999228297053
 21
-854.2500838202423
 31
0.0
  0
LINE
  5
5F3
330
1F
100
AcDbEntity
  8
0-C_ハッチ
  6
JWW_DASHED1
 62
   120
370
     5
100
AcDbLine
 10
3146.999228297053
 20
-1224.250083820242
 30
0.0
 11
3146.999228297053
 21
-854.2500838202423
 31
0.0
  0
LINE
  5
5F4
330
1F
100
AcDbEntity
  8
0-C_ハッチ
  6
JWW_DASHED1
 62
   120
370
     5
100
AcDbLine
 10
3166.999228297053
 20
-1224.250083820242
 30
0.0
 11
3166.999228297053
 21
-854.2500838202423
 31
0.0
  0
LINE
  5
5F5
330
1F
100
AcDbEntity
  8
0-C_ハッチ
  6
JWW_DASHED1
 62
   120
370
     5
100
AcDbLine
 10
3186.999228297053
 20
-1224.250083820242
 30
0.0
 11
3186.999228297053
 21
-854.2500838202423
 31
0.0
  0
LINE
  5
5F6
330
1F
100
AcDbEntity
  8
0-C_ハッチ
  6
JWW_DASHED1
 62
   120
370
     5
100
AcDbLine
 10
3206.999228297053
 20
-1224.250083820242
 30
0.0
 11
3206.999228297053
 21
-854.2500838202423
 31
0.0
  0
LINE
  5
5F7
330
1F
100
AcDbEntity
  8
0-C_ハッチ
  6
JWW_DASHED1
 62
   120
370
     5
100
AcDbLine
 10
3226.999228297053
 20
-1224.250083820242
 30
0.0
 11
3226.999228297053
 21
-854.2500838202423
 31
0.0
  0
LINE
  5
5F8
330
1F
100
AcDbEntity
  8
0-C_ハッチ
  6
JWW_DASHED1
 62
   120
370
     5
100
AcDbLine
 10
3246.999228297053
 20
-1224.250083820242
 30
0.0
 11
3246.999228297053
 21
-854.2500838202423
 31
0.0
  0
LINE
  5
5F9
330
1F
100
AcDbEntity
  8
0-C_ハッチ
  6
JWW_DASHED1
 62
   120
370
     5
100
AcDbLine
 10
3266.999228297053
 20
-1224.250083820242
 30
0.0
 11
3266.999228297053
 21
-854.2500838202423
 31
0.0
  0
LINE
  5
5FA
330
1F
100
AcDbEntity
  8
0-C_ハッチ
  6
JWW_DASHED1
 62
   120
370
     5
100
AcDbLine
 10
3286.999228297053
 20
-1224.250083820242
 30
0.0
 11
3286.999228297053
 21
-854.2500838202423
 31
0.0
  0
LINE
  5
5FB
330
1F
100
AcDbEntity
  8
0-C_ハッチ
  6
JWW_DASHED1
 62
   120
370
     5
100
AcDbLine
 10
3306.999228297053
 20
-1224.250083820242
 30
0.0
 11
3306.999228297053
 21
-854.2500838202423
 31
0.0
  0
LINE
  5
5FC
330
1F
100
AcDbEntity
  8
0-C_ハッチ
  6
JWW_DASHED1
 62
   120
370
     5
100
AcDbLine
 10
3326.999228297053
 20
-1224.250083820242
 30
0.0
 11
3326.999228297053
 21
-854.2500838202423
 31
0.0
  0
LINE
  5
5FD
330
1F
100
AcDbEntity
  8
0-C_ハッチ
  6
JWW_DASHED1
 62
   120
370
     5
100
AcDbLine
 10
3346.999228297053
 20
-1224.250083820242
 30
0.0
 11
3346.999228297053
 21
-854.2500838202423
 31
0.0
  0
LINE
  5
5FE
330
1F
100
AcDbEntity
  8
0-C_ハッチ
  6
JWW_DASHED1
 62
   120
370
     5
100
AcDbLine
 10
3366.999228297053
 20
-1224.250083820242
 30
0.0
 11
3366.999228297053
 21
-854.2500838202423
 31
0.0
  0
LINE
  5
5FF
330
1F
100
AcDbEntity
  8
0-C_ハッチ
  6
JWW_DASHED1
 62
   120
370
     5
100
AcDbLine
 10
3386.999228297053
 20
-1224.250083820242
 30
0.0
 11
3386.999228297053
 21
-854.2500838202423
 31
0.0
  0
LINE
  5
600
330
1F
100
AcDbEntity
  8
0-C_ハッチ
  6
JWW_DASHED1
 62
   120
370
     5
100
AcDbLine
 10
3406.999228297053
 20
-1224.250083820242
 30
0.0
 11
3406.999228297053
 21
-854.2500838202423
 31
0.0
  0
LINE
  5
601
330
1F
100
AcDbEntity
  8
0-C_ハッチ
  6
JWW_DASHED1
 62
   120
370
     5
100
AcDbLine
 10
3426.999228297053
 20
-1224.250083820242
 30
0.0
 11
3426.999228297053
 21
-854.2500838202423
 31
0.0
  0
LINE
  5
602
330
1F
100
AcDbEntity
  8
0-C_ハッチ
  6
JWW_DASHED1
 62
   120
370
     5
100
AcDbLine
 10
3446.999228297053
 20
-1224.250083820242
 30
0.0
 11
3446.999228297053
 21
-854.2500838202423
 31
0.0
  0
LINE
  5
603
330
1F
100
AcDbEntity
  8
0-C_ハッチ
  6
JWW_DASHED1
 62
   120
370
     5
100
AcDbLine
 10
3466.999228297053
 20
-1224.250083820242
 30
0.0
 11
3466.999228297053
 21
-854.2500838202423
 31
0.0
  0
LINE
  5
604
330
1F
100
AcDbEntity
  8
0-C_ハッチ
  6
JWW_DASHED1
 62
   120
370
     5
100
AcDbLine
 10
3486.999228297053
 20
-1224.250083820242
 30
0.0
 11
3486.999228297053
 21
-854.2500838202423
 31
0.0
  0
LINE
  5
605
330
1F
100
AcDbEntity
  8
0-C_ハッチ
  6
JWW_DASHED1
 62
   120
370
     5
100
AcDbLine
 10
3506.999228297053
 20
-1224.250083820242
 30
0.0
 11
3506.999228297053
 21
-854.2500838202423
 31
0.0
  0
LINE
  5
606
330
1F
100
AcDbEntity
  8
0-C_ハッチ
  6
JWW_DASHED1
 62
   120
370
     5
100
AcDbLine
 10
3526.999228297053
 20
-1224.250083820242
 30
0.0
 11
3526.999228297053
 21
-854.2500838202423
 31
0.0
  0
LINE
  5
607
330
1F
100
AcDbEntity
  8
0-C_ハッチ
  6
JWW_DASHED1
 62
   120
370
     5
100
AcDbLine
 10
3546.999228297053
 20
-1224.250083820242
 30
0.0
 11
3546.999228297053
 21
-854.2500838202423
 31
0.0
  0
ENDSEC
  0
SECTION
  2
OBJECTS
  0
DICTIONARY
  5
C
330
0
100
AcDbDictionary
281
     1
  3
ACAD_GROUP
350
D
  3
ACAD_LAYOUT
350
1A
  3
ACAD_MATERIAL
350
3B
  3
ACAD_MLEADERSTYLE
350
609
  3
ACAD_MLINESTYLE
350
17
  3
ACAD_PLOTSETTINGS
350
19
  3
ACAD_PLOTSTYLENAME
350
E
  3
ACAD_TABLESTYLE
350
608
  3
ACAD_VISUALSTYLE
350
2A
  0
DICTIONARY
  5
D
102
{ACAD_REACTORS
330
C
102
}
330
C
100
AcDbDictionary
281
     1
  0
DICTIONARY
  5
1A
102
{ACAD_REACTORS
330
C
102
}
330
C
100
AcDbDictionary
281
     1
  3
Layout1
350
1E
  3
Layout2
350
26
  3
Model
350
22
  0
DICTIONARY
  5
3B
102
{ACAD_REACTORS
330
C
102
}
330
C
100
AcDbDictionary
281
     1
  3
ByBlock
350
3D
  3
ByLayer
350
3C
  3
Global
350
3E
  0
DICTIONARY
  5
609
102
{ACAD_REACTORS
330
C
102
}
330
C
100
AcDbDictionary
281
     1
  0
DICTIONARY
  5
17
102
{ACAD_REACTORS
330
C
102
}
330
C
100
AcDbDictionary
281
     1
  3
Standard
350
18
  0
DICTIONARY
  5
19
102
{ACAD_REACTORS
330
C
102
}
330
C
100
AcDbDictionary
281
     1
  0
ACDBDICTIONARYWDFLT
  5
E
102
{ACAD_REACTORS
330
C
102
}
330
C
100
AcDbDictionary
281
     1
  3
Normal
350
F
100
AcDbDictionaryWithDefault
340
F
  0
DICTIONARY
  5
608
102
{ACAD_REACTORS
330
C
102
}
330
C
100
AcDbDictionary
281
     1
  0
DICTIONARY
  5
2A
102
{ACAD_REACTORS
330
C
102
}
330
C
100
AcDbDictionary
281
     1
  3
2dWireframe
350
2F
  3
3D Hidden
350
31
  3
3dWireframe
350
30
  3
Basic
350
32
  3
Brighten
350
36
  3
ColorChange
350
3A
  3
Conceptual
350
34
  3
Dim
350
35
  3
Facepattern
350
39
  3
Flat
350
2B
  3
FlatWithEdges
350
2C
  3
Gouraud
350
2D
  3
GouraudWithEdges
350
2E
  3
Linepattern
350
38
  3
Realistic
350
33
  3
Thicken
350
37
  0
LAYOUT
  5
1E
102
{ACAD_REACTORS
330
1A
102
}
330
1A
100
AcDbPlotSettings
  1

  2
none_device
  4

  6

 40
0.0
 41
0.0
 42
0.0
 43
0.0
 44
0.0
 45
0.0
 46
0.0
 47
0.0
 48
0.0
 49
0.0
140
0.0
141
0.0
142
1.0
143
1.0
 70
   688
 72
     0
 73
     0
 74
     5
  7

 75
    16
 76
     0
 77
     5
 78
   300
147
1.0
148
0.0
149
0.0
100
AcDbLayout
  1
Layout1
 70
     1
 71
     1
 10
0.0
 20
0.0
 11
420.0
 21
297.0
 12
0.0
 22
0.0
 32
0.0
 14
1.000000000000000E+20
 24
1.000000000000000E+20
 34
1.000000000000000E+20
 15
-1.000000000000000E+20
 25
-1.000000000000000E+20
 35
-1.000000000000000E+20
146
0.0
 13
0.0
 23
0.0
 33
0.0
 16
1.0
 26
0.0
 36
0.0
 17
0.0
 27
1.0
 37
0.0
 76
     0
330
1B
  0
LAYOUT
  5
26
102
{ACAD_REACTORS
330
1A
102
}
330
1A
100
AcDbPlotSettings
  1

  2
none_device
  4

  6

 40
0.0
 41
0.0
 42
0.0
 43
0.0
 44
0.0
 45
0.0
 46
0.0
 47
0.0
 48
0.0
 49
0.0
140
0.0
141
0.0
142
1.0
143
1.0
 70
   688
 72
     0
 73
     0
 74
     5
  7

 75
    16
 76
     0
 77
     5
 78
   300
147
1.0
148
0.0
149
0.0
100
AcDbLayout
  1
Layout2
 70
     1
 71
     2
 10
0.0
 20
0.0
 11
0.0
 21
0.0
 12
0.0
 22
0.0
 32
0.0
 14
0.0
 24
0.0
 34
0.0
 15
0.0
 25
0.0
 35
0.0
146
0.0
 13
0.0
 23
0.0
 33
0.0
 16
1.0
 26
0.0
 36
0.0
 17
0.0
 27
1.0
 37
0.0
 76
     0
330
23
  0
LAYOUT
  5
22
102
{ACAD_REACTORS
330
1A
102
}
330
1A
100
AcDbPlotSettings
  1

  2
none_device
  4

  6

 40
0.0
 41
0.0
 42
0.0
 43
0.0
 44
0.0
 45
0.0
 46
0.0
 47
0.0
 48
0.0
 49
0.0
140
0.0
141
0.0
142
1.0
143
1.0
 70
  1712
 72
     0
 73
     0
 74
     0
  7

 75
     0
 76
     0
 77
     5
 78
   300
147
1.0
148
0.0
149
0.0
100
AcDbLayout
  1
Model
 70
     1
 71
     0
 10
-6300.0
 20
-4455.0
 11
6300.0
 21
4455.0
 12
0.0
 22
0.0
 32
0.0
 14
-6300.0
 24
-4455.0
 34
0.0
 15
6300.0
 25
4455.0
 35
0.0
146
0.0
 13
0.0
 23
0.0
 33
0.0
 16
1.0
 26
0.0
 36
0.0
 17
0.0
 27
1.0
 37
0.0
 76
     0
330
1F
331
29
  0
MATERIAL
  5
3D
102
{ACAD_REACTORS
330
3B
102
}
330
3B
100
AcDbMaterial
  1
ByBlock
 72
     1
 94
      127
  0
MATERIAL
  5
3C
102
{ACAD_REACTORS
330
3B
102
}
330
3B
100
AcDbMaterial
  1
ByLayer
 72
     1
 94
      127
  0
MATERIAL
  5
3E
102
{ACAD_REACTORS
330
3B
102
}
330
3B
100
AcDbMaterial
  1
Global
 72
     1
 94
      127
  0
MLINESTYLE
  5
18
102
{ACAD_REACTORS
330
17
102
}
330
17
100
AcDbMlineStyle
  2
Standard
 70
     0
  3

 62
   256
 51
90.0
 52
90.0
 71
     2
 49
0.5
 62
   256
  6
BYLAYER
 49
-0.5
 62
   256
  6
BYLAYER
  0
ACDBPLACEHOLDER
  5
F
102
{ACAD_REACTORS
330
E
102
}
330
E
  0
VISUALSTYLE
  5
2F
102
{ACAD_REACTORS
330
2A
102
}
330
2A
100
AcDbVisualStyle
  2
2dWireframe
 70
     4
177
     2
291
     0
 71
     0
176
     1
 72
     2
176
     1
 73
     0
176
     1
 90
        0
176
     1
 40
-0.6
176
     1
 41
-30.0
176
     1
 62
     5
 63
     7
421
 16777215
176
     1
 74
     1
176
     1
 91
        4
176
     1
 64
     7
176
     1
 65
   257
176
     1
 75
     1
176
     1
175
     1
176
     1
 42
1.0
176
     1
 92
        0
176
     1
 66
   257
176
     1
 43
1.0
176
     1
 76
     1
176
     1
 77
     6
176
     1
 78
     2
176
     1
 67
     7
176
     1
 79
     5
176
     1
170
     0
176
     1
171
     0
176
     1
290
     0
176
     1
 93
        1
176
     1
 44
0.0
176
     1
173
     0
176
     1
  0
VISUALSTYLE
  5
31
102
{ACAD_REACTORS
330
2A
102
}
330
2A
100
AcDbVisualStyle
  2
3D Hidden
 70
     6
177
     2
291
     0
 71
     1
176
     1
 72
     2
176
     1
 73
     2
176
     1
 90
        0
176
     1
 40
-0.6
176
     1
 41
-30.0
176
     1
 62
     5
 63
     7
421
 16777215
176
     1
 74
     2
176
     1
 91
        2
176
     1
 64
     7
176
     1
 65
   257
176
     1
 75
     2
176
     1
175
     1
176
     1
 42
40.0
176
     1
 92
        0
176
     1
 66
   257
176
     1
 43
1.0
176
     1
 76
     1
176
     1
 77
     6
176
     1
 78
     2
176
     1
 67
     7
176
     1
 79
     3
176
     1
170
     0
176
     1
171
     0
176
     1
290
     0
176
     1
 93
        1
176
     1
 44
0.0
176
     1
173
     0
176
     1
  0
VISUALSTYLE
  5
30
102
{ACAD_REACTORS
330
2A
102
}
330
2A
100
AcDbVisualStyle
  2
3dWireframe
 70
     5
177
     2
291
     0
 71
     0
176
     1
 72
     2
176
     1
 73
     0
176
     1
 90
        0
176
     1
 40
-0.6
176
     1
 41
-30.0
176
     1
 62
     5
 63
     7
421
 16777215
176
     1
 74
     1
176
     1
 91
        4
176
     1
 64
     7
176
     1
 65
   257
176
     1
 75
     1
176
     1
175
     1
176
     1
 42
1.0
176
     1
 92
        0
176
     1
 66
   257
176
     1
 43
1.0
176
     1
 76
     1
176
     1
 77
     6
176
     1
 78
     2
176
     1
 67
     7
176
     1
 79
     5
176
     1
170
     0
176
     1
171
     0
176
     1
290
     0
176
     1
 93
        1
176
     1
 44
0.0
176
     1
173
     0
176
     1
  0
VISUALSTYLE
  5
32
102
{ACAD_REACTORS
330
2A
102
}
330
2A
100
AcDbVisualStyle
  2
Basic
 70
     7
177
     2
291
     1
 71
     1
176
     1
 72
     0
176
     1
 73
     1
176
     1
 90
        0
176
     1
 40
-0.6
176
     1
 41
-30.0
176
     1
 62
     5
 63
     7
421
 16777215
176
     1
 74
     0
176
     1
 91
        4
176
     1
 64
     7
176
     1
 65
   257
176
     1
 75
     1
176
     1
175
     1
176
     1
 42
1.0
176
     1
 92
        8
176
     1
 66
     7
176
     1
 43
1.0
176
     1
 76
     1
176
     1
 77
     6
176
     1
 78
     2
176
     1
 67
     7
176
     1
 79
     5
176
     1
170
     0
176
     1
171
     0
176
     1
290
     0
176
     1
 93
        1
176
     1
 44
0.0
176
     1
173
     0
176
     1
  0
VISUALSTYLE
  5
36
102
{ACAD_REACTORS
330
2A
102
}
330
2A
100
AcDbVisualStyle
  2
Brighten
 70
    12
177
     2
291
     1
 71
     2
176
     1
 72
     2
176
     1
 73
     0
176
     1
 90
        0
176
     1
 40
-0.6
176
     1
 41
-30.0
176
     1
 62
     5
 63
     7
421
 16777215
176
     1
 74
     1
176
     1
 91
        4
176
     1
 64
     7
176
     1
 65
   257
176
     1
 75
     1
176
     1
175
     1
176
     1
 42
1.0
176
     1
 92
        8
176
     1
 66
     7
176
     1
 43
1.0
176
     1
 76
     1
176
     1
 77
     6
176
     1
 78
     2
176
     1
 67
     7
176
     1
 79
     5
176
     1
170
     0
176
     1
171
     0
176
     1
290
     0
176
     1
 93
        1
176
     1
 44
50.0
176
     1
173
     0
176
     1
  0
VISUALSTYLE
  5
3A
102
{ACAD_REACTORS
330
2A
102
}
330
2A
100
AcDbVisualStyle
  2
ColorChange
 70
    16
177
     2
291
     1
 71
     2
176
     1
 72
     2
176
     1
 73
     3
176
     1
 90
        0
176
     1
 40
-0.6
176
     1
 41
-30.0
176
     1
 62
     5
 63
     8
421
  8421504
176
     1
 74
     1
176
     1
 91
        4
176
     1
 64
     7
176
     1
 65
   257
176
     1
 75
     1
176
     1
175
     1
176
     1
 42
1.0
176
     1
 92
        8
176
     1
 66
     8
424
  8421504
176
     1
 43
1.0
176
     1
 76
     1
176
     1
 77
     6
176
     1
 78
     2
176
     1
 67
     7
176
     1
 79
     5
176
     1
170
     0
176
     1
171
     0
176
     1
290
     0
176
     1
 93
        1
176
     1
 44
0.0
176
     1
173
     0
176
     1
  0
VISUALSTYLE
  5
34
102
{ACAD_REACTORS
330
2A
102
}
330
2A
100
AcDbVisualStyle
  2
Conceptual
 70
     9
177
     2
291
     0
 71
     3
176
     1
 72
     2
176
     1
 73
     0
176
     1
 90
        0
176
     1
 40
-0.6
176
     1
 41
-30.0
176
     1
 62
     5
 63
     7
421
 16777215
176
     1
 74
     2
176
     1
 91
        2
176
     1
 64
     7
176
     1
 65
   257
176
     1
 75
     1
176
     1
175
     1
176
     1
 42
40.0
176
     1
 92
        8
176
     1
 66
     7
176
     1
 43
1.0
176
     1
 76
     1
176
     1
 77
     6
176
     1
 78
     2
176
     1
 67
     7
176
     1
 79
     3
176
     1
170
     0
176
     1
171
     0
176
     1
290
     0
176
     1
 93
        1
176
     1
 44
0.0
176
     1
173
     0
176
     1
  0
VISUALSTYLE
  5
35
102
{ACAD_REACTORS
330
2A
102
}
330
2A
100
AcDbVisualStyle
  2
Dim
 70
    11
177
     2
291
     1
 71
     2
176
     1
 72
     2
176
     1
 73
     0
176
     1
 90
        0
176
     1
 40
-0.6
176
     1
 41
-30.0
176
     1
 62
     5
 63
     7
421
 16777215
176
     1
 74
     1
176
     1
 91
        4
176
     1
 64
     7
176
     1
 65
   257
176
     1
 75
     1
176
     1
175
     1
176
     1
 42
1.0
176
     1
 92
        8
176
     1
 66
     7
176
     1
 43
1.0
176
     1
 76
     1
176
     1
 77
     6
176
     1
 78
     2
176
     1
 67
     7
176
     1
 79
     5
176
     1
170
     0
176
     1
171
     0
176
     1
290
     0
176
     1
 93
        1
176
     1
 44
-50.0
176
     1
173
     0
176
     1
  0
VISUALSTYLE
  5
39
102
{ACAD_REACTORS
330
2A
102
}
330
2A
100
AcDbVisualStyle
  2
Facepattern
 70
    15
177
     2
291
     1
 71
     2
176
     1
 72
     2
176
     1
 73
     0
176
     1
 90
        0
176
     1
 40
-0.6
176
     1
 41
-30.0
176
     1
 62
     5
 63
     7
421
 16777215
176
     1
 74
     1
176
     1
 91
        4
176
     1
 64
     7
176
     1
 65
   257
176
     1
 75
     1
176
     1
175
     1
176
     1
 42
1.0
176
     1
 92
        8
176
     1
 66
     7
176
     1
 43
1.0
176
     1
 76
     1
176
     1
 77
     6
176
     1
 78
     2
176
     1
 67
     7
176
     1
 79
     5
176
     1
170
     0
176
     1
171
     0
176
     1
290
     0
176
     1
 93
        1
176
     1
 44
0.0
176
     1
173
     0
176
     1
  0
VISUALSTYLE
  5
2B
102
{ACAD_REACTORS
330
2A
102
}
330
2A
100
AcDbVisualStyle
  2
Flat
 70
     0
177
     2
291
     1
 71
     2
176
     1
 72
     1
176
     1
 73
     1
176
     1
 90
        2
176
     1
 40
-0.6
176
     1
 41
30.0
176
     1
 62
     5
 63
     7
421
 16777215
176
     1
 74
     0
176
     1
 91
        4
176
     1
 64
     7
176
     1
 65
   257
176
     1
 75
     1
176
     1
175
     1
176
     1
 42
1.0
176
     1
 92
        8
176
     1
 66
     7
176
     1
 43
1.0
176
     1
 76
     1
176
     1
 77
     6
176
     1
 78
     2
176
     1
 67
     7
176
     1
 79
     5
176
     1
170
     0
176
     1
171
     0
176
     1
290
     0
176
     1
 93
       13
176
     1
 44
0.0
176
     1
173
     0
176
     1
  0
VISUALSTYLE
  5
2C
102
{ACAD_REACTORS
330
2A
102
}
330
2A
100
AcDbVisualStyle
  2
FlatWithEdges
 70
     1
177
     2
291
     1
 71
     2
176
     1
 72
     1
176
     1
 73
     1
176
     1
 90
        2
176
     1
 40
-0.6
176
     1
 41
30.0
176
     1
 62
     5
 63
     7
421
 16777215
176
     1
 74
     1
176
     1
 91
        4
176
     1
 64
     7
176
     1
 65
   257
176
     1
 75
     1
176
     1
175
     1
176
     1
 42
1.0
176
     1
 92
        0
176
     1
 66
   257
176
     1
 43
1.0
176
     1
 76
     1
176
     1
 77
     6
176
     1
 78
     2
176
     1
 67
     7
176
     1
 79
     5
176
     1
170
     0
176
     1
171
     0
176
     1
290
     0
176
     1
 93
       13
176
     1
 44
0.0
176
     1
173
     0
176
     1
  0
VISUALSTYLE
  5
2D
102
{ACAD_REACTORS
330
2A
102
}
330
2A
100
AcDbVisualStyle
  2
Gouraud
 70
     2
177
     2
291
     1
 71
     2
176
     1
 72
     2
176
     1
 73
     1
176
     1
 90
        2
176
     1
 40
-0.6
176
     1
 41
30.0
176
     1
 62
     5
 63
     7
421
 16777215
176
     1
 74
     0
176
     1
 91
        4
176
     1
 64
     7
176
     1
 65
   257
176
     1
 75
     1
176
     1
175
     1
176
     1
 42
1.0
176
     1
 92
        0
176
     1
 66
     7
176
     1
 43
1.0
176
     1
 76
     1
176
     1
 77
     6
176
     1
 78
     2
176
     1
 67
     7
176
     1
 79
     5
176
     1
170
     0
176
     1
171
     0
176
     1
290
     0
176
     1
 93
       13
176
     1
 44
0.0
176
     1
173
     0
176
     1
  0
VISUALSTYLE
  5
2E
102
{ACAD_REACTORS
330
2A
102
}
330
2A
100
AcDbVisualStyle
  2
GouraudWithEdges
 70
     3
177
     2
291
     1
 71
     2
176
     1
 72
     2
176
     1
 73
     1
176
     1
 90
        2
176
     1
 40
-0.6
176
     1
 41
30.0
176
     1
 62
     5
 63
     7
421
 16777215
176
     1
 74
     1
176
     1
 91
        4
176
     1
 64
     7
176
     1
 65
   257
176
     1
 75
     1
176
     1
175
     1
176
     1
 42
1.0
176
     1
 92
        0
176
     1
 66
   257
176
     1
 43
1.0
176
     1
 76
     1
176
     1
 77
     6
176
     1
 78
     2
176
     1
 67
     7
176
     1
 79
     5
176
     1
170
     0
176
     1
171
     0
176
     1
290
     0
176
     1
 93
       13
176
     1
 44
0.0
176
     1
173
     0
176
     1
  0
VISUALSTYLE
  5
38
102
{ACAD_REACTORS
330
2A
102
}
330
2A
100
AcDbVisualStyle
  2
Linepattern
 70
    14
177
     2
291
     1
 71
     2
176
     1
 72
     2
176
     1
 73
     0
176
     1
 90
        0
176
     1
 40
-0.6
176
     1
 41
-30.0
176
     1
 62
     5
 63
     7
421
 16777215
176
     1
 74
     1
176
     1
 91
        4
176
     1
 64
     7
176
     1
 65
   257
176
     1
 75
     7
176
     1
175
     7
176
     1
 42
1.0
176
     1
 92
        8
176
     1
 66
     7
176
     1
 43
1.0
176
     1
 76
     1
176
     1
 77
     6
176
     1
 78
     2
176
     1
 67
     7
176
     1
 79
     5
176
     1
170
     0
176
     1
171
     0
176
     1
290
     0
176
     1
 93
        1
176
     1
 44
0.0
176
     1
173
     0
176
     1
  0
VISUALSTYLE
  5
33
102
{ACAD_REACTORS
330
2A
102
}
330
2A
100
AcDbVisualStyle
  2
Realistic
 70
     8
177
     2
291
     0
 71
     2
176
     1
 72
     2
176
     1
 73
     0
176
     1
 90
        0
176
     1
 40
-0.6
176
     1
 41
-30.0
176
     1
 62
     5
 63
     7
421
 16777215
176
     1
 74
     1
176
     1
 91
        0
176
     1
 64
     7
176
     1
 65
   257
176
     1
 75
     1
176
     1
175
     1
176
     1
 42
1.0
176
     1
 92
        8
176
     1
 66
     8
424
  7895160
176
     1
 43
1.0
176
     1
 76
     1
176
     1
 77
     6
176
     1
 78
     2
176
     1
 67
     7
176
     1
 79
     5
176
     1
170
     0
176
     1
171
     0
176
     1
290
     0
176
     1
 93
       13
176
     1
 44
0.0
176
     1
173
     0
176
     1
  0
VISUALSTYLE
  5
37
102
{ACAD_REACTORS
330
2A
102
}
330
2A
100
AcDbVisualStyle
  2
Thicken
 70
    13
177
     2
291
     1
 71
     2
176
     1
 72
     2
176
     1
 73
     0
176
     1
 90
        0
176
     1
 40
-0.6
176
     1
 41
-30.0
176
     1
 62
     5
 63
     7
421
 16777215
176
     1
 74
     1
176
     1
 91
        4
176
     1
 64
     7
176
     1
 65
   257
176
     1
 75
     1
176
     1
175
     1
176
     1
 42
1.0
176
     1
 92
       12
176
     1
 66
     7
176
     1
 43
1.0
176
     1
 76
     1
176
     1
 77
     6
176
     1
 78
     2
176
     1
 67
     7
176
     1
 79
     5
176
     1
170
     0
176
     1
171
     0
176
     1
290
     0
176
     1
 93
        1
176
     1
 44
0.0
176
     1
173
     0
176
     1
  0
ENDSEC
  0
EOF
