  0
SECTION
  2
HEADER
  9
$ACADVER
  1
AC1024
  9
$ACADMAINTVER
 70
     6
  9
$DWGCODEPAGE
  3
ANSI_932
  9
$INSBASE
 10
0.0
 20
0.0
 30
0.0
  9
$EXTMIN
 10
-4200.0
 20
-2970.0
 30
0.0
  9
$EXTMAX
 10
4200.0
 20
2970.0
 30
0.0
  9
$LIMMIN
 10
-4200.0
 20
-2970.0
  9
$LIMMAX
 10
4200.0
 20
2970.0
  9
$ORTHOMODE
 70
     0
  9
$REGENMODE
 70
     1
  9
$FILLMODE
 70
     1
  9
$QTEXTMODE
 70
     0
  9
$MIRRTEXT
 70
     1
  9
$LTSCALE
 40
20.0
  9
$ATTMODE
 70
     1
  9
$TEXTSIZE
 40
2.5
  9
$TRACEWID
 40
1.0
  9
$TEXTSTYLE
  7
Standard
  9
$CLAYER
  8
0
  9
$CELTYPE
  6
ByLayer
  9
$CECOLOR
 62
   256
  9
$CELTSCALE
 40
1.0
  9
$DISPSILH
 70
     0
  9
$DIMSCALE
 40
1.0
  9
$DIMASZ
 40
2.5
  9
$DIMEXO
 40
0.625
  9
$DIMDLI
 40
3.75
  9
$DIMRND
 40
0.0
  9
$DIMDLE
 40
0.0
  9
$DIMEXE
 40
1.25
  9
$DIMTP
 40
0.0
  9
$DIMTM
 40
0.0
  9
$DIMTXT
 40
2.5
  9
$DIMCEN
 40
2.5
  9
$DIMTSZ
 40
0.0
  9
$DIMTOL
 70
     0
  9
$DIMLIM
 70
     0
  9
$DIMTIH
 70
     0
  9
$DIMTOH
 70
     0
  9
$DIMSE1
 70
     0
  9
$DIMSE2
 70
     0
  9
$DIMTAD
 70
     1
  9
$DIMZIN
 70
     8
  9
$DIMBLK
  1

  9
$DIMASO
 70
     1
  9
$DIMSHO
 70
     1
  9
$DIMPOST
  1

  9
$DIMAPOST
  1

  9
$DIMALT
 70
     0
  9
$DIMALTD
 70
     3
  9
$DIMALTF
 40
0.03937007874016
  9
$DIMLFAC
 40
1.0
  9
$DIMTOFL
 70
     1
  9
$DIMTVP
 40
0.0
  9
$DIMTIX
 70
     0
  9
$DIMSOXD
 70
     0
  9
$DIMSAH
 70
     0
  9
$DIMBLK1
  1

  9
$DIMBLK2
  1

  9
$DIMSTYLE
  2
ISO-25
  9
$DIMCLRD
 70
     0
  9
$DIMCLRE
 70
     0
  9
$DIMCLRT
 70
     0
  9
$DIMTFAC
 40
1.0
  9
$DIMGAP
 40
0.625
  9
$DIMJUST
 70
     0
  9
$DIMSD1
 70
     0
  9
$DIMSD2
 70
     0
  9
$DIMTOLJ
 70
     0
  9
$DIMTZIN
 70
     8
  9
$DIMALTZ
 70
     0
  9
$DIMALTTZ
 70
     0
  9
$DIMUPT
 70
     0
  9
$DIMDEC
 70
     2
  9
$DIMTDEC
 70
     2
  9
$DIMALTU
 70
     2
  9
$DIMALTTD
 70
     3
  9
$DIMTXSTY
  7
Standard
  9
$DIMAUNIT
 70
     0
  9
$DIMADEC
 70
     0
  9
$DIMALTRND
 40
0.0
  9
$DIMAZIN
 70
     0
  9
$DIMDSEP
 70
    44
  9
$DIMATFIT
 70
     3
  9
$DIMFRAC
 70
     0
  9
$DIMLDRBLK
  1

  9
$DIMLUNIT
 70
     2
  9
$DIMLWD
 70
    -2
  9
$DIMLWE
 70
    -2
  9
$DIMTMOVE
 70
     0
  9
$DIMFXL
 40
1.0
  9
$DIMFXLON
 70
     0
  9
$DIMJOGANG
 40
0.7853981633974483
  9
$DIMTFILL
 70
     0
  9
$DIMTFILLCLR
 70
     0
  9
$DIMARCSYM
 70
     0
  9
$DIMLTYPE
  6

  9
$DIMLTEX1
  6

  9
$DIMLTEX2
  6

  9
$DIMTXTDIRECTION
 70
     0
  9
$LUNITS
 70
     2
  9
$LUPREC
 70
     4
  9
$SKETCHINC
 40
1.0
  9
$FILLETRAD
 40
10.0
  9
$AUNITS
 70
     0
  9
$AUPREC
 70
     0
  9
$MENU
  1
.
  9
$ELEVATION
 40
0.0
  9
$PELEVATION
 40
0.0
  9
$THICKNESS
 40
0.0
  9
$LIMCHECK
 70
     0
  9
$CHAMFERA
 40
10.0
  9
$CHAMFERB
 40
10.0
  9
$CHAMFERC
 40
20.0
  9
$CHAMFERD
 40
0.0
  9
$SKPOLY
 70
     0
  9
$TDCREATE
 40
2459432.545289051
  9
$TDUCREATE
 40
2459432.170289051
  9
$TDUPDATE
 40
2459432.545289062
  9
$TDUUPDATE
 40
2459432.170289062
  9
$TDINDWG
 40
0.0000000116
  9
$TDUSRTIMER
 40
0.0000000116
  9
$USRTIMER
 70
     1
  9
$ANGBASE
 50
0.0
  9
$ANGDIR
 70
     0
  9
$PDMODE
 70
     0
  9
$PDSIZE
 40
0.0
  9
$PLINEWID
 40
0.0
  9
$SPLFRAME
 70
     0
  9
$SPLINETYPE
 70
     6
  9
$SPLINESEGS
 70
     8
  9
$HANDSEED
  5
1EA
  9
$SURFTAB1
 70
     6
  9
$SURFTAB2
 70
     6
  9
$SURFTYPE
 70
     6
  9
$SURFU
 70
     6
  9
$SURFV
 70
     6
  9
$UCSBASE
  2

  9
$UCSNAME
  2

  9
$UCSORG
 10
0.0
 20
0.0
 30
0.0
  9
$UCSXDIR
 10
1.0
 20
0.0
 30
0.0
  9
$UCSYDIR
 10
0.0
 20
1.0
 30
0.0
  9
$UCSORTHOREF
  2

  9
$UCSORTHOVIEW
 70
     0
  9
$UCSORGTOP
 10
0.0
 20
0.0
 30
0.0
  9
$UCSORGBOTTOM
 10
0.0
 20
0.0
 30
0.0
  9
$UCSORGLEFT
 10
0.0
 20
0.0
 30
0.0
  9
$UCSORGRIGHT
 10
0.0
 20
0.0
 30
0.0
  9
$UCSORGFRONT
 10
0.0
 20
0.0
 30
0.0
  9
$UCSORGBACK
 10
0.0
 20
0.0
 30
0.0
  9
$PUCSBASE
  2

  9
$PUCSNAME
  2

  9
$PUCSORG
 10
0.0
 20
0.0
 30
0.0
  9
$PUCSXDIR
 10
1.0
 20
0.0
 30
0.0
  9
$PUCSYDIR
 10
0.0
 20
1.0
 30
0.0
  9
$PUCSORTHOREF
  2

  9
$PUCSORTHOVIEW
 70
     0
  9
$PUCSORGTOP
 10
0.0
 20
0.0
 30
0.0
  9
$PUCSORGBOTTOM
 10
0.0
 20
0.0
 30
0.0
  9
$PUCSORGLEFT
 10
0.0
 20
0.0
 30
0.0
  9
$PUCSORGRIGHT
 10
0.0
 20
0.0
 30
0.0
  9
$PUCSORGFRONT
 10
0.0
 20
0.0
 30
0.0
  9
$PUCSORGBACK
 10
0.0
 20
0.0
 30
0.0
  9
$USERI1
 70
     0
  9
$USERI2
 70
     0
  9
$USERI3
 70
     0
  9
$USERI4
 70
     0
  9
$USERI5
 70
     0
  9
$USERR1
 40
0.0
  9
$USERR2
 40
0.0
  9
$USERR3
 40
0.0
  9
$USERR4
 40
0.0
  9
$USERR5
 40
0.0
  9
$WORLDVIEW
 70
     1
  9
$SHADEDGE
 70
     3
  9
$SHADEDIF
 70
    70
  9
$TILEMODE
 70
     1
  9
$MAXACTVP
 70
    64
  9
$PINSBASE
 10
0.0
 20
0.0
 30
0.0
  9
$PLIMCHECK
 70
     0
  9
$PEXTMIN
 10
1.000000000000000E+20
 20
1.000000000000000E+20
 30
1.000000000000000E+20
  9
$PEXTMAX
 10
-1.000000000000000E+20
 20
-1.000000000000000E+20
 30
-1.000000000000000E+20
  9
$PLIMMIN
 10
0.0
 20
0.0
  9
$PLIMMAX
 10
420.0
 20
297.0
  9
$UNITMODE
 70
     0
  9
$VISRETAIN
 70
     1
  9
$PLINEGEN
 70
     0
  9
$PSLTSCALE
 70
     1
  9
$TREEDEPTH
 70
  3020
  9
$CMLSTYLE
  2
Standard
  9
$CMLJUST
 70
     0
  9
$CMLSCALE
 40
20.0
  9
$PROXYGRAPHICS
 70
     1
  9
$MEASUREMENT
 70
     1
  9
$CELWEIGHT
370
    -1
  9
$ENDCAPS
280
     0
  9
$JOINSTYLE
280
     0
  9
$LWDISPLAY
290
     0
  9
$INSUNITS
 70
     4
  9
$HYPERLINKBASE
  1

  9
$STYLESHEET
  1

  9
$XEDIT
290
     1
  9
$CEPSNTYPE
380
     0
  9
$PSTYLEMODE
290
     1
  9
$FINGERPRINTGUID
  2
{AF458A07-70DD-4C7F-99F4-353CE15B0BD7}
  9
$VERSIONGUID
  2
{FAEB1C32-E019-11D5-929B-00C0DF256EC4}
  9
$EXTNAMES
290
     1
  9
$PSVPSCALE
 40
0.0
  9
$OLESTARTUP
290
     0
  9
$SORTENTS
280
   127
  9
$INDEXCTL
280
     0
  9
$HIDETEXT
280
     1
  9
$XCLIPFRAME
280
     2
  9
$HALOGAP
280
     0
  9
$OBSCOLOR
 70
   257
  9
$OBSLTYPE
280
     0
  9
$INTERSECTIONDISPLAY
280
     0
  9
$INTERSECTIONCOLOR
 70
   257
  9
$DIMASSOC
280
     2
  9
$PROJECTNAME
  1

  9
$CAMERADISPLAY
290
     0
  9
$LENSLENGTH
 40
50.0
  9
$CAMERAHEIGHT
 40
0.0
  9
$STEPSPERSEC
 40
2.0
  9
$STEPSIZE
 40
6.0
  9
$3DDWFPREC
 40
2.0
  9
$PSOLWIDTH
 40
5.0
  9
$PSOLHEIGHT
 40
80.0
  9
$LOFTANG1
 40
1.570796326794897
  9
$LOFTANG2
 40
1.570796326794897
  9
$LOFTMAG1
 40
0.0
  9
$LOFTMAG2
 40
0.0
  9
$LOFTPARAM
 70
     7
  9
$LOFTNORMALS
280
     1
  9
$LATITUDE
 40
37.795
  9
$LONGITUDE
 40
-122.394
  9
$NORTHDIRECTION
 40
0.0
  9
$TIMEZONE
 70
 -8000
  9
$LIGHTGLYPHDISPLAY
280
     1
  9
$TILEMODELIGHTSYNCH
280
     1
  9
$SOLIDHIST
280
     1
  9
$SHOWHIST
280
     1
  9
$DWFFRAME
280
     2
  9
$DGNFRAME
280
     2
  9
$REALWORLDSCALE
290
     1
  9
$INTERFERECOLOR
 62
   256
  9
$CSHADOW
280
     0
  9
$SHADOWPLANELOCATION
 40
0.0
  0
ENDSEC
  0
SECTION
  2
CLASSES
  0
CLASS
  1
ACDBDICTIONARYWDFLT
  2
AcDbDictionaryWithDefault
  3
ObjectDBX Classes
 90
        0
 91
        4
280
     0
281
     0
  0
CLASS
  1
VISUALSTYLE
  2
AcDbVisualStyle
  3
ObjectDBX Classes
 90
     4095
 91
        4
280
     0
281
     0
  0
CLASS
  1
MATERIAL
  2
AcDbMaterial
  3
ObjectDBX Classes
 90
     1153
 91
        4
280
     0
281
     0
  0
ENDSEC
  0
SECTION
  2
TABLES
  0
TABLE
  2
VPORT
  5
8
330
0
100
AcDbSymbolTable
 70
     1
  0
VPORT
  5
29
330
8
100
AcDbSymbolTableRecord
100
AcDbViewportTableRecord
  2
*Active
 70
     0
 10
0.0
 20
0.0
 11
1.0
 21
1.0
 12
0.0
 22
0.0
 13
0.0
 23
0.0
 14
10.0
 24
10.0
 15
10.0
 25
10.0
 16
0.0
 26
0.0
 36
1.0
 17
0.0
 27
0.0
 37
0.0
 40
6534.000000000001
 41
1.414141414141414
 42
50.0
 43
0.0
 44
0.0
 50
0.0
 51
0.0
 71
     0
 72
 10000
 73
     1
 74
     3
 75
     0
 76
     0
 77
     0
 78
     0
281
     0
 65
     1
110
0.0
120
0.0
130
0.0
111
1.0
121
0.0
131
0.0
112
0.0
122
1.0
132
0.0
 79
     0
146
0.0
 60
     3
 61
     5
292
     1
282
     1
141
0.0
142
0.0
 63
   250
  0
ENDTAB
  0
TABLE
  2
LTYPE
  5
5
330
0
100
AcDbSymbolTable
 70
     3
  0
LTYPE
  5
14
330
5
100
AcDbSymbolTableRecord
100
AcDbLinetypeTableRecord
  2
ByBlock
 70
     0
  3

 72
    65
 73
     0
 40
0.0
  0
LTYPE
  5
15
330
5
100
AcDbSymbolTableRecord
100
AcDbLinetypeTableRecord
  2
ByLayer
 70
     0
  3

 72
    65
 73
     0
 40
0.0
  0
LTYPE
  5
16
330
5
100
AcDbSymbolTableRecord
100
AcDbLinetypeTableRecord
  2
Continuous
 70
     0
  3
Solid line
 72
    65
 73
     0
 40
0.0
  0
LTYPE
  5
3F
330
5
100
AcDbSymbolTableRecord
100
AcDbLinetypeTableRecord
  2
JWW_DASHED1
 70
     0
  3
-  --  --  --  --  --  --  --  -
 72
    65
 73
     2
 40
1.693333333333333
 49
0.8466666666666667
 74
     0
 49
-0.8466666666666667
 74
     0
  0
LTYPE
  5
40
330
5
100
AcDbSymbolTableRecord
100
AcDbLinetypeTableRecord
  2
JWW_HOJO
 70
     0
  3
  -   -   -   -   -   -   -   - 
 72
    65
 73
     2
 40
1.693333333333333
 49
-1.27
 74
     0
 49
0.4233333333333333
 74
     0
  0
ENDTAB
  0
TABLE
  2
LAYER
  5
2
330
0
100
AcDbSymbolTable
 70
    12
  0
LAYER
  5
10
330
2
100
AcDbSymbolTableRecord
100
AcDbLayerTableRecord
  2
0
 70
     0
 62
     7
  6
Continuous
370
    -3
390
F
347
3E
  0
LAYER
  5
41
330
2
100
AcDbSymbolTableRecord
100
AcDbLayerTableRecord
  2
F-1
 70
     0
 62
     7
  6
Continuous
370
    -3
390
F
347
3E
  0
LAYER
  5
42
330
2
100
AcDbSymbolTableRecord
100
AcDbLayerTableRecord
  2
F-0
 70
     0
 62
     7
  6
Continuous
370
    -3
390
F
347
3E
  0
LAYER
  5
43
330
2
100
AcDbSymbolTableRecord
100
AcDbLayerTableRecord
  2
0-0
 70
     0
 62
     7
  6
Continuous
370
    -3
390
F
347
3E
  0
LAYER
  5
44
330
2
100
AcDbSymbolTableRecord
100
AcDbLayerTableRecord
  2
0-B
 70
     0
 62
     7
  6
Continuous
370
    -3
390
F
347
3E
  0
LAYER
  5
45
330
2
100
AcDbSymbolTableRecord
100
AcDbLayerTableRecord
  2
0-4
 70
     0
 62
     7
  6
Continuous
370
    -3
390
F
347
3E
  0
LAYER
  5
46
330
2
100
AcDbSymbolTableRecord
100
AcDbLayerTableRecord
  2
1-4
 70
     0
 62
     7
  6
Continuous
370
    -3
390
F
347
3E
  0
LAYER
  5
47
330
2
100
AcDbSymbolTableRecord
100
AcDbLayerTableRecord
  2
1-0
 70
     0
 62
     7
  6
Continuous
370
    -3
390
F
347
3E
  0
LAYER
  5
48
330
2
100
AcDbSymbolTableRecord
100
AcDbLayerTableRecord
  2
1-B
 70
     0
 62
     7
  6
Continuous
370
    -3
390
F
347
3E
  0
LAYER
  5
49
330
2
100
AcDbSymbolTableRecord
100
AcDbLayerTableRecord
  2
F-A
 70
     0
 62
     7
  6
Continuous
370
    -3
390
F
347
3E
  0
LAYER
  5
4A
330
2
100
AcDbSymbolTableRecord
100
AcDbLayerTableRecord
  2
0-A
 70
     0
 62
     7
  6
Continuous
370
    -3
390
F
347
3E
  0
LAYER
  5
4B
330
2
100
AcDbSymbolTableRecord
100
AcDbLayerTableRecord
  2
1-A
 70
     0
 62
     7
  6
Continuous
370
    -3
390
F
347
3E
  0
ENDTAB
  0
TABLE
  2
STYLE
  5
3
330
0
100
AcDbSymbolTable
 70
     1
  0
STYLE
  5
11
330
3
100
AcDbSymbolTableRecord
100
AcDbTextStyleTableRecord
  2
Standard
 70
     0
 40
0.0
 41
1.0
 50
0.0
 71
     0
 42
2.5
  3
txt
  4

  0
ENDTAB
  0
TABLE
  2
VIEW
  5
6
330
0
100
AcDbSymbolTable
 70
     0
  0
ENDTAB
  0
TABLE
  2
UCS
  5
7
330
0
100
AcDbSymbolTable
 70
     0
  0
ENDTAB
  0
TABLE
  2
APPID
  5
9
330
0
100
AcDbSymbolTable
 70
     1
  0
APPID
  5
12
330
9
100
AcDbSymbolTableRecord
100
AcDbRegAppTableRecord
  2
ACAD
 70
     0
  0
ENDTAB
  0
TABLE
  2
DIMSTYLE
  5
A
330
0
100
AcDbSymbolTable
 70
     1
100
AcDbDimStyleTable
  0
DIMSTYLE
105
27
330
A
100
AcDbSymbolTableRecord
100
AcDbDimStyleTableRecord
  2
ISO-25
 70
     0
 41
2.5
 42
0.625
 43
3.75
 44
1.25
 73
     0
 74
     0
 77
     1
 78
     8
140
2.5
141
2.5
143
0.03937007874016
147
0.625
171
     3
172
     1
178
     0
271
     2
272
     2
274
     3
278
    44
283
     0
284
     8
340
11
  0
ENDTAB
  0
TABLE
  2
BLOCK_RECORD
  5
1
330
0
100
AcDbSymbolTable
 70
     1
  0
BLOCK_RECORD
  5
1F
330
1
100
AcDbSymbolTableRecord
100
AcDbBlockTableRecord
  2
*Model_Space
340
22
 70
     0
280
     1
281
     0
  0
BLOCK_RECORD
  5
1B
330
1
100
AcDbSymbolTableRecord
100
AcDbBlockTableRecord
  2
*Paper_Space
340
1E
 70
     0
280
     1
281
     0
  0
BLOCK_RECORD
  5
23
330
1
100
AcDbSymbolTableRecord
100
AcDbBlockTableRecord
  2
*Paper_Space0
340
26
 70
     0
280
     1
281
     0
  0
ENDTAB
  0
ENDSEC
  0
SECTION
  2
BLOCKS
  0
BLOCK
  5
20
330
1F
100
AcDbEntity
  8
0
100
AcDbBlockBegin
  2
*Model_Space
 70
     0
 10
0.0
 20
0.0
 30
0.0
  3
*Model_Space
  1

  0
ENDBLK
  5
21
330
1F
100
AcDbEntity
  8
0
100
AcDbBlockEnd
  0
BLOCK
  5
1C
330
1B
100
AcDbEntity
 67
     1
  8
0
100
AcDbBlockBegin
  2
*Paper_Space
 70
     0
 10
0.0
 20
0.0
 30
0.0
  3
*Paper_Space
  1

  0
ENDBLK
  5
1D
330
1B
100
AcDbEntity
 67
     1
  8
0
100
AcDbBlockEnd
  0
BLOCK
  5
24
330
23
100
AcDbEntity
  8
0
100
AcDbBlockBegin
  2
*Paper_Space0
 70
     0
 10
0.0
 20
0.0
 30
0.0
  3
*Paper_Space0
  1

  0
ENDBLK
  5
25
330
23
100
AcDbEntity
  8
0
100
AcDbBlockEnd
  0
ENDSEC
  0
SECTION
  2
ENTITIES
  0
LINE
  5
4C
330
1F
100
AcDbEntity
  8
F-1
  6
JWW_DASHED1
 62
     7
370
     9
100
AcDbLine
 10
-103.3338392103036
 20
2369.166967868205
 30
0.0
 11
-1003.333839210304
 21
2369.166967868205
 31
0.0
  0
LINE
  5
4D
330
1F
100
AcDbEntity
  8
F-1
  6
Continuous
 62
   200
370
    20
100
AcDbLine
 10
3799.999175200592
 20
2473.333641258446
 30
0.0
 11
-3999.999835040119
 21
2473.333641258446
 31
0.0
  0
LINE
  5
4E
330
1F
100
AcDbEntity
  8
F-0
  6
JWW_HOJO
 62
   120
370
     5
100
AcDbLine
 10
-3993.33306389886
 20
2631.666919605152
 30
0.0
 11
3793.558316617399
 21
2631.666919605152
 31
0.0
  0
LINE
  5
4F
330
1F
100
AcDbEntity
  8
F-1
  6
Continuous
 62
   200
370
    20
100
AcDbLine
 10
-3999.999989690007
 20
2783.333179370777
 30
0.0
 11
-3999.999989690007
 21
-2803.333443306588
 31
0.0
  0
LINE
  5
50
330
1F
100
AcDbEntity
  8
F-1
  6
Continuous
 62
     7
370
     9
100
AcDbLine
 10
603.3330144108953
 20
2783.36534654772
 30
0.0
 11
603.3330144108953
 21
-2530.000032991976
 31
0.0
  0
LINE
  5
51
330
1F
100
AcDbEntity
  8
F-0
  6
JWW_HOJO
 62
   120
370
     5
100
AcDbLine
 10
-4200.0
 20
-2970.0
 30
0.0
 11
-4200.0
 21
2949.99973606419
 31
0.0
  0
LINE
  5
52
330
1F
100
AcDbEntity
  8
F-0
  6
JWW_HOJO
 62
   120
370
     5
100
AcDbLine
 10
-2448.333595894478
 20
2473.333641258446
 30
0.0
 11
-2448.333595894478
 21
-2526.666678351325
 31
0.0
  0
LINE
  5
53
330
1F
100
AcDbEntity
  8
F-1
  6
Continuous
 62
   200
370
    20
100
AcDbLine
 10
-3993.333326803671
 20
2783.333179370777
 30
0.0
 11
-3993.333326803671
 21
-2803.333443306588
 31
0.0
  0
LINE
  5
54
330
1F
100
AcDbEntity
  8
F-0
  6
JWW_HOJO
 62
   120
370
     5
100
AcDbLine
 10
1.666259765625
 20
2776.666655669342
 30
0.0
 11
1.666259765625
 21
-2526.72046558277
 31
0.0
  0
LINE
  5
55
330
1F
100
AcDbEntity
  8
F-0
  6
JWW_HOJO
 62
   120
370
     5
100
AcDbLine
 10
-4200.0
 20
2949.99973606419
 30
0.0
 11
3999.999340160473
 21
2949.99973606419
 31
0.0
  0
LINE
  5
56
330
1F
100
AcDbEntity
  8
F-0
  6
JWW_HOJO
 62
   120
370
     5
100
AcDbLine
 10
3999.999340160473
 20
2949.99973606419
 30
0.0
 11
3999.999340160473
 21
-2970.0
 31
0.0
  0
LINE
  5
57
330
1F
100
AcDbEntity
  8
F-0
  6
JWW_HOJO
 62
   120
370
     5
100
AcDbLine
 10
3999.999340160473
 20
-2970.0
 30
0.0
 11
-4200.0
 21
-2970.0
 31
0.0
  0
LINE
  5
58
330
1F
100
AcDbEntity
  8
F-1
  6
Continuous
 62
   200
370
    20
100
AcDbLine
 10
-3999.999835040119
 20
2783.333179370777
 30
0.0
 11
3799.999175200592
 21
2783.333179370777
 31
0.0
  0
LINE
  5
59
330
1F
100
AcDbEntity
  8
F-1
  6
Continuous
 62
   200
370
    20
100
AcDbLine
 10
3799.999175200592
 20
2783.333179370777
 30
0.0
 11
3799.999175200592
 21
-2803.333443306588
 31
0.0
  0
LINE
  5
5A
330
1F
100
AcDbEntity
  8
F-1
  6
Continuous
 62
   200
370
    20
100
AcDbLine
 10
-3999.999835040119
 20
2776.666655669342
 30
0.0
 11
3799.999175200592
 21
2776.666655669342
 31
0.0
  0
LINE
  5
5B
330
1F
100
AcDbEntity
  8
F-1
  6
Continuous
 62
   200
370
    20
100
AcDbLine
 10
-3999.999835040119
 20
2779.999670080237
 30
0.0
 11
3799.999175200592
 21
2779.999670080237
 31
0.0
  0
LINE
  5
5C
330
1F
100
AcDbEntity
  8
F-1
  6
Continuous
 62
   200
370
    20
100
AcDbLine
 10
-3996.666650514345
 20
2783.333179370777
 30
0.0
 11
-3996.666650514345
 21
-2803.333443306588
 31
0.0
  0
LINE
  5
5D
330
1F
100
AcDbEntity
  8
F-1
  6
Continuous
 62
   200
370
    20
100
AcDbLine
 10
3796.665665910051
 20
2783.333179370777
 30
0.0
 11
3796.665665910051
 21
-2803.333443306588
 31
0.0
  0
LINE
  5
5E
330
1F
100
AcDbEntity
  8
F-1
  6
Continuous
 62
   200
370
    20
100
AcDbLine
 10
3793.332651499156
 20
2783.333179370777
 30
0.0
 11
3793.332651499156
 21
-2803.333443306588
 31
0.0
  0
LINE
  5
5F
330
1F
100
AcDbEntity
  8
F-1
  6
Continuous
 62
   200
370
    20
100
AcDbLine
 10
-100.0005773595859
 20
2783.333179370777
 30
0.0
 11
-100.0005773595859
 21
-2530.000032991976
 31
0.0
  0
LINE
  5
60
330
1F
100
AcDbEntity
  8
F-1
  6
Continuous
 62
   200
370
    20
100
AcDbLine
 10
-96.66731550886823
 20
2783.36534654772
 30
0.0
 11
-96.66731550886823
 21
-2530.000032991976
 31
0.0
  0
LINE
  5
61
330
1F
100
AcDbEntity
  8
F-1
  6
Continuous
 62
   200
370
    20
100
AcDbLine
 10
-103.3338392103036
 20
2783.36534654772
 30
0.0
 11
-103.3338392103036
 21
-2530.000032991976
 31
0.0
  0
LINE
  5
62
330
1F
100
AcDbEntity
  8
F-1
  6
Continuous
 62
     7
370
     9
100
AcDbLine
 10
-1603.333839210304
 20
2783.36534654772
 30
0.0
 11
-1603.333839210304
 21
-2530.000032991976
 31
0.0
  0
LINE
  5
63
330
1F
100
AcDbEntity
  8
F-1
  6
Continuous
 62
     7
370
     9
100
AcDbLine
 10
-3293.333352578653
 20
2783.333179370777
 30
0.0
 11
-3293.333352578653
 21
-2526.666678351325
 31
0.0
  0
LINE
  5
64
330
1F
100
AcDbEntity
  8
F-1
  6
Continuous
 62
     7
370
     9
100
AcDbLine
 10
2293.333146378801
 20
2783.333179370777
 30
0.0
 11
2293.333146378801
 21
-2526.666678351325
 31
0.0
  0
LINE
  5
65
330
1F
100
AcDbEntity
  8
F-1
  6
Continuous
 62
     7
370
     9
100
AcDbLine
 10
-1603.333839210304
 20
2631.634752428209
 30
0.0
 11
-1003.333839210304
 21
2631.634752428209
 31
0.0
  0
LINE
  5
66
330
1F
100
AcDbEntity
  8
F-1
  6
Continuous
 62
     7
370
     9
100
AcDbLine
 10
-1003.333839210304
 20
2783.333179370777
 30
0.0
 11
-1003.333839210304
 21
-2530.032200168919
 31
0.0
  0
LINE
  5
67
330
1F
100
AcDbEntity
  8
F-1
  6
Continuous
 62
     7
370
     9
100
AcDbLine
 10
-423.3338392103036
 20
2783.333179370777
 30
0.0
 11
-423.3338392103036
 21
-2530.032200168919
 31
0.0
  0
LINE
  5
68
330
1F
100
AcDbEntity
  8
F-1
  6
Continuous
 62
     7
370
     9
100
AcDbLine
 10
2893.333146378801
 20
2783.333179370777
 30
0.0
 11
2893.333146378801
 21
-2530.032200168919
 31
0.0
  0
LINE
  5
69
330
1F
100
AcDbEntity
  8
F-1
  6
Continuous
 62
     7
370
     9
100
AcDbLine
 10
3473.333146378802
 20
2783.333179370777
 30
0.0
 11
3473.333146378802
 21
-2530.032200168919
 31
0.0
  0
LINE
  5
6A
330
1F
100
AcDbEntity
  8
F-1
  6
Continuous
 62
   200
370
    20
100
AcDbLine
 10
3799.999175200592
 20
2480.000164960446
 30
0.0
 11
-3999.999835040119
 21
2480.000164960446
 31
0.0
  0
LINE
  5
6B
330
1F
100
AcDbEntity
  8
F-1
  6
JWW_DASHED1
 62
     7
370
     9
100
AcDbLine
 10
-103.3338392103036
 20
1744.166927916983
 30
0.0
 11
-1603.333839210304
 21
1744.166927916983
 31
0.0
  0
LINE
  5
6C
330
1F
100
AcDbEntity
  8
F-1
  6
JWW_DASHED1
 62
     7
370
     9
100
AcDbLine
 10
-103.3338392103036
 20
2160.833621217797
 30
0.0
 11
-1603.333839210304
 21
2160.833621217797
 31
0.0
  0
LINE
  5
6D
330
1F
100
AcDbEntity
  8
F-1
  6
JWW_DASHED1
 62
     7
370
     9
100
AcDbLine
 10
-103.3338392103036
 20
2056.666947892594
 30
0.0
 11
-1603.333839210304
 21
2056.666947892594
 31
0.0
  0
LINE
  5
6E
330
1F
100
AcDbEntity
  8
F-1
  6
JWW_DASHED1
 62
     7
370
     9
100
AcDbLine
 10
-103.3338392103036
 20
1952.50027456739
 30
0.0
 11
-1603.333839210304
 21
1952.50027456739
 31
0.0
  0
LINE
  5
6F
330
1F
100
AcDbEntity
  8
F-1
  6
JWW_DASHED1
 62
     7
370
     9
100
AcDbLine
 10
-103.3338392103036
 20
1848.333601242186
 30
0.0
 11
-1603.333839210304
 21
1848.333601242186
 31
0.0
  0
LINE
  5
70
330
1F
100
AcDbEntity
  8
F-1
  6
JWW_DASHED1
 62
     7
370
     9
100
AcDbLine
 10
-103.3338392103036
 20
2265.000294543001
 30
0.0
 11
-1003.333839210304
 21
2265.000294543001
 31
0.0
  0
LINE
  5
71
330
1F
100
AcDbEntity
  8
F-0
  6
JWW_HOJO
 62
     7
370
     9
100
AcDbLine
 10
-983.3338392103042
 20
2783.333179370777
 30
0.0
 11
-983.3338392103042
 21
-2530.032200168919
 31
0.0
  0
LINE
  5
72
330
1F
100
AcDbEntity
  8
F-1
  6
JWW_DASHED1
 62
     7
370
     9
100
AcDbLine
 10
-103.3338392103036
 20
77.50015458364999
 30
0.0
 11
-1603.333839210304
 21
77.50015458364999
 31
0.0
  0
LINE
  5
73
330
1F
100
AcDbEntity
  8
F-1
  6
JWW_DASHED1
 62
     7
370
     9
100
AcDbLine
 10
-103.3338392103036
 20
494.1668478844639
 30
0.0
 11
-1603.333839210304
 21
494.1668478844639
 31
0.0
  0
LINE
  5
74
330
1F
100
AcDbEntity
  8
F-1
  6
JWW_DASHED1
 62
     7
370
     9
100
AcDbLine
 10
-103.3338392103036
 20
390.0001745592601
 30
0.0
 11
-1603.333839210304
 21
390.0001745592601
 31
0.0
  0
LINE
  5
75
330
1F
100
AcDbEntity
  8
F-1
  6
JWW_DASHED1
 62
     7
370
     9
100
AcDbLine
 10
-103.3338392103036
 20
285.8335012340569
 30
0.0
 11
-1603.333839210304
 21
285.8335012340569
 31
0.0
  0
LINE
  5
76
330
1F
100
AcDbEntity
  8
F-1
  6
JWW_DASHED1
 62
     7
370
     9
100
AcDbLine
 10
-103.3338392103036
 20
181.6668279088537
 30
0.0
 11
-1603.333839210304
 21
181.6668279088537
 31
0.0
  0
LINE
  5
77
330
1F
100
AcDbEntity
  8
F-1
  6
JWW_DASHED1
 62
     7
370
     9
100
AcDbLine
 10
-103.3338392103036
 20
-755.8332320830166
 30
0.0
 11
-1603.333839210304
 21
-755.8332320830166
 31
0.0
  0
LINE
  5
78
330
1F
100
AcDbEntity
  8
F-1
  6
JWW_DASHED1
 62
     7
370
     9
100
AcDbLine
 10
-103.3338392103036
 20
-339.1665387822025
 30
0.0
 11
-1603.333839210304
 21
-339.1665387822025
 31
0.0
  0
LINE
  5
79
330
1F
100
AcDbEntity
  8
F-1
  6
JWW_DASHED1
 62
     7
370
     9
100
AcDbLine
 10
-103.3338392103036
 20
-443.3332121074062
 30
0.0
 11
-1603.333839210304
 21
-443.3332121074062
 31
0.0
  0
LINE
  5
7A
330
1F
100
AcDbEntity
  8
F-1
  6
JWW_DASHED1
 62
     7
370
     9
100
AcDbLine
 10
-103.3338392103036
 20
-547.4998854326097
 30
0.0
 11
-1603.333839210304
 21
-547.4998854326097
 31
0.0
  0
LINE
  5
7B
330
1F
100
AcDbEntity
  8
F-1
  6
JWW_DASHED1
 62
     7
370
     9
100
AcDbLine
 10
-103.3338392103036
 20
-651.6665587578132
 30
0.0
 11
-1603.333839210304
 21
-651.6665587578132
 31
0.0
  0
LINE
  5
7C
330
1F
100
AcDbEntity
  8
F-1
  6
JWW_DASHED1
 62
     7
370
     9
100
AcDbLine
 10
-103.3338392103036
 20
-1589.166618749683
 30
0.0
 11
-1603.333839210304
 21
-1589.166618749683
 31
0.0
  0
LINE
  5
7D
330
1F
100
AcDbEntity
  8
F-1
  6
JWW_DASHED1
 62
     7
370
     9
100
AcDbLine
 10
-103.3338392103036
 20
-1172.499925448869
 30
0.0
 11
-1603.333839210304
 21
-1172.499925448869
 31
0.0
  0
LINE
  5
7E
330
1F
100
AcDbEntity
  8
F-1
  6
JWW_DASHED1
 62
     7
370
     9
100
AcDbLine
 10
-103.3338392103036
 20
-1276.666598774073
 30
0.0
 11
-1603.333839210304
 21
-1276.666598774073
 31
0.0
  0
LINE
  5
7F
330
1F
100
AcDbEntity
  8
F-1
  6
JWW_DASHED1
 62
     7
370
     9
100
AcDbLine
 10
-103.3338392103036
 20
-1380.833272099276
 30
0.0
 11
-1603.333839210304
 21
-1380.833272099276
 31
0.0
  0
LINE
  5
80
330
1F
100
AcDbEntity
  8
F-1
  6
JWW_DASHED1
 62
     7
370
     9
100
AcDbLine
 10
-103.3338392103036
 20
-1484.99994542448
 30
0.0
 11
-1603.333839210304
 21
-1484.99994542448
 31
0.0
  0
LINE
  5
81
330
1F
100
AcDbEntity
  8
F-1
  6
JWW_DASHED1
 62
     7
370
     9
100
AcDbLine
 10
-103.3338392103036
 20
-2422.50000541635
 30
0.0
 11
-1603.333839210304
 21
-2422.50000541635
 31
0.0
  0
LINE
  5
82
330
1F
100
AcDbEntity
  8
F-1
  6
JWW_DASHED1
 62
     7
370
     9
100
AcDbLine
 10
-103.3338392103036
 20
-2005.833312115536
 30
0.0
 11
-1603.333839210304
 21
-2005.833312115536
 31
0.0
  0
LINE
  5
83
330
1F
100
AcDbEntity
  8
F-1
  6
JWW_DASHED1
 62
     7
370
     9
100
AcDbLine
 10
-103.3338392103036
 20
-2109.99998544074
 30
0.0
 11
-1603.333839210304
 21
-2109.99998544074
 31
0.0
  0
LINE
  5
84
330
1F
100
AcDbEntity
  8
F-1
  6
JWW_DASHED1
 62
     7
370
     9
100
AcDbLine
 10
-103.3338392103036
 20
-2214.166658765943
 30
0.0
 11
-1603.333839210304
 21
-2214.166658765943
 31
0.0
  0
LINE
  5
85
330
1F
100
AcDbEntity
  8
F-1
  6
JWW_DASHED1
 62
     7
370
     9
100
AcDbLine
 10
-103.3338392103036
 20
-2318.333332091147
 30
0.0
 11
-1603.333839210304
 21
-2318.333332091147
 31
0.0
  0
LINE
  5
86
330
1F
100
AcDbEntity
  8
F-1
  6
JWW_DASHED1
 62
     7
370
     9
100
AcDbLine
 10
-103.3338392103036
 20
598.3335212096677
 30
0.0
 11
-1603.333839210304
 21
598.3335212096677
 31
0.0
  0
LINE
  5
87
330
1F
100
AcDbEntity
  8
F-1
  6
JWW_DASHED1
 62
     7
370
     9
100
AcDbLine
 10
-103.3338392103036
 20
-1068.333252123666
 30
0.0
 11
-1603.333839210304
 21
-1068.333252123666
 31
0.0
  0
LINE
  5
88
330
1F
100
AcDbEntity
  8
F-1
  6
JWW_DASHED1
 62
     7
370
     9
100
AcDbLine
 10
-103.3338392103036
 20
-1901.666638790333
 30
0.0
 11
-1603.333839210304
 21
-1901.666638790333
 31
0.0
  0
LINE
  5
89
330
1F
100
AcDbEntity
  8
F-1
  6
JWW_DASHED1
 62
     7
370
     9
100
AcDbLine
 10
3793.333146378802
 20
-2422.50000541635
 30
0.0
 11
2293.333146378801
 21
-2422.50000541635
 31
0.0
  0
LINE
  5
8A
330
1F
100
AcDbEntity
  8
F-1
  6
JWW_DASHED1
 62
     7
370
     9
100
AcDbLine
 10
3793.333146378802
 20
-2214.166658765943
 30
0.0
 11
2293.333146378801
 21
-2214.166658765943
 31
0.0
  0
LINE
  5
8B
330
1F
100
AcDbEntity
  8
F-1
  6
JWW_DASHED1
 62
     7
370
     9
100
AcDbLine
 10
3793.333146378802
 20
-2318.333332091147
 30
0.0
 11
2293.333146378801
 21
-2318.333332091147
 31
0.0
  0
LINE
  5
8C
330
1F
100
AcDbEntity
  8
F-0
  6
JWW_HOJO
 62
     7
370
     9
100
AcDbLine
 10
2913.333146378801
 20
2783.333179370777
 30
0.0
 11
2913.333146378801
 21
-2530.032200168919
 31
0.0
  0
LINE
  5
8D
330
1F
100
AcDbEntity
  8
F-1
  6
JWW_DASHED1
 62
     7
370
     9
100
AcDbLine
 10
3793.333146378802
 20
1744.166927916983
 30
0.0
 11
2293.333146378801
 21
1744.166927916983
 31
0.0
  0
LINE
  5
8E
330
1F
100
AcDbEntity
  8
F-1
  6
JWW_DASHED1
 62
     7
370
     9
100
AcDbLine
 10
3793.333146378802
 20
2160.833621217797
 30
0.0
 11
2293.333146378801
 21
2160.833621217797
 31
0.0
  0
LINE
  5
8F
330
1F
100
AcDbEntity
  8
F-1
  6
JWW_DASHED1
 62
     7
370
     9
100
AcDbLine
 10
3793.333146378802
 20
2056.666947892594
 30
0.0
 11
2293.333146378801
 21
2056.666947892594
 31
0.0
  0
LINE
  5
90
330
1F
100
AcDbEntity
  8
F-1
  6
JWW_DASHED1
 62
     7
370
     9
100
AcDbLine
 10
3793.333146378802
 20
1952.50027456739
 30
0.0
 11
2293.333146378801
 21
1952.50027456739
 31
0.0
  0
LINE
  5
91
330
1F
100
AcDbEntity
  8
F-1
  6
JWW_DASHED1
 62
     7
370
     9
100
AcDbLine
 10
3793.333146378802
 20
1848.333601242186
 30
0.0
 11
2293.333146378801
 21
1848.333601242186
 31
0.0
  0
LINE
  5
92
330
1F
100
AcDbEntity
  8
F-1
  6
JWW_DASHED1
 62
     7
370
     9
100
AcDbLine
 10
3793.333146378802
 20
2369.166967868205
 30
0.0
 11
2293.333146378801
 21
2369.166967868205
 31
0.0
  0
LINE
  5
93
330
1F
100
AcDbEntity
  8
F-1
  6
JWW_DASHED1
 62
     7
370
     9
100
AcDbLine
 10
3793.333146378802
 20
2265.000294543001
 30
0.0
 11
2293.333146378801
 21
2265.000294543001
 31
0.0
  0
LINE
  5
94
330
1F
100
AcDbEntity
  8
F-1
  6
JWW_DASHED1
 62
     7
370
     9
100
AcDbLine
 10
3793.333146378802
 20
910.8335412503163
 30
0.0
 11
2293.333146378801
 21
910.8335412503163
 31
0.0
  0
LINE
  5
95
330
1F
100
AcDbEntity
  8
F-1
  6
JWW_DASHED1
 62
     7
370
     9
100
AcDbLine
 10
3793.333146378802
 20
1327.50023455113
 30
0.0
 11
2293.333146378801
 21
1327.50023455113
 31
0.0
  0
LINE
  5
96
330
1F
100
AcDbEntity
  8
F-1
  6
JWW_DASHED1
 62
     7
370
     9
100
AcDbLine
 10
3793.333146378802
 20
1223.333561225927
 30
0.0
 11
2293.333146378801
 21
1223.333561225927
 31
0.0
  0
LINE
  5
97
330
1F
100
AcDbEntity
  8
F-1
  6
JWW_DASHED1
 62
     7
370
     9
100
AcDbLine
 10
3793.333146378802
 20
1119.166887900724
 30
0.0
 11
2293.333146378801
 21
1119.166887900724
 31
0.0
  0
LINE
  5
98
330
1F
100
AcDbEntity
  8
F-1
  6
JWW_DASHED1
 62
     7
370
     9
100
AcDbLine
 10
3793.333146378802
 20
1015.00021457552
 30
0.0
 11
2293.333146378801
 21
1015.00021457552
 31
0.0
  0
LINE
  5
99
330
1F
100
AcDbEntity
  8
F-1
  6
JWW_DASHED1
 62
     7
370
     9
100
AcDbLine
 10
3793.333146378802
 20
1535.833581201538
 30
0.0
 11
2293.333146378801
 21
1535.833581201538
 31
0.0
  0
LINE
  5
9A
330
1F
100
AcDbEntity
  8
F-1
  6
JWW_DASHED1
 62
     7
370
     9
100
AcDbLine
 10
3793.333146378802
 20
1431.666907876334
 30
0.0
 11
2293.333146378801
 21
1431.666907876334
 31
0.0
  0
LINE
  5
9B
330
1F
100
AcDbEntity
  8
F-1
  6
JWW_DASHED1
 62
     7
370
     9
100
AcDbLine
 10
3793.333146378802
 20
77.50015458364999
 30
0.0
 11
2293.333146378801
 21
77.50015458364999
 31
0.0
  0
LINE
  5
9C
330
1F
100
AcDbEntity
  8
F-1
  6
JWW_DASHED1
 62
     7
370
     9
100
AcDbLine
 10
3793.333146378802
 20
494.1668478844639
 30
0.0
 11
2293.333146378801
 21
494.1668478844639
 31
0.0
  0
LINE
  5
9D
330
1F
100
AcDbEntity
  8
F-1
  6
JWW_DASHED1
 62
     7
370
     9
100
AcDbLine
 10
3793.333146378802
 20
390.0001745592601
 30
0.0
 11
2293.333146378801
 21
390.0001745592601
 31
0.0
  0
LINE
  5
9E
330
1F
100
AcDbEntity
  8
F-1
  6
JWW_DASHED1
 62
     7
370
     9
100
AcDbLine
 10
3793.333146378802
 20
285.8335012340569
 30
0.0
 11
2293.333146378801
 21
285.8335012340569
 31
0.0
  0
LINE
  5
9F
330
1F
100
AcDbEntity
  8
F-1
  6
JWW_DASHED1
 62
     7
370
     9
100
AcDbLine
 10
3793.333146378802
 20
181.6668279088537
 30
0.0
 11
2293.333146378801
 21
181.6668279088537
 31
0.0
  0
LINE
  5
A0
330
1F
100
AcDbEntity
  8
F-1
  6
JWW_DASHED1
 62
     7
370
     9
100
AcDbLine
 10
3793.333146378802
 20
702.5001945348708
 30
0.0
 11
2293.333146378801
 21
702.5001945348708
 31
0.0
  0
LINE
  5
A1
330
1F
100
AcDbEntity
  8
F-1
  6
JWW_DASHED1
 62
     7
370
     9
100
AcDbLine
 10
3793.333146378802
 20
598.3335212096677
 30
0.0
 11
2293.333146378801
 21
598.3335212096677
 31
0.0
  0
LINE
  5
A2
330
1F
100
AcDbEntity
  8
F-1
  6
JWW_DASHED1
 62
     7
370
     9
100
AcDbLine
 10
3793.333146378802
 20
-755.8332320830166
 30
0.0
 11
2293.333146378801
 21
-755.8332320830166
 31
0.0
  0
LINE
  5
A3
330
1F
100
AcDbEntity
  8
F-1
  6
JWW_DASHED1
 62
     7
370
     9
100
AcDbLine
 10
3793.333146378802
 20
-339.1665387822025
 30
0.0
 11
2293.333146378801
 21
-339.1665387822025
 31
0.0
  0
LINE
  5
A4
330
1F
100
AcDbEntity
  8
F-1
  6
JWW_DASHED1
 62
     7
370
     9
100
AcDbLine
 10
3793.333146378802
 20
-443.3332121074062
 30
0.0
 11
2293.333146378801
 21
-443.3332121074062
 31
0.0
  0
LINE
  5
A5
330
1F
100
AcDbEntity
  8
F-1
  6
JWW_DASHED1
 62
     7
370
     9
100
AcDbLine
 10
3793.333146378802
 20
-547.4998854326097
 30
0.0
 11
2293.333146378801
 21
-547.4998854326097
 31
0.0
  0
LINE
  5
A6
330
1F
100
AcDbEntity
  8
F-1
  6
JWW_DASHED1
 62
     7
370
     9
100
AcDbLine
 10
3793.333146378802
 20
-651.6665587578132
 30
0.0
 11
2293.333146378801
 21
-651.6665587578132
 31
0.0
  0
LINE
  5
A7
330
1F
100
AcDbEntity
  8
F-1
  6
JWW_DASHED1
 62
     7
370
     9
100
AcDbLine
 10
3793.333146378802
 20
-130.8331921317961
 30
0.0
 11
2293.333146378801
 21
-130.8331921317961
 31
0.0
  0
LINE
  5
A8
330
1F
100
AcDbEntity
  8
F-1
  6
JWW_DASHED1
 62
     7
370
     9
100
AcDbLine
 10
3793.333146378802
 20
-234.9998654569993
 30
0.0
 11
2293.333146378801
 21
-234.9998654569993
 31
0.0
  0
LINE
  5
A9
330
1F
100
AcDbEntity
  8
F-1
  6
JWW_DASHED1
 62
     7
370
     9
100
AcDbLine
 10
3793.333146378802
 20
-1589.166618749683
 30
0.0
 11
2293.333146378801
 21
-1589.166618749683
 31
0.0
  0
LINE
  5
AA
330
1F
100
AcDbEntity
  8
F-1
  6
JWW_DASHED1
 62
     7
370
     9
100
AcDbLine
 10
3793.333146378802
 20
-1172.499925448869
 30
0.0
 11
2293.333146378801
 21
-1172.499925448869
 31
0.0
  0
LINE
  5
AB
330
1F
100
AcDbEntity
  8
F-1
  6
JWW_DASHED1
 62
     7
370
     9
100
AcDbLine
 10
3793.333146378802
 20
-1276.666598774073
 30
0.0
 11
2293.333146378801
 21
-1276.666598774073
 31
0.0
  0
LINE
  5
AC
330
1F
100
AcDbEntity
  8
F-1
  6
JWW_DASHED1
 62
     7
370
     9
100
AcDbLine
 10
3793.333146378802
 20
-1380.833272099276
 30
0.0
 11
2293.333146378801
 21
-1380.833272099276
 31
0.0
  0
LINE
  5
AD
330
1F
100
AcDbEntity
  8
F-1
  6
JWW_DASHED1
 62
     7
370
     9
100
AcDbLine
 10
3793.333146378802
 20
-1484.99994542448
 30
0.0
 11
2293.333146378801
 21
-1484.99994542448
 31
0.0
  0
LINE
  5
AE
330
1F
100
AcDbEntity
  8
F-1
  6
JWW_DASHED1
 62
     7
370
     9
100
AcDbLine
 10
3793.333146378802
 20
-964.1665787984624
 30
0.0
 11
2293.333146378801
 21
-964.1665787984624
 31
0.0
  0
LINE
  5
AF
330
1F
100
AcDbEntity
  8
F-1
  6
JWW_DASHED1
 62
     7
370
     9
100
AcDbLine
 10
3793.333146378802
 20
-1068.333252123666
 30
0.0
 11
2293.333146378801
 21
-1068.333252123666
 31
0.0
  0
LINE
  5
B0
330
1F
100
AcDbEntity
  8
F-1
  6
JWW_DASHED1
 62
     7
370
     9
100
AcDbLine
 10
3793.333146378802
 20
-2005.833312115536
 30
0.0
 11
2293.333146378801
 21
-2005.833312115536
 31
0.0
  0
LINE
  5
B1
330
1F
100
AcDbEntity
  8
F-1
  6
JWW_DASHED1
 62
     7
370
     9
100
AcDbLine
 10
3793.333146378802
 20
-2109.99998544074
 30
0.0
 11
2293.333146378801
 21
-2109.99998544074
 31
0.0
  0
LINE
  5
B2
330
1F
100
AcDbEntity
  8
F-1
  6
JWW_DASHED1
 62
     7
370
     9
100
AcDbLine
 10
3793.333146378802
 20
-1797.499965465129
 30
0.0
 11
2293.333146378801
 21
-1797.499965465129
 31
0.0
  0
LINE
  5
B3
330
1F
100
AcDbEntity
  8
F-1
  6
JWW_DASHED1
 62
     7
370
     9
100
AcDbLine
 10
3793.333146378802
 20
-1901.666638790333
 30
0.0
 11
2293.333146378801
 21
-1901.666638790333
 31
0.0
  0
LINE
  5
B4
330
1F
100
AcDbEntity
  8
F-1
  6
Continuous
 62
     7
370
     9
100
AcDbLine
 10
2293.333146378801
 20
2631.634752428209
 30
0.0
 11
2893.333146378801
 21
2631.634752428209
 31
0.0
  0
LINE
  5
B5
330
1F
100
AcDbEntity
  8
F-1
  6
Continuous
 62
     7
370
     9
100
AcDbLine
 10
3793.332651499156
 20
1640.000254591779
 30
0.0
 11
603.3330144108953
 21
1640.000254591779
 31
0.0
  0
LINE
  5
B6
330
1F
100
AcDbEntity
  8
F-1
  6
Continuous
 62
     7
370
     9
100
AcDbLine
 10
3793.332651499156
 20
-26.66651874155377
 30
0.0
 11
603.3330144108953
 21
-26.66651874155377
 31
0.0
  0
LINE
  5
B7
330
1F
100
AcDbEntity
  8
F-1
  6
Continuous
 62
     7
370
     9
100
AcDbLine
 10
3793.332651499156
 20
-1693.333292074887
 30
0.0
 11
603.3330144108953
 21
-1693.333292074887
 31
0.0
  0
LINE
  5
B8
330
1F
100
AcDbEntity
  8
F-1
  6
Continuous
 62
     7
370
     9
100
AcDbLine
 10
3793.332651499156
 20
-859.9999054082207
 30
0.0
 11
-3993.333326803671
 21
-859.9999054082207
 31
0.0
  0
LINE
  5
B9
330
1F
100
AcDbEntity
  8
F-1
  6
Continuous
 62
     7
370
     9
100
AcDbLine
 10
-96.66731550886823
 20
-26.66651874155377
 30
0.0
 11
-3993.333326803671
 21
-26.66651874155377
 31
0.0
  0
LINE
  5
BA
330
1F
100
AcDbEntity
  8
F-1
  6
Continuous
 62
     7
370
     9
100
AcDbLine
 10
3793.332651499156
 20
806.6668679251126
 30
0.0
 11
-3993.333326803671
 21
806.6668679251126
 31
0.0
  0
LINE
  5
BB
330
1F
100
AcDbEntity
  8
F-1
  6
Continuous
 62
     7
370
     9
100
AcDbLine
 10
-96.66731550886823
 20
1640.000254591779
 30
0.0
 11
-3993.333326803671
 21
1640.000254591779
 31
0.0
  0
LINE
  5
BC
330
1F
100
AcDbEntity
  8
F-1
  6
Continuous
 62
     7
370
     9
100
AcDbLine
 10
-96.66731550886823
 20
-1693.333292074887
 30
0.0
 11
-3993.333326803671
 21
-1693.333292074887
 31
0.0
  0
LINE
  5
BD
330
1F
100
AcDbEntity
  8
0-0
  6
JWW_HOJO
 62
   120
370
     5
100
AcDbLine
 10
-3883.333339691162
 20
2131.666947892594
 30
0.0
 11
-3403.333339691162
 21
2131.666947892594
 31
0.0
  0
LINE
  5
BE
330
1F
100
AcDbEntity
  8
0-0
  6
JWW_HOJO
 62
   120
370
     5
100
AcDbLine
 10
-3883.333339691162
 20
1981.666947892594
 30
0.0
 11
-3403.333339691162
 21
1981.666947892594
 31
0.0
  0
LINE
  5
BF
330
1F
100
AcDbEntity
  8
0-B
  6
Continuous
 62
   120
370
     5
100
AcDbLine
 10
-2350.943450889354
 20
1820.739204455386
 30
0.0
 11
-2264.524916985697
 21
1820.739204455386
 31
0.0
  0
LINE
  5
C0
330
1F
100
AcDbEntity
  8
0-B
  6
Continuous
 62
   120
370
     5
100
AcDbLine
 10
-2496.225220693918
 20
1966.020974259951
 30
0.0
 11
-2350.943450889354
 21
1820.739204455386
 31
0.0
  0
LWPOLYLINE
  5
C1
330
1F
100
AcDbEntity
  8
0-B
  6
Continuous
 62
     7
370
     9
100
AcDbPolyline
 90
        4
 70
     1
 43
2.0
 10
-2277.725220693918
 20
1951.020974259951
 42
0.4142135623731
 10
-2278.725220693918
 20
1952.020974259951
 42
0.4142135623731
 10
-2279.725220693918
 20
1951.020974259951
 42
0.4142135623731
 10
-2278.725220693918
 20
1950.020974259951
 42
0.4142135623731
  0
LWPOLYLINE
  5
C2
330
1F
100
AcDbEntity
  8
0-B
  6
Continuous
 62
     7
370
     9
100
AcDbPolyline
 90
        4
 70
     1
 43
2.0
 10
-2277.725220693918
 20
2251.020974259951
 42
0.4142135623731
 10
-2278.725220693918
 20
2252.020974259951
 42
0.4142135623731
 10
-2279.725220693918
 20
2251.020974259951
 42
0.4142135623731
 10
-2278.725220693918
 20
2250.020974259951
 42
0.4142135623731
  0
LINE
  5
C3
330
1F
100
AcDbEntity
  8
0-B
  6
Continuous
 62
   120
370
     5
100
AcDbLine
 10
-2278.725220693918
 20
2251.020974259951
 30
0.0
 11
-2278.725220693918
 21
1951.020974259951
 31
0.0
  0
LINE
  5
C4
330
1F
100
AcDbEntity
  8
0-B
  6
Continuous
 62
   120
370
     5
100
AcDbLine
 10
-2278.725220693918
 20
1951.020974259951
 30
0.0
 11
-2428.725220693918
 21
1951.020974259951
 31
0.0
  0
LWPOLYLINE
  5
C5
330
1F
100
AcDbEntity
  8
0-B
  6
Continuous
 62
     7
370
     9
100
AcDbPolyline
 90
        4
 70
     1
 43
2.0
 10
-2377.725220693918
 20
1951.020974259951
 42
0.4142135623731
 10
-2378.725220693918
 20
1952.020974259951
 42
0.4142135623731
 10
-2379.725220693918
 20
1951.020974259951
 42
0.4142135623731
 10
-2378.725220693918
 20
1950.020974259951
 42
0.4142135623731
  0
LINE
  5
C6
330
1F
100
AcDbEntity
  8
0-B
  6
Continuous
 62
   120
370
     5
100
AcDbLine
 10
-2378.725220693918
 20
2101.020974259951
 30
0.0
 11
-2428.725220693918
 21
2101.020974259951
 31
0.0
  0
LWPOLYLINE
  5
C7
330
1F
100
AcDbEntity
  8
0-B
  6
Continuous
 62
     7
370
     9
100
AcDbPolyline
 90
        4
 70
     1
 43
2.0
 10
-2377.725220693918
 20
2101.020974259951
 42
0.4142135623731
 10
-2378.725220693918
 20
2102.020974259951
 42
0.4142135623731
 10
-2379.725220693918
 20
2101.020974259951
 42
0.4142135623731
 10
-2378.725220693918
 20
2100.020974259951
 42
0.4142135623731
  0
LINE
  5
C8
330
1F
100
AcDbEntity
  8
0-B
  6
Continuous
 62
   120
370
     5
100
AcDbLine
 10
-2378.725220693918
 20
2161.020974259951
 30
0.0
 11
-2428.725220693918
 21
2161.020974259951
 31
0.0
  0
LINE
  5
C9
330
1F
100
AcDbEntity
  8
0-B
  6
Continuous
 62
   120
370
     5
100
AcDbLine
 10
-2278.725220693918
 20
2251.020974259951
 30
0.0
 11
-2428.725220693918
 21
2251.020974259951
 31
0.0
  0
LWPOLYLINE
  5
CA
330
1F
100
AcDbEntity
  8
0-B
  6
Continuous
 62
     7
370
     9
100
AcDbPolyline
 90
        4
 70
     1
 43
2.0
 10
-2377.725220693918
 20
2161.020974259951
 42
0.4142135623731
 10
-2378.725220693918
 20
2162.020974259951
 42
0.4142135623731
 10
-2379.725220693918
 20
2161.020974259951
 42
0.4142135623731
 10
-2378.725220693918
 20
2160.020974259951
 42
0.4142135623731
  0
LWPOLYLINE
  5
CB
330
1F
100
AcDbEntity
  8
0-B
  6
Continuous
 62
     7
370
     9
100
AcDbPolyline
 90
        4
 70
     1
 43
2.0
 10
-2377.725220693918
 20
2251.020974259951
 42
0.4142135623731
 10
-2378.725220693918
 20
2252.020974259951
 42
0.4142135623731
 10
-2379.725220693918
 20
2251.020974259951
 42
0.4142135623731
 10
-2378.725220693918
 20
2250.020974259951
 42
0.4142135623731
  0
LINE
  5
CC
330
1F
100
AcDbEntity
  8
0-B
  6
Continuous
 62
   120
370
     5
100
AcDbLine
 10
-2378.725220693918
 20
2251.020974259951
 30
0.0
 11
-2378.725220693918
 21
1951.020974259951
 31
0.0
  0
LINE
  5
CD
330
1F
100
AcDbEntity
  8
0-B
  6
Continuous
 62
   120
370
     5
100
AcDbLine
 10
-2478.725220693918
 20
1851.020974259951
 30
0.0
 11
-2478.725220693918
 21
1901.020974259951
 31
0.0
  0
LINE
  5
CE
330
1F
100
AcDbEntity
  8
0-B
  6
Continuous
 62
   120
370
     5
100
AcDbLine
 10
-2568.725220693918
 20
1851.020974259951
 30
0.0
 11
-2568.725220693918
 21
1901.020974259951
 31
0.0
  0
LWPOLYLINE
  5
CF
330
1F
100
AcDbEntity
  8
0-B
  6
Continuous
 62
     7
370
     9
100
AcDbPolyline
 90
        4
 70
     1
 43
2.0
 10
-2477.725220693918
 20
1851.020974259951
 42
0.4142135623731
 10
-2478.725220693918
 20
1852.020974259951
 42
0.4142135623731
 10
-2479.725220693918
 20
1851.020974259951
 42
0.4142135623731
 10
-2478.725220693918
 20
1850.020974259951
 42
0.4142135623731
  0
LWPOLYLINE
  5
D0
330
1F
100
AcDbEntity
  8
0-B
  6
Continuous
 62
     7
370
     9
100
AcDbPolyline
 90
        4
 70
     1
 43
2.0
 10
-2567.725220693918
 20
1851.020974259951
 42
0.4142135623731
 10
-2568.725220693918
 20
1852.020974259951
 42
0.4142135623731
 10
-2569.725220693918
 20
1851.020974259951
 42
0.4142135623731
 10
-2568.725220693918
 20
1850.020974259951
 42
0.4142135623731
  0
LINE
  5
D1
330
1F
100
AcDbEntity
  8
0-B
  6
Continuous
 62
   120
370
     5
100
AcDbLine
 10
-2568.725220693918
 20
1851.020974259951
 30
0.0
 11
-2478.725220693918
 21
1851.020974259951
 31
0.0
  0
LINE
  5
D2
330
1F
100
AcDbEntity
  8
0-0
  6
JWW_HOJO
 62
     7
370
     9
100
AcDbLine
 10
-2278.725220693918
 20
1851.020974259951
 30
0.0
 11
-2278.725220693918
 21
2251.020974259951
 31
0.0
  0
LINE
  5
D3
330
1F
100
AcDbEntity
  8
0-0
  6
JWW_HOJO
 62
     7
370
     9
100
AcDbLine
 10
-2278.725220693918
 20
1851.020974259951
 30
0.0
 11
-2568.725220693918
 21
1851.020974259951
 31
0.0
  0
LINE
  5
D4
330
1F
100
AcDbEntity
  8
0-0
  6
JWW_HOJO
 62
     7
370
     9
100
AcDbLine
 10
-2378.725220693918
 20
1851.020974259951
 30
0.0
 11
-2378.725220693918
 21
2251.020974259951
 31
0.0
  0
LINE
  5
D5
330
1F
100
AcDbEntity
  8
0-0
  6
JWW_HOJO
 62
     7
370
     9
100
AcDbLine
 10
-2478.725220693918
 20
2251.020974259951
 30
0.0
 11
-2278.725220693918
 21
2251.020974259951
 31
0.0
  0
LINE
  5
D6
330
1F
100
AcDbEntity
  8
0-0
  6
JWW_HOJO
 62
     7
370
     9
100
AcDbLine
 10
-2428.725220693918
 20
1901.020974259951
 30
0.0
 11
-2428.725220693918
 21
2251.020974259951
 31
0.0
  0
LINE
  5
D7
330
1F
100
AcDbEntity
  8
0-0
  6
JWW_HOJO
 62
     7
370
     9
100
AcDbLine
 10
-2428.725220693918
 20
1901.020974259951
 30
0.0
 11
-2568.725220693918
 21
1901.020974259951
 31
0.0
  0
LINE
  5
D8
330
1F
100
AcDbEntity
  8
0-0
  6
JWW_HOJO
 62
     7
370
     9
100
AcDbLine
 10
-2568.725220693918
 20
1951.020974259951
 30
0.0
 11
-2568.725220693918
 21
1851.020974259951
 31
0.0
  0
LINE
  5
D9
330
1F
100
AcDbEntity
  8
0-B
  6
Continuous
 62
   120
370
     5
100
AcDbLine
 10
-2531.745420878714
 20
2111.270569988746
 30
0.0
 11
-2608.725220693918
 21
2131.020974259951
 31
0.0
  0
LINE
  5
DA
330
1F
100
AcDbEntity
  8
0-B
  6
Continuous
 62
   120
370
     5
100
AcDbLine
 10
-2531.724244106595
 20
2150.821225382406
 30
0.0
 11
-2608.725220693918
 21
2131.020974259951
 31
0.0
  0
LINE
  5
DB
330
1F
100
AcDbEntity
  8
0-4
  6
Continuous
 62
    92
370
    13
100
AcDbLine
 10
-2508.725220693918
 20
2166.020974259951
 30
0.0
 11
-2483.725220693918
 21
2166.020974259951
 31
0.0
  0
LINE
  5
DC
330
1F
100
AcDbEntity
  8
0-4
  6
Continuous
 62
    92
370
    13
100
AcDbLine
 10
-2483.725220693918
 20
2251.020974259951
 30
0.0
 11
-2483.725220693918
 21
2166.020974259951
 31
0.0
  0
LINE
  5
DD
330
1F
100
AcDbEntity
  8
0-4
  6
Continuous
 62
    92
370
    13
100
AcDbLine
 10
-2508.725220693918
 20
2161.020974259951
 30
0.0
 11
-2478.725220693918
 21
2161.020974259951
 31
0.0
  0
LINE
  5
DE
330
1F
100
AcDbEntity
  8
0-4
  6
Continuous
 62
    92
370
    13
100
AcDbLine
 10
-2478.725220693918
 20
2251.020974259951
 30
0.0
 11
-2478.725220693918
 21
2161.020974259951
 31
0.0
  0
LINE
  5
DF
330
1F
100
AcDbEntity
  8
0-4
  6
Continuous
 62
    92
370
    13
100
AcDbLine
 10
-2483.725220693918
 20
1981.020974259951
 30
0.0
 11
-2483.725220693918
 21
2096.020974259951
 31
0.0
  0
LINE
  5
E0
330
1F
100
AcDbEntity
  8
0-4
  6
Continuous
 62
    92
370
    13
100
AcDbLine
 10
-2508.725220693918
 20
2096.020974259951
 30
0.0
 11
-2483.725220693918
 21
2096.020974259951
 31
0.0
  0
LINE
  5
E1
330
1F
100
AcDbEntity
  8
0-4
  6
Continuous
 62
    92
370
    13
100
AcDbLine
 10
-2478.725220693918
 20
1981.020974259951
 30
0.0
 11
-2478.725220693918
 21
2101.020974259951
 31
0.0
  0
LINE
  5
E2
330
1F
100
AcDbEntity
  8
0-4
  6
Continuous
 62
    92
370
    13
100
AcDbLine
 10
-2508.725220693918
 20
2101.020974259951
 30
0.0
 11
-2478.725220693918
 21
2101.020974259951
 31
0.0
  0
LINE
  5
E3
330
1F
100
AcDbEntity
  8
0-4
  6
Continuous
 62
    92
370
    13
100
AcDbLine
 10
-2508.725220693918
 20
1956.020974259951
 30
0.0
 11
-2568.725220693918
 21
1956.020974259951
 31
0.0
  0
ARC
  5
E4
330
1F
100
AcDbEntity
  8
0-4
  6
Continuous
 62
    92
370
    13
100
AcDbCircle
 10
-2508.725220693918
 20
1981.020974259951
 30
0.0
 40
25.0
100
AcDbArc
 50
270.0
 51
0.0
  0
ARC
  5
E5
330
1F
100
AcDbEntity
  8
0-4
  6
Continuous
 62
    92
370
    13
100
AcDbCircle
 10
-2508.725220693918
 20
2121.020974259951
 30
0.0
 40
25.0
100
AcDbArc
 50
180.0
 51
270.0
  0
LINE
  5
E6
330
1F
100
AcDbEntity
  8
0-4
  6
Continuous
 62
    92
370
    13
100
AcDbLine
 10
-2533.725220693918
 20
2121.020974259951
 30
0.0
 11
-2533.725220693918
 21
2141.020974259951
 31
0.0
  0
ARC
  5
E7
330
1F
100
AcDbEntity
  8
0-4
  6
Continuous
 62
    92
370
    13
100
AcDbCircle
 10
-2508.725220693918
 20
2141.020974259951
 30
0.0
 40
25.0
100
AcDbArc
 50
90.0
 51
180.0
  0
ARC
  5
E8
330
1F
100
AcDbEntity
  8
0-4
  6
Continuous
 62
    92
370
    13
100
AcDbCircle
 10
-2508.725220693918
 20
1981.020974259951
 30
0.0
 40
30.0
100
AcDbArc
 50
270.0
 51
0.0
  0
LINE
  5
E9
330
1F
100
AcDbEntity
  8
0-4
  6
Continuous
 62
    92
370
    13
100
AcDbLine
 10
-2508.725220693918
 20
1951.020974259951
 30
0.0
 11
-2568.725220693918
 21
1951.020974259951
 31
0.0
  0
ARC
  5
EA
330
1F
100
AcDbEntity
  8
0-4
  6
Continuous
 62
    92
370
    13
100
AcDbCircle
 10
-2508.725220693918
 20
2121.020974259951
 30
0.0
 40
20.0
100
AcDbArc
 50
180.0
 51
270.0
  0
LINE
  5
EB
330
1F
100
AcDbEntity
  8
0-4
  6
Continuous
 62
    92
370
    13
100
AcDbLine
 10
-2528.725220693918
 20
2121.020974259951
 30
0.0
 11
-2528.725220693918
 21
2141.020974259951
 31
0.0
  0
ARC
  5
EC
330
1F
100
AcDbEntity
  8
0-4
  6
Continuous
 62
    92
370
    13
100
AcDbCircle
 10
-2508.725220693918
 20
2141.020974259951
 30
0.0
 40
20.0
100
AcDbArc
 50
90.0
 51
180.0
  0
LINE
  5
ED
330
1F
100
AcDbEntity
  8
0-4
  6
Continuous
 62
    92
370
    13
100
AcDbLine
 10
-2568.725220693918
 20
2251.020974259951
 30
0.0
 11
-2478.725220693918
 21
2251.020974259951
 31
0.0
  0
LINE
  5
EE
330
1F
100
AcDbEntity
  8
0-4
  6
Continuous
 62
    92
370
    13
100
AcDbLine
 10
-2568.725220693918
 20
1951.020974259951
 30
0.0
 11
-2568.725220693918
 21
2251.020974259951
 31
0.0
  0
ARC
  5
EF
330
1F
100
AcDbEntity
  8
1-4
  6
Continuous
 62
    92
370
    13
100
AcDbCircle
 10
1300.375867302984
 20
1162.346943737157
 30
0.0
 40
30.0
100
AcDbArc
 50
303.572052254578
 51
4.108915586024575
  0
LINE
  5
F0
330
1F
100
AcDbEntity
  8
1-4
  6
Continuous
 62
    92
370
    13
100
AcDbLine
 10
1550.298756664994
 20
1144.017878152669
 30
0.0
 11
1316.96542333166
 21
1137.351211486002
 31
0.0
  0
LINE
  5
F1
330
1F
100
AcDbEntity
  8
1-4
  6
Continuous
 62
    92
370
    13
100
AcDbLine
 10
1550.298756664994
 20
1144.017878152669
 30
0.0
 11
1550.298756664994
 21
1344.017878152669
 31
0.0
  0
LINE
  5
F2
330
1F
100
AcDbEntity
  8
1-4
  6
Continuous
 62
    92
370
    13
100
AcDbLine
 10
1550.298756664994
 20
1344.017878152669
 30
0.0
 11
1523.632089998328
 21
1351.163189950832
 31
0.0
  0
LINE
  5
F3
330
1F
100
AcDbEntity
  8
1-4
  6
Continuous
 62
    92
370
    13
100
AcDbLine
 10
1523.632089998328
 20
1351.163189950832
 30
0.0
 11
1523.632089998328
 21
1291.163189950832
 31
0.0
  0
LINE
  5
F4
330
1F
100
AcDbEntity
  8
1-4
  6
Continuous
 62
    92
370
    13
100
AcDbLine
 10
1523.632089998328
 20
1251.163189950832
 30
0.0
 11
1330.298756664994
 21
1244.496523284166
 31
0.0
  0
LINE
  5
F5
330
1F
100
AcDbEntity
  8
1-4
  6
Continuous
 62
    92
370
    13
100
AcDbLine
 10
1523.632089998328
 20
1351.163189950832
 30
0.0
 11
1330.298756664994
 21
1344.496523284166
 31
0.0
  0
LINE
  5
F6
330
1F
100
AcDbEntity
  8
1-4
  6
Continuous
 62
    92
370
    13
100
AcDbLine
 10
1523.632089998328
 20
1166.509729710411
 30
0.0
 11
1523.632089998328
 21
1251.163189950832
 31
0.0
  0
LINE
  5
F7
330
1F
100
AcDbEntity
  8
1-4
  6
Continuous
 62
    92
370
    13
100
AcDbLine
 10
1538.455709096277
 20
1147.19121318463
 30
0.0
 11
1550.298756664994
 21
1144.017878152669
 31
0.0
  0
ARC
  5
F8
330
1F
100
AcDbEntity
  8
1-4
  6
Continuous
 62
    92
370
    13
100
AcDbCircle
 10
1543.632089998328
 20
1166.509729710411
 30
0.0
 40
20.0
100
AcDbArc
 50
180.0
 51
255.0000000000001
  0
LINE
  5
F9
330
1F
100
AcDbEntity
  8
1-4
  6
Continuous
 62
    92
370
    13
100
AcDbLine
 10
1164.368949480206
 20
1197.742322009924
 30
0.0
 11
1316.96542333166
 21
1137.351211486002
 31
0.0
  0
LINE
  5
FA
330
1F
100
AcDbEntity
  8
1-4
  6
Continuous
 62
    92
370
    13
100
AcDbLine
 10
1164.368949480206
 20
1197.742322009924
 30
0.0
 11
1164.368949480206
 21
1397.742322009924
 31
0.0
  0
LINE
  5
FB
330
1F
100
AcDbEntity
  8
1-4
  6
Continuous
 62
    92
370
    13
100
AcDbLine
 10
1164.368949480206
 20
1397.742322009924
 30
0.0
 11
1204.368949480206
 21
1397.742322009924
 31
0.0
  0
LINE
  5
FC
330
1F
100
AcDbEntity
  8
1-4
  6
Continuous
 62
    92
370
    13
100
AcDbLine
 10
1204.368949480206
 20
1337.742322009924
 30
0.0
 11
1204.368949480206
 21
1397.742322009924
 31
0.0
  0
LINE
  5
FD
330
1F
100
AcDbEntity
  8
1-4
  6
Continuous
 62
    92
370
    13
100
AcDbLine
 10
1204.368949480206
 20
1197.742322009924
 30
0.0
 11
1204.368949480206
 21
1200.036594649268
 31
0.0
  0
LINE
  5
FE
330
1F
100
AcDbEntity
  8
1-4
  6
Continuous
 62
    92
370
    13
100
AcDbLine
 10
1204.368949480206
 20
1297.742322009924
 30
0.0
 11
1330.298756664994
 21
1244.496523284166
 31
0.0
  0
LINE
  5
FF
330
1F
100
AcDbEntity
  8
1-4
  6
Continuous
 62
    92
370
    13
100
AcDbLine
 10
1204.368949480206
 20
1397.742322009924
 30
0.0
 11
1330.298756664994
 21
1344.496523284166
 31
0.0
  0
LINE
  5
100
330
1F
100
AcDbEntity
  8
1-4
  6
Continuous
 62
    92
370
    13
100
AcDbLine
 10
1204.368949480206
 20
1217.742322009924
 30
0.0
 11
1204.368949480206
 21
1297.742322009924
 31
0.0
  0
LINE
  5
101
330
1F
100
AcDbEntity
  8
1-4
  6
Continuous
 62
    92
370
    13
100
AcDbLine
 10
1184.368949480206
 20
1197.742322009924
 30
0.0
 11
1164.368949480206
 21
1197.742322009924
 31
0.0
  0
ARC
  5
102
330
1F
100
AcDbEntity
  8
1-4
  6
Continuous
 62
    92
370
    13
100
AcDbCircle
 10
1184.368949480206
 20
1217.742322009924
 30
0.0
 40
20.0
100
AcDbArc
 50
270.0
 51
0.0
  0
LINE
  5
103
330
1F
100
AcDbEntity
  8
1-0
  6
JWW_HOJO
 62
     7
370
     9
100
AcDbLine
 10
1550.298756664994
 20
1344.017878152669
 30
0.0
 11
1616.96542333166
 21
1344.017878152669
 31
0.0
  0
LINE
  5
104
330
1F
100
AcDbEntity
  8
1-0
  6
JWW_HOJO
 62
     7
370
     9
100
AcDbLine
 10
1204.368949480206
 20
1397.742322009924
 30
0.0
 11
1204.368949480206
 21
1464.40898867659
 31
0.0
  0
LINE
  5
105
330
1F
100
AcDbEntity
  8
1-0
  6
JWW_HOJO
 62
     7
370
     9
100
AcDbLine
 10
1152.102715366873
 20
1431.075655343258
 30
0.0
 11
1204.368949480206
 21
1431.075655343258
 31
0.0
  0
LINE
  5
106
330
1F
100
AcDbEntity
  8
1-0
  6
JWW_HOJO
 62
     7
370
     9
100
AcDbLine
 10
1152.102715366873
 20
1166.747957815961
 30
0.0
 11
1152.102715366873
 21
1431.075655343258
 31
0.0
  0
LINE
  5
107
330
1F
100
AcDbEntity
  8
1-0
  6
JWW_HOJO
 62
     7
370
     9
100
AcDbLine
 10
1139.836481246873
 20
1135.753593624637
 30
0.0
 11
1139.836481246873
 21
1464.40898867659
 31
0.0
  0
LINE
  5
108
330
1F
100
AcDbEntity
  8
1-0
  6
JWW_HOJO
 62
     7
370
     9
100
AcDbLine
 10
1139.836481246873
 20
1464.40898867659
 30
0.0
 11
1204.368949480206
 21
1464.40898867659
 31
0.0
  0
LINE
  5
109
330
1F
100
AcDbEntity
  8
1-B
  6
Continuous
 62
   120
370
     5
100
AcDbLine
 10
1164.368949480206
 20
1464.40898867659
 30
0.0
 11
1204.368949480206
 21
1464.40898867659
 31
0.0
  0
LWPOLYLINE
  5
10A
330
1F
100
AcDbEntity
  8
1-B
  6
Continuous
 62
     7
370
     9
100
AcDbPolyline
 90
        4
 70
     1
 43
2.0
 10
1165.368949480206
 20
1464.40898867659
 42
0.4142135623731
 10
1164.368949480206
 20
1465.40898867659
 42
0.4142135623731
 10
1163.368949480206
 20
1464.40898867659
 42
0.4142135623731
 10
1164.368949480206
 20
1463.40898867659
 42
0.4142135623731
  0
LWPOLYLINE
  5
10B
330
1F
100
AcDbEntity
  8
1-B
  6
Continuous
 62
     7
370
     9
100
AcDbPolyline
 90
        4
 70
     1
 43
2.0
 10
1205.368949480206
 20
1464.40898867659
 42
0.4142135623731
 10
1204.368949480206
 20
1465.40898867659
 42
0.4142135623731
 10
1203.368949480206
 20
1464.40898867659
 42
0.4142135623731
 10
1204.368949480206
 20
1463.40898867659
 42
0.4142135623731
  0
LINE
  5
10C
330
1F
100
AcDbEntity
  8
1-B
  6
Continuous
 62
   120
370
     5
100
AcDbLine
 10
1164.368949480206
 20
1464.40898867659
 30
0.0
 11
1164.368949480206
 21
1431.075655343258
 31
0.0
  0
LINE
  5
10D
330
1F
100
AcDbEntity
  8
1-B
  6
Continuous
 62
   120
370
     5
100
AcDbLine
 10
1204.368949480206
 20
1464.40898867659
 30
0.0
 11
1204.368949480206
 21
1431.075655343258
 31
0.0
  0
LINE
  5
10E
330
1F
100
AcDbEntity
  8
1-4
  6
Continuous
 62
    92
370
    13
100
AcDbLine
 10
1415.841570830287
 20
2160.980088009335
 30
0.0
 11
1544.631681002162
 21
2126.470881995666
 31
0.0
  0
LINE
  5
10F
330
1F
100
AcDbEntity
  8
1-4
  6
Continuous
 62
    92
370
    13
100
AcDbLine
 10
1415.841570830287
 20
1974.31342134267
 30
0.0
 11
1415.841570830287
 21
2060.980088009336
 31
0.0
  0
LINE
  5
110
330
1F
100
AcDbEntity
  8
1-4
  6
Continuous
 62
    92
370
    13
100
AcDbLine
 10
1415.841570830287
 20
2100.980088009335
 30
0.0
 11
1415.841570830287
 21
2160.980088009335
 31
0.0
  0
LINE
  5
111
330
1F
100
AcDbEntity
  8
1-4
  6
Continuous
 62
    92
370
    13
100
AcDbLine
 10
1415.841570830287
 20
2100.980088009335
 30
0.0
 11
1544.631681002162
 21
2066.470881995666
 31
0.0
  0
LINE
  5
112
330
1F
100
AcDbEntity
  8
1-4
  6
Continuous
 62
    92
370
    13
100
AcDbLine
 10
1527.328269794737
 20
2061.834446936333
 30
0.0
 11
1544.631681002162
 21
2066.470881995666
 31
0.0
  0
LINE
  5
113
330
1F
100
AcDbEntity
  8
1-4
  6
Continuous
 62
    92
370
    13
100
AcDbLine
 10
1415.841570830287
 20
2060.980088009336
 30
0.0
 11
1544.631681002162
 21
2026.470881995666
 31
0.0
  0
LINE
  5
114
330
1F
100
AcDbEntity
  8
1-4
  6
Continuous
 62
    92
370
    13
100
AcDbLine
 10
1544.631681002162
 20
1943.847220300216
 30
0.0
 11
1544.631681002162
 21
2026.470881995666
 31
0.0
  0
LINE
  5
115
330
1F
100
AcDbEntity
  8
1-4
  6
Continuous
 62
    92
370
    13
100
AcDbLine
 10
1544.631681002162
 20
2066.470881995666
 30
0.0
 11
1544.631681002162
 21
2126.470881995666
 31
0.0
  0
LINE
  5
116
330
1F
100
AcDbEntity
  8
1-4
  6
Continuous
 62
    92
370
    13
100
AcDbLine
 10
1521.180760400861
 20
1929.181881333505
 30
0.0
 11
1409.867672363411
 21
1959.008133380154
 31
0.0
  0
ARC
  5
117
330
1F
100
AcDbEntity
  8
1-4
  6
Continuous
 62
    92
370
    13
100
AcDbCircle
 10
1524.950656914982
 20
1949.236063433785
 30
0.0
 40
20.40544876836496
100
AcDbArc
 50
259.353471780879
 51
344.6872051999122
  0
ARC
  5
118
330
1F
100
AcDbEntity
  8
1-4
  6
Continuous
 62
    92
370
    13
100
AcDbCircle
 10
1398.481988676332
 20
1972.270645661775
 30
0.0
 40
17.4793599723311
100
AcDbArc
 50
310.6456347122895
 51
6.71137305255022
  0
LINE
  5
119
330
1F
100
AcDbEntity
  8
1-4
  6
Continuous
 62
    92
370
    13
100
AcDbLine
 10
1415.841570830287
 20
2100.980088009335
 30
0.0
 11
1408.737257268594
 21
2093.610812972302
 31
0.0
  0
LINE
  5
11A
330
1F
100
AcDbEntity
  8
1-4
  6
Continuous
 62
    92
370
    13
100
AcDbLine
 10
1408.737257268593
 20
2093.610812972302
 30
0.0
 11
1527.328269794738
 21
2061.834446936333
 31
0.0
  0
LINE
  5
11B
330
1F
100
AcDbEntity
  8
1-4
  6
Continuous
 62
    92
370
    13
100
AcDbLine
 10
1415.841570830287
 20
2100.980088009335
 30
0.0
 11
1223.775392770755
 21
2087.667766280401
 31
0.0
  0
LINE
  5
11C
330
1F
100
AcDbEntity
  8
1-4
  6
Continuous
 62
    92
370
    13
100
AcDbLine
 10
1223.775392770755
 20
2087.667766280401
 30
0.0
 11
1223.775392770755
 21
2147.667766280401
 31
0.0
  0
LINE
  5
11D
330
1F
100
AcDbEntity
  8
1-4
  6
Continuous
 62
    92
370
    13
100
AcDbLine
 10
1223.775392770755
 20
1961.001099613734
 30
0.0
 11
1223.775392770755
 21
2047.667766280402
 31
0.0
  0
LINE
  5
11E
330
1F
100
AcDbEntity
  8
1-4
  6
Continuous
 62
    92
370
    13
100
AcDbLine
 10
1241.07880397818
 20
2083.031331221068
 30
0.0
 11
1223.775392770755
 21
2087.667766280401
 31
0.0
  0
LINE
  5
11F
330
1F
100
AcDbEntity
  8
1-4
  6
Continuous
 62
    92
370
    13
100
AcDbLine
 10
1223.775392770755
 20
2147.667766280401
 30
0.0
 11
1415.841570830287
 21
2160.980088009335
 31
0.0
  0
LINE
  5
120
330
1F
100
AcDbEntity
  8
1-4
  6
Continuous
 62
    92
370
    13
100
AcDbLine
 10
1237.108726104087
 20
1945.695811651068
 30
0.0
 11
1409.867672363976
 21
1959.008133380003
 31
0.0
  0
ARC
  5
121
330
1F
100
AcDbEntity
  8
1-4
  6
Continuous
 62
    92
370
    13
100
AcDbCircle
 10
1240.675129199329
 20
1962.2630824262
 30
0.0
 40
16.94679001977335
100
AcDbArc
 50
184.2706190345684
 51
257.8514443013333
  0
LINE
  5
122
330
1F
100
AcDbEntity
  8
1-4
  6
Continuous
 62
    92
370
    13
100
AcDbLine
 10
1241.07880397818
 20
2083.031331221068
 30
0.0
 11
1408.737257268594
 21
2093.610812972302
 31
0.0
  0
LINE
  5
123
330
1F
100
AcDbEntity
  8
1-4
  6
Continuous
 62
    92
370
    13
100
AcDbLine
 10
1415.841570830287
 20
2060.980088009336
 30
0.0
 11
1223.775392770755
 21
2047.667766280402
 31
0.0
  0
LINE
  5
124
330
1F
100
AcDbEntity
  8
1-0
  6
JWW_HOJO
 62
     7
370
     9
100
AcDbLine
 10
1240.675129199329
 20
1945.316292406426
 30
0.0
 11
1223.775392770755
 21
1961.001099613734
 31
0.0
  0
LINE
  5
125
330
1F
100
AcDbEntity
  8
1-0
  6
JWW_HOJO
 62
     7
370
     9
100
AcDbLine
 10
1237.772997506024
 20
1942.189364542434
 30
0.0
 11
1220.873261077448
 21
1957.874171749742
 31
0.0
  0
LINE
  5
126
330
1F
100
AcDbEntity
  8
1-0
  6
JWW_HOJO
 62
     7
370
     9
100
AcDbLine
 10
1228.702740206498
 20
1932.416534333216
 30
0.0
 11
1211.803003777924
 21
1948.101341540524
 31
0.0
  0
LINE
  5
127
330
1F
100
AcDbEntity
  8
1-0
  6
JWW_HOJO
 62
     7
370
     9
100
AcDbLine
 10
1206.027096957687
 20
1907.984458810172
 30
0.0
 11
1189.127360529111
 21
1923.66926601748
 31
0.0
  0
LINE
  5
128
330
1F
100
AcDbEntity
  8
1-0
  6
JWW_HOJO
 62
     7
370
     9
100
AcDbLine
 10
1419.09099386379
 20
2194.618613745311
 30
0.0
 11
1577.965014335496
 21
2152.048448261633
 31
0.0
  0
LINE
  5
129
330
1F
100
AcDbEntity
  8
1-0
  6
JWW_HOJO
 62
     7
370
     9
100
AcDbLine
 10
1221.470551767351
 20
2180.921319760596
 30
0.0
 11
1419.09099386379
 21
2194.618613745311
 31
0.0
  0
LINE
  5
12A
330
1F
100
AcDbEntity
  8
1-0
  6
JWW_HOJO
 62
     7
370
     9
100
AcDbLine
 10
1577.965014335496
 20
1913.966586348916
 30
0.0
 11
1577.965014335496
 21
2152.048448261633
 31
0.0
  0
LINE
  5
12B
330
1F
100
AcDbEntity
  8
1-0
  6
JWW_HOJO
 62
     7
370
     9
100
AcDbLine
 10
1212.688036374822
 20
2213.725898380173
 30
0.0
 11
1422.340416897295
 21
2228.257139481286
 31
0.0
  0
LINE
  5
12C
330
1F
100
AcDbEntity
  8
1-0
  6
JWW_HOJO
 62
     7
370
     9
100
AcDbLine
 10
1415.841570830287
 20
2160.980088009335
 30
0.0
 11
1415.841570830287
 21
2227.806697187984
 31
0.0
  0
LINE
  5
12D
330
1F
100
AcDbEntity
  8
1-B
  6
Continuous
 62
   120
370
     5
100
AcDbLine
 10
1189.127360530881
 20
1923.669266015839
 30
0.0
 11
1205.376124091973
 21
1908.58863296184
 31
0.0
  0
LWPOLYLINE
  5
12E
330
1F
100
AcDbEntity
  8
1-B
  6
Continuous
 62
     7
370
     9
100
AcDbPolyline
 90
        4
 70
     1
 43
2.0
 10
1190.127360530881
 20
1923.669266015839
 42
0.4142135623731
 10
1189.127360530881
 20
1924.669266015839
 42
0.4142135623731
 10
1188.127360530881
 20
1923.669266015839
 42
0.4142135623731
 10
1189.127360530881
 20
1922.669266015839
 42
0.4142135623731
  0
LWPOLYLINE
  5
12F
330
1F
100
AcDbEntity
  8
1-B
  6
Continuous
 62
     7
370
     9
100
AcDbPolyline
 90
        4
 70
     1
 43
2.0
 10
1206.376124091973
 20
1908.58863296184
 42
0.4142135623731
 10
1205.376124091973
 20
1909.58863296184
 42
0.4142135623731
 10
1204.376124091973
 20
1908.58863296184
 42
0.4142135623731
 10
1205.376124091973
 20
1907.58863296184
 42
0.4142135623731
  0
LINE
  5
130
330
1F
100
AcDbEntity
  8
1-B
  6
Continuous
 62
   120
370
     5
100
AcDbLine
 10
1189.127360530881
 20
1923.669266015839
 30
0.0
 11
1211.803003778535
 21
1948.101341539957
 31
0.0
  0
LINE
  5
131
330
1F
100
AcDbEntity
  8
1-B
  6
Continuous
 62
   120
370
     5
100
AcDbLine
 10
1205.376124091973
 20
1908.58863296184
 30
0.0
 11
1228.051767339626
 21
1933.020708485958
 31
0.0
  0
LINE
  5
132
330
1F
100
AcDbEntity
  8
1-B
  6
Continuous
 62
   120
370
     5
100
AcDbLine
 10
1415.841570830287
 20
2227.806697187984
 30
0.0
 11
1553.25898250558
 21
2190.985812703286
 31
0.0
  0
LWPOLYLINE
  5
133
330
1F
100
AcDbEntity
  8
1-B
  6
Continuous
 62
     7
370
     9
100
AcDbPolyline
 90
        4
 70
     1
 43
2.0
 10
1416.841570830287
 20
2227.806697187984
 42
0.4142135623731
 10
1415.841570830287
 20
2228.806697187984
 42
0.4142135623731
 10
1414.841570830287
 20
2227.806697187984
 42
0.4142135623731
 10
1415.841570830287
 20
2226.806697187984
 42
0.4142135623731
  0
LWPOLYLINE
  5
134
330
1F
100
AcDbEntity
  8
1-B
  6
Continuous
 62
     7
370
     9
100
AcDbPolyline
 90
        4
 70
     1
 43
2.0
 10
1222.470551767351
 20
2214.33462434992
 42
0.4142135623731
 10
1221.470551767351
 20
2215.33462434992
 42
0.4142135623731
 10
1220.470551767351
 20
2214.33462434992
 42
0.4142135623731
 10
1221.470551767351
 20
2213.33462434992
 42
0.4142135623731
  0
LINE
  5
135
330
1F
100
AcDbEntity
  8
1-B
  6
Continuous
 62
   120
370
     5
100
AcDbLine
 10
1221.470551767452
 20
2214.334624348455
 30
0.0
 11
1415.841570830287
 21
2227.806697187984
 31
0.0
  0
LWPOLYLINE
  5
136
330
1F
100
AcDbEntity
  8
1-B
  6
Continuous
 62
     7
370
     9
100
AcDbPolyline
 90
        4
 70
     1
 43
2.0
 10
1554.25898250558
 20
2190.985812703286
 42
0.4142135623731
 10
1553.25898250558
 20
2191.985812703286
 42
0.4142135623731
 10
1552.25898250558
 20
2190.985812703286
 42
0.4142135623731
 10
1553.25898250558
 20
2189.985812703286
 42
0.4142135623731
  0
LINE
  5
137
330
1F
100
AcDbEntity
  8
1-B
  6
Continuous
 62
   120
370
     5
100
AcDbLine
 10
1553.25898250558
 20
2158.668409538636
 30
0.0
 11
1553.25898250558
 21
2190.985812703286
 31
0.0
  0
LINE
  5
138
330
1F
100
AcDbEntity
  8
1-B
  6
Continuous
 62
   120
370
     5
100
AcDbLine
 10
1415.841570830287
 20
2194.393392598661
 30
0.0
 11
1415.841570830287
 21
2227.806697187984
 31
0.0
  0
LINE
  5
139
330
1F
100
AcDbEntity
  8
1-B
  6
Continuous
 62
   120
370
     5
100
AcDbLine
 10
1221.470551767351
 20
2180.921319760596
 30
0.0
 11
1221.470551767351
 21
2214.33462434992
 31
0.0
  0
ARC
  5
13A
330
1F
100
AcDbEntity
  8
1-4
  6
Continuous
 62
    92
370
    13
100
AcDbCircle
 10
1219.400195887458
 20
2065.949208147638
 30
0.0
 40
27.60001770736612
100
AcDbArc
 50
321.762901161004
 51
38.23709883899627
  0
ARC
  5
13B
330
1F
100
AcDbEntity
  8
1-4
  6
Continuous
 62
    92
370
    13
100
AcDbCircle
 10
1451.745470760213
 20
2077.092789974113
 30
0.0
 40
46.07115704548221
100
AcDbArc
 50
158.9898796916122
 51
201.0101203083878
  0
ARC
  5
13C
330
1F
100
AcDbEntity
  8
1-4
  6
Continuous
 62
    92
370
    13
100
AcDbCircle
 10
1553.837758975051
 20
2046.470881995668
 30
0.0
 40
30.63971514696695
100
AcDbArc
 50
149.9055789612027
 51
210.0944210388012
  0
LINE
  5
13D
330
1F
100
AcDbEntity
  8
1-0
  6
JWW_HOJO
 62
     7
370
     9
100
AcDbLine
 10
1521.180760400861
 20
1929.181881333505
 30
0.0
 11
1636.204777196999
 21
1905.034946601211
 31
0.0
  0
LINE
  5
13E
330
1F
100
AcDbEntity
  8
1-0
  6
JWW_HOJO
 62
     7
370
     9
100
AcDbLine
 10
1636.204777196999
 20
1905.034946601211
 30
0.0
 11
1636.204777196999
 21
2177.626014527598
 31
0.0
  0
LINE
  5
13F
330
1F
100
AcDbEntity
  8
1-B
  6
Continuous
 62
   120
370
     5
100
AcDbLine
 10
1636.204777196999
 20
2126.470881995666
 30
0.0
 11
1636.204777196999
 21
1929.181881333505
 31
0.0
  0
LWPOLYLINE
  5
140
330
1F
100
AcDbEntity
  8
1-B
  6
Continuous
 62
     7
370
     9
100
AcDbPolyline
 90
        4
 70
     1
 43
2.0
 10
1637.204777196999
 20
2126.470881995666
 42
0.4142135623731
 10
1636.204777196999
 20
2127.470881995666
 42
0.4142135623731
 10
1635.204777196999
 20
2126.470881995666
 42
0.4142135623731
 10
1636.204777196999
 20
2125.470881995666
 42
0.4142135623731
  0
LWPOLYLINE
  5
141
330
1F
100
AcDbEntity
  8
1-B
  6
Continuous
 62
     7
370
     9
100
AcDbPolyline
 90
        4
 70
     1
 43
2.0
 10
1637.204777196999
 20
2066.470881995666
 42
0.4142135623731
 10
1636.204777196999
 20
2067.470881995666
 42
0.4142135623731
 10
1635.204777196999
 20
2066.470881995666
 42
0.4142135623731
 10
1636.204777196999
 20
2065.470881995666
 42
0.4142135623731
  0
LINE
  5
142
330
1F
100
AcDbEntity
  8
1-B
  6
Continuous
 62
   120
370
     5
100
AcDbLine
 10
1715.144085026428
 20
2126.470881995666
 30
0.0
 11
1577.965014335496
 21
2126.470881995666
 31
0.0
  0
LINE
  5
143
330
1F
100
AcDbEntity
  8
1-B
  6
Continuous
 62
   120
370
     5
100
AcDbLine
 10
1636.204777196999
 20
2066.470881995666
 30
0.0
 11
1577.965014335496
 21
2066.470881995666
 31
0.0
  0
LWPOLYLINE
  5
144
330
1F
100
AcDbEntity
  8
1-B
  6
Continuous
 62
     7
370
     9
100
AcDbPolyline
 90
        4
 70
     1
 43
2.0
 10
1637.204777196999
 20
2026.470881995666
 42
0.4142135623731
 10
1636.204777196999
 20
2027.470881995666
 42
0.4142135623731
 10
1635.204777196999
 20
2026.470881995666
 42
0.4142135623731
 10
1636.204777196999
 20
2025.470881995666
 42
0.4142135623731
  0
LINE
  5
145
330
1F
100
AcDbEntity
  8
1-B
  6
Continuous
 62
   120
370
     5
100
AcDbLine
 10
1636.204777196999
 20
2026.470881995666
 30
0.0
 11
1577.965014335496
 21
2026.470881995666
 31
0.0
  0
LWPOLYLINE
  5
146
330
1F
100
AcDbEntity
  8
1-B
  6
Continuous
 62
     7
370
     9
100
AcDbPolyline
 90
        4
 70
     1
 43
2.0
 10
1637.204777196999
 20
1929.181881333505
 42
0.4142135623731
 10
1636.204777196999
 20
1930.181881333505
 42
0.4142135623731
 10
1635.204777196999
 20
1929.181881333505
 42
0.4142135623731
 10
1636.204777196999
 20
1928.181881333505
 42
0.4142135623731
  0
LINE
  5
147
330
1F
100
AcDbEntity
  8
1-B
  6
Continuous
 62
   120
370
     5
100
AcDbLine
 10
1715.144085026428
 20
1929.181881333505
 30
0.0
 11
1577.965014335496
 21
1929.181881333505
 31
0.0
  0
LINE
  5
148
330
1F
100
AcDbEntity
  8
1-0
  6
JWW_HOJO
 62
     7
370
     9
100
AcDbLine
 10
1583.632089998328
 20
1131.513582505918
 30
0.0
 11
1583.632089998328
 21
1369.595444418635
 31
0.0
  0
LINE
  5
149
330
1F
100
AcDbEntity
  8
1-0
  6
JWW_HOJO
 62
     7
370
     9
100
AcDbLine
 10
1641.871852859831
 20
1122.581942758214
 30
0.0
 11
1641.871852859831
 21
1395.1730106846
 31
0.0
  0
LINE
  5
14A
330
1F
100
AcDbEntity
  8
1-B
  6
Continuous
 62
   120
370
     5
100
AcDbLine
 10
1641.871852859831
 20
1344.017878152669
 30
0.0
 11
1641.871852859831
 21
1146.728877490507
 31
0.0
  0
LWPOLYLINE
  5
14B
330
1F
100
AcDbEntity
  8
1-B
  6
Continuous
 62
     7
370
     9
100
AcDbPolyline
 90
        4
 70
     1
 43
2.0
 10
1642.871852859831
 20
1344.017878152669
 42
0.4142135623731
 10
1641.871852859831
 20
1345.017878152669
 42
0.4142135623731
 10
1640.871852859831
 20
1344.017878152669
 42
0.4142135623731
 10
1641.871852859831
 20
1343.017878152669
 42
0.4142135623731
  0
LWPOLYLINE
  5
14C
330
1F
100
AcDbEntity
  8
1-B
  6
Continuous
 62
     7
370
     9
100
AcDbPolyline
 90
        4
 70
     1
 43
2.0
 10
1642.871852859831
 20
1284.017878152669
 42
0.4142135623731
 10
1641.871852859831
 20
1285.017878152669
 42
0.4142135623731
 10
1640.871852859831
 20
1284.017878152669
 42
0.4142135623731
 10
1641.871852859831
 20
1283.017878152669
 42
0.4142135623731
  0
LINE
  5
14D
330
1F
100
AcDbEntity
  8
1-B
  6
Continuous
 62
   120
370
     5
100
AcDbLine
 10
1720.811160689261
 20
1344.017878152669
 30
0.0
 11
1583.632089998328
 21
1344.017878152669
 31
0.0
  0
LINE
  5
14E
330
1F
100
AcDbEntity
  8
1-B
  6
Continuous
 62
   120
370
     5
100
AcDbLine
 10
1641.871852859831
 20
1284.017878152669
 30
0.0
 11
1583.632089998328
 21
1284.017878152669
 31
0.0
  0
LWPOLYLINE
  5
14F
330
1F
100
AcDbEntity
  8
1-B
  6
Continuous
 62
     7
370
     9
100
AcDbPolyline
 90
        4
 70
     1
 43
2.0
 10
1642.871852859831
 20
1244.017878152669
 42
0.4142135623731
 10
1641.871852859831
 20
1245.017878152669
 42
0.4142135623731
 10
1640.871852859831
 20
1244.017878152669
 42
0.4142135623731
 10
1641.871852859831
 20
1243.017878152669
 42
0.4142135623731
  0
LINE
  5
150
330
1F
100
AcDbEntity
  8
1-B
  6
Continuous
 62
   120
370
     5
100
AcDbLine
 10
1641.871852859831
 20
1244.017878152669
 30
0.0
 11
1583.632089998328
 21
1244.017878152669
 31
0.0
  0
LWPOLYLINE
  5
151
330
1F
100
AcDbEntity
  8
1-B
  6
Continuous
 62
     7
370
     9
100
AcDbPolyline
 90
        4
 70
     1
 43
2.0
 10
1642.871852859831
 20
1146.728877490507
 42
0.4142135623731
 10
1641.871852859831
 20
1147.728877490507
 42
0.4142135623731
 10
1640.871852859831
 20
1146.728877490507
 42
0.4142135623731
 10
1641.871852859831
 20
1145.728877490508
 42
0.4142135623731
  0
LINE
  5
152
330
1F
100
AcDbEntity
  8
1-B
  6
Continuous
 62
   120
370
     5
100
AcDbLine
 10
1720.811160689261
 20
1146.728877490507
 30
0.0
 11
1583.632089998328
 21
1146.728877490507
 31
0.0
  0
LWPOLYLINE
  5
153
330
1F
100
AcDbEntity
  8
1-B
  6
Continuous
 62
     7
370
     9
100
AcDbPolyline
 90
        4
 70
     1
 43
2.0
 10
1158.809551500627
 20
1120.629814407785
 42
0.4142135623731
 10
1157.809551500627
 20
1121.629814407785
 42
0.4142135623731
 10
1156.809551500627
 20
1120.629814407785
 42
0.4142135623731
 10
1157.809551500627
 20
1119.629814407785
 42
0.4142135623731
  0
LINE
  5
154
330
1F
100
AcDbEntity
  8
1-B
  6
Continuous
 62
   120
370
     5
100
AcDbLine
 10
1164.368949480206
 20
1161.893510780889
 30
0.0
 11
1157.809551500627
 21
1120.629814407785
 31
0.0
  0
LWPOLYLINE
  5
155
330
1F
100
AcDbEntity
  8
1-B
  6
Continuous
 62
     7
370
     9
100
AcDbPolyline
 90
        4
 70
     1
 43
2.0
 10
1554.665887173599
 20
1066.987401192683
 42
0.4142135623731
 10
1553.665887173599
 20
1067.987401192683
 42
0.4142135623731
 10
1552.665887173599
 20
1066.987401192683
 42
0.4142135623731
 10
1553.665887173599
 20
1065.987401192683
 42
0.4142135623731
  0
LINE
  5
156
330
1F
100
AcDbEntity
  8
1-B
  6
Continuous
 62
   120
370
     5
100
AcDbLine
 10
1550.298756664994
 20
1110.670942152647
 30
0.0
 11
1553.665887173599
 21
1066.987401192683
 31
0.0
  0
LWPOLYLINE
  5
157
330
1F
100
AcDbEntity
  8
1-B
  6
Continuous
 62
     7
370
     9
100
AcDbPolyline
 90
        4
 70
     1
 43
2.0
 10
1322.846157135054
 20
1044.730031564016
 42
0.4142135623731
 10
1321.846157135054
 20
1045.730031564016
 42
0.4142135623731
 10
1320.846157135054
 20
1044.730031564016
 42
0.4142135623731
 10
1321.846157135054
 20
1043.730031564016
 42
0.4142135623731
  0
LINE
  5
158
330
1F
100
AcDbEntity
  8
1-B
  6
Continuous
 62
   120
370
     5
100
AcDbLine
 10
1321.846157135054
 20
1096.242135755909
 30
0.0
 11
1321.846157135054
 21
1044.675631994658
 31
0.0
  0
LINE
  5
159
330
1F
100
AcDbEntity
  8
1-B
  6
Continuous
 62
   120
370
     5
100
AcDbLine
 10
1157.809551500627
 20
1120.629814407785
 30
0.0
 11
1321.846157135054
 21
1044.730031564016
 31
0.0
  0
LINE
  5
15A
330
1F
100
AcDbEntity
  8
1-B
  6
Continuous
 62
   120
370
     5
100
AcDbLine
 10
1321.846157135054
 20
1044.675631994658
 30
0.0
 11
1553.665887173599
 21
1066.987401192683
 31
0.0
  0
LINE
  5
15B
330
1F
100
AcDbEntity
  8
1-4
  6
Continuous
 62
    92
370
    13
100
AcDbLine
 10
1197.71260941354
 20
1337.742322009924
 30
0.0
 11
1204.368949480206
 21
1337.742322009924
 31
0.0
  0
ARC
  5
15C
330
1F
100
AcDbEntity
  8
1-4
  6
Continuous
 62
    92
370
    13
100
AcDbCircle
 10
1197.71260941354
 20
1324.40898867659
 30
0.0
 40
13.33333333333333
100
AcDbArc
 50
90.0
 51
180.0
  0
LINE
  5
15D
330
1F
100
AcDbEntity
  8
1-4
  6
Continuous
 62
    92
370
    13
100
AcDbLine
 10
1184.379276080207
 20
1311.075655343258
 30
0.0
 11
1184.379276080207
 21
1324.40898867659
 31
0.0
  0
LINE
  5
15E
330
1F
100
AcDbEntity
  8
1-4
  6
Continuous
 62
    92
370
    13
100
AcDbLine
 10
1197.71260941354
 20
1297.742322009924
 30
0.0
 11
1204.368949480206
 21
1297.742322009924
 31
0.0
  0
ARC
  5
15F
330
1F
100
AcDbEntity
  8
1-4
  6
Continuous
 62
    92
370
    13
100
AcDbCircle
 10
1197.71260941354
 20
1311.075655343258
 30
0.0
 40
13.33333333333333
100
AcDbArc
 50
180.0
 51
270.0
  0
LINE
  5
160
330
1F
100
AcDbEntity
  8
1-4
  6
Continuous
 62
    92
370
    13
100
AcDbLine
 10
1523.632089998328
 20
1291.163189950832
 30
0.0
 11
1330.298756664994
 21
1284.496523284166
 31
0.0
  0
LINE
  5
161
330
1F
100
AcDbEntity
  8
1-4
  6
Continuous
 62
    92
370
    13
100
AcDbLine
 10
1204.368949480206
 20
1337.742322009924
 30
0.0
 11
1330.298756664994
 21
1284.496523284166
 31
0.0
  0
LINE
  5
162
330
1F
100
AcDbEntity
  8
1-4
  6
Continuous
 62
    92
370
    13
100
AcDbLine
 10
1530.416343933027
 20
1289.345354587782
 30
0.0
 11
1523.632089998328
 21
1291.163189950832
 31
0.0
  0
ARC
  5
163
330
1F
100
AcDbEntity
  8
1-4
  6
Continuous
 62
    92
370
    13
100
AcDbCircle
 10
1526.96542333166
 20
1276.466343570594
 30
0.0
 40
13.33333333333333
100
AcDbArc
 50
0.0
 51
74.99999999999979
  0
LINE
  5
164
330
1F
100
AcDbEntity
  8
1-4
  6
Continuous
 62
    92
370
    13
100
AcDbLine
 10
1525.192928123764
 20
1250.744964635606
 30
0.0
 11
1523.632089998328
 21
1251.163189950832
 31
0.0
  0
LINE
  5
165
330
1F
100
AcDbEntity
  8
1-4
  6
Continuous
 62
    92
370
    13
100
AcDbLine
 10
1540.298756664994
 20
1262.336074551074
 30
0.0
 11
1540.298756664994
 21
1276.466343570594
 31
0.0
  0
ARC
  5
166
330
1F
100
AcDbEntity
  8
1-4
  6
Continuous
 62
    92
370
    13
100
AcDbCircle
 10
1528.298756664994
 20
1262.336074551074
 30
0.0
 40
12.0
100
AcDbArc
 50
254.9999999999998
 51
0.0000000000000254
  0
LINE
  5
167
330
1F
100
AcDbEntity
  8
1-4
  6
Continuous
 62
    92
370
    13
100
AcDbLine
 10
1330.298756664994
 20
1344.496523284166
 30
0.0
 11
1330.298756664994
 21
1284.496523284166
 31
0.0
  0
LINE
  5
168
330
1F
100
AcDbEntity
  8
1-4
  6
Continuous
 62
    92
370
    13
100
AcDbLine
 10
1330.298756664994
 20
1244.496523284166
 30
0.0
 11
1330.298756664994
 21
1164.496523284166
 31
0.0
  0
ARC
  5
169
330
1F
100
AcDbEntity
  8
1-4
  6
Continuous
 62
    92
370
    13
100
AcDbCircle
 10
1347.342326375735
 20
1264.496523284166
 30
0.0
 40
26.27704832139427
100
AcDbArc
 50
130.4369220149285
 51
229.5630779850715
  0
LINE
  5
16A
330
1F
100
AcDbEntity
  8
1-B
  6
Continuous
 62
   120
370
     5
100
AcDbLine
 10
1715.144085026428
 20
2126.470881995666
 30
0.0
 11
1715.144085026428
 21
1929.181881333505
 31
0.0
  0
LWPOLYLINE
  5
16B
330
1F
100
AcDbEntity
  8
1-B
  6
Continuous
 62
     7
370
     9
100
AcDbPolyline
 90
        4
 70
     1
 43
2.0
 10
1716.144085026428
 20
2126.470881995666
 42
0.4142135623731
 10
1715.144085026428
 20
2127.470881995666
 42
0.4142135623731
 10
1714.144085026428
 20
2126.470881995666
 42
0.4142135623731
 10
1715.144085026428
 20
2125.470881995666
 42
0.4142135623731
  0
LWPOLYLINE
  5
16C
330
1F
100
AcDbEntity
  8
1-B
  6
Continuous
 62
     7
370
     9
100
AcDbPolyline
 90
        4
 70
     1
 43
2.0
 10
1716.144085026428
 20
1929.181881333505
 42
0.4142135623731
 10
1715.144085026428
 20
1930.181881333505
 42
0.4142135623731
 10
1714.144085026428
 20
1929.181881333505
 42
0.4142135623731
 10
1715.144085026428
 20
1928.181881333505
 42
0.4142135623731
  0
LINE
  5
16D
330
1F
100
AcDbEntity
  8
1-B
  6
Continuous
 62
   120
370
     5
100
AcDbLine
 10
1720.811160689261
 20
1344.017878152669
 30
0.0
 11
1720.811160689261
 21
1146.728877490507
 31
0.0
  0
LWPOLYLINE
  5
16E
330
1F
100
AcDbEntity
  8
1-B
  6
Continuous
 62
     7
370
     9
100
AcDbPolyline
 90
        4
 70
     1
 43
2.0
 10
1721.811160689261
 20
1344.017878152669
 42
0.4142135623731
 10
1720.811160689261
 20
1345.017878152669
 42
0.4142135623731
 10
1719.811160689261
 20
1344.017878152669
 42
0.4142135623731
 10
1720.811160689261
 20
1343.017878152669
 42
0.4142135623731
  0
LWPOLYLINE
  5
16F
330
1F
100
AcDbEntity
  8
1-B
  6
Continuous
 62
     7
370
     9
100
AcDbPolyline
 90
        4
 70
     1
 43
2.0
 10
1721.811160689261
 20
1146.728877490507
 42
0.4142135623731
 10
1720.811160689261
 20
1147.728877490507
 42
0.4142135623731
 10
1719.811160689261
 20
1146.728877490507
 42
0.4142135623731
 10
1720.811160689261
 20
1145.728877490508
 42
0.4142135623731
  0
LINE
  5
170
330
1F
100
AcDbEntity
  8
F-1
  6
JWW_DASHED1
 62
     7
370
     9
100
AcDbLine
 10
-103.3338392103036
 20
-130.8331921317961
 30
0.0
 11
-1603.333839210304
 21
-130.8331921317961
 31
0.0
  0
LINE
  5
171
330
1F
100
AcDbEntity
  8
F-1
  6
JWW_DASHED1
 62
     7
370
     9
100
AcDbLine
 10
-103.3338392103036
 20
-234.9998654569993
 30
0.0
 11
-1603.333839210304
 21
-234.9998654569993
 31
0.0
  0
LINE
  5
172
330
1F
100
AcDbEntity
  8
F-1
  6
JWW_DASHED1
 62
     7
370
     9
100
AcDbLine
 10
-103.3338392103036
 20
-964.1665787984624
 30
0.0
 11
-1603.333839210304
 21
-964.1665787984624
 31
0.0
  0
LINE
  5
173
330
1F
100
AcDbEntity
  8
F-1
  6
JWW_DASHED1
 62
     7
370
     9
100
AcDbLine
 10
-103.3338392103036
 20
-1797.499965465129
 30
0.0
 11
-1603.333839210304
 21
-1797.499965465129
 31
0.0
  0
LINE
  5
174
330
1F
100
AcDbEntity
  8
0-0
  6
JWW_HOJO
 62
   120
370
     5
100
AcDbLine
 10
13.33302729838636
 20
1565.000254591779
 30
0.0
 11
493.3330272983864
 21
1565.000254591779
 31
0.0
  0
LINE
  5
175
330
1F
100
AcDbEntity
  8
0-0
  6
JWW_HOJO
 62
   120
370
     5
100
AcDbLine
 10
13.33302729838636
 20
1715.000254591779
 30
0.0
 11
493.3330272983864
 21
1715.000254591779
 31
0.0
  0
MTEXT
  5
176
330
1F
100
AcDbEntity
  8
F-A
  6
Continuous
 62
     7
370
     0
100
AcDbMText
 10
3460.130633894714
 20
-2877.490187658314
 30
0.0
 40
45.72
 41
30.0
 46
0.0
 71
     7
 72
     1
  1
{\fＭＳ ゴシック|b0|i0|c128|p49;,}
 73
     1
 44
1.0
  0
MTEXT
  5
177
330
1F
100
AcDbEntity
  8
F-A
  6
Continuous
 62
     7
370
     0
100
AcDbMText
 10
3282.624841276916
 20
-2876.514536603932
 30
0.0
 40
49.53
 41
65.0
 46
0.0
 71
     7
 72
     1
  1
{\fＭＳ ゴシック|b0|i0|c128|p49;$y}
 73
     1
 44
1.0
  0
MTEXT
  5
178
330
1F
100
AcDbEntity
  8
F-A
  6
Continuous
 62
     7
370
     0
100
AcDbMText
 10
3385.782655302796
 20
-2876.514536603932
 30
0.0
 40
49.53
 41
65.0
 46
0.0
 71
     7
 72
     1
  1
{\fＭＳ ゴシック|b0|i0|c128|p49;$m}
 73
     1
 44
1.0
  0
MTEXT
  5
179
330
1F
100
AcDbEntity
  8
F-A
  6
Continuous
 62
     7
370
     0
100
AcDbMText
 10
3488.940476958069
 20
-2876.514536603932
 30
0.0
 40
49.53
 41
65.0
 46
0.0
 71
     7
 72
     1
  1
{\fＭＳ ゴシック|b0|i0|c128|p49;$d}
 73
     1
 44
1.0
  0
MTEXT
  5
17A
330
1F
100
AcDbEntity
  8
F-A
  6
Continuous
 62
     7
370
     0
100
AcDbMText
 10
3592.098298613341
 20
-2876.514536603932
 30
0.0
 40
49.53
 41
130.0
 46
0.0
 71
     7
 72
     1
  1
{\fＭＳ ゴシック|b0|i0|c128|p49;印刷}
 73
     1
 44
1.0
  0
MTEXT
  5
17B
330
1F
100
AcDbEntity
  8
F-A
  6
Continuous
 62
     7
370
     0
100
AcDbMText
 10
3354.184762541563
 20
-2879.348887456898
 30
0.0
 40
45.72
 41
30.0
 46
0.0
 71
     7
 72
     1
  1
{\fＭＳ ゴシック|b0|i0|c128|p49;,}
 73
     1
 44
1.0
  0
MTEXT
  5
17C
330
1F
100
AcDbEntity
  8
F-A
  6
Continuous
 62
     7
370
     0
100
AcDbMText
 10
3738.935540739808
 20
-2876.560837759023
 30
0.0
 40
45.72
 41
60.0
 46
0.0
 71
     7
 72
     1
  1
{\fＭＳ ゴシック|b0|i0|c128|p49;）}
 73
     1
 44
1.0
  0
MTEXT
  5
17D
330
1F
100
AcDbEntity
  8
F-A
  6
Continuous
 62
     7
370
     0
100
AcDbMText
 10
3189.355582835333
 20
-2879.348887456898
 30
0.0
 40
45.72
 41
60.0
 46
0.0
 71
     7
 72
     1
  1
{\fＭＳ ゴシック|b0|i0|c128|p49;（}
 73
     1
 44
1.0
  0
LINE
  5
17E
330
1F
100
AcDbEntity
  8
F-0
  6
JWW_HOJO
 62
     7
370
     9
100
AcDbLine
 10
566.6663917335308
 20
-2530.000002061998
 30
0.0
 11
566.6663917335308
 21
-2796.666672165329
 31
0.0
  0
LINE
  5
17F
330
1F
100
AcDbEntity
  8
F-0
  6
JWW_HOJO
 62
     7
370
     9
100
AcDbLine
 10
233.3332783467063
 20
-2530.000002061998
 30
0.0
 11
233.3332783467063
 21
-2796.666672165329
 31
0.0
  0
LINE
  5
180
330
1F
100
AcDbEntity
  8
F-1
  6
Continuous
 62
   200
370
    20
100
AcDbLine
 10
3799.999175200592
 20
-2803.333335051665
 30
0.0
 11
-3999.999835040119
 21
-2803.333335051665
 31
0.0
  0
LINE
  5
181
330
1F
100
AcDbEntity
  8
F-1
  6
Continuous
 62
   200
370
    20
100
AcDbLine
 10
3799.999175200592
 20
-2799.999995876003
 30
0.0
 11
-3999.999835040119
 21
-2799.999995876003
 31
0.0
  0
LINE
  5
182
330
1F
100
AcDbEntity
  8
F-1
  6
Continuous
 62
   200
370
    20
100
AcDbLine
 10
3799.999175200592
 20
-2796.666672165329
 30
0.0
 11
-3999.999835040119
 21
-2796.666672165329
 31
0.0
  0
LINE
  5
183
330
1F
100
AcDbEntity
  8
F-1
  6
Continuous
 62
   200
370
    20
100
AcDbLine
 10
2793.332816459038
 20
-2530.000002061998
 30
0.0
 11
2793.332816459038
 21
-2796.666672165329
 31
0.0
  0
LINE
  5
184
330
1F
100
AcDbEntity
  8
F-1
  6
Continuous
 62
   200
370
    20
100
AcDbLine
 10
1793.332486539274
 20
-2530.000002061998
 30
0.0
 11
1793.332486539274
 21
-2796.666672165329
 31
0.0
  0
LINE
  5
185
330
1F
100
AcDbEntity
  8
F-1
  6
Continuous
 62
   200
370
    20
100
AcDbLine
 10
-100.0000824799406
 20
-2530.000002061998
 30
0.0
 11
-100.0000824799406
 21
-2796.666672165329
 31
0.0
  0
LINE
  5
186
330
1F
100
AcDbEntity
  8
F-1
  6
Continuous
 62
   200
370
    20
100
AcDbLine
 10
-100.0000824799406
 20
-2663.333290718697
 30
0.0
 11
3793.332651499156
 21
-2663.336909526103
 31
0.0
  0
LINE
  5
187
330
1F
100
AcDbEntity
  8
F-0
  6
JWW_HOJO
 62
     7
370
     9
100
AcDbLine
 10
-3993.333326803671
 20
-2663.333290718927
 30
0.0
 11
-100.0000824799406
 21
-2663.333290718927
 31
0.0
  0
LINE
  5
188
330
1F
100
AcDbEntity
  8
F-0
  6
JWW_HOJO
 62
     7
370
     9
100
AcDbLine
 10
-3993.333326803671
 20
-2603.333290718927
 30
0.0
 11
-100.0000824799406
 21
-2603.333290718927
 31
0.0
  0
LINE
  5
189
330
1F
100
AcDbEntity
  8
F-0
  6
JWW_HOJO
 62
     7
370
     9
100
AcDbLine
 10
-3993.333326803671
 20
-2723.333290718927
 30
0.0
 11
-100.0000824799406
 21
-2723.333290718927
 31
0.0
  0
LINE
  5
18A
330
1F
100
AcDbEntity
  8
F-0
  6
JWW_HOJO
 62
     7
370
     9
100
AcDbLine
 10
-100.0001723303592
 20
-2759.999826518655
 30
0.0
 11
3793.332561648736
 21
-2760.003445326061
 31
0.0
  0
LINE
  5
18B
330
1F
100
AcDbEntity
  8
F-0
  6
JWW_HOJO
 62
     7
370
     9
100
AcDbLine
 10
-100.0001165610581
 20
-2699.999826518681
 30
0.0
 11
3793.332617418037
 21
-2700.003445326087
 31
0.0
  0
LINE
  5
18C
330
1F
100
AcDbEntity
  8
F-0
  6
JWW_HOJO
 62
     7
370
     9
100
AcDbLine
 10
-100.0000483985781
 20
-2626.666491478713
 30
0.0
 11
3793.332685580518
 21
-2626.670110286119
 31
0.0
  0
LINE
  5
18D
330
1F
100
AcDbEntity
  8
F-0
  6
JWW_HOJO
 62
     7
370
     9
100
AcDbLine
 10
-99.99999262927702
 20
-2566.66649147874
 30
0.0
 11
3793.332741349819
 21
-2566.670110286145
 31
0.0
  0
LINE
  5
18E
330
1F
100
AcDbEntity
  8
F-0
  6
JWW_HOJO
 62
     7
370
     9
100
AcDbLine
 10
1853.332486539274
 20
-2530.000002061998
 30
0.0
 11
1853.332486539274
 21
-2796.666672165329
 31
0.0
  0
LINE
  5
18F
330
1F
100
AcDbEntity
  8
F-0
  6
JWW_HOJO
 62
     7
370
     9
100
AcDbLine
 10
-40.0000824799406
 20
-2530.000002061998
 30
0.0
 11
-40.0000824799406
 21
-2796.666672165329
 31
0.0
  0
LINE
  5
190
330
1F
100
AcDbEntity
  8
F-0
  6
JWW_HOJO
 62
     7
370
     9
100
AcDbLine
 10
2853.332816459038
 20
-2530.000002061998
 30
0.0
 11
2853.332816459038
 21
-2796.666672165329
 31
0.0
  0
MTEXT
  5
191
330
1F
100
AcDbEntity
  8
F-A
  6
Continuous
 62
     7
370
     0
100
AcDbMText
 10
2853.332816459038
 20
-2591.429236567169
 30
0.0
 40
30.48
 41
160.0
 46
0.0
 71
     7
 72
     1
  1
{\fＭＳ ゴシック|b0|i0|c128|p49;ＤＡＴＥ}
 73
     1
 44
1.0
  0
MTEXT
  5
192
330
1F
100
AcDbEntity
  8
F-A
  6
Continuous
 62
     7
370
     0
100
AcDbMText
 10
2853.332816459038
 20
-2724.762571607227
 30
0.0
 40
30.48
 41
120.0
 46
0.0
 71
     7
 72
     1
  1
{\fＭＳ ゴシック|b0|i0|c128|p49;ＮＯ．}
 73
     1
 44
1.0
  0
MTEXT
  5
193
330
1F
100
AcDbEntity
  8
F-A
  6
Continuous
 62
     7
370
     0
100
AcDbMText
 10
1853.332486539274
 20
-2591.428307078516
 30
0.0
 40
30.48
 41
200.0
 46
0.0
 71
     7
 72
     1
  1
{\fＭＳ ゴシック|b0|i0|c128|p49;ＳＣＡＬＥ}
 73
     1
 44
1.0
  0
MTEXT
  5
194
330
1F
100
AcDbEntity
  8
F-A
  6
Continuous
 62
     7
370
     0
100
AcDbMText
 10
1853.332486539274
 20
-2724.761642118573
 30
0.0
 40
30.48
 41
160.0
 46
0.0
 71
     7
 72
     1
  1
{\fＭＳ ゴシック|b0|i0|c128|p49;ＦＩＬＥ}
 73
     1
 44
1.0
  0
MTEXT
  5
195
330
1F
100
AcDbEntity
  8
F-A
  6
Continuous
 62
     7
370
     0
100
AcDbMText
 10
-40.0000824799406
 20
-2591.426547247957
 30
0.0
 40
30.48
 41
120.0
 46
0.0
 71
     7
 72
     1
  1
{\fＭＳ ゴシック|b0|i0|c128|p49;図面名}
 73
     1
 44
1.0
  0
MTEXT
  5
196
330
1F
100
AcDbEntity
  8
F-A
  6
Continuous
 62
     7
370
     0
100
AcDbMText
 10
963.332486539274
 20
-2776.187836349286
 30
0.0
 40
67.62750000000003
 41
710.0000000000002
 46
0.0
 71
     7
 72
     1
  1
{\fＭＳ ゴシック|b0|i0|c128|p49;ウッドワン・・・}
 73
     1
 44
1.0
  0
MTEXT
  5
197
330
1F
100
AcDbEntity
  8
F-A
  6
Continuous
 62
     7
370
     0
100
AcDbMText
 10
823.332486539274
 20
-2730.760446177432
 30
0.0
 40
30.48
 41
80.0
 46
0.0
 71
     7
 72
     1
  1
{\fＭＳ ゴシック|b0|i0|c128|p49;株式}
 73
     1
 44
1.0
  0
MTEXT
  5
198
330
1F
100
AcDbEntity
  8
F-A
  6
Continuous
 62
     7
370
     0
100
AcDbMText
 10
823.332486539274
 20
-2778.760446177458
 30
0.0
 40
30.48
 41
80.0
 46
0.0
 71
     7
 72
     1
  1
{\fＭＳ ゴシック|b0|i0|c128|p49;会社}
 73
     1
 44
1.0
  0
LINE
  5
199
330
1F
100
AcDbEntity
  8
F-1
  6
Continuous
 62
   200
370
    20
100
AcDbLine
 10
3799.999175200592
 20
-2530.000002061998
 30
0.0
 11
-3999.999835040119
 21
-2530.000002061998
 31
0.0
  0
LINE
  5
19A
330
1F
100
AcDbEntity
  8
F-1
  6
Continuous
 62
   200
370
    20
100
AcDbLine
 10
3799.999175200592
 20
-2526.666678351325
 30
0.0
 11
-3999.999835040119
 21
-2526.666678351325
 31
0.0
  0
LINE
  5
19B
330
1F
100
AcDbEntity
  8
F-0
  6
JWW_HOJO
 62
     7
370
     9
100
AcDbLine
 10
-3498.364917835225
 20
-2530.000002061999
 30
0.0
 11
-3498.364917835225
 21
-2803.333443306588
 31
0.0
  0
LINE
  5
19C
330
1F
100
AcDbEntity
  8
F-0
  6
JWW_HOJO
 62
     7
370
     9
100
AcDbLine
 10
-140.0000824799406
 20
-2530.000002061998
 30
0.0
 11
-140.0000824799406
 21
-2796.666672165329
 31
0.0
  0
MTEXT
  5
19D
330
1F
100
AcDbEntity
  8
F-A
  6
Continuous
 62
     7
370
     0
100
AcDbMText
 10
2185.832651499156
 20
-2630.474993938205
 30
0.0
 40
52.3875
 41
275.0
 46
0.0
 71
     7
 72
     1
  1
{\fＭＳ ゴシック|b0|i0|c128|p49;1/2・1/3}
 73
     1
 44
1.0
  0
LINE
  5
19E
330
1F
100
AcDbEntity
  8
F-1
  6
JWW_DASHED1
 62
     7
370
     9
100
AcDbLine
 10
-103.3338392103036
 20
1535.833581201538
 30
0.0
 11
-1603.333839210304
 21
1535.833581201538
 31
0.0
  0
LINE
  5
19F
330
1F
100
AcDbEntity
  8
F-1
  6
JWW_DASHED1
 62
     7
370
     9
100
AcDbLine
 10
-103.3338392103036
 20
702.5001945348708
 30
0.0
 11
-1603.333839210304
 21
702.5001945348708
 31
0.0
  0
LINE
  5
1A0
330
1F
100
AcDbEntity
  8
F-1
  6
JWW_DASHED1
 62
     7
370
     9
100
AcDbLine
 10
-103.3338392103036
 20
910.8335412503163
 30
0.0
 11
-1603.333839210304
 21
910.8335412503163
 31
0.0
  0
LINE
  5
1A1
330
1F
100
AcDbEntity
  8
F-1
  6
JWW_DASHED1
 62
     7
370
     9
100
AcDbLine
 10
-103.3338392103036
 20
1327.50023455113
 30
0.0
 11
-1603.333839210304
 21
1327.50023455113
 31
0.0
  0
LINE
  5
1A2
330
1F
100
AcDbEntity
  8
F-1
  6
JWW_DASHED1
 62
     7
370
     9
100
AcDbLine
 10
-103.3338392103036
 20
1223.333561225927
 30
0.0
 11
-1603.333839210304
 21
1223.333561225927
 31
0.0
  0
LINE
  5
1A3
330
1F
100
AcDbEntity
  8
F-1
  6
JWW_DASHED1
 62
     7
370
     9
100
AcDbLine
 10
-103.3338392103036
 20
1119.166887900724
 30
0.0
 11
-1603.333839210304
 21
1119.166887900724
 31
0.0
  0
LINE
  5
1A4
330
1F
100
AcDbEntity
  8
F-1
  6
JWW_DASHED1
 62
     7
370
     9
100
AcDbLine
 10
-103.3338392103036
 20
1015.00021457552
 30
0.0
 11
-1603.333839210304
 21
1015.00021457552
 31
0.0
  0
LINE
  5
1A5
330
1F
100
AcDbEntity
  8
F-1
  6
JWW_DASHED1
 62
     7
370
     9
100
AcDbLine
 10
-103.3338392103036
 20
1431.666907876334
 30
0.0
 11
-1603.333839210304
 21
1431.666907876334
 31
0.0
  0
MTEXT
  5
1A6
330
1F
100
AcDbEntity
  8
F-A
  6
Continuous
 62
     7
370
     0
100
AcDbMText
 10
786.9451346024795
 20
-2630.758774399892
 30
0.0
 40
51.816
 41
340.0
 46
0.0
 71
     7
 72
     1
  1
{\fＭＳ ゴシック|b0|i0|c128|p49;洋風造作材}
 73
     1
 44
1.0
  0
MTEXT
  5
1A7
330
1F
100
AcDbEntity
  8
0-A
  6
Continuous
 62
     7
370
     9
100
AcDbMText
 10
-293.3338392103036
 20
2384.110304563325
 30
0.0
 40
45.72
 41
60.0
 46
0.0
 71
     7
 72
     1
  1
{\fＭＳ ゴシック|b0|i0|c128|p49;10}
 73
     1
 44
1.0
  0
MTEXT
  5
1A8
330
1F
100
AcDbEntity
  8
0-A
  6
Continuous
 62
     7
370
     9
100
AcDbMText
 10
-1483.333839210304
 20
2279.943631238122
 30
0.0
 40
45.72
 41
360.0
 46
0.0
 71
     7
 72
     1
  1
{\fＭＳ ゴシック|b0|i0|c128|p49;3,900×30×9}
 73
     1
 44
1.0
  0
MTEXT
  5
1A9
330
1F
100
AcDbEntity
  8
0-A
  6
Continuous
 62
     7
370
     9
100
AcDbMText
 10
-278.3338392103036
 20
2279.943631205603
 30
0.0
 40
45.72
 41
30.0
 46
0.0
 71
     7
 72
     1
  1
{\fＭＳ ゴシック|b0|i0|c128|p49;6}
 73
     1
 44
1.0
  0
MTEXT
  5
1AA
330
1F
100
AcDbEntity
  8
0-A
  6
Continuous
 62
     7
370
     9
100
AcDbMText
 10
-278.3338392103036
 20
2175.776957880399
 30
0.0
 40
45.72
 41
30.0
 46
0.0
 71
     7
 72
     1
  1
{\fＭＳ ゴシック|b0|i0|c128|p49;1}
 73
     1
 44
1.0
  0
MTEXT
  5
1AB
330
1F
100
AcDbEntity
  8
0-A
  6
Continuous
 62
     7
370
     9
100
AcDbMText
 10
-3773.333084518845
 20
2084.686947892594
 30
0.0
 40
66.04
 41
260.0
 46
0.0
 71
     7
 72
     1
  1
{\fＭＳ ゴシック|b0|i0|c128|p49;廻り縁}
 73
     1
 44
1.0
  0
MTEXT
  5
1AC
330
1F
100
AcDbEntity
  8
0-A
  6
Continuous
 62
     7
370
     9
100
AcDbMText
 10
-3763.333084518845
 20
1932.146947892594
 30
0.0
 40
60.96
 41
240.0
 46
0.0
 71
     7
 72
     1
  1
{\fＭＳ ゴシック|b0|i0|c128|p49;Ｐ型・}
 73
     1
 44
1.0
  0
MTEXT
  5
1AD
330
1F
100
AcDbEntity
  8
0-A
  6
Continuous
 62
     7
370
     9
100
AcDbMText
 10
-26.66671752929631
 20
1665.480254591779
 30
0.0
 40
60.96
 41
560.0
 46
0.0
 71
     7
 72
     1
  1
{\fＭＳ ゴシック|b0|i0|c128|p49;コーナー廻り縁}
 73
     1
 44
1.0
  0
MTEXT
  5
1AE
330
1F
100
AcDbEntity
  8
0-A
  6
Continuous
 62
     7
370
     9
100
AcDbMText
 10
93.3332824707037
 20
1515.480254591779
 30
0.0
 40
60.96
 41
320.0
 46
0.0
 71
     7
 72
     1
  1
{\fＭＳ ゴシック|b0|i0|c128|p49;Ｐ型対応}
 73
     1
 44
1.0
  0
MTEXT
  5
1AF
330
1F
100
AcDbEntity
  8
0-B
  6
Continuous
 62
     7
370
   211
100
AcDbMText
 10
-2388.725220693918
 20
2183.880974259951
 30
0.0
 40
45.72
 41
30.0
 46
0.0
 71
     7
 72
     1
  1
{\fＭＳ ゴシック|b0|i0|c128|p49;9}
 11
6.123031769111886E-17
 21
1.0
 31
0.0
 73
     1
 44
1.0
  0
MTEXT
  5
1B0
330
1F
100
AcDbEntity
  8
0-B
  6
Continuous
 62
     7
370
   211
100
AcDbMText
 10
-2388.725220693918
 20
2108.880974259951
 30
0.0
 40
45.72
 41
30.0
 46
0.0
 71
     7
 72
     1
  1
{\fＭＳ ゴシック|b0|i0|c128|p49;6}
 11
6.123031769111886E-17
 21
1.0
 31
0.0
 73
     1
 44
1.0
  0
MTEXT
  5
1B1
330
1F
100
AcDbEntity
  8
0-B
  6
Continuous
 62
     7
370
     9
100
AcDbMText
 10
-2673.725220693918
 20
2095.785974259951
 30
0.0
 40
49.53
 41
65.0
 46
0.0
 71
     7
 72
     1
  1
{\fＭＳ ゴシック|b0|i0|c128|p49;2R}
 73
     1
 44
1.0
  0
MTEXT
  5
1B2
330
1F
100
AcDbEntity
  8
0-B
  6
Continuous
 62
     7
370
   211
100
AcDbMText
 10
-2288.725220693918
 20
2063.285974259951
 30
0.0
 40
49.53
 41
65.0
 46
0.0
 71
     7
 72
     1
  1
{\fＭＳ ゴシック|b0|i0|c128|p49;30}
 11
6.123031769111886E-17
 21
1.0
 31
0.0
 73
     1
 44
1.0
  0
MTEXT
  5
1B3
330
1F
100
AcDbEntity
  8
0-B
  6
Continuous
 62
     7
370
   211
100
AcDbMText
 10
-2388.725220693918
 20
1988.285974259951
 30
0.0
 40
49.53
 41
65.0
 46
0.0
 71
     7
 72
     1
  1
{\fＭＳ ゴシック|b0|i0|c128|p49;15}
 11
6.123031769111886E-17
 21
1.0
 31
0.0
 73
     1
 44
1.0
  0
MTEXT
  5
1B4
330
1F
100
AcDbEntity
  8
0-B
  6
Continuous
 62
     7
370
   211
100
AcDbMText
 10
-2538.725220693918
 20
1853.880974259951
 30
0.0
 40
45.72
 41
30.0
 46
0.0
 71
     7
 72
     1
  1
{\fＭＳ ゴシック|b0|i0|c128|p49;9}
 73
     1
 44
1.0
  0
MTEXT
  5
1B5
330
1F
100
AcDbEntity
  8
0-B
  6
Continuous
 62
     7
370
     9
100
AcDbMText
 10
-2329.524916985697
 20
1815.504204455386
 30
0.0
 40
49.53
 41
65.0
 46
0.0
 71
     7
 72
     1
  1
{\fＭＳ ゴシック|b0|i0|c128|p49;3R}
 73
     1
 44
1.0
  0
MTEXT
  5
1B6
330
1F
100
AcDbEntity
  8
1-A
  6
Continuous
 62
     7
370
     9
100
AcDbMText
 10
2458.333146378801
 20
2384.110304563325
 30
0.0
 40
45.71999999999999
 41
270.0
 46
0.0
 71
     7
 72
     1
  1
{\fＭＳ ゴシック|b0|i0|c128|p49;35×35×9}
 73
     1
 44
1.0
  0
MTEXT
  5
1B7
330
1F
100
AcDbEntity
  8
1-A
  6
Continuous
 62
     7
370
     9
100
AcDbMText
 10
3603.332898938979
 20
2384.110304563325
 30
0.0
 40
45.72
 41
60.0
 46
0.0
 71
     7
 72
     1
  1
{\fＭＳ ゴシック|b0|i0|c128|p49;10}
 73
     1
 44
1.0
  0
MTEXT
  5
1B8
330
1F
100
AcDbEntity
  8
1-A
  6
Continuous
 62
     7
370
     9
100
AcDbMText
 10
2076.330509345807
 20
1662.040994638566
 30
0.0
 40
45.72
 41
150.0
 46
0.0
 71
     7
 72
     1
  1
{\fＭＳ ゴシック|b0|i0|c128|p49;S=1/3}
 73
     1
 44
1.0
  0
MTEXT
  5
1B9
330
1F
100
AcDbEntity
  8
1-A
  6
Continuous
 62
     7
370
     9
100
AcDbMText
 10
2458.333146378801
 20
1550.776917896658
 30
0.0
 40
45.71999999999999
 41
270.0
 46
0.0
 71
     7
 72
     1
  1
{\fＭＳ ゴシック|b0|i0|c128|p49;35×35×9}
 73
     1
 44
1.0
  0
MTEXT
  5
1BA
330
1F
100
AcDbEntity
  8
1-A
  6
Continuous
 62
     7
370
     9
100
AcDbMText
 10
3603.332898938979
 20
1550.776917896658
 30
0.0
 40
45.72
 41
60.0
 46
0.0
 71
     7
 72
     1
  1
{\fＭＳ ゴシック|b0|i0|c128|p49;10}
 73
     1
 44
1.0
  0
MTEXT
  5
1BB
330
1F
100
AcDbEntity
  8
1-A
  6
Continuous
 62
     7
370
     9
100
AcDbMText
 10
2076.330509345807
 20
828.7076083621281
 30
0.0
 40
45.72
 41
150.0
 46
0.0
 71
     7
 72
     1
  1
{\fＭＳ ゴシック|b0|i0|c128|p49;S=1/3}
 73
     1
 44
1.0
  0
MTEXT
  5
1BC
330
1F
100
AcDbEntity
  8
1-B
  6
Continuous
 62
     7
370
   211
100
AcDbMText
 10
1287.923078246693
 20
2215.514880808239
 30
0.0
 40
49.53000000000004
 41
65.00000000000006
 46
0.0
 71
     7
 72
     1
  1
{\fＭＳ ゴシック|b0|i0|c128|p49;35}
 11
0.9976066044053078
 21
0.06914523010961525
 31
0.0
 73
     1
 44
1.0
  0
MTEXT
  5
1BD
330
1F
100
AcDbEntity
  8
1-B
  6
Continuous
 62
     7
370
   211
100
AcDbMText
 10
1466.566146151686
 20
2212.369566181427
 30
0.0
 40
49.5299999999999
 41
64.99999999999987
 46
0.0
 71
     7
 72
     1
  1
{\fＭＳ ゴシック|b0|i0|c128|p49;35}
 11
0.9659258262890568
 21
-0.2588190451025636
 31
0.0
 73
     1
 44
1.0
  0
MTEXT
  5
1BE
330
1F
100
AcDbEntity
  8
1-B
  6
Continuous
 62
     7
370
   211
100
AcDbMText
 10
1636.204777196999
 20
2074.676911847014
 30
0.0
 40
45.72
 41
30.0
 46
0.0
 71
     7
 72
     1
  1
{\fＭＳ ゴシック|b0|i0|c128|p49;9}
 11
6.123031769111886E-17
 21
1.0
 31
0.0
 73
     1
 44
1.0
  0
MTEXT
  5
1BF
330
1F
100
AcDbEntity
  8
1-B
  6
Continuous
 62
     7
370
   211
100
AcDbMText
 10
1636.204777196999
 20
2023.881927449829
 30
0.0
 40
45.72
 41
30.0
 46
0.0
 71
     7
 72
     1
  1
{\fＭＳ ゴシック|b0|i0|c128|p49;6}
 11
6.123031769111886E-17
 21
1.0
 31
0.0
 73
     1
 44
1.0
  0
MTEXT
  5
1C0
330
1F
100
AcDbEntity
  8
1-B
  6
Continuous
 62
     7
370
   211
100
AcDbMText
 10
1715.144085026428
 20
1990.091381664586
 30
0.0
 40
49.53
 41
65.0
 46
0.0
 71
     7
 72
     1
  1
{\fＭＳ ゴシック|b0|i0|c128|p49;30}
 11
6.123031769111886E-17
 21
1.0
 31
0.0
 73
     1
 44
1.0
  0
MTEXT
  5
1C1
330
1F
100
AcDbEntity
  8
1-B
  6
Continuous
 62
     7
370
   211
100
AcDbMText
 10
1636.204777196999
 20
1936.873388030991
 30
0.0
 40
45.72
 41
60.0
 46
0.0
 71
     7
 72
     1
  1
{\fＭＳ ゴシック|b0|i0|c128|p49;15}
 11
6.123031769111886E-17
 21
1.0
 31
0.0
 73
     1
 44
1.0
  0
MTEXT
  5
1C2
330
1F
100
AcDbEntity
  8
1-B
  6
Continuous
 62
     7
370
   211
100
AcDbMText
 10
1164.542926463539
 20
1850.507169602151
 30
0.0
 40
45.72
 41
30.0
 46
0.0
 71
     7
 72
     1
  1
{\fＭＳ ゴシック|b0|i0|c128|p49;9}
 73
     1
 44
1.0
  0
MTEXT
  5
1C3
330
1F
100
AcDbEntity
  8
1-B
  6
Continuous
 62
     7
370
   211
100
AcDbMText
 10
1169.368949480206
 20
1453.935655343258
 30
0.0
 40
45.72
 41
30.0
 46
0.0
 71
     7
 72
     1
  1
{\fＭＳ ゴシック|b0|i0|c128|p49;9}
 73
     1
 44
1.0
  0
MTEXT
  5
1C4
330
1F
100
AcDbEntity
  8
1-B
  6
Continuous
 62
     7
370
   211
100
AcDbMText
 10
1641.871852859831
 20
1292.223908004017
 30
0.0
 40
45.72
 41
30.0
 46
0.0
 71
     7
 72
     1
  1
{\fＭＳ ゴシック|b0|i0|c128|p49;9}
 11
6.123031769111886E-17
 21
1.0
 31
0.0
 73
     1
 44
1.0
  0
MTEXT
  5
1C5
330
1F
100
AcDbEntity
  8
1-B
  6
Continuous
 62
     7
370
   211
100
AcDbMText
 10
1641.871852859831
 20
1241.428923606831
 30
0.0
 40
45.72
 41
30.0
 46
0.0
 71
     7
 72
     1
  1
{\fＭＳ ゴシック|b0|i0|c128|p49;6}
 11
6.123031769111886E-17
 21
1.0
 31
0.0
 73
     1
 44
1.0
  0
MTEXT
  5
1C6
330
1F
100
AcDbEntity
  8
1-B
  6
Continuous
 62
     7
370
   211
100
AcDbMText
 10
1720.811160689261
 20
1207.638377821588
 30
0.0
 40
49.53
 41
65.0
 46
0.0
 71
     7
 72
     1
  1
{\fＭＳ ゴシック|b0|i0|c128|p49;30}
 11
6.123031769111886E-17
 21
1.0
 31
0.0
 73
     1
 44
1.0
  0
MTEXT
  5
1C7
330
1F
100
AcDbEntity
  8
1-B
  6
Continuous
 62
     7
370
   211
100
AcDbMText
 10
1641.871852859831
 20
1154.420384187993
 30
0.0
 40
45.72
 41
60.0
 46
0.0
 71
     7
 72
     1
  1
{\fＭＳ ゴシック|b0|i0|c128|p49;15}
 11
6.123031769111886E-17
 21
1.0
 31
0.0
 73
     1
 44
1.0
  0
MTEXT
  5
1C8
330
1F
100
AcDbEntity
  8
1-B
  6
Continuous
 62
     7
370
   211
100
AcDbMText
 10
1199.209456431763
 20
1101.863096702034
 30
0.0
 40
49.52999999999997
 41
64.99999999999997
 46
0.0
 71
     7
 72
     1
  1
{\fＭＳ ゴシック|b0|i0|c128|p49;35}
 11
0.9107287189557539
 21
-0.4130050852825077
 31
0.0
 73
     1
 44
1.0
  0
MTEXT
  5
1C9
330
1F
100
AcDbEntity
  8
1-B
  6
Continuous
 62
     7
370
   211
100
AcDbMText
 10
1409.825638889218
 20
1054.382270207522
 30
0.0
 40
49.53000000000004
 41
65.00000000000004
 46
0.0
 71
     7
 72
     1
  1
{\fＭＳ ゴシック|b0|i0|c128|p49;35}
 11
0.9995920864605037
 21
0.02855977390556931
 31
0.0
 73
     1
 44
1.0
  0
MTEXT
  5
1CA
330
1F
100
AcDbEntity
  8
F-A
  6
Continuous
 62
     7
370
     0
100
AcDbMText
 10
-348.3338392103036
 20
2656.551787637247
 30
0.0
 40
64.77
 41
170.0
 46
0.0
 71
     7
 72
     1
  1
{\fＭＳ ゴシック|b0|i0|c128|p49;梱包}
 73
     1
 44
1.0
  0
MTEXT
  5
1CB
330
1F
100
AcDbEntity
  8
F-A
  6
Continuous
 62
     7
370
     0
100
AcDbMText
 10
3548.332898938979
 20
2656.551787637247
 30
0.0
 40
64.77
 41
170.0
 46
0.0
 71
     7
 72
     1
  1
{\fＭＳ ゴシック|b0|i0|c128|p49;梱包}
 73
     1
 44
1.0
  0
MTEXT
  5
1CC
330
1F
100
AcDbEntity
  8
F-A
  6
Continuous
 62
     7
370
     0
100
AcDbMText
 10
-1388.333839210304
 20
2656.535704048775
 30
0.0
 40
64.77
 41
170.0
 46
0.0
 71
     7
 72
     1
  1
{\fＭＳ ゴシック|b0|i0|c128|p49;寸法}
 73
     1
 44
1.0
  0
MTEXT
  5
1CD
330
1F
100
AcDbEntity
  8
F-A
  6
Continuous
 62
     7
370
     0
100
AcDbMText
 10
2508.333146378801
 20
2656.535704048775
 30
0.0
 40
64.77
 41
170.0
 46
0.0
 71
     7
 72
     1
  1
{\fＭＳ ゴシック|b0|i0|c128|p49;寸法}
 73
     1
 44
1.0
  0
MTEXT
  5
1CE
330
1F
100
AcDbEntity
  8
F-A
  6
Continuous
 62
     7
370
     0
100
AcDbMText
 10
-3773.333208238756
 20
2584.686919605152
 30
0.0
 40
66.04
 41
260.0
 46
0.0
 71
     7
 72
     1
  1
{\fＭＳ ゴシック|b0|i0|c128|p49;部材名}
 73
     1
 44
1.0
  0
MTEXT
  5
1CF
330
1F
100
AcDbEntity
  8
F-A
  6
Continuous
 62
     7
370
     0
100
AcDbMText
 10
-798.3338392103042
 20
2584.051919605152
 30
0.0
 40
64.77
 41
170.0
 46
0.0
 71
     7
 72
     1
  1
{\fＭＳ ゴシック|b0|i0|c128|p49;品番}
 73
     1
 44
1.0
  0
MTEXT
  5
1D0
330
1F
100
AcDbEntity
  8
F-A
  6
Continuous
 62
     7
370
     0
100
AcDbMText
 10
123.3328494510135
 20
2584.686919605152
 30
0.0
 40
66.04
 41
260.0
 46
0.0
 71
     7
 72
     1
  1
{\fＭＳ ゴシック|b0|i0|c128|p49;部材名}
 73
     1
 44
1.0
  0
MTEXT
  5
1D1
330
1F
100
AcDbEntity
  8
F-A
  6
Continuous
 62
     7
370
     0
100
AcDbMText
 10
-2623.333719614389
 20
2585.004287637247
 30
0.0
 40
66.675
 41
350.0
 46
0.0
 71
     7
 72
     1
  1
{\fＭＳ ゴシック|b0|i0|c128|p49;断面形状}
 73
     1
 44
1.0
  0
MTEXT
  5
1D2
330
1F
100
AcDbEntity
  8
F-A
  6
Continuous
 62
     7
370
     0
100
AcDbMText
 10
1273.333327834671
 20
2585.004287637247
 30
0.0
 40
66.675
 41
350.0
 46
0.0
 71
     7
 72
     1
  1
{\fＭＳ ゴシック|b0|i0|c128|p49;断面形状}
 73
     1
 44
1.0
  0
MTEXT
  5
1D3
330
1F
100
AcDbEntity
  8
F-A
  6
Continuous
 62
     7
370
     0
100
AcDbMText
 10
3098.333146378801
 20
2584.035836016682
 30
0.0
 40
64.77
 41
170.0
 46
0.0
 71
     7
 72
     1
  1
{\fＭＳ ゴシック|b0|i0|c128|p49;品番}
 73
     1
 44
1.0
  0
MTEXT
  5
1D4
330
1F
100
AcDbEntity
  8
F-A
  6
Continuous
 62
     7
370
     0
100
AcDbMText
 10
-348.3338392103036
 20
2508.218542282799
 30
0.0
 40
64.77
 41
170.0
 46
0.0
 71
     7
 72
     1
  1
{\fＭＳ ゴシック|b0|i0|c128|p49;入数}
 73
     1
 44
1.0
  0
MTEXT
  5
1D5
330
1F
100
AcDbEntity
  8
F-A
  6
Continuous
 62
     7
370
     0
100
AcDbMText
 10
3548.332898938979
 20
2508.218542282799
 30
0.0
 40
64.77
 41
170.0
 46
0.0
 71
     7
 72
     1
  1
{\fＭＳ ゴシック|b0|i0|c128|p49;入数}
 73
     1
 44
1.0
  0
MTEXT
  5
1D6
330
1F
100
AcDbEntity
  8
F-A
  6
Continuous
 62
     7
370
     0
100
AcDbMText
 10
-1573.333839210304
 20
2498.677458694328
 30
0.0
 40
45.72
 41
540.0
 46
0.0
 71
     7
 72
     1
  1
{\fＭＳ ゴシック|b0|i0|c128|p49;長さ×幅×厚さ(㎜)}
 73
     1
 44
1.0
  0
MTEXT
  5
1D7
330
1F
100
AcDbEntity
  8
F-A
  6
Continuous
 62
     7
370
     0
100
AcDbMText
 10
2323.333146378801
 20
2498.677458694328
 30
0.0
 40
45.72
 41
540.0
 46
0.0
 71
     7
 72
     1
  1
{\fＭＳ ゴシック|b0|i0|c128|p49;長さ×幅×厚さ(㎜)}
 73
     1
 44
1.0
  0
MTEXT
  5
1D8
330
1F
100
AcDbEntity
  8
F-A
  6
Continuous
 62
     7
370
     0
100
AcDbMText
 10
-3493.333326803671
 20
-2696.83262405226
 30
0.0
 40
53.00133333333331
 41
1565.0
 46
0.0
 71
     7
 72
     1
  1
{\fＭＳ ゴシック|b0|i0|c128|p49;ピノアース　洋風造作材　廻り縁･コーナー廻り縁}
 73
     1
 44
1.0
  0
MTEXT
  5
1D9
330
1F
100
AcDbEntity
  8
1-A
  6
Continuous
 62
     7
370
     9
100
AcDbMText
 10
633.3330144108953
 20
2111.313621217796
 30
0.0
 40
60.96
 41
80.0
 46
0.0
 71
     7
 72
     1
  1
{\fＭＳ ゴシック|b0|i0|c128|p49;出}
 73
     1
 44
1.0
  0
MTEXT
  5
1DA
330
1F
100
AcDbEntity
  8
1-A
  6
Continuous
 62
     7
370
     9
100
AcDbMText
 10
633.3330144108953
 20
2007.146947892593
 30
0.0
 40
60.96
 41
80.0
 46
0.0
 71
     7
 72
     1
  1
{\fＭＳ ゴシック|b0|i0|c128|p49;隅}
 73
     1
 44
1.0
  0
MTEXT
  5
1DB
330
1F
100
AcDbEntity
  8
1-A
  6
Continuous
 62
     7
370
     9
100
AcDbMText
 10
633.3330144108953
 20
1902.98027456739
 30
0.0
 40
60.96
 41
80.0
 46
0.0
 71
     7
 72
     1
  1
{\fＭＳ ゴシック|b0|i0|c128|p49;用}
 73
     1
 44
1.0
  0
MTEXT
  5
1DC
330
1F
100
AcDbEntity
  8
1-A
  6
Continuous
 62
     7
370
     9
100
AcDbMText
 10
633.3330144108953
 20
1173.813561225927
 30
0.0
 40
60.96
 41
80.0
 46
0.0
 71
     7
 72
     1
  1
{\fＭＳ ゴシック|b0|i0|c128|p49;隅}
 73
     1
 44
1.0
  0
MTEXT
  5
1DD
330
1F
100
AcDbEntity
  8
1-A
  6
Continuous
 62
     7
370
     9
100
AcDbMText
 10
633.3330144108953
 20
1069.646887900723
 30
0.0
 40
60.96
 41
80.0
 46
0.0
 71
     7
 72
     1
  1
{\fＭＳ ゴシック|b0|i0|c128|p49;用}
 73
     1
 44
1.0
  0
MTEXT
  5
1DE
330
1F
100
AcDbEntity
  8
1-A
  6
Continuous
 62
     7
370
     9
100
AcDbMText
 10
633.3330144108953
 20
1277.98023455113
 30
0.0
 40
60.96
 41
80.0
 46
0.0
 71
     7
 72
     1
  1
{\fＭＳ ゴシック|b0|i0|c128|p49;入}
 73
     1
 44
1.0
  0
LINE
  5
1DF
330
1F
100
AcDbEntity
  8
F-1
  6
Continuous
 62
     7
370
     9
100
AcDbLine
 10
743.3330144108953
 20
2473.333641258446
 30
0.0
 11
743.3330144108953
 21
806.6668679251126
 31
0.0
  0
MTEXT
  5
1E0
330
1F
100
AcDbEntity
  8
0-A
  6
Continuous
 62
     7
370
     9
100
AcDbMText
 10
-983.3338392103042
 20
2384.110304563325
 30
0.0
 40
45.71999999999999
 41
390.0
 46
0.0
 71
     7
 72
     1
  1
{\fＭＳ ゴシック|b0|i0|c128|p49;ＤＩＮＰ23-□}
 73
     1
 44
1.0
  0
MTEXT
  5
1E1
330
1F
100
AcDbEntity
  8
0-A
  6
Continuous
 62
     7
370
     9
100
AcDbMText
 10
-983.3338392103042
 20
2279.943631205603
 30
0.0
 40
45.71999999999999
 41
390.0
 46
0.0
 71
     7
 72
     1
  1
{\fＭＳ ゴシック|b0|i0|c128|p49;ＤＩＮＰ63-□}
 73
     1
 44
1.0
  0
MTEXT
  5
1E2
330
1F
100
AcDbEntity
  8
0-A
  6
Continuous
 62
     7
370
     9
100
AcDbMText
 10
-983.3338392103042
 20
2175.776957880399
 30
0.0
 40
45.71999999999999
 41
390.0
 46
0.0
 71
     7
 72
     1
  1
{\fＭＳ ゴシック|b0|i0|c128|p49;ＤＩＮＰ03-□}
 73
     1
 44
1.0
  0
MTEXT
  5
1E3
330
1F
100
AcDbEntity
  8
1-A
  6
Continuous
 62
     7
370
     9
100
AcDbMText
 10
2913.333146378801
 20
2384.110304563325
 30
0.0
 40
45.72
 41
420.0
 46
0.0
 71
     7
 72
     1
  1
{\fＭＳ ゴシック|b0|i0|c128|p49;ＤＱＮＰＤ1-□}
 73
     1
 44
1.0
  0
MTEXT
  5
1E4
330
1F
100
AcDbEntity
  8
1-A
  6
Continuous
 62
     7
370
     9
100
AcDbMText
 10
2913.333146378801
 20
1550.776917896658
 30
0.0
 40
45.72
 41
420.0
 46
0.0
 71
     7
 72
     1
  1
{\fＭＳ ゴシック|b0|i0|c128|p49;ＤＱＮＰＩ1-□}
 73
     1
 44
1.0
  0
MTEXT
  5
1E5
330
1F
100
AcDbEntity
  8
F-A
  6
Continuous
 62
     7
370
     0
100
AcDbMText
 10
3150.832733979097
 20
-2625.380673426644
 30
0.0
 40
52.57799999999999
 41
345.0
 46
0.0
 71
     7
 72
     1
  1
{\fＭＳ ゴシック|b0|i0|c128|p49;2021.04.01}
 73
     1
 44
1.0
  0
MTEXT
  5
1E6
330
1F
100
AcDbEntity
  8
F-A
  6
Continuous
 62
     7
370
     0
100
AcDbMText
 10
233.3332783467063
 20
-2638.141527915001
 30
0.0
 40
38.09999999999999
 41
450.0
 46
0.0
 71
     7
 72
     1
  1
{\fＭＳ ゴシック|b0|i0|c128|p49;ＰＩＮＯＥＡＲＴＨ}
 73
     1
 44
1.0
  0
MTEXT
  5
1E7
330
1F
100
AcDbEntity
  8
F-A
  6
Continuous
 62
     7
370
     9
100
AcDbMText
 10
3290.832689053887
 20
-2765.238008466657
 30
0.0
 40
49.53
 41
65.0
 46
0.0
 71
     7
 72
     1
  1
{\fＭＳ ゴシック|b0|i0|c128|p49;01}
 73
     1
 44
1.0
  0
ENDSEC
  0
SECTION
  2
OBJECTS
  0
DICTIONARY
  5
C
330
0
100
AcDbDictionary
281
     1
  3
ACAD_GROUP
350
D
  3
ACAD_LAYOUT
350
1A
  3
ACAD_MATERIAL
350
3B
  3
ACAD_MLEADERSTYLE
350
1E9
  3
ACAD_MLINESTYLE
350
17
  3
ACAD_PLOTSETTINGS
350
19
  3
ACAD_PLOTSTYLENAME
350
E
  3
ACAD_TABLESTYLE
350
1E8
  3
ACAD_VISUALSTYLE
350
2A
  0
DICTIONARY
  5
D
102
{ACAD_REACTORS
330
C
102
}
330
C
100
AcDbDictionary
281
     1
  0
DICTIONARY
  5
1A
102
{ACAD_REACTORS
330
C
102
}
330
C
100
AcDbDictionary
281
     1
  3
Layout1
350
1E
  3
Layout2
350
26
  3
Model
350
22
  0
DICTIONARY
  5
3B
102
{ACAD_REACTORS
330
C
102
}
330
C
100
AcDbDictionary
281
     1
  3
ByBlock
350
3D
  3
ByLayer
350
3C
  3
Global
350
3E
  0
DICTIONARY
  5
1E9
102
{ACAD_REACTORS
330
C
102
}
330
C
100
AcDbDictionary
281
     1
  0
DICTIONARY
  5
17
102
{ACAD_REACTORS
330
C
102
}
330
C
100
AcDbDictionary
281
     1
  3
Standard
350
18
  0
DICTIONARY
  5
19
102
{ACAD_REACTORS
330
C
102
}
330
C
100
AcDbDictionary
281
     1
  0
ACDBDICTIONARYWDFLT
  5
E
102
{ACAD_REACTORS
330
C
102
}
330
C
100
AcDbDictionary
281
     1
  3
Normal
350
F
100
AcDbDictionaryWithDefault
340
F
  0
DICTIONARY
  5
1E8
102
{ACAD_REACTORS
330
C
102
}
330
C
100
AcDbDictionary
281
     1
  0
DICTIONARY
  5
2A
102
{ACAD_REACTORS
330
C
102
}
330
C
100
AcDbDictionary
281
     1
  3
2dWireframe
350
2F
  3
3D Hidden
350
31
  3
3dWireframe
350
30
  3
Basic
350
32
  3
Brighten
350
36
  3
ColorChange
350
3A
  3
Conceptual
350
34
  3
Dim
350
35
  3
Facepattern
350
39
  3
Flat
350
2B
  3
FlatWithEdges
350
2C
  3
Gouraud
350
2D
  3
GouraudWithEdges
350
2E
  3
Linepattern
350
38
  3
Realistic
350
33
  3
Thicken
350
37
  0
LAYOUT
  5
1E
102
{ACAD_REACTORS
330
1A
102
}
330
1A
100
AcDbPlotSettings
  1

  2
none_device
  4

  6

 40
0.0
 41
0.0
 42
0.0
 43
0.0
 44
0.0
 45
0.0
 46
0.0
 47
0.0
 48
0.0
 49
0.0
140
0.0
141
0.0
142
1.0
143
1.0
 70
   688
 72
     0
 73
     0
 74
     5
  7

 75
    16
 76
     0
 77
     5
 78
   300
147
1.0
148
0.0
149
0.0
100
AcDbLayout
  1
Layout1
 70
     1
 71
     1
 10
0.0
 20
0.0
 11
420.0
 21
297.0
 12
0.0
 22
0.0
 32
0.0
 14
1.000000000000000E+20
 24
1.000000000000000E+20
 34
1.000000000000000E+20
 15
-1.000000000000000E+20
 25
-1.000000000000000E+20
 35
-1.000000000000000E+20
146
0.0
 13
0.0
 23
0.0
 33
0.0
 16
1.0
 26
0.0
 36
0.0
 17
0.0
 27
1.0
 37
0.0
 76
     0
330
1B
  0
LAYOUT
  5
26
102
{ACAD_REACTORS
330
1A
102
}
330
1A
100
AcDbPlotSettings
  1

  2
none_device
  4

  6

 40
0.0
 41
0.0
 42
0.0
 43
0.0
 44
0.0
 45
0.0
 46
0.0
 47
0.0
 48
0.0
 49
0.0
140
0.0
141
0.0
142
1.0
143
1.0
 70
   688
 72
     0
 73
     0
 74
     5
  7

 75
    16
 76
     0
 77
     5
 78
   300
147
1.0
148
0.0
149
0.0
100
AcDbLayout
  1
Layout2
 70
     1
 71
     2
 10
0.0
 20
0.0
 11
0.0
 21
0.0
 12
0.0
 22
0.0
 32
0.0
 14
0.0
 24
0.0
 34
0.0
 15
0.0
 25
0.0
 35
0.0
146
0.0
 13
0.0
 23
0.0
 33
0.0
 16
1.0
 26
0.0
 36
0.0
 17
0.0
 27
1.0
 37
0.0
 76
     0
330
23
  0
LAYOUT
  5
22
102
{ACAD_REACTORS
330
1A
102
}
330
1A
100
AcDbPlotSettings
  1

  2
none_device
  4

  6

 40
0.0
 41
0.0
 42
0.0
 43
0.0
 44
0.0
 45
0.0
 46
0.0
 47
0.0
 48
0.0
 49
0.0
140
0.0
141
0.0
142
1.0
143
1.0
 70
  1712
 72
     0
 73
     0
 74
     0
  7

 75
     0
 76
     0
 77
     5
 78
   300
147
1.0
148
0.0
149
0.0
100
AcDbLayout
  1
Model
 70
     1
 71
     0
 10
-4200.0
 20
-2970.0
 11
4200.0
 21
2970.0
 12
0.0
 22
0.0
 32
0.0
 14
-4200.0
 24
-2970.0
 34
0.0
 15
4200.0
 25
2970.0
 35
0.0
146
0.0
 13
0.0
 23
0.0
 33
0.0
 16
1.0
 26
0.0
 36
0.0
 17
0.0
 27
1.0
 37
0.0
 76
     0
330
1F
331
29
  0
MATERIAL
  5
3D
102
{ACAD_REACTORS
330
3B
102
}
330
3B
100
AcDbMaterial
  1
ByBlock
 72
     1
 94
      127
  0
MATERIAL
  5
3C
102
{ACAD_REACTORS
330
3B
102
}
330
3B
100
AcDbMaterial
  1
ByLayer
 72
     1
 94
      127
  0
MATERIAL
  5
3E
102
{ACAD_REACTORS
330
3B
102
}
330
3B
100
AcDbMaterial
  1
Global
 72
     1
 94
      127
  0
MLINESTYLE
  5
18
102
{ACAD_REACTORS
330
17
102
}
330
17
100
AcDbMlineStyle
  2
Standard
 70
     0
  3

 62
   256
 51
90.0
 52
90.0
 71
     2
 49
0.5
 62
   256
  6
BYLAYER
 49
-0.5
 62
   256
  6
BYLAYER
  0
ACDBPLACEHOLDER
  5
F
102
{ACAD_REACTORS
330
E
102
}
330
E
  0
VISUALSTYLE
  5
2F
102
{ACAD_REACTORS
330
2A
102
}
330
2A
100
AcDbVisualStyle
  2
2dWireframe
 70
     4
177
     2
291
     0
 71
     0
176
     1
 72
     2
176
     1
 73
     0
176
     1
 90
        0
176
     1
 40
-0.6
176
     1
 41
-30.0
176
     1
 62
     5
 63
     7
421
 16777215
176
     1
 74
     1
176
     1
 91
        4
176
     1
 64
     7
176
     1
 65
   257
176
     1
 75
     1
176
     1
175
     1
176
     1
 42
1.0
176
     1
 92
        0
176
     1
 66
   257
176
     1
 43
1.0
176
     1
 76
     1
176
     1
 77
     6
176
     1
 78
     2
176
     1
 67
     7
176
     1
 79
     5
176
     1
170
     0
176
     1
171
     0
176
     1
290
     0
176
     1
 93
        1
176
     1
 44
0.0
176
     1
173
     0
176
     1
  0
VISUALSTYLE
  5
31
102
{ACAD_REACTORS
330
2A
102
}
330
2A
100
AcDbVisualStyle
  2
3D Hidden
 70
     6
177
     2
291
     0
 71
     1
176
     1
 72
     2
176
     1
 73
     2
176
     1
 90
        0
176
     1
 40
-0.6
176
     1
 41
-30.0
176
     1
 62
     5
 63
     7
421
 16777215
176
     1
 74
     2
176
     1
 91
        2
176
     1
 64
     7
176
     1
 65
   257
176
     1
 75
     2
176
     1
175
     1
176
     1
 42
40.0
176
     1
 92
        0
176
     1
 66
   257
176
     1
 43
1.0
176
     1
 76
     1
176
     1
 77
     6
176
     1
 78
     2
176
     1
 67
     7
176
     1
 79
     3
176
     1
170
     0
176
     1
171
     0
176
     1
290
     0
176
     1
 93
        1
176
     1
 44
0.0
176
     1
173
     0
176
     1
  0
VISUALSTYLE
  5
30
102
{ACAD_REACTORS
330
2A
102
}
330
2A
100
AcDbVisualStyle
  2
3dWireframe
 70
     5
177
     2
291
     0
 71
     0
176
     1
 72
     2
176
     1
 73
     0
176
     1
 90
        0
176
     1
 40
-0.6
176
     1
 41
-30.0
176
     1
 62
     5
 63
     7
421
 16777215
176
     1
 74
     1
176
     1
 91
        4
176
     1
 64
     7
176
     1
 65
   257
176
     1
 75
     1
176
     1
175
     1
176
     1
 42
1.0
176
     1
 92
        0
176
     1
 66
   257
176
     1
 43
1.0
176
     1
 76
     1
176
     1
 77
     6
176
     1
 78
     2
176
     1
 67
     7
176
     1
 79
     5
176
     1
170
     0
176
     1
171
     0
176
     1
290
     0
176
     1
 93
        1
176
     1
 44
0.0
176
     1
173
     0
176
     1
  0
VISUALSTYLE
  5
32
102
{ACAD_REACTORS
330
2A
102
}
330
2A
100
AcDbVisualStyle
  2
Basic
 70
     7
177
     2
291
     1
 71
     1
176
     1
 72
     0
176
     1
 73
     1
176
     1
 90
        0
176
     1
 40
-0.6
176
     1
 41
-30.0
176
     1
 62
     5
 63
     7
421
 16777215
176
     1
 74
     0
176
     1
 91
        4
176
     1
 64
     7
176
     1
 65
   257
176
     1
 75
     1
176
     1
175
     1
176
     1
 42
1.0
176
     1
 92
        8
176
     1
 66
     7
176
     1
 43
1.0
176
     1
 76
     1
176
     1
 77
     6
176
     1
 78
     2
176
     1
 67
     7
176
     1
 79
     5
176
     1
170
     0
176
     1
171
     0
176
     1
290
     0
176
     1
 93
        1
176
     1
 44
0.0
176
     1
173
     0
176
     1
  0
VISUALSTYLE
  5
36
102
{ACAD_REACTORS
330
2A
102
}
330
2A
100
AcDbVisualStyle
  2
Brighten
 70
    12
177
     2
291
     1
 71
     2
176
     1
 72
     2
176
     1
 73
     0
176
     1
 90
        0
176
     1
 40
-0.6
176
     1
 41
-30.0
176
     1
 62
     5
 63
     7
421
 16777215
176
     1
 74
     1
176
     1
 91
        4
176
     1
 64
     7
176
     1
 65
   257
176
     1
 75
     1
176
     1
175
     1
176
     1
 42
1.0
176
     1
 92
        8
176
     1
 66
     7
176
     1
 43
1.0
176
     1
 76
     1
176
     1
 77
     6
176
     1
 78
     2
176
     1
 67
     7
176
     1
 79
     5
176
     1
170
     0
176
     1
171
     0
176
     1
290
     0
176
     1
 93
        1
176
     1
 44
50.0
176
     1
173
     0
176
     1
  0
VISUALSTYLE
  5
3A
102
{ACAD_REACTORS
330
2A
102
}
330
2A
100
AcDbVisualStyle
  2
ColorChange
 70
    16
177
     2
291
     1
 71
     2
176
     1
 72
     2
176
     1
 73
     3
176
     1
 90
        0
176
     1
 40
-0.6
176
     1
 41
-30.0
176
     1
 62
     5
 63
     8
421
  8421504
176
     1
 74
     1
176
     1
 91
        4
176
     1
 64
     7
176
     1
 65
   257
176
     1
 75
     1
176
     1
175
     1
176
     1
 42
1.0
176
     1
 92
        8
176
     1
 66
     8
424
  8421504
176
     1
 43
1.0
176
     1
 76
     1
176
     1
 77
     6
176
     1
 78
     2
176
     1
 67
     7
176
     1
 79
     5
176
     1
170
     0
176
     1
171
     0
176
     1
290
     0
176
     1
 93
        1
176
     1
 44
0.0
176
     1
173
     0
176
     1
  0
VISUALSTYLE
  5
34
102
{ACAD_REACTORS
330
2A
102
}
330
2A
100
AcDbVisualStyle
  2
Conceptual
 70
     9
177
     2
291
     0
 71
     3
176
     1
 72
     2
176
     1
 73
     0
176
     1
 90
        0
176
     1
 40
-0.6
176
     1
 41
-30.0
176
     1
 62
     5
 63
     7
421
 16777215
176
     1
 74
     2
176
     1
 91
        2
176
     1
 64
     7
176
     1
 65
   257
176
     1
 75
     1
176
     1
175
     1
176
     1
 42
40.0
176
     1
 92
        8
176
     1
 66
     7
176
     1
 43
1.0
176
     1
 76
     1
176
     1
 77
     6
176
     1
 78
     2
176
     1
 67
     7
176
     1
 79
     3
176
     1
170
     0
176
     1
171
     0
176
     1
290
     0
176
     1
 93
        1
176
     1
 44
0.0
176
     1
173
     0
176
     1
  0
VISUALSTYLE
  5
35
102
{ACAD_REACTORS
330
2A
102
}
330
2A
100
AcDbVisualStyle
  2
Dim
 70
    11
177
     2
291
     1
 71
     2
176
     1
 72
     2
176
     1
 73
     0
176
     1
 90
        0
176
     1
 40
-0.6
176
     1
 41
-30.0
176
     1
 62
     5
 63
     7
421
 16777215
176
     1
 74
     1
176
     1
 91
        4
176
     1
 64
     7
176
     1
 65
   257
176
     1
 75
     1
176
     1
175
     1
176
     1
 42
1.0
176
     1
 92
        8
176
     1
 66
     7
176
     1
 43
1.0
176
     1
 76
     1
176
     1
 77
     6
176
     1
 78
     2
176
     1
 67
     7
176
     1
 79
     5
176
     1
170
     0
176
     1
171
     0
176
     1
290
     0
176
     1
 93
        1
176
     1
 44
-50.0
176
     1
173
     0
176
     1
  0
VISUALSTYLE
  5
39
102
{ACAD_REACTORS
330
2A
102
}
330
2A
100
AcDbVisualStyle
  2
Facepattern
 70
    15
177
     2
291
     1
 71
     2
176
     1
 72
     2
176
     1
 73
     0
176
     1
 90
        0
176
     1
 40
-0.6
176
     1
 41
-30.0
176
     1
 62
     5
 63
     7
421
 16777215
176
     1
 74
     1
176
     1
 91
        4
176
     1
 64
     7
176
     1
 65
   257
176
     1
 75
     1
176
     1
175
     1
176
     1
 42
1.0
176
     1
 92
        8
176
     1
 66
     7
176
     1
 43
1.0
176
     1
 76
     1
176
     1
 77
     6
176
     1
 78
     2
176
     1
 67
     7
176
     1
 79
     5
176
     1
170
     0
176
     1
171
     0
176
     1
290
     0
176
     1
 93
        1
176
     1
 44
0.0
176
     1
173
     0
176
     1
  0
VISUALSTYLE
  5
2B
102
{ACAD_REACTORS
330
2A
102
}
330
2A
100
AcDbVisualStyle
  2
Flat
 70
     0
177
     2
291
     1
 71
     2
176
     1
 72
     1
176
     1
 73
     1
176
     1
 90
        2
176
     1
 40
-0.6
176
     1
 41
30.0
176
     1
 62
     5
 63
     7
421
 16777215
176
     1
 74
     0
176
     1
 91
        4
176
     1
 64
     7
176
     1
 65
   257
176
     1
 75
     1
176
     1
175
     1
176
     1
 42
1.0
176
     1
 92
        8
176
     1
 66
     7
176
     1
 43
1.0
176
     1
 76
     1
176
     1
 77
     6
176
     1
 78
     2
176
     1
 67
     7
176
     1
 79
     5
176
     1
170
     0
176
     1
171
     0
176
     1
290
     0
176
     1
 93
       13
176
     1
 44
0.0
176
     1
173
     0
176
     1
  0
VISUALSTYLE
  5
2C
102
{ACAD_REACTORS
330
2A
102
}
330
2A
100
AcDbVisualStyle
  2
FlatWithEdges
 70
     1
177
     2
291
     1
 71
     2
176
     1
 72
     1
176
     1
 73
     1
176
     1
 90
        2
176
     1
 40
-0.6
176
     1
 41
30.0
176
     1
 62
     5
 63
     7
421
 16777215
176
     1
 74
     1
176
     1
 91
        4
176
     1
 64
     7
176
     1
 65
   257
176
     1
 75
     1
176
     1
175
     1
176
     1
 42
1.0
176
     1
 92
        0
176
     1
 66
   257
176
     1
 43
1.0
176
     1
 76
     1
176
     1
 77
     6
176
     1
 78
     2
176
     1
 67
     7
176
     1
 79
     5
176
     1
170
     0
176
     1
171
     0
176
     1
290
     0
176
     1
 93
       13
176
     1
 44
0.0
176
     1
173
     0
176
     1
  0
VISUALSTYLE
  5
2D
102
{ACAD_REACTORS
330
2A
102
}
330
2A
100
AcDbVisualStyle
  2
Gouraud
 70
     2
177
     2
291
     1
 71
     2
176
     1
 72
     2
176
     1
 73
     1
176
     1
 90
        2
176
     1
 40
-0.6
176
     1
 41
30.0
176
     1
 62
     5
 63
     7
421
 16777215
176
     1
 74
     0
176
     1
 91
        4
176
     1
 64
     7
176
     1
 65
   257
176
     1
 75
     1
176
     1
175
     1
176
     1
 42
1.0
176
     1
 92
        0
176
     1
 66
     7
176
     1
 43
1.0
176
     1
 76
     1
176
     1
 77
     6
176
     1
 78
     2
176
     1
 67
     7
176
     1
 79
     5
176
     1
170
     0
176
     1
171
     0
176
     1
290
     0
176
     1
 93
       13
176
     1
 44
0.0
176
     1
173
     0
176
     1
  0
VISUALSTYLE
  5
2E
102
{ACAD_REACTORS
330
2A
102
}
330
2A
100
AcDbVisualStyle
  2
GouraudWithEdges
 70
     3
177
     2
291
     1
 71
     2
176
     1
 72
     2
176
     1
 73
     1
176
     1
 90
        2
176
     1
 40
-0.6
176
     1
 41
30.0
176
     1
 62
     5
 63
     7
421
 16777215
176
     1
 74
     1
176
     1
 91
        4
176
     1
 64
     7
176
     1
 65
   257
176
     1
 75
     1
176
     1
175
     1
176
     1
 42
1.0
176
     1
 92
        0
176
     1
 66
   257
176
     1
 43
1.0
176
     1
 76
     1
176
     1
 77
     6
176
     1
 78
     2
176
     1
 67
     7
176
     1
 79
     5
176
     1
170
     0
176
     1
171
     0
176
     1
290
     0
176
     1
 93
       13
176
     1
 44
0.0
176
     1
173
     0
176
     1
  0
VISUALSTYLE
  5
38
102
{ACAD_REACTORS
330
2A
102
}
330
2A
100
AcDbVisualStyle
  2
Linepattern
 70
    14
177
     2
291
     1
 71
     2
176
     1
 72
     2
176
     1
 73
     0
176
     1
 90
        0
176
     1
 40
-0.6
176
     1
 41
-30.0
176
     1
 62
     5
 63
     7
421
 16777215
176
     1
 74
     1
176
     1
 91
        4
176
     1
 64
     7
176
     1
 65
   257
176
     1
 75
     7
176
     1
175
     7
176
     1
 42
1.0
176
     1
 92
        8
176
     1
 66
     7
176
     1
 43
1.0
176
     1
 76
     1
176
     1
 77
     6
176
     1
 78
     2
176
     1
 67
     7
176
     1
 79
     5
176
     1
170
     0
176
     1
171
     0
176
     1
290
     0
176
     1
 93
        1
176
     1
 44
0.0
176
     1
173
     0
176
     1
  0
VISUALSTYLE
  5
33
102
{ACAD_REACTORS
330
2A
102
}
330
2A
100
AcDbVisualStyle
  2
Realistic
 70
     8
177
     2
291
     0
 71
     2
176
     1
 72
     2
176
     1
 73
     0
176
     1
 90
        0
176
     1
 40
-0.6
176
     1
 41
-30.0
176
     1
 62
     5
 63
     7
421
 16777215
176
     1
 74
     1
176
     1
 91
        0
176
     1
 64
     7
176
     1
 65
   257
176
     1
 75
     1
176
     1
175
     1
176
     1
 42
1.0
176
     1
 92
        8
176
     1
 66
     8
424
  7895160
176
     1
 43
1.0
176
     1
 76
     1
176
     1
 77
     6
176
     1
 78
     2
176
     1
 67
     7
176
     1
 79
     5
176
     1
170
     0
176
     1
171
     0
176
     1
290
     0
176
     1
 93
       13
176
     1
 44
0.0
176
     1
173
     0
176
     1
  0
VISUALSTYLE
  5
37
102
{ACAD_REACTORS
330
2A
102
}
330
2A
100
AcDbVisualStyle
  2
Thicken
 70
    13
177
     2
291
     1
 71
     2
176
     1
 72
     2
176
     1
 73
     0
176
     1
 90
        0
176
     1
 40
-0.6
176
     1
 41
-30.0
176
     1
 62
     5
 63
     7
421
 16777215
176
     1
 74
     1
176
     1
 91
        4
176
     1
 64
     7
176
     1
 65
   257
176
     1
 75
     1
176
     1
175
     1
176
     1
 42
1.0
176
     1
 92
       12
176
     1
 66
     7
176
     1
 43
1.0
176
     1
 76
     1
176
     1
 77
     6
176
     1
 78
     2
176
     1
 67
     7
176
     1
 79
     5
176
     1
170
     0
176
     1
171
     0
176
     1
290
     0
176
     1
 93
        1
176
     1
 44
0.0
176
     1
173
     0
176
     1
  0
ENDSEC
  0
EOF
