  0
SECTION
  2
HEADER
  9
$ACADVER
  1
AC1024
  9
$ACADMAINTVER
 70
     6
  9
$DWGCODEPAGE
  3
ANSI_932
  9
$INSBASE
 10
0.0
 20
0.0
 30
0.0
  9
$EXTMIN
 10
-4200.0
 20
-2970.0
 30
0.0
  9
$EXTMAX
 10
4200.0
 20
2970.0
 30
0.0
  9
$LIMMIN
 10
-4200.0
 20
-2970.0
  9
$LIMMAX
 10
4200.0
 20
2970.0
  9
$ORTHOMODE
 70
     0
  9
$REGENMODE
 70
     1
  9
$FILLMODE
 70
     1
  9
$QTEXTMODE
 70
     0
  9
$MIRRTEXT
 70
     1
  9
$LTSCALE
 40
20.0
  9
$ATTMODE
 70
     1
  9
$TEXTSIZE
 40
2.5
  9
$TRACEWID
 40
1.0
  9
$TEXTSTYLE
  7
Standard
  9
$CLAYER
  8
0
  9
$CELTYPE
  6
ByLayer
  9
$CECOLOR
 62
   256
  9
$CELTSCALE
 40
1.0
  9
$DISPSILH
 70
     0
  9
$DIMSCALE
 40
1.0
  9
$DIMASZ
 40
2.5
  9
$DIMEXO
 40
0.625
  9
$DIMDLI
 40
3.75
  9
$DIMRND
 40
0.0
  9
$DIMDLE
 40
0.0
  9
$DIMEXE
 40
1.25
  9
$DIMTP
 40
0.0
  9
$DIMTM
 40
0.0
  9
$DIMTXT
 40
2.5
  9
$DIMCEN
 40
2.5
  9
$DIMTSZ
 40
0.0
  9
$DIMTOL
 70
     0
  9
$DIMLIM
 70
     0
  9
$DIMTIH
 70
     0
  9
$DIMTOH
 70
     0
  9
$DIMSE1
 70
     0
  9
$DIMSE2
 70
     0
  9
$DIMTAD
 70
     1
  9
$DIMZIN
 70
     8
  9
$DIMBLK
  1

  9
$DIMASO
 70
     1
  9
$DIMSHO
 70
     1
  9
$DIMPOST
  1

  9
$DIMAPOST
  1

  9
$DIMALT
 70
     0
  9
$DIMALTD
 70
     3
  9
$DIMALTF
 40
0.03937007874016
  9
$DIMLFAC
 40
1.0
  9
$DIMTOFL
 70
     1
  9
$DIMTVP
 40
0.0
  9
$DIMTIX
 70
     0
  9
$DIMSOXD
 70
     0
  9
$DIMSAH
 70
     0
  9
$DIMBLK1
  1

  9
$DIMBLK2
  1

  9
$DIMSTYLE
  2
ISO-25
  9
$DIMCLRD
 70
     0
  9
$DIMCLRE
 70
     0
  9
$DIMCLRT
 70
     0
  9
$DIMTFAC
 40
1.0
  9
$DIMGAP
 40
0.625
  9
$DIMJUST
 70
     0
  9
$DIMSD1
 70
     0
  9
$DIMSD2
 70
     0
  9
$DIMTOLJ
 70
     0
  9
$DIMTZIN
 70
     8
  9
$DIMALTZ
 70
     0
  9
$DIMALTTZ
 70
     0
  9
$DIMUPT
 70
     0
  9
$DIMDEC
 70
     2
  9
$DIMTDEC
 70
     2
  9
$DIMALTU
 70
     2
  9
$DIMALTTD
 70
     3
  9
$DIMTXSTY
  7
Standard
  9
$DIMAUNIT
 70
     0
  9
$DIMADEC
 70
     0
  9
$DIMALTRND
 40
0.0
  9
$DIMAZIN
 70
     0
  9
$DIMDSEP
 70
    44
  9
$DIMATFIT
 70
     3
  9
$DIMFRAC
 70
     0
  9
$DIMLDRBLK
  1

  9
$DIMLUNIT
 70
     2
  9
$DIMLWD
 70
    -2
  9
$DIMLWE
 70
    -2
  9
$DIMTMOVE
 70
     0
  9
$DIMFXL
 40
1.0
  9
$DIMFXLON
 70
     0
  9
$DIMJOGANG
 40
0.7853981633974483
  9
$DIMTFILL
 70
     0
  9
$DIMTFILLCLR
 70
     0
  9
$DIMARCSYM
 70
     0
  9
$DIMLTYPE
  6

  9
$DIMLTEX1
  6

  9
$DIMLTEX2
  6

  9
$DIMTXTDIRECTION
 70
     0
  9
$LUNITS
 70
     2
  9
$LUPREC
 70
     4
  9
$SKETCHINC
 40
1.0
  9
$FILLETRAD
 40
10.0
  9
$AUNITS
 70
     0
  9
$AUPREC
 70
     0
  9
$MENU
  1
.
  9
$ELEVATION
 40
0.0
  9
$PELEVATION
 40
0.0
  9
$THICKNESS
 40
0.0
  9
$LIMCHECK
 70
     0
  9
$CHAMFERA
 40
10.0
  9
$CHAMFERB
 40
10.0
  9
$CHAMFERC
 40
20.0
  9
$CHAMFERD
 40
0.0
  9
$SKPOLY
 70
     0
  9
$TDCREATE
 40
2459432.545280926
  9
$TDUCREATE
 40
2459432.170280926
  9
$TDUPDATE
 40
2459432.545280938
  9
$TDUUPDATE
 40
2459432.170280938
  9
$TDINDWG
 40
0.0000000116
  9
$TDUSRTIMER
 40
0.0000000116
  9
$USRTIMER
 70
     1
  9
$ANGBASE
 50
0.0
  9
$ANGDIR
 70
     0
  9
$PDMODE
 70
     0
  9
$PDSIZE
 40
0.0
  9
$PLINEWID
 40
0.0
  9
$SPLFRAME
 70
     0
  9
$SPLINETYPE
 70
     6
  9
$SPLINESEGS
 70
     8
  9
$HANDSEED
  5
485
  9
$SURFTAB1
 70
     6
  9
$SURFTAB2
 70
     6
  9
$SURFTYPE
 70
     6
  9
$SURFU
 70
     6
  9
$SURFV
 70
     6
  9
$UCSBASE
  2

  9
$UCSNAME
  2

  9
$UCSORG
 10
0.0
 20
0.0
 30
0.0
  9
$UCSXDIR
 10
1.0
 20
0.0
 30
0.0
  9
$UCSYDIR
 10
0.0
 20
1.0
 30
0.0
  9
$UCSORTHOREF
  2

  9
$UCSORTHOVIEW
 70
     0
  9
$UCSORGTOP
 10
0.0
 20
0.0
 30
0.0
  9
$UCSORGBOTTOM
 10
0.0
 20
0.0
 30
0.0
  9
$UCSORGLEFT
 10
0.0
 20
0.0
 30
0.0
  9
$UCSORGRIGHT
 10
0.0
 20
0.0
 30
0.0
  9
$UCSORGFRONT
 10
0.0
 20
0.0
 30
0.0
  9
$UCSORGBACK
 10
0.0
 20
0.0
 30
0.0
  9
$PUCSBASE
  2

  9
$PUCSNAME
  2

  9
$PUCSORG
 10
0.0
 20
0.0
 30
0.0
  9
$PUCSXDIR
 10
1.0
 20
0.0
 30
0.0
  9
$PUCSYDIR
 10
0.0
 20
1.0
 30
0.0
  9
$PUCSORTHOREF
  2

  9
$PUCSORTHOVIEW
 70
     0
  9
$PUCSORGTOP
 10
0.0
 20
0.0
 30
0.0
  9
$PUCSORGBOTTOM
 10
0.0
 20
0.0
 30
0.0
  9
$PUCSORGLEFT
 10
0.0
 20
0.0
 30
0.0
  9
$PUCSORGRIGHT
 10
0.0
 20
0.0
 30
0.0
  9
$PUCSORGFRONT
 10
0.0
 20
0.0
 30
0.0
  9
$PUCSORGBACK
 10
0.0
 20
0.0
 30
0.0
  9
$USERI1
 70
     0
  9
$USERI2
 70
     0
  9
$USERI3
 70
     0
  9
$USERI4
 70
     0
  9
$USERI5
 70
     0
  9
$USERR1
 40
0.0
  9
$USERR2
 40
0.0
  9
$USERR3
 40
0.0
  9
$USERR4
 40
0.0
  9
$USERR5
 40
0.0
  9
$WORLDVIEW
 70
     1
  9
$SHADEDGE
 70
     3
  9
$SHADEDIF
 70
    70
  9
$TILEMODE
 70
     1
  9
$MAXACTVP
 70
    64
  9
$PINSBASE
 10
0.0
 20
0.0
 30
0.0
  9
$PLIMCHECK
 70
     0
  9
$PEXTMIN
 10
1.000000000000000E+20
 20
1.000000000000000E+20
 30
1.000000000000000E+20
  9
$PEXTMAX
 10
-1.000000000000000E+20
 20
-1.000000000000000E+20
 30
-1.000000000000000E+20
  9
$PLIMMIN
 10
0.0
 20
0.0
  9
$PLIMMAX
 10
420.0
 20
297.0
  9
$UNITMODE
 70
     0
  9
$VISRETAIN
 70
     1
  9
$PLINEGEN
 70
     0
  9
$PSLTSCALE
 70
     1
  9
$TREEDEPTH
 70
  3020
  9
$CMLSTYLE
  2
Standard
  9
$CMLJUST
 70
     0
  9
$CMLSCALE
 40
20.0
  9
$PROXYGRAPHICS
 70
     1
  9
$MEASUREMENT
 70
     1
  9
$CELWEIGHT
370
    -1
  9
$ENDCAPS
280
     0
  9
$JOINSTYLE
280
     0
  9
$LWDISPLAY
290
     0
  9
$INSUNITS
 70
     4
  9
$HYPERLINKBASE
  1

  9
$STYLESHEET
  1

  9
$XEDIT
290
     1
  9
$CEPSNTYPE
380
     0
  9
$PSTYLEMODE
290
     1
  9
$FINGERPRINTGUID
  2
{EAF923C0-A083-4E1B-82C5-C65729EDA316}
  9
$VERSIONGUID
  2
{FAEB1C32-E019-11D5-929B-00C0DF256EC4}
  9
$EXTNAMES
290
     1
  9
$PSVPSCALE
 40
0.0
  9
$OLESTARTUP
290
     0
  9
$SORTENTS
280
   127
  9
$INDEXCTL
280
     0
  9
$HIDETEXT
280
     1
  9
$XCLIPFRAME
280
     2
  9
$HALOGAP
280
     0
  9
$OBSCOLOR
 70
   257
  9
$OBSLTYPE
280
     0
  9
$INTERSECTIONDISPLAY
280
     0
  9
$INTERSECTIONCOLOR
 70
   257
  9
$DIMASSOC
280
     2
  9
$PROJECTNAME
  1

  9
$CAMERADISPLAY
290
     0
  9
$LENSLENGTH
 40
50.0
  9
$CAMERAHEIGHT
 40
0.0
  9
$STEPSPERSEC
 40
2.0
  9
$STEPSIZE
 40
6.0
  9
$3DDWFPREC
 40
2.0
  9
$PSOLWIDTH
 40
5.0
  9
$PSOLHEIGHT
 40
80.0
  9
$LOFTANG1
 40
1.570796326794897
  9
$LOFTANG2
 40
1.570796326794897
  9
$LOFTMAG1
 40
0.0
  9
$LOFTMAG2
 40
0.0
  9
$LOFTPARAM
 70
     7
  9
$LOFTNORMALS
280
     1
  9
$LATITUDE
 40
37.795
  9
$LONGITUDE
 40
-122.394
  9
$NORTHDIRECTION
 40
0.0
  9
$TIMEZONE
 70
 -8000
  9
$LIGHTGLYPHDISPLAY
280
     1
  9
$TILEMODELIGHTSYNCH
280
     1
  9
$SOLIDHIST
280
     1
  9
$SHOWHIST
280
     1
  9
$DWFFRAME
280
     2
  9
$DGNFRAME
280
     2
  9
$REALWORLDSCALE
290
     1
  9
$INTERFERECOLOR
 62
   256
  9
$CSHADOW
280
     0
  9
$SHADOWPLANELOCATION
 40
0.0
  0
ENDSEC
  0
SECTION
  2
CLASSES
  0
CLASS
  1
ACDBDICTIONARYWDFLT
  2
AcDbDictionaryWithDefault
  3
ObjectDBX Classes
 90
        0
 91
        4
280
     0
281
     0
  0
CLASS
  1
VISUALSTYLE
  2
AcDbVisualStyle
  3
ObjectDBX Classes
 90
     4095
 91
        4
280
     0
281
     0
  0
CLASS
  1
MATERIAL
  2
AcDbMaterial
  3
ObjectDBX Classes
 90
     1153
 91
        4
280
     0
281
     0
  0
ENDSEC
  0
SECTION
  2
TABLES
  0
TABLE
  2
VPORT
  5
8
330
0
100
AcDbSymbolTable
 70
     1
  0
VPORT
  5
29
330
8
100
AcDbSymbolTableRecord
100
AcDbViewportTableRecord
  2
*Active
 70
     0
 10
0.0
 20
0.0
 11
1.0
 21
1.0
 12
0.0
 22
0.0
 13
0.0
 23
0.0
 14
10.0
 24
10.0
 15
10.0
 25
10.0
 16
0.0
 26
0.0
 36
1.0
 17
0.0
 27
0.0
 37
0.0
 40
6534.000000000001
 41
1.414141414141414
 42
50.0
 43
0.0
 44
0.0
 50
0.0
 51
0.0
 71
     0
 72
 10000
 73
     1
 74
     3
 75
     0
 76
     0
 77
     0
 78
     0
281
     0
 65
     1
110
0.0
120
0.0
130
0.0
111
1.0
121
0.0
131
0.0
112
0.0
122
1.0
132
0.0
 79
     0
146
0.0
 60
     3
 61
     5
292
     1
282
     1
141
0.0
142
0.0
 63
   250
  0
ENDTAB
  0
TABLE
  2
LTYPE
  5
5
330
0
100
AcDbSymbolTable
 70
     3
  0
LTYPE
  5
14
330
5
100
AcDbSymbolTableRecord
100
AcDbLinetypeTableRecord
  2
ByBlock
 70
     0
  3

 72
    65
 73
     0
 40
0.0
  0
LTYPE
  5
15
330
5
100
AcDbSymbolTableRecord
100
AcDbLinetypeTableRecord
  2
ByLayer
 70
     0
  3

 72
    65
 73
     0
 40
0.0
  0
LTYPE
  5
16
330
5
100
AcDbSymbolTableRecord
100
AcDbLinetypeTableRecord
  2
Continuous
 70
     0
  3
Solid line
 72
    65
 73
     0
 40
0.0
  0
LTYPE
  5
3F
330
5
100
AcDbSymbolTableRecord
100
AcDbLinetypeTableRecord
  2
JWW_DASHED1
 70
     0
  3
-  --  --  --  --  --  --  --  -
 72
    65
 73
     2
 40
1.693333333333333
 49
0.8466666666666667
 74
     0
 49
-0.8466666666666667
 74
     0
  0
LTYPE
  5
40
330
5
100
AcDbSymbolTableRecord
100
AcDbLinetypeTableRecord
  2
JWW_HOJO
 70
     0
  3
  -   -   -   -   -   -   -   - 
 72
    65
 73
     2
 40
1.693333333333333
 49
-1.27
 74
     0
 49
0.4233333333333333
 74
     0
  0
ENDTAB
  0
TABLE
  2
LAYER
  5
2
330
0
100
AcDbSymbolTable
 70
    17
  0
LAYER
  5
10
330
2
100
AcDbSymbolTableRecord
100
AcDbLayerTableRecord
  2
0
 70
     0
 62
     7
  6
Continuous
370
    -3
390
F
347
3E
  0
LAYER
  5
41
330
2
100
AcDbSymbolTableRecord
100
AcDbLayerTableRecord
  2
F-1
 70
     0
 62
     7
  6
Continuous
370
    -3
390
F
347
3E
  0
LAYER
  5
42
330
2
100
AcDbSymbolTableRecord
100
AcDbLayerTableRecord
  2
F-0
 70
     0
 62
     7
  6
Continuous
370
    -3
390
F
347
3E
  0
LAYER
  5
43
330
2
100
AcDbSymbolTableRecord
100
AcDbLayerTableRecord
  2
0-A
 70
     0
 62
     7
  6
Continuous
370
    -3
390
F
347
3E
  0
LAYER
  5
44
330
2
100
AcDbSymbolTableRecord
100
AcDbLayerTableRecord
  2
1-4
 70
     0
 62
     7
  6
Continuous
370
    -3
390
F
347
3E
  0
LAYER
  5
45
330
2
100
AcDbSymbolTableRecord
100
AcDbLayerTableRecord
  2
1-0
 70
     0
 62
     7
  6
Continuous
370
    -3
390
F
347
3E
  0
LAYER
  5
46
330
2
100
AcDbSymbolTableRecord
100
AcDbLayerTableRecord
  2
1-B
 70
     0
 62
     7
  6
Continuous
370
    -3
390
F
347
3E
  0
LAYER
  5
47
330
2
100
AcDbSymbolTableRecord
100
AcDbLayerTableRecord
  2
0-0
 70
     0
 62
     7
  6
Continuous
370
    -3
390
F
347
3E
  0
LAYER
  5
48
330
2
100
AcDbSymbolTableRecord
100
AcDbLayerTableRecord
  2
1-A
 70
     0
 62
     7
  6
Continuous
370
    -3
390
F
347
3E
  0
LAYER
  5
49
330
2
100
AcDbSymbolTableRecord
100
AcDbLayerTableRecord
  2
F-A
 70
     0
 62
     7
  6
Continuous
370
    -3
390
F
347
3E
  0
LAYER
  5
4A
330
2
100
AcDbSymbolTableRecord
100
AcDbLayerTableRecord
  2
0-B
 70
     0
 62
     7
  6
Continuous
370
    -3
390
F
347
3E
  0
LAYER
  5
4B
330
2
100
AcDbSymbolTableRecord
100
AcDbLayerTableRecord
  2
0-4
 70
     0
 62
     7
  6
Continuous
370
    -3
390
F
347
3E
  0
LAYER
  5
4C
330
2
100
AcDbSymbolTableRecord
100
AcDbLayerTableRecord
  2
0-3
 70
     0
 62
     7
  6
Continuous
370
    -3
390
F
347
3E
  0
LAYER
  5
4D
330
2
100
AcDbSymbolTableRecord
100
AcDbLayerTableRecord
  2
3-B
 70
     0
 62
     7
  6
Continuous
370
    -3
390
F
347
3E
  0
LAYER
  5
4E
330
2
100
AcDbSymbolTableRecord
100
AcDbLayerTableRecord
  2
3-A
 70
     0
 62
     7
  6
Continuous
370
    -3
390
F
347
3E
  0
LAYER
  5
4F
330
2
100
AcDbSymbolTableRecord
100
AcDbLayerTableRecord
  2
3-0
 70
     0
 62
     7
  6
Continuous
370
    -3
390
F
347
3E
  0
LAYER
  5
50
330
2
100
AcDbSymbolTableRecord
100
AcDbLayerTableRecord
  2
3-4
 70
     0
 62
     7
  6
Continuous
370
    -3
390
F
347
3E
  0
ENDTAB
  0
TABLE
  2
STYLE
  5
3
330
0
100
AcDbSymbolTable
 70
     1
  0
STYLE
  5
11
330
3
100
AcDbSymbolTableRecord
100
AcDbTextStyleTableRecord
  2
Standard
 70
     0
 40
0.0
 41
1.0
 50
0.0
 71
     0
 42
2.5
  3
txt
  4

  0
ENDTAB
  0
TABLE
  2
VIEW
  5
6
330
0
100
AcDbSymbolTable
 70
     0
  0
ENDTAB
  0
TABLE
  2
UCS
  5
7
330
0
100
AcDbSymbolTable
 70
     0
  0
ENDTAB
  0
TABLE
  2
APPID
  5
9
330
0
100
AcDbSymbolTable
 70
     1
  0
APPID
  5
12
330
9
100
AcDbSymbolTableRecord
100
AcDbRegAppTableRecord
  2
ACAD
 70
     0
  0
ENDTAB
  0
TABLE
  2
DIMSTYLE
  5
A
330
0
100
AcDbSymbolTable
 70
     1
100
AcDbDimStyleTable
  0
DIMSTYLE
105
27
330
A
100
AcDbSymbolTableRecord
100
AcDbDimStyleTableRecord
  2
ISO-25
 70
     0
 41
2.5
 42
0.625
 43
3.75
 44
1.25
 73
     0
 74
     0
 77
     1
 78
     8
140
2.5
141
2.5
143
0.03937007874016
147
0.625
171
     3
172
     1
178
     0
271
     2
272
     2
274
     3
278
    44
283
     0
284
     8
340
11
  0
ENDTAB
  0
TABLE
  2
BLOCK_RECORD
  5
1
330
0
100
AcDbSymbolTable
 70
     1
  0
BLOCK_RECORD
  5
1F
330
1
100
AcDbSymbolTableRecord
100
AcDbBlockTableRecord
  2
*Model_Space
340
22
 70
     0
280
     1
281
     0
  0
BLOCK_RECORD
  5
1B
330
1
100
AcDbSymbolTableRecord
100
AcDbBlockTableRecord
  2
*Paper_Space
340
1E
 70
     0
280
     1
281
     0
  0
BLOCK_RECORD
  5
23
330
1
100
AcDbSymbolTableRecord
100
AcDbBlockTableRecord
  2
*Paper_Space0
340
26
 70
     0
280
     1
281
     0
  0
ENDTAB
  0
ENDSEC
  0
SECTION
  2
BLOCKS
  0
BLOCK
  5
20
330
1F
100
AcDbEntity
  8
0
100
AcDbBlockBegin
  2
*Model_Space
 70
     0
 10
0.0
 20
0.0
 30
0.0
  3
*Model_Space
  1

  0
ENDBLK
  5
21
330
1F
100
AcDbEntity
  8
0
100
AcDbBlockEnd
  0
BLOCK
  5
1C
330
1B
100
AcDbEntity
 67
     1
  8
0
100
AcDbBlockBegin
  2
*Paper_Space
 70
     0
 10
0.0
 20
0.0
 30
0.0
  3
*Paper_Space
  1

  0
ENDBLK
  5
1D
330
1B
100
AcDbEntity
 67
     1
  8
0
100
AcDbBlockEnd
  0
BLOCK
  5
24
330
23
100
AcDbEntity
  8
0
100
AcDbBlockBegin
  2
*Paper_Space0
 70
     0
 10
0.0
 20
0.0
 30
0.0
  3
*Paper_Space0
  1

  0
ENDBLK
  5
25
330
23
100
AcDbEntity
  8
0
100
AcDbBlockEnd
  0
ENDSEC
  0
SECTION
  2
ENTITIES
  0
LINE
  5
51
330
1F
100
AcDbEntity
  8
F-1
  6
JWW_DASHED1
 62
     7
370
     9
100
AcDbLine
 10
-103.3338392103036
 20
2369.166967868205
 30
0.0
 11
-1003.333839210304
 21
2369.166967868205
 31
0.0
  0
LINE
  5
52
330
1F
100
AcDbEntity
  8
F-1
  6
Continuous
 62
   200
370
    20
100
AcDbLine
 10
3799.999175200592
 20
2473.333641258446
 30
0.0
 11
-3999.999835040119
 21
2473.333641258446
 31
0.0
  0
LINE
  5
53
330
1F
100
AcDbEntity
  8
F-0
  6
JWW_HOJO
 62
   120
370
     5
100
AcDbLine
 10
-3993.33306389886
 20
2631.666919605152
 30
0.0
 11
3793.558316617399
 21
2631.666919605152
 31
0.0
  0
LINE
  5
54
330
1F
100
AcDbEntity
  8
F-1
  6
Continuous
 62
   200
370
    20
100
AcDbLine
 10
-3999.999989690007
 20
2783.333179370777
 30
0.0
 11
-3999.999989690007
 21
-2803.333443306588
 31
0.0
  0
LINE
  5
55
330
1F
100
AcDbEntity
  8
F-1
  6
Continuous
 62
     7
370
     9
100
AcDbLine
 10
603.3330144108953
 20
2783.36534654772
 30
0.0
 11
603.3330144108953
 21
-2530.000032991976
 31
0.0
  0
LINE
  5
56
330
1F
100
AcDbEntity
  8
F-0
  6
JWW_HOJO
 62
   120
370
     5
100
AcDbLine
 10
-4200.0
 20
-2970.0
 30
0.0
 11
-4200.0
 21
2949.99973606419
 31
0.0
  0
LINE
  5
57
330
1F
100
AcDbEntity
  8
F-0
  6
JWW_HOJO
 62
   120
370
     5
100
AcDbLine
 10
-2448.333595894478
 20
2473.333641258446
 30
0.0
 11
-2448.333595894478
 21
-2526.666678351325
 31
0.0
  0
LINE
  5
58
330
1F
100
AcDbEntity
  8
F-1
  6
Continuous
 62
   200
370
    20
100
AcDbLine
 10
-3993.333326803671
 20
2783.333179370777
 30
0.0
 11
-3993.333326803671
 21
-2803.333443306588
 31
0.0
  0
LINE
  5
59
330
1F
100
AcDbEntity
  8
F-0
  6
JWW_HOJO
 62
   120
370
     5
100
AcDbLine
 10
1.666259765625
 20
2776.666655669342
 30
0.0
 11
1.666259765625
 21
-2526.72046558277
 31
0.0
  0
LINE
  5
5A
330
1F
100
AcDbEntity
  8
F-0
  6
JWW_HOJO
 62
   120
370
     5
100
AcDbLine
 10
-4200.0
 20
2949.99973606419
 30
0.0
 11
3999.999340160473
 21
2949.99973606419
 31
0.0
  0
LINE
  5
5B
330
1F
100
AcDbEntity
  8
F-0
  6
JWW_HOJO
 62
   120
370
     5
100
AcDbLine
 10
3999.999340160473
 20
2949.99973606419
 30
0.0
 11
3999.999340160473
 21
-2970.0
 31
0.0
  0
LINE
  5
5C
330
1F
100
AcDbEntity
  8
F-0
  6
JWW_HOJO
 62
   120
370
     5
100
AcDbLine
 10
3999.999340160473
 20
-2970.0
 30
0.0
 11
-4200.0
 21
-2970.0
 31
0.0
  0
LINE
  5
5D
330
1F
100
AcDbEntity
  8
F-1
  6
Continuous
 62
   200
370
    20
100
AcDbLine
 10
-3999.999835040119
 20
2783.333179370777
 30
0.0
 11
3799.999175200592
 21
2783.333179370777
 31
0.0
  0
LINE
  5
5E
330
1F
100
AcDbEntity
  8
F-1
  6
Continuous
 62
   200
370
    20
100
AcDbLine
 10
3799.999175200592
 20
2783.333179370777
 30
0.0
 11
3799.999175200592
 21
-2803.333443306588
 31
0.0
  0
LINE
  5
5F
330
1F
100
AcDbEntity
  8
F-1
  6
Continuous
 62
   200
370
    20
100
AcDbLine
 10
-3999.999835040119
 20
2776.666655669342
 30
0.0
 11
3799.999175200592
 21
2776.666655669342
 31
0.0
  0
LINE
  5
60
330
1F
100
AcDbEntity
  8
F-1
  6
Continuous
 62
   200
370
    20
100
AcDbLine
 10
-3999.999835040119
 20
2779.999670080237
 30
0.0
 11
3799.999175200592
 21
2779.999670080237
 31
0.0
  0
LINE
  5
61
330
1F
100
AcDbEntity
  8
F-1
  6
Continuous
 62
   200
370
    20
100
AcDbLine
 10
-3996.666650514345
 20
2783.333179370777
 30
0.0
 11
-3996.666650514345
 21
-2803.333443306588
 31
0.0
  0
LINE
  5
62
330
1F
100
AcDbEntity
  8
F-1
  6
Continuous
 62
   200
370
    20
100
AcDbLine
 10
3796.665665910051
 20
2783.333179370777
 30
0.0
 11
3796.665665910051
 21
-2803.333443306588
 31
0.0
  0
LINE
  5
63
330
1F
100
AcDbEntity
  8
F-1
  6
Continuous
 62
   200
370
    20
100
AcDbLine
 10
3793.332651499156
 20
2783.333179370777
 30
0.0
 11
3793.332651499156
 21
-2803.333443306588
 31
0.0
  0
LINE
  5
64
330
1F
100
AcDbEntity
  8
F-1
  6
Continuous
 62
   200
370
    20
100
AcDbLine
 10
-100.0005773595859
 20
2783.333179370777
 30
0.0
 11
-100.0005773595859
 21
-2530.000032991976
 31
0.0
  0
LINE
  5
65
330
1F
100
AcDbEntity
  8
F-1
  6
Continuous
 62
   200
370
    20
100
AcDbLine
 10
-96.66731550886823
 20
2783.36534654772
 30
0.0
 11
-96.66731550886823
 21
-2530.000032991976
 31
0.0
  0
LINE
  5
66
330
1F
100
AcDbEntity
  8
F-1
  6
Continuous
 62
   200
370
    20
100
AcDbLine
 10
-103.3338392103036
 20
2783.36534654772
 30
0.0
 11
-103.3338392103036
 21
-2530.000032991976
 31
0.0
  0
LINE
  5
67
330
1F
100
AcDbEntity
  8
F-1
  6
Continuous
 62
     7
370
     9
100
AcDbLine
 10
-1603.333839210304
 20
2783.36534654772
 30
0.0
 11
-1603.333839210304
 21
-2530.000032991976
 31
0.0
  0
LINE
  5
68
330
1F
100
AcDbEntity
  8
F-1
  6
Continuous
 62
     7
370
     9
100
AcDbLine
 10
-3293.333352578653
 20
2783.333179370777
 30
0.0
 11
-3293.333352578653
 21
-2526.666678351325
 31
0.0
  0
LINE
  5
69
330
1F
100
AcDbEntity
  8
F-1
  6
Continuous
 62
     7
370
     9
100
AcDbLine
 10
2293.333146378801
 20
2783.333179370777
 30
0.0
 11
2293.333146378801
 21
-2526.666678351325
 31
0.0
  0
LINE
  5
6A
330
1F
100
AcDbEntity
  8
F-1
  6
Continuous
 62
     7
370
     9
100
AcDbLine
 10
-1603.333839210304
 20
2631.634752428209
 30
0.0
 11
-1003.333839210304
 21
2631.634752428209
 31
0.0
  0
LINE
  5
6B
330
1F
100
AcDbEntity
  8
F-1
  6
Continuous
 62
     7
370
     9
100
AcDbLine
 10
-1003.333839210304
 20
2783.333179370777
 30
0.0
 11
-1003.333839210304
 21
-2530.032200168919
 31
0.0
  0
LINE
  5
6C
330
1F
100
AcDbEntity
  8
F-1
  6
Continuous
 62
     7
370
     9
100
AcDbLine
 10
-423.3338392103036
 20
2783.333179370777
 30
0.0
 11
-423.3338392103036
 21
-2530.032200168919
 31
0.0
  0
LINE
  5
6D
330
1F
100
AcDbEntity
  8
F-1
  6
Continuous
 62
     7
370
     9
100
AcDbLine
 10
2893.333146378801
 20
2783.333179370777
 30
0.0
 11
2893.333146378801
 21
-2530.032200168919
 31
0.0
  0
LINE
  5
6E
330
1F
100
AcDbEntity
  8
F-1
  6
Continuous
 62
     7
370
     9
100
AcDbLine
 10
3473.333146378802
 20
2783.333179370777
 30
0.0
 11
3473.333146378802
 21
-2530.032200168919
 31
0.0
  0
LINE
  5
6F
330
1F
100
AcDbEntity
  8
F-1
  6
Continuous
 62
   200
370
    20
100
AcDbLine
 10
3799.999175200592
 20
2480.000164960446
 30
0.0
 11
-3999.999835040119
 21
2480.000164960446
 31
0.0
  0
LINE
  5
70
330
1F
100
AcDbEntity
  8
F-1
  6
JWW_DASHED1
 62
     7
370
     9
100
AcDbLine
 10
-103.3338392103036
 20
1744.166927916983
 30
0.0
 11
-1603.333839210304
 21
1744.166927916983
 31
0.0
  0
LINE
  5
71
330
1F
100
AcDbEntity
  8
F-1
  6
JWW_DASHED1
 62
     7
370
     9
100
AcDbLine
 10
-103.3338392103036
 20
2160.833621217797
 30
0.0
 11
-1603.333839210304
 21
2160.833621217797
 31
0.0
  0
LINE
  5
72
330
1F
100
AcDbEntity
  8
F-1
  6
JWW_DASHED1
 62
     7
370
     9
100
AcDbLine
 10
-103.3338392103036
 20
2056.666947892594
 30
0.0
 11
-1603.333839210304
 21
2056.666947892594
 31
0.0
  0
LINE
  5
73
330
1F
100
AcDbEntity
  8
F-1
  6
JWW_DASHED1
 62
     7
370
     9
100
AcDbLine
 10
-103.3338392103036
 20
1952.50027456739
 30
0.0
 11
-1603.333839210304
 21
1952.50027456739
 31
0.0
  0
LINE
  5
74
330
1F
100
AcDbEntity
  8
F-1
  6
JWW_DASHED1
 62
     7
370
     9
100
AcDbLine
 10
-103.3338392103036
 20
1848.333601242186
 30
0.0
 11
-1603.333839210304
 21
1848.333601242186
 31
0.0
  0
LINE
  5
75
330
1F
100
AcDbEntity
  8
F-1
  6
JWW_DASHED1
 62
     7
370
     9
100
AcDbLine
 10
-103.3338392103036
 20
2265.000294543001
 30
0.0
 11
-1003.333839210304
 21
2265.000294543001
 31
0.0
  0
LINE
  5
76
330
1F
100
AcDbEntity
  8
F-0
  6
JWW_HOJO
 62
     7
370
     9
100
AcDbLine
 10
-983.3338392103042
 20
2783.333179370777
 30
0.0
 11
-983.3338392103042
 21
-2530.032200168919
 31
0.0
  0
LINE
  5
77
330
1F
100
AcDbEntity
  8
F-1
  6
JWW_DASHED1
 62
     7
370
     9
100
AcDbLine
 10
-103.3338392103036
 20
1535.833581201538
 30
0.0
 11
-1003.333839210304
 21
1535.833581201538
 31
0.0
  0
LINE
  5
78
330
1F
100
AcDbEntity
  8
F-1
  6
JWW_DASHED1
 62
     7
370
     9
100
AcDbLine
 10
-103.3338392103036
 20
910.8335412503163
 30
0.0
 11
-1603.333839210304
 21
910.8335412503163
 31
0.0
  0
LINE
  5
79
330
1F
100
AcDbEntity
  8
F-1
  6
JWW_DASHED1
 62
     7
370
     9
100
AcDbLine
 10
-103.3338392103036
 20
1327.50023455113
 30
0.0
 11
-1603.333839210304
 21
1327.50023455113
 31
0.0
  0
LINE
  5
7A
330
1F
100
AcDbEntity
  8
F-1
  6
JWW_DASHED1
 62
     7
370
     9
100
AcDbLine
 10
-103.3338392103036
 20
1223.333561225927
 30
0.0
 11
-1603.333839210304
 21
1223.333561225927
 31
0.0
  0
LINE
  5
7B
330
1F
100
AcDbEntity
  8
F-1
  6
JWW_DASHED1
 62
     7
370
     9
100
AcDbLine
 10
-103.3338392103036
 20
1119.166887900724
 30
0.0
 11
-1603.333839210304
 21
1119.166887900724
 31
0.0
  0
LINE
  5
7C
330
1F
100
AcDbEntity
  8
F-1
  6
JWW_DASHED1
 62
     7
370
     9
100
AcDbLine
 10
-103.3338392103036
 20
1015.00021457552
 30
0.0
 11
-1603.333839210304
 21
1015.00021457552
 31
0.0
  0
LINE
  5
7D
330
1F
100
AcDbEntity
  8
F-1
  6
JWW_DASHED1
 62
     7
370
     9
100
AcDbLine
 10
-103.3338392103036
 20
1431.666907876334
 30
0.0
 11
-1003.333839210304
 21
1431.666907876334
 31
0.0
  0
LINE
  5
7E
330
1F
100
AcDbEntity
  8
F-1
  6
JWW_DASHED1
 62
     7
370
     9
100
AcDbLine
 10
-103.3338392103036
 20
702.5001945348708
 30
0.0
 11
-1003.333839210304
 21
702.5001945348708
 31
0.0
  0
LINE
  5
7F
330
1F
100
AcDbEntity
  8
F-1
  6
JWW_DASHED1
 62
     7
370
     9
100
AcDbLine
 10
-103.3338392103036
 20
77.50015458364999
 30
0.0
 11
-1603.333839210304
 21
77.50015458364999
 31
0.0
  0
LINE
  5
80
330
1F
100
AcDbEntity
  8
F-1
  6
JWW_DASHED1
 62
     7
370
     9
100
AcDbLine
 10
-103.3338392103036
 20
494.1668478844639
 30
0.0
 11
-1603.333839210304
 21
494.1668478844639
 31
0.0
  0
LINE
  5
81
330
1F
100
AcDbEntity
  8
F-1
  6
JWW_DASHED1
 62
     7
370
     9
100
AcDbLine
 10
-103.3338392103036
 20
390.0001745592601
 30
0.0
 11
-1603.333839210304
 21
390.0001745592601
 31
0.0
  0
LINE
  5
82
330
1F
100
AcDbEntity
  8
F-1
  6
JWW_DASHED1
 62
     7
370
     9
100
AcDbLine
 10
-103.3338392103036
 20
285.8335012340569
 30
0.0
 11
-1603.333839210304
 21
285.8335012340569
 31
0.0
  0
LINE
  5
83
330
1F
100
AcDbEntity
  8
F-1
  6
JWW_DASHED1
 62
     7
370
     9
100
AcDbLine
 10
-103.3338392103036
 20
181.6668279088537
 30
0.0
 11
-1603.333839210304
 21
181.6668279088537
 31
0.0
  0
LINE
  5
84
330
1F
100
AcDbEntity
  8
F-1
  6
JWW_DASHED1
 62
     7
370
     9
100
AcDbLine
 10
-103.3338392103036
 20
-755.8332320830166
 30
0.0
 11
-1603.333839210304
 21
-755.8332320830166
 31
0.0
  0
LINE
  5
85
330
1F
100
AcDbEntity
  8
F-1
  6
JWW_DASHED1
 62
     7
370
     9
100
AcDbLine
 10
-103.3338392103036
 20
-339.1665387822025
 30
0.0
 11
-1603.333839210304
 21
-339.1665387822025
 31
0.0
  0
LINE
  5
86
330
1F
100
AcDbEntity
  8
F-1
  6
JWW_DASHED1
 62
     7
370
     9
100
AcDbLine
 10
-103.3338392103036
 20
-443.3332121074062
 30
0.0
 11
-1603.333839210304
 21
-443.3332121074062
 31
0.0
  0
LINE
  5
87
330
1F
100
AcDbEntity
  8
F-1
  6
JWW_DASHED1
 62
     7
370
     9
100
AcDbLine
 10
-103.3338392103036
 20
-547.4998854326097
 30
0.0
 11
-1603.333839210304
 21
-547.4998854326097
 31
0.0
  0
LINE
  5
88
330
1F
100
AcDbEntity
  8
F-1
  6
JWW_DASHED1
 62
     7
370
     9
100
AcDbLine
 10
-103.3338392103036
 20
-651.6665587578132
 30
0.0
 11
-1603.333839210304
 21
-651.6665587578132
 31
0.0
  0
LINE
  5
89
330
1F
100
AcDbEntity
  8
F-1
  6
JWW_DASHED1
 62
     7
370
     9
100
AcDbLine
 10
-103.3338392103036
 20
-1589.166618749683
 30
0.0
 11
-1603.333839210304
 21
-1589.166618749683
 31
0.0
  0
LINE
  5
8A
330
1F
100
AcDbEntity
  8
F-1
  6
JWW_DASHED1
 62
     7
370
     9
100
AcDbLine
 10
-103.3338392103036
 20
-1172.499925448869
 30
0.0
 11
-1603.333839210304
 21
-1172.499925448869
 31
0.0
  0
LINE
  5
8B
330
1F
100
AcDbEntity
  8
F-1
  6
JWW_DASHED1
 62
     7
370
     9
100
AcDbLine
 10
-103.3338392103036
 20
-1276.666598774073
 30
0.0
 11
-1603.333839210304
 21
-1276.666598774073
 31
0.0
  0
LINE
  5
8C
330
1F
100
AcDbEntity
  8
F-1
  6
JWW_DASHED1
 62
     7
370
     9
100
AcDbLine
 10
-103.3338392103036
 20
-1380.833272099276
 30
0.0
 11
-1603.333839210304
 21
-1380.833272099276
 31
0.0
  0
LINE
  5
8D
330
1F
100
AcDbEntity
  8
F-1
  6
JWW_DASHED1
 62
     7
370
     9
100
AcDbLine
 10
-103.3338392103036
 20
-1484.99994542448
 30
0.0
 11
-1603.333839210304
 21
-1484.99994542448
 31
0.0
  0
LINE
  5
8E
330
1F
100
AcDbEntity
  8
F-1
  6
JWW_DASHED1
 62
     7
370
     9
100
AcDbLine
 10
-103.3338392103036
 20
-2422.50000541635
 30
0.0
 11
-1603.333839210304
 21
-2422.50000541635
 31
0.0
  0
LINE
  5
8F
330
1F
100
AcDbEntity
  8
F-1
  6
JWW_DASHED1
 62
     7
370
     9
100
AcDbLine
 10
-103.3338392103036
 20
-2005.833312115536
 30
0.0
 11
-1603.333839210304
 21
-2005.833312115536
 31
0.0
  0
LINE
  5
90
330
1F
100
AcDbEntity
  8
F-1
  6
JWW_DASHED1
 62
     7
370
     9
100
AcDbLine
 10
-103.3338392103036
 20
-2109.99998544074
 30
0.0
 11
-1603.333839210304
 21
-2109.99998544074
 31
0.0
  0
LINE
  5
91
330
1F
100
AcDbEntity
  8
F-1
  6
JWW_DASHED1
 62
     7
370
     9
100
AcDbLine
 10
-103.3338392103036
 20
-2214.166658765943
 30
0.0
 11
-1603.333839210304
 21
-2214.166658765943
 31
0.0
  0
LINE
  5
92
330
1F
100
AcDbEntity
  8
F-1
  6
JWW_DASHED1
 62
     7
370
     9
100
AcDbLine
 10
-103.3338392103036
 20
-2318.333332091147
 30
0.0
 11
-1603.333839210304
 21
-2318.333332091147
 31
0.0
  0
LINE
  5
93
330
1F
100
AcDbEntity
  8
F-1
  6
JWW_DASHED1
 62
     7
370
     9
100
AcDbLine
 10
-103.3338392103036
 20
598.3335212096677
 30
0.0
 11
-1603.333839210304
 21
598.3335212096677
 31
0.0
  0
LINE
  5
94
330
1F
100
AcDbEntity
  8
F-1
  6
JWW_DASHED1
 62
     7
370
     9
100
AcDbLine
 10
-103.3338392103036
 20
-1068.333252123666
 30
0.0
 11
-1603.333839210304
 21
-1068.333252123666
 31
0.0
  0
LINE
  5
95
330
1F
100
AcDbEntity
  8
F-1
  6
JWW_DASHED1
 62
     7
370
     9
100
AcDbLine
 10
-103.3338392103036
 20
-1901.666638790333
 30
0.0
 11
-1603.333839210304
 21
-1901.666638790333
 31
0.0
  0
LINE
  5
96
330
1F
100
AcDbEntity
  8
F-1
  6
JWW_DASHED1
 62
     7
370
     9
100
AcDbLine
 10
3793.333146378802
 20
-2422.50000541635
 30
0.0
 11
2293.333146378801
 21
-2422.50000541635
 31
0.0
  0
LINE
  5
97
330
1F
100
AcDbEntity
  8
F-1
  6
JWW_DASHED1
 62
     7
370
     9
100
AcDbLine
 10
3793.333146378802
 20
-2214.166658765943
 30
0.0
 11
2293.333146378801
 21
-2214.166658765943
 31
0.0
  0
LINE
  5
98
330
1F
100
AcDbEntity
  8
F-1
  6
JWW_DASHED1
 62
     7
370
     9
100
AcDbLine
 10
3793.333146378802
 20
-2318.333332091147
 30
0.0
 11
2293.333146378801
 21
-2318.333332091147
 31
0.0
  0
LINE
  5
99
330
1F
100
AcDbEntity
  8
F-0
  6
JWW_HOJO
 62
     7
370
     9
100
AcDbLine
 10
2913.333146378801
 20
2783.333179370777
 30
0.0
 11
2913.333146378801
 21
-2530.032200168919
 31
0.0
  0
LINE
  5
9A
330
1F
100
AcDbEntity
  8
F-1
  6
JWW_DASHED1
 62
     7
370
     9
100
AcDbLine
 10
3793.333146378802
 20
1744.166927916983
 30
0.0
 11
2293.333146378801
 21
1744.166927916983
 31
0.0
  0
LINE
  5
9B
330
1F
100
AcDbEntity
  8
F-1
  6
JWW_DASHED1
 62
     7
370
     9
100
AcDbLine
 10
3793.333146378802
 20
2160.833621217797
 30
0.0
 11
2293.333146378801
 21
2160.833621217797
 31
0.0
  0
LINE
  5
9C
330
1F
100
AcDbEntity
  8
F-1
  6
JWW_DASHED1
 62
     7
370
     9
100
AcDbLine
 10
3793.333146378802
 20
2056.666947892594
 30
0.0
 11
2293.333146378801
 21
2056.666947892594
 31
0.0
  0
LINE
  5
9D
330
1F
100
AcDbEntity
  8
F-1
  6
JWW_DASHED1
 62
     7
370
     9
100
AcDbLine
 10
3793.333146378802
 20
1952.50027456739
 30
0.0
 11
2293.333146378801
 21
1952.50027456739
 31
0.0
  0
LINE
  5
9E
330
1F
100
AcDbEntity
  8
F-1
  6
JWW_DASHED1
 62
     7
370
     9
100
AcDbLine
 10
3793.333146378802
 20
1848.333601242186
 30
0.0
 11
2293.333146378801
 21
1848.333601242186
 31
0.0
  0
LINE
  5
9F
330
1F
100
AcDbEntity
  8
F-1
  6
JWW_DASHED1
 62
     7
370
     9
100
AcDbLine
 10
3793.333146378802
 20
2369.166967868205
 30
0.0
 11
2293.333146378801
 21
2369.166967868205
 31
0.0
  0
LINE
  5
A0
330
1F
100
AcDbEntity
  8
F-1
  6
JWW_DASHED1
 62
     7
370
     9
100
AcDbLine
 10
3793.333146378802
 20
2265.000294543001
 30
0.0
 11
2293.333146378801
 21
2265.000294543001
 31
0.0
  0
LINE
  5
A1
330
1F
100
AcDbEntity
  8
F-1
  6
JWW_DASHED1
 62
     7
370
     9
100
AcDbLine
 10
3793.333146378802
 20
910.8335412503163
 30
0.0
 11
2293.333146378801
 21
910.8335412503163
 31
0.0
  0
LINE
  5
A2
330
1F
100
AcDbEntity
  8
F-1
  6
JWW_DASHED1
 62
     7
370
     9
100
AcDbLine
 10
3793.333146378802
 20
1327.50023455113
 30
0.0
 11
2293.333146378801
 21
1327.50023455113
 31
0.0
  0
LINE
  5
A3
330
1F
100
AcDbEntity
  8
F-1
  6
JWW_DASHED1
 62
     7
370
     9
100
AcDbLine
 10
3793.333146378802
 20
1223.333561225927
 30
0.0
 11
2293.333146378801
 21
1223.333561225927
 31
0.0
  0
LINE
  5
A4
330
1F
100
AcDbEntity
  8
F-1
  6
JWW_DASHED1
 62
     7
370
     9
100
AcDbLine
 10
3793.333146378802
 20
1119.166887900724
 30
0.0
 11
2293.333146378801
 21
1119.166887900724
 31
0.0
  0
LINE
  5
A5
330
1F
100
AcDbEntity
  8
F-1
  6
JWW_DASHED1
 62
     7
370
     9
100
AcDbLine
 10
3793.333146378802
 20
1015.00021457552
 30
0.0
 11
2293.333146378801
 21
1015.00021457552
 31
0.0
  0
LINE
  5
A6
330
1F
100
AcDbEntity
  8
F-1
  6
JWW_DASHED1
 62
     7
370
     9
100
AcDbLine
 10
3793.333146378802
 20
1535.833581201538
 30
0.0
 11
2293.333146378801
 21
1535.833581201538
 31
0.0
  0
LINE
  5
A7
330
1F
100
AcDbEntity
  8
F-1
  6
JWW_DASHED1
 62
     7
370
     9
100
AcDbLine
 10
3793.333146378802
 20
1431.666907876334
 30
0.0
 11
2293.333146378801
 21
1431.666907876334
 31
0.0
  0
LINE
  5
A8
330
1F
100
AcDbEntity
  8
F-1
  6
JWW_DASHED1
 62
     7
370
     9
100
AcDbLine
 10
3793.333146378802
 20
77.50015458364999
 30
0.0
 11
2293.333146378801
 21
77.50015458364999
 31
0.0
  0
LINE
  5
A9
330
1F
100
AcDbEntity
  8
F-1
  6
JWW_DASHED1
 62
     7
370
     9
100
AcDbLine
 10
3793.333146378802
 20
494.1668478844639
 30
0.0
 11
2293.333146378801
 21
494.1668478844639
 31
0.0
  0
LINE
  5
AA
330
1F
100
AcDbEntity
  8
F-1
  6
JWW_DASHED1
 62
     7
370
     9
100
AcDbLine
 10
3793.333146378802
 20
390.0001745592601
 30
0.0
 11
2293.333146378801
 21
390.0001745592601
 31
0.0
  0
LINE
  5
AB
330
1F
100
AcDbEntity
  8
F-1
  6
JWW_DASHED1
 62
     7
370
     9
100
AcDbLine
 10
3793.333146378802
 20
285.8335012340569
 30
0.0
 11
2293.333146378801
 21
285.8335012340569
 31
0.0
  0
LINE
  5
AC
330
1F
100
AcDbEntity
  8
F-1
  6
JWW_DASHED1
 62
     7
370
     9
100
AcDbLine
 10
3793.333146378802
 20
181.6668279088537
 30
0.0
 11
2293.333146378801
 21
181.6668279088537
 31
0.0
  0
LINE
  5
AD
330
1F
100
AcDbEntity
  8
F-1
  6
JWW_DASHED1
 62
     7
370
     9
100
AcDbLine
 10
3793.333146378802
 20
702.5001945348708
 30
0.0
 11
2293.333146378801
 21
702.5001945348708
 31
0.0
  0
LINE
  5
AE
330
1F
100
AcDbEntity
  8
F-1
  6
JWW_DASHED1
 62
     7
370
     9
100
AcDbLine
 10
3793.333146378802
 20
598.3335212096677
 30
0.0
 11
2293.333146378801
 21
598.3335212096677
 31
0.0
  0
LINE
  5
AF
330
1F
100
AcDbEntity
  8
F-1
  6
JWW_DASHED1
 62
     7
370
     9
100
AcDbLine
 10
3793.333146378802
 20
-1589.166618749683
 30
0.0
 11
2293.333146378801
 21
-1589.166618749683
 31
0.0
  0
LINE
  5
B0
330
1F
100
AcDbEntity
  8
F-1
  6
JWW_DASHED1
 62
     7
370
     9
100
AcDbLine
 10
3793.333146378802
 20
-1172.499925448869
 30
0.0
 11
2293.333146378801
 21
-1172.499925448869
 31
0.0
  0
LINE
  5
B1
330
1F
100
AcDbEntity
  8
F-1
  6
JWW_DASHED1
 62
     7
370
     9
100
AcDbLine
 10
3793.333146378802
 20
-1276.666598774073
 30
0.0
 11
2293.333146378801
 21
-1276.666598774073
 31
0.0
  0
LINE
  5
B2
330
1F
100
AcDbEntity
  8
F-1
  6
JWW_DASHED1
 62
     7
370
     9
100
AcDbLine
 10
3793.333146378802
 20
-1380.833272099276
 30
0.0
 11
2293.333146378801
 21
-1380.833272099276
 31
0.0
  0
LINE
  5
B3
330
1F
100
AcDbEntity
  8
F-1
  6
JWW_DASHED1
 62
     7
370
     9
100
AcDbLine
 10
3793.333146378802
 20
-1484.99994542448
 30
0.0
 11
2293.333146378801
 21
-1484.99994542448
 31
0.0
  0
LINE
  5
B4
330
1F
100
AcDbEntity
  8
F-1
  6
JWW_DASHED1
 62
     7
370
     9
100
AcDbLine
 10
3793.333146378802
 20
-1068.333252123666
 30
0.0
 11
2293.333146378801
 21
-1068.333252123666
 31
0.0
  0
LINE
  5
B5
330
1F
100
AcDbEntity
  8
F-1
  6
JWW_DASHED1
 62
     7
370
     9
100
AcDbLine
 10
3793.333146378802
 20
-2005.833312115536
 30
0.0
 11
2293.333146378801
 21
-2005.833312115536
 31
0.0
  0
LINE
  5
B6
330
1F
100
AcDbEntity
  8
F-1
  6
JWW_DASHED1
 62
     7
370
     9
100
AcDbLine
 10
3793.333146378802
 20
-2109.99998544074
 30
0.0
 11
2293.333146378801
 21
-2109.99998544074
 31
0.0
  0
LINE
  5
B7
330
1F
100
AcDbEntity
  8
F-1
  6
JWW_DASHED1
 62
     7
370
     9
100
AcDbLine
 10
3793.333146378802
 20
-1901.666638790333
 30
0.0
 11
2293.333146378801
 21
-1901.666638790333
 31
0.0
  0
MTEXT
  5
B8
330
1F
100
AcDbEntity
  8
0-A
  6
Continuous
 62
     7
370
     9
100
AcDbMText
 10
-293.3338392103036
 20
2384.110304563325
 30
0.0
 40
45.72
 41
60.0
 46
0.0
 71
     7
 72
     1
  1
{\fＭＳ ゴシック|b0|i0|c128|p49;10}
 73
     1
 44
1.0
  0
MTEXT
  5
B9
330
1F
100
AcDbEntity
  8
0-A
  6
Continuous
 62
     7
370
     9
100
AcDbMText
 10
-1483.333839210304
 20
2279.943631238122
 30
0.0
 40
45.72
 41
360.0
 46
0.0
 71
     7
 72
     1
  1
{\fＭＳ ゴシック|b0|i0|c128|p49;3,900×60×9}
 73
     1
 44
1.0
  0
LINE
  5
BA
330
1F
100
AcDbEntity
  8
F-1
  6
Continuous
 62
     7
370
     9
100
AcDbLine
 10
2293.333146378801
 20
2631.634752428209
 30
0.0
 11
2893.333146378801
 21
2631.634752428209
 31
0.0
  0
LINE
  5
BB
330
1F
100
AcDbEntity
  8
F-1
  6
Continuous
 62
     7
370
     9
100
AcDbLine
 10
-96.66731550886823
 20
-1693.333292074887
 30
0.0
 11
-3993.333326803671
 21
-1693.333292074887
 31
0.0
  0
MTEXT
  5
BC
330
1F
100
AcDbEntity
  8
0-A
  6
Continuous
 62
     7
370
     9
100
AcDbMText
 10
-278.3338392103036
 20
2279.943631205603
 30
0.0
 40
45.72
 41
30.0
 46
0.0
 71
     7
 72
     1
  1
{\fＭＳ ゴシック|b0|i0|c128|p49;6}
 73
     1
 44
1.0
  0
MTEXT
  5
BD
330
1F
100
AcDbEntity
  8
0-A
  6
Continuous
 62
     7
370
     9
100
AcDbMText
 10
-278.3338392103036
 20
2175.776957880399
 30
0.0
 40
45.72
 41
30.0
 46
0.0
 71
     7
 72
     1
  1
{\fＭＳ ゴシック|b0|i0|c128|p49;1}
 73
     1
 44
1.0
  0
MTEXT
  5
BE
330
1F
100
AcDbEntity
  8
0-A
  6
Continuous
 62
     7
370
     9
100
AcDbMText
 10
-11.66684511545498
 20
2105.321948120227
 30
0.0
 40
67.31
 41
530.0
 46
0.0
 71
     7
 72
     1
  1
{\fＭＳ ゴシック|b0|i0|c128|p49;コーナー巾木}
 73
     1
 44
1.0
  0
LINE
  5
BF
330
1F
100
AcDbEntity
  8
F-1
  6
JWW_DASHED1
 62
     7
370
     9
100
AcDbLine
 10
-103.3338392103036
 20
-964.1665787984624
 30
0.0
 11
-1603.333839210304
 21
-964.1665787984624
 31
0.0
  0
LINE
  5
C0
330
1F
100
AcDbEntity
  8
F-1
  6
JWW_DASHED1
 62
     7
370
     9
100
AcDbLine
 10
-103.3338392103036
 20
-1797.499965465129
 30
0.0
 11
-1603.333839210304
 21
-1797.499965465129
 31
0.0
  0
MTEXT
  5
C1
330
1F
100
AcDbEntity
  8
0-A
  6
Continuous
 62
     7
370
     9
100
AcDbMText
 10
93.33315488454502
 20
1952.146948120227
 30
0.0
 40
60.96
 41
320.0
 46
0.0
 71
     7
 72
     1
  1
{\fＭＳ ゴシック|b0|i0|c128|p49;Ｊ型対応}
 73
     1
 44
1.0
  0
MTEXT
  5
C2
330
1F
100
AcDbEntity
  8
0-A
  6
Continuous
 62
     7
370
     9
100
AcDbMText
 10
-293.3338392103036
 20
1550.776917896658
 30
0.0
 40
45.72
 41
60.0
 46
0.0
 71
     7
 72
     1
  1
{\fＭＳ ゴシック|b0|i0|c128|p49;10}
 73
     1
 44
1.0
  0
MTEXT
  5
C3
330
1F
100
AcDbEntity
  8
0-A
  6
Continuous
 62
     7
370
     9
100
AcDbMText
 10
-1483.333839210304
 20
1446.610244571455
 30
0.0
 40
45.72
 41
360.0
 46
0.0
 71
     7
 72
     1
  1
{\fＭＳ ゴシック|b0|i0|c128|p49;3,900×60×9}
 73
     1
 44
1.0
  0
MTEXT
  5
C4
330
1F
100
AcDbEntity
  8
0-A
  6
Continuous
 62
     7
370
     9
100
AcDbMText
 10
-278.3338392103036
 20
1446.610244538935
 30
0.0
 40
45.72
 41
30.0
 46
0.0
 71
     7
 72
     1
  1
{\fＭＳ ゴシック|b0|i0|c128|p49;6}
 73
     1
 44
1.0
  0
LINE
  5
C5
330
1F
100
AcDbEntity
  8
F-0
  6
JWW_HOJO
 62
     7
370
     9
100
AcDbLine
 10
566.6663917335308
 20
-2530.000002061998
 30
0.0
 11
566.6663917335308
 21
-2796.666672165329
 31
0.0
  0
LINE
  5
C6
330
1F
100
AcDbEntity
  8
F-0
  6
JWW_HOJO
 62
     7
370
     9
100
AcDbLine
 10
233.3332783467063
 20
-2530.000002061998
 30
0.0
 11
233.3332783467063
 21
-2796.666672165329
 31
0.0
  0
LINE
  5
C7
330
1F
100
AcDbEntity
  8
F-1
  6
Continuous
 62
   200
370
    20
100
AcDbLine
 10
3799.999175200592
 20
-2803.333335051665
 30
0.0
 11
-3999.999835040119
 21
-2803.333335051665
 31
0.0
  0
LINE
  5
C8
330
1F
100
AcDbEntity
  8
F-1
  6
Continuous
 62
   200
370
    20
100
AcDbLine
 10
3799.999175200592
 20
-2799.999995876003
 30
0.0
 11
-3999.999835040119
 21
-2799.999995876003
 31
0.0
  0
LINE
  5
C9
330
1F
100
AcDbEntity
  8
F-1
  6
Continuous
 62
   200
370
    20
100
AcDbLine
 10
3799.999175200592
 20
-2796.666672165329
 30
0.0
 11
-3999.999835040119
 21
-2796.666672165329
 31
0.0
  0
LINE
  5
CA
330
1F
100
AcDbEntity
  8
F-1
  6
Continuous
 62
   200
370
    20
100
AcDbLine
 10
2793.332816459038
 20
-2530.000002061998
 30
0.0
 11
2793.332816459038
 21
-2796.666672165329
 31
0.0
  0
LINE
  5
CB
330
1F
100
AcDbEntity
  8
F-1
  6
Continuous
 62
   200
370
    20
100
AcDbLine
 10
1793.332486539274
 20
-2530.000002061998
 30
0.0
 11
1793.332486539274
 21
-2796.666672165329
 31
0.0
  0
LINE
  5
CC
330
1F
100
AcDbEntity
  8
F-1
  6
Continuous
 62
   200
370
    20
100
AcDbLine
 10
-100.0000824799406
 20
-2530.000002061998
 30
0.0
 11
-100.0000824799406
 21
-2796.666672165329
 31
0.0
  0
LINE
  5
CD
330
1F
100
AcDbEntity
  8
F-1
  6
Continuous
 62
   200
370
    20
100
AcDbLine
 10
-100.0000824799406
 20
-2663.333290718697
 30
0.0
 11
3793.332651499156
 21
-2663.336909526103
 31
0.0
  0
LINE
  5
CE
330
1F
100
AcDbEntity
  8
F-0
  6
JWW_HOJO
 62
     7
370
     9
100
AcDbLine
 10
-3993.333326803671
 20
-2663.333290718927
 30
0.0
 11
-100.0000824799406
 21
-2663.333290718927
 31
0.0
  0
LINE
  5
CF
330
1F
100
AcDbEntity
  8
F-0
  6
JWW_HOJO
 62
     7
370
     9
100
AcDbLine
 10
-3993.333326803671
 20
-2603.333290718927
 30
0.0
 11
-100.0000824799406
 21
-2603.333290718927
 31
0.0
  0
LINE
  5
D0
330
1F
100
AcDbEntity
  8
F-0
  6
JWW_HOJO
 62
     7
370
     9
100
AcDbLine
 10
-3993.333326803671
 20
-2723.333290718927
 30
0.0
 11
-100.0000824799406
 21
-2723.333290718927
 31
0.0
  0
LINE
  5
D1
330
1F
100
AcDbEntity
  8
F-0
  6
JWW_HOJO
 62
     7
370
     9
100
AcDbLine
 10
-100.0001723303592
 20
-2759.999826518655
 30
0.0
 11
3793.332561648736
 21
-2760.003445326061
 31
0.0
  0
LINE
  5
D2
330
1F
100
AcDbEntity
  8
F-0
  6
JWW_HOJO
 62
     7
370
     9
100
AcDbLine
 10
-100.0001165610581
 20
-2699.999826518681
 30
0.0
 11
3793.332617418037
 21
-2700.003445326087
 31
0.0
  0
LINE
  5
D3
330
1F
100
AcDbEntity
  8
F-0
  6
JWW_HOJO
 62
     7
370
     9
100
AcDbLine
 10
-100.0000483985781
 20
-2626.666491478713
 30
0.0
 11
3793.332685580518
 21
-2626.670110286119
 31
0.0
  0
LINE
  5
D4
330
1F
100
AcDbEntity
  8
F-0
  6
JWW_HOJO
 62
     7
370
     9
100
AcDbLine
 10
-99.99999262927702
 20
-2566.66649147874
 30
0.0
 11
3793.332741349819
 21
-2566.670110286145
 31
0.0
  0
LINE
  5
D5
330
1F
100
AcDbEntity
  8
F-0
  6
JWW_HOJO
 62
     7
370
     9
100
AcDbLine
 10
1853.332486539274
 20
-2530.000002061998
 30
0.0
 11
1853.332486539274
 21
-2796.666672165329
 31
0.0
  0
LINE
  5
D6
330
1F
100
AcDbEntity
  8
F-0
  6
JWW_HOJO
 62
     7
370
     9
100
AcDbLine
 10
-40.0000824799406
 20
-2530.000002061998
 30
0.0
 11
-40.0000824799406
 21
-2796.666672165329
 31
0.0
  0
LINE
  5
D7
330
1F
100
AcDbEntity
  8
F-0
  6
JWW_HOJO
 62
     7
370
     9
100
AcDbLine
 10
2853.332816459038
 20
-2530.000002061998
 30
0.0
 11
2853.332816459038
 21
-2796.666672165329
 31
0.0
  0
MTEXT
  5
D8
330
1F
100
AcDbEntity
  8
0-A
  6
Continuous
 62
     7
370
     9
100
AcDbMText
 10
-278.3338392103036
 20
1342.443571213732
 30
0.0
 40
45.72
 41
30.0
 46
0.0
 71
     7
 72
     1
  1
{\fＭＳ ゴシック|b0|i0|c128|p49;1}
 73
     1
 44
1.0
  0
MTEXT
  5
D9
330
1F
100
AcDbEntity
  8
0-A
  6
Continuous
 62
     7
370
     9
100
AcDbMText
 10
-11.66671752929631
 20
835.3218679251125
 30
0.0
 40
67.31
 41
530.0
 46
0.0
 71
     7
 72
     1
  1
{\fＭＳ ゴシック|b0|i0|c128|p49;コーナー巾木}
 73
     1
 44
1.0
  0
MTEXT
  5
DA
330
1F
100
AcDbEntity
  8
0-A
  6
Continuous
 62
     7
370
     9
100
AcDbMText
 10
-293.3338392103036
 20
717.4435312299914
 30
0.0
 40
45.72
 41
60.0
 46
0.0
 71
     7
 72
     1
  1
{\fＭＳ ゴシック|b0|i0|c128|p49;10}
 73
     1
 44
1.0
  0
MTEXT
  5
DB
330
1F
100
AcDbEntity
  8
0-A
  6
Continuous
 62
     7
370
     9
100
AcDbMText
 10
93.3332824707037
 20
682.1468679251126
 30
0.0
 40
60.96
 41
320.0
 46
0.0
 71
     7
 72
     1
  1
{\fＭＳ ゴシック|b0|i0|c128|p49;Ｄ型対応}
 73
     1
 44
1.0
  0
LINE
  5
DC
330
1F
100
AcDbEntity
  8
F-1
  6
Continuous
 62
   200
370
    20
100
AcDbLine
 10
3799.999175200592
 20
-2530.000002061998
 30
0.0
 11
-3999.999835040119
 21
-2530.000002061998
 31
0.0
  0
LINE
  5
DD
330
1F
100
AcDbEntity
  8
F-1
  6
Continuous
 62
   200
370
    20
100
AcDbLine
 10
3799.999175200592
 20
-2526.666678351325
 30
0.0
 11
-3999.999835040119
 21
-2526.666678351325
 31
0.0
  0
LINE
  5
DE
330
1F
100
AcDbEntity
  8
F-0
  6
JWW_HOJO
 62
     7
370
     9
100
AcDbLine
 10
-3498.364917835225
 20
-2530.000002061999
 30
0.0
 11
-3498.364917835225
 21
-2803.333443306588
 31
0.0
  0
LINE
  5
DF
330
1F
100
AcDbEntity
  8
F-0
  6
JWW_HOJO
 62
     7
370
     9
100
AcDbLine
 10
-140.0000824799406
 20
-2530.000002061998
 30
0.0
 11
-140.0000824799406
 21
-2796.666672165329
 31
0.0
  0
MTEXT
  5
E0
330
1F
100
AcDbEntity
  8
0-A
  6
Continuous
 62
     7
370
     9
100
AcDbMText
 10
-1483.333839210304
 20
665.3601945673898
 30
0.0
 40
45.72
 41
360.0
 46
0.0
 71
     7
 72
     1
  1
{\fＭＳ ゴシック|b0|i0|c128|p49;3,900×60×9}
 73
     1
 44
1.0
  0
MTEXT
  5
E1
330
1F
100
AcDbEntity
  8
0-A
  6
Continuous
 62
     7
370
     9
100
AcDbMText
 10
-278.3338392103036
 20
613.2768578722693
 30
0.0
 40
45.72
 41
30.0
 46
0.0
 71
     7
 72
     1
  1
{\fＭＳ ゴシック|b0|i0|c128|p49;1}
 73
     1
 44
1.0
  0
LINE
  5
E2
330
1F
100
AcDbEntity
  8
1-4
  6
Continuous
 62
    92
370
    13
100
AcDbLine
 10
1388.722090962846
 20
1399.27027264869
 30
0.0
 11
1388.722090962846
 21
1309.257828519673
 31
0.0
  0
ARC
  5
E3
330
1F
100
AcDbEntity
  8
1-4
  6
Continuous
 62
    92
370
    13
100
AcDbCircle
 10
1348.722090962846
 20
1399.27027264869
 30
0.0
 40
40.0
100
AcDbArc
 50
0.0
 51
75.00000000000001
  0
LINE
  5
E4
330
1F
100
AcDbEntity
  8
1-4
  6
Continuous
 62
    92
370
    13
100
AcDbLine
 10
1388.722090962846
 20
1009.257828519673
 30
0.0
 11
1388.722090962846
 21
1269.257828554789
 31
0.0
  0
LINE
  5
E5
330
1F
100
AcDbEntity
  8
1-4
  6
Continuous
 62
    92
370
    13
100
AcDbLine
 10
1388.722090962846
 20
1269.257828554789
 30
0.0
 11
1382.016906245088
 21
1281.407239166851
 31
0.0
  0
LINE
  5
E6
330
1F
100
AcDbEntity
  8
1-4
  6
Continuous
 62
    92
370
    13
100
AcDbLine
 10
1382.016906245088
 20
1281.407239166851
 30
0.0
 11
1382.016906245088
 21
1311.054477350779
 31
0.0
  0
LINE
  5
E7
330
1F
100
AcDbEntity
  8
1-4
  6
Continuous
 62
    92
370
    13
100
AcDbLine
 10
1359.074852766947
 20
1437.907305700253
 30
0.0
 11
1268.965023702824
 21
1452.74997348691
 31
0.0
  0
LINE
  5
E8
330
1F
100
AcDbEntity
  8
1-4
  6
Continuous
 62
    92
370
    13
100
AcDbLine
 10
1206.024071447698
 20
1048.909427166341
 30
0.0
 11
1388.722090962846
 21
1009.257828519673
 31
0.0
  0
LINE
  5
E9
330
1F
100
AcDbEntity
  8
1-4
  6
Continuous
 62
    92
370
    13
100
AcDbLine
 10
1388.722090963067
 20
1309.257828520497
 30
0.0
 11
1206.024071447698
 21
1348.909427167223
 31
0.0
  0
LINE
  5
EA
330
1F
100
AcDbEntity
  8
1-4
  6
Continuous
 62
    92
370
    13
100
AcDbLine
 10
1206.024071447698
 20
1048.909427166341
 30
0.0
 11
1206.024071447698
 21
1308.909427179194
 31
0.0
  0
LINE
  5
EB
330
1F
100
AcDbEntity
  8
1-4
  6
Continuous
 62
    92
370
    13
100
AcDbLine
 10
1206.024071447698
 20
1308.909427179194
 30
0.0
 11
1388.722090962846
 21
1269.257828532525
 31
0.0
  0
LINE
  5
EC
330
1F
100
AcDbEntity
  8
1-4
  6
Continuous
 62
    92
370
    13
100
AcDbLine
 10
1219.357404781031
 20
1345.336771268142
 30
0.0
 11
1219.357404781031
 21
1315.689533084213
 31
0.0
  0
LINE
  5
ED
330
1F
100
AcDbEntity
  8
1-4
  6
Continuous
 62
    92
370
    13
100
AcDbLine
 10
1382.016906245088
 20
1281.407239166851
 30
0.0
 11
1219.357404781031
 21
1315.689533084213
 31
0.0
  0
LINE
  5
EE
330
1F
100
AcDbEntity
  8
1-4
  6
Continuous
 62
    92
370
    13
100
AcDbLine
 10
1206.024071447698
 20
1308.909427179194
 30
0.0
 11
1219.357404781031
 21
1315.689533084213
 31
0.0
  0
LINE
  5
EF
330
1F
100
AcDbEntity
  8
1-4
  6
Continuous
 62
    92
370
    13
100
AcDbLine
 10
1206.024071447698
 20
1404.453682172457
 30
0.0
 11
1206.024071447698
 21
1348.909427167223
 31
0.0
  0
ARC
  5
F0
330
1F
100
AcDbEntity
  8
1-4
  6
Continuous
 62
    92
370
    13
100
AcDbCircle
 10
1256.024071447698
 20
1404.453682172457
 30
0.0
 40
50.0
100
AcDbArc
 50
75.00000000000001
 51
180.0
  0
LINE
  5
F1
330
1F
100
AcDbEntity
  8
1-4
  6
Continuous
 62
    92
370
    13
100
AcDbLine
 10
1388.722090962846
 20
1009.257828519673
 30
0.0
 11
1482.420007776727
 21
1068.312240780162
 31
0.0
  0
LINE
  5
F2
330
1F
100
AcDbEntity
  8
1-4
  6
Continuous
 62
    92
370
    13
100
AcDbLine
 10
1482.420007776727
 20
1068.312240780162
 30
0.0
 11
1482.420007776727
 21
1328.312240815279
 31
0.0
  0
LINE
  5
F3
330
1F
100
AcDbEntity
  8
1-4
  6
Continuous
 62
    92
370
    13
100
AcDbLine
 10
1482.420007776727
 20
1328.312240815279
 30
0.0
 11
1388.722090945288
 21
1269.25782853723
 31
0.0
  0
LINE
  5
F4
330
1F
100
AcDbEntity
  8
1-4
  6
Continuous
 62
    92
370
    13
100
AcDbLine
 10
1482.420007776727
 20
1328.312240815279
 30
0.0
 11
1467.549857267251
 21
1332.296685635622
 31
0.0
  0
LINE
  5
F5
330
1F
100
AcDbEntity
  8
1-4
  6
Continuous
 62
    92
370
    13
100
AcDbLine
 10
1382.016906245088
 20
1281.407239166851
 30
0.0
 11
1467.549857267251
 21
1332.296685635622
 31
0.0
  0
LINE
  5
F6
330
1F
100
AcDbEntity
  8
1-4
  6
Continuous
 62
    92
370
    13
100
AcDbLine
 10
1467.549857267251
 20
1332.296685635622
 30
0.0
 11
1467.549857267251
 21
1353.442090270685
 31
0.0
  0
LINE
  5
F7
330
1F
100
AcDbEntity
  8
1-4
  6
Continuous
 62
    92
370
    13
100
AcDbLine
 10
1388.722090962846
 20
1309.257828519673
 30
0.0
 11
1482.420007794286
 21
1368.312240797721
 31
0.0
  0
LINE
  5
F8
330
1F
100
AcDbEntity
  8
1-4
  6
Continuous
 62
    92
370
    13
100
AcDbLine
 10
1363.742811965963
 20
1436.342876287315
 30
0.0
 11
1441.358167874498
 21
1479.31472764246
 31
0.0
  0
ARC
  5
F9
330
1F
100
AcDbEntity
  8
1-4
  6
Continuous
 62
    92
370
    13
100
AcDbCircle
 10
1436.56423570956
 20
1419.277881309058
 30
0.0
 40
60.22793955684111
100
AcDbArc
 50
40.41483888088761
 51
85.43462805161971
  0
LINE
  5
FA
330
1F
100
AcDbEntity
  8
1-4
  6
Continuous
 62
    92
370
    13
100
AcDbLine
 10
1482.420007776727
 20
1368.312240797721
 30
0.0
 11
1482.420007776727
 21
1458.324684909181
 31
0.0
  0
LINE
  5
FB
330
1F
100
AcDbEntity
  8
1-0
  6
JWW_HOJO
 62
     7
370
     9
100
AcDbLine
 10
1495.753341110061
 20
1068.312240780162
 30
0.0
 11
1495.753341110061
 21
1328.312240815279
 31
0.0
  0
LINE
  5
FC
330
1F
100
AcDbEntity
  8
1-0
  6
JWW_HOJO
 62
     7
370
     9
100
AcDbLine
 10
1452.244788956564
 20
1490.201348724525
 30
0.0
 11
1514.534431249302
 21
1473.510889375362
 31
0.0
  0
LINE
  5
FD
330
1F
100
AcDbEntity
  8
1-0
  6
JWW_HOJO
 62
     7
370
     9
100
AcDbLine
 10
1465.75224375524
 20
1521.091243133089
 30
0.0
 11
1496.152103517702
 21
1512.945625259719
 31
0.0
  0
LWPOLYLINE
  5
FE
330
1F
100
AcDbEntity
  8
1-B
  6
Continuous
 62
     7
370
     9
100
AcDbPolyline
 90
        4
 70
     1
 43
2.0
 10
1480.461341654154
 20
1517.417901422116
 42
0.4142135623731
 10
1479.461341654154
 20
1518.417901422116
 42
0.4142135623731
 10
1478.461341654154
 20
1517.417901422116
 42
0.4142135623731
 10
1479.461341654154
 20
1516.417901422116
 42
0.4142135623731
  0
LWPOLYLINE
  5
FF
330
1F
100
AcDbEntity
  8
1-B
  6
Continuous
 62
     7
370
     9
100
AcDbPolyline
 90
        4
 70
     1
 43
2.0
 10
1524.020070529319
 20
1505.746375196689
 42
0.4142135623731
 10
1523.020070529319
 20
1506.746375196689
 42
0.4142135623731
 10
1522.020070529319
 20
1505.746375196689
 42
0.4142135623731
 10
1523.020070529319
 20
1504.746375196689
 42
0.4142135623731
  0
LINE
  5
100
330
1F
100
AcDbEntity
  8
1-B
  6
Continuous
 62
   120
370
     5
100
AcDbLine
 10
1479.461341654154
 20
1517.417901422116
 30
0.0
 11
1523.020070529319
 21
1505.746375196689
 31
0.0
  0
LINE
  5
101
330
1F
100
AcDbEntity
  8
1-B
  6
Continuous
 62
   120
370
     5
100
AcDbLine
 10
1495.803517831728
 20
1478.529822499099
 30
0.0
 11
1523.020070529319
 21
1505.746375196689
 31
0.0
  0
LINE
  5
102
330
1F
100
AcDbEntity
  8
1-B
  6
Continuous
 62
   120
370
     5
100
AcDbLine
 10
1452.244788956564
 20
1490.201348724525
 30
0.0
 11
1479.461341654154
 21
1517.417901422116
 31
0.0
  0
MTEXT
  5
103
330
1F
100
AcDbEntity
  8
0-A
  6
Continuous
 62
     7
370
     9
100
AcDbMText
 10
-11.66671752929631
 20
-831.3449054082207
 30
0.0
 40
67.31
 41
530.0
 46
0.0
 71
     7
 72
     1
  1
{\fＭＳ ゴシック|b0|i0|c128|p49;コーナー巾木}
 73
     1
 44
1.0
  0
MTEXT
  5
104
330
1F
100
AcDbEntity
  8
0-A
  6
Continuous
 62
     7
370
     9
100
AcDbMText
 10
93.3332824707037
 20
-984.5199054082207
 30
0.0
 40
60.96
 41
320.0
 46
0.0
 71
     7
 72
     1
  1
{\fＭＳ ゴシック|b0|i0|c128|p49;Ｗ型対応}
 73
     1
 44
1.0
  0
LINE
  5
105
330
1F
100
AcDbEntity
  8
1-0
  6
JWW_HOJO
 62
     7
370
     9
100
AcDbLine
 10
1553.355518580144
 20
1068.312240780162
 30
0.0
 11
1553.355518580144
 21
1328.312240815279
 31
0.0
  0
LINE
  5
106
330
1F
100
AcDbEntity
  8
1-B
  6
Continuous
 62
   120
370
     5
100
AcDbLine
 10
1553.355518580144
 20
1068.312240780162
 30
0.0
 11
1553.355518580144
 21
1468.312240797721
 31
0.0
  0
LWPOLYLINE
  5
107
330
1F
100
AcDbEntity
  8
1-B
  6
Continuous
 62
     7
370
     9
100
AcDbPolyline
 90
        4
 70
     1
 43
2.0
 10
1554.355518580144
 20
1068.312240780162
 42
0.4142135623731
 10
1553.355518580144
 20
1069.312240780162
 42
0.4142135623731
 10
1552.355518580144
 20
1068.312240780162
 42
0.4142135623731
 10
1553.355518580144
 20
1067.312240780162
 42
0.4142135623731
  0
LWPOLYLINE
  5
108
330
1F
100
AcDbEntity
  8
1-B
  6
Continuous
 62
     7
370
     9
100
AcDbPolyline
 90
        4
 70
     1
 43
2.0
 10
1554.355518580144
 20
1328.312240815279
 42
0.4142135623731
 10
1553.355518580144
 20
1329.312240815279
 42
0.4142135623731
 10
1552.355518580144
 20
1328.312240815279
 42
0.4142135623731
 10
1553.355518580144
 20
1327.312240815279
 42
0.4142135623731
  0
LINE
  5
109
330
1F
100
AcDbEntity
  8
1-B
  6
Continuous
 62
   120
370
     5
100
AcDbLine
 10
1632.039193936032
 20
1068.312240780162
 30
0.0
 11
1495.753341110061
 21
1068.312240780162
 31
0.0
  0
LINE
  5
10A
330
1F
100
AcDbEntity
  8
1-B
  6
Continuous
 62
   120
370
     5
100
AcDbLine
 10
1553.355518580144
 20
1328.312240815279
 30
0.0
 11
1495.753341110061
 21
1328.312240815279
 31
0.0
  0
LWPOLYLINE
  5
10B
330
1F
100
AcDbEntity
  8
1-B
  6
Continuous
 62
     7
370
     9
100
AcDbPolyline
 90
        4
 70
     1
 43
2.0
 10
1554.355518580144
 20
1368.312240797721
 42
0.4142135623731
 10
1553.355518580144
 20
1369.312240797721
 42
0.4142135623731
 10
1552.355518580144
 20
1368.312240797721
 42
0.4142135623731
 10
1553.355518580144
 20
1367.312240797721
 42
0.4142135623731
  0
LINE
  5
10C
330
1F
100
AcDbEntity
  8
1-B
  6
Continuous
 62
   120
370
     5
100
AcDbLine
 10
1553.355518580144
 20
1368.312240797721
 30
0.0
 11
1495.753341110061
 21
1368.312240797721
 31
0.0
  0
LWPOLYLINE
  5
10D
330
1F
100
AcDbEntity
  8
1-B
  6
Continuous
 62
     7
370
     9
100
AcDbPolyline
 90
        4
 70
     1
 43
2.0
 10
1554.355518580144
 20
1468.312240797721
 42
0.4142135623731
 10
1553.355518580144
 20
1469.312240797721
 42
0.4142135623731
 10
1552.355518580144
 20
1468.312240797721
 42
0.4142135623731
 10
1553.355518580144
 20
1467.312240797721
 42
0.4142135623731
  0
LINE
  5
10E
330
1F
100
AcDbEntity
  8
1-B
  6
Continuous
 62
   120
370
     5
100
AcDbLine
 10
1632.039193936032
 20
1468.312240797721
 30
0.0
 11
1495.753341110061
 21
1468.312240797721
 31
0.0
  0
LINE
  5
10F
330
1F
100
AcDbEntity
  8
1-0
  6
JWW_HOJO
 62
     7
370
     9
100
AcDbLine
 10
1184.836501556197
 20
1041.477602215512
 30
0.0
 11
1385.27117036148
 21
996.3788175024848
 31
0.0
  0
LWPOLYLINE
  5
110
330
1F
100
AcDbEntity
  8
1-B
  6
Continuous
 62
     7
370
     9
100
AcDbPolyline
 90
        4
 70
     1
 43
2.0
 10
1163.826919967965
 20
977.4165826515423
 42
0.4142135623731
 10
1162.826919967965
 20
978.4165826515423
 42
0.4142135623731
 10
1161.826919967965
 20
977.4165826515423
 42
0.4142135623731
 10
1162.826919967965
 20
976.4165826515423
 42
0.4142135623731
  0
LINE
  5
111
330
1F
100
AcDbEntity
  8
1-B
  6
Continuous
 62
   120
370
     5
100
AcDbLine
 10
1203.496915292071
 20
1036.477559424553
 30
0.0
 11
1162.826919967965
 21
977.4165826515423
 31
0.0
  0
LWPOLYLINE
  5
112
330
1F
100
AcDbEntity
  8
1-B
  6
Continuous
 62
     7
370
     9
100
AcDbPolyline
 90
        4
 70
     1
 43
2.0
 10
1345.930937846487
 20
937.7967223584102
 42
0.4142135623731
 10
1344.930937846487
 20
938.7967223584101
 42
0.4142135623731
 10
1343.930937846487
 20
937.7967223584102
 42
0.4142135623731
 10
1344.930937846487
 20
936.7967223584103
 42
0.4142135623731
  0
LINE
  5
113
330
1F
100
AcDbEntity
  8
1-B
  6
Continuous
 62
   120
370
     5
100
AcDbLine
 10
1385.600933170593
 20
996.8576991314217
 30
0.0
 11
1344.930937846487
 21
937.7967223584102
 31
0.0
  0
LINE
  5
114
330
1F
100
AcDbEntity
  8
1-0
  6
JWW_HOJO
 62
     7
370
     9
100
AcDbLine
 10
1162.826919967965
 20
977.4165826515423
 30
0.0
 11
1344.930937846487
 21
937.7967223584102
 31
0.0
  0
LINE
  5
115
330
1F
100
AcDbEntity
  8
1-B
  6
Continuous
 62
   120
370
     5
100
AcDbLine
 10
1162.826919967965
 20
977.4165826515423
 30
0.0
 11
1344.930937846487
 21
937.7967223584102
 31
0.0
  0
LWPOLYLINE
  5
116
330
1F
100
AcDbEntity
  8
1-B
  6
Continuous
 62
     7
370
     9
100
AcDbPolyline
 90
        4
 70
     1
 43
2.0
 10
1462.766311710998
 20
953.1554111868718
 42
0.4142135623731
 10
1461.766311710998
 20
954.1554111868718
 42
0.4142135623731
 10
1460.766311710998
 20
953.1554111868718
 42
0.4142135623731
 10
1461.766311710998
 20
952.1554111868718
 42
0.4142135623731
  0
LINE
  5
117
330
1F
100
AcDbEntity
  8
1-B
  6
Continuous
 62
   120
370
     5
100
AcDbLine
 10
1393.022831175293
 20
996.471077315403
 30
0.0
 11
1461.766311710998
 21
953.1554111868718
 31
0.0
  0
LINE
  5
118
330
1F
100
AcDbEntity
  8
1-B
  6
Continuous
 62
   120
370
     5
100
AcDbLine
 10
1560.133687529537
 20
1017.302119880734
 30
0.0
 11
1461.766311710998
 21
953.1554111868718
 31
0.0
  0
LINE
  5
119
330
1F
100
AcDbEntity
  8
1-0
  6
JWW_HOJO
 62
     7
370
     9
100
AcDbLine
 10
1461.766311710998
 20
953.1554111868718
 30
0.0
 11
1560.133687529537
 21
1017.302119880734
 31
0.0
  0
LINE
  5
11A
330
1F
100
AcDbEntity
  8
1-0
  6
JWW_HOJO
 62
     7
370
     9
100
AcDbLine
 10
1393.022831175293
 20
996.471077315403
 30
0.0
 11
1491.39020699383
 21
1060.617786009266
 31
0.0
  0
LINE
  5
11B
330
1F
100
AcDbEntity
  8
1-B
  6
Continuous
 62
   120
370
     5
100
AcDbLine
 10
1491.39020699383
 20
1060.617786009266
 30
0.0
 11
1560.133687529537
 21
1017.302119880734
 31
0.0
  0
LWPOLYLINE
  5
11C
330
1F
100
AcDbEntity
  8
1-B
  6
Continuous
 62
     7
370
     9
100
AcDbPolyline
 90
        4
 70
     1
 43
2.0
 10
1561.133687529537
 20
1017.302119880734
 42
0.4142135623731
 10
1560.133687529537
 20
1018.302119880734
 42
0.4142135623731
 10
1559.133687529537
 20
1017.302119880734
 42
0.4142135623731
 10
1560.133687529537
 20
1016.302119880734
 42
0.4142135623731
  0
LINE
  5
11D
330
1F
100
AcDbEntity
  8
1-4
  6
Continuous
 62
    92
370
    13
100
AcDbLine
 10
1380.282964817402
 20
470.5412179366112
 30
0.0
 11
1380.282964817402
 21
210.5412179366112
 31
0.0
  0
LINE
  5
11E
330
1F
100
AcDbEntity
  8
1-4
  6
Continuous
 62
    92
370
    13
100
AcDbLine
 10
1380.282964817402
 20
470.5412179366112
 30
0.0
 11
1374.727409261847
 21
491.274833534215
 31
0.0
  0
LINE
  5
11F
330
1F
100
AcDbEntity
  8
1-4
  6
Continuous
 62
    92
370
    13
100
AcDbLine
 10
1374.727409261847
 20
504.9856623810552
 30
0.0
 11
1374.727409261847
 21
491.274833534215
 31
0.0
  0
LINE
  5
120
330
1F
100
AcDbEntity
  8
1-4
  6
Continuous
 62
    92
370
    13
100
AcDbLine
 10
1380.282964817402
 20
585.1665861876273
 30
0.0
 11
1380.282964817402
 21
510.5412179354272
 31
0.0
  0
ARC
  5
121
330
1F
100
AcDbEntity
  8
1-4
  6
Continuous
 62
    92
370
    13
100
AcDbCircle
 10
1260.565487234626
 20
582.7790712424326
 30
0.0
 40
119.7412822145982
100
AcDbArc
 50
1.142493157055742
 51
33.37628003814834
  0
LINE
  5
122
330
1F
100
AcDbEntity
  8
1-B
  6
Continuous
 62
   120
370
     5
100
AcDbLine
 10
1370.31919805979
 20
658.4136277159519
 30
0.0
 11
1394.720891645419
 21
682.8153213015804
 31
0.0
  0
LINE
  5
123
330
1F
100
AcDbEntity
  8
1-B
  6
Continuous
 62
   120
370
     5
100
AcDbLine
 10
1348.604180996631
 20
655.554791484434
 30
0.0
 11
1318.718331924362
 21
672.8093944912689
 31
0.0
  0
LINE
  5
124
330
1F
100
AcDbEntity
  8
1-4
  6
Continuous
 62
    92
370
    13
100
AcDbLine
 10
1567.547479671495
 20
169.5834998624002
 30
0.0
 11
1547.547479671495
 21
149.5834998624002
 31
0.0
  0
LINE
  5
125
330
1F
100
AcDbEntity
  8
1-4
  6
Continuous
 62
    92
370
    13
100
AcDbLine
 10
1547.547479671495
 20
149.5834998624002
 30
0.0
 11
1547.547479671495
 21
409.5834998624002
 31
0.0
  0
LINE
  5
126
330
1F
100
AcDbEntity
  8
1-4
  6
Continuous
 62
    92
370
    13
100
AcDbLine
 10
1547.547479671495
 20
149.5834998624002
 30
0.0
 11
1380.282964817402
 21
210.5412179366112
 31
0.0
  0
LINE
  5
127
330
1F
100
AcDbEntity
  8
1-4
  6
Continuous
 62
    92
370
    13
100
AcDbLine
 10
1547.547479671495
 20
409.5834998624002
 30
0.0
 11
1380.282964817402
 21
470.5412179366112
 31
0.0
  0
LINE
  5
128
330
1F
100
AcDbEntity
  8
1-4
  6
Continuous
 62
    92
370
    13
100
AcDbLine
 10
1547.547479671495
 20
409.5834998624002
 30
0.0
 11
1558.658590782605
 21
420.6946109735111
 31
0.0
  0
LINE
  5
129
330
1F
100
AcDbEntity
  8
1-4
  6
Continuous
 62
    92
370
    13
100
AcDbLine
 10
1558.658590782605
 20
420.6946109735122
 30
0.0
 11
1374.727409261847
 21
491.274833534215
 31
0.0
  0
LINE
  5
12A
330
1F
100
AcDbEntity
  8
1-4
  6
Continuous
 62
    92
370
    13
100
AcDbLine
 10
1541.991924115939
 20
527.4594018119211
 30
0.0
 11
1541.991924115939
 21
452.7910013567146
 31
0.0
  0
LINE
  5
12B
330
1F
100
AcDbEntity
  8
1-4
  6
Continuous
 62
    92
370
    13
100
AcDbLine
 10
1380.282964816652
 20
510.5412179358609
 30
0.0
 11
1541.991924115939
 21
452.7910013567146
 31
0.0
  0
LINE
  5
12C
330
1F
100
AcDbEntity
  8
1-4
  6
Continuous
 62
    92
370
    13
100
AcDbLine
 10
1558.658590782605
 20
420.6946109735111
 30
0.0
 11
1558.658590782605
 21
469.5834998623997
 31
0.0
  0
LINE
  5
12D
330
1F
100
AcDbEntity
  8
1-4
  6
Continuous
 62
    92
370
    13
100
AcDbLine
 10
1541.991924115939
 20
452.7910013567146
 30
0.0
 11
1558.658590782605
 21
469.4576680233814
 31
0.0
  0
LINE
  5
12E
330
1F
100
AcDbEntity
  8
1-4
  6
Continuous
 62
    92
370
    13
100
AcDbLine
 10
1567.547479671495
 20
169.5834998624002
 30
0.0
 11
1567.547479671495
 21
564.7603136599088
 31
0.0
  0
LINE
  5
12F
330
1F
100
AcDbEntity
  8
1-4
  6
Continuous
 62
    92
370
    13
100
AcDbLine
 10
1360.558520625539
 20
648.6529502816995
 30
0.0
 11
1567.547479671495
 21
564.7603136599088
 31
0.0
  0
ARC
  5
130
330
1F
100
AcDbEntity
  8
1-4
  6
Continuous
 62
    92
370
    13
100
AcDbCircle
 10
1581.991924115939
 20
527.4594018119211
 30
0.0
 40
40.0
100
AcDbArc
 50
111.1684488458323
 51
180.0
  0
LINE
  5
131
330
1F
100
AcDbEntity
  8
1-0
  6
JWW_HOJO
 62
     7
370
     9
100
AcDbLine
 10
1580.880813004827
 20
169.5834998624002
 30
0.0
 11
1580.880813004827
 21
564.7603136599088
 31
0.0
  0
LINE
  5
132
330
1F
100
AcDbEntity
  8
1-0
  6
JWW_HOJO
 62
     7
370
     9
100
AcDbLine
 10
1394.720891645419
 20
682.8153213015804
 30
0.0
 11
1601.709850691375
 21
598.9226846797897
 31
0.0
  0
LINE
  5
133
330
1F
100
AcDbEntity
  8
1-0
  6
JWW_HOJO
 62
     7
370
     9
100
AcDbLine
 10
1367.225187292205
 20
660.199955665492
 30
0.0
 11
1593.581212385948
 21
565.1257382475984
 31
0.0
  0
LINE
  5
134
330
1F
100
AcDbEntity
  8
1-B
  6
Continuous
 62
   120
370
     5
100
AcDbLine
 10
1577.308157105746
 20
574.5209910941605
 30
0.0
 11
1601.709850691375
 21
598.9226846797897
 31
0.0
  0
LWPOLYLINE
  5
135
330
1F
100
AcDbEntity
  8
1-B
  6
Continuous
 62
     7
370
     9
100
AcDbPolyline
 90
        4
 70
     1
 43
2.0
 10
1395.720891645419
 20
682.8153213015804
 42
0.4142135623731
 10
1394.720891645419
 20
683.8153213015803
 42
0.4142135623731
 10
1393.720891645419
 20
682.8153213015804
 42
0.4142135623731
 10
1394.720891645419
 20
681.8153213015805
 42
0.4142135623731
  0
LWPOLYLINE
  5
136
330
1F
100
AcDbEntity
  8
1-B
  6
Continuous
 62
     7
370
     9
100
AcDbPolyline
 90
        4
 70
     1
 43
2.0
 10
1319.718331924362
 20
672.8093944912689
 42
0.4142135623731
 10
1318.718331924362
 20
673.8093944912689
 42
0.4142135623731
 10
1317.718331924362
 20
672.8093944912689
 42
0.4142135623731
 10
1318.718331924362
 20
671.8093944912689
 42
0.4142135623731
  0
LINE
  5
137
330
1F
100
AcDbEntity
  8
1-B
  6
Continuous
 62
   120
370
     5
100
AcDbLine
 10
1601.709850691375
 20
598.9226846797897
 30
0.0
 11
1394.720891645419
 21
682.8153213015804
 31
0.0
  0
LWPOLYLINE
  5
138
330
1F
100
AcDbEntity
  8
1-B
  6
Continuous
 62
     7
370
     9
100
AcDbPolyline
 90
        4
 70
     1
 43
2.0
 10
1602.709850691375
 20
598.9226846797897
 42
0.4142135623731
 10
1601.709850691375
 20
599.9226846797897
 42
0.4142135623731
 10
1600.709850691375
 20
598.9226846797897
 42
0.4142135623731
 10
1601.709850691375
 20
597.9226846797897
 42
0.4142135623731
  0
LINE
  5
139
330
1F
100
AcDbEntity
  8
1-4
  6
Continuous
 62
    92
370
    13
100
AcDbLine
 10
1241.118029818612
 20
529.5042092425757
 30
0.0
 11
1219.451363151946
 21
542.0134650750174
 31
0.0
  0
LINE
  5
13A
330
1F
100
AcDbEntity
  8
1-4
  6
Continuous
 62
    92
370
    13
100
AcDbLine
 10
1256.118029818612
 20
120.8439552047309
 30
0.0
 11
1219.451363151946
 21
142.0134650750174
 31
0.0
  0
LINE
  5
13B
330
1F
100
AcDbEntity
  8
1-4
  6
Continuous
 62
    92
370
    13
100
AcDbLine
 10
1256.118029818612
 20
120.8439552047309
 30
0.0
 11
1380.282964817402
 21
210.5412179366112
 31
0.0
  0
LINE
  5
13C
330
1F
100
AcDbEntity
  8
1-4
  6
Continuous
 62
    92
370
    13
100
AcDbLine
 10
1219.451363151946
 20
142.0134650750174
 30
0.0
 11
1219.451363151946
 21
542.0134650750174
 31
0.0
  0
LINE
  5
13D
330
1F
100
AcDbEntity
  8
1-4
  6
Continuous
 62
    92
370
    13
100
AcDbLine
 10
1380.282964817402
 20
470.5412179366112
 30
0.0
 11
1256.118029818612
 21
380.8439552047309
 31
0.0
  0
LINE
  5
13E
330
1F
100
AcDbEntity
  8
1-4
  6
Continuous
 62
    92
370
    13
100
AcDbLine
 10
1256.118029818612
 20
120.8439552047309
 30
0.0
 11
1256.118029818612
 21
380.8439552047309
 31
0.0
  0
LINE
  5
13F
330
1F
100
AcDbEntity
  8
1-4
  6
Continuous
 62
    92
370
    13
100
AcDbLine
 10
1256.118029818612
 20
503.5234471290426
 30
0.0
 11
1256.118029818612
 21
420.8439552047309
 31
0.0
  0
ARC
  5
140
330
1F
100
AcDbEntity
  8
1-4
  6
Continuous
 62
    92
370
    13
100
AcDbCircle
 10
1226.118029818612
 20
503.5234471290426
 30
0.0
 40
30.0
100
AcDbArc
 50
0.0
 51
60.00000000000027
  0
LINE
  5
141
330
1F
100
AcDbEntity
  8
1-4
  6
Continuous
 62
    92
370
    13
100
AcDbLine
 10
1256.118029818612
 20
380.8439552047309
 30
0.0
 11
1239.451363151946
 21
390.4664596912244
 31
0.0
  0
LINE
  5
142
330
1F
100
AcDbEntity
  8
1-4
  6
Continuous
 62
    92
370
    13
100
AcDbLine
 10
1256.118029818612
 20
420.8439552047309
 30
0.0
 11
1239.451363151946
 21
430.4664596912249
 31
0.0
  0
LINE
  5
143
330
1F
100
AcDbEntity
  8
1-4
  6
Continuous
 62
    92
370
    13
100
AcDbLine
 10
1239.451363151946
 20
390.4664596912244
 30
0.0
 11
1239.451363151946
 21
430.4664596912249
 31
0.0
  0
LINE
  5
144
330
1F
100
AcDbEntity
  8
1-4
  6
Continuous
 62
    92
370
    13
100
AcDbLine
 10
1239.451363151946
 20
390.4664596912244
 30
0.0
 11
1374.727409261847
 21
491.274833534215
 31
0.0
  0
LINE
  5
145
330
1F
100
AcDbEntity
  8
1-4
  6
Continuous
 62
    92
370
    13
100
AcDbLine
 10
1256.118029818612
 20
420.8439552047309
 30
0.0
 11
1380.282964817402
 21
510.5412179366112
 31
0.0
  0
LINE
  5
146
330
1F
100
AcDbEntity
  8
1-4
  6
Continuous
 62
    92
370
    13
100
AcDbLine
 10
1219.451363151946
 20
542.0134650750174
 30
0.0
 11
1360.558520625539
 21
648.6529502816995
 31
0.0
  0
LINE
  5
147
330
1F
100
AcDbEntity
  8
1-0
  6
JWW_HOJO
 62
     7
370
     9
100
AcDbLine
 10
1188.105920834115
 20
529.5242035888282
 30
0.0
 11
1370.163784575282
 21
677.1143950630841
 31
0.0
  0
LINE
  5
148
330
1F
100
AcDbEntity
  8
1-0
  6
JWW_HOJO
 62
     7
370
     9
100
AcDbLine
 10
1177.61117445077
 20
566.1699092845856
 30
0.0
 11
1318.718331924362
 21
672.8093944912689
 31
0.0
  0
LINE
  5
149
330
1F
100
AcDbEntity
  8
1-B
  6
Continuous
 62
   120
370
     5
100
AcDbLine
 10
1207.497023523039
 20
548.9153062777507
 30
0.0
 11
1177.61117445077
 21
566.1699092845856
 31
0.0
  0
LINE
  5
14A
330
1F
100
AcDbEntity
  8
1-B
  6
Continuous
 62
   120
370
     5
100
AcDbLine
 10
1177.61117445077
 20
566.1699092845856
 30
0.0
 11
1318.718331924362
 21
672.8093944912689
 31
0.0
  0
LWPOLYLINE
  5
14B
330
1F
100
AcDbEntity
  8
1-B
  6
Continuous
 62
     7
370
     9
100
AcDbPolyline
 90
        4
 70
     1
 43
2.0
 10
1178.61117445077
 20
566.1699092845856
 42
0.4142135623731
 10
1177.61117445077
 20
567.1699092845856
 42
0.4142135623731
 10
1176.61117445077
 20
566.1699092845856
 42
0.4142135623731
 10
1177.61117445077
 20
565.1699092845856
 42
0.4142135623731
  0
LINE
  5
14C
330
1F
100
AcDbEntity
  8
1-0
  6
JWW_HOJO
 62
     7
370
     9
100
AcDbLine
 10
1642.929137308875
 20
169.5834998624002
 30
0.0
 11
1642.929137308875
 21
564.7603136599088
 31
0.0
  0
LINE
  5
14D
330
1F
100
AcDbEntity
  8
1-B
  6
Continuous
 62
   120
370
     5
100
AcDbLine
 10
1642.929137308875
 20
564.7603136599088
 30
0.0
 11
1642.929137308875
 21
169.5834998624002
 31
0.0
  0
LWPOLYLINE
  5
14E
330
1F
100
AcDbEntity
  8
1-B
  6
Continuous
 62
     7
370
     9
100
AcDbPolyline
 90
        4
 70
     1
 43
2.0
 10
1643.929137308875
 20
564.7603136599088
 42
0.4142135623731
 10
1642.929137308875
 20
565.7603136599088
 42
0.4142135623731
 10
1641.929137308875
 20
564.7603136599088
 42
0.4142135623731
 10
1642.929137308875
 20
563.7603136599088
 42
0.4142135623731
  0
LWPOLYLINE
  5
14F
330
1F
100
AcDbEntity
  8
1-B
  6
Continuous
 62
     7
370
     9
100
AcDbPolyline
 90
        4
 70
     1
 43
2.0
 10
1643.929137308875
 20
469.4576680233814
 42
0.4142135623731
 10
1642.929137308875
 20
470.4576680233814
 42
0.4142135623731
 10
1641.929137308875
 20
469.4576680233814
 42
0.4142135623731
 10
1642.929137308875
 20
468.4576680233814
 42
0.4142135623731
  0
LINE
  5
150
330
1F
100
AcDbEntity
  8
1-B
  6
Continuous
 62
   120
370
     5
100
AcDbLine
 10
1642.929137308875
 20
564.7603136599088
 30
0.0
 11
1580.880813004827
 21
564.7603136599088
 31
0.0
  0
LINE
  5
151
330
1F
100
AcDbEntity
  8
1-B
  6
Continuous
 62
   120
370
     5
100
AcDbLine
 10
1642.929137308875
 20
469.4576680233814
 30
0.0
 11
1580.880813004827
 21
469.4576680233814
 31
0.0
  0
LWPOLYLINE
  5
152
330
1F
100
AcDbEntity
  8
1-B
  6
Continuous
 62
     7
370
     9
100
AcDbPolyline
 90
        4
 70
     1
 43
2.0
 10
1643.929137308875
 20
420.6946109735111
 42
0.4142135623731
 10
1642.929137308875
 20
421.6946109735111
 42
0.4142135623731
 10
1641.929137308875
 20
420.6946109735111
 42
0.4142135623731
 10
1642.929137308875
 20
419.6946109735111
 42
0.4142135623731
  0
LINE
  5
153
330
1F
100
AcDbEntity
  8
1-B
  6
Continuous
 62
   120
370
     5
100
AcDbLine
 10
1642.929137308875
 20
420.6946109735111
 30
0.0
 11
1580.880813004827
 21
420.6946109735111
 31
0.0
  0
LWPOLYLINE
  5
154
330
1F
100
AcDbEntity
  8
1-B
  6
Continuous
 62
     7
370
     9
100
AcDbPolyline
 90
        4
 70
     1
 43
2.0
 10
1643.929137308875
 20
169.5834998624002
 42
0.4142135623731
 10
1642.929137308875
 20
170.5834998624002
 42
0.4142135623731
 10
1641.929137308875
 20
169.5834998624002
 42
0.4142135623731
 10
1642.929137308875
 20
168.5834998624002
 42
0.4142135623731
  0
LINE
  5
155
330
1F
100
AcDbEntity
  8
1-B
  6
Continuous
 62
   120
370
     5
100
AcDbLine
 10
1642.929137308875
 20
169.5834998624002
 30
0.0
 11
1580.880813004827
 21
169.5834998624002
 31
0.0
  0
LINE
  5
156
330
1F
100
AcDbEntity
  8
1-0
  6
JWW_HOJO
 62
     7
370
     9
100
AcDbLine
 10
1256.118029818612
 20
251.3044958919033
 30
0.0
 11
1219.451363151945
 21
272.4740057621887
 31
0.0
  0
LINE
  5
157
330
1F
100
AcDbEntity
  8
1-B
  6
Continuous
 62
   120
370
     5
100
AcDbLine
 10
1256.118029818612
 20
251.3044958919033
 30
0.0
 11
1219.451363151945
 21
272.4740057621887
 31
0.0
  0
LWPOLYLINE
  5
158
330
1F
100
AcDbEntity
  8
1-B
  6
Continuous
 62
     7
370
     9
100
AcDbPolyline
 90
        4
 70
     1
 43
2.0
 10
1257.118029818612
 20
251.3044958919033
 42
0.4142135623731
 10
1256.118029818612
 20
252.3044958919033
 42
0.4142135623731
 10
1255.118029818612
 20
251.3044958919033
 42
0.4142135623731
 10
1256.118029818612
 20
250.3044958919033
 42
0.4142135623731
  0
LWPOLYLINE
  5
159
330
1F
100
AcDbEntity
  8
1-B
  6
Continuous
 62
     7
370
     9
100
AcDbPolyline
 90
        4
 70
     1
 43
2.0
 10
1220.451363151945
 20
272.4740057621887
 42
0.4142135623731
 10
1219.451363151945
 20
273.4740057621887
 42
0.4142135623731
 10
1218.451363151945
 20
272.4740057621887
 42
0.4142135623731
 10
1219.451363151945
 20
271.4740057621887
 42
0.4142135623731
  0
LINE
  5
15A
330
1F
100
AcDbEntity
  8
1-B
  6
Continuous
 62
   120
370
     5
100
AcDbLine
 10
1632.039193936032
 20
1468.312240797721
 30
0.0
 11
1632.039193936032
 21
1068.312240780162
 31
0.0
  0
LWPOLYLINE
  5
15B
330
1F
100
AcDbEntity
  8
1-B
  6
Continuous
 62
     7
370
     9
100
AcDbPolyline
 90
        4
 70
     1
 43
2.0
 10
1633.039193936032
 20
1468.312240797721
 42
0.4142135623731
 10
1632.039193936032
 20
1469.312240797721
 42
0.4142135623731
 10
1631.039193936032
 20
1468.312240797721
 42
0.4142135623731
 10
1632.039193936032
 20
1467.312240797721
 42
0.4142135623731
  0
LWPOLYLINE
  5
15C
330
1F
100
AcDbEntity
  8
1-B
  6
Continuous
 62
     7
370
     9
100
AcDbPolyline
 90
        4
 70
     1
 43
2.0
 10
1633.039193936032
 20
1068.312240780162
 42
0.4142135623731
 10
1632.039193936032
 20
1069.312240780162
 42
0.4142135623731
 10
1631.039193936032
 20
1068.312240780162
 42
0.4142135623731
 10
1632.039193936032
 20
1067.312240780162
 42
0.4142135623731
  0
LINE
  5
15D
330
1F
100
AcDbEntity
  8
0-0
  6
JWW_HOJO
 62
   120
370
     5
100
AcDbLine
 10
13.33302729838636
 20
731.6668679251126
 30
0.0
 11
493.3330272983864
 21
731.6668679251126
 31
0.0
  0
LINE
  5
15E
330
1F
100
AcDbEntity
  8
0-0
  6
JWW_HOJO
 62
   120
370
     5
100
AcDbLine
 10
13.33302729838636
 20
881.6668679251126
 30
0.0
 11
493.3330272983864
 21
881.6668679251126
 31
0.0
  0
LINE
  5
15F
330
1F
100
AcDbEntity
  8
F-1
  6
Continuous
 62
     7
370
     9
100
AcDbLine
 10
3793.332651499156
 20
806.6668679251126
 30
0.0
 11
603.3330144108953
 21
806.6668679251126
 31
0.0
  0
LINE
  5
160
330
1F
100
AcDbEntity
  8
F-1
  6
Continuous
 62
     7
370
     9
100
AcDbLine
 10
3793.332651499156
 20
1640.000254591779
 30
0.0
 11
-96.66731550886823
 21
1640.000254591779
 31
0.0
  0
LINE
  5
161
330
1F
100
AcDbEntity
  8
F-1
  6
Continuous
 62
     7
370
     9
100
AcDbLine
 10
3793.332651499156
 20
-26.66651874155377
 30
0.0
 11
-96.66731550886823
 21
-26.66651874155377
 31
0.0
  0
LINE
  5
162
330
1F
100
AcDbEntity
  8
1-B
  6
Continuous
 62
    92
370
    13
100
AcDbLine
 10
1740.979879789705
 20
-1132.209948234804
 30
0.0
 11
1740.979879789705
 21
-1358.87661490147
 31
0.0
  0
LINE
  5
163
330
1F
100
AcDbEntity
  8
1-4
  6
Continuous
 62
    92
370
    13
100
AcDbLine
 10
1425.868495528694
 20
-421.4980853706277
 30
0.0
 11
1485.868495528694
 21
-421.4980853706277
 31
0.0
  0
LINE
  5
164
330
1F
100
AcDbEntity
  8
1-4
  6
Continuous
 62
    92
370
    13
100
AcDbLine
 10
1425.868495528694
 20
-274.8314187091364
 30
0.0
 11
1485.868495528694
 21
-274.8314187091364
 31
0.0
  0
LINE
  5
165
330
1F
100
AcDbEntity
  8
1-4
  6
Continuous
 62
    92
370
    13
100
AcDbLine
 10
1425.868495528694
 20
-274.8314187091364
 30
0.0
 11
1455.868495528694
 21
-257.5109106334475
 31
0.0
  0
LINE
  5
166
330
1F
100
AcDbEntity
  8
1-4
  6
Continuous
 62
    92
370
    13
100
AcDbLine
 10
1485.868495528694
 20
-274.8314187091364
 30
0.0
 11
1455.868495528694
 21
-257.5109106334475
 31
0.0
  0
LINE
  5
167
330
1F
100
AcDbEntity
  8
1-4
  6
Continuous
 62
    92
370
    13
100
AcDbLine
 10
1425.868495528694
 20
-374.8313637091371
 30
0.0
 11
1425.868495528694
 21
-274.8314187091364
 31
0.0
  0
LINE
  5
168
330
1F
100
AcDbEntity
  8
1-4
  6
Continuous
 62
    92
370
    13
100
AcDbLine
 10
1485.868495528694
 20
-374.8313637091371
 30
0.0
 11
1485.868495528694
 21
-274.8314187091364
 31
0.0
  0
LINE
  5
169
330
1F
100
AcDbEntity
  8
1-4
  6
Continuous
 62
    92
370
    13
100
AcDbLine
 10
1425.868495528694
 20
-374.8313637091371
 30
0.0
 11
1485.868495528694
 21
-374.8313637091371
 31
0.0
  0
LINE
  5
16A
330
1F
100
AcDbEntity
  8
1-4
  6
Continuous
 62
    92
370
    13
100
AcDbLine
 10
1480.988252074362
 20
-418.6804204985592
 30
0.0
 11
1485.868495528694
 21
-421.4980303706278
 31
0.0
  0
LINE
  5
16B
330
1F
100
AcDbEntity
  8
1-4
  6
Continuous
 62
    92
370
    13
100
AcDbLine
 10
1474.321585407696
 20
-407.1334151147664
 30
0.0
 11
1474.321585407696
 21
-374.8313637091371
 31
0.0
  0
ARC
  5
16C
330
1F
100
AcDbEntity
  8
1-4
  6
Continuous
 62
    92
370
    13
100
AcDbCircle
 10
1487.65491874103
 20
-407.1334151147664
 30
0.0
 40
13.33333333333333
100
AcDbArc
 50
180.0
 51
239.9999999999989
  0
LINE
  5
16D
330
1F
100
AcDbEntity
  8
1-4
  6
Continuous
 62
    92
370
    13
100
AcDbLine
 10
1437.415405649692
 20
-407.1334151147664
 30
0.0
 11
1437.415405649692
 21
-374.8313637091371
 31
0.0
  0
LINE
  5
16E
330
1F
100
AcDbEntity
  8
1-4
  6
Continuous
 62
    92
370
    13
100
AcDbLine
 10
1430.748738983025
 20
-418.6804204985592
 30
0.0
 11
1425.868495528694
 21
-421.4980303706278
 31
0.0
  0
ARC
  5
16F
330
1F
100
AcDbEntity
  8
1-4
  6
Continuous
 62
    92
370
    13
100
AcDbCircle
 10
1424.082072316359
 20
-407.1334151147664
 30
0.0
 40
13.33333333333333
100
AcDbArc
 50
300.0000000000006
 51
0.0
  0
LINE
  5
170
330
1F
100
AcDbEntity
  8
1-4
  6
Continuous
 62
    92
370
    13
100
AcDbLine
 10
1474.321585407696
 20
-407.1334151147664
 30
0.0
 11
1437.415405649692
 21
-407.1334151147664
 31
0.0
  0
LINE
  5
171
330
1F
100
AcDbEntity
  8
1-4
  6
Continuous
 62
    92
370
    13
100
AcDbLine
 10
1425.868495528694
 20
-674.8313637056015
 30
0.0
 11
1485.868495528694
 21
-674.8313637056015
 31
0.0
  0
LINE
  5
172
330
1F
100
AcDbEntity
  8
1-4
  6
Continuous
 62
    92
370
    13
100
AcDbLine
 10
1425.868495528694
 20
-628.3998715771594
 30
0.0
 11
1425.868495528694
 21
-674.8313637056015
 31
0.0
  0
LINE
  5
173
330
1F
100
AcDbEntity
  8
1-4
  6
Continuous
 62
    92
370
    13
100
AcDbLine
 10
1425.868495528694
 20
-628.1646970410918
 30
0.0
 11
1485.868495528694
 21
-628.1646970410918
 31
0.0
  0
LINE
  5
174
330
1F
100
AcDbEntity
  8
1-4
  6
Continuous
 62
    92
370
    13
100
AcDbLine
 10
1485.868495528694
 20
-628.3998715771594
 30
0.0
 11
1485.868495528694
 21
-674.8313637056015
 31
0.0
  0
LWPOLYLINE
  5
175
330
1F
100
AcDbEntity
  8
1-B
  6
Continuous
 62
     7
370
     9
100
AcDbPolyline
 90
        4
 70
     1
 43
2.0
 10
1414.790067224057
 20
-719.1512101578132
 42
0.4142135623731
 10
1413.790067224057
 20
-718.1512101578132
 42
0.4142135623731
 10
1412.790067224057
 20
-719.1512101578132
 42
0.4142135623731
 10
1413.790067224057
 20
-720.1512101578132
 42
0.4142135623731
  0
LINE
  5
176
330
1F
100
AcDbEntity
  8
1-B
  6
Continuous
 62
   120
370
     5
100
AcDbLine
 10
1413.790067224057
 20
-719.1512101578132
 30
0.0
 11
1422.417368727474
 21
-686.9536826148451
 31
0.0
  0
LINE
  5
177
330
1F
100
AcDbEntity
  8
1-B
  6
Continuous
 62
   120
370
     5
100
AcDbLine
 10
1509.613178100252
 20
-716.025136246129
 30
0.0
 11
1500.985876596835
 21
-683.82760870316
 31
0.0
  0
LWPOLYLINE
  5
178
330
1F
100
AcDbEntity
  8
1-B
  6
Continuous
 62
     7
370
     9
100
AcDbPolyline
 90
        4
 70
     1
 43
2.0
 10
1510.613178100252
 20
-716.025136246129
 42
0.4142135623731
 10
1509.613178100252
 20
-715.025136246129
 42
0.4142135623731
 10
1508.613178100252
 20
-716.025136246129
 42
0.4142135623731
 10
1509.613178100252
 20
-717.0251362461289
 42
0.4142135623731
  0
LINE
  5
179
330
1F
100
AcDbEntity
  8
1-4
  6
Continuous
 62
    92
370
    13
100
AcDbLine
 10
1485.868495528694
 20
-594.831363705602
 30
0.0
 11
1425.868495528694
 21
-594.831363705602
 31
0.0
  0
LINE
  5
17A
330
1F
100
AcDbEntity
  8
1-4
  6
Continuous
 62
    92
370
    13
100
AcDbLine
 10
1485.868495528694
 20
-421.4980303706278
 30
0.0
 11
1485.868495528694
 21
-594.831363705602
 31
0.0
  0
LINE
  5
17B
330
1F
100
AcDbEntity
  8
1-4
  6
Continuous
 62
    92
370
    13
100
AcDbLine
 10
1425.868495528694
 20
-421.4980303706278
 30
0.0
 11
1425.868495528694
 21
-594.8313637056015
 31
0.0
  0
LINE
  5
17C
330
1F
100
AcDbEntity
  8
1-4
  6
Continuous
 62
    92
370
    13
100
AcDbLine
 10
1425.868495528694
 20
-628.1646970410918
 30
0.0
 11
1455.868495528694
 21
-610.8441889654032
 31
0.0
  0
LINE
  5
17D
330
1F
100
AcDbEntity
  8
1-4
  6
Continuous
 62
    92
370
    13
100
AcDbLine
 10
1485.868495528694
 20
-628.1646970410918
 30
0.0
 11
1455.868495528694
 21
-610.8441889654032
 31
0.0
  0
LINE
  5
17E
330
1F
100
AcDbEntity
  8
1-B
  6
Continuous
 62
    92
370
    13
100
AcDbLine
 10
1455.868495528694
 20
-610.8441889654032
 30
0.0
 11
1455.868495528694
 21
-594.831363705602
 31
0.0
  0
LINE
  5
17F
330
1F
100
AcDbEntity
  8
1-B
  6
Continuous
 62
   120
370
     5
100
AcDbLine
 10
1092.535162201483
 20
-203.3783007342265
 30
0.0
 11
1092.535162201483
 21
-603.3783007342263
 31
0.0
  0
LWPOLYLINE
  5
180
330
1F
100
AcDbEntity
  8
1-B
  6
Continuous
 62
     7
370
     9
100
AcDbPolyline
 90
        4
 70
     1
 43
2.0
 10
1093.535162201483
 20
-203.3783007342265
 42
0.4142135623731
 10
1092.535162201483
 20
-202.3783007342265
 42
0.4142135623731
 10
1091.535162201483
 20
-203.3783007342265
 42
0.4142135623731
 10
1092.535162201483
 20
-204.3783007342265
 42
0.4142135623731
  0
LWPOLYLINE
  5
181
330
1F
100
AcDbEntity
  8
1-B
  6
Continuous
 62
     7
370
     9
100
AcDbPolyline
 90
        4
 70
     1
 43
2.0
 10
1093.535162201483
 20
-603.3783007342263
 42
0.4142135623731
 10
1092.535162201483
 20
-602.3783007342262
 42
0.4142135623731
 10
1091.535162201483
 20
-603.3783007342263
 42
0.4142135623731
 10
1092.535162201483
 20
-604.3783007342263
 42
0.4142135623731
  0
LINE
  5
182
330
1F
100
AcDbEntity
  8
1-B
  6
Continuous
 62
   120
370
     5
100
AcDbLine
 10
1092.535162201483
 20
-203.3783007342265
 30
0.0
 11
1125.868495534816
 21
-203.3783007342265
 31
0.0
  0
LINE
  5
183
330
1F
100
AcDbEntity
  8
1-B
  6
Continuous
 62
   120
370
     5
100
AcDbLine
 10
1092.535162201483
 20
-603.3783007342263
 30
0.0
 11
1125.868495534816
 21
-603.3783007342263
 31
0.0
  0
LINE
  5
184
330
1F
100
AcDbEntity
  8
1-B
  6
Continuous
 62
    92
370
    13
100
AcDbLine
 10
1425.868495528694
 20
-274.8314187091364
 30
0.0
 11
1200.485802727911
 21
-214.4403081852147
 31
0.0
  0
LINE
  5
185
330
1F
100
AcDbEntity
  8
1-B
  6
Continuous
 62
    92
370
    13
100
AcDbLine
 10
1485.868495528694
 20
-274.8314187091364
 30
0.0
 11
1711.251188329476
 21
-214.4403081852147
 31
0.0
  0
LINE
  5
186
330
1F
100
AcDbEntity
  8
1-4
  6
Continuous
 62
    92
370
    13
100
AcDbLine
 10
1200.485802727911
 20
-214.4403081852147
 30
0.0
 11
1230.485802743818
 21
-197.1198001003427
 31
0.0
  0
LINE
  5
187
330
1F
100
AcDbEntity
  8
1-4
  6
Continuous
 62
    92
370
    13
100
AcDbLine
 10
1200.485802725615
 20
-314.4402531711546
 30
0.0
 11
1200.485802727911
 21
-214.4403081852147
 31
0.0
  0
LINE
  5
188
330
1F
100
AcDbEntity
  8
1-4
  6
Continuous
 62
    92
370
    13
100
AcDbLine
 10
1205.366046179182
 20
-358.2893099603712
 30
0.0
 11
1200.48580272485
 21
-361.1069198324401
 31
0.0
  0
LINE
  5
189
330
1F
100
AcDbEntity
  8
1-4
  6
Continuous
 62
    92
370
    13
100
AcDbLine
 10
1212.032712845848
 20
-346.7423045765793
 30
0.0
 11
1212.032712845848
 21
-317.5342384129453
 31
0.0
  0
ARC
  5
18A
330
1F
100
AcDbEntity
  8
1-4
  6
Continuous
 62
    92
370
    13
100
AcDbCircle
 10
1198.699379512515
 20
-346.7423045765793
 30
0.0
 40
13.33333333333333
100
AcDbArc
 50
300.0000000000002
 51
0.0
  0
LINE
  5
18B
330
1F
100
AcDbEntity
  8
1-4
  6
Continuous
 62
    92
370
    13
100
AcDbLine
 10
1200.485802719181
 20
-614.4402531658952
 30
0.0
 11
1200.485802719181
 21
-568.0087610374526
 31
0.0
  0
LINE
  5
18C
330
1F
100
AcDbEntity
  8
1-4
  6
Continuous
 62
    92
370
    13
100
AcDbLine
 10
1200.485802719544
 20
-534.4402531657736
 30
0.0
 11
1200.48580272485
 21
-361.1069198324401
 31
0.0
  0
LINE
  5
18D
330
1F
100
AcDbEntity
  8
1-4
  6
Continuous
 62
    92
370
    13
100
AcDbLine
 10
1200.485802719181
 20
-568.0087610374526
 30
0.0
 11
1230.76401718251
 21
-550.5276257664682
 31
0.0
  0
LINE
  5
18E
330
1F
100
AcDbEntity
  8
1-B
  6
Continuous
 62
    92
370
    13
100
AcDbLine
 10
1230.76401718251
 20
-550.5276257664682
 30
0.0
 11
1230.76401718251
 21
-542.5532762795999
 31
0.0
  0
LINE
  5
18F
330
1F
100
AcDbEntity
  8
1-B
  6
Continuous
 62
   120
370
     5
100
AcDbLine
 10
1176.740707747465
 20
-655.6340257063002
 30
0.0
 11
1185.368009250882
 21
-623.4364981633312
 31
0.0
  0
LWPOLYLINE
  5
190
330
1F
100
AcDbEntity
  8
1-B
  6
Continuous
 62
     7
370
     9
100
AcDbPolyline
 90
        4
 70
     1
 43
2.0
 10
1177.740707747464
 20
-655.6340257063002
 42
0.4142135623731
 10
1176.740707747465
 20
-654.6340257063002
 42
0.4142135623731
 10
1175.740707747465
 20
-655.6340257063002
 42
0.4142135623731
 10
1176.740707747465
 20
-656.6340257063001
 42
0.4142135623731
  0
LWPOLYLINE
  5
191
330
1F
100
AcDbEntity
  8
1-B
  6
Continuous
 62
     7
370
     9
100
AcDbPolyline
 90
        4
 70
     1
 43
2.0
 10
1778.917855005327
 20
-361.1069198324407
 42
0.4142135623731
 10
1777.917855005327
 20
-360.1069198324407
 42
0.4142135623731
 10
1776.917855005327
 20
-361.1069198324407
 42
0.4142135623731
 10
1777.917855005327
 20
-362.1069198324407
 42
0.4142135623731
  0
LINE
  5
192
330
1F
100
AcDbEntity
  8
1-B
  6
Continuous
 62
   120
370
     5
100
AcDbLine
 10
1777.917855005327
 20
-361.1069198324407
 30
0.0
 11
1744.584521671994
 21
-361.1069198324407
 31
0.0
  0
LINE
  5
193
330
1F
100
AcDbEntity
  8
1-4
  6
Continuous
 62
    92
370
    13
100
AcDbLine
 10
1711.251188329476
 20
-214.4403081852147
 30
0.0
 11
1681.251188313571
 21
-197.1198001003427
 31
0.0
  0
LINE
  5
194
330
1F
100
AcDbEntity
  8
1-4
  6
Continuous
 62
    92
370
    13
100
AcDbLine
 10
1711.25118833866
 20
-314.4402531693083
 30
0.0
 11
1711.25118833866
 21
-214.4403081852147
 31
0.0
  0
LINE
  5
195
330
1F
100
AcDbEntity
  8
1-B
  6
Continuous
 62
   120
370
     5
100
AcDbLine
 10
1694.584521646904
 20
-174.0257893327578
 30
0.0
 11
1724.584521646904
 21
-191.3462974084462
 31
0.0
  0
LWPOLYLINE
  5
196
330
1F
100
AcDbEntity
  8
1-B
  6
Continuous
 62
     7
370
     9
100
AcDbPolyline
 90
        4
 70
     1
 43
2.0
 10
1695.584521646904
 20
-174.0257893327578
 42
0.4142135623731
 10
1694.584521646904
 20
-173.0257893327578
 42
0.4142135623731
 10
1693.584521646904
 20
-174.0257893327578
 42
0.4142135623731
 10
1694.584521646904
 20
-175.0257893327578
 42
0.4142135623731
  0
LWPOLYLINE
  5
197
330
1F
100
AcDbEntity
  8
1-B
  6
Continuous
 62
     7
370
     9
100
AcDbPolyline
 90
        4
 70
     1
 43
2.0
 10
1725.584521646904
 20
-191.3462974084462
 42
0.4142135623731
 10
1724.584521646904
 20
-190.3462974084462
 42
0.4142135623731
 10
1723.584521646904
 20
-191.3462974084462
 42
0.4142135623731
 10
1724.584521646904
 20
-192.3462974084462
 42
0.4142135623731
  0
LINE
  5
198
330
1F
100
AcDbEntity
  8
1-B
  6
Continuous
 62
   120
370
     5
100
AcDbLine
 10
1694.584521646904
 20
-174.0257893327578
 30
0.0
 11
1687.917854980237
 21
-185.5727947165497
 31
0.0
  0
LINE
  5
199
330
1F
100
AcDbEntity
  8
1-B
  6
Continuous
 62
   120
370
     5
100
AcDbLine
 10
1724.584521646904
 20
-191.3462974084462
 30
0.0
 11
1717.917854980237
 21
-202.8933027922392
 31
0.0
  0
LINE
  5
19A
330
1F
100
AcDbEntity
  8
1-4
  6
Continuous
 62
    92
370
    13
100
AcDbLine
 10
1706.370944878207
 20
-358.2893099603712
 30
0.0
 11
1711.251188332538
 21
-361.1069198324407
 31
0.0
  0
LINE
  5
19B
330
1F
100
AcDbEntity
  8
1-4
  6
Continuous
 62
    92
370
    13
100
AcDbLine
 10
1699.70427821154
 20
-346.7423045765793
 30
0.0
 11
1699.70427821154
 21
-317.5342384129453
 31
0.0
  0
ARC
  5
19C
330
1F
100
AcDbEntity
  8
1-4
  6
Continuous
 62
    92
370
    13
100
AcDbCircle
 10
1713.037611544873
 20
-346.7423045765793
 30
0.0
 40
13.33333333333333
100
AcDbArc
 50
180.0
 51
239.9999999999994
  0
LWPOLYLINE
  5
19D
330
1F
100
AcDbEntity
  8
1-B
  6
Continuous
 62
     7
370
     9
100
AcDbPolyline
 90
        4
 70
     1
 43
2.0
 10
1778.917855005327
 20
-214.4403081760311
 42
0.4142135623731
 10
1777.917855005327
 20
-213.4403081760311
 42
0.4142135623731
 10
1776.917855005327
 20
-214.4403081760311
 42
0.4142135623731
 10
1777.917855005327
 20
-215.4403081760311
 42
0.4142135623731
  0
LWPOLYLINE
  5
19E
330
1F
100
AcDbEntity
  8
1-B
  6
Continuous
 62
     7
370
     9
100
AcDbPolyline
 90
        4
 70
     1
 43
2.0
 10
1778.917855005327
 20
-314.4402531693083
 42
0.4142135623731
 10
1777.917855005327
 20
-313.4402531693083
 42
0.4142135623731
 10
1776.917855005327
 20
-314.4402531693083
 42
0.4142135623731
 10
1777.917855005327
 20
-315.4402531693083
 42
0.4142135623731
  0
LINE
  5
19F
330
1F
100
AcDbEntity
  8
1-B
  6
Continuous
 62
   120
370
     5
100
AcDbLine
 10
1777.917855005327
 20
-214.4403081760311
 30
0.0
 11
1744.584521671994
 21
-214.4403081760311
 31
0.0
  0
LINE
  5
1A0
330
1F
100
AcDbEntity
  8
1-B
  6
Continuous
 62
   120
370
     5
100
AcDbLine
 10
1777.917855005327
 20
-314.4402531693083
 30
0.0
 11
1744.584521671994
 21
-314.4402531693083
 31
0.0
  0
LWPOLYLINE
  5
1A1
330
1F
100
AcDbEntity
  8
1-B
  6
Continuous
 62
     7
370
     9
100
AcDbPolyline
 90
        4
 70
     1
 43
2.0
 10
1778.917855005327
 20
-534.4402531657738
 42
0.4142135623731
 10
1777.917855005327
 20
-533.4402531657738
 42
0.4142135623731
 10
1776.917855005327
 20
-534.4402531657738
 42
0.4142135623731
 10
1777.917855005327
 20
-535.4402531657738
 42
0.4142135623731
  0
LINE
  5
1A2
330
1F
100
AcDbEntity
  8
1-B
  6
Continuous
 62
   120
370
     5
100
AcDbLine
 10
1777.917855005327
 20
-534.4402531657738
 30
0.0
 11
1744.584521671994
 21
-534.4402531657738
 31
0.0
  0
LINE
  5
1A3
330
1F
100
AcDbEntity
  8
1-B
  6
Continuous
 62
   120
370
     5
100
AcDbLine
 10
1777.917855005327
 20
-214.4403081760311
 30
0.0
 11
1777.917855005327
 21
-534.4402531657738
 31
0.0
  0
LINE
  5
1A4
330
1F
100
AcDbEntity
  8
1-B
  6
Continuous
 62
   120
370
     5
100
AcDbLine
 10
1777.917855005327
 20
-534.4402531657738
 30
0.0
 11
1777.917855005327
 21
-571.1069198324407
 31
0.0
  0
LWPOLYLINE
  5
1A5
330
1F
100
AcDbEntity
  8
1-B
  6
Continuous
 62
     7
370
     9
100
AcDbPolyline
 90
        4
 70
     1
 43
2.0
 10
1778.917855005327
 20
-571.1069198324407
 42
0.4142135623731
 10
1777.917855005327
 20
-570.1069198324407
 42
0.4142135623731
 10
1776.917855005327
 20
-571.1069198324407
 42
0.4142135623731
 10
1777.917855005327
 20
-572.1069198324407
 42
0.4142135623731
  0
LINE
  5
1A6
330
1F
100
AcDbEntity
  8
1-B
  6
Continuous
 62
   120
370
     5
100
AcDbLine
 10
1777.917855005327
 20
-571.1069198324407
 30
0.0
 11
1744.584521671994
 21
-571.1069198324407
 31
0.0
  0
LWPOLYLINE
  5
1A7
330
1F
100
AcDbEntity
  8
1-B
  6
Continuous
 62
     7
370
     9
100
AcDbPolyline
 90
        4
 70
     1
 43
2.0
 10
1778.917855005327
 20
-614.4402531657738
 42
0.4142135623731
 10
1777.917855005327
 20
-613.4402531657738
 42
0.4142135623731
 10
1776.917855005327
 20
-614.4402531657738
 42
0.4142135623731
 10
1777.917855005327
 20
-615.4402531657738
 42
0.4142135623731
  0
LINE
  5
1A8
330
1F
100
AcDbEntity
  8
1-B
  6
Continuous
 62
   120
370
     5
100
AcDbLine
 10
1777.917855005327
 20
-614.4402531657738
 30
0.0
 11
1744.584521671994
 21
-614.4402531657738
 31
0.0
  0
LINE
  5
1A9
330
1F
100
AcDbEntity
  8
1-B
  6
Continuous
 62
   120
370
     5
100
AcDbLine
 10
1777.917855005327
 20
-571.1069198324407
 30
0.0
 11
1777.917855005327
 21
-614.4402531657738
 31
0.0
  0
LINE
  5
1AA
330
1F
100
AcDbEntity
  8
1-4
  6
Continuous
 62
    92
370
    13
100
AcDbLine
 10
1711.25118833866
 20
-568.0087610373321
 30
0.0
 11
1711.25118833866
 21
-614.4402531657738
 31
0.0
  0
LINE
  5
1AB
330
1F
100
AcDbEntity
  8
1-B
  6
Continuous
 62
   120
370
     5
100
AcDbLine
 10
1734.995870910219
 20
-655.6340257063002
 30
0.0
 11
1726.368569406801
 21
-623.4364981633314
 31
0.0
  0
LINE
  5
1AC
330
1F
100
AcDbEntity
  8
1-4
  6
Continuous
 62
    92
370
    13
100
AcDbLine
 10
1711.25118833866
 20
-534.4402531657738
 30
0.0
 11
1711.25118833866
 21
-361.1069198308007
 31
0.0
  0
LINE
  5
1AD
330
1F
100
AcDbEntity
  8
1-4
  6
Continuous
 62
    92
370
    13
100
AcDbLine
 10
1711.25118833866
 20
-568.0087610373321
 30
0.0
 11
1680.972973875332
 21
-550.5276257663465
 31
0.0
  0
LINE
  5
1AE
330
1F
100
AcDbEntity
  8
1-B
  6
Continuous
 62
    92
370
    13
100
AcDbLine
 10
1680.972973875332
 20
-550.5276257663465
 30
0.0
 11
1680.972973875332
 21
-542.5532762794791
 31
0.0
  0
LINE
  5
1AF
330
1F
100
AcDbEntity
  8
1-4
  6
Continuous
 62
    92
370
    13
100
AcDbLine
 10
1455.868495528695
 20
-257.510910633448
 30
0.0
 11
1681.251188329477
 21
-197.1198001095263
 31
0.0
  0
LINE
  5
1B0
330
1F
100
AcDbEntity
  8
1-4
  6
Continuous
 62
    92
370
    13
100
AcDbLine
 10
1455.868495528694
 20
-257.5109106334475
 30
0.0
 11
1230.485802740457
 21
-197.119800112888
 31
0.0
  0
LINE
  5
1B1
330
1F
100
AcDbEntity
  8
1-4
  6
Continuous
 62
    92
370
    13
100
AcDbLine
 10
1425.868495528694
 20
-374.8313637091371
 30
0.0
 11
1200.485802725615
 21
-314.4402531845998
 31
0.0
  0
LINE
  5
1B2
330
1F
100
AcDbEntity
  8
1-4
  6
Continuous
 62
    92
370
    13
100
AcDbLine
 10
1437.415405649692
 20
-407.1334151147664
 30
0.0
 11
1212.032712842487
 21
-346.7423045891235
 31
0.0
  0
LINE
  5
1B3
330
1F
100
AcDbEntity
  8
1-4
  6
Continuous
 62
    92
370
    13
100
AcDbLine
 10
1425.868509278694
 20
-421.4980340549295
 30
0.0
 11
1200.48580272485
 21
-361.1069198458858
 31
0.0
  0
LINE
  5
1B4
330
1F
100
AcDbEntity
  8
1-4
  6
Continuous
 62
    92
370
    13
100
AcDbLine
 10
1425.868495528694
 20
-594.8313637056015
 30
0.0
 11
1200.485802719544
 21
-534.4402531794378
 31
0.0
  0
LINE
  5
1B5
330
1F
100
AcDbEntity
  8
1-B
  6
Continuous
 62
    92
370
    13
100
AcDbLine
 10
1455.868495528694
 20
-610.8441889654032
 30
0.0
 11
1230.764017166604
 21
-550.5276257756518
 31
0.0
  0
LINE
  5
1B6
330
1F
100
AcDbEntity
  8
1-4
  6
Continuous
 62
    92
370
    13
100
AcDbLine
 10
1425.809701894677
 20
-628.3841178704046
 30
0.0
 11
1200.48580271582
 21
-568.0087610499979
 31
0.0
  0
LINE
  5
1B7
330
1F
100
AcDbEntity
  8
1-4
  6
Continuous
 62
    92
370
    13
100
AcDbLine
 10
1425.868495528694
 20
-674.8313637056015
 30
0.0
 11
1200.48580271582
 21
-614.4402531784402
 31
0.0
  0
LINE
  5
1B8
330
1F
100
AcDbEntity
  8
1-B
  6
Continuous
 62
   120
370
     5
100
AcDbLine
 10
1413.790067224057
 20
-719.1512101578132
 30
0.0
 11
1176.740707744103
 21
-655.6340257188452
 31
0.0
  0
LINE
  5
1B9
330
1F
100
AcDbEntity
  8
1-4
  6
Continuous
 62
    92
370
    13
100
AcDbLine
 10
1485.868495528694
 20
-674.8313637056015
 30
0.0
 11
1711.251188342022
 21
-614.4402531783189
 31
0.0
  0
LINE
  5
1BA
330
1F
100
AcDbEntity
  8
1-4
  6
Continuous
 62
    92
370
    13
100
AcDbLine
 10
1487.593955829379
 20
-627.9375358830189
 30
0.0
 11
1711.251188342022
 21
-568.0087610498765
 31
0.0
  0
LINE
  5
1BB
330
1F
100
AcDbEntity
  8
1-B
  6
Continuous
 62
    92
370
    13
100
AcDbLine
 10
1455.868495528694
 20
-610.8441889654032
 30
0.0
 11
1680.972973878694
 21
-550.5276257788919
 31
0.0
  0
LINE
  5
1BC
330
1F
100
AcDbEntity
  8
1-4
  6
Continuous
 62
    92
370
    13
100
AcDbLine
 10
1485.868495528695
 20
-594.8313637056024
 30
0.0
 11
1711.25118833866
 21
-534.4402531792196
 31
0.0
  0
LINE
  5
1BD
330
1F
100
AcDbEntity
  8
1-4
  6
Continuous
 62
    92
370
    13
100
AcDbLine
 10
1485.868495528694
 20
-421.4980303706278
 30
0.0
 11
1711.25118833866
 21
-361.1069198442453
 31
0.0
  0
LINE
  5
1BE
330
1F
100
AcDbEntity
  8
1-4
  6
Continuous
 62
    92
370
    13
100
AcDbLine
 10
1474.321585407696
 20
-407.1334151147664
 30
0.0
 11
1699.704278214901
 21
-346.7423045891235
 31
0.0
  0
LINE
  5
1BF
330
1F
100
AcDbEntity
  8
1-4
  6
Continuous
 62
    92
370
    13
100
AcDbLine
 10
1485.868495528694
 20
-374.8313637091371
 30
0.0
 11
1711.251188342022
 21
-314.4402531818537
 31
0.0
  0
LINE
  5
1C0
330
1F
100
AcDbEntity
  8
1-B
  6
Continuous
 62
   120
370
     5
100
AcDbLine
 10
1734.99587091358
 20
-655.6340257188452
 30
0.0
 11
1509.613178100252
 21
-716.025136246129
 31
0.0
  0
LWPOLYLINE
  5
1C1
330
1F
100
AcDbEntity
  8
1-B
  6
Continuous
 62
     7
370
     9
100
AcDbPolyline
 90
        4
 70
     1
 43
2.0
 10
1735.99587091358
 20
-655.6340257188452
 42
0.4142135623731
 10
1734.99587091358
 20
-654.6340257188454
 42
0.4142135623731
 10
1733.99587091358
 20
-655.6340257188452
 42
0.4142135623731
 10
1734.99587091358
 20
-656.6340257188451
 42
0.4142135623731
  0
LINE
  5
1C2
330
1F
100
AcDbEntity
  8
1-B
  6
Continuous
 62
    92
370
    13
100
AcDbLine
 10
1515.597186988922
 20
-1071.818837710882
 30
0.0
 11
1740.979879789705
 21
-1132.209948234804
 31
0.0
  0
LINE
  5
1C3
330
1F
100
AcDbEntity
  8
1-B
  6
Continuous
 62
    92
370
    13
100
AcDbLine
 10
1515.597186988922
 20
-1071.818837710882
 30
0.0
 11
1290.21449418814
 21
-1132.209948234804
 31
0.0
  0
LINE
  5
1C4
330
1F
100
AcDbEntity
  8
1-4
  6
Continuous
 62
    92
370
    13
100
AcDbLine
 10
1710.979879773798
 20
-1149.530456319676
 30
0.0
 11
1740.979879789705
 21
-1132.209948234804
 31
0.0
  0
LINE
  5
1C5
330
1F
100
AcDbEntity
  8
1-4
  6
Continuous
 62
    92
370
    13
100
AcDbLine
 10
1320.214494188139
 20
-1149.530456310492
 30
0.0
 11
1290.214494172233
 21
-1132.20994822562
 31
0.0
  0
LINE
  5
1C6
330
1F
100
AcDbEntity
  8
1-B
  6
Continuous
 62
    92
370
    13
100
AcDbLine
 10
1515.597186963832
 20
-1097.177821566228
 30
0.0
 11
1320.214494188139
 21
-1149.530456310492
 31
0.0
  0
LINE
  5
1C7
330
1F
100
AcDbEntity
  8
1-B
  6
Continuous
 62
    92
370
    13
100
AcDbLine
 10
1515.597186963832
 20
-1097.177821566228
 30
0.0
 11
1710.979879773798
 21
-1149.530456319676
 31
0.0
  0
LINE
  5
1C8
330
1F
100
AcDbEntity
  8
1-B
  6
Continuous
 62
    92
370
    13
100
AcDbLine
 10
1515.597186963832
 20
-1097.177821566228
 30
0.0
 11
1515.597186988922
 21
-1071.818837710882
 31
0.0
  0
LINE
  5
1C9
330
1F
100
AcDbEntity
  8
1-B
  6
Continuous
 62
    92
370
    13
100
AcDbLine
 10
1710.979879773798
 20
-1149.530456319676
 30
0.0
 11
1710.979879773798
 21
-1249.530456319676
 31
0.0
  0
LINE
  5
1CA
330
1F
100
AcDbEntity
  8
1-B
  6
Continuous
 62
    92
370
    13
100
AcDbLine
 10
1320.214494188139
 20
-1149.530456310492
 30
0.0
 11
1320.214494188139
 21
-1249.530456310492
 31
0.0
  0
LINE
  5
1CB
330
1F
100
AcDbEntity
  8
1-B
  6
Continuous
 62
    92
370
    13
100
AcDbLine
 10
1290.214494172233
 20
-1132.20994822562
 30
0.0
 11
1290.214494172233
 21
-1358.876614892286
 31
0.0
  0
ARC
  5
1CC
330
1F
100
AcDbEntity
  8
1-B
  6
Continuous
 62
    92
370
    13
100
AcDbCircle
 10
1316.8811608389
 20
-1255.303958993205
 30
0.0
 40
6.666666666666666
100
AcDbArc
 50
59.99999999999942
 51
180.0
  0
LINE
  5
1CD
330
1F
100
AcDbEntity
  8
1-4
  6
Continuous
 62
    92
370
    13
100
AcDbLine
 10
1313.547827505566
 20
-1292.348121173377
 30
0.0
 11
1320.214494188139
 21
-1296.197122977159
 31
0.0
  0
LINE
  5
1CE
330
1F
100
AcDbEntity
  8
1-B
  6
Continuous
 62
    92
370
    13
100
AcDbLine
 10
1310.214494172233
 20
-1286.574618481481
 30
0.0
 11
1310.214494172233
 21
-1255.303958993205
 31
0.0
  0
ARC
  5
1CF
330
1F
100
AcDbEntity
  8
1-B
  6
Continuous
 62
    92
370
    13
100
AcDbCircle
 10
1316.8811608389
 20
-1286.574618481481
 30
0.0
 40
6.666666666666666
100
AcDbArc
 50
180.0
 51
239.9999999999994
  0
ARC
  5
1D0
330
1F
100
AcDbEntity
  8
1-B
  6
Continuous
 62
    92
370
    13
100
AcDbCircle
 10
1714.313213123038
 20
-1255.303959002389
 30
0.0
 40
6.666666666666666
100
AcDbArc
 50
0.0
 51
119.9999999999992
  0
LINE
  5
1D1
330
1F
100
AcDbEntity
  8
1-B
  6
Continuous
 62
    92
370
    13
100
AcDbLine
 10
1720.979879789705
 20
-1286.574618490665
 30
0.0
 11
1720.979879789705
 21
-1255.303959002389
 31
0.0
  0
LINE
  5
1D2
330
1F
100
AcDbEntity
  8
1-4
  6
Continuous
 62
    92
370
    13
100
AcDbLine
 10
1717.646546456371
 20
-1292.348121182561
 30
0.0
 11
1710.979879773798
 21
-1296.197122986342
 31
0.0
  0
ARC
  5
1D3
330
1F
100
AcDbEntity
  8
1-B
  6
Continuous
 62
    92
370
    13
100
AcDbCircle
 10
1714.313213123038
 20
-1286.574618490665
 30
0.0
 40
6.666666666666666
100
AcDbArc
 50
299.9999999999991
 51
0.0
  0
LINE
  5
1D4
330
1F
100
AcDbEntity
  8
1-B
  6
Continuous
 62
    92
370
    13
100
AcDbLine
 10
1515.597186963832
 20
-1197.177821566228
 30
0.0
 11
1710.979879773798
 21
-1249.530456319676
 31
0.0
  0
LINE
  5
1D5
330
1F
100
AcDbEntity
  8
1-B
  6
Continuous
 62
    92
370
    13
100
AcDbLine
 10
1515.597186963832
 20
-1243.844488232894
 30
0.0
 11
1710.979879773798
 21
-1296.197122986342
 31
0.0
  0
LINE
  5
1D6
330
1F
100
AcDbEntity
  8
1-B
  6
Continuous
 62
    92
370
    13
100
AcDbLine
 10
1515.597186963832
 20
-1197.177821566228
 30
0.0
 11
1320.214494188139
 21
-1249.530456310492
 31
0.0
  0
LINE
  5
1D7
330
1F
100
AcDbEntity
  8
1-B
  6
Continuous
 62
    92
370
    13
100
AcDbLine
 10
1515.597186963832
 20
-1243.844488232894
 30
0.0
 11
1320.214494188139
 21
-1296.197122977159
 31
0.0
  0
LINE
  5
1D8
330
1F
100
AcDbEntity
  8
1-B
  6
Continuous
 62
    92
370
    13
100
AcDbLine
 10
1515.597186963832
 20
-1231.542491808643
 30
0.0
 11
1720.979879789705
 21
-1286.574618490665
 31
0.0
  0
LINE
  5
1D9
330
1F
100
AcDbEntity
  8
1-B
  6
Continuous
 62
    92
370
    13
100
AcDbLine
 10
1515.597186963832
 20
-1231.542491808643
 30
0.0
 11
1310.214494172233
 21
-1286.574618481481
 31
0.0
  0
LINE
  5
1DA
330
1F
100
AcDbEntity
  8
1-B
  6
Continuous
 62
    92
370
    13
100
AcDbLine
 10
1515.597186963832
 20
-1097.177821566228
 30
0.0
 11
1515.597186963832
 21
-1243.844488232894
 31
0.0
  0
LINE
  5
1DB
330
1F
100
AcDbEntity
  8
1-B
  6
Continuous
 62
    92
370
    13
100
AcDbLine
 10
1515.597186963834
 20
-1200.271832320367
 30
0.0
 11
1310.214494172233
 21
-1255.303958993205
 31
0.0
  0
LINE
  5
1DC
330
1F
100
AcDbEntity
  8
1-B
  6
Continuous
 62
    92
370
    13
100
AcDbLine
 10
1515.597186963834
 20
-1200.271832320367
 30
0.0
 11
1720.979879789705
 21
-1255.303959002389
 31
0.0
  0
LINE
  5
1DD
330
1F
100
AcDbEntity
  8
1-4
  6
Continuous
 62
    92
370
    13
100
AcDbLine
 10
1430.748738983025
 20
-418.6804204985592
 30
0.0
 11
1205.36604617582
 21
-358.2893099729165
 31
0.0
  0
LINE
  5
1DE
330
1F
100
AcDbEntity
  8
1-4
  6
Continuous
 62
    92
370
    13
100
AcDbLine
 10
1480.988252074362
 20
-418.6804204985592
 30
0.0
 11
1706.370944884329
 21
-358.2893099721764
 31
0.0
  0
LINE
  5
1DF
330
1F
100
AcDbEntity
  8
1-B
  6
Continuous
 62
    92
370
    13
100
AcDbLine
 10
1480.988252074362
 20
-418.6804204985592
 30
0.0
 11
1430.748738983025
 21
-418.6804204985592
 31
0.0
  0
LINE
  5
1E0
330
1F
100
AcDbEntity
  8
1-B
  6
Continuous
 62
    92
370
    13
100
AcDbLine
 10
1320.214494188139
 20
-1296.197122977159
 30
0.0
 11
1320.214494188139
 21
-1469.530456310492
 31
0.0
  0
LINE
  5
1E1
330
1F
100
AcDbEntity
  8
1-B
  6
Continuous
 62
    92
370
    13
100
AcDbLine
 10
1710.979879773798
 20
-1296.197122986342
 30
0.0
 11
1710.979879773798
 21
-1469.530456319676
 31
0.0
  0
LINE
  5
1E2
330
1F
100
AcDbEntity
  8
1-4
  6
Continuous
 62
    92
370
    13
100
AcDbLine
 10
1303.547827505566
 20
-1366.574618468036
 30
0.0
 11
1290.214494172233
 21
-1358.87661487884
 31
0.0
  0
LINE
  5
1E3
330
1F
100
AcDbEntity
  8
1-4
  6
Continuous
 62
    92
370
    13
100
AcDbLine
 10
1320.214494188139
 20
-1469.530456310492
 30
0.0
 11
1303.547827505566
 21
-1459.907951814815
 31
0.0
  0
LINE
  5
1E4
330
1F
100
AcDbEntity
  8
1-4
  6
Continuous
 62
    92
370
    13
100
AcDbLine
 10
1727.646546456371
 20
-1366.574618477219
 30
0.0
 11
1740.979879789705
 21
-1358.876614888024
 31
0.0
  0
LINE
  5
1E5
330
1F
100
AcDbEntity
  8
1-4
  6
Continuous
 62
    92
370
    13
100
AcDbLine
 10
1710.979879773798
 20
-1469.530456319676
 30
0.0
 11
1727.646546456371
 21
-1459.907951823998
 31
0.0
  0
LINE
  5
1E6
330
1F
100
AcDbEntity
  8
1-B
  6
Continuous
 62
    92
370
    13
100
AcDbLine
 10
1515.597186963832
 20
-1417.177821566227
 30
0.0
 11
1320.214494188139
 21
-1469.530456310492
 31
0.0
  0
LINE
  5
1E7
330
1F
100
AcDbEntity
  8
1-B
  6
Continuous
 62
    92
370
    13
100
AcDbLine
 10
1515.597186963832
 20
-1417.177821566227
 30
0.0
 11
1710.979879773798
 21
-1469.530456319676
 31
0.0
  0
LINE
  5
1E8
330
1F
100
AcDbEntity
  8
1-B
  6
Continuous
 62
    92
370
    13
100
AcDbLine
 10
1515.597186963832
 20
-1417.177821566227
 30
0.0
 11
1515.597186963832
 21
-1243.844488232894
 31
0.0
  0
LINE
  5
1E9
330
1F
100
AcDbEntity
  8
1-4
  6
Continuous
 62
    92
370
    13
100
AcDbLine
 10
1320.214494188139
 20
-1506.197122977159
 30
0.0
 11
1303.547827505566
 21
-1496.574618481481
 31
0.0
  0
LINE
  5
1EA
330
1F
100
AcDbEntity
  8
1-4
  6
Continuous
 62
    92
370
    13
100
AcDbLine
 10
1710.979879773798
 20
-1506.197122986342
 30
0.0
 11
1727.646546456371
 21
-1496.574618490665
 31
0.0
  0
LINE
  5
1EB
330
1F
100
AcDbEntity
  8
1-B
  6
Continuous
 62
    92
370
    13
100
AcDbLine
 10
1710.979879773798
 20
-1506.197122986342
 30
0.0
 11
1710.979879773798
 21
-1549.530456319676
 31
0.0
  0
LINE
  5
1EC
330
1F
100
AcDbEntity
  8
1-B
  6
Continuous
 62
    92
370
    13
100
AcDbLine
 10
1320.214494188139
 20
-1506.197122977159
 30
0.0
 11
1320.214494188139
 21
-1549.530456310492
 31
0.0
  0
LINE
  5
1ED
330
1F
100
AcDbEntity
  8
1-4
  6
Continuous
 62
    92
370
    13
100
AcDbLine
 10
1320.214494188139
 20
-1549.530456310492
 30
0.0
 11
1290.214494172233
 21
-1532.20994822562
 31
0.0
  0
LINE
  5
1EE
330
1F
100
AcDbEntity
  8
1-4
  6
Continuous
 62
    92
370
    13
100
AcDbLine
 10
1710.979879773798
 20
-1549.530456319676
 30
0.0
 11
1740.979879789705
 21
-1532.209948234804
 31
0.0
  0
LINE
  5
1EF
330
1F
100
AcDbEntity
  8
1-B
  6
Continuous
 62
    92
370
    13
100
AcDbLine
 10
1515.597186963832
 20
-1453.844488232894
 30
0.0
 11
1710.979879773798
 21
-1506.197122986342
 31
0.0
  0
LINE
  5
1F0
330
1F
100
AcDbEntity
  8
1-B
  6
Continuous
 62
    92
370
    13
100
AcDbLine
 10
1515.597186963832
 20
-1453.844488232894
 30
0.0
 11
1320.214494188139
 21
-1506.197122977159
 31
0.0
  0
LINE
  5
1F1
330
1F
100
AcDbEntity
  8
1-B
  6
Continuous
 62
    92
370
    13
100
AcDbLine
 10
1515.597186963832
 20
-1497.177821566227
 30
0.0
 11
1710.979879773798
 21
-1549.530456319676
 31
0.0
  0
LINE
  5
1F2
330
1F
100
AcDbEntity
  8
1-B
  6
Continuous
 62
    92
370
    13
100
AcDbLine
 10
1515.597186963832
 20
-1497.177821566227
 30
0.0
 11
1320.214494188139
 21
-1549.530456310492
 31
0.0
  0
LINE
  5
1F3
330
1F
100
AcDbEntity
  8
1-4
  6
Continuous
 62
    92
370
    13
100
AcDbLine
 10
1303.547827505566
 20
-1379.907951801369
 30
0.0
 11
1290.214494172233
 21
-1372.209948212174
 31
0.0
  0
LINE
  5
1F4
330
1F
100
AcDbEntity
  8
1-4
  6
Continuous
 62
    92
370
    13
100
AcDbLine
 10
1727.646546456371
 20
-1379.907951810553
 30
0.0
 11
1740.979879789705
 21
-1372.209948221358
 31
0.0
  0
LINE
  5
1F5
330
1F
100
AcDbEntity
  8
1-B
  6
Continuous
 62
    92
370
    13
100
AcDbLine
 10
1740.979879789705
 20
-1372.209948221358
 30
0.0
 11
1740.979879789705
 21
-1532.209948234804
 31
0.0
  0
LINE
  5
1F6
330
1F
100
AcDbEntity
  8
1-B
  6
Continuous
 62
    92
370
    13
100
AcDbLine
 10
1290.214494172233
 20
-1372.209948212174
 30
0.0
 11
1290.214494172233
 21
-1532.20994822562
 31
0.0
  0
LINE
  5
1F7
330
1F
100
AcDbEntity
  8
1-B
  6
Continuous
 62
    92
370
    13
100
AcDbLine
 10
1515.597186963832
 20
-1439.756163859102
 30
0.0
 11
1303.547827505566
 21
-1496.574618481481
 31
0.0
  0
LINE
  5
1F8
330
1F
100
AcDbEntity
  8
1-B
  6
Continuous
 62
    92
370
    13
100
AcDbLine
 10
1515.597186963832
 20
-1439.756163859102
 30
0.0
 11
1727.646546456371
 21
-1496.574618490665
 31
0.0
  0
LINE
  5
1F9
330
1F
100
AcDbEntity
  8
1-B
  6
Continuous
 62
    92
370
    13
100
AcDbLine
 10
1515.597186963832
 20
-1453.844488232894
 30
0.0
 11
1515.597186963832
 21
-1417.177821566227
 31
0.0
  0
LINE
  5
1FA
330
1F
100
AcDbEntity
  8
1-B
  6
Continuous
 62
    92
370
    13
100
AcDbLine
 10
1303.547827505566
 20
-1366.574618468036
 30
0.0
 11
1303.547827505566
 21
-1496.574618481481
 31
0.0
  0
LINE
  5
1FB
330
1F
100
AcDbEntity
  8
1-B
  6
Continuous
 62
    92
370
    13
100
AcDbLine
 10
1727.646546456371
 20
-1366.574618477219
 30
0.0
 11
1727.646546456371
 21
-1496.574618490665
 31
0.0
  0
LWPOLYLINE
  5
1FC
330
1F
100
AcDbEntity
  8
1-B
  6
Continuous
 62
     7
370
     9
100
AcDbPolyline
 90
        4
 70
     1
 43
2.0
 10
1768.162392048574
 20
-1083.580954225455
 42
0.4142135623731
 10
1767.162392048574
 20
-1082.580954225455
 42
0.4142135623731
 10
1766.162392048574
 20
-1083.580954225455
 42
0.4142135623731
 10
1767.162392048574
 20
-1084.580954225455
 42
0.4142135623731
  0
LINE
  5
1FD
330
1F
100
AcDbEntity
  8
1-B
  6
Continuous
 62
   120
370
     5
100
AcDbLine
 10
1767.162392048574
 20
-1083.580954225455
 30
0.0
 11
1758.535090545157
 21
-1115.778481768424
 31
0.0
  0
LWPOLYLINE
  5
1FE
330
1F
100
AcDbEntity
  8
1-B
  6
Continuous
 62
     7
370
     9
100
AcDbPolyline
 90
        4
 70
     1
 43
2.0
 10
1531.113032565258
 20
-1020.063769799031
 42
0.4142135623731
 10
1530.113032565258
 20
-1019.063769799031
 42
0.4142135623731
 10
1529.113032565258
 20
-1020.063769799031
 42
0.4142135623731
 10
1530.113032565258
 20
-1021.063769799031
 42
0.4142135623731
  0
LINE
  5
1FF
330
1F
100
AcDbEntity
  8
1-B
  6
Continuous
 62
   120
370
     5
100
AcDbLine
 10
1767.162392048574
 20
-1083.580954225455
 30
0.0
 11
1530.11303256862
 21
-1020.063769786487
 31
0.0
  0
LINE
  5
200
330
1F
100
AcDbEntity
  8
1-B
  6
Continuous
 62
   120
370
     5
100
AcDbLine
 10
1530.113032565258
 20
-1020.063769799031
 30
0.0
 11
1521.485731061841
 21
-1052.261297342
 31
0.0
  0
LWPOLYLINE
  5
201
330
1F
100
AcDbEntity
  8
1-B
  6
Continuous
 62
     7
370
     9
100
AcDbPolyline
 90
        4
 70
     1
 43
2.0
 10
1274.708908100381
 20
-1079.84233471925
 42
0.4142135623731
 10
1273.708908100381
 20
-1078.84233471925
 42
0.4142135623731
 10
1272.708908100381
 20
-1079.84233471925
 42
0.4142135623731
 10
1273.708908100381
 20
-1080.84233471925
 42
0.4142135623731
  0
LINE
  5
202
330
1F
100
AcDbEntity
  8
1-B
  6
Continuous
 62
   120
370
     5
100
AcDbLine
 10
1499.091600913708
 20
-1019.451224191966
 30
0.0
 11
1273.708908100381
 21
-1079.84233471925
 31
0.0
  0
LINE
  5
203
330
1F
100
AcDbEntity
  8
1-B
  6
Continuous
 62
   120
370
     5
100
AcDbLine
 10
1499.09160091707
 20
-1019.451224204512
 30
0.0
 11
1507.718902420487
 21
-1051.64875174748
 31
0.0
  0
LINE
  5
204
330
1F
100
AcDbEntity
  8
1-B
  6
Continuous
 62
   120
370
     5
100
AcDbLine
 10
1273.708908100381
 20
-1079.84233471925
 30
0.0
 11
1282.336209603799
 21
-1112.039862262219
 31
0.0
  0
LINE
  5
205
330
1F
100
AcDbEntity
  8
1-B
  6
Continuous
 62
   120
370
     5
100
AcDbLine
 10
1182.263853645804
 20
-1130.814155396949
 30
0.0
 11
1182.263853645804
 21
-1530.814155396948
 31
0.0
  0
LWPOLYLINE
  5
206
330
1F
100
AcDbEntity
  8
1-B
  6
Continuous
 62
     7
370
     9
100
AcDbPolyline
 90
        4
 70
     1
 43
2.0
 10
1183.263853645804
 20
-1130.814155396949
 42
0.4142135623731
 10
1182.263853645804
 20
-1129.814155396949
 42
0.4142135623731
 10
1181.263853645804
 20
-1130.814155396949
 42
0.4142135623731
 10
1182.263853645804
 20
-1131.814155396949
 42
0.4142135623731
  0
LWPOLYLINE
  5
207
330
1F
100
AcDbEntity
  8
1-B
  6
Continuous
 62
     7
370
     9
100
AcDbPolyline
 90
        4
 70
     1
 43
2.0
 10
1183.263853645804
 20
-1530.814155396948
 42
0.4142135623731
 10
1182.263853645804
 20
-1529.814155396948
 42
0.4142135623731
 10
1181.263853645804
 20
-1530.814155396948
 42
0.4142135623731
 10
1182.263853645804
 20
-1531.814155396948
 42
0.4142135623731
  0
LINE
  5
208
330
1F
100
AcDbEntity
  8
1-B
  6
Continuous
 62
   120
370
     5
100
AcDbLine
 10
1182.263853645804
 20
-1130.814155396949
 30
0.0
 11
1215.597186979138
 21
-1130.814155396949
 31
0.0
  0
LINE
  5
209
330
1F
100
AcDbEntity
  8
1-B
  6
Continuous
 62
   120
370
     5
100
AcDbLine
 10
1182.263853645804
 20
-1530.814155396948
 30
0.0
 11
1215.597186979138
 21
-1530.814155396948
 31
0.0
  0
LWPOLYLINE
  5
20A
330
1F
100
AcDbEntity
  8
1-B
  6
Continuous
 62
     7
370
     9
100
AcDbPolyline
 90
        4
 70
     1
 43
2.0
 10
1830.801062180141
 20
-1273.006742270648
 42
0.4142135623731
 10
1829.801062180141
 20
-1272.006742270648
 42
0.4142135623731
 10
1828.801062180141
 20
-1273.006742270648
 42
0.4142135623731
 10
1829.801062180141
 20
-1274.006742270648
 42
0.4142135623731
  0
LINE
  5
20B
330
1F
100
AcDbEntity
  8
1-B
  6
Continuous
 62
   120
370
     5
100
AcDbLine
 10
1829.801062180141
 20
-1273.006742270648
 30
0.0
 11
1796.467728846808
 21
-1273.006742270648
 31
0.0
  0
LWPOLYLINE
  5
20C
330
1F
100
AcDbEntity
  8
1-B
  6
Continuous
 62
     7
370
     9
100
AcDbPolyline
 90
        4
 70
     1
 43
2.0
 10
1830.801062180141
 20
-1126.340130614239
 42
0.4142135623731
 10
1829.801062180141
 20
-1125.340130614239
 42
0.4142135623731
 10
1828.801062180141
 20
-1126.340130614239
 42
0.4142135623731
 10
1829.801062180141
 20
-1127.340130614239
 42
0.4142135623731
  0
LWPOLYLINE
  5
20D
330
1F
100
AcDbEntity
  8
1-B
  6
Continuous
 62
     7
370
     9
100
AcDbPolyline
 90
        4
 70
     1
 43
2.0
 10
1830.801062180141
 20
-1226.340075607517
 42
0.4142135623731
 10
1829.801062180141
 20
-1225.340075607517
 42
0.4142135623731
 10
1828.801062180141
 20
-1226.340075607517
 42
0.4142135623731
 10
1829.801062180141
 20
-1227.340075607517
 42
0.4142135623731
  0
LINE
  5
20E
330
1F
100
AcDbEntity
  8
1-B
  6
Continuous
 62
   120
370
     5
100
AcDbLine
 10
1829.801062180141
 20
-1126.340130614239
 30
0.0
 11
1796.467728846808
 21
-1126.340130614239
 31
0.0
  0
LINE
  5
20F
330
1F
100
AcDbEntity
  8
1-B
  6
Continuous
 62
   120
370
     5
100
AcDbLine
 10
1829.801062180141
 20
-1226.340075607517
 30
0.0
 11
1796.467728846808
 21
-1226.340075607517
 31
0.0
  0
LWPOLYLINE
  5
210
330
1F
100
AcDbEntity
  8
1-B
  6
Continuous
 62
     7
370
     9
100
AcDbPolyline
 90
        4
 70
     1
 43
2.0
 10
1830.801062180141
 20
-1446.340075603982
 42
0.4142135623731
 10
1829.801062180141
 20
-1445.340075603982
 42
0.4142135623731
 10
1828.801062180141
 20
-1446.340075603982
 42
0.4142135623731
 10
1829.801062180141
 20
-1447.340075603982
 42
0.4142135623731
  0
LINE
  5
211
330
1F
100
AcDbEntity
  8
1-B
  6
Continuous
 62
   120
370
     5
100
AcDbLine
 10
1829.801062180141
 20
-1446.340075603982
 30
0.0
 11
1796.467728846808
 21
-1446.340075603982
 31
0.0
  0
LINE
  5
212
330
1F
100
AcDbEntity
  8
1-B
  6
Continuous
 62
   120
370
     5
100
AcDbLine
 10
1829.801062180141
 20
-1126.340130614239
 30
0.0
 11
1829.801062180141
 21
-1446.340075603982
 31
0.0
  0
LINE
  5
213
330
1F
100
AcDbEntity
  8
1-B
  6
Continuous
 62
   120
370
     5
100
AcDbLine
 10
1829.801062180141
 20
-1446.340075603982
 30
0.0
 11
1829.801062180141
 21
-1483.006742270648
 31
0.0
  0
LWPOLYLINE
  5
214
330
1F
100
AcDbEntity
  8
1-B
  6
Continuous
 62
     7
370
     9
100
AcDbPolyline
 90
        4
 70
     1
 43
2.0
 10
1830.801062180141
 20
-1483.006742270648
 42
0.4142135623731
 10
1829.801062180141
 20
-1482.006742270648
 42
0.4142135623731
 10
1828.801062180141
 20
-1483.006742270648
 42
0.4142135623731
 10
1829.801062180141
 20
-1484.006742270648
 42
0.4142135623731
  0
LINE
  5
215
330
1F
100
AcDbEntity
  8
1-B
  6
Continuous
 62
   120
370
     5
100
AcDbLine
 10
1829.801062180141
 20
-1483.006742270648
 30
0.0
 11
1796.467728846808
 21
-1483.006742270648
 31
0.0
  0
LWPOLYLINE
  5
216
330
1F
100
AcDbEntity
  8
1-B
  6
Continuous
 62
     7
370
     9
100
AcDbPolyline
 90
        4
 70
     1
 43
2.0
 10
1830.801062180141
 20
-1526.340075603982
 42
0.4142135623731
 10
1829.801062180141
 20
-1525.340075603982
 42
0.4142135623731
 10
1828.801062180141
 20
-1526.340075603982
 42
0.4142135623731
 10
1829.801062180141
 20
-1527.340075603982
 42
0.4142135623731
  0
LINE
  5
217
330
1F
100
AcDbEntity
  8
1-B
  6
Continuous
 62
   120
370
     5
100
AcDbLine
 10
1829.801062180141
 20
-1526.340075603982
 30
0.0
 11
1796.467728846808
 21
-1526.340075603982
 31
0.0
  0
LINE
  5
218
330
1F
100
AcDbEntity
  8
1-B
  6
Continuous
 62
   120
370
     5
100
AcDbLine
 10
1829.801062180141
 20
-1483.006742270648
 30
0.0
 11
1829.801062180141
 21
-1526.340075603982
 31
0.0
  0
LINE
  5
219
330
1F
100
AcDbEntity
  8
0-0
  6
JWW_HOJO
 62
   120
370
     5
100
AcDbLine
 10
13.33302729838636
 20
-934.9999054082207
 30
0.0
 11
493.3330272983864
 21
-934.9999054082207
 31
0.0
  0
LINE
  5
21A
330
1F
100
AcDbEntity
  8
0-0
  6
JWW_HOJO
 62
   120
370
     5
100
AcDbLine
 10
13.33302729838636
 20
-784.9999054082207
 30
0.0
 11
493.3330272983864
 21
-784.9999054082207
 31
0.0
  0
LINE
  5
21B
330
1F
100
AcDbEntity
  8
F-1
  6
Continuous
 62
     7
370
     9
100
AcDbLine
 10
3793.332651499156
 20
-1693.333292074887
 30
0.0
 11
-96.66731550886823
 21
-1693.333292074887
 31
0.0
  0
LINE
  5
21C
330
1F
100
AcDbEntity
  8
F-1
  6
Continuous
 62
     7
370
     9
100
AcDbLine
 10
3793.332651499156
 20
-859.9999054082207
 30
0.0
 11
603.3330144108953
 21
-859.9999054082207
 31
0.0
  0
LINE
  5
21D
330
1F
100
AcDbEntity
  8
F-1
  6
JWW_DASHED1
 62
     7
370
     9
100
AcDbLine
 10
3793.333146378802
 20
-1797.499965465129
 30
0.0
 11
2293.333146378801
 21
-1797.499965465129
 31
0.0
  0
LINE
  5
21E
330
1F
100
AcDbEntity
  8
F-1
  6
JWW_DASHED1
 62
     7
370
     9
100
AcDbLine
 10
-103.3338392103036
 20
-859.9999054082201
 30
0.0
 11
-1603.333839210304
 21
-859.9999054082201
 31
0.0
  0
LWPOLYLINE
  5
21F
330
1F
100
AcDbEntity
  8
1-B
  6
Continuous
 62
     7
370
     9
100
AcDbPolyline
 90
        4
 70
     1
 43
2.0
 10
1778.91723640577
 20
1885.559798969532
 42
0.4142135623731
 10
1777.91723640577
 20
1886.559798969532
 42
0.4142135623731
 10
1776.91723640577
 20
1885.559798969532
 42
0.4142135623731
 10
1777.91723640577
 20
1884.559798969533
 42
0.4142135623731
  0
LINE
  5
220
330
1F
100
AcDbEntity
  8
1-B
  6
Continuous
 62
   120
370
     5
100
AcDbLine
 10
1777.91723640577
 20
1885.559798969532
 30
0.0
 11
1744.583903072437
 21
1885.559798969532
 31
0.0
  0
LINE
  5
221
330
1F
100
AcDbEntity
  8
1-B
  6
Continuous
 62
   120
370
     5
100
AcDbLine
 10
1777.91723640577
 20
2285.559798957634
 30
0.0
 11
1777.91723640577
 21
1885.559798969532
 31
0.0
  0
LINE
  5
222
330
1F
100
AcDbEntity
  8
1-4
  6
Continuous
 62
    92
370
    13
100
AcDbLine
 10
1212.032094246291
 20
2159.924469223754
 30
0.0
 11
1212.032094246291
 21
2182.465868707275
 31
0.0
  0
LINE
  5
223
330
1F
100
AcDbEntity
  8
1-4
  6
Continuous
 62
    92
370
    13
100
AcDbLine
 10
1474.32096680814
 20
2099.533358685565
 30
0.0
 11
1474.32096680814
 21
2125.16874342453
 31
0.0
  0
LINE
  5
224
330
1F
100
AcDbEntity
  8
1-4
  6
Continuous
 62
    92
370
    13
100
AcDbLine
 10
1437.414787050135
 20
2099.533358685565
 30
0.0
 11
1437.414787050135
 21
2125.16874342453
 31
0.0
  0
LINE
  5
225
330
1F
100
AcDbEntity
  8
1-B
  6
Continuous
 62
    92
370
    13
100
AcDbLine
 10
1485.867876929137
 20
2225.168688424529
 30
0.0
 11
1708.139175201398
 21
2284.726103297199
 31
0.0
  0
LINE
  5
226
330
1F
100
AcDbEntity
  8
1-4
  6
Continuous
 62
    92
370
    13
100
AcDbLine
 10
1699.703659611983
 20
2159.924469223754
 30
0.0
 11
1699.703659611983
 21
2182.465868707275
 31
0.0
  0
LINE
  5
227
330
1F
100
AcDbEntity
  8
1-B
  6
Continuous
 62
   120
370
     5
100
AcDbLine
 10
1777.91723640577
 20
2185.559853950911
 30
0.0
 11
1744.583903072437
 21
2185.559853950911
 31
0.0
  0
LWPOLYLINE
  5
228
330
1F
100
AcDbEntity
  8
1-B
  6
Continuous
 62
     7
370
     9
100
AcDbPolyline
 90
        4
 70
     1
 43
2.0
 10
1778.91723640577
 20
2185.559853950911
 42
0.4142135623731
 10
1777.91723640577
 20
2186.559853950911
 42
0.4142135623731
 10
1776.91723640577
 20
2185.559853950911
 42
0.4142135623731
 10
1777.91723640577
 20
2184.559853950911
 42
0.4142135623731
  0
LINE
  5
229
330
1F
100
AcDbEntity
  8
1-4
  6
Continuous
 62
    92
370
    13
100
AcDbLine
 10
1425.867876929137
 20
2125.16874342453
 30
0.0
 11
1200.485184126059
 21
2185.559853949067
 31
0.0
  0
LINE
  5
22A
330
1F
100
AcDbEntity
  8
1-4
  6
Continuous
 62
    92
370
    13
100
AcDbLine
 10
1425.867876929137
 20
2125.16874342453
 30
0.0
 11
1485.867876929137
 21
2125.16874342453
 31
0.0
  0
LINE
  5
22B
330
1F
100
AcDbEntity
  8
1-4
  6
Continuous
 62
    92
370
    13
100
AcDbLine
 10
1485.867876929137
 20
2125.16874342453
 30
0.0
 11
1711.250569742465
 21
2185.559853951813
 31
0.0
  0
ARC
  5
22C
330
1F
100
AcDbEntity
  8
1-4
  6
Continuous
 62
    92
370
    13
100
AcDbCircle
 10
1220.48518412809
 20
2274.012793564505
 30
0.0
 40
20.0
100
AcDbArc
 50
119.9999999999999
 51
179.9999999986845
  0
LINE
  5
22D
330
1F
100
AcDbEntity
  8
1-4
  6
Continuous
 62
    92
370
    13
100
AcDbLine
 10
1210.48518412809
 20
2291.333301640195
 30
0.0
 11
1230.485184144261
 21
2302.880307033324
 31
0.0
  0
LINE
  5
22E
330
1F
100
AcDbEntity
  8
1-4
  6
Continuous
 62
    92
370
    13
100
AcDbLine
 10
1200.48518412809
 20
2274.012793564964
 30
0.0
 11
1200.485184126059
 21
2185.559853962511
 31
0.0
  0
ARC
  5
22F
330
1F
100
AcDbEntity
  8
1-4
  6
Continuous
 62
    92
370
    13
100
AcDbCircle
 10
1691.250569739103
 20
2274.012793559357
 30
0.0
 40
20.0
100
AcDbArc
 50
0.0
 51
59.99999999999991
  0
LINE
  5
230
330
1F
100
AcDbEntity
  8
1-4
  6
Continuous
 62
    92
370
    13
100
AcDbLine
 10
1711.250569739103
 20
2274.012793559357
 30
0.0
 11
1711.250569739103
 21
2185.559853964357
 31
0.0
  0
LINE
  5
231
330
1F
100
AcDbEntity
  8
1-4
  6
Continuous
 62
    92
370
    13
100
AcDbLine
 10
1701.250569739103
 20
2291.333301635045
 30
0.0
 11
1681.250569714013
 21
2302.880307033322
 31
0.0
  0
LINE
  5
232
330
1F
100
AcDbEntity
  8
1-4
  6
Continuous
 62
    92
370
    13
100
AcDbLine
 10
1455.867876929137
 20
2242.489196500219
 30
0.0
 11
1230.4851841409
 21
2302.880307020779
 31
0.0
  0
LINE
  5
233
330
1F
100
AcDbEntity
  8
1-4
  6
Continuous
 62
    92
370
    13
100
AcDbLine
 10
1455.867876929137
 20
2242.489196500217
 30
0.0
 11
1681.25056972992
 21
2302.880307024141
 31
0.0
  0
LINE
  5
234
330
1F
100
AcDbEntity
  8
1-B
  6
Continuous
 62
   120
370
     5
100
AcDbLine
 10
1777.91723640577
 20
2285.559798957634
 30
0.0
 11
1744.583903072437
 21
2285.559798957634
 31
0.0
  0
LWPOLYLINE
  5
235
330
1F
100
AcDbEntity
  8
1-B
  6
Continuous
 62
     7
370
     9
100
AcDbPolyline
 90
        4
 70
     1
 43
2.0
 10
1778.91723640577
 20
2285.559798957634
 42
0.4142135623731
 10
1777.91723640577
 20
2286.559798957634
 42
0.4142135623731
 10
1776.91723640577
 20
2285.559798957634
 42
0.4142135623731
 10
1777.91723640577
 20
2284.559798957635
 42
0.4142135623731
  0
LINE
  5
236
330
1F
100
AcDbEntity
  8
1-B
  6
Continuous
 62
   120
370
     5
100
AcDbLine
 10
1724.583903047347
 20
2308.65380972522
 30
0.0
 11
1717.91723638068
 21
2297.106804341427
 31
0.0
  0
LINE
  5
237
330
1F
100
AcDbEntity
  8
1-B
  6
Continuous
 62
   120
370
     5
100
AcDbLine
 10
1694.583903047347
 20
2325.974317800908
 30
0.0
 11
1687.91723638068
 21
2314.427312417116
 31
0.0
  0
LWPOLYLINE
  5
238
330
1F
100
AcDbEntity
  8
1-B
  6
Continuous
 62
     7
370
     9
100
AcDbPolyline
 90
        4
 70
     1
 43
2.0
 10
1725.583903047347
 20
2308.65380972522
 42
0.4142135623731
 10
1724.583903047347
 20
2309.65380972522
 42
0.4142135623731
 10
1723.583903047347
 20
2308.65380972522
 42
0.4142135623731
 10
1724.583903047347
 20
2307.65380972522
 42
0.4142135623731
  0
LWPOLYLINE
  5
239
330
1F
100
AcDbEntity
  8
1-B
  6
Continuous
 62
     7
370
     9
100
AcDbPolyline
 90
        4
 70
     1
 43
2.0
 10
1695.583903047347
 20
2325.974317800908
 42
0.4142135623731
 10
1694.583903047347
 20
2326.974317800908
 42
0.4142135623731
 10
1693.583903047347
 20
2325.974317800908
 42
0.4142135623731
 10
1694.583903047347
 20
2324.974317800908
 42
0.4142135623731
  0
LINE
  5
23A
330
1F
100
AcDbEntity
  8
1-B
  6
Continuous
 62
   120
370
     5
100
AcDbLine
 10
1694.583903047347
 20
2325.974317800908
 30
0.0
 11
1724.583903047347
 21
2308.65380972522
 31
0.0
  0
LINE
  5
23B
330
1F
100
AcDbEntity
  8
1-4
  6
Continuous
 62
    92
370
    13
100
AcDbLine
 10
1485.867876929137
 20
2125.16874342453
 30
0.0
 11
1485.867876929137
 21
2225.168688424529
 31
0.0
  0
LINE
  5
23C
330
1F
100
AcDbEntity
  8
1-4
  6
Continuous
 62
    92
370
    13
100
AcDbLine
 10
1425.867876929137
 20
2125.16874342453
 30
0.0
 11
1425.867876929137
 21
2225.168688424529
 31
0.0
  0
LINE
  5
23D
330
1F
100
AcDbEntity
  8
1-4
  6
Continuous
 62
    92
370
    13
100
AcDbLine
 10
1485.867876929137
 20
2225.168688424529
 30
0.0
 11
1455.867876929137
 21
2242.489196500219
 31
0.0
  0
LINE
  5
23E
330
1F
100
AcDbEntity
  8
1-4
  6
Continuous
 62
    92
370
    13
100
AcDbLine
 10
1425.867876929137
 20
2225.168688424529
 30
0.0
 11
1455.867876929137
 21
2242.489196500219
 31
0.0
  0
LINE
  5
23F
330
1F
100
AcDbEntity
  8
1-4
  6
Continuous
 62
    92
370
    13
100
AcDbLine
 10
1425.867876929137
 20
2225.168688424529
 30
0.0
 11
1485.867876929137
 21
2225.168688424529
 31
0.0
  0
LINE
  5
240
330
1F
100
AcDbEntity
  8
1-B
  6
Continuous
 62
    92
370
    13
100
AcDbLine
 10
1480.987633474806
 20
2087.986353301774
 30
0.0
 11
1430.748120383469
 21
2087.986353301774
 31
0.0
  0
LINE
  5
241
330
1F
100
AcDbEntity
  8
1-4
  6
Continuous
 62
    92
370
    13
100
AcDbLine
 10
1480.987633474806
 20
2087.986353301774
 30
0.0
 11
1706.370326284772
 21
2148.377463828156
 31
0.0
  0
LINE
  5
242
330
1F
100
AcDbEntity
  8
1-4
  6
Continuous
 62
    92
370
    13
100
AcDbLine
 10
1430.748120383469
 20
2087.986353301774
 30
0.0
 11
1205.365427576263
 21
2148.377463827417
 31
0.0
  0
LINE
  5
243
330
1F
100
AcDbEntity
  8
1-4
  6
Continuous
 62
    92
370
    13
100
AcDbLine
 10
1474.32096680814
 20
2099.533358685565
 30
0.0
 11
1699.703659615345
 21
2159.924469211207
 31
0.0
  0
LINE
  5
244
330
1F
100
AcDbEntity
  8
1-4
  6
Continuous
 62
    92
370
    13
100
AcDbLine
 10
1485.867876929137
 20
2085.168743429705
 30
0.0
 11
1711.250569739103
 21
2145.559853956086
 31
0.0
  0
LINE
  5
245
330
1F
100
AcDbEntity
  8
1-4
  6
Continuous
 62
    92
370
    13
100
AcDbLine
 10
1425.867890679137
 20
2085.168739745402
 30
0.0
 11
1200.485184125293
 21
2145.559853954446
 31
0.0
  0
LINE
  5
246
330
1F
100
AcDbEntity
  8
1-4
  6
Continuous
 62
    92
370
    13
100
AcDbLine
 10
1437.414787050135
 20
2099.533358685565
 30
0.0
 11
1212.03209424293
 21
2159.924469211207
 31
0.0
  0
ARC
  5
247
330
1F
100
AcDbEntity
  8
1-4
  6
Continuous
 62
    92
370
    13
100
AcDbCircle
 10
1713.036992945317
 20
2159.924469223754
 30
0.0
 40
13.33333333333333
100
AcDbArc
 50
180.0
 51
239.9999999999994
  0
LINE
  5
248
330
1F
100
AcDbEntity
  8
1-4
  6
Continuous
 62
    92
370
    13
100
AcDbLine
 10
1706.37032627865
 20
2148.377463839961
 30
0.0
 11
1711.250569732981
 21
2145.559853967891
 31
0.0
  0
LINE
  5
249
330
1F
100
AcDbEntity
  8
1-B
  6
Continuous
 62
   120
370
     5
100
AcDbLine
 10
1777.91723640577
 20
2145.559853967891
 30
0.0
 11
1744.583903072437
 21
2145.559853967891
 31
0.0
  0
LWPOLYLINE
  5
24A
330
1F
100
AcDbEntity
  8
1-B
  6
Continuous
 62
     7
370
     9
100
AcDbPolyline
 90
        4
 70
     1
 43
2.0
 10
1778.91723640577
 20
2145.559853967891
 42
0.4142135623731
 10
1777.91723640577
 20
2146.559853967891
 42
0.4142135623731
 10
1776.91723640577
 20
2145.559853967891
 42
0.4142135623731
 10
1777.91723640577
 20
2144.559853967891
 42
0.4142135623731
  0
ARC
  5
24B
330
1F
100
AcDbEntity
  8
1-4
  6
Continuous
 62
    92
370
    13
100
AcDbCircle
 10
1198.698760912959
 20
2159.924469223754
 30
0.0
 40
13.33333333333333
100
AcDbArc
 50
300.0000000000002
 51
0.0
  0
LINE
  5
24C
330
1F
100
AcDbEntity
  8
1-4
  6
Continuous
 62
    92
370
    13
100
AcDbLine
 10
1205.365427579625
 20
2148.377463839961
 30
0.0
 11
1200.485184125293
 21
2145.559853967891
 31
0.0
  0
LINE
  5
24D
330
1F
100
AcDbEntity
  8
1-4
  6
Continuous
 62
    92
370
    13
100
AcDbLine
 10
1474.32096680814
 20
2099.533358685565
 30
0.0
 11
1437.414787050135
 21
2099.533358685565
 31
0.0
  0
ARC
  5
24E
330
1F
100
AcDbEntity
  8
1-4
  6
Continuous
 62
    92
370
    13
100
AcDbCircle
 10
1424.081453716801
 20
2099.533358685565
 30
0.0
 40
13.33333333333333
100
AcDbArc
 50
300.0000000000006
 51
0.0
  0
LINE
  5
24F
330
1F
100
AcDbEntity
  8
1-4
  6
Continuous
 62
    92
370
    13
100
AcDbLine
 10
1430.748120383469
 20
2087.986353301774
 30
0.0
 11
1425.867876929137
 21
2085.168743429705
 31
0.0
  0
ARC
  5
250
330
1F
100
AcDbEntity
  8
1-4
  6
Continuous
 62
    92
370
    13
100
AcDbCircle
 10
1487.654300141472
 20
2099.533358685565
 30
0.0
 40
13.33333333333333
100
AcDbArc
 50
180.0
 51
239.9999999999989
  0
LINE
  5
251
330
1F
100
AcDbEntity
  8
1-4
  6
Continuous
 62
    92
370
    13
100
AcDbLine
 10
1480.987633474806
 20
2087.986353301774
 30
0.0
 11
1485.867876929137
 21
2085.168743429705
 31
0.0
  0
LINE
  5
252
330
1F
100
AcDbEntity
  8
1-4
  6
Continuous
 62
    92
370
    13
100
AcDbLine
 10
1425.867876929137
 20
2085.168688429704
 30
0.0
 11
1485.867876929137
 21
2085.168688429704
 31
0.0
  0
LINE
  5
253
330
1F
100
AcDbEntity
  8
1-B
  6
Continuous
 62
    92
370
    13
100
AcDbLine
 10
1425.867876929137
 20
2225.168688424529
 30
0.0
 11
1203.596578661708
 21
2284.726103295905
 31
0.0
  0
LWPOLYLINE
  5
254
330
1F
100
AcDbEntity
  8
1-B
  6
Continuous
 62
     7
370
     9
100
AcDbPolyline
 90
        4
 70
     1
 43
2.0
 10
1093.534543601927
 20
1885.559798969412
 42
0.4142135623731
 10
1092.534543601927
 20
1886.559798969412
 42
0.4142135623731
 10
1091.534543601927
 20
1885.559798969412
 42
0.4142135623731
 10
1092.534543601927
 20
1884.559798969412
 42
0.4142135623731
  0
LINE
  5
255
330
1F
100
AcDbEntity
  8
1-B
  6
Continuous
 62
   120
370
     5
100
AcDbLine
 10
1092.534543601927
 20
1885.559798969412
 30
0.0
 11
1125.867876935259
 21
1885.559798969412
 31
0.0
  0
LINE
  5
256
330
1F
100
AcDbEntity
  8
1-B
  6
Continuous
 62
   120
370
     5
100
AcDbLine
 10
1092.534543601927
 20
2292.226520634438
 30
0.0
 11
1125.867876935259
 21
2292.226520634438
 31
0.0
  0
LWPOLYLINE
  5
257
330
1F
100
AcDbEntity
  8
1-B
  6
Continuous
 62
     7
370
     9
100
AcDbPolyline
 90
        4
 70
     1
 43
2.0
 10
1093.534543601927
 20
2292.226520634438
 42
0.4142135623731
 10
1092.534543601927
 20
2293.226520634438
 42
0.4142135623731
 10
1091.534543601927
 20
2292.226520634438
 42
0.4142135623731
 10
1092.534543601927
 20
2291.226520634438
 42
0.4142135623731
  0
LINE
  5
258
330
1F
100
AcDbEntity
  8
1-B
  6
Continuous
 62
   120
370
     5
100
AcDbLine
 10
1092.534543601927
 20
2292.226520634438
 30
0.0
 11
1092.534543601927
 21
1885.559798969412
 31
0.0
  0
LINE
  5
259
330
1F
100
AcDbEntity
  8
0-0
  6
JWW_HOJO
 62
   120
370
     5
100
AcDbLine
 10
13.33289971222769
 20
2001.666948120227
 30
0.0
 11
493.3328997122277
 21
2001.666948120227
 31
0.0
  0
LINE
  5
25A
330
1F
100
AcDbEntity
  8
0-0
  6
JWW_HOJO
 62
   120
370
     5
100
AcDbLine
 10
13.33289971222769
 20
2151.666948120227
 30
0.0
 11
493.3328997122277
 21
2151.666948120227
 31
0.0
  0
LINE
  5
25B
330
1F
100
AcDbEntity
  8
1-4
  6
Continuous
 62
    92
370
    13
100
AcDbLine
 10
1425.867876929137
 20
1755.168688429704
 30
0.0
 11
1485.867876929137
 21
1755.168688429704
 31
0.0
  0
LWPOLYLINE
  5
25C
330
1F
100
AcDbEntity
  8
1-B
  6
Continuous
 62
     7
370
     9
100
AcDbPolyline
 90
        4
 70
     1
 43
2.0
 10
1414.789448624501
 20
1710.848841977493
 42
0.4142135623731
 10
1413.789448624501
 20
1711.848841977493
 42
0.4142135623731
 10
1412.789448624501
 20
1710.848841977493
 42
0.4142135623731
 10
1413.789448624501
 20
1709.848841977493
 42
0.4142135623731
  0
LINE
  5
25D
330
1F
100
AcDbEntity
  8
1-B
  6
Continuous
 62
   120
370
     5
100
AcDbLine
 10
1413.789448624501
 20
1710.848841977493
 30
0.0
 11
1422.416750127918
 21
1743.046369520462
 31
0.0
  0
LINE
  5
25E
330
1F
100
AcDbEntity
  8
1-4
  6
Continuous
 62
    92
370
    13
100
AcDbLine
 10
1425.867876929137
 20
1755.168688429704
 30
0.0
 11
1200.485184116263
 21
1815.559798956866
 31
0.0
  0
LINE
  5
25F
330
1F
100
AcDbEntity
  8
1-4
  6
Continuous
 62
    92
370
    13
100
AcDbLine
 10
1485.867876929137
 20
1755.168688429704
 30
0.0
 11
1711.250569742465
 21
1815.559798956988
 31
0.0
  0
LINE
  5
260
330
1F
100
AcDbEntity
  8
1-4
  6
Continuous
 62
    92
370
    13
100
AcDbLine
 10
1711.250569739103
 20
2145.559853969532
 30
0.0
 11
1711.250569739103
 21
1815.559798969532
 31
0.0
  0
LINE
  5
261
330
1F
100
AcDbEntity
  8
1-4
  6
Continuous
 62
    92
370
    13
100
AcDbLine
 10
1485.867876929137
 20
2085.168743429705
 30
0.0
 11
1485.867876929137
 21
1755.168688429704
 31
0.0
  0
LINE
  5
262
330
1F
100
AcDbEntity
  8
1-4
  6
Continuous
 62
    92
370
    13
100
AcDbLine
 10
1425.867876929137
 20
2085.168743429705
 30
0.0
 11
1425.867876929137
 21
1755.168688429704
 31
0.0
  0
LINE
  5
263
330
1F
100
AcDbEntity
  8
1-4
  6
Continuous
 62
    92
370
    13
100
AcDbLine
 10
1200.485184119625
 20
1815.559798969412
 30
0.0
 11
1200.485184119625
 21
2145.559853967891
 31
0.0
  0
LINE
  5
264
330
1F
100
AcDbEntity
  8
1-B
  6
Continuous
 62
   120
370
     5
100
AcDbLine
 10
1188.596121225693
 20
1771.189212194879
 30
0.0
 11
1197.223422729111
 21
1803.386739737849
 31
0.0
  0
LWPOLYLINE
  5
265
330
1F
100
AcDbEntity
  8
1-B
  6
Continuous
 62
     7
370
     9
100
AcDbPolyline
 90
        4
 70
     1
 43
2.0
 10
1189.596121225693
 20
1771.189212194879
 42
0.4142135623731
 10
1188.596121225693
 20
1772.189212194879
 42
0.4142135623731
 10
1187.596121225693
 20
1771.189212194879
 42
0.4142135623731
 10
1188.596121225693
 20
1770.18921219488
 42
0.4142135623731
  0
LINE
  5
266
330
1F
100
AcDbEntity
  8
1-B
  6
Continuous
 62
   120
370
     5
100
AcDbLine
 10
1413.789448624501
 20
1710.848841977493
 30
0.0
 11
1188.596121222332
 21
1771.189212182336
 31
0.0
  0
LINE
  5
267
330
1F
100
AcDbEntity
  8
1-B
  6
Continuous
 62
   120
370
     5
100
AcDbLine
 10
1497.756912194164
 20
1710.798204767644
 30
0.0
 11
1489.129610690747
 21
1742.995732310613
 31
0.0
  0
LINE
  5
268
330
1F
100
AcDbEntity
  8
1-B
  6
Continuous
 62
   120
370
     5
100
AcDbLine
 10
1723.139605004131
 20
1771.189315307472
 30
0.0
 11
1714.512303500713
 21
1803.386842850442
 31
0.0
  0
LINE
  5
269
330
1F
100
AcDbEntity
  8
1-B
  6
Continuous
 62
   120
370
     5
100
AcDbLine
 10
1723.139605007492
 20
1771.189315294928
 30
0.0
 11
1497.756912194164
 21
1710.798204767644
 31
0.0
  0
LWPOLYLINE
  5
26A
330
1F
100
AcDbEntity
  8
1-B
  6
Continuous
 62
     7
370
     9
100
AcDbPolyline
 90
        4
 70
     1
 43
2.0
 10
1498.756912194164
 20
1710.798204767644
 42
0.4142135623731
 10
1497.756912194164
 20
1711.798204767644
 42
0.4142135623731
 10
1496.756912194164
 20
1710.798204767644
 42
0.4142135623731
 10
1497.756912194164
 20
1709.798204767644
 42
0.4142135623731
  0
LWPOLYLINE
  5
26B
330
1F
100
AcDbEntity
  8
1-B
  6
Continuous
 62
     7
370
     9
100
AcDbPolyline
 90
        4
 70
     1
 43
2.0
 10
1724.139605007492
 20
1771.189315294928
 42
0.4142135623731
 10
1723.139605007492
 20
1772.189315294928
 42
0.4142135623731
 10
1722.139605007492
 20
1771.189315294928
 42
0.4142135623731
 10
1723.139605007492
 20
1770.189315294928
 42
0.4142135623731
  0
LINE
  5
26C
330
1F
100
AcDbEntity
  8
1-4
  6
Continuous
 62
    92
370
    13
100
AcDbLine
 10
1485.867876929137
 20
1803.481576848842
 30
0.0
 11
1711.250569739103
 21
1863.872687375224
 31
0.0
  0
LINE
  5
26D
330
1F
100
AcDbEntity
  8
1-4
  6
Continuous
 62
    92
370
    13
100
AcDbLine
 10
1425.867876929137
 20
1803.481576848842
 30
0.0
 11
1200.485184119625
 21
1863.872687375102
 31
0.0
  0
LINE
  5
26E
330
1F
100
AcDbEntity
  8
1-4
  6
Continuous
 62
    92
370
    13
100
AcDbLine
 10
1425.867876929137
 20
1803.481576848842
 30
0.0
 11
1485.867876929137
 21
1803.481576848842
 31
0.0
  0
LINE
  5
26F
330
1F
100
AcDbEntity
  8
F-1
  6
Continuous
 62
     7
370
     9
100
AcDbLine
 10
-96.66731550886823
 20
-859.9999054082207
 30
0.0
 11
-3993.333326803671
 21
-859.9999054082207
 31
0.0
  0
LINE
  5
270
330
1F
100
AcDbEntity
  8
1-B
  6
Continuous
 62
   120
370
     5
100
AcDbLine
 10
1242.816715095098
 20
-1211.235618318893
 30
0.0
 11
1272.816715095098
 21
-1228.556126394582
 31
0.0
  0
LWPOLYLINE
  5
271
330
1F
100
AcDbEntity
  8
1-B
  6
Continuous
 62
     7
370
     9
100
AcDbPolyline
 90
        4
 70
     1
 43
2.0
 10
1243.816715095098
 20
-1211.235618318893
 42
0.4142135623731
 10
1242.816715095098
 20
-1210.235618318893
 42
0.4142135623731
 10
1241.816715095098
 20
-1211.235618318893
 42
0.4142135623731
 10
1242.816715095098
 20
-1212.235618318893
 42
0.4142135623731
  0
LWPOLYLINE
  5
272
330
1F
100
AcDbEntity
  8
1-B
  6
Continuous
 62
     7
370
     9
100
AcDbPolyline
 90
        4
 70
     1
 43
2.0
 10
1273.816715095098
 20
-1228.556126394582
 42
0.4142135623731
 10
1272.816715095098
 20
-1227.556126394582
 42
0.4142135623731
 10
1271.816715095098
 20
-1228.556126394582
 42
0.4142135623731
 10
1272.816715095098
 20
-1229.556126394582
 42
0.4142135623731
  0
LINE
  5
273
330
1F
100
AcDbEntity
  8
1-B
  6
Continuous
 62
   120
370
     5
100
AcDbLine
 10
1242.816715095098
 20
-1211.235618318893
 30
0.0
 11
1249.483381761764
 21
-1199.6886129351
 31
0.0
  0
LINE
  5
274
330
1F
100
AcDbEntity
  8
1-B
  6
Continuous
 62
   120
370
     5
100
AcDbLine
 10
1272.816715095098
 20
-1228.556126394582
 30
0.0
 11
1279.483381761764
 21
-1217.009121010789
 31
0.0
  0
MTEXT
  5
275
330
1F
100
AcDbEntity
  8
1-A
  6
Continuous
 62
     7
370
     9
100
AcDbMText
 10
2458.332527779245
 20
2384.110304563325
 30
0.0
 40
45.71999999999999
 41
270.0
 46
0.0
 71
     7
 72
     1
  1
{\fＭＳ ゴシック|b0|i0|c128|p49;35×35×9}
 73
     1
 44
1.0
  0
MTEXT
  5
276
330
1F
100
AcDbEntity
  8
1-A
  6
Continuous
 62
     7
370
     9
100
AcDbMText
 10
3603.332280339423
 20
2384.110304563325
 30
0.0
 40
45.72
 41
60.0
 46
0.0
 71
     7
 72
     1
  1
{\fＭＳ ゴシック|b0|i0|c128|p49;10}
 73
     1
 44
1.0
  0
MTEXT
  5
277
330
1F
100
AcDbEntity
  8
1-A
  6
Continuous
 62
     7
370
     9
100
AcDbMText
 10
2076.32989074625
 20
1662.040886773872
 30
0.0
 40
45.72
 41
150.0
 46
0.0
 71
     7
 72
     1
  1
{\fＭＳ ゴシック|b0|i0|c128|p49;S=1/3}
 73
     1
 44
1.0
  0
MTEXT
  5
278
330
1F
100
AcDbEntity
  8
1-A
  6
Continuous
 62
     7
370
     9
100
AcDbMText
 10
2458.333146378801
 20
1550.776917896658
 30
0.0
 40
45.71999999999999
 41
270.0
 46
0.0
 71
     7
 72
     1
  1
{\fＭＳ ゴシック|b0|i0|c128|p49;35×35×9}
 73
     1
 44
1.0
  0
MTEXT
  5
279
330
1F
100
AcDbEntity
  8
1-A
  6
Continuous
 62
     7
370
     9
100
AcDbMText
 10
3603.332898938979
 20
1550.776917896658
 30
0.0
 40
45.72
 41
60.0
 46
0.0
 71
     7
 72
     1
  1
{\fＭＳ ゴシック|b0|i0|c128|p49;10}
 73
     1
 44
1.0
  0
MTEXT
  5
27A
330
1F
100
AcDbEntity
  8
1-A
  6
Continuous
 62
     7
370
     9
100
AcDbMText
 10
2076.330509345807
 20
828.7076079718986
 30
0.0
 40
45.72
 41
150.0
 46
0.0
 71
     7
 72
     1
  1
{\fＭＳ ゴシック|b0|i0|c128|p49;S=1/3}
 73
     1
 44
1.0
  0
MTEXT
  5
27B
330
1F
100
AcDbEntity
  8
1-A
  6
Continuous
 62
     7
370
     9
100
AcDbMText
 10
2458.333146378801
 20
717.4435312299914
 30
0.0
 40
45.71999999999999
 41
270.0
 46
0.0
 71
     7
 72
     1
  1
{\fＭＳ ゴシック|b0|i0|c128|p49;35×35×9}
 73
     1
 44
1.0
  0
MTEXT
  5
27C
330
1F
100
AcDbEntity
  8
1-A
  6
Continuous
 62
     7
370
     9
100
AcDbMText
 10
3603.332898938979
 20
717.4435312299914
 30
0.0
 40
45.72
 41
60.0
 46
0.0
 71
     7
 72
     1
  1
{\fＭＳ ゴシック|b0|i0|c128|p49;10}
 73
     1
 44
1.0
  0
MTEXT
  5
27D
330
1F
100
AcDbEntity
  8
1-A
  6
Continuous
 62
     7
370
     9
100
AcDbMText
 10
2076.330509345807
 20
-4.62577869476776
 30
0.0
 40
45.72
 41
150.0
 46
0.0
 71
     7
 72
     1
  1
{\fＭＳ ゴシック|b0|i0|c128|p49;S=1/3}
 73
     1
 44
1.0
  0
MTEXT
  5
27E
330
1F
100
AcDbEntity
  8
1-A
  6
Continuous
 62
     7
370
     9
100
AcDbMText
 10
3603.332898938979
 20
-115.8898554366755
 30
0.0
 40
45.72
 41
60.0
 46
0.0
 71
     7
 72
     1
  1
{\fＭＳ ゴシック|b0|i0|c128|p49;10}
 73
     1
 44
1.0
  0
MTEXT
  5
27F
330
1F
100
AcDbEntity
  8
1-A
  6
Continuous
 62
     7
370
     9
100
AcDbMText
 10
2076.330509345807
 20
-837.9591653614344
 30
0.0
 40
45.72
 41
150.0
 46
0.0
 71
     7
 72
     1
  1
{\fＭＳ ゴシック|b0|i0|c128|p49;S=1/3}
 73
     1
 44
1.0
  0
MTEXT
  5
280
330
1F
100
AcDbEntity
  8
1-A
  6
Continuous
 62
     7
370
     9
100
AcDbMText
 10
3603.332898938979
 20
-949.2232421033418
 30
0.0
 40
45.72
 41
60.0
 46
0.0
 71
     7
 72
     1
  1
{\fＭＳ ゴシック|b0|i0|c128|p49;10}
 73
     1
 44
1.0
  0
MTEXT
  5
281
330
1F
100
AcDbEntity
  8
1-A
  6
Continuous
 62
     7
370
     9
100
AcDbMText
 10
2076.330509345807
 20
-1671.292552028101
 30
0.0
 40
45.72
 41
150.0
 46
0.0
 71
     7
 72
     1
  1
{\fＭＳ ゴシック|b0|i0|c128|p49;S=1/3}
 73
     1
 44
1.0
  0
MTEXT
  5
282
330
1F
100
AcDbEntity
  8
1-B
  6
Continuous
 62
     7
370
   211
100
AcDbMText
 10
1707.91723638068
 20
2303.268074530649
 30
0.0
 40
45.72
 41
30.0
 46
0.0
 71
     7
 72
     1
  1
{\fＭＳ ゴシック|b0|i0|c128|p49;9}
 73
     1
 44
1.0
  0
MTEXT
  5
283
330
1F
100
AcDbEntity
  8
1-B
  6
Continuous
 62
     7
370
   211
100
AcDbMText
 10
1781.250569739103
 20
2197.824826460997
 30
0.0
 40
49.53
 41
65.0
 46
0.0
 71
     7
 72
     1
  1
{\fＭＳ ゴシック|b0|i0|c128|p49;15}
 11
6.123031769111886E-17
 21
1.0
 31
0.0
 73
     1
 44
1.0
  0
MTEXT
  5
284
330
1F
100
AcDbEntity
  8
1-B
  6
Continuous
 62
     7
370
   211
100
AcDbMText
 10
1781.250569739103
 20
2142.877339620256
 30
0.0
 40
45.72
 41
30.0
 46
0.0
 71
     7
 72
     1
  1
{\fＭＳ ゴシック|b0|i0|c128|p49;6}
 11
6.123031769111886E-17
 21
1.0
 31
0.0
 73
     1
 44
1.0
  0
MTEXT
  5
285
330
1F
100
AcDbEntity
  8
1-B
  6
Continuous
 62
     7
370
   211
100
AcDbMText
 10
1095.867876935259
 20
2054.491520634438
 30
0.0
 40
49.53
 41
65.0
 46
0.0
 71
     7
 72
     1
  1
{\fＭＳ ゴシック|b0|i0|c128|p49;60}
 11
6.123031769111886E-17
 21
1.0
 31
0.0
 73
     1
 44
1.0
  0
MTEXT
  5
286
330
1F
100
AcDbEntity
  8
1-B
  6
Continuous
 62
     7
370
   211
100
AcDbMText
 10
1779.33621137205
 20
1977.824826468713
 30
0.0
 40
49.53
 41
65.0
 46
0.0
 71
     7
 72
     1
  1
{\fＭＳ ゴシック|b0|i0|c128|p49;39}
 11
6.123031769111886E-17
 21
1.0
 31
0.0
 73
     1
 44
1.0
  0
MTEXT
  5
287
330
1F
100
AcDbEntity
  8
1-B
  6
Continuous
 62
     7
370
   211
100
AcDbMText
 10
1247.922883741119
 20
1685.443323208627
 30
0.0
 40
49.53000000000067
 41
65.00000000000088
 46
0.0
 71
     7
 72
     1
  1
{\fＭＳ ゴシック|b0|i0|c128|p49;35}
 11
0.9659258262890635
 21
-0.2588190451025378
 31
0.0
 73
     1
 44
1.0
  0
MTEXT
  5
288
330
1F
100
AcDbEntity
  8
1-B
  6
Continuous
 62
     7
370
   211
100
AcDbMText
 10
1614.159007500712
 20
1672.335277225757
 30
0.0
 40
49.53000000000021
 41
65.00000000000027
 46
0.0
 71
     7
 72
     1
  1
{\fＭＳ ゴシック|b0|i0|c128|p49;35}
 11
0.9659258262890773
 21
0.2588190451024877
 31
0.0
 73
     1
 44
1.0
  0
MTEXT
  5
289
330
1F
100
AcDbEntity
  8
1-B
  6
Continuous
 62
     7
370
   211
100
AcDbMText
 10
1493.14254729447
 20
1500.200160343779
 30
0.0
 40
45.72
 41
30.0
 46
0.0
 71
     7
 72
     1
  1
{\fＭＳ ゴシック|b0|i0|c128|p49;9}
 73
     1
 44
1.0
  0
MTEXT
  5
28A
330
1F
100
AcDbEntity
  8
1-B
  6
Continuous
 62
     7
370
   211
100
AcDbMText
 10
1555.747211437726
 20
1378.054056713816
 30
0.0
 40
49.53
 41
65.0
 46
0.0
 71
     7
 72
     1
  1
{\fＭＳ ゴシック|b0|i0|c128|p49;15}
 11
6.123031769111886E-17
 21
1.0
 31
0.0
 73
     1
 44
1.0
  0
MTEXT
  5
28B
330
1F
100
AcDbEntity
  8
1-B
  6
Continuous
 62
     7
370
   211
100
AcDbMText
 10
1552.986380723485
 20
1323.916789585451
 30
0.0
 40
45.72
 41
30.0
 46
0.0
 71
     7
 72
     1
  1
{\fＭＳ ゴシック|b0|i0|c128|p49;6}
 11
6.123031769111886E-17
 21
1.0
 31
0.0
 73
     1
 44
1.0
  0
MTEXT
  5
28C
330
1F
100
AcDbEntity
  8
1-B
  6
Continuous
 62
     7
370
   211
100
AcDbMText
 10
1631.670056079373
 20
1230.577240788942
 30
0.0
 40
49.53
 41
65.0
 46
0.0
 71
     7
 72
     1
  1
{\fＭＳ ゴシック|b0|i0|c128|p49;60}
 11
6.123031769111886E-17
 21
1.0
 31
0.0
 73
     1
 44
1.0
  0
MTEXT
  5
28D
330
1F
100
AcDbEntity
  8
1-B
  6
Continuous
 62
     7
370
   211
100
AcDbMText
 10
1555.747211437726
 20
1161.765838332617
 30
0.0
 40
49.53
 41
65.0
 46
0.0
 71
     7
 72
     1
  1
{\fＭＳ ゴシック|b0|i0|c128|p49;39}
 11
6.123031769111886E-17
 21
1.0
 31
0.0
 73
     1
 44
1.0
  0
MTEXT
  5
28E
330
1F
100
AcDbEntity
  8
1-B
  6
Continuous
 62
     7
370
   211
100
AcDbMText
 10
1473.920849390645
 20
960.463655005725
 30
0.0
 40
45.71999999999984
 41
59.99999999999978
 46
0.0
 71
     7
 72
     1
  1
{\fＭＳ ゴシック|b0|i0|c128|p49;35}
 11
0.8847579535723502
 21
0.4660508165323467
 31
0.0
 73
     1
 44
1.0
  0
MTEXT
  5
28F
330
1F
100
AcDbEntity
  8
1-B
  6
Continuous
 62
     7
370
   211
100
AcDbMText
 10
1234.536650794443
 20
956.1000590721012
 30
0.0
 40
45.72000000000022
 41
60.00000000000029
 46
0.0
 71
     7
 72
     1
  1
{\fＭＳ ゴシック|b0|i0|c128|p49;35}
 11
0.9772488816460192
 21
-0.2120957880807735
 31
0.0
 73
     1
 44
1.0
  0
MTEXT
  5
290
330
1F
100
AcDbEntity
  8
1-B
  6
Continuous
 62
     7
370
   211
100
AcDbMText
 10
1476.85908907242
 20
648.1304941272534
 30
0.0
 40
45.72000000000057
 41
60.00000000000075
 46
0.0
 71
     7
 72
     1
  1
{\fＭＳ ゴシック|b0|i0|c128|p49;35}
 11
0.926773259147806
 21
-0.3756212535634185
 31
0.0
 73
     1
 44
1.0
  0
MTEXT
  5
291
330
1F
100
AcDbEntity
  8
1-B
  6
Continuous
 62
     7
370
   211
100
AcDbMText
 10
1229.86035462057
 20
600.55673163187
 30
0.0
 40
45.71999999999989
 41
59.99999999999986
 46
0.0
 71
     7
 72
     1
  1
{\fＭＳ ゴシック|b0|i0|c128|p49;35}
 11
0.7977988214439068
 21
0.6029237435221085
 31
0.0
 73
     1
 44
1.0
  0
MTEXT
  5
292
330
1F
100
AcDbEntity
  8
1-B
  6
Continuous
 62
     7
370
   211
100
AcDbMText
 10
1645.320830166458
 20
480.0585342972505
 30
0.0
 40
45.72
 41
60.0
 46
0.0
 71
     7
 72
     1
  1
{\fＭＳ ゴシック|b0|i0|c128|p49;15}
 11
6.123031769111886E-17
 21
1.0
 31
0.0
 73
     1
 44
1.0
  0
MTEXT
  5
293
330
1F
100
AcDbEntity
  8
1-B
  6
Continuous
 62
     7
370
   211
100
AcDbMText
 10
1646.701245523578
 20
421.8965203698457
 30
0.0
 40
45.72
 41
30.0
 46
0.0
 71
     7
 72
     1
  1
{\fＭＳ ゴシック|b0|i0|c128|p49;6}
 11
6.123031769111886E-17
 21
1.0
 31
0.0
 73
     1
 44
1.0
  0
MTEXT
  5
294
330
1F
100
AcDbEntity
  8
1-B
  6
Continuous
 62
     7
370
   211
100
AcDbMText
 10
1643.940414809337
 20
263.3333232292767
 30
0.0
 40
45.72
 41
60.0
 46
0.0
 71
     7
 72
     1
  1
{\fＭＳ ゴシック|b0|i0|c128|p49;39}
 11
6.123031769111886E-17
 21
1.0
 31
0.0
 73
     1
 44
1.0
  0
MTEXT
  5
295
330
1F
100
AcDbEntity
  8
1-B
  6
Continuous
 62
     7
370
   211
100
AcDbMText
 10
1224.745600040171
 20
257.9650412849179
 30
0.0
 40
45.72
 41
30.0
 46
0.0
 71
     7
 72
     1
  1
{\fＭＳ ゴシック|b0|i0|c128|p49;7}
 73
     1
 44
1.0
  0
MTEXT
  5
296
330
1F
100
AcDbEntity
  8
1-B
  6
Continuous
 62
     7
370
   211
100
AcDbMText
 10
1707.917854980237
 20
-196.732032603017
 30
0.0
 40
45.72
 41
30.0
 46
0.0
 71
     7
 72
     1
  1
{\fＭＳ ゴシック|b0|i0|c128|p49;9}
 73
     1
 44
1.0
  0
MTEXT
  5
297
330
1F
100
AcDbEntity
  8
1-B
  6
Continuous
 62
     7
370
   211
100
AcDbMText
 10
1781.25118833866
 20
-302.1752806726697
 30
0.0
 40
49.53
 41
65.0
 46
0.0
 71
     7
 72
     1
  1
{\fＭＳ ゴシック|b0|i0|c128|p49;15}
 11
6.123031769111886E-17
 21
1.0
 31
0.0
 73
     1
 44
1.0
  0
MTEXT
  5
298
330
1F
100
AcDbEntity
  8
1-B
  6
Continuous
 62
     7
370
   211
100
AcDbMText
 10
1781.25118833866
 20
-353.2469198367949
 30
0.0
 40
45.72
 41
30.0
 46
0.0
 71
     7
 72
     1
  1
{\fＭＳ ゴシック|b0|i0|c128|p49;7}
 11
6.123031769111886E-17
 21
1.0
 31
0.0
 73
     1
 44
1.0
  0
MTEXT
  5
299
330
1F
100
AcDbEntity
  8
1-B
  6
Continuous
 62
     7
370
   211
100
AcDbMText
 10
1095.868495534816
 20
-441.1133007342265
 30
0.0
 40
49.53
 41
65.0
 46
0.0
 71
     7
 72
     1
  1
{\fＭＳ ゴシック|b0|i0|c128|p49;60}
 11
6.123031769111886E-17
 21
1.0
 31
0.0
 73
     1
 44
1.0
  0
MTEXT
  5
29A
330
1F
100
AcDbEntity
  8
1-B
  6
Continuous
 62
     7
370
   211
100
AcDbMText
 10
1781.25118833866
 20
-485.5085864991073
 30
0.0
 40
49.53
 41
65.0
 46
0.0
 71
     7
 72
     1
  1
{\fＭＳ ゴシック|b0|i0|c128|p49;26}
 11
6.123031769111886E-17
 21
1.0
 31
0.0
 73
     1
 44
1.0
  0
MTEXT
  5
29B
330
1F
100
AcDbEntity
  8
1-B
  6
Continuous
 62
     7
370
   211
100
AcDbMText
 10
1779.336829971606
 20
-590.6775367593219
 30
0.0
 40
33.02
 41
65.0
 46
0.0
 71
     7
 72
     1
  1
{\fＭＳ ゴシック|b0|i0|c128|p49;5.5}
 11
6.123031769111886E-17
 21
1.0
 31
0.0
 73
     1
 44
1.0
  0
MTEXT
  5
29C
330
1F
100
AcDbEntity
  8
1-B
  6
Continuous
 62
     7
370
   211
100
AcDbMText
 10
1779.336829971606
 20
-691.7034903026847
 30
0.0
 40
33.02
 41
65.0
 46
0.0
 71
     7
 72
     1
  1
{\fＭＳ ゴシック|b0|i0|c128|p49;6.5}
 11
6.123031769111886E-17
 21
1.0
 31
0.0
 73
     1
 44
1.0
  0
MTEXT
  5
29D
330
1F
100
AcDbEntity
  8
1-B
  6
Continuous
 62
     7
370
   211
100
AcDbMText
 10
1247.923502340675
 20
-744.5567289266816
 30
0.0
 40
49.53000000000034
 41
65.00000000000044
 46
0.0
 71
     7
 72
     1
  1
{\fＭＳ ゴシック|b0|i0|c128|p49;35}
 11
0.9659258262890704
 21
-0.258819045102513
 31
0.0
 73
     1
 44
1.0
  0
MTEXT
  5
29E
330
1F
100
AcDbEntity
  8
1-B
  6
Continuous
 62
     7
370
   211
100
AcDbMText
 10
1614.15962610027
 20
-757.664774909552
 30
0.0
 40
49.52999999999977
 41
64.9999999999997
 46
0.0
 71
     7
 72
     1
  1
{\fＭＳ ゴシック|b0|i0|c128|p49;35}
 11
0.9659258262890684
 21
0.2588190451025206
 31
0.0
 73
     1
 44
1.0
  0
MTEXT
  5
29F
330
1F
100
AcDbEntity
  8
1-B
  6
Continuous
 62
     7
370
   211
100
AcDbMText
 10
1618.073849899388
 20
-1046.370039699758
 30
0.0
 40
49.53000000000056
 41
65.00000000000072
 46
0.0
 71
     7
 72
     1
  1
{\fＭＳ ゴシック|b0|i0|c128|p49;35}
 11
0.9659258262890706
 21
-0.2588190451025121
 31
0.0
 73
     1
 44
1.0
  0
MTEXT
  5
2A0
330
1F
100
AcDbEntity
  8
1-B
  6
Continuous
 62
     7
370
   211
100
AcDbMText
 10
1361.575611318265
 20
-1059.232318398468
 30
0.0
 40
49.52999999999955
 41
64.99999999999942
 46
0.0
 71
     7
 72
     1
  1
{\fＭＳ ゴシック|b0|i0|c128|p49;35}
 11
0.9659258262890682
 21
0.2588190451025217
 31
0.0
 73
     1
 44
1.0
  0
MTEXT
  5
2A1
330
1F
100
AcDbEntity
  8
1-B
  6
Continuous
 62
     7
370
   211
100
AcDbMText
 10
1833.134395513475
 20
-1214.075103110877
 30
0.0
 40
49.53
 41
65.0
 46
0.0
 71
     7
 72
     1
  1
{\fＭＳ ゴシック|b0|i0|c128|p49;15}
 11
6.123031769111886E-17
 21
1.0
 31
0.0
 73
     1
 44
1.0
  0
MTEXT
  5
2A2
330
1F
100
AcDbEntity
  8
1-B
  6
Continuous
 62
     7
370
   211
100
AcDbMText
 10
1256.146538012107
 20
-1220.541177900492
 30
0.0
 40
45.72
 41
30.0
 46
0.0
 71
     7
 72
     1
  1
{\fＭＳ ゴシック|b0|i0|c128|p49;9}
 73
     1
 44
1.0
  0
MTEXT
  5
2A3
330
1F
100
AcDbEntity
  8
1-B
  6
Continuous
 62
     7
370
   211
100
AcDbMText
 10
1833.134395513475
 20
-1265.146742275003
 30
0.0
 40
45.72
 41
30.0
 46
0.0
 71
     7
 72
     1
  1
{\fＭＳ ゴシック|b0|i0|c128|p49;7}
 11
6.123031769111886E-17
 21
1.0
 31
0.0
 73
     1
 44
1.0
  0
MTEXT
  5
2A4
330
1F
100
AcDbEntity
  8
1-B
  6
Continuous
 62
     7
370
   211
100
AcDbMText
 10
1185.597186979138
 20
-1368.549155396949
 30
0.0
 40
49.53
 41
65.0
 46
0.0
 71
     7
 72
     1
  1
{\fＭＳ ゴシック|b0|i0|c128|p49;60}
 11
6.123031769111886E-17
 21
1.0
 31
0.0
 73
     1
 44
1.0
  0
MTEXT
  5
2A5
330
1F
100
AcDbEntity
  8
1-B
  6
Continuous
 62
     7
370
   211
100
AcDbMText
 10
1833.134395513475
 20
-1397.408408937315
 30
0.0
 40
49.53
 41
65.0
 46
0.0
 71
     7
 72
     1
  1
{\fＭＳ ゴシック|b0|i0|c128|p49;26}
 11
6.123031769111886E-17
 21
1.0
 31
0.0
 73
     1
 44
1.0
  0
MTEXT
  5
2A6
330
1F
100
AcDbEntity
  8
1-B
  6
Continuous
 62
     7
370
   211
100
AcDbMText
 10
1831.220037146421
 20
-1502.577359197529
 30
0.0
 40
33.02
 41
65.0
 46
0.0
 71
     7
 72
     1
  1
{\fＭＳ ゴシック|b0|i0|c128|p49;5.5}
 11
6.123031769111886E-17
 21
1.0
 31
0.0
 73
     1
 44
1.0
  0
MTEXT
  5
2A7
330
1F
100
AcDbEntity
  8
1-B
  6
Continuous
 62
     7
370
   211
100
AcDbMText
 10
1831.220037146421
 20
-1603.603312740892
 30
0.0
 40
33.02
 41
65.0
 46
0.0
 71
     7
 72
     1
  1
{\fＭＳ ゴシック|b0|i0|c128|p49;6.5}
 11
6.123031769111886E-17
 21
1.0
 31
0.0
 73
     1
 44
1.0
  0
MTEXT
  5
2A8
330
1F
100
AcDbEntity
  8
F-A
  6
Continuous
 62
     7
370
     0
100
AcDbMText
 10
-348.3338392103036
 20
2656.551787637247
 30
0.0
 40
64.77
 41
170.0
 46
0.0
 71
     7
 72
     1
  1
{\fＭＳ ゴシック|b0|i0|c128|p49;梱包}
 73
     1
 44
1.0
  0
MTEXT
  5
2A9
330
1F
100
AcDbEntity
  8
F-A
  6
Continuous
 62
     7
370
     0
100
AcDbMText
 10
3548.332898938979
 20
2656.551787637247
 30
0.0
 40
64.77
 41
170.0
 46
0.0
 71
     7
 72
     1
  1
{\fＭＳ ゴシック|b0|i0|c128|p49;梱包}
 73
     1
 44
1.0
  0
MTEXT
  5
2AA
330
1F
100
AcDbEntity
  8
F-A
  6
Continuous
 62
     7
370
     0
100
AcDbMText
 10
-1388.333839210304
 20
2656.535704048775
 30
0.0
 40
64.77
 41
170.0
 46
0.0
 71
     7
 72
     1
  1
{\fＭＳ ゴシック|b0|i0|c128|p49;寸法}
 73
     1
 44
1.0
  0
MTEXT
  5
2AB
330
1F
100
AcDbEntity
  8
F-A
  6
Continuous
 62
     7
370
     0
100
AcDbMText
 10
2508.333146378801
 20
2656.535704048775
 30
0.0
 40
64.77
 41
170.0
 46
0.0
 71
     7
 72
     1
  1
{\fＭＳ ゴシック|b0|i0|c128|p49;寸法}
 73
     1
 44
1.0
  0
MTEXT
  5
2AC
330
1F
100
AcDbEntity
  8
F-A
  6
Continuous
 62
     7
370
     0
100
AcDbMText
 10
-3773.333208238756
 20
2584.686919605152
 30
0.0
 40
66.04
 41
260.0
 46
0.0
 71
     7
 72
     1
  1
{\fＭＳ ゴシック|b0|i0|c128|p49;部材名}
 73
     1
 44
1.0
  0
MTEXT
  5
2AD
330
1F
100
AcDbEntity
  8
F-A
  6
Continuous
 62
     7
370
     0
100
AcDbMText
 10
-798.3338392103042
 20
2584.051919605152
 30
0.0
 40
64.77
 41
170.0
 46
0.0
 71
     7
 72
     1
  1
{\fＭＳ ゴシック|b0|i0|c128|p49;品番}
 73
     1
 44
1.0
  0
MTEXT
  5
2AE
330
1F
100
AcDbEntity
  8
F-A
  6
Continuous
 62
     7
370
     0
100
AcDbMText
 10
123.3328494510135
 20
2584.686919605152
 30
0.0
 40
66.04
 41
260.0
 46
0.0
 71
     7
 72
     1
  1
{\fＭＳ ゴシック|b0|i0|c128|p49;部材名}
 73
     1
 44
1.0
  0
MTEXT
  5
2AF
330
1F
100
AcDbEntity
  8
F-A
  6
Continuous
 62
     7
370
     0
100
AcDbMText
 10
-2623.333719614389
 20
2585.004287637247
 30
0.0
 40
66.675
 41
350.0
 46
0.0
 71
     7
 72
     1
  1
{\fＭＳ ゴシック|b0|i0|c128|p49;断面形状}
 73
     1
 44
1.0
  0
MTEXT
  5
2B0
330
1F
100
AcDbEntity
  8
F-A
  6
Continuous
 62
     7
370
     0
100
AcDbMText
 10
1273.333327834671
 20
2585.004287637247
 30
0.0
 40
66.675
 41
350.0
 46
0.0
 71
     7
 72
     1
  1
{\fＭＳ ゴシック|b0|i0|c128|p49;断面形状}
 73
     1
 44
1.0
  0
MTEXT
  5
2B1
330
1F
100
AcDbEntity
  8
F-A
  6
Continuous
 62
     7
370
     0
100
AcDbMText
 10
3098.333146378801
 20
2584.035836016682
 30
0.0
 40
64.77
 41
170.0
 46
0.0
 71
     7
 72
     1
  1
{\fＭＳ ゴシック|b0|i0|c128|p49;品番}
 73
     1
 44
1.0
  0
MTEXT
  5
2B2
330
1F
100
AcDbEntity
  8
F-A
  6
Continuous
 62
     7
370
     0
100
AcDbMText
 10
-348.3338392103036
 20
2508.218542282799
 30
0.0
 40
64.77
 41
170.0
 46
0.0
 71
     7
 72
     1
  1
{\fＭＳ ゴシック|b0|i0|c128|p49;入数}
 73
     1
 44
1.0
  0
MTEXT
  5
2B3
330
1F
100
AcDbEntity
  8
F-A
  6
Continuous
 62
     7
370
     0
100
AcDbMText
 10
3548.332898938979
 20
2508.218542282799
 30
0.0
 40
64.77
 41
170.0
 46
0.0
 71
     7
 72
     1
  1
{\fＭＳ ゴシック|b0|i0|c128|p49;入数}
 73
     1
 44
1.0
  0
MTEXT
  5
2B4
330
1F
100
AcDbEntity
  8
F-A
  6
Continuous
 62
     7
370
     0
100
AcDbMText
 10
-1573.333839210304
 20
2498.677458694328
 30
0.0
 40
45.72
 41
540.0
 46
0.0
 71
     7
 72
     1
  1
{\fＭＳ ゴシック|b0|i0|c128|p49;長さ×幅×厚さ(㎜)}
 73
     1
 44
1.0
  0
MTEXT
  5
2B5
330
1F
100
AcDbEntity
  8
F-A
  6
Continuous
 62
     7
370
     0
100
AcDbMText
 10
2323.333146378801
 20
2498.677458694328
 30
0.0
 40
45.72
 41
540.0
 46
0.0
 71
     7
 72
     1
  1
{\fＭＳ ゴシック|b0|i0|c128|p49;長さ×幅×厚さ(㎜)}
 73
     1
 44
1.0
  0
MTEXT
  5
2B6
330
1F
100
AcDbEntity
  8
F-A
  6
Continuous
 62
     7
370
     0
100
AcDbMText
 10
-40.0000824799406
 20
-2591.426547247957
 30
0.0
 40
30.48
 41
120.0
 46
0.0
 71
     7
 72
     1
  1
{\fＭＳ ゴシック|b0|i0|c128|p49;図面名}
 73
     1
 44
1.0
  0
MTEXT
  5
2B7
330
1F
100
AcDbEntity
  8
F-A
  6
Continuous
 62
     7
370
     0
100
AcDbMText
 10
1853.332486539274
 20
-2591.428307078516
 30
0.0
 40
30.48
 41
200.0
 46
0.0
 71
     7
 72
     1
  1
{\fＭＳ ゴシック|b0|i0|c128|p49;ＳＣＡＬＥ}
 73
     1
 44
1.0
  0
MTEXT
  5
2B8
330
1F
100
AcDbEntity
  8
F-A
  6
Continuous
 62
     7
370
     0
100
AcDbMText
 10
2853.332816459038
 20
-2591.429236567169
 30
0.0
 40
30.48
 41
160.0
 46
0.0
 71
     7
 72
     1
  1
{\fＭＳ ゴシック|b0|i0|c128|p49;ＤＡＴＥ}
 73
     1
 44
1.0
  0
MTEXT
  5
2B9
330
1F
100
AcDbEntity
  8
F-A
  6
Continuous
 62
     7
370
     0
100
AcDbMText
 10
786.9451346024795
 20
-2630.758774399892
 30
0.0
 40
51.816
 41
340.0
 46
0.0
 71
     7
 72
     1
  1
{\fＭＳ ゴシック|b0|i0|c128|p49;洋風造作材}
 73
     1
 44
1.0
  0
MTEXT
  5
2BA
330
1F
100
AcDbEntity
  8
F-A
  6
Continuous
 62
     7
370
     0
100
AcDbMText
 10
2255.832651499156
 20
-2631.268743938205
 30
0.0
 40
50.8
 41
100.0
 46
0.0
 71
     7
 72
     1
  1
{\fＭＳ ゴシック|b0|i0|c128|p49;1/2}
 73
     1
 44
1.0
  0
MTEXT
  5
2BB
330
1F
100
AcDbEntity
  8
F-A
  6
Continuous
 62
     7
370
     0
100
AcDbMText
 10
1853.332486539274
 20
-2724.761642118573
 30
0.0
 40
30.48
 41
160.0
 46
0.0
 71
     7
 72
     1
  1
{\fＭＳ ゴシック|b0|i0|c128|p49;ＦＩＬＥ}
 73
     1
 44
1.0
  0
MTEXT
  5
2BC
330
1F
100
AcDbEntity
  8
F-A
  6
Continuous
 62
     7
370
     0
100
AcDbMText
 10
2853.332816459038
 20
-2724.762571607227
 30
0.0
 40
30.48
 41
120.0
 46
0.0
 71
     7
 72
     1
  1
{\fＭＳ ゴシック|b0|i0|c128|p49;ＮＯ．}
 73
     1
 44
1.0
  0
MTEXT
  5
2BD
330
1F
100
AcDbEntity
  8
F-A
  6
Continuous
 62
     7
370
     0
100
AcDbMText
 10
823.332486539274
 20
-2730.760446177432
 30
0.0
 40
30.48
 41
80.0
 46
0.0
 71
     7
 72
     1
  1
{\fＭＳ ゴシック|b0|i0|c128|p49;株式}
 73
     1
 44
1.0
  0
MTEXT
  5
2BE
330
1F
100
AcDbEntity
  8
F-A
  6
Continuous
 62
     7
370
     0
100
AcDbMText
 10
963.332486539274
 20
-2776.187836349286
 30
0.0
 40
67.62750000000003
 41
710.0000000000002
 46
0.0
 71
     7
 72
     1
  1
{\fＭＳ ゴシック|b0|i0|c128|p49;ウッドワン・・・}
 73
     1
 44
1.0
  0
MTEXT
  5
2BF
330
1F
100
AcDbEntity
  8
F-A
  6
Continuous
 62
     7
370
     0
100
AcDbMText
 10
823.332486539274
 20
-2778.760446177458
 30
0.0
 40
30.48
 41
80.0
 46
0.0
 71
     7
 72
     1
  1
{\fＭＳ ゴシック|b0|i0|c128|p49;会社}
 73
     1
 44
1.0
  0
MTEXT
  5
2C0
330
1F
100
AcDbEntity
  8
F-A
  6
Continuous
 62
     7
370
     0
100
AcDbMText
 10
3738.935540739808
 20
-2876.560837759023
 30
0.0
 40
45.72
 41
60.0
 46
0.0
 71
     7
 72
     1
  1
{\fＭＳ ゴシック|b0|i0|c128|p49;）}
 73
     1
 44
1.0
  0
MTEXT
  5
2C1
330
1F
100
AcDbEntity
  8
F-A
  6
Continuous
 62
     7
370
     0
100
AcDbMText
 10
3460.130633894714
 20
-2877.490187658314
 30
0.0
 40
45.72
 41
30.0
 46
0.0
 71
     7
 72
     1
  1
{\fＭＳ ゴシック|b0|i0|c128|p49;,}
 73
     1
 44
1.0
  0
MTEXT
  5
2C2
330
1F
100
AcDbEntity
  8
F-A
  6
Continuous
 62
     7
370
     0
100
AcDbMText
 10
3282.624841276916
 20
-2876.514536603932
 30
0.0
 40
49.53
 41
65.0
 46
0.0
 71
     7
 72
     1
  1
{\fＭＳ ゴシック|b0|i0|c128|p49;$y}
 73
     1
 44
1.0
  0
MTEXT
  5
2C3
330
1F
100
AcDbEntity
  8
F-A
  6
Continuous
 62
     7
370
     0
100
AcDbMText
 10
3385.782655302796
 20
-2876.514536603932
 30
0.0
 40
49.53
 41
65.0
 46
0.0
 71
     7
 72
     1
  1
{\fＭＳ ゴシック|b0|i0|c128|p49;$m}
 73
     1
 44
1.0
  0
MTEXT
  5
2C4
330
1F
100
AcDbEntity
  8
F-A
  6
Continuous
 62
     7
370
     0
100
AcDbMText
 10
3488.940476958069
 20
-2876.514536603932
 30
0.0
 40
49.53
 41
65.0
 46
0.0
 71
     7
 72
     1
  1
{\fＭＳ ゴシック|b0|i0|c128|p49;$d}
 73
     1
 44
1.0
  0
MTEXT
  5
2C5
330
1F
100
AcDbEntity
  8
F-A
  6
Continuous
 62
     7
370
     0
100
AcDbMText
 10
3592.098298613341
 20
-2876.514536603932
 30
0.0
 40
49.53
 41
130.0
 46
0.0
 71
     7
 72
     1
  1
{\fＭＳ ゴシック|b0|i0|c128|p49;印刷}
 73
     1
 44
1.0
  0
MTEXT
  5
2C6
330
1F
100
AcDbEntity
  8
F-A
  6
Continuous
 62
     7
370
     0
100
AcDbMText
 10
3189.355582835333
 20
-2879.348887456898
 30
0.0
 40
45.72
 41
60.0
 46
0.0
 71
     7
 72
     1
  1
{\fＭＳ ゴシック|b0|i0|c128|p49;（}
 73
     1
 44
1.0
  0
MTEXT
  5
2C7
330
1F
100
AcDbEntity
  8
F-A
  6
Continuous
 62
     7
370
     0
100
AcDbMText
 10
3354.184762541563
 20
-2879.348887456898
 30
0.0
 40
45.72
 41
30.0
 46
0.0
 71
     7
 72
     1
  1
{\fＭＳ ゴシック|b0|i0|c128|p49;,}
 73
     1
 44
1.0
  0
MTEXT
  5
2C8
330
1F
100
AcDbEntity
  8
1-A
  6
Continuous
 62
     7
370
     9
100
AcDbMText
 10
-3253.33397117821
 20
2343.813533393752
 30
0.0
 40
60.96
 41
640.0
 46
0.0
 71
     7
 72
     1
  1
{\fＭＳ ゴシック|b0|i0|c128|p49;Ｊ型(スカート付)}
 73
     1
 44
1.0
  0
LWPOLYLINE
  5
2C9
330
1F
100
AcDbEntity
  8
0-B
  6
Continuous
 62
     7
370
     9
100
AcDbPolyline
 90
        4
 70
     1
 43
2.0
 10
-2162.391873210217
 20
2215.437209724554
 42
0.4142135623731
 10
-2163.391873210217
 20
2216.437209724554
 42
0.4142135623731
 10
-2164.391873210217
 20
2215.437209724554
 42
0.4142135623731
 10
-2163.391873210217
 20
2214.437209724554
 42
0.4142135623731
  0
LINE
  5
2CA
330
1F
100
AcDbEntity
  8
0-B
  6
Continuous
 62
   120
370
     5
100
AcDbLine
 10
-2163.391873210217
 20
2215.437209724554
 30
0.0
 11
-2213.391873210217
 21
2215.437209724554
 31
0.0
  0
LWPOLYLINE
  5
2CB
330
1F
100
AcDbEntity
  8
0-B
  6
Continuous
 62
     7
370
     9
100
AcDbPolyline
 90
        4
 70
     1
 43
2.0
 10
-2162.391873210217
 20
1825.437209724554
 42
0.4142135623731
 10
-2163.391873210217
 20
1826.437209724554
 42
0.4142135623731
 10
-2164.391873210217
 20
1825.437209724554
 42
0.4142135623731
 10
-2163.391873210217
 20
1824.437209724554
 42
0.4142135623731
  0
LINE
  5
2CC
330
1F
100
AcDbEntity
  8
0-4
  6
Continuous
 62
    92
370
    13
100
AcDbLine
 10
-2318.391873210217
 20
1875.437209724554
 30
0.0
 11
-2298.391873210217
 21
1875.437209724554
 31
0.0
  0
LINE
  5
2CD
330
1F
100
AcDbEntity
  8
0-4
  6
Continuous
 62
    92
370
    13
100
AcDbLine
 10
-2318.391873210217
 20
1875.437209724554
 30
0.0
 11
-2318.391873210217
 21
1825.437209724554
 31
0.0
  0
LINE
  5
2CE
330
1F
100
AcDbEntity
  8
0-4
  6
Continuous
 62
    92
370
    13
100
AcDbLine
 10
-2353.391873210217
 20
1825.437209724554
 30
0.0
 11
-2318.391873210217
 21
1825.437209724554
 31
0.0
  0
LINE
  5
2CF
330
1F
100
AcDbEntity
  8
0-4
  6
Continuous
 62
    92
370
    13
100
AcDbLine
 10
-2298.391873210217
 20
1875.437209724554
 30
0.0
 11
-2298.391873210217
 21
1825.437209724554
 31
0.0
  0
LINE
  5
2D0
330
1F
100
AcDbEntity
  8
0-4
  6
Continuous
 62
    92
370
    13
100
AcDbLine
 10
-2263.391873210217
 20
1825.437209724554
 30
0.0
 11
-2298.391873210217
 21
1825.437209724554
 31
0.0
  0
ARC
  5
2D1
330
1F
100
AcDbEntity
  8
0-3
  6
Continuous
 62
     7
370
     9
100
AcDbCircle
 10
-2303.391378370216
 20
1790.436714884554
 30
0.0
 40
24.99950516
100
AcDbArc
 50
209.9999999999995
 51
0.0
  0
ARC
  5
2D2
330
1F
100
AcDbEntity
  8
0-3
  6
Continuous
 62
     7
370
     9
100
AcDbCircle
 10
-2303.391378370216
 20
1790.436714884554
 30
0.0
 40
32.49950516
100
AcDbArc
 50
209.9999999999995
 51
0.0
  0
ARC
  5
2D3
330
1F
100
AcDbEntity
  8
0-3
  6
Continuous
 62
     7
370
     9
100
AcDbCircle
 10
-2303.391378370216
 20
1790.436714884554
 30
0.0
 40
34.99950516
100
AcDbArc
 50
209.9999999999995
 51
0.0
  0
LINE
  5
2D4
330
1F
100
AcDbEntity
  8
0-3
  6
Continuous
 62
     7
370
     9
100
AcDbLine
 10
-2333.701838958661
 20
1772.936962304554
 30
0.0
 11
-2325.041584920816
 21
1777.936962304554
 31
0.0
  0
LINE
  5
2D5
330
1F
100
AcDbEntity
  8
0-3
  6
Continuous
 62
     7
370
     9
100
AcDbLine
 10
-2278.391873210217
 20
1825.437209724554
 30
0.0
 11
-2278.391873210217
 21
1790.436714884554
 31
0.0
  0
LINE
  5
2D6
330
1F
100
AcDbEntity
  8
0-3
  6
Continuous
 62
     7
370
     9
100
AcDbLine
 10
-2270.891873210217
 20
1825.437209724554
 30
0.0
 11
-2270.891873210217
 21
1790.436714884554
 31
0.0
  0
LINE
  5
2D7
330
1F
100
AcDbEntity
  8
0-3
  6
Continuous
 62
     7
370
     9
100
AcDbLine
 10
-2268.391873210217
 20
1825.437209724554
 30
0.0
 11
-2268.391873210217
 21
1790.436714884554
 31
0.0
  0
LINE
  5
2D8
330
1F
100
AcDbEntity
  8
0-3
  6
Continuous
 62
     7
370
     9
100
AcDbLine
 10
-2338.391873210217
 20
1810.437209724554
 30
0.0
 11
-2278.391873210217
 21
1810.437209724554
 31
0.0
  0
LINE
  5
2D9
330
1F
100
AcDbEntity
  8
0-3
  6
Continuous
 62
     7
370
     9
100
AcDbLine
 10
-2338.391873210217
 20
1825.437209724554
 30
0.0
 11
-2338.391873210217
 21
1810.437209724554
 31
0.0
  0
LINE
  5
2DA
330
1F
100
AcDbEntity
  8
0-3
  6
Continuous
 62
     7
370
     9
100
AcDbLine
 10
-2313.391873210217
 20
1875.437209724554
 30
0.0
 11
-2318.391873210217
 21
1862.937209724554
 31
0.0
  0
LINE
  5
2DB
330
1F
100
AcDbEntity
  8
0-3
  6
Continuous
 62
     7
370
     9
100
AcDbLine
 10
-2303.391873210217
 20
1875.437209724554
 30
0.0
 11
-2298.391873210217
 21
1862.937209724554
 31
0.0
  0
LINE
  5
2DC
330
1F
100
AcDbEntity
  8
0-3
  6
Continuous
 62
     7
370
     9
100
AcDbLine
 10
-2318.391873210217
 20
1850.437209724554
 30
0.0
 11
-2313.391873210217
 21
1862.937209724554
 31
0.0
  0
LINE
  5
2DD
330
1F
100
AcDbEntity
  8
0-3
  6
Continuous
 62
     7
370
     9
100
AcDbLine
 10
-2298.391873210217
 20
1850.437209724554
 30
0.0
 11
-2303.391873210217
 21
1862.937209724554
 31
0.0
  0
LINE
  5
2DE
330
1F
100
AcDbEntity
  8
0-3
  6
Continuous
 62
     7
370
     9
100
AcDbLine
 10
-2298.391873210217
 20
1862.937209724554
 30
0.0
 11
-2303.391873210217
 21
1862.937209724554
 31
0.0
  0
LINE
  5
2DF
330
1F
100
AcDbEntity
  8
0-3
  6
Continuous
 62
     7
370
     9
100
AcDbLine
 10
-2313.391873210217
 20
1862.937209724554
 30
0.0
 11
-2318.391873210217
 21
1862.937209724554
 31
0.0
  0
LINE
  5
2E0
330
1F
100
AcDbEntity
  8
0-3
  6
Continuous
 62
     7
370
     9
100
AcDbLine
 10
-2318.391873210217
 20
1837.937209724554
 30
0.0
 11
-2313.391873210217
 21
1850.437209724554
 31
0.0
  0
LINE
  5
2E1
330
1F
100
AcDbEntity
  8
0-3
  6
Continuous
 62
     7
370
     9
100
AcDbLine
 10
-2298.391873210217
 20
1837.937209724554
 30
0.0
 11
-2303.391873210217
 21
1850.437209724554
 31
0.0
  0
LINE
  5
2E2
330
1F
100
AcDbEntity
  8
0-3
  6
Continuous
 62
     7
370
     9
100
AcDbLine
 10
-2298.391873210217
 20
1850.437209724554
 30
0.0
 11
-2303.391873210217
 21
1850.437209724554
 31
0.0
  0
LINE
  5
2E3
330
1F
100
AcDbEntity
  8
0-3
  6
Continuous
 62
     7
370
     9
100
AcDbLine
 10
-2313.391873210217
 20
1850.437209724554
 30
0.0
 11
-2318.391873210217
 21
1850.437209724554
 31
0.0
  0
LINE
  5
2E4
330
1F
100
AcDbEntity
  8
0-3
  6
Continuous
 62
     7
370
     9
100
AcDbLine
 10
-2298.391873210217
 20
1837.937209724554
 30
0.0
 11
-2303.391873210217
 21
1837.937209724554
 31
0.0
  0
LINE
  5
2E5
330
1F
100
AcDbEntity
  8
0-3
  6
Continuous
 62
     7
370
     9
100
AcDbLine
 10
-2313.391873210217
 20
1837.937209724554
 30
0.0
 11
-2318.391873210217
 21
1837.937209724554
 31
0.0
  0
LINE
  5
2E6
330
1F
100
AcDbEntity
  8
0-3
  6
Continuous
 62
     7
370
     9
100
AcDbLine
 10
-2338.391873210217
 20
1825.437209724554
 30
0.0
 11
-2313.391873210217
 21
1825.437209724554
 31
0.0
  0
LINE
  5
2E7
330
1F
100
AcDbEntity
  8
0-3
  6
Continuous
 62
     7
370
     9
100
AcDbLine
 10
-2268.391873210217
 20
1825.437209724554
 30
0.0
 11
-2303.391873210217
 21
1825.437209724554
 31
0.0
  0
LINE
  5
2E8
330
1F
100
AcDbEntity
  8
0-3
  6
Continuous
 62
     7
370
     9
100
AcDbLine
 10
-2313.391873210217
 20
1837.937209724554
 30
0.0
 11
-2313.391873210217
 21
1825.437209724554
 31
0.0
  0
LINE
  5
2E9
330
1F
100
AcDbEntity
  8
0-3
  6
Continuous
 62
     7
370
     9
100
AcDbLine
 10
-2303.391873210217
 20
1837.937209724554
 30
0.0
 11
-2303.391873210217
 21
1825.437209724554
 31
0.0
  0
LINE
  5
2EA
330
1F
100
AcDbEntity
  8
0-3
  6
Continuous
 62
     7
370
     9
100
AcDbLine
 10
-2313.391873210217
 20
1875.437209724554
 30
0.0
 11
-2303.391873210217
 21
1875.437209724554
 31
0.0
  0
LINE
  5
2EB
330
1F
100
AcDbEntity
  8
0-0
  6
JWW_HOJO
 62
     7
370
     9
100
AcDbLine
 10
-2277.534008833948
 20
2425.437209724554
 30
0.0
 11
-2453.391873210217
 21
2425.437209724554
 31
0.0
  0
LWPOLYLINE
  5
2EC
330
1F
100
AcDbEntity
  8
0-B
  6
Continuous
 62
     7
370
     9
100
AcDbPolyline
 90
        4
 70
     1
 43
2.0
 10
-2162.391873210217
 20
2425.437209724554
 42
0.4142135623731
 10
-2163.391873210217
 20
2426.437209724554
 42
0.4142135623731
 10
-2164.391873210217
 20
2425.437209724554
 42
0.4142135623731
 10
-2163.391873210217
 20
2424.437209724554
 42
0.4142135623731
  0
LWPOLYLINE
  5
2ED
330
1F
100
AcDbEntity
  8
0-B
  6
Continuous
 62
     7
370
     9
100
AcDbPolyline
 90
        4
 70
     1
 43
2.0
 10
-2162.391873210217
 20
2275.437209724554
 42
0.4142135623731
 10
-2163.391873210217
 20
2276.437209724554
 42
0.4142135623731
 10
-2164.391873210217
 20
2275.437209724554
 42
0.4142135623731
 10
-2163.391873210217
 20
2274.437209724554
 42
0.4142135623731
  0
LINE
  5
2EE
330
1F
100
AcDbEntity
  8
0-B
  6
Continuous
 62
   120
370
     5
100
AcDbLine
 10
-2163.391873210217
 20
2275.437209724554
 30
0.0
 11
-2213.391873210217
 21
2275.437209724554
 31
0.0
  0
LINE
  5
2EF
330
1F
100
AcDbEntity
  8
0-B
  6
Continuous
 62
   120
370
     5
100
AcDbLine
 10
-2163.391873210217
 20
2425.437209724554
 30
0.0
 11
-2163.391873210217
 21
1825.437209724554
 31
0.0
  0
LINE
  5
2F0
330
1F
100
AcDbEntity
  8
0-4
  6
Continuous
 62
    92
370
    13
100
AcDbLine
 10
-2293.391873210217
 20
2425.437209724554
 30
0.0
 11
-2353.391873210217
 21
2425.437209724554
 31
0.0
  0
ARC
  5
2F1
330
1F
100
AcDbEntity
  8
0-4
  6
Continuous
 62
    92
370
    13
100
AcDbCircle
 10
-2293.391873210217
 20
2395.437209724554
 30
0.0
 40
30.0
100
AcDbArc
 50
0.0
 51
90.00000000000001
  0
ARC
  5
2F2
330
1F
100
AcDbEntity
  8
0-4
  6
Continuous
 62
    92
370
    13
100
AcDbCircle
 10
-2293.391873210217
 20
2395.437209724554
 30
0.0
 40
25.0
100
AcDbArc
 50
0.0
 51
90.00000000000001
  0
LINE
  5
2F3
330
1F
100
AcDbEntity
  8
0-0
  6
JWW_HOJO
 62
     7
370
     9
100
AcDbLine
 10
-2213.391873210217
 20
1825.437209724554
 30
0.0
 11
-2213.391873210217
 21
2390.436714884553
 31
0.0
  0
LINE
  5
2F4
330
1F
100
AcDbEntity
  8
0-0
  6
JWW_HOJO
 62
     7
370
     9
100
AcDbLine
 10
-2163.391873210217
 20
1825.437209724554
 30
0.0
 11
-2163.391873210217
 21
2390.436714884553
 31
0.0
  0
LINE
  5
2F5
330
1F
100
AcDbEntity
  8
0-4
  6
Continuous
 62
    92
370
    13
100
AcDbLine
 10
-2353.391873210217
 20
1825.437209724554
 30
0.0
 11
-2353.391873210217
 21
2425.437209724554
 31
0.0
  0
ARC
  5
2F6
330
1F
100
AcDbEntity
  8
0-4
  6
Continuous
 62
    92
370
    13
100
AcDbCircle
 10
-2293.391873210217
 20
2255.437209724554
 30
0.0
 40
20.0
100
AcDbArc
 50
90.0
 51
180.0
  0
LINE
  5
2F7
330
1F
100
AcDbEntity
  8
0-4
  6
Continuous
 62
    92
370
    13
100
AcDbLine
 10
-2313.391873210217
 20
2235.437209724554
 30
0.0
 11
-2313.391873210217
 21
2255.437209724554
 31
0.0
  0
ARC
  5
2F8
330
1F
100
AcDbEntity
  8
0-4
  6
Continuous
 62
    92
370
    13
100
AcDbCircle
 10
-2293.391873210217
 20
2235.437209724554
 30
0.0
 40
20.0
100
AcDbArc
 50
180.0
 51
270.0
  0
ARC
  5
2F9
330
1F
100
AcDbEntity
  8
0-4
  6
Continuous
 62
    92
370
    13
100
AcDbCircle
 10
-2293.391873210217
 20
2255.437209724554
 30
0.0
 40
25.0
100
AcDbArc
 50
90.0
 51
180.0
  0
LINE
  5
2FA
330
1F
100
AcDbEntity
  8
0-4
  6
Continuous
 62
    92
370
    13
100
AcDbLine
 10
-2318.391873210217
 20
2235.437209724554
 30
0.0
 11
-2318.391873210217
 21
2255.437209724554
 31
0.0
  0
ARC
  5
2FB
330
1F
100
AcDbEntity
  8
0-4
  6
Continuous
 62
    92
370
    13
100
AcDbCircle
 10
-2293.391873210217
 20
2235.437209724554
 30
0.0
 40
25.0
100
AcDbArc
 50
180.0
 51
270.0
  0
LINE
  5
2FC
330
1F
100
AcDbEntity
  8
0-4
  6
Continuous
 62
    92
370
    13
100
AcDbLine
 10
-2268.391873210217
 20
1825.437209724554
 30
0.0
 11
-2268.391873210217
 21
2210.437209724554
 31
0.0
  0
LINE
  5
2FD
330
1F
100
AcDbEntity
  8
0-4
  6
Continuous
 62
    92
370
    13
100
AcDbLine
 10
-2263.391873210217
 20
1825.437209724554
 30
0.0
 11
-2263.391873210217
 21
2215.437209724554
 31
0.0
  0
LINE
  5
2FE
330
1F
100
AcDbEntity
  8
0-4
  6
Continuous
 62
    92
370
    13
100
AcDbLine
 10
-2293.391873210217
 20
2215.437209724554
 30
0.0
 11
-2263.391873210217
 21
2215.437209724554
 31
0.0
  0
LINE
  5
2FF
330
1F
100
AcDbEntity
  8
0-4
  6
Continuous
 62
    92
370
    13
100
AcDbLine
 10
-2293.391873210217
 20
2210.437209724554
 30
0.0
 11
-2268.391873210217
 21
2210.437209724554
 31
0.0
  0
LINE
  5
300
330
1F
100
AcDbEntity
  8
0-4
  6
Continuous
 62
    92
370
    13
100
AcDbLine
 10
-2268.391873210217
 20
2395.081870665227
 30
0.0
 11
-2268.391873210217
 21
2280.437209724554
 31
0.0
  0
LINE
  5
301
330
1F
100
AcDbEntity
  8
0-4
  6
Continuous
 62
    92
370
    13
100
AcDbLine
 10
-2263.391873210217
 20
2395.437209724554
 30
0.0
 11
-2263.391873210217
 21
2275.437209724554
 31
0.0
  0
LINE
  5
302
330
1F
100
AcDbEntity
  8
0-4
  6
Continuous
 62
    92
370
    13
100
AcDbLine
 10
-2293.391873210217
 20
2275.437209724554
 30
0.0
 11
-2263.391873210217
 21
2275.437209724554
 31
0.0
  0
LINE
  5
303
330
1F
100
AcDbEntity
  8
0-4
  6
Continuous
 62
    92
370
    13
100
AcDbLine
 10
-2293.391873210217
 20
2280.437209724554
 30
0.0
 11
-2268.391873210217
 21
2280.437209724554
 31
0.0
  0
LINE
  5
304
330
1F
100
AcDbEntity
  8
0-B
  6
Continuous
 62
   120
370
     5
100
AcDbLine
 10
-2063.391873210217
 20
2425.437209724554
 30
0.0
 11
-2063.391873210217
 21
1825.437209724554
 31
0.0
  0
LWPOLYLINE
  5
305
330
1F
100
AcDbEntity
  8
0-B
  6
Continuous
 62
     7
370
     9
100
AcDbPolyline
 90
        4
 70
     1
 43
2.0
 10
-2062.391873210217
 20
2425.437209724554
 42
0.4142135623731
 10
-2063.391873210217
 20
2426.437209724554
 42
0.4142135623731
 10
-2064.391873210217
 20
2425.437209724554
 42
0.4142135623731
 10
-2063.391873210217
 20
2424.437209724554
 42
0.4142135623731
  0
LWPOLYLINE
  5
306
330
1F
100
AcDbEntity
  8
0-B
  6
Continuous
 62
     7
370
     9
100
AcDbPolyline
 90
        4
 70
     1
 43
2.0
 10
-2062.391873210217
 20
1825.437209724554
 42
0.4142135623731
 10
-2063.391873210217
 20
1826.437209724554
 42
0.4142135623731
 10
-2064.391873210217
 20
1825.437209724554
 42
0.4142135623731
 10
-2063.391873210217
 20
1824.437209724554
 42
0.4142135623731
  0
LINE
  5
307
330
1F
100
AcDbEntity
  8
0-B
  6
Continuous
 62
   120
370
     5
100
AcDbLine
 10
-2063.391873210217
 20
2425.437209724554
 30
0.0
 11
-2213.391873210217
 21
2425.437209724554
 31
0.0
  0
LINE
  5
308
330
1F
100
AcDbEntity
  8
0-B
  6
Continuous
 62
   120
370
     5
100
AcDbLine
 10
-2063.391873210217
 20
1825.437209724554
 30
0.0
 11
-2213.391873210217
 21
1825.437209724554
 31
0.0
  0
LINE
  5
309
330
1F
100
AcDbEntity
  8
0-B
  6
Continuous
 62
   120
370
     5
100
AcDbLine
 10
-2316.390896622893
 20
2265.237460847009
 30
0.0
 11
-2393.391873210217
 21
2245.437209724554
 31
0.0
  0
LINE
  5
30A
330
1F
100
AcDbEntity
  8
0-B
  6
Continuous
 62
   120
370
     5
100
AcDbLine
 10
-2316.412073395012
 20
2225.686805453348
 30
0.0
 11
-2393.391873210217
 21
2245.437209724554
 31
0.0
  0
LINE
  5
30B
330
1F
100
AcDbEntity
  8
0-0
  6
JWW_HOJO
 62
     7
370
     9
100
AcDbLine
 10
-2353.391873210217
 20
1733.804233806097
 30
0.0
 11
-2249.223908757707
 21
1733.804233806097
 31
0.0
  0
LINE
  5
30C
330
1F
100
AcDbEntity
  8
0-0
  6
JWW_HOJO
 62
     7
370
     9
100
AcDbLine
 10
-2353.391873210217
 20
1683.804233806097
 30
0.0
 11
-2249.223908757707
 21
1683.804233806097
 31
0.0
  0
LINE
  5
30D
330
1F
100
AcDbEntity
  8
0-B
  6
Continuous
 62
   120
370
     5
100
AcDbLine
 10
-2353.391873210217
 20
1683.804233806097
 30
0.0
 11
-2263.391873210217
 21
1683.804233806097
 31
0.0
  0
LWPOLYLINE
  5
30E
330
1F
100
AcDbEntity
  8
0-B
  6
Continuous
 62
     7
370
     9
100
AcDbPolyline
 90
        4
 70
     1
 43
2.0
 10
-2352.391873210217
 20
1683.804233806097
 42
0.4142135623731
 10
-2353.391873210217
 20
1684.804233806097
 42
0.4142135623731
 10
-2354.391873210217
 20
1683.804233806097
 42
0.4142135623731
 10
-2353.391873210217
 20
1682.804233806098
 42
0.4142135623731
  0
LWPOLYLINE
  5
30F
330
1F
100
AcDbEntity
  8
0-B
  6
Continuous
 62
     7
370
     9
100
AcDbPolyline
 90
        4
 70
     1
 43
2.0
 10
-2262.391873210217
 20
1683.804233806097
 42
0.4142135623731
 10
-2263.391873210217
 20
1684.804233806097
 42
0.4142135623731
 10
-2264.391873210217
 20
1683.804233806097
 42
0.4142135623731
 10
-2263.391873210217
 20
1682.804233806098
 42
0.4142135623731
  0
LINE
  5
310
330
1F
100
AcDbEntity
  8
0-B
  6
Continuous
 62
   120
370
     5
100
AcDbLine
 10
-2353.391873210217
 20
1683.804233806097
 30
0.0
 11
-2353.391873210217
 21
1733.804233806097
 31
0.0
  0
LINE
  5
311
330
1F
100
AcDbEntity
  8
0-B
  6
Continuous
 62
   120
370
     5
100
AcDbLine
 10
-2263.391873210217
 20
1683.804233806097
 30
0.0
 11
-2263.391873210217
 21
1733.804233806097
 31
0.0
  0
LINE
  5
312
330
1F
100
AcDbEntity
  8
0-B
  6
Continuous
 62
   120
370
     5
100
AcDbLine
 10
-2272.17866977462
 20
2416.65041316015
 30
0.0
 11
-2334.905467813369
 21
2353.923615121402
 31
0.0
  0
LINE
  5
313
330
1F
100
AcDbEntity
  8
0-B
  6
Continuous
 62
   120
370
     5
100
AcDbLine
 10
-2334.905467813369
 20
2353.923615121402
 30
0.0
 11
-2450.756483919144
 21
2353.923615121402
 31
0.0
  0
MTEXT
  5
314
330
1F
100
AcDbEntity
  8
0-B
  6
Continuous
 62
     7
370
     9
100
AcDbMText
 10
-2447.688894236653
 20
2354.395243267051
 30
0.0
 40
49.53
 41
65.0
 46
0.0
 71
     7
 72
     1
  1
{\fＭＳ ゴシック|b0|i0|c128|p49;3R}
 73
     1
 44
1.0
  0
MTEXT
  5
315
330
1F
100
AcDbEntity
  8
0-B
  6
Continuous
 62
     7
370
   211
100
AcDbMText
 10
-2173.391873210217
 20
2312.702209724554
 30
0.0
 40
49.53
 41
65.0
 46
0.0
 71
     7
 72
     1
  1
{\fＭＳ ゴシック|b0|i0|c128|p49;15}
 11
6.123031769111886E-17
 21
1.0
 31
0.0
 73
     1
 44
1.0
  0
MTEXT
  5
316
330
1F
100
AcDbEntity
  8
0-B
  6
Continuous
 62
     7
370
   211
100
AcDbMText
 10
-2173.391873210217
 20
2223.297209724554
 30
0.0
 40
45.72
 41
30.0
 46
0.0
 71
     7
 72
     1
  1
{\fＭＳ ゴシック|b0|i0|c128|p49;6}
 11
6.123031769111886E-17
 21
1.0
 31
0.0
 73
     1
 44
1.0
  0
MTEXT
  5
317
330
1F
100
AcDbEntity
  8
0-B
  6
Continuous
 62
     7
370
     9
100
AcDbMText
 10
-2458.391873210217
 20
2210.202209724554
 30
0.0
 40
49.53
 41
65.0
 46
0.0
 71
     7
 72
     1
  1
{\fＭＳ ゴシック|b0|i0|c128|p49;2R}
 73
     1
 44
1.0
  0
MTEXT
  5
318
330
1F
100
AcDbEntity
  8
0-B
  6
Continuous
 62
     7
370
   211
100
AcDbMText
 10
-2069.608465869665
 20
2077.702209724554
 30
0.0
 40
49.53
 41
65.0
 46
0.0
 71
     7
 72
     1
  1
{\fＭＳ ゴシック|b0|i0|c128|p49;60}
 11
6.123031769111886E-17
 21
1.0
 31
0.0
 73
     1
 44
1.0
  0
MTEXT
  5
319
330
1F
100
AcDbEntity
  8
0-B
  6
Continuous
 62
     7
370
   211
100
AcDbMText
 10
-2173.391873210217
 20
1977.702209724554
 30
0.0
 40
49.53
 41
65.0
 46
0.0
 71
     7
 72
     1
  1
{\fＭＳ ゴシック|b0|i0|c128|p49;39}
 11
6.123031769111886E-17
 21
1.0
 31
0.0
 73
     1
 44
1.0
  0
MTEXT
  5
31A
330
1F
100
AcDbEntity
  8
0-B
  6
Continuous
 62
     7
370
   211
100
AcDbMText
 10
-2323.391873210217
 20
1678.144367723141
 30
0.0
 40
45.72
 41
30.0
 46
0.0
 71
     7
 72
     1
  1
{\fＭＳ ゴシック|b0|i0|c128|p49;9}
 73
     1
 44
1.0
  0
MTEXT
  5
31B
330
1F
100
AcDbEntity
  8
1-A
  6
Continuous
 62
     7
370
     9
100
AcDbMText
 10
-3253.33397117821
 20
1510.480146727086
 30
0.0
 40
60.96
 41
160.0
 46
0.0
 71
     7
 72
     1
  1
{\fＭＳ ゴシック|b0|i0|c128|p49;Ｄ型}
 73
     1
 44
1.0
  0
MTEXT
  5
31C
330
1F
100
AcDbEntity
  8
1-A
  6
Continuous
 62
     7
370
     9
100
AcDbMText
 10
-3253.33397117821
 20
677.1467600604194
 30
0.0
 40
60.96
 41
160.0
 46
0.0
 71
     7
 72
     1
  1
{\fＭＳ ゴシック|b0|i0|c128|p49;Ｗ型}
 73
     1
 44
1.0
  0
LINE
  5
31D
330
1F
100
AcDbEntity
  8
0-4
  6
Continuous
 62
    92
370
    13
100
AcDbLine
 10
-2912.809834408985
 20
126.2470684882751
 30
0.0
 11
-2822.809834408985
 21
126.2470684882751
 31
0.0
  0
LINE
  5
31E
330
1F
100
AcDbEntity
  8
0-4
  6
Continuous
 62
    92
370
    13
100
AcDbLine
 10
-2912.809834408985
 20
366.2470684882751
 30
0.0
 11
-2912.809834408985
 21
126.2470684882751
 31
0.0
  0
LINE
  5
31F
330
1F
100
AcDbEntity
  8
0-4
  6
Continuous
 62
    92
370
    13
100
AcDbLine
 10
-2822.809834408985
 20
126.2470684882751
 30
0.0
 11
-2822.809834408985
 21
191.2470684882751
 31
0.0
  0
LINE
  5
320
330
1F
100
AcDbEntity
  8
0-4
  6
Continuous
 62
    92
370
    13
100
AcDbLine
 10
-2822.809834408985
 20
191.2470684882751
 30
0.0
 11
-2874.809834408985
 21
191.2470684882751
 31
0.0
  0
LINE
  5
321
330
1F
100
AcDbEntity
  8
0-4
  6
Continuous
 62
    92
370
    13
100
AcDbLine
 10
-2874.809834408985
 20
366.2470684882751
 30
0.0
 11
-2874.809834408985
 21
191.2470684882751
 31
0.0
  0
LINE
  5
322
330
1F
100
AcDbEntity
  8
0-4
  6
Continuous
 62
    92
370
    13
100
AcDbLine
 10
-2874.809834408985
 20
366.2470684882751
 30
0.0
 11
-2912.809834408985
 21
366.2470684882751
 31
0.0
  0
LINE
  5
323
330
1F
100
AcDbEntity
  8
0-4
  6
Continuous
 62
    92
370
    13
100
AcDbLine
 10
-2827.809834408985
 20
126.2470684882751
 30
0.0
 11
-2827.809834408985
 21
186.2470684882751
 31
0.0
  0
LINE
  5
324
330
1F
100
AcDbEntity
  8
0-4
  6
Continuous
 62
    92
370
    13
100
AcDbLine
 10
-2827.809834408985
 20
186.2470684882751
 30
0.0
 11
-2879.809834408985
 21
186.2470684882751
 31
0.0
  0
LINE
  5
325
330
1F
100
AcDbEntity
  8
0-4
  6
Continuous
 62
    92
370
    13
100
AcDbLine
 10
-2879.809834408985
 20
361.2470684882751
 30
0.0
 11
-2879.809834408985
 21
186.2470684882751
 31
0.0
  0
LINE
  5
326
330
1F
100
AcDbEntity
  8
0-4
  6
Continuous
 62
    92
370
    13
100
AcDbLine
 10
-2879.809834408985
 20
361.2470684882751
 30
0.0
 11
-2912.809834408985
 21
361.2470684882751
 31
0.0
  0
ARC
  5
327
330
1F
100
AcDbEntity
  8
0-4
  6
Continuous
 62
    92
370
    13
100
AcDbCircle
 10
-2832.809834408985
 20
526.2470684882751
 30
0.0
 40
25.0
100
AcDbArc
 50
180.0
 51
270.0
  0
ARC
  5
328
330
1F
100
AcDbEntity
  8
0-4
  6
Continuous
 62
    92
370
    13
100
AcDbCircle
 10
-2832.809834408985
 20
556.2470684882751
 30
0.0
 40
25.0
100
AcDbArc
 50
90.0
 51
180.0
  0
LINE
  5
329
330
1F
100
AcDbEntity
  8
0-4
  6
Continuous
 62
    92
370
    13
100
AcDbLine
 10
-2857.809834408985
 20
526.2470684882751
 30
0.0
 11
-2857.809834408985
 21
556.2470684882751
 31
0.0
  0
LINE
  5
32A
330
1F
100
AcDbEntity
  8
0-4
  6
Continuous
 62
    92
370
    13
100
AcDbLine
 10
-2822.809834408985
 20
726.2470684882751
 30
0.0
 11
-2912.809834408985
 21
726.2470684882751
 31
0.0
  0
LINE
  5
32B
330
1F
100
AcDbEntity
  8
0-4
  6
Continuous
 62
    92
370
    13
100
AcDbLine
 10
-2870.809834408984
 20
246.2470684882751
 30
0.0
 11
-2822.809834408985
 21
246.2470684882751
 31
0.0
  0
LINE
  5
32C
330
1F
100
AcDbEntity
  8
0-4
  6
Continuous
 62
    92
370
    13
100
AcDbLine
 10
-2870.809834408984
 20
246.2470684882751
 30
0.0
 11
-2870.809834408984
 21
386.2470684882751
 31
0.0
  0
LINE
  5
32D
330
1F
100
AcDbEntity
  8
0-4
  6
Continuous
 62
    92
370
    13
100
AcDbLine
 10
-2912.809834408985
 20
726.2470684882751
 30
0.0
 11
-2912.809834408985
 21
386.2470684882751
 31
0.0
  0
LINE
  5
32E
330
1F
100
AcDbEntity
  8
0-4
  6
Continuous
 62
    92
370
    13
100
AcDbLine
 10
-2870.809834408984
 20
386.2470684882751
 30
0.0
 11
-2912.809834408985
 21
386.2470684882751
 31
0.0
  0
LINE
  5
32F
330
1F
100
AcDbEntity
  8
0-4
  6
Continuous
 62
    92
370
    13
100
AcDbLine
 10
-2822.809834408985
 20
576.2470684882751
 30
0.0
 11
-2822.809834408985
 21
726.2470684882751
 31
0.0
  0
LINE
  5
330
330
1F
100
AcDbEntity
  8
0-4
  6
Continuous
 62
    92
370
    13
100
AcDbLine
 10
-2822.809834408985
 20
246.2470684882751
 30
0.0
 11
-2822.809834408985
 21
506.2470684882751
 31
0.0
  0
LINE
  5
331
330
1F
100
AcDbEntity
  8
0-4
  6
Continuous
 62
    92
370
    13
100
AcDbLine
 10
-2832.809834408985
 20
576.2470684882751
 30
0.0
 11
-2822.809834408985
 21
576.2470684882751
 31
0.0
  0
ARC
  5
332
330
1F
100
AcDbEntity
  8
0-4
  6
Continuous
 62
    92
370
    13
100
AcDbCircle
 10
-2832.809834408985
 20
556.2470684882751
 30
0.0
 40
20.0
100
AcDbArc
 50
90.0
 51
180.0
  0
LINE
  5
333
330
1F
100
AcDbEntity
  8
0-4
  6
Continuous
 62
    92
370
    13
100
AcDbLine
 10
-2832.809834408985
 20
506.2470684882751
 30
0.0
 11
-2822.809834408985
 21
506.2470684882751
 31
0.0
  0
LINE
  5
334
330
1F
100
AcDbEntity
  8
0-4
  6
Continuous
 62
    92
370
    13
100
AcDbLine
 10
-2852.809834408985
 20
526.2470684882751
 30
0.0
 11
-2852.809834408985
 21
556.2470684882751
 31
0.0
  0
ARC
  5
335
330
1F
100
AcDbEntity
  8
0-4
  6
Continuous
 62
    92
370
    13
100
AcDbCircle
 10
-2832.809834408985
 20
526.2470684882751
 30
0.0
 40
20.0
100
AcDbArc
 50
180.0
 51
270.0
  0
LINE
  5
336
330
1F
100
AcDbEntity
  8
0-4
  6
Continuous
 62
    92
370
    13
100
AcDbLine
 10
-2827.809834408985
 20
581.2470684882751
 30
0.0
 11
-2827.809834408985
 21
721.2470684882751
 31
0.0
  0
LINE
  5
337
330
1F
100
AcDbEntity
  8
0-4
  6
Continuous
 62
    92
370
    13
100
AcDbLine
 10
-2832.809834408985
 20
581.2470684882751
 30
0.0
 11
-2827.809834408985
 21
581.2470684882751
 31
0.0
  0
LINE
  5
338
330
1F
100
AcDbEntity
  8
0-4
  6
Continuous
 62
    92
370
    13
100
AcDbLine
 10
-2832.809834408985
 20
501.2470684882751
 30
0.0
 11
-2827.809834408985
 21
501.2470684882751
 31
0.0
  0
LINE
  5
339
330
1F
100
AcDbEntity
  8
0-4
  6
Continuous
 62
    92
370
    13
100
AcDbLine
 10
-2827.809834408985
 20
246.2470684882751
 30
0.0
 11
-2827.809834408985
 21
501.2470684882751
 31
0.0
  0
LINE
  5
33A
330
1F
100
AcDbEntity
  8
0-4
  6
Continuous
 62
    92
370
    13
100
AcDbLine
 10
-2912.809834408985
 20
676.2470684882751
 30
0.0
 11
-2907.809834408985
 21
676.2470684882751
 31
0.0
  0
LINE
  5
33B
330
1F
100
AcDbEntity
  8
0-4
  6
Continuous
 62
    92
370
    13
100
AcDbLine
 10
-2907.809834408985
 20
676.2470684882751
 30
0.0
 11
-2907.809834408985
 21
721.2470684882751
 31
0.0
  0
LINE
  5
33C
330
1F
100
AcDbEntity
  8
0-4
  6
Continuous
 62
    92
370
    13
100
AcDbLine
 10
-2827.809834408985
 20
721.2470684882751
 30
0.0
 11
-2907.809834408985
 21
721.2470684882751
 31
0.0
  0
LINE
  5
33D
330
1F
100
AcDbEntity
  8
0-0
  6
JWW_HOJO
 62
     7
370
     9
100
AcDbLine
 10
-2912.809834408985
 20
93.5628831313474
 30
0.0
 11
-2808.641869956477
 21
93.5628831313474
 31
0.0
  0
LINE
  5
33E
330
1F
100
AcDbEntity
  8
0-0
  6
JWW_HOJO
 62
     7
370
     9
100
AcDbLine
 10
-2912.809834408985
 20
43.56288313134741
 30
0.0
 11
-2808.641869956477
 21
43.56288313134741
 31
0.0
  0
LINE
  5
33F
330
1F
100
AcDbEntity
  8
0-B
  6
Continuous
 62
   120
370
     5
100
AcDbLine
 10
-2912.809834408985
 20
43.56288313134741
 30
0.0
 11
-2822.809834408985
 21
43.56288313134741
 31
0.0
  0
LWPOLYLINE
  5
340
330
1F
100
AcDbEntity
  8
0-B
  6
Continuous
 62
     7
370
     9
100
AcDbPolyline
 90
        4
 70
     1
 43
2.0
 10
-2911.809834408984
 20
43.56288313134741
 42
0.4142135623731
 10
-2912.809834408985
 20
44.56288313134741
 42
0.4142135623731
 10
-2913.809834408985
 20
43.56288313134741
 42
0.4142135623731
 10
-2912.809834408985
 20
42.56288313134741
 42
0.4142135623731
  0
LWPOLYLINE
  5
341
330
1F
100
AcDbEntity
  8
0-B
  6
Continuous
 62
     7
370
     9
100
AcDbPolyline
 90
        4
 70
     1
 43
2.0
 10
-2821.809834408984
 20
43.56288313134741
 42
0.4142135623731
 10
-2822.809834408985
 20
44.56288313134741
 42
0.4142135623731
 10
-2823.809834408985
 20
43.56288313134741
 42
0.4142135623731
 10
-2822.809834408985
 20
42.56288313134741
 42
0.4142135623731
  0
LINE
  5
342
330
1F
100
AcDbEntity
  8
0-B
  6
Continuous
 62
   120
370
     5
100
AcDbLine
 10
-2912.809834408985
 20
43.56288313134741
 30
0.0
 11
-2912.809834408985
 21
93.5628831313474
 31
0.0
  0
LINE
  5
343
330
1F
100
AcDbEntity
  8
0-B
  6
Continuous
 62
   120
370
     5
100
AcDbLine
 10
-2822.809834408985
 20
43.56288313134741
 30
0.0
 11
-2822.809834408985
 21
93.5628831313474
 31
0.0
  0
LINE
  5
344
330
1F
100
AcDbEntity
  8
0-B
  6
Continuous
 62
   120
370
     5
100
AcDbLine
 10
-2856.895480474159
 20
566.0473196107305
 30
0.0
 11
-2933.896457061483
 21
546.2470684882758
 31
0.0
  0
LINE
  5
345
330
1F
100
AcDbEntity
  8
0-B
  6
Continuous
 62
   120
370
     5
100
AcDbLine
 10
-2856.916657246278
 20
526.4966642170705
 30
0.0
 11
-2933.896457061483
 21
546.2470684882758
 31
0.0
  0
LINE
  5
346
330
1F
100
AcDbEntity
  8
0-0
  6
JWW_HOJO
 62
     7
370
     9
100
AcDbLine
 10
-2772.809834408985
 20
126.2470684882751
 30
0.0
 11
-2772.809834408985
 21
691.2465736482752
 31
0.0
  0
LINE
  5
347
330
1F
100
AcDbEntity
  8
0-0
  6
JWW_HOJO
 62
     7
370
     9
100
AcDbLine
 10
-2722.809834408985
 20
126.2470684882751
 30
0.0
 11
-2722.809834408985
 21
691.2465736482752
 31
0.0
  0
LINE
  5
348
330
1F
100
AcDbEntity
  8
0-B
  6
Continuous
 62
   120
370
     5
100
AcDbLine
 10
-2722.809834408985
 20
126.2470684882751
 30
0.0
 11
-2722.809834408985
 21
191.2470684882751
 31
0.0
  0
LWPOLYLINE
  5
349
330
1F
100
AcDbEntity
  8
0-B
  6
Continuous
 62
     7
370
     9
100
AcDbPolyline
 90
        4
 70
     1
 43
2.0
 10
-2721.809834408984
 20
126.2470684882751
 42
0.4142135623731
 10
-2722.809834408985
 20
127.2470684882751
 42
0.4142135623731
 10
-2723.809834408985
 20
126.2470684882751
 42
0.4142135623731
 10
-2722.809834408985
 20
125.2470684882751
 42
0.4142135623731
  0
LWPOLYLINE
  5
34A
330
1F
100
AcDbEntity
  8
0-B
  6
Continuous
 62
     7
370
     9
100
AcDbPolyline
 90
        4
 70
     1
 43
2.0
 10
-2721.809834408984
 20
191.2470684882751
 42
0.4142135623731
 10
-2722.809834408985
 20
192.2470684882751
 42
0.4142135623731
 10
-2723.809834408985
 20
191.2470684882751
 42
0.4142135623731
 10
-2722.809834408985
 20
190.2470684882751
 42
0.4142135623731
  0
LINE
  5
34B
330
1F
100
AcDbEntity
  8
0-B
  6
Continuous
 62
   120
370
     5
100
AcDbLine
 10
-2722.809834408985
 20
126.2470684882751
 30
0.0
 11
-2772.809834408985
 21
126.2470684882751
 31
0.0
  0
LINE
  5
34C
330
1F
100
AcDbEntity
  8
0-B
  6
Continuous
 62
   120
370
     5
100
AcDbLine
 10
-2722.809834408985
 20
191.2470684882751
 30
0.0
 11
-2772.809834408985
 21
191.2470684882751
 31
0.0
  0
LINE
  5
34D
330
1F
100
AcDbEntity
  8
0-B
  6
Continuous
 62
   120
370
     5
100
AcDbLine
 10
-2722.809834408985
 20
191.2470684882751
 30
0.0
 11
-2722.809834408985
 21
246.2470684882751
 31
0.0
  0
LWPOLYLINE
  5
34E
330
1F
100
AcDbEntity
  8
0-B
  6
Continuous
 62
     7
370
     9
100
AcDbPolyline
 90
        4
 70
     1
 43
2.0
 10
-2721.809834408984
 20
246.2470684882751
 42
0.4142135623731
 10
-2722.809834408985
 20
247.2470684882751
 42
0.4142135623731
 10
-2723.809834408985
 20
246.2470684882751
 42
0.4142135623731
 10
-2722.809834408985
 20
245.2470684882751
 42
0.4142135623731
  0
LINE
  5
34F
330
1F
100
AcDbEntity
  8
0-B
  6
Continuous
 62
   120
370
     5
100
AcDbLine
 10
-2722.809834408985
 20
246.2470684882751
 30
0.0
 11
-2772.809834408985
 21
246.2470684882751
 31
0.0
  0
LINE
  5
350
330
1F
100
AcDbEntity
  8
0-B
  6
Continuous
 62
   120
370
     5
100
AcDbLine
 10
-2722.809834408985
 20
246.2470684882751
 30
0.0
 11
-2722.809834408985
 21
506.2470684882751
 31
0.0
  0
LWPOLYLINE
  5
351
330
1F
100
AcDbEntity
  8
0-B
  6
Continuous
 62
     7
370
     9
100
AcDbPolyline
 90
        4
 70
     1
 43
2.0
 10
-2721.809834408984
 20
506.2470684882751
 42
0.4142135623731
 10
-2722.809834408985
 20
507.2470684882751
 42
0.4142135623731
 10
-2723.809834408985
 20
506.2470684882751
 42
0.4142135623731
 10
-2722.809834408985
 20
505.2470684882751
 42
0.4142135623731
  0
LINE
  5
352
330
1F
100
AcDbEntity
  8
0-B
  6
Continuous
 62
   120
370
     5
100
AcDbLine
 10
-2722.809834408985
 20
506.2470684882751
 30
0.0
 11
-2772.809834408985
 21
506.2470684882751
 31
0.0
  0
LINE
  5
353
330
1F
100
AcDbEntity
  8
0-B
  6
Continuous
 62
   120
370
     5
100
AcDbLine
 10
-2722.809834408985
 20
506.2470684882751
 30
0.0
 11
-2722.809834408985
 21
576.2470684882751
 31
0.0
  0
LWPOLYLINE
  5
354
330
1F
100
AcDbEntity
  8
0-B
  6
Continuous
 62
     7
370
     9
100
AcDbPolyline
 90
        4
 70
     1
 43
2.0
 10
-2721.809834408984
 20
576.2470684882751
 42
0.4142135623731
 10
-2722.809834408985
 20
577.2470684882752
 42
0.4142135623731
 10
-2723.809834408985
 20
576.2470684882751
 42
0.4142135623731
 10
-2722.809834408985
 20
575.2470684882751
 42
0.4142135623731
  0
LINE
  5
355
330
1F
100
AcDbEntity
  8
0-B
  6
Continuous
 62
   120
370
     5
100
AcDbLine
 10
-2722.809834408985
 20
576.2470684882751
 30
0.0
 11
-2772.809834408985
 21
576.2470684882751
 31
0.0
  0
LINE
  5
356
330
1F
100
AcDbEntity
  8
0-B
  6
Continuous
 62
   120
370
     5
100
AcDbLine
 10
-2722.809834408985
 20
576.2470684882751
 30
0.0
 11
-2722.809834408985
 21
726.2470684882751
 31
0.0
  0
LWPOLYLINE
  5
357
330
1F
100
AcDbEntity
  8
0-B
  6
Continuous
 62
     7
370
     9
100
AcDbPolyline
 90
        4
 70
     1
 43
2.0
 10
-2721.809834408984
 20
726.2470684882751
 42
0.4142135623731
 10
-2722.809834408985
 20
727.2470684882751
 42
0.4142135623731
 10
-2723.809834408985
 20
726.2470684882751
 42
0.4142135623731
 10
-2722.809834408985
 20
725.2470684882752
 42
0.4142135623731
  0
LINE
  5
358
330
1F
100
AcDbEntity
  8
0-B
  6
Continuous
 62
   120
370
     5
100
AcDbLine
 10
-2722.809834408985
 20
726.2470684882751
 30
0.0
 11
-2772.809834408985
 21
726.2470684882751
 31
0.0
  0
LINE
  5
359
330
1F
100
AcDbEntity
  8
0-0
  6
JWW_HOJO
 62
     7
370
     9
100
AcDbLine
 10
-3012.809834408985
 20
126.2470684882751
 30
0.0
 11
-3012.809834408985
 21
691.2465736482752
 31
0.0
  0
LINE
  5
35A
330
1F
100
AcDbEntity
  8
0-0
  6
JWW_HOJO
 62
     7
370
     9
100
AcDbLine
 10
-2962.809834408985
 20
126.2470684882751
 30
0.0
 11
-2962.809834408985
 21
691.2465736482752
 31
0.0
  0
LINE
  5
35B
330
1F
100
AcDbEntity
  8
0-B
  6
Continuous
 62
   120
370
     5
100
AcDbLine
 10
-3012.809834408985
 20
126.2470684882751
 30
0.0
 11
-3012.809834408985
 21
366.2470684882751
 31
0.0
  0
LWPOLYLINE
  5
35C
330
1F
100
AcDbEntity
  8
0-B
  6
Continuous
 62
     7
370
     9
100
AcDbPolyline
 90
        4
 70
     1
 43
2.0
 10
-3011.809834408984
 20
126.2470684882751
 42
0.4142135623731
 10
-3012.809834408985
 20
127.2470684882751
 42
0.4142135623731
 10
-3013.809834408985
 20
126.2470684882751
 42
0.4142135623731
 10
-3012.809834408985
 20
125.2470684882751
 42
0.4142135623731
  0
LWPOLYLINE
  5
35D
330
1F
100
AcDbEntity
  8
0-B
  6
Continuous
 62
     7
370
     9
100
AcDbPolyline
 90
        4
 70
     1
 43
2.0
 10
-3011.809834408984
 20
366.2470684882751
 42
0.4142135623731
 10
-3012.809834408985
 20
367.2470684882751
 42
0.4142135623731
 10
-3013.809834408985
 20
366.2470684882751
 42
0.4142135623731
 10
-3012.809834408985
 20
365.2470684882751
 42
0.4142135623731
  0
LINE
  5
35E
330
1F
100
AcDbEntity
  8
0-B
  6
Continuous
 62
   120
370
     5
100
AcDbLine
 10
-3012.809834408985
 20
126.2470684882751
 30
0.0
 11
-2962.809834408985
 21
126.2470684882751
 31
0.0
  0
LINE
  5
35F
330
1F
100
AcDbEntity
  8
0-B
  6
Continuous
 62
   120
370
     5
100
AcDbLine
 10
-3012.809834408985
 20
366.2470684882751
 30
0.0
 11
-2962.809834408985
 21
366.2470684882751
 31
0.0
  0
LINE
  5
360
330
1F
100
AcDbEntity
  8
0-B
  6
Continuous
 62
   120
370
     5
100
AcDbLine
 10
-3012.809834408985
 20
366.2470684882751
 30
0.0
 11
-3012.809834408985
 21
386.2470684882751
 31
0.0
  0
LWPOLYLINE
  5
361
330
1F
100
AcDbEntity
  8
0-B
  6
Continuous
 62
     7
370
     9
100
AcDbPolyline
 90
        4
 70
     1
 43
2.0
 10
-3011.809834408984
 20
386.2470684882751
 42
0.4142135623731
 10
-3012.809834408985
 20
387.2470684882751
 42
0.4142135623731
 10
-3013.809834408985
 20
386.2470684882751
 42
0.4142135623731
 10
-3012.809834408985
 20
385.2470684882751
 42
0.4142135623731
  0
LINE
  5
362
330
1F
100
AcDbEntity
  8
0-B
  6
Continuous
 62
   120
370
     5
100
AcDbLine
 10
-3012.809834408985
 20
386.2470684882751
 30
0.0
 11
-2962.809834408985
 21
386.2470684882751
 31
0.0
  0
LINE
  5
363
330
1F
100
AcDbEntity
  8
0-B
  6
Continuous
 62
   120
370
     5
100
AcDbLine
 10
-3012.809834408985
 20
386.2470684882751
 30
0.0
 11
-3012.809834408985
 21
726.2470684882751
 31
0.0
  0
LWPOLYLINE
  5
364
330
1F
100
AcDbEntity
  8
0-B
  6
Continuous
 62
     7
370
     9
100
AcDbPolyline
 90
        4
 70
     1
 43
2.0
 10
-3011.809834408984
 20
726.2470684882751
 42
0.4142135623731
 10
-3012.809834408985
 20
727.2470684882751
 42
0.4142135623731
 10
-3013.809834408985
 20
726.2470684882751
 42
0.4142135623731
 10
-3012.809834408985
 20
725.2470684882752
 42
0.4142135623731
  0
LINE
  5
365
330
1F
100
AcDbEntity
  8
0-B
  6
Continuous
 62
   120
370
     5
100
AcDbLine
 10
-3012.809834408985
 20
726.2470684882751
 30
0.0
 11
-2962.809834408985
 21
726.2470684882751
 31
0.0
  0
LINE
  5
366
330
1F
100
AcDbEntity
  8
0-B
  6
Continuous
 62
   120
370
     5
100
AcDbLine
 10
-2622.809834408985
 20
726.2470684882751
 30
0.0
 11
-2622.809834408985
 21
126.2470684882751
 31
0.0
  0
LWPOLYLINE
  5
367
330
1F
100
AcDbEntity
  8
0-B
  6
Continuous
 62
     7
370
     9
100
AcDbPolyline
 90
        4
 70
     1
 43
2.0
 10
-2621.809834408984
 20
726.2470684882751
 42
0.4142135623731
 10
-2622.809834408985
 20
727.2470684882751
 42
0.4142135623731
 10
-2623.809834408985
 20
726.2470684882751
 42
0.4142135623731
 10
-2622.809834408985
 20
725.2470684882752
 42
0.4142135623731
  0
LWPOLYLINE
  5
368
330
1F
100
AcDbEntity
  8
0-B
  6
Continuous
 62
     7
370
     9
100
AcDbPolyline
 90
        4
 70
     1
 43
2.0
 10
-2621.809834408984
 20
126.2470684882751
 42
0.4142135623731
 10
-2622.809834408985
 20
127.2470684882751
 42
0.4142135623731
 10
-2623.809834408985
 20
126.2470684882751
 42
0.4142135623731
 10
-2622.809834408985
 20
125.2470684882751
 42
0.4142135623731
  0
LINE
  5
369
330
1F
100
AcDbEntity
  8
0-B
  6
Continuous
 62
   120
370
     5
100
AcDbLine
 10
-2622.809834408985
 20
726.2470684882751
 30
0.0
 11
-2722.809834408985
 21
726.2470684882751
 31
0.0
  0
LINE
  5
36A
330
1F
100
AcDbEntity
  8
0-B
  6
Continuous
 62
   120
370
     5
100
AcDbLine
 10
-2622.809834408985
 20
126.2470684882751
 30
0.0
 11
-2722.809834408985
 21
126.2470684882751
 31
0.0
  0
MTEXT
  5
36B
330
1F
100
AcDbEntity
  8
0-B
  6
Continuous
 62
     7
370
   211
100
AcDbMText
 10
-2732.809834408985
 20
613.5120684882751
 30
0.0
 40
49.53
 41
65.0
 46
0.0
 71
     7
 72
     1
  1
{\fＭＳ ゴシック|b0|i0|c128|p49;15}
 11
6.123031769111886E-17
 21
1.0
 31
0.0
 73
     1
 44
1.0
  0
MTEXT
  5
36C
330
1F
100
AcDbEntity
  8
0-B
  6
Continuous
 62
     7
370
   211
100
AcDbMText
 10
-2732.809834408985
 20
519.1070684882751
 30
0.0
 40
45.72
 41
30.0
 46
0.0
 71
     7
 72
     1
  1
{\fＭＳ ゴシック|b0|i0|c128|p49;7}
 11
6.123031769111886E-17
 21
1.0
 31
0.0
 73
     1
 44
1.0
  0
LINE
  5
36D
330
1F
100
AcDbEntity
  8
3-B
  6
Continuous
 62
   120
370
     5
100
AcDbLine
 10
-2104.8495258328
 20
529.4947228663975
 30
0.0
 11
-2039.802895643773
 21
594.541353055424
 31
0.0
  0
LWPOLYLINE
  5
36E
330
1F
100
AcDbEntity
  8
3-B
  6
Continuous
 62
     7
370
     9
100
AcDbPolyline
 90
        4
 70
     1
 43
2.0
 10
-2080.849525832799
 20
529.4947228663975
 42
0.4142135623731
 10
-2081.849525832799
 20
530.4947228663975
 42
0.4142135623731
 10
-2082.849525832799
 20
529.4947228663975
 42
0.4142135623731
 10
-2081.849525832799
 20
528.4947228663974
 42
0.4142135623731
  0
LWPOLYLINE
  5
36F
330
1F
100
AcDbEntity
  8
3-B
  6
Continuous
 62
     7
370
     9
100
AcDbPolyline
 90
        4
 70
     1
 43
2.0
 10
-2184.849525832799
 20
529.4947228663975
 42
0.4142135623731
 10
-2185.849525832799
 20
530.4947228663975
 42
0.4142135623731
 10
-2186.849525832799
 20
529.4947228663975
 42
0.4142135623731
 10
-2185.849525832799
 20
528.4947228663974
 42
0.4142135623731
  0
LINE
  5
370
330
1F
100
AcDbEntity
  8
3-B
  6
Continuous
 62
   120
370
     5
100
AcDbLine
 10
-2081.849525832799
 20
529.4947228663975
 30
0.0
 11
-2185.849525832799
 21
529.4947228663975
 31
0.0
  0
LINE
  5
371
330
1F
100
AcDbEntity
  8
3-B
  6
Continuous
 62
   120
370
     5
100
AcDbLine
 10
-2185.849525832799
 20
479.9238036560197
 30
0.0
 11
-2185.849525832799
 21
529.4947228663975
 31
0.0
  0
LINE
  5
372
330
1F
100
AcDbEntity
  8
3-B
  6
Continuous
 62
   120
370
     5
100
AcDbLine
 10
-2081.849525832799
 20
479.9238036560197
 30
0.0
 11
-2081.849525832799
 21
529.4947228663975
 31
0.0
  0
LWPOLYLINE
  5
373
330
1F
100
AcDbEntity
  8
3-B
  6
Continuous
 62
     7
370
     9
100
AcDbPolyline
 90
        4
 70
     1
 43
2.0
 10
-2260.849525832799
 20
529.4947228663975
 42
0.4142135623731
 10
-2261.849525832799
 20
530.4947228663975
 42
0.4142135623731
 10
-2262.849525832799
 20
529.4947228663975
 42
0.4142135623731
 10
-2261.849525832799
 20
528.4947228663974
 42
0.4142135623731
  0
LINE
  5
374
330
1F
100
AcDbEntity
  8
3-B
  6
Continuous
 62
   120
370
     5
100
AcDbLine
 10
-2261.849525832799
 20
529.4947228663975
 30
0.0
 11
-2185.849525832799
 21
529.4947228663975
 31
0.0
  0
LINE
  5
375
330
1F
100
AcDbEntity
  8
3-B
  6
Continuous
 62
   120
370
     5
100
AcDbLine
 10
-2261.849525832799
 20
479.9238036560197
 30
0.0
 11
-2261.849525832799
 21
529.4947228663975
 31
0.0
  0
LINE
  5
376
330
1F
100
AcDbEntity
  8
3-B
  6
Continuous
 62
   120
370
     5
100
AcDbLine
 10
-2261.849525832799
 20
529.4947228663975
 30
0.0
 11
-2326.896156021825
 21
594.541353055424
 31
0.0
  0
LINE
  5
377
330
1F
100
AcDbEntity
  8
3-B
  6
Continuous
 62
   120
370
     5
100
AcDbLine
 10
-2039.802895643773
 20
594.541353055424
 30
0.0
 11
-1939.802895643773
 21
594.541353055424
 31
0.0
  0
LINE
  5
378
330
1F
100
AcDbEntity
  8
3-B
  6
Continuous
 62
   120
370
     5
100
AcDbLine
 10
-2326.896156021825
 20
594.541353055424
 30
0.0
 11
-2426.896156021825
 21
594.541353055424
 31
0.0
  0
CIRCLE
  5
379
330
1F
100
AcDbEntity
  8
3-A
  6
Continuous
 62
     7
370
     9
100
AcDbCircle
 10
-2111.849525832799
 20
305.7537662868046
 30
0.0
 40
280.0
  0
LWPOLYLINE
  5
37A
330
1F
100
AcDbEntity
  8
3-B
  6
Continuous
 62
     7
370
     9
100
AcDbPolyline
 90
        4
 70
     1
 43
2.0
 10
-2000.849525832799
 20
529.4947228663975
 42
0.4142135623731
 10
-2001.849525832799
 20
530.4947228663975
 42
0.4142135623731
 10
-2002.849525832799
 20
529.4947228663975
 42
0.4142135623731
 10
-2001.849525832799
 20
528.4947228663974
 42
0.4142135623731
  0
LINE
  5
37B
330
1F
100
AcDbEntity
  8
3-0
  6
JWW_HOJO
 62
     7
370
     9
100
AcDbLine
 10
-2001.849525832799
 20
83.49472286639781
 30
0.0
 11
-2001.849525832799
 21
529.4947228663975
 31
0.0
  0
LINE
  5
37C
330
1F
100
AcDbEntity
  8
3-B
  6
Continuous
 62
   120
370
     5
100
AcDbLine
 10
-2001.849525832799
 20
529.4947228663975
 30
0.0
 11
-2023.172161601634
 21
529.4947228663975
 31
0.0
  0
LINE
  5
37D
330
1F
100
AcDbEntity
  8
3-0
  6
JWW_HOJO
 62
     7
370
     9
100
AcDbLine
 10
-2261.849525832799
 20
529.4947228663975
 30
0.0
 11
-1820.724356489088
 21
529.4947228663975
 31
0.0
  0
LINE
  5
37E
330
1F
100
AcDbEntity
  8
3-4
  6
Continuous
 62
    92
370
    13
100
AcDbLine
 10
-2081.849525832799
 20
49.49472286639747
 30
0.0
 11
-2081.849525832799
 21
179.4947228663975
 31
0.0
  0
LINE
  5
37F
330
1F
100
AcDbEntity
  8
3-4
  6
Continuous
 62
    92
370
    13
100
AcDbLine
 10
-2081.849525832799
 20
179.4947228663975
 30
0.0
 11
-2185.849525832799
 21
179.4947228663975
 31
0.0
  0
LINE
  5
380
330
1F
100
AcDbEntity
  8
3-4
  6
Continuous
 62
    92
370
    13
100
AcDbLine
 10
-2185.849525832799
 20
529.4947228663975
 30
0.0
 11
-2185.849525832799
 21
179.4947228663975
 31
0.0
  0
LINE
  5
381
330
1F
100
AcDbEntity
  8
3-4
  6
Continuous
 62
    92
370
    13
100
AcDbLine
 10
-2185.849525832799
 20
529.4947228663975
 30
0.0
 11
-2261.849525832799
 21
529.4947228663975
 31
0.0
  0
LINE
  5
382
330
1F
100
AcDbEntity
  8
3-4
  6
Continuous
 62
    92
370
    13
100
AcDbLine
 10
-2091.849525832799
 20
49.49472286639747
 30
0.0
 11
-2091.849525832799
 21
169.4947228663975
 31
0.0
  0
LINE
  5
383
330
1F
100
AcDbEntity
  8
3-4
  6
Continuous
 62
    92
370
    13
100
AcDbLine
 10
-2091.849525832799
 20
169.4947228663975
 30
0.0
 11
-2195.849525832799
 21
169.4947228663975
 31
0.0
  0
LINE
  5
384
330
1F
100
AcDbEntity
  8
3-4
  6
Continuous
 62
    92
370
    13
100
AcDbLine
 10
-2195.849525832799
 20
519.4947228663975
 30
0.0
 11
-2195.849525832799
 21
169.4947228663975
 31
0.0
  0
LINE
  5
385
330
1F
100
AcDbEntity
  8
3-4
  6
Continuous
 62
    92
370
    13
100
AcDbLine
 10
-2195.849525832799
 20
519.4947228663975
 30
0.0
 11
-2261.849525832799
 21
519.4947228663975
 31
0.0
  0
LINE
  5
386
330
1F
100
AcDbEntity
  8
3-4
  6
Continuous
 62
    92
370
    13
100
AcDbLine
 10
-2224.682600173871
 20
49.49472286639747
 30
0.0
 11
-2081.849525832799
 21
49.49472286639747
 31
0.0
  0
LINE
  5
387
330
1F
100
AcDbEntity
  8
3-4
  6
Continuous
 62
    92
370
    13
100
AcDbLine
 10
-2261.849525832799
 20
529.4947228663975
 30
0.0
 11
-2261.849525832799
 21
69.32195793606724
 31
0.0
  0
LINE
  5
388
330
1F
100
AcDbEntity
  8
3-B
  6
Continuous
 62
   120
370
     5
100
AcDbLine
 10
-2001.849525832799
 20
529.4947228663975
 30
0.0
 11
-2001.849525832799
 21
49.49472286639747
 31
0.0
  0
LWPOLYLINE
  5
389
330
1F
100
AcDbEntity
  8
3-B
  6
Continuous
 62
     7
370
     9
100
AcDbPolyline
 90
        4
 70
     1
 43
2.0
 10
-2000.849525832799
 20
49.49472286639747
 42
0.4142135623731
 10
-2001.849525832799
 20
50.49472286639747
 42
0.4142135623731
 10
-2002.849525832799
 20
49.49472286639747
 42
0.4142135623731
 10
-2001.849525832799
 20
48.49472286639747
 42
0.4142135623731
  0
LINE
  5
38A
330
1F
100
AcDbEntity
  8
3-B
  6
Continuous
 62
   120
370
     5
100
AcDbLine
 10
-2001.849525832799
 20
49.49472286639747
 30
0.0
 11
-2061.849525832799
 21
49.49472286639747
 31
0.0
  0
LINE
  5
38B
330
1F
100
AcDbEntity
  8
3-0
  6
JWW_HOJO
 62
     7
370
     9
100
AcDbLine
 10
-2081.849525832799
 20
49.49472286639747
 30
0.0
 11
-2081.849525832799
 21
623.6522468688397
 31
0.0
  0
LWPOLYLINE
  5
38C
330
1F
100
AcDbEntity
  8
3-B
  6
Continuous
 62
     7
370
     9
100
AcDbPolyline
 90
        4
 70
     1
 43
2.0
 10
-2000.849525832799
 20
179.4947228663975
 42
0.4142135623731
 10
-2001.849525832799
 20
180.4947228663975
 42
0.4142135623731
 10
-2002.849525832799
 20
179.4947228663975
 42
0.4142135623731
 10
-2001.849525832799
 20
178.4947228663975
 42
0.4142135623731
  0
LINE
  5
38D
330
1F
100
AcDbEntity
  8
3-B
  6
Continuous
 62
   120
370
     5
100
AcDbLine
 10
-2001.849525832799
 20
179.4947228663975
 30
0.0
 11
-2061.849525832799
 21
179.4947228663975
 31
0.0
  0
MTEXT
  5
38E
330
1F
100
AcDbEntity
  8
0-B
  6
Continuous
 62
     7
370
   211
100
AcDbMText
 10
-3022.809834408985
 20
518.5120684882751
 30
0.0
 40
49.53
 41
65.0
 46
0.0
 71
     7
 72
     1
  1
{\fＭＳ ゴシック|b0|i0|c128|p49;34}
 11
6.123031769111886E-17
 21
1.0
 31
0.0
 73
     1
 44
1.0
  0
MTEXT
  5
38F
330
1F
100
AcDbEntity
  8
0-B
  6
Continuous
 62
     7
370
     9
100
AcDbMText
 10
-2998.896457061483
 20
511.0120684882758
 30
0.0
 40
49.53
 41
65.0
 46
0.0
 71
     7
 72
     1
  1
{\fＭＳ ゴシック|b0|i0|c128|p49;2R}
 73
     1
 44
1.0
  0
MTEXT
  5
390
330
1F
100
AcDbEntity
  8
0-B
  6
Continuous
 62
     7
370
   211
100
AcDbMText
 10
-2632.809834408985
 20
388.5120684882751
 30
0.0
 40
49.53
 41
65.0
 46
0.0
 71
     7
 72
     1
  1
{\fＭＳ ゴシック|b0|i0|c128|p49;60}
 11
6.123031769111886E-17
 21
1.0
 31
0.0
 73
     1
 44
1.0
  0
MTEXT
  5
391
330
1F
100
AcDbEntity
  8
0-B
  6
Continuous
 62
     7
370
   211
100
AcDbMText
 10
-3022.809834408985
 20
354.1070684882752
 30
0.0
 40
45.72
 41
30.0
 46
0.0
 71
     7
 72
     1
  1
{\fＭＳ ゴシック|b0|i0|c128|p49;2}
 11
6.123031769111886E-17
 21
1.0
 31
0.0
 73
     1
 44
1.0
  0
MTEXT
  5
392
330
1F
100
AcDbEntity
  8
0-B
  6
Continuous
 62
     7
370
   211
100
AcDbMText
 10
-2732.809834408985
 20
338.5120684882751
 30
0.0
 40
49.53
 41
65.0
 46
0.0
 71
     7
 72
     1
  1
{\fＭＳ ゴシック|b0|i0|c128|p49;26}
 11
6.123031769111886E-17
 21
1.0
 31
0.0
 73
     1
 44
1.0
  0
MTEXT
  5
393
330
1F
100
AcDbEntity
  8
0-B
  6
Continuous
 62
     7
370
   211
100
AcDbMText
 10
-3022.809834408985
 20
208.5120684882751
 30
0.0
 40
49.53
 41
65.0
 46
0.0
 71
     7
 72
     1
  1
{\fＭＳ ゴシック|b0|i0|c128|p49;24}
 11
6.123031769111886E-17
 21
1.0
 31
0.0
 73
     1
 44
1.0
  0
MTEXT
  5
394
330
1F
100
AcDbEntity
  8
0-B
  6
Continuous
 62
     7
370
   211
100
AcDbMText
 10
-2732.809834408985
 20
172.7570684882751
 30
0.0
 40
33.02
 41
65.0
 46
0.0
 71
     7
 72
     1
  1
{\fＭＳ ゴシック|b0|i0|c128|p49;5.5}
 11
6.123031769111886E-17
 21
1.0
 31
0.0
 73
     1
 44
1.0
  0
MTEXT
  5
395
330
1F
100
AcDbEntity
  8
0-B
  6
Continuous
 62
     7
370
   211
100
AcDbMText
 10
-2732.809834408985
 20
41.75396567517016
 30
0.0
 40
33.02
 41
65.0
 46
0.0
 71
     7
 72
     1
  1
{\fＭＳ ゴシック|b0|i0|c128|p49;6.5}
 11
6.123031769111886E-17
 21
1.0
 31
0.0
 73
     1
 44
1.0
  0
MTEXT
  5
396
330
1F
100
AcDbEntity
  8
0-B
  6
Continuous
 62
     7
370
   211
100
AcDbMText
 10
-2882.809834408985
 20
41.04923891437493
 30
0.0
 40
45.72
 41
30.0
 46
0.0
 71
     7
 72
     1
  1
{\fＭＳ ゴシック|b0|i0|c128|p49;9}
 73
     1
 44
1.0
  0
MTEXT
  5
397
330
1F
100
AcDbEntity
  8
3-A
  6
Continuous
 62
     7
370
     9
100
AcDbMText
 10
-2316.849525832799
 20
661.4712662868046
 30
0.0
 40
51.435
 41
270.0
 46
0.0
 71
     7
 72
     1
  1
{\fＭＳ ゴシック|b0|i0|c128|p49;下部部材}
 73
     1
 44
1.0
  0
MTEXT
  5
398
330
1F
100
AcDbEntity
  8
3-A
  6
Continuous
 62
     7
370
     9
100
AcDbMText
 10
-2316.849525832799
 20
601.1537662868046
 30
0.0
 40
50.8
 41
200.0
 46
0.0
 71
     7
 72
     1
  1
{\fＭＳ ゴシック|b0|i0|c128|p49;拡大図}
 73
     1
 44
1.0
  0
MTEXT
  5
399
330
1F
100
AcDbEntity
  8
3-B
  6
Continuous
 62
     7
370
   211
100
AcDbMText
 10
-2426.896156021825
 20
587.0618281289529
 30
0.0
 40
50.8
 41
100.0
 46
0.0
 71
     7
 72
     1
  1
{\fＭＳ ゴシック|b0|i0|c128|p49;3.8}
 73
     1
 44
1.0
  0
MTEXT
  5
39A
330
1F
100
AcDbEntity
  8
3-B
  6
Continuous
 62
     7
370
   211
100
AcDbMText
 10
-2039.802895643773
 20
587.0618281289529
 30
0.0
 40
50.8
 41
100.0
 46
0.0
 71
     7
 72
     1
  1
{\fＭＳ ゴシック|b0|i0|c128|p49;5.2}
 73
     1
 44
1.0
  0
MTEXT
  5
39B
330
1F
100
AcDbEntity
  8
3-B
  6
Continuous
 62
     7
370
   211
100
AcDbMText
 10
-2011.849525832799
 20
282.7122228663974
 30
0.0
 40
51.435
 41
135.0
 46
0.0
 71
     7
 72
     1
  1
{\fＭＳ ゴシック|b0|i0|c128|p49;17.5}
 11
6.123031769111886E-17
 21
1.0
 31
0.0
 73
     1
 44
1.0
  0
MTEXT
  5
39C
330
1F
100
AcDbEntity
  8
3-B
  6
Continuous
 62
     7
370
   211
100
AcDbMText
 10
-2011.849525832799
 20
59.89472286639747
 30
0.0
 40
50.8
 41
100.0
 46
0.0
 71
     7
 72
     1
  1
{\fＭＳ ゴシック|b0|i0|c128|p49;6.5}
 11
6.123031769111886E-17
 21
1.0
 31
0.0
 73
     1
 44
1.0
  0
LWPOLYLINE
  5
39D
330
1F
100
AcDbEntity
  8
0-B
  6
Continuous
 62
     7
370
     9
100
AcDbPolyline
 90
        4
 70
     1
 43
2.0
 10
-2257.381512954062
 20
1345.165992680469
 42
0.4142135623731
 10
-2258.381512954062
 20
1346.165992680469
 42
0.4142135623731
 10
-2259.381512954062
 20
1345.165992680469
 42
0.4142135623731
 10
-2258.381512954062
 20
1344.165992680469
 42
0.4142135623731
  0
LINE
  5
39E
330
1F
100
AcDbEntity
  8
0-B
  6
Continuous
 62
   120
370
     5
100
AcDbLine
 10
-2258.381512954062
 20
1345.165992680469
 30
0.0
 11
-2308.381512954062
 21
1345.165992680469
 31
0.0
  0
LWPOLYLINE
  5
39F
330
1F
100
AcDbEntity
  8
0-B
  6
Continuous
 62
     7
370
     9
100
AcDbPolyline
 90
        4
 70
     1
 43
2.0
 10
-2257.381512954062
 20
955.1659926804684
 42
0.4142135623731
 10
-2258.381512954062
 20
956.1659926804684
 42
0.4142135623731
 10
-2259.381512954062
 20
955.1659926804684
 42
0.4142135623731
 10
-2258.381512954062
 20
954.1659926804685
 42
0.4142135623731
  0
LINE
  5
3A0
330
1F
100
AcDbEntity
  8
0-4
  6
Continuous
 62
    92
370
    13
100
AcDbLine
 10
-2413.381512954062
 20
1005.165992680468
 30
0.0
 11
-2393.381512954062
 21
1005.165992680468
 31
0.0
  0
LINE
  5
3A1
330
1F
100
AcDbEntity
  8
0-4
  6
Continuous
 62
    92
370
    13
100
AcDbLine
 10
-2413.381512954062
 20
1005.165992680468
 30
0.0
 11
-2413.381512954062
 21
955.1659926804684
 31
0.0
  0
LINE
  5
3A2
330
1F
100
AcDbEntity
  8
0-4
  6
Continuous
 62
    92
370
    13
100
AcDbLine
 10
-2448.381512954062
 20
955.1659926804684
 30
0.0
 11
-2413.381512954062
 21
955.1659926804684
 31
0.0
  0
LINE
  5
3A3
330
1F
100
AcDbEntity
  8
0-4
  6
Continuous
 62
    92
370
    13
100
AcDbLine
 10
-2393.381512954062
 20
1005.165992680468
 30
0.0
 11
-2393.381512954062
 21
955.1659926804684
 31
0.0
  0
LINE
  5
3A4
330
1F
100
AcDbEntity
  8
0-4
  6
Continuous
 62
    92
370
    13
100
AcDbLine
 10
-2358.381512954062
 20
955.1659926804684
 30
0.0
 11
-2393.381512954062
 21
955.1659926804684
 31
0.0
  0
LINE
  5
3A5
330
1F
100
AcDbEntity
  8
0-0
  6
JWW_HOJO
 62
     7
370
     9
100
AcDbLine
 10
-2372.523648577793
 20
1555.165992680469
 30
0.0
 11
-2548.381512954062
 21
1555.165992680469
 31
0.0
  0
LWPOLYLINE
  5
3A6
330
1F
100
AcDbEntity
  8
0-B
  6
Continuous
 62
     7
370
     9
100
AcDbPolyline
 90
        4
 70
     1
 43
2.0
 10
-2257.381512954062
 20
1555.165992680469
 42
0.4142135623731
 10
-2258.381512954062
 20
1556.165992680469
 42
0.4142135623731
 10
-2259.381512954062
 20
1555.165992680469
 42
0.4142135623731
 10
-2258.381512954062
 20
1554.165992680469
 42
0.4142135623731
  0
LWPOLYLINE
  5
3A7
330
1F
100
AcDbEntity
  8
0-B
  6
Continuous
 62
     7
370
     9
100
AcDbPolyline
 90
        4
 70
     1
 43
2.0
 10
-2257.381512954062
 20
1405.165992680469
 42
0.4142135623731
 10
-2258.381512954062
 20
1406.165992680469
 42
0.4142135623731
 10
-2259.381512954062
 20
1405.165992680469
 42
0.4142135623731
 10
-2258.381512954062
 20
1404.165992680469
 42
0.4142135623731
  0
LINE
  5
3A8
330
1F
100
AcDbEntity
  8
0-B
  6
Continuous
 62
   120
370
     5
100
AcDbLine
 10
-2258.381512954062
 20
1405.165992680469
 30
0.0
 11
-2308.381512954062
 21
1405.165992680469
 31
0.0
  0
LINE
  5
3A9
330
1F
100
AcDbEntity
  8
0-B
  6
Continuous
 62
   120
370
     5
100
AcDbLine
 10
-2258.381512954062
 20
1555.165992680469
 30
0.0
 11
-2258.381512954062
 21
955.1659926804684
 31
0.0
  0
LINE
  5
3AA
330
1F
100
AcDbEntity
  8
0-4
  6
Continuous
 62
    92
370
    13
100
AcDbLine
 10
-2388.381512954062
 20
1555.165992680469
 30
0.0
 11
-2448.381512954062
 21
1555.165992680469
 31
0.0
  0
ARC
  5
3AB
330
1F
100
AcDbEntity
  8
0-4
  6
Continuous
 62
    92
370
    13
100
AcDbCircle
 10
-2388.381512954062
 20
1525.165992680469
 30
0.0
 40
30.0
100
AcDbArc
 50
0.0
 51
90.00000000000001
  0
ARC
  5
3AC
330
1F
100
AcDbEntity
  8
0-4
  6
Continuous
 62
    92
370
    13
100
AcDbCircle
 10
-2388.381512954062
 20
1525.165992680469
 30
0.0
 40
25.0
100
AcDbArc
 50
0.0
 51
90.00000000000001
  0
LINE
  5
3AD
330
1F
100
AcDbEntity
  8
0-0
  6
JWW_HOJO
 62
     7
370
     9
100
AcDbLine
 10
-2308.381512954062
 20
955.1659926804684
 30
0.0
 11
-2308.381512954062
 21
1520.165497840469
 31
0.0
  0
LINE
  5
3AE
330
1F
100
AcDbEntity
  8
0-0
  6
JWW_HOJO
 62
     7
370
     9
100
AcDbLine
 10
-2258.381512954062
 20
955.1659926804684
 30
0.0
 11
-2258.381512954062
 21
1520.165497840469
 31
0.0
  0
LINE
  5
3AF
330
1F
100
AcDbEntity
  8
0-4
  6
Continuous
 62
    92
370
    13
100
AcDbLine
 10
-2448.381512954062
 20
955.1659926804684
 30
0.0
 11
-2448.381512954062
 21
1555.165992680469
 31
0.0
  0
ARC
  5
3B0
330
1F
100
AcDbEntity
  8
0-4
  6
Continuous
 62
    92
370
    13
100
AcDbCircle
 10
-2388.381512954062
 20
1385.165992680469
 30
0.0
 40
20.0
100
AcDbArc
 50
90.0
 51
180.0
  0
LINE
  5
3B1
330
1F
100
AcDbEntity
  8
0-4
  6
Continuous
 62
    92
370
    13
100
AcDbLine
 10
-2408.381512954062
 20
1365.165992680469
 30
0.0
 11
-2408.381512954062
 21
1385.165992680469
 31
0.0
  0
ARC
  5
3B2
330
1F
100
AcDbEntity
  8
0-4
  6
Continuous
 62
    92
370
    13
100
AcDbCircle
 10
-2388.381512954062
 20
1365.165992680469
 30
0.0
 40
20.0
100
AcDbArc
 50
180.0
 51
270.0
  0
ARC
  5
3B3
330
1F
100
AcDbEntity
  8
0-4
  6
Continuous
 62
    92
370
    13
100
AcDbCircle
 10
-2388.381512954062
 20
1385.165992680469
 30
0.0
 40
25.0
100
AcDbArc
 50
90.0
 51
180.0
  0
LINE
  5
3B4
330
1F
100
AcDbEntity
  8
0-4
  6
Continuous
 62
    92
370
    13
100
AcDbLine
 10
-2413.381512954062
 20
1365.165992680469
 30
0.0
 11
-2413.381512954062
 21
1385.165992680469
 31
0.0
  0
ARC
  5
3B5
330
1F
100
AcDbEntity
  8
0-4
  6
Continuous
 62
    92
370
    13
100
AcDbCircle
 10
-2388.381512954062
 20
1365.165992680469
 30
0.0
 40
25.0
100
AcDbArc
 50
180.0
 51
270.0
  0
LINE
  5
3B6
330
1F
100
AcDbEntity
  8
0-4
  6
Continuous
 62
    92
370
    13
100
AcDbLine
 10
-2363.381512954062
 20
955.1659926804684
 30
0.0
 11
-2363.381512954062
 21
1340.165992680469
 31
0.0
  0
LINE
  5
3B7
330
1F
100
AcDbEntity
  8
0-4
  6
Continuous
 62
    92
370
    13
100
AcDbLine
 10
-2358.381512954062
 20
955.1659926804684
 30
0.0
 11
-2358.381512954062
 21
1345.165992680469
 31
0.0
  0
LINE
  5
3B8
330
1F
100
AcDbEntity
  8
0-4
  6
Continuous
 62
    92
370
    13
100
AcDbLine
 10
-2388.381512954062
 20
1345.165992680469
 30
0.0
 11
-2358.381512954062
 21
1345.165992680469
 31
0.0
  0
LINE
  5
3B9
330
1F
100
AcDbEntity
  8
0-4
  6
Continuous
 62
    92
370
    13
100
AcDbLine
 10
-2388.381512954062
 20
1340.165992680469
 30
0.0
 11
-2363.381512954062
 21
1340.165992680469
 31
0.0
  0
LINE
  5
3BA
330
1F
100
AcDbEntity
  8
0-4
  6
Continuous
 62
    92
370
    13
100
AcDbLine
 10
-2363.381512954062
 20
1524.810653621141
 30
0.0
 11
-2363.381512954062
 21
1410.165992680469
 31
0.0
  0
LINE
  5
3BB
330
1F
100
AcDbEntity
  8
0-4
  6
Continuous
 62
    92
370
    13
100
AcDbLine
 10
-2358.381512954062
 20
1525.165992680469
 30
0.0
 11
-2358.381512954062
 21
1405.165992680469
 31
0.0
  0
LINE
  5
3BC
330
1F
100
AcDbEntity
  8
0-4
  6
Continuous
 62
    92
370
    13
100
AcDbLine
 10
-2388.381512954062
 20
1405.165992680469
 30
0.0
 11
-2358.381512954062
 21
1405.165992680469
 31
0.0
  0
LINE
  5
3BD
330
1F
100
AcDbEntity
  8
0-4
  6
Continuous
 62
    92
370
    13
100
AcDbLine
 10
-2388.381512954062
 20
1410.165992680469
 30
0.0
 11
-2363.381512954062
 21
1410.165992680469
 31
0.0
  0
LINE
  5
3BE
330
1F
100
AcDbEntity
  8
0-B
  6
Continuous
 62
   120
370
     5
100
AcDbLine
 10
-2158.381512954062
 20
1555.165992680469
 30
0.0
 11
-2158.381512954062
 21
955.1659926804684
 31
0.0
  0
LWPOLYLINE
  5
3BF
330
1F
100
AcDbEntity
  8
0-B
  6
Continuous
 62
     7
370
     9
100
AcDbPolyline
 90
        4
 70
     1
 43
2.0
 10
-2157.381512954062
 20
1555.165992680469
 42
0.4142135623731
 10
-2158.381512954062
 20
1556.165992680469
 42
0.4142135623731
 10
-2159.381512954062
 20
1555.165992680469
 42
0.4142135623731
 10
-2158.381512954062
 20
1554.165992680469
 42
0.4142135623731
  0
LWPOLYLINE
  5
3C0
330
1F
100
AcDbEntity
  8
0-B
  6
Continuous
 62
     7
370
     9
100
AcDbPolyline
 90
        4
 70
     1
 43
2.0
 10
-2157.381512954062
 20
955.1659926804684
 42
0.4142135623731
 10
-2158.381512954062
 20
956.1659926804684
 42
0.4142135623731
 10
-2159.381512954062
 20
955.1659926804684
 42
0.4142135623731
 10
-2158.381512954062
 20
954.1659926804685
 42
0.4142135623731
  0
LINE
  5
3C1
330
1F
100
AcDbEntity
  8
0-B
  6
Continuous
 62
   120
370
     5
100
AcDbLine
 10
-2158.381512954062
 20
1555.165992680469
 30
0.0
 11
-2308.381512954062
 21
1555.165992680469
 31
0.0
  0
LINE
  5
3C2
330
1F
100
AcDbEntity
  8
0-B
  6
Continuous
 62
   120
370
     5
100
AcDbLine
 10
-2158.381512954062
 20
955.1659926804684
 30
0.0
 11
-2308.381512954062
 21
955.1659926804684
 31
0.0
  0
LINE
  5
3C3
330
1F
100
AcDbEntity
  8
0-B
  6
Continuous
 62
   120
370
     5
100
AcDbLine
 10
-2411.380536366738
 20
1394.966243802924
 30
0.0
 11
-2488.381512954062
 21
1375.165992680469
 31
0.0
  0
LINE
  5
3C4
330
1F
100
AcDbEntity
  8
0-B
  6
Continuous
 62
   120
370
     5
100
AcDbLine
 10
-2411.401713138858
 20
1355.415588409264
 30
0.0
 11
-2488.381512954062
 21
1375.165992680469
 31
0.0
  0
LINE
  5
3C5
330
1F
100
AcDbEntity
  8
0-0
  6
JWW_HOJO
 62
     7
370
     9
100
AcDbLine
 10
-2448.381512954062
 20
922.4818073235407
 30
0.0
 11
-2344.213548501554
 21
922.4818073235407
 31
0.0
  0
LINE
  5
3C6
330
1F
100
AcDbEntity
  8
0-0
  6
JWW_HOJO
 62
     7
370
     9
100
AcDbLine
 10
-2448.381512954062
 20
872.4818073235407
 30
0.0
 11
-2344.213548501554
 21
872.4818073235407
 31
0.0
  0
LINE
  5
3C7
330
1F
100
AcDbEntity
  8
0-B
  6
Continuous
 62
   120
370
     5
100
AcDbLine
 10
-2448.381512954062
 20
872.4818073235407
 30
0.0
 11
-2358.381512954062
 21
872.4818073235407
 31
0.0
  0
LWPOLYLINE
  5
3C8
330
1F
100
AcDbEntity
  8
0-B
  6
Continuous
 62
     7
370
     9
100
AcDbPolyline
 90
        4
 70
     1
 43
2.0
 10
-2447.381512954062
 20
872.4818073235407
 42
0.4142135623731
 10
-2448.381512954062
 20
873.4818073235407
 42
0.4142135623731
 10
-2449.381512954062
 20
872.4818073235407
 42
0.4142135623731
 10
-2448.381512954062
 20
871.4818073235408
 42
0.4142135623731
  0
LWPOLYLINE
  5
3C9
330
1F
100
AcDbEntity
  8
0-B
  6
Continuous
 62
     7
370
     9
100
AcDbPolyline
 90
        4
 70
     1
 43
2.0
 10
-2357.381512954062
 20
872.4818073235407
 42
0.4142135623731
 10
-2358.381512954062
 20
873.4818073235407
 42
0.4142135623731
 10
-2359.381512954062
 20
872.4818073235407
 42
0.4142135623731
 10
-2358.381512954062
 20
871.4818073235408
 42
0.4142135623731
  0
LINE
  5
3CA
330
1F
100
AcDbEntity
  8
0-B
  6
Continuous
 62
   120
370
     5
100
AcDbLine
 10
-2448.381512954062
 20
872.4818073235407
 30
0.0
 11
-2448.381512954062
 21
922.4818073235407
 31
0.0
  0
LINE
  5
3CB
330
1F
100
AcDbEntity
  8
0-B
  6
Continuous
 62
   120
370
     5
100
AcDbLine
 10
-2358.381512954062
 20
872.4818073235407
 30
0.0
 11
-2358.381512954062
 21
922.4818073235407
 31
0.0
  0
LINE
  5
3CC
330
1F
100
AcDbEntity
  8
0-B
  6
Continuous
 62
   120
370
     5
100
AcDbLine
 10
-2429.895107557214
 20
1483.652398077317
 30
0.0
 11
-2545.746123662989
 21
1483.652398077317
 31
0.0
  0
LINE
  5
3CD
330
1F
100
AcDbEntity
  8
0-B
  6
Continuous
 62
   120
370
     5
100
AcDbLine
 10
-2367.168309518466
 20
1546.379196116065
 30
0.0
 11
-2429.895107557214
 21
1483.652398077317
 31
0.0
  0
MTEXT
  5
3CE
330
1F
100
AcDbEntity
  8
0-B
  6
Continuous
 62
     7
370
     9
100
AcDbMText
 10
-2542.678533980499
 20
1484.124026222966
 30
0.0
 40
49.53
 41
65.0
 46
0.0
 71
     7
 72
     1
  1
{\fＭＳ ゴシック|b0|i0|c128|p49;3R}
 73
     1
 44
1.0
  0
MTEXT
  5
3CF
330
1F
100
AcDbEntity
  8
0-B
  6
Continuous
 62
     7
370
   211
100
AcDbMText
 10
-2268.381512954062
 20
1442.430992680469
 30
0.0
 40
49.53
 41
65.0
 46
0.0
 71
     7
 72
     1
  1
{\fＭＳ ゴシック|b0|i0|c128|p49;15}
 11
6.123031769111886E-17
 21
1.0
 31
0.0
 73
     1
 44
1.0
  0
MTEXT
  5
3D0
330
1F
100
AcDbEntity
  8
0-B
  6
Continuous
 62
     7
370
   211
100
AcDbMText
 10
-2268.381512954062
 20
1353.025992680469
 30
0.0
 40
45.72
 41
30.0
 46
0.0
 71
     7
 72
     1
  1
{\fＭＳ ゴシック|b0|i0|c128|p49;6}
 11
6.123031769111886E-17
 21
1.0
 31
0.0
 73
     1
 44
1.0
  0
MTEXT
  5
3D1
330
1F
100
AcDbEntity
  8
0-B
  6
Continuous
 62
     7
370
     9
100
AcDbMText
 10
-2553.381512954062
 20
1339.930992680469
 30
0.0
 40
49.53
 41
65.0
 46
0.0
 71
     7
 72
     1
  1
{\fＭＳ ゴシック|b0|i0|c128|p49;2R}
 73
     1
 44
1.0
  0
MTEXT
  5
3D2
330
1F
100
AcDbEntity
  8
0-B
  6
Continuous
 62
     7
370
   211
100
AcDbMText
 10
-2088.381512954062
 20
1207.430992680469
 30
0.0
 40
49.53
 41
65.0
 46
0.0
 71
     7
 72
     1
  1
{\fＭＳ ゴシック|b0|i0|c128|p49;60}
 11
6.123031769111886E-17
 21
1.0
 31
0.0
 73
     1
 44
1.0
  0
MTEXT
  5
3D3
330
1F
100
AcDbEntity
  8
0-B
  6
Continuous
 62
     7
370
   211
100
AcDbMText
 10
-2268.381512954062
 20
1107.430992680469
 30
0.0
 40
49.53
 41
65.0
 46
0.0
 71
     7
 72
     1
  1
{\fＭＳ ゴシック|b0|i0|c128|p49;39}
 11
6.123031769111886E-17
 21
1.0
 31
0.0
 73
     1
 44
1.0
  0
MTEXT
  5
3D4
330
1F
100
AcDbEntity
  8
0-B
  6
Continuous
 62
     7
370
   211
100
AcDbMText
 10
-2418.381512954062
 20
869.9681631065682
 30
0.0
 40
45.72
 41
30.0
 46
0.0
 71
     7
 72
     1
  1
{\fＭＳ ゴシック|b0|i0|c128|p49;9}
 73
     1
 44
1.0
  0
LINE
  5
3D5
330
1F
100
AcDbEntity
  8
F-1
  6
Continuous
 62
     7
370
     9
100
AcDbLine
 10
-96.66731550886823
 20
1640.000254591779
 30
0.0
 11
-3293.333352578653
 21
1640.000254591779
 31
0.0
  0
LINE
  5
3D6
330
1F
100
AcDbEntity
  8
F-1
  6
Continuous
 62
     7
370
     9
100
AcDbLine
 10
-96.66731550886823
 20
806.6668679251126
 30
0.0
 11
-3293.333352578653
 21
806.6668679251126
 31
0.0
  0
MTEXT
  5
3D7
330
1F
100
AcDbEntity
  8
F-A
  6
Continuous
 62
     7
370
     0
100
AcDbMText
 10
-3493.333326803671
 20
-2696.849144377465
 30
0.0
 40
52.96829268292681
 41
1425.0
 46
0.0
 71
     7
 72
     1
  1
{\fＭＳ ゴシック|b0|i0|c128|p49;ピノアース　洋風造作材　巾木･コーナー巾木}
 73
     1
 44
1.0
  0
MTEXT
  5
3D8
330
1F
100
AcDbEntity
  8
1-A
  6
Continuous
 62
     7
370
     9
100
AcDbMText
 10
633.3330144108953
 20
-388.686538782203
 30
0.0
 40
60.96
 41
80.0
 46
0.0
 71
     7
 72
     1
  1
{\fＭＳ ゴシック|b0|i0|c128|p49;出}
 73
     1
 44
1.0
  0
MTEXT
  5
3D9
330
1F
100
AcDbEntity
  8
1-A
  6
Continuous
 62
     7
370
     9
100
AcDbMText
 10
633.3330144108953
 20
-492.8532121074062
 30
0.0
 40
60.96
 41
80.0
 46
0.0
 71
     7
 72
     1
  1
{\fＭＳ ゴシック|b0|i0|c128|p49;隅}
 73
     1
 44
1.0
  0
MTEXT
  5
3DA
330
1F
100
AcDbEntity
  8
1-A
  6
Continuous
 62
     7
370
     9
100
AcDbMText
 10
633.3330144108953
 20
-597.01988543261
 30
0.0
 40
60.96
 41
80.0
 46
0.0
 71
     7
 72
     1
  1
{\fＭＳ ゴシック|b0|i0|c128|p49;用}
 73
     1
 44
1.0
  0
MTEXT
  5
3DB
330
1F
100
AcDbEntity
  8
1-A
  6
Continuous
 62
     7
370
     9
100
AcDbMText
 10
633.3330144108953
 20
-1326.186598774073
 30
0.0
 40
60.96
 41
80.0
 46
0.0
 71
     7
 72
     1
  1
{\fＭＳ ゴシック|b0|i0|c128|p49;隅}
 73
     1
 44
1.0
  0
MTEXT
  5
3DC
330
1F
100
AcDbEntity
  8
1-A
  6
Continuous
 62
     7
370
     9
100
AcDbMText
 10
633.3330144108953
 20
-1430.353272099277
 30
0.0
 40
60.96
 41
80.0
 46
0.0
 71
     7
 72
     1
  1
{\fＭＳ ゴシック|b0|i0|c128|p49;用}
 73
     1
 44
1.0
  0
MTEXT
  5
3DD
330
1F
100
AcDbEntity
  8
1-A
  6
Continuous
 62
     7
370
     9
100
AcDbMText
 10
633.3330144108953
 20
-1222.01992544887
 30
0.0
 40
60.96
 41
80.0
 46
0.0
 71
     7
 72
     1
  1
{\fＭＳ ゴシック|b0|i0|c128|p49;入}
 73
     1
 44
1.0
  0
LINE
  5
3DE
330
1F
100
AcDbEntity
  8
F-1
  6
JWW_DASHED1
 62
     7
370
     9
100
AcDbLine
 10
3793.333146378802
 20
-234.9998654569993
 30
0.0
 11
2293.333146378801
 21
-234.9998654569993
 31
0.0
  0
LINE
  5
3DF
330
1F
100
AcDbEntity
  8
F-1
  6
JWW_DASHED1
 62
     7
370
     9
100
AcDbLine
 10
3793.333146378802
 20
-339.1665387822025
 30
0.0
 11
2293.333146378801
 21
-339.1665387822025
 31
0.0
  0
LINE
  5
3E0
330
1F
100
AcDbEntity
  8
F-1
  6
JWW_DASHED1
 62
     7
370
     9
100
AcDbLine
 10
3793.333146378802
 20
-443.3332121074062
 30
0.0
 11
2293.333146378801
 21
-443.3332121074062
 31
0.0
  0
LINE
  5
3E1
330
1F
100
AcDbEntity
  8
F-1
  6
JWW_DASHED1
 62
     7
370
     9
100
AcDbLine
 10
3793.333146378802
 20
-547.4998854326097
 30
0.0
 11
2293.333146378801
 21
-547.4998854326097
 31
0.0
  0
LINE
  5
3E2
330
1F
100
AcDbEntity
  8
F-1
  6
JWW_DASHED1
 62
     7
370
     9
100
AcDbLine
 10
3793.333146378802
 20
-651.6665587578132
 30
0.0
 11
2293.333146378801
 21
-651.6665587578132
 31
0.0
  0
LINE
  5
3E3
330
1F
100
AcDbEntity
  8
F-1
  6
JWW_DASHED1
 62
     7
370
     9
100
AcDbLine
 10
3793.333146378802
 20
-755.8332320830166
 30
0.0
 11
2293.333146378801
 21
-755.8332320830166
 31
0.0
  0
MTEXT
  5
3E4
330
1F
100
AcDbEntity
  8
1-A
  6
Continuous
 62
     7
370
     9
100
AcDbMText
 10
633.3330144108953
 20
1277.98023455113
 30
0.0
 40
60.96
 41
80.0
 46
0.0
 71
     7
 72
     1
  1
{\fＭＳ ゴシック|b0|i0|c128|p49;出}
 73
     1
 44
1.0
  0
MTEXT
  5
3E5
330
1F
100
AcDbEntity
  8
1-A
  6
Continuous
 62
     7
370
     9
100
AcDbMText
 10
633.3330144108953
 20
1173.813561225927
 30
0.0
 40
60.96
 41
80.0
 46
0.0
 71
     7
 72
     1
  1
{\fＭＳ ゴシック|b0|i0|c128|p49;隅}
 73
     1
 44
1.0
  0
MTEXT
  5
3E6
330
1F
100
AcDbEntity
  8
1-A
  6
Continuous
 62
     7
370
     9
100
AcDbMText
 10
633.3330144108953
 20
1069.646887900723
 30
0.0
 40
60.96
 41
80.0
 46
0.0
 71
     7
 72
     1
  1
{\fＭＳ ゴシック|b0|i0|c128|p49;用}
 73
     1
 44
1.0
  0
MTEXT
  5
3E7
330
1F
100
AcDbEntity
  8
1-A
  6
Continuous
 62
     7
370
     9
100
AcDbMText
 10
633.3330144108953
 20
340.4801745592601
 30
0.0
 40
60.96
 41
80.0
 46
0.0
 71
     7
 72
     1
  1
{\fＭＳ ゴシック|b0|i0|c128|p49;隅}
 73
     1
 44
1.0
  0
MTEXT
  5
3E8
330
1F
100
AcDbEntity
  8
1-A
  6
Continuous
 62
     7
370
     9
100
AcDbMText
 10
633.3330144108953
 20
236.3135012340564
 30
0.0
 40
60.96
 41
80.0
 46
0.0
 71
     7
 72
     1
  1
{\fＭＳ ゴシック|b0|i0|c128|p49;用}
 73
     1
 44
1.0
  0
MTEXT
  5
3E9
330
1F
100
AcDbEntity
  8
1-A
  6
Continuous
 62
     7
370
     9
100
AcDbMText
 10
633.3330144108953
 20
444.6468478844633
 30
0.0
 40
60.96
 41
80.0
 46
0.0
 71
     7
 72
     1
  1
{\fＭＳ ゴシック|b0|i0|c128|p49;入}
 73
     1
 44
1.0
  0
MTEXT
  5
3EA
330
1F
100
AcDbEntity
  8
1-A
  6
Continuous
 62
     7
370
     9
100
AcDbMText
 10
633.3330144108953
 20
2111.313621217796
 30
0.0
 40
60.96
 41
80.0
 46
0.0
 71
     7
 72
     1
  1
{\fＭＳ ゴシック|b0|i0|c128|p49;出}
 73
     1
 44
1.0
  0
MTEXT
  5
3EB
330
1F
100
AcDbEntity
  8
1-A
  6
Continuous
 62
     7
370
     9
100
AcDbMText
 10
633.3330144108953
 20
2007.146947892593
 30
0.0
 40
60.96
 41
80.0
 46
0.0
 71
     7
 72
     1
  1
{\fＭＳ ゴシック|b0|i0|c128|p49;隅}
 73
     1
 44
1.0
  0
MTEXT
  5
3EC
330
1F
100
AcDbEntity
  8
1-A
  6
Continuous
 62
     7
370
     9
100
AcDbMText
 10
633.3330144108953
 20
1902.98027456739
 30
0.0
 40
60.96
 41
80.0
 46
0.0
 71
     7
 72
     1
  1
{\fＭＳ ゴシック|b0|i0|c128|p49;用}
 73
     1
 44
1.0
  0
LINE
  5
3ED
330
1F
100
AcDbEntity
  8
F-1
  6
Continuous
 62
     7
370
     9
100
AcDbLine
 10
743.3330144108953
 20
2473.333641258446
 30
0.0
 11
743.3330144108953
 21
-2530.000032991976
 31
0.0
  0
MTEXT
  5
3EE
330
1F
100
AcDbEntity
  8
0-A
  6
Continuous
 62
     7
370
     9
100
AcDbMText
 10
-983.3338392103042
 20
2384.110304563325
 30
0.0
 40
45.71999999999999
 41
390.0
 46
0.0
 71
     7
 72
     1
  1
{\fＭＳ ゴシック|b0|i0|c128|p49;ＤＪＮＪ13-□}
 73
     1
 44
1.0
  0
MTEXT
  5
3EF
330
1F
100
AcDbEntity
  8
0-A
  6
Continuous
 62
     7
370
     9
100
AcDbMText
 10
-983.3338392103042
 20
2279.943631205603
 30
0.0
 40
45.71999999999999
 41
390.0
 46
0.0
 71
     7
 72
     1
  1
{\fＭＳ ゴシック|b0|i0|c128|p49;ＤＪＮＪ63-□}
 73
     1
 44
1.0
  0
MTEXT
  5
3F0
330
1F
100
AcDbEntity
  8
0-A
  6
Continuous
 62
     7
370
     9
100
AcDbMText
 10
-983.3338392103042
 20
2175.776957880399
 30
0.0
 40
45.71999999999999
 41
390.0
 46
0.0
 71
     7
 72
     1
  1
{\fＭＳ ゴシック|b0|i0|c128|p49;ＤＪＮＪ03-□}
 73
     1
 44
1.0
  0
MTEXT
  5
3F1
330
1F
100
AcDbEntity
  8
0-A
  6
Continuous
 62
     7
370
     9
100
AcDbMText
 10
-983.3338392103042
 20
1550.776917896658
 30
0.0
 40
45.71999999999999
 41
390.0
 46
0.0
 71
     7
 72
     1
  1
{\fＭＳ ゴシック|b0|i0|c128|p49;ＤＪＮＤ13-□}
 73
     1
 44
1.0
  0
MTEXT
  5
3F2
330
1F
100
AcDbEntity
  8
0-A
  6
Continuous
 62
     7
370
     9
100
AcDbMText
 10
-983.3338392103042
 20
1446.610244538935
 30
0.0
 40
45.71999999999999
 41
390.0
 46
0.0
 71
     7
 72
     1
  1
{\fＭＳ ゴシック|b0|i0|c128|p49;ＤＪＮＤ63-□}
 73
     1
 44
1.0
  0
MTEXT
  5
3F3
330
1F
100
AcDbEntity
  8
0-A
  6
Continuous
 62
     7
370
     9
100
AcDbMText
 10
-983.3338392103042
 20
1342.443571213732
 30
0.0
 40
45.71999999999999
 41
390.0
 46
0.0
 71
     7
 72
     1
  1
{\fＭＳ ゴシック|b0|i0|c128|p49;ＤＪＮＤ03-□}
 73
     1
 44
1.0
  0
MTEXT
  5
3F4
330
1F
100
AcDbEntity
  8
0-A
  6
Continuous
 62
     7
370
     9
100
AcDbMText
 10
-983.3338392103042
 20
717.4435312299914
 30
0.0
 40
45.71999999999999
 41
390.0
 46
0.0
 71
     7
 72
     1
  1
{\fＭＳ ゴシック|b0|i0|c128|p49;ＤＪＮＷ13-□}
 73
     1
 44
1.0
  0
MTEXT
  5
3F5
330
1F
100
AcDbEntity
  8
0-A
  6
Continuous
 62
     7
370
     9
100
AcDbMText
 10
-983.3338392103042
 20
613.2768578722693
 30
0.0
 40
45.71999999999999
 41
390.0
 46
0.0
 71
     7
 72
     1
  1
{\fＭＳ ゴシック|b0|i0|c128|p49;ＤＪＮＷ03-□}
 73
     1
 44
1.0
  0
LINE
  5
3F6
330
1F
100
AcDbEntity
  8
F-1
  6
Continuous
 62
     7
370
     9
100
AcDbLine
 10
-96.66731550886823
 20
-26.66651874155377
 30
0.0
 11
-3293.333352578653
 21
-26.66651874155377
 31
0.0
  0
LINE
  5
3F7
330
1F
100
AcDbEntity
  8
0-0
  6
JWW_HOJO
 62
   120
370
     5
100
AcDbLine
 10
-3883.333339691162
 20
806.6668679251126
 30
0.0
 11
-3403.333339691162
 21
806.6668679251126
 31
0.0
  0
MTEXT
  5
3F8
330
1F
100
AcDbEntity
  8
0-A
  6
Continuous
 62
     7
370
     9
100
AcDbMText
 10
-3773.333084518845
 20
759.6868679251126
 30
0.0
 40
66.04
 41
260.0
 46
0.0
 71
     7
 72
     1
  1
{\fＭＳ ゴシック|b0|i0|c128|p49;巾木・}
 73
     1
 44
1.0
  0
LINE
  5
3F9
330
1F
100
AcDbEntity
  8
F-1
  6
JWW_DASHED1
 62
     7
370
     9
100
AcDbLine
 10
-103.3338392103036
 20
-130.8331921317961
 30
0.0
 11
-1003.333839210304
 21
-130.8331921317961
 31
0.0
  0
LINE
  5
3FA
330
1F
100
AcDbEntity
  8
F-1
  6
JWW_DASHED1
 62
     7
370
     9
100
AcDbLine
 10
-103.3338392103036
 20
-234.9998654569993
 30
0.0
 11
-1003.333839210304
 21
-234.9998654569993
 31
0.0
  0
MTEXT
  5
3FB
330
1F
100
AcDbEntity
  8
0-A
  6
Continuous
 62
     7
370
     9
100
AcDbMText
 10
-293.3338392103036
 20
-115.8898554366744
 30
0.0
 40
45.72
 41
60.0
 46
0.0
 71
     7
 72
     1
  1
{\fＭＳ ゴシック|b0|i0|c128|p49;10}
 73
     1
 44
1.0
  0
MTEXT
  5
3FC
330
1F
100
AcDbEntity
  8
0-A
  6
Continuous
 62
     7
370
     9
100
AcDbMText
 10
-278.3338392103036
 20
-220.0565287943971
 30
0.0
 40
45.72
 41
30.0
 46
0.0
 71
     7
 72
     1
  1
{\fＭＳ ゴシック|b0|i0|c128|p49;6}
 73
     1
 44
1.0
  0
MTEXT
  5
3FD
330
1F
100
AcDbEntity
  8
0-A
  6
Continuous
 62
     7
370
     9
100
AcDbMText
 10
-278.3338392103036
 20
-324.2232021196003
 30
0.0
 40
45.72
 41
30.0
 46
0.0
 71
     7
 72
     1
  1
{\fＭＳ ゴシック|b0|i0|c128|p49;1}
 73
     1
 44
1.0
  0
MTEXT
  5
3FE
330
1F
100
AcDbEntity
  8
0-A
  6
Continuous
 62
     7
370
     9
100
AcDbMText
 10
-1483.333839210304
 20
-220.0565287618775
 30
0.0
 40
45.72
 41
360.0
 46
0.0
 71
     7
 72
     1
  1
{\fＭＳ ゴシック|b0|i0|c128|p49;3,900×30×7}
 73
     1
 44
1.0
  0
MTEXT
  5
3FF
330
1F
100
AcDbEntity
  8
1-A
  6
Continuous
 62
     7
370
     9
100
AcDbMText
 10
-3253.33397117821
 20
-156.1866266062475
 30
0.0
 40
60.96
 41
160.0
 46
0.0
 71
     7
 72
     1
  1
{\fＭＳ ゴシック|b0|i0|c128|p49;Ｎ型}
 73
     1
 44
1.0
  0
MTEXT
  5
400
330
1F
100
AcDbEntity
  8
0-A
  6
Continuous
 62
     7
370
     9
100
AcDbMText
 10
-983.3338392103042
 20
-115.8898554366744
 30
0.0
 40
45.71999999999999
 41
390.0
 46
0.0
 71
     7
 72
     1
  1
{\fＭＳ ゴシック|b0|i0|c128|p49;ＤＪＮＮ13-□}
 73
     1
 44
1.0
  0
MTEXT
  5
401
330
1F
100
AcDbEntity
  8
0-A
  6
Continuous
 62
     7
370
     9
100
AcDbMText
 10
-983.3338392103042
 20
-220.0565287943971
 30
0.0
 40
45.71999999999999
 41
390.0
 46
0.0
 71
     7
 72
     1
  1
{\fＭＳ ゴシック|b0|i0|c128|p49;ＤＪＮＮ63-□}
 73
     1
 44
1.0
  0
MTEXT
  5
402
330
1F
100
AcDbEntity
  8
0-A
  6
Continuous
 62
     7
370
     9
100
AcDbMText
 10
-983.3338392103042
 20
-324.2232021196003
 30
0.0
 40
45.71999999999999
 41
390.0
 46
0.0
 71
     7
 72
     1
  1
{\fＭＳ ゴシック|b0|i0|c128|p49;ＤＪＮＮ03-□}
 73
     1
 44
1.0
  0
MTEXT
  5
403
330
1F
100
AcDbEntity
  8
1-A
  6
Continuous
 62
     7
370
     9
100
AcDbMText
 10
2913.332527779244
 20
2384.110304563325
 30
0.0
 40
45.72
 41
420.0
 46
0.0
 71
     7
 72
     1
  1
{\fＭＳ ゴシック|b0|i0|c128|p49;ＤＬＮＪＤ1-□}
 73
     1
 44
1.0
  0
MTEXT
  5
404
330
1F
100
AcDbEntity
  8
1-A
  6
Continuous
 62
     7
370
     9
100
AcDbMText
 10
2913.333146378801
 20
1550.776917896658
 30
0.0
 40
45.72
 41
420.0
 46
0.0
 71
     7
 72
     1
  1
{\fＭＳ ゴシック|b0|i0|c128|p49;ＤＬＮＤＤ1-□}
 73
     1
 44
1.0
  0
MTEXT
  5
405
330
1F
100
AcDbEntity
  8
1-A
  6
Continuous
 62
     7
370
     9
100
AcDbMText
 10
2913.333146378801
 20
717.4435312299914
 30
0.0
 40
45.72
 41
420.0
 46
0.0
 71
     7
 72
     1
  1
{\fＭＳ ゴシック|b0|i0|c128|p49;ＤＬＮＤＩ1-□}
 73
     1
 44
1.0
  0
MTEXT
  5
406
330
1F
100
AcDbEntity
  8
1-A
  6
Continuous
 62
     7
370
     9
100
AcDbMText
 10
2913.333146378801
 20
-115.8898554366755
 30
0.0
 40
45.71999999999999
 41
450.0
 46
0.0
 71
     7
 72
     1
  1
{\fＭＳ ゴシック|b0|i0|c128|p49;ＤＬＮＤＷ11-□}
 73
     1
 44
1.0
  0
MTEXT
  5
407
330
1F
100
AcDbEntity
  8
1-A
  6
Continuous
 62
     7
370
     9
100
AcDbMText
 10
2913.333146378801
 20
-949.2232421033418
 30
0.0
 40
45.71999999999999
 41
450.0
 46
0.0
 71
     7
 72
     1
  1
{\fＭＳ ゴシック|b0|i0|c128|p49;ＤＬＮＩＷ11-□}
 73
     1
 44
1.0
  0
MTEXT
  5
408
330
1F
100
AcDbEntity
  8
0-A
  6
Continuous
 62
     7
370
     9
100
AcDbMText
 10
-11.66684511545498
 20
-2061.344985213107
 30
0.0
 40
67.31
 41
530.0
 46
0.0
 71
     7
 72
     1
  1
{\fＭＳ ゴシック|b0|i0|c128|p49;コーナー巾木}
 73
     1
 44
1.0
  0
LINE
  5
409
330
1F
100
AcDbEntity
  8
0-0
  6
JWW_HOJO
 62
   120
370
     5
100
AcDbLine
 10
13.33289971222769
 20
-2164.999985213107
 30
0.0
 11
493.3328997122277
 21
-2164.999985213107
 31
0.0
  0
LINE
  5
40A
330
1F
100
AcDbEntity
  8
0-0
  6
JWW_HOJO
 62
   120
370
     5
100
AcDbLine
 10
13.33289971222769
 20
-2014.999985213107
 30
0.0
 11
493.3328997122277
 21
-2014.999985213107
 31
0.0
  0
MTEXT
  5
40B
330
1F
100
AcDbEntity
  8
1-A
  6
Continuous
 62
     7
370
     9
100
AcDbMText
 10
633.3330144108953
 20
-2055.353312115537
 30
0.0
 40
60.96
 41
80.0
 46
0.0
 71
     7
 72
     1
  1
{\fＭＳ ゴシック|b0|i0|c128|p49;出}
 73
     1
 44
1.0
  0
MTEXT
  5
40C
330
1F
100
AcDbEntity
  8
1-A
  6
Continuous
 62
     7
370
     9
100
AcDbMText
 10
633.3330144108953
 20
-2159.519985440741
 30
0.0
 40
60.96
 41
80.0
 46
0.0
 71
     7
 72
     1
  1
{\fＭＳ ゴシック|b0|i0|c128|p49;隅}
 73
     1
 44
1.0
  0
MTEXT
  5
40D
330
1F
100
AcDbEntity
  8
1-A
  6
Continuous
 62
     7
370
     9
100
AcDbMText
 10
633.3330144108953
 20
-2263.686658765944
 30
0.0
 40
60.96
 41
80.0
 46
0.0
 71
     7
 72
     1
  1
{\fＭＳ ゴシック|b0|i0|c128|p49;用}
 73
     1
 44
1.0
  0
MTEXT
  5
40E
330
1F
100
AcDbEntity
  8
1-A
  6
Continuous
 62
     7
370
     9
100
AcDbMText
 10
3603.332280339423
 20
-1782.556628770009
 30
0.0
 40
45.72
 41
60.0
 46
0.0
 71
     7
 72
     1
  1
{\fＭＳ ゴシック|b0|i0|c128|p49;10}
 73
     1
 44
1.0
  0
MTEXT
  5
40F
330
1F
100
AcDbEntity
  8
1-A
  6
Continuous
 62
     7
370
     9
100
AcDbMText
 10
2076.32989074625
 20
-2504.626046169231
 30
0.0
 40
45.72
 41
150.0
 46
0.0
 71
     7
 72
     1
  1
{\fＭＳ ゴシック|b0|i0|c128|p49;S=1/3}
 73
     1
 44
1.0
  0
MTEXT
  5
410
330
1F
100
AcDbEntity
  8
1-A
  6
Continuous
 62
     7
370
     9
100
AcDbMText
 10
2458.332527779245
 20
-1782.556628770009
 30
0.0
 40
45.71999999999999
 41
270.0
 46
0.0
 71
     7
 72
     1
  1
{\fＭＳ ゴシック|b0|i0|c128|p49;35×35×7}
 73
     1
 44
1.0
  0
MTEXT
  5
411
330
1F
100
AcDbEntity
  8
1-A
  6
Continuous
 62
     7
370
     9
100
AcDbMText
 10
2913.332527779244
 20
-1782.556628770009
 30
0.0
 40
45.72
 41
420.0
 46
0.0
 71
     7
 72
     1
  1
{\fＭＳ ゴシック|b0|i0|c128|p49;ＤＬＮＮＤ1-□}
 73
     1
 44
1.0
  0
LWPOLYLINE
  5
412
330
1F
100
AcDbEntity
  8
1-B
  6
Continuous
 62
     7
370
     9
100
AcDbPolyline
 90
        4
 70
     1
 43
2.0
 10
1155.999747067638
 20
-2208.415005200097
 42
0.4142135623731
 10
1154.999747067638
 20
-2207.415005200097
 42
0.4142135623731
 10
1153.999747067638
 20
-2208.415005200097
 42
0.4142135623731
 10
1154.999747067638
 20
-2209.415005200097
 42
0.4142135623731
  0
LINE
  5
413
330
1F
100
AcDbEntity
  8
1-B
  6
Continuous
 62
   120
370
     5
100
AcDbLine
 10
1154.999747067638
 20
-2208.415005200097
 30
0.0
 11
1188.33308040097
 21
-2208.415005200097
 31
0.0
  0
LINE
  5
414
330
1F
100
AcDbEntity
  8
1-4
  6
Continuous
 62
    92
370
    13
100
AcDbLine
 10
1488.333080394848
 20
-2338.806115739804
 30
0.0
 11
1548.333080394848
 21
-2338.806115739804
 31
0.0
  0
LWPOLYLINE
  5
415
330
1F
100
AcDbEntity
  8
1-B
  6
Continuous
 62
     7
370
     9
100
AcDbPolyline
 90
        4
 70
     1
 43
2.0
 10
1477.254652090212
 20
-2383.125962192015
 42
0.4142135623731
 10
1476.254652090212
 20
-2382.125962192015
 42
0.4142135623731
 10
1475.254652090212
 20
-2383.125962192015
 42
0.4142135623731
 10
1476.254652090212
 20
-2384.125962192015
 42
0.4142135623731
  0
LINE
  5
416
330
1F
100
AcDbEntity
  8
1-B
  6
Continuous
 62
   120
370
     5
100
AcDbLine
 10
1476.254652090212
 20
-2383.125962192015
 30
0.0
 11
1484.881953593629
 21
-2350.928434649047
 31
0.0
  0
LINE
  5
417
330
1F
100
AcDbEntity
  8
1-4
  6
Continuous
 62
    92
370
    13
100
AcDbLine
 10
1488.333080394848
 20
-2338.806115739804
 30
0.0
 11
1262.950387581974
 21
-2278.415005212642
 31
0.0
  0
LINE
  5
418
330
1F
100
AcDbEntity
  8
1-4
  6
Continuous
 62
    92
370
    13
100
AcDbLine
 10
1548.333080394848
 20
-2338.806115739804
 30
0.0
 11
1773.715773208176
 21
-2278.415005212521
 31
0.0
  0
LINE
  5
419
330
1F
100
AcDbEntity
  8
1-B
  6
Continuous
 62
   120
370
     5
100
AcDbLine
 10
1251.061324691404
 20
-2322.785591974629
 30
0.0
 11
1259.688626194822
 21
-2290.588064431659
 31
0.0
  0
LWPOLYLINE
  5
41A
330
1F
100
AcDbEntity
  8
1-B
  6
Continuous
 62
     7
370
     9
100
AcDbPolyline
 90
        4
 70
     1
 43
2.0
 10
1252.061324691404
 20
-2322.785591974629
 42
0.4142135623731
 10
1251.061324691404
 20
-2321.785591974629
 42
0.4142135623731
 10
1250.061324691404
 20
-2322.785591974629
 42
0.4142135623731
 10
1251.061324691404
 20
-2323.785591974628
 42
0.4142135623731
  0
LINE
  5
41B
330
1F
100
AcDbEntity
  8
1-B
  6
Continuous
 62
   120
370
     5
100
AcDbLine
 10
1476.254652090212
 20
-2383.125962192015
 30
0.0
 11
1251.061324688043
 21
-2322.785591987172
 31
0.0
  0
LINE
  5
41C
330
1F
100
AcDbEntity
  8
1-B
  6
Continuous
 62
   120
370
     5
100
AcDbLine
 10
1560.222115659875
 20
-2383.176599401864
 30
0.0
 11
1551.594814156458
 21
-2350.979071858896
 31
0.0
  0
LINE
  5
41D
330
1F
100
AcDbEntity
  8
1-B
  6
Continuous
 62
   120
370
     5
100
AcDbLine
 10
1785.604808469842
 20
-2322.785488862036
 30
0.0
 11
1776.977506966424
 21
-2290.587961319066
 31
0.0
  0
LINE
  5
41E
330
1F
100
AcDbEntity
  8
1-B
  6
Continuous
 62
   120
370
     5
100
AcDbLine
 10
1785.604808473203
 20
-2322.785488874581
 30
0.0
 11
1560.222115659875
 21
-2383.176599401864
 31
0.0
  0
LWPOLYLINE
  5
41F
330
1F
100
AcDbEntity
  8
1-B
  6
Continuous
 62
     7
370
     9
100
AcDbPolyline
 90
        4
 70
     1
 43
2.0
 10
1561.222115659875
 20
-2383.176599401864
 42
0.4142135623731
 10
1560.222115659875
 20
-2382.176599401864
 42
0.4142135623731
 10
1559.222115659875
 20
-2383.176599401864
 42
0.4142135623731
 10
1560.222115659875
 20
-2384.176599401864
 42
0.4142135623731
  0
LWPOLYLINE
  5
420
330
1F
100
AcDbEntity
  8
1-B
  6
Continuous
 62
     7
370
     9
100
AcDbPolyline
 90
        4
 70
     1
 43
2.0
 10
1786.604808473203
 20
-2322.785488874581
 42
0.4142135623731
 10
1785.604808473203
 20
-2321.785488874581
 42
0.4142135623731
 10
1784.604808473203
 20
-2322.785488874581
 42
0.4142135623731
 10
1785.604808473203
 20
-2323.785488874581
 42
0.4142135623731
  0
LINE
  5
421
330
1F
100
AcDbEntity
  8
1-4
  6
Continuous
 62
    92
370
    13
100
AcDbLine
 10
1548.333080394848
 20
-2290.493227320666
 30
0.0
 11
1773.715773204814
 21
-2230.102116794284
 31
0.0
  0
LINE
  5
422
330
1F
100
AcDbEntity
  8
1-4
  6
Continuous
 62
    92
370
    13
100
AcDbLine
 10
1488.333080394848
 20
-2290.493227320666
 30
0.0
 11
1262.950387585335
 21
-2230.102116794406
 31
0.0
  0
LINE
  5
423
330
1F
100
AcDbEntity
  8
1-4
  6
Continuous
 62
    92
370
    13
100
AcDbLine
 10
1488.333080394848
 20
-2290.493227320666
 30
0.0
 11
1548.333080394848
 21
-2290.493227320666
 31
0.0
  0
MTEXT
  5
424
330
1F
100
AcDbEntity
  8
1-B
  6
Continuous
 62
     7
370
   211
100
AcDbMText
 10
1310.38808720683
 20
-2408.531480960881
 30
0.0
 40
49.53000000000067
 41
65.00000000000088
 46
0.0
 71
     7
 72
     1
  1
{\fＭＳ ゴシック|b0|i0|c128|p49;35}
 11
0.9659258262890635
 21
-0.2588190451025378
 31
0.0
 73
     1
 44
1.0
  0
MTEXT
  5
425
330
1F
100
AcDbEntity
  8
1-B
  6
Continuous
 62
     7
370
   211
100
AcDbMText
 10
1676.624210966423
 20
-2421.639526943751
 30
0.0
 40
49.53000000000021
 41
65.00000000000027
 46
0.0
 71
     7
 72
     1
  1
{\fＭＳ ゴシック|b0|i0|c128|p49;35}
 11
0.9659258262890773
 21
0.2588190451024877
 31
0.0
 73
     1
 44
1.0
  0
LINE
  5
426
330
1F
100
AcDbEntity
  8
1-4
  6
Continuous
 62
    92
370
    13
100
AcDbLine
 10
1518.333080394848
 20
-2058.152329334316
 30
0.0
 11
1292.950387606611
 21
-1997.761218813755
 31
0.0
  0
LINE
  5
427
330
1F
100
AcDbEntity
  8
1-4
  6
Continuous
 62
    92
370
    13
100
AcDbLine
 10
1518.333080394848
 20
-2058.152329334318
 30
0.0
 11
1743.715773195631
 21
-1997.761218810394
 31
0.0
  0
LINE
  5
428
330
1F
100
AcDbEntity
  8
1-B
  6
Continuous
 62
   120
370
     5
100
AcDbLine
 10
1757.049106513058
 20
-1974.667208033627
 30
0.0
 11
1750.382439846391
 21
-1986.214213417418
 31
0.0
  0
LWPOLYLINE
  5
429
330
1F
100
AcDbEntity
  8
1-B
  6
Continuous
 62
     7
370
     9
100
AcDbPolyline
 90
        4
 70
     1
 43
2.0
 10
1758.049106513058
 20
-1974.667208033627
 42
0.4142135623731
 10
1757.049106513058
 20
-1973.667208033627
 42
0.4142135623731
 10
1756.049106513058
 20
-1974.667208033627
 42
0.4142135623731
 10
1757.049106513058
 20
-1975.667208033626
 42
0.4142135623731
  0
LINE
  5
42A
330
1F
100
AcDbEntity
  8
1-4
  6
Continuous
 62
    92
370
    13
100
AcDbLine
 10
1548.333080394848
 20
-2075.472837410005
 30
0.0
 11
1518.333080394848
 21
-2058.152329334316
 31
0.0
  0
LINE
  5
42B
330
1F
100
AcDbEntity
  8
1-4
  6
Continuous
 62
    92
370
    13
100
AcDbLine
 10
1488.333080394848
 20
-2075.472837410005
 30
0.0
 11
1518.333080394848
 21
-2058.152329334316
 31
0.0
  0
LINE
  5
42C
330
1F
100
AcDbEntity
  8
1-4
  6
Continuous
 62
    92
370
    13
100
AcDbLine
 10
1488.333080394848
 20
-2075.472837410005
 30
0.0
 11
1548.333080394848
 21
-2075.472837410005
 31
0.0
  0
LINE
  5
42D
330
1F
100
AcDbEntity
  8
1-B
  6
Continuous
 62
   120
370
     5
100
AcDbLine
 10
1154.999747067638
 20
-2008.415005200097
 30
0.0
 11
1188.33308040097
 21
-2008.415005200097
 31
0.0
  0
LWPOLYLINE
  5
42E
330
1F
100
AcDbEntity
  8
1-B
  6
Continuous
 62
     7
370
     9
100
AcDbPolyline
 90
        4
 70
     1
 43
2.0
 10
1155.999747067638
 20
-2008.415005200097
 42
0.4142135623731
 10
1154.999747067638
 20
-2007.415005200097
 42
0.4142135623731
 10
1153.999747067638
 20
-2008.415005200097
 42
0.4142135623731
 10
1154.999747067638
 20
-2009.415005200097
 42
0.4142135623731
  0
LINE
  5
42F
330
1F
100
AcDbEntity
  8
1-B
  6
Continuous
 62
   120
370
     5
100
AcDbLine
 10
1154.999747067638
 20
-2008.415005200097
 30
0.0
 11
1154.999747067638
 21
-2208.415005200097
 31
0.0
  0
LINE
  5
430
330
1F
100
AcDbEntity
  8
1-4
  6
Continuous
 62
    92
370
    13
100
AcDbLine
 10
1548.333080394848
 20
-2338.806115739804
 30
0.0
 11
1548.333080394848
 21
-2075.472837410005
 31
0.0
  0
LINE
  5
431
330
1F
100
AcDbEntity
  8
1-4
  6
Continuous
 62
    92
370
    13
100
AcDbLine
 10
1488.333080394848
 20
-2338.806115739804
 30
0.0
 11
1488.333080394848
 21
-2075.472837410005
 31
0.0
  0
MTEXT
  5
432
330
1F
100
AcDbEntity
  8
1-B
  6
Continuous
 62
     7
370
   211
100
AcDbMText
 10
1770.382439846391
 20
-1997.373451303886
 30
0.0
 40
45.72
 41
30.0
 46
0.0
 71
     7
 72
     1
  1
{\fＭＳ ゴシック|b0|i0|c128|p49;7}
 73
     1
 44
1.0
  0
LINE
  5
433
330
1F
100
AcDbEntity
  8
1-4
  6
Continuous
 62
    92
370
    13
100
AcDbLine
 10
1773.715773204814
 20
-2018.930728685983
 30
0.0
 11
1773.715773204814
 21
-2278.415005199976
 31
0.0
  0
LINE
  5
434
330
1F
100
AcDbEntity
  8
1-4
  6
Continuous
 62
    92
370
    13
100
AcDbLine
 10
1770.38243987148
 20
-2013.157225994086
 30
0.0
 11
1743.715773179724
 21
-1997.761218801213
 31
0.0
  0
ARC
  5
435
330
1F
100
AcDbEntity
  8
1-4
  6
Continuous
 62
    92
370
    13
100
AcDbCircle
 10
1767.049106538147
 20
-2018.930728685983
 30
0.0
 40
6.666666666666666
100
AcDbArc
 50
0.0
 51
60.00000000000303
  0
LINE
  5
436
330
1F
100
AcDbEntity
  8
1-4
  6
Continuous
 62
    92
370
    13
100
AcDbLine
 10
1266.283720927311
 20
-2013.157225988835
 30
0.0
 11
1292.950387609972
 21
-1997.76121880121
 31
0.0
  0
LINE
  5
437
330
1F
100
AcDbEntity
  8
1-4
  6
Continuous
 62
    92
370
    13
100
AcDbLine
 10
1262.950387593977
 20
-2018.930728680578
 30
0.0
 11
1262.950387583274
 21
-2278.415005200097
 31
0.0
  0
ARC
  5
438
330
1F
100
AcDbEntity
  8
1-4
  6
Continuous
 62
    92
370
    13
100
AcDbCircle
 10
1269.617054260644
 20
-2018.930728680731
 30
0.0
 40
6.666666666666666
100
AcDbArc
 50
119.9999999999998
 51
179.9999999986844
  0
LINE
  5
439
330
1F
100
AcDbEntity
  8
1-B
  6
Continuous
 62
    92
370
    13
100
AcDbLine
 10
1488.333080394848
 20
-2075.472837410005
 30
0.0
 11
1263.987519105183
 21
-2015.359625436932
 31
0.0
  0
LINE
  5
43A
330
1F
100
AcDbEntity
  8
1-B
  6
Continuous
 62
    92
370
    13
100
AcDbLine
 10
1548.333080394848
 20
-2075.472837410005
 30
0.0
 11
1772.67864168944
 21
-2015.359625435612
 31
0.0
  0
LINE
  5
43B
330
1F
100
AcDbEntity
  8
1-B
  6
Continuous
 62
   120
370
     5
100
AcDbLine
 10
1779.724924834437
 20
-2003.15510502396
 30
0.0
 11
1786.391591501104
 21
-1991.608099640167
 31
0.0
  0
LWPOLYLINE
  5
43C
330
1F
100
AcDbEntity
  8
1-B
  6
Continuous
 62
     7
370
     9
100
AcDbPolyline
 90
        4
 70
     1
 43
2.0
 10
1787.391591501104
 20
-1991.608099640167
 42
0.4142135623731
 10
1786.391591501104
 20
-1990.608099640167
 42
0.4142135623731
 10
1785.391591501104
 20
-1991.608099640167
 42
0.4142135623731
 10
1786.391591501104
 20
-1992.608099640167
 42
0.4142135623731
  0
LINE
  5
43D
330
1F
100
AcDbEntity
  8
1-B
  6
Continuous
 62
   120
370
     5
100
AcDbLine
 10
1757.049106513058
 20
-1974.667208033627
 30
0.0
 11
1786.391591501104
 21
-1991.608099640167
 31
0.0
  0
MTEXT
  5
43E
330
1F
100
AcDbEntity
  8
1-B
  6
Continuous
 62
     7
370
   211
100
AcDbMText
 10
1158.33308040097
 20
-2146.150005200097
 30
0.0
 40
49.53
 41
65.0
 46
0.0
 71
     7
 72
     1
  1
{\fＭＳ ゴシック|b0|i0|c128|p49;30}
 11
6.123031769111886E-17
 21
1.0
 31
0.0
 73
     1
 44
1.0
  0
MTEXT
  5
43F
330
1F
100
AcDbEntity
  8
0-A
  6
Continuous
 62
     7
370
     9
100
AcDbMText
 10
93.33315488454502
 20
-2214.519985213107
 30
0.0
 40
60.96
 41
320.0
 46
0.0
 71
     7
 72
     1
  1
{\fＭＳ ゴシック|b0|i0|c128|p49;Ｎ型対応}
 73
     1
 44
1.0
  0
LINE
  5
440
330
1F
100
AcDbEntity
  8
0-4
  6
Continuous
 62
    92
370
    13
100
AcDbLine
 10
-2353.391873210217
 20
2420.437209724554
 30
0.0
 11
-2293.747212269544
 21
2420.437209724554
 31
0.0
  0
LINE
  5
441
330
1F
100
AcDbEntity
  8
0-4
  6
Continuous
 62
    92
370
    13
100
AcDbLine
 10
-2448.381512954062
 20
1550.165992680469
 30
0.0
 11
-2388.73685201339
 21
1550.165992680469
 31
0.0
  0
MTEXT
  5
442
330
1F
100
AcDbEntity
  8
0-B
  6
Continuous
 62
     7
370
   211
100
AcDbMText
 10
-2470.417578120733
 20
-690.6260540763003
 30
0.0
 40
45.72
 41
30.0
 46
0.0
 71
     7
 72
     1
  1
{\fＭＳ ゴシック|b0|i0|c128|p49;7}
 73
     1
 44
1.0
  0
LWPOLYLINE
  5
443
330
1F
100
AcDbEntity
  8
0-B
  6
Continuous
 62
     7
370
     9
100
AcDbPolyline
 90
        4
 70
     1
 43
2.0
 10
-2489.417578120733
 20
-684.9661879933439
 42
0.4142135623731
 10
-2490.417578120733
 20
-683.966187993344
 42
0.4142135623731
 10
-2491.417578120733
 20
-684.9661879933439
 42
0.4142135623731
 10
-2490.417578120733
 20
-685.9661879933437
 42
0.4142135623731
  0
LINE
  5
444
330
1F
100
AcDbEntity
  8
0-B
  6
Continuous
 62
   120
370
     5
100
AcDbLine
 10
-2490.417578120733
 20
-684.9661879933439
 30
0.0
 11
-2490.417578120733
 21
-634.9661879933439
 31
0.0
  0
LINE
  5
445
330
1F
100
AcDbEntity
  8
0-4
  6
Continuous
 62
    92
370
    13
100
AcDbLine
 10
-2490.417578120733
 20
-293.3332120748872
 30
0.0
 11
-2485.417578120733
 21
-293.3332120748872
 31
0.0
  0
LINE
  5
446
330
1F
100
AcDbEntity
  8
0-4
  6
Continuous
 62
    92
370
    13
100
AcDbLine
 10
-2485.417578120733
 20
-293.3332120748872
 30
0.0
 11
-2485.417578120733
 21
-248.3332120748872
 31
0.0
  0
LINE
  5
447
330
1F
100
AcDbEntity
  8
0-4
  6
Continuous
 62
    92
370
    13
100
AcDbLine
 10
-2490.417578120733
 20
-543.3332120748872
 30
0.0
 11
-2490.417578120733
 21
-243.3332120748872
 31
0.0
  0
LINE
  5
448
330
1F
100
AcDbEntity
  8
0-4
  6
Continuous
 62
    92
370
    13
100
AcDbLine
 10
-2460.417578120733
 20
-493.3332120748872
 30
0.0
 11
-2440.417578120733
 21
-493.3332120748872
 31
0.0
  0
LINE
  5
449
330
1F
100
AcDbEntity
  8
0-4
  6
Continuous
 62
    92
370
    13
100
AcDbLine
 10
-2460.417578120733
 20
-493.3332120748872
 30
0.0
 11
-2460.417578120733
 21
-543.3332120748872
 31
0.0
  0
LINE
  5
44A
330
1F
100
AcDbEntity
  8
0-4
  6
Continuous
 62
    92
370
    13
100
AcDbLine
 10
-2490.417578120733
 20
-543.3332120748872
 30
0.0
 11
-2460.417578120733
 21
-543.3332120748872
 31
0.0
  0
LINE
  5
44B
330
1F
100
AcDbEntity
  8
0-4
  6
Continuous
 62
    92
370
    13
100
AcDbLine
 10
-2440.417578120733
 20
-493.3332120748872
 30
0.0
 11
-2440.417578120733
 21
-543.3332120748872
 31
0.0
  0
LWPOLYLINE
  5
44C
330
1F
100
AcDbEntity
  8
0-B
  6
Continuous
 62
     7
370
     9
100
AcDbPolyline
 90
        4
 70
     1
 43
2.0
 10
-2319.417578120733
 20
-543.3332120748872
 42
0.4142135623731
 10
-2320.417578120733
 20
-542.3332120748872
 42
0.4142135623731
 10
-2321.417578120733
 20
-543.3332120748872
 42
0.4142135623731
 10
-2320.417578120733
 20
-544.3332120748872
 42
0.4142135623731
  0
LINE
  5
44D
330
1F
100
AcDbEntity
  8
0-4
  6
Continuous
 62
    92
370
    13
100
AcDbLine
 10
-2420.417578120733
 20
-543.3332120748872
 30
0.0
 11
-2440.417578120733
 21
-543.3332120748872
 31
0.0
  0
LINE
  5
44E
330
1F
100
AcDbEntity
  8
0-0
  6
JWW_HOJO
 62
     7
370
     9
100
AcDbLine
 10
-2490.417578120733
 20
-634.9661879933439
 30
0.0
 11
-2406.249613668223
 21
-634.9661879933439
 31
0.0
  0
LINE
  5
44F
330
1F
100
AcDbEntity
  8
0-0
  6
JWW_HOJO
 62
     7
370
     9
100
AcDbLine
 10
-2490.417578120733
 20
-684.9661879933439
 30
0.0
 11
-2406.249613668223
 21
-684.9661879933439
 31
0.0
  0
LINE
  5
450
330
1F
100
AcDbEntity
  8
0-B
  6
Continuous
 62
   120
370
     5
100
AcDbLine
 10
-2490.417578120733
 20
-684.9661879933439
 30
0.0
 11
-2420.417578120733
 21
-684.9661879933439
 31
0.0
  0
LWPOLYLINE
  5
451
330
1F
100
AcDbEntity
  8
0-B
  6
Continuous
 62
     7
370
     9
100
AcDbPolyline
 90
        4
 70
     1
 43
2.0
 10
-2419.417578120733
 20
-684.9661879933439
 42
0.4142135623731
 10
-2420.417578120733
 20
-683.966187993344
 42
0.4142135623731
 10
-2421.417578120733
 20
-684.9661879933439
 42
0.4142135623731
 10
-2420.417578120733
 20
-685.9661879933437
 42
0.4142135623731
  0
LINE
  5
452
330
1F
100
AcDbEntity
  8
0-B
  6
Continuous
 62
   120
370
     5
100
AcDbLine
 10
-2420.417578120733
 20
-684.9661879933439
 30
0.0
 11
-2420.417578120733
 21
-634.9661879933439
 31
0.0
  0
LINE
  5
453
330
1F
100
AcDbEntity
  8
0-0
  6
JWW_HOJO
 62
     7
370
     9
100
AcDbLine
 10
-2434.559713744464
 20
-243.3332120748872
 30
0.0
 11
-2590.417578120733
 21
-243.3332120748872
 31
0.0
  0
LWPOLYLINE
  5
454
330
1F
100
AcDbEntity
  8
0-B
  6
Continuous
 62
     7
370
     9
100
AcDbPolyline
 90
        4
 70
     1
 43
2.0
 10
-2319.417578120733
 20
-243.3332120748872
 42
0.4142135623731
 10
-2320.417578120733
 20
-242.3332120748872
 42
0.4142135623731
 10
-2321.417578120733
 20
-243.3332120748872
 42
0.4142135623731
 10
-2320.417578120733
 20
-244.3332120748872
 42
0.4142135623731
  0
LINE
  5
455
330
1F
100
AcDbEntity
  8
0-B
  6
Continuous
 62
   120
370
     5
100
AcDbLine
 10
-2320.417578120733
 20
-243.3332120748872
 30
0.0
 11
-2320.417578120733
 21
-543.3332120748872
 31
0.0
  0
LINE
  5
456
330
1F
100
AcDbEntity
  8
0-4
  6
Continuous
 62
    92
370
    13
100
AcDbLine
 10
-2425.417578120733
 20
-258.3332120748872
 30
0.0
 11
-2425.417578120733
 21
-543.3332120748872
 31
0.0
  0
LINE
  5
457
330
1F
100
AcDbEntity
  8
0-4
  6
Continuous
 62
    92
370
    13
100
AcDbLine
 10
-2435.417578120733
 20
-248.3332120748872
 30
0.0
 11
-2485.417578120733
 21
-248.3332120748872
 31
0.0
  0
ARC
  5
458
330
1F
100
AcDbEntity
  8
0-4
  6
Continuous
 62
    92
370
    13
100
AcDbCircle
 10
-2435.417578120733
 20
-258.3332120748872
 30
0.0
 40
10.0
100
AcDbArc
 50
0.0
 51
90.0
  0
LINE
  5
459
330
1F
100
AcDbEntity
  8
0-4
  6
Continuous
 62
    92
370
    13
100
AcDbLine
 10
-2430.417578120733
 20
-243.3332120748872
 30
0.0
 11
-2490.417578120733
 21
-243.3332120748872
 31
0.0
  0
LINE
  5
45A
330
1F
100
AcDbEntity
  8
0-4
  6
Continuous
 62
    92
370
    13
100
AcDbLine
 10
-2420.417578120733
 20
-253.3332120748872
 30
0.0
 11
-2420.417578120733
 21
-543.3332120748872
 31
0.0
  0
ARC
  5
45B
330
1F
100
AcDbEntity
  8
0-4
  6
Continuous
 62
    92
370
    13
100
AcDbCircle
 10
-2430.417578120733
 20
-253.3332120748872
 30
0.0
 40
10.0
100
AcDbArc
 50
0.0
 51
90.0
  0
LINE
  5
45C
330
1F
100
AcDbEntity
  8
0-B
  6
Continuous
 62
   120
370
     5
100
AcDbLine
 10
-2320.417578120733
 20
-243.3332120748872
 30
0.0
 11
-2370.417578120733
 21
-243.3332120748872
 31
0.0
  0
LINE
  5
45D
330
1F
100
AcDbEntity
  8
0-B
  6
Continuous
 62
   120
370
     5
100
AcDbLine
 10
-2320.417578120733
 20
-543.3332120748872
 30
0.0
 11
-2370.417578120733
 21
-543.3332120748872
 31
0.0
  0
MTEXT
  5
45E
330
1F
100
AcDbEntity
  8
0-B
  6
Continuous
 62
     7
370
   211
100
AcDbMText
 10
-2330.417578120733
 20
-431.0682120748872
 30
0.0
 40
49.53
 41
65.0
 46
0.0
 71
     7
 72
     1
  1
{\fＭＳ ゴシック|b0|i0|c128|p49;30}
 11
6.123031769111886E-17
 21
1.0
 31
0.0
 73
     1
 44
1.0
  0
LINE
  5
45F
330
1F
100
AcDbEntity
  8
0-3
  6
Continuous
 62
     7
370
     9
100
AcDbLine
 10
-2455.417578120733
 20
-493.3332120748872
 30
0.0
 11
-2460.417578120733
 21
-505.8332120748872
 31
0.0
  0
LINE
  5
460
330
1F
100
AcDbEntity
  8
0-3
  6
Continuous
 62
     7
370
     9
100
AcDbLine
 10
-2445.417578120733
 20
-493.3332120748872
 30
0.0
 11
-2440.417578120733
 21
-505.8332120748872
 31
0.0
  0
LINE
  5
461
330
1F
100
AcDbEntity
  8
0-3
  6
Continuous
 62
     7
370
     9
100
AcDbLine
 10
-2460.417578120733
 20
-518.3332120748872
 30
0.0
 11
-2455.417578120733
 21
-505.8332120748872
 31
0.0
  0
LINE
  5
462
330
1F
100
AcDbEntity
  8
0-3
  6
Continuous
 62
     7
370
     9
100
AcDbLine
 10
-2440.417578120733
 20
-518.3332120748872
 30
0.0
 11
-2445.417578120733
 21
-505.8332120748872
 31
0.0
  0
LINE
  5
463
330
1F
100
AcDbEntity
  8
0-3
  6
Continuous
 62
     7
370
     9
100
AcDbLine
 10
-2440.417578120733
 20
-505.8332120748872
 30
0.0
 11
-2445.417578120733
 21
-505.8332120748872
 31
0.0
  0
LINE
  5
464
330
1F
100
AcDbEntity
  8
0-3
  6
Continuous
 62
     7
370
     9
100
AcDbLine
 10
-2455.417578120733
 20
-505.8332120748872
 30
0.0
 11
-2460.417578120733
 21
-505.8332120748872
 31
0.0
  0
LINE
  5
465
330
1F
100
AcDbEntity
  8
0-3
  6
Continuous
 62
     7
370
     9
100
AcDbLine
 10
-2460.417578120733
 20
-530.8332120748872
 30
0.0
 11
-2455.417578120733
 21
-518.3332120748872
 31
0.0
  0
LINE
  5
466
330
1F
100
AcDbEntity
  8
0-3
  6
Continuous
 62
     7
370
     9
100
AcDbLine
 10
-2440.417578120733
 20
-530.8332120748872
 30
0.0
 11
-2445.417578120733
 21
-518.3332120748872
 31
0.0
  0
LINE
  5
467
330
1F
100
AcDbEntity
  8
0-3
  6
Continuous
 62
     7
370
     9
100
AcDbLine
 10
-2440.417578120733
 20
-518.3332120748872
 30
0.0
 11
-2445.417578120733
 21
-518.3332120748872
 31
0.0
  0
LINE
  5
468
330
1F
100
AcDbEntity
  8
0-3
  6
Continuous
 62
     7
370
     9
100
AcDbLine
 10
-2455.417578120733
 20
-518.3332120748872
 30
0.0
 11
-2460.417578120733
 21
-518.3332120748872
 31
0.0
  0
LINE
  5
469
330
1F
100
AcDbEntity
  8
0-3
  6
Continuous
 62
     7
370
     9
100
AcDbLine
 10
-2440.417578120733
 20
-530.8332120748872
 30
0.0
 11
-2445.417578120733
 21
-530.8332120748872
 31
0.0
  0
LINE
  5
46A
330
1F
100
AcDbEntity
  8
0-3
  6
Continuous
 62
     7
370
     9
100
AcDbLine
 10
-2455.417578120733
 20
-530.8332120748872
 30
0.0
 11
-2460.417578120733
 21
-530.8332120748872
 31
0.0
  0
LINE
  5
46B
330
1F
100
AcDbEntity
  8
0-3
  6
Continuous
 62
     7
370
     9
100
AcDbLine
 10
-2455.417578120733
 20
-493.3332120748872
 30
0.0
 11
-2445.417578120733
 21
-493.3332120748872
 31
0.0
  0
ARC
  5
46C
330
1F
100
AcDbEntity
  8
0-3
  6
Continuous
 62
     7
370
     9
100
AcDbCircle
 10
-2455.417083280733
 20
-578.3337069148877
 30
0.0
 40
24.99950516
100
AcDbArc
 50
209.9999999999995
 51
0.0
  0
ARC
  5
46D
330
1F
100
AcDbEntity
  8
0-3
  6
Continuous
 62
     7
370
     9
100
AcDbCircle
 10
-2455.417083280733
 20
-578.3337069148877
 30
0.0
 40
32.49950516
100
AcDbArc
 50
209.9999999999995
 51
0.0
  0
ARC
  5
46E
330
1F
100
AcDbEntity
  8
0-3
  6
Continuous
 62
     7
370
     9
100
AcDbCircle
 10
-2455.417083280733
 20
-578.3337069148877
 30
0.0
 40
34.99950516
100
AcDbArc
 50
209.9999999999995
 51
0.0
  0
LINE
  5
46F
330
1F
100
AcDbEntity
  8
0-3
  6
Continuous
 62
     7
370
     9
100
AcDbLine
 10
-2485.727543869178
 20
-595.8334594948877
 30
0.0
 11
-2477.067289831332
 21
-590.8334594948872
 31
0.0
  0
LINE
  5
470
330
1F
100
AcDbEntity
  8
0-3
  6
Continuous
 62
     7
370
     9
100
AcDbLine
 10
-2430.417578120733
 20
-543.3332120748872
 30
0.0
 11
-2430.417578120733
 21
-578.3337069148877
 31
0.0
  0
LINE
  5
471
330
1F
100
AcDbEntity
  8
0-3
  6
Continuous
 62
     7
370
     9
100
AcDbLine
 10
-2422.917578120733
 20
-543.3332120748872
 30
0.0
 11
-2422.917578120733
 21
-578.3337069148877
 31
0.0
  0
LINE
  5
472
330
1F
100
AcDbEntity
  8
0-3
  6
Continuous
 62
     7
370
     9
100
AcDbLine
 10
-2420.417578120733
 20
-543.3332120748872
 30
0.0
 11
-2420.417578120733
 21
-578.3337069148877
 31
0.0
  0
LINE
  5
473
330
1F
100
AcDbEntity
  8
0-3
  6
Continuous
 62
     7
370
     9
100
AcDbLine
 10
-2490.417578120733
 20
-558.3332120748872
 30
0.0
 11
-2430.417578120733
 21
-558.3332120748872
 31
0.0
  0
LINE
  5
474
330
1F
100
AcDbEntity
  8
0-3
  6
Continuous
 62
     7
370
     9
100
AcDbLine
 10
-2490.417578120733
 20
-543.3332120748872
 30
0.0
 11
-2490.417578120733
 21
-558.3332120748872
 31
0.0
  0
LINE
  5
475
330
1F
100
AcDbEntity
  8
0-3
  6
Continuous
 62
     7
370
     9
100
AcDbLine
 10
-2445.417578120733
 20
-530.8332120748872
 30
0.0
 11
-2445.417578120733
 21
-543.3332120748872
 31
0.0
  0
LINE
  5
476
330
1F
100
AcDbEntity
  8
0-3
  6
Continuous
 62
     7
370
     9
100
AcDbLine
 10
-2420.417578120733
 20
-543.3332120748872
 30
0.0
 11
-2445.417578120733
 21
-543.3332120748872
 31
0.0
  0
LINE
  5
477
330
1F
100
AcDbEntity
  8
0-3
  6
Continuous
 62
     7
370
     9
100
AcDbLine
 10
-2455.417578120733
 20
-530.8332120748872
 30
0.0
 11
-2455.417578120733
 21
-543.3332120748872
 31
0.0
  0
LINE
  5
478
330
1F
100
AcDbEntity
  8
0-3
  6
Continuous
 62
     7
370
     9
100
AcDbLine
 10
-2490.417578120733
 20
-543.3332120748872
 30
0.0
 11
-2455.417578120733
 21
-543.3332120748872
 31
0.0
  0
LINE
  5
479
330
1F
100
AcDbEntity
  8
0-B
  6
Continuous
 62
   120
370
     5
100
AcDbLine
 10
-2491.945395577343
 20
-314.8468066780396
 30
0.0
 11
-2602.796411683118
 21
-314.8468066780396
 31
0.0
  0
LINE
  5
47A
330
1F
100
AcDbEntity
  8
0-B
  6
Continuous
 62
   120
370
     5
100
AcDbLine
 10
-2423.360733162325
 20
-246.2621442630224
 30
0.0
 11
-2491.945395577343
 21
-314.8468066780396
 31
0.0
  0
MTEXT
  5
47B
330
1F
100
AcDbEntity
  8
0-B
  6
Continuous
 62
     7
370
     9
100
AcDbMText
 10
-2599.728822000628
 20
-314.3751785323904
 30
0.0
 40
49.53000000000021
 41
65.00000000000028
 46
0.0
 71
     7
 72
     1
  1
{\fＭＳ ゴシック|b0|i0|c128|p49;1R}
 73
     1
 44
1.0
  0
MTEXT
  5
47C
330
1F
100
AcDbEntity
  8
1-A
  6
Continuous
 62
     7
370
     9
100
AcDbMText
 10
2458.333146378801
 20
-115.8898554366755
 30
0.0
 40
45.71999999999999
 41
270.0
 46
0.0
 71
     7
 72
     1
  1
{\fＭＳ ゴシック|b0|i0|c128|p49;35×35×9}
 73
     1
 44
1.0
  0
MTEXT
  5
47D
330
1F
100
AcDbEntity
  8
1-A
  6
Continuous
 62
     7
370
     9
100
AcDbMText
 10
2458.333146378801
 20
-949.2232421033422
 30
0.0
 40
45.71999999999999
 41
270.0
 46
0.0
 71
     7
 72
     1
  1
{\fＭＳ ゴシック|b0|i0|c128|p49;35×35×9}
 73
     1
 44
1.0
  0
LINE
  5
47E
330
1F
100
AcDbEntity
  8
F-1
  6
JWW_DASHED1
 62
     7
370
     9
100
AcDbLine
 10
3793.333146378802
 20
-130.8331921317961
 30
0.0
 11
2293.333146378801
 21
-130.8331921317961
 31
0.0
  0
LINE
  5
47F
330
1F
100
AcDbEntity
  8
F-1
  6
JWW_DASHED1
 62
     7
370
     9
100
AcDbLine
 10
3793.333146378802
 20
-964.1665787984624
 30
0.0
 11
2293.333146378801
 21
-964.1665787984624
 31
0.0
  0
MTEXT
  5
480
330
1F
100
AcDbEntity
  8
F-A
  6
Continuous
 62
     7
370
     9
100
AcDbMText
 10
3290.832689053887
 20
-2765.238008466657
 30
0.0
 40
49.53
 41
65.0
 46
0.0
 71
     7
 72
     1
  1
{\fＭＳ ゴシック|b0|i0|c128|p49;01}
 73
     1
 44
1.0
  0
MTEXT
  5
481
330
1F
100
AcDbEntity
  8
F-A
  6
Continuous
 62
     7
370
     0
100
AcDbMText
 10
3150.832733979097
 20
-2625.380673426644
 30
0.0
 40
52.57799999999999
 41
345.0
 46
0.0
 71
     7
 72
     1
  1
{\fＭＳ ゴシック|b0|i0|c128|p49;2021.04.01}
 73
     1
 44
1.0
  0
MTEXT
  5
482
330
1F
100
AcDbEntity
  8
F-A
  6
Continuous
 62
     7
370
     0
100
AcDbMText
 10
233.3332783467061
 20
-2638.141527915001
 30
0.0
 40
38.09999999999999
 41
450.0
 46
0.0
 71
     7
 72
     1
  1
{\fＭＳ ゴシック|b0|i0|c128|p49;ＰＩＮＯＥＡＲＴＨ}
 73
     1
 44
1.0
  0
ENDSEC
  0
SECTION
  2
OBJECTS
  0
DICTIONARY
  5
C
330
0
100
AcDbDictionary
281
     1
  3
ACAD_GROUP
350
D
  3
ACAD_LAYOUT
350
1A
  3
ACAD_MATERIAL
350
3B
  3
ACAD_MLEADERSTYLE
350
484
  3
ACAD_MLINESTYLE
350
17
  3
ACAD_PLOTSETTINGS
350
19
  3
ACAD_PLOTSTYLENAME
350
E
  3
ACAD_TABLESTYLE
350
483
  3
ACAD_VISUALSTYLE
350
2A
  0
DICTIONARY
  5
D
102
{ACAD_REACTORS
330
C
102
}
330
C
100
AcDbDictionary
281
     1
  0
DICTIONARY
  5
1A
102
{ACAD_REACTORS
330
C
102
}
330
C
100
AcDbDictionary
281
     1
  3
Layout1
350
1E
  3
Layout2
350
26
  3
Model
350
22
  0
DICTIONARY
  5
3B
102
{ACAD_REACTORS
330
C
102
}
330
C
100
AcDbDictionary
281
     1
  3
ByBlock
350
3D
  3
ByLayer
350
3C
  3
Global
350
3E
  0
DICTIONARY
  5
484
102
{ACAD_REACTORS
330
C
102
}
330
C
100
AcDbDictionary
281
     1
  0
DICTIONARY
  5
17
102
{ACAD_REACTORS
330
C
102
}
330
C
100
AcDbDictionary
281
     1
  3
Standard
350
18
  0
DICTIONARY
  5
19
102
{ACAD_REACTORS
330
C
102
}
330
C
100
AcDbDictionary
281
     1
  0
ACDBDICTIONARYWDFLT
  5
E
102
{ACAD_REACTORS
330
C
102
}
330
C
100
AcDbDictionary
281
     1
  3
Normal
350
F
100
AcDbDictionaryWithDefault
340
F
  0
DICTIONARY
  5
483
102
{ACAD_REACTORS
330
C
102
}
330
C
100
AcDbDictionary
281
     1
  0
DICTIONARY
  5
2A
102
{ACAD_REACTORS
330
C
102
}
330
C
100
AcDbDictionary
281
     1
  3
2dWireframe
350
2F
  3
3D Hidden
350
31
  3
3dWireframe
350
30
  3
Basic
350
32
  3
Brighten
350
36
  3
ColorChange
350
3A
  3
Conceptual
350
34
  3
Dim
350
35
  3
Facepattern
350
39
  3
Flat
350
2B
  3
FlatWithEdges
350
2C
  3
Gouraud
350
2D
  3
GouraudWithEdges
350
2E
  3
Linepattern
350
38
  3
Realistic
350
33
  3
Thicken
350
37
  0
LAYOUT
  5
1E
102
{ACAD_REACTORS
330
1A
102
}
330
1A
100
AcDbPlotSettings
  1

  2
none_device
  4

  6

 40
0.0
 41
0.0
 42
0.0
 43
0.0
 44
0.0
 45
0.0
 46
0.0
 47
0.0
 48
0.0
 49
0.0
140
0.0
141
0.0
142
1.0
143
1.0
 70
   688
 72
     0
 73
     0
 74
     5
  7

 75
    16
 76
     0
 77
     5
 78
   300
147
1.0
148
0.0
149
0.0
100
AcDbLayout
  1
Layout1
 70
     1
 71
     1
 10
0.0
 20
0.0
 11
420.0
 21
297.0
 12
0.0
 22
0.0
 32
0.0
 14
1.000000000000000E+20
 24
1.000000000000000E+20
 34
1.000000000000000E+20
 15
-1.000000000000000E+20
 25
-1.000000000000000E+20
 35
-1.000000000000000E+20
146
0.0
 13
0.0
 23
0.0
 33
0.0
 16
1.0
 26
0.0
 36
0.0
 17
0.0
 27
1.0
 37
0.0
 76
     0
330
1B
  0
LAYOUT
  5
26
102
{ACAD_REACTORS
330
1A
102
}
330
1A
100
AcDbPlotSettings
  1

  2
none_device
  4

  6

 40
0.0
 41
0.0
 42
0.0
 43
0.0
 44
0.0
 45
0.0
 46
0.0
 47
0.0
 48
0.0
 49
0.0
140
0.0
141
0.0
142
1.0
143
1.0
 70
   688
 72
     0
 73
     0
 74
     5
  7

 75
    16
 76
     0
 77
     5
 78
   300
147
1.0
148
0.0
149
0.0
100
AcDbLayout
  1
Layout2
 70
     1
 71
     2
 10
0.0
 20
0.0
 11
0.0
 21
0.0
 12
0.0
 22
0.0
 32
0.0
 14
0.0
 24
0.0
 34
0.0
 15
0.0
 25
0.0
 35
0.0
146
0.0
 13
0.0
 23
0.0
 33
0.0
 16
1.0
 26
0.0
 36
0.0
 17
0.0
 27
1.0
 37
0.0
 76
     0
330
23
  0
LAYOUT
  5
22
102
{ACAD_REACTORS
330
1A
102
}
330
1A
100
AcDbPlotSettings
  1

  2
none_device
  4

  6

 40
0.0
 41
0.0
 42
0.0
 43
0.0
 44
0.0
 45
0.0
 46
0.0
 47
0.0
 48
0.0
 49
0.0
140
0.0
141
0.0
142
1.0
143
1.0
 70
  1712
 72
     0
 73
     0
 74
     0
  7

 75
     0
 76
     0
 77
     5
 78
   300
147
1.0
148
0.0
149
0.0
100
AcDbLayout
  1
Model
 70
     1
 71
     0
 10
-4200.0
 20
-2970.0
 11
4200.0
 21
2970.0
 12
0.0
 22
0.0
 32
0.0
 14
-4200.0
 24
-2970.0
 34
0.0
 15
4200.0
 25
2970.0
 35
0.0
146
0.0
 13
0.0
 23
0.0
 33
0.0
 16
1.0
 26
0.0
 36
0.0
 17
0.0
 27
1.0
 37
0.0
 76
     0
330
1F
331
29
  0
MATERIAL
  5
3D
102
{ACAD_REACTORS
330
3B
102
}
330
3B
100
AcDbMaterial
  1
ByBlock
 72
     1
 94
      127
  0
MATERIAL
  5
3C
102
{ACAD_REACTORS
330
3B
102
}
330
3B
100
AcDbMaterial
  1
ByLayer
 72
     1
 94
      127
  0
MATERIAL
  5
3E
102
{ACAD_REACTORS
330
3B
102
}
330
3B
100
AcDbMaterial
  1
Global
 72
     1
 94
      127
  0
MLINESTYLE
  5
18
102
{ACAD_REACTORS
330
17
102
}
330
17
100
AcDbMlineStyle
  2
Standard
 70
     0
  3

 62
   256
 51
90.0
 52
90.0
 71
     2
 49
0.5
 62
   256
  6
BYLAYER
 49
-0.5
 62
   256
  6
BYLAYER
  0
ACDBPLACEHOLDER
  5
F
102
{ACAD_REACTORS
330
E
102
}
330
E
  0
VISUALSTYLE
  5
2F
102
{ACAD_REACTORS
330
2A
102
}
330
2A
100
AcDbVisualStyle
  2
2dWireframe
 70
     4
177
     2
291
     0
 71
     0
176
     1
 72
     2
176
     1
 73
     0
176
     1
 90
        0
176
     1
 40
-0.6
176
     1
 41
-30.0
176
     1
 62
     5
 63
     7
421
 16777215
176
     1
 74
     1
176
     1
 91
        4
176
     1
 64
     7
176
     1
 65
   257
176
     1
 75
     1
176
     1
175
     1
176
     1
 42
1.0
176
     1
 92
        0
176
     1
 66
   257
176
     1
 43
1.0
176
     1
 76
     1
176
     1
 77
     6
176
     1
 78
     2
176
     1
 67
     7
176
     1
 79
     5
176
     1
170
     0
176
     1
171
     0
176
     1
290
     0
176
     1
 93
        1
176
     1
 44
0.0
176
     1
173
     0
176
     1
  0
VISUALSTYLE
  5
31
102
{ACAD_REACTORS
330
2A
102
}
330
2A
100
AcDbVisualStyle
  2
3D Hidden
 70
     6
177
     2
291
     0
 71
     1
176
     1
 72
     2
176
     1
 73
     2
176
     1
 90
        0
176
     1
 40
-0.6
176
     1
 41
-30.0
176
     1
 62
     5
 63
     7
421
 16777215
176
     1
 74
     2
176
     1
 91
        2
176
     1
 64
     7
176
     1
 65
   257
176
     1
 75
     2
176
     1
175
     1
176
     1
 42
40.0
176
     1
 92
        0
176
     1
 66
   257
176
     1
 43
1.0
176
     1
 76
     1
176
     1
 77
     6
176
     1
 78
     2
176
     1
 67
     7
176
     1
 79
     3
176
     1
170
     0
176
     1
171
     0
176
     1
290
     0
176
     1
 93
        1
176
     1
 44
0.0
176
     1
173
     0
176
     1
  0
VISUALSTYLE
  5
30
102
{ACAD_REACTORS
330
2A
102
}
330
2A
100
AcDbVisualStyle
  2
3dWireframe
 70
     5
177
     2
291
     0
 71
     0
176
     1
 72
     2
176
     1
 73
     0
176
     1
 90
        0
176
     1
 40
-0.6
176
     1
 41
-30.0
176
     1
 62
     5
 63
     7
421
 16777215
176
     1
 74
     1
176
     1
 91
        4
176
     1
 64
     7
176
     1
 65
   257
176
     1
 75
     1
176
     1
175
     1
176
     1
 42
1.0
176
     1
 92
        0
176
     1
 66
   257
176
     1
 43
1.0
176
     1
 76
     1
176
     1
 77
     6
176
     1
 78
     2
176
     1
 67
     7
176
     1
 79
     5
176
     1
170
     0
176
     1
171
     0
176
     1
290
     0
176
     1
 93
        1
176
     1
 44
0.0
176
     1
173
     0
176
     1
  0
VISUALSTYLE
  5
32
102
{ACAD_REACTORS
330
2A
102
}
330
2A
100
AcDbVisualStyle
  2
Basic
 70
     7
177
     2
291
     1
 71
     1
176
     1
 72
     0
176
     1
 73
     1
176
     1
 90
        0
176
     1
 40
-0.6
176
     1
 41
-30.0
176
     1
 62
     5
 63
     7
421
 16777215
176
     1
 74
     0
176
     1
 91
        4
176
     1
 64
     7
176
     1
 65
   257
176
     1
 75
     1
176
     1
175
     1
176
     1
 42
1.0
176
     1
 92
        8
176
     1
 66
     7
176
     1
 43
1.0
176
     1
 76
     1
176
     1
 77
     6
176
     1
 78
     2
176
     1
 67
     7
176
     1
 79
     5
176
     1
170
     0
176
     1
171
     0
176
     1
290
     0
176
     1
 93
        1
176
     1
 44
0.0
176
     1
173
     0
176
     1
  0
VISUALSTYLE
  5
36
102
{ACAD_REACTORS
330
2A
102
}
330
2A
100
AcDbVisualStyle
  2
Brighten
 70
    12
177
     2
291
     1
 71
     2
176
     1
 72
     2
176
     1
 73
     0
176
     1
 90
        0
176
     1
 40
-0.6
176
     1
 41
-30.0
176
     1
 62
     5
 63
     7
421
 16777215
176
     1
 74
     1
176
     1
 91
        4
176
     1
 64
     7
176
     1
 65
   257
176
     1
 75
     1
176
     1
175
     1
176
     1
 42
1.0
176
     1
 92
        8
176
     1
 66
     7
176
     1
 43
1.0
176
     1
 76
     1
176
     1
 77
     6
176
     1
 78
     2
176
     1
 67
     7
176
     1
 79
     5
176
     1
170
     0
176
     1
171
     0
176
     1
290
     0
176
     1
 93
        1
176
     1
 44
50.0
176
     1
173
     0
176
     1
  0
VISUALSTYLE
  5
3A
102
{ACAD_REACTORS
330
2A
102
}
330
2A
100
AcDbVisualStyle
  2
ColorChange
 70
    16
177
     2
291
     1
 71
     2
176
     1
 72
     2
176
     1
 73
     3
176
     1
 90
        0
176
     1
 40
-0.6
176
     1
 41
-30.0
176
     1
 62
     5
 63
     8
421
  8421504
176
     1
 74
     1
176
     1
 91
        4
176
     1
 64
     7
176
     1
 65
   257
176
     1
 75
     1
176
     1
175
     1
176
     1
 42
1.0
176
     1
 92
        8
176
     1
 66
     8
424
  8421504
176
     1
 43
1.0
176
     1
 76
     1
176
     1
 77
     6
176
     1
 78
     2
176
     1
 67
     7
176
     1
 79
     5
176
     1
170
     0
176
     1
171
     0
176
     1
290
     0
176
     1
 93
        1
176
     1
 44
0.0
176
     1
173
     0
176
     1
  0
VISUALSTYLE
  5
34
102
{ACAD_REACTORS
330
2A
102
}
330
2A
100
AcDbVisualStyle
  2
Conceptual
 70
     9
177
     2
291
     0
 71
     3
176
     1
 72
     2
176
     1
 73
     0
176
     1
 90
        0
176
     1
 40
-0.6
176
     1
 41
-30.0
176
     1
 62
     5
 63
     7
421
 16777215
176
     1
 74
     2
176
     1
 91
        2
176
     1
 64
     7
176
     1
 65
   257
176
     1
 75
     1
176
     1
175
     1
176
     1
 42
40.0
176
     1
 92
        8
176
     1
 66
     7
176
     1
 43
1.0
176
     1
 76
     1
176
     1
 77
     6
176
     1
 78
     2
176
     1
 67
     7
176
     1
 79
     3
176
     1
170
     0
176
     1
171
     0
176
     1
290
     0
176
     1
 93
        1
176
     1
 44
0.0
176
     1
173
     0
176
     1
  0
VISUALSTYLE
  5
35
102
{ACAD_REACTORS
330
2A
102
}
330
2A
100
AcDbVisualStyle
  2
Dim
 70
    11
177
     2
291
     1
 71
     2
176
     1
 72
     2
176
     1
 73
     0
176
     1
 90
        0
176
     1
 40
-0.6
176
     1
 41
-30.0
176
     1
 62
     5
 63
     7
421
 16777215
176
     1
 74
     1
176
     1
 91
        4
176
     1
 64
     7
176
     1
 65
   257
176
     1
 75
     1
176
     1
175
     1
176
     1
 42
1.0
176
     1
 92
        8
176
     1
 66
     7
176
     1
 43
1.0
176
     1
 76
     1
176
     1
 77
     6
176
     1
 78
     2
176
     1
 67
     7
176
     1
 79
     5
176
     1
170
     0
176
     1
171
     0
176
     1
290
     0
176
     1
 93
        1
176
     1
 44
-50.0
176
     1
173
     0
176
     1
  0
VISUALSTYLE
  5
39
102
{ACAD_REACTORS
330
2A
102
}
330
2A
100
AcDbVisualStyle
  2
Facepattern
 70
    15
177
     2
291
     1
 71
     2
176
     1
 72
     2
176
     1
 73
     0
176
     1
 90
        0
176
     1
 40
-0.6
176
     1
 41
-30.0
176
     1
 62
     5
 63
     7
421
 16777215
176
     1
 74
     1
176
     1
 91
        4
176
     1
 64
     7
176
     1
 65
   257
176
     1
 75
     1
176
     1
175
     1
176
     1
 42
1.0
176
     1
 92
        8
176
     1
 66
     7
176
     1
 43
1.0
176
     1
 76
     1
176
     1
 77
     6
176
     1
 78
     2
176
     1
 67
     7
176
     1
 79
     5
176
     1
170
     0
176
     1
171
     0
176
     1
290
     0
176
     1
 93
        1
176
     1
 44
0.0
176
     1
173
     0
176
     1
  0
VISUALSTYLE
  5
2B
102
{ACAD_REACTORS
330
2A
102
}
330
2A
100
AcDbVisualStyle
  2
Flat
 70
     0
177
     2
291
     1
 71
     2
176
     1
 72
     1
176
     1
 73
     1
176
     1
 90
        2
176
     1
 40
-0.6
176
     1
 41
30.0
176
     1
 62
     5
 63
     7
421
 16777215
176
     1
 74
     0
176
     1
 91
        4
176
     1
 64
     7
176
     1
 65
   257
176
     1
 75
     1
176
     1
175
     1
176
     1
 42
1.0
176
     1
 92
        8
176
     1
 66
     7
176
     1
 43
1.0
176
     1
 76
     1
176
     1
 77
     6
176
     1
 78
     2
176
     1
 67
     7
176
     1
 79
     5
176
     1
170
     0
176
     1
171
     0
176
     1
290
     0
176
     1
 93
       13
176
     1
 44
0.0
176
     1
173
     0
176
     1
  0
VISUALSTYLE
  5
2C
102
{ACAD_REACTORS
330
2A
102
}
330
2A
100
AcDbVisualStyle
  2
FlatWithEdges
 70
     1
177
     2
291
     1
 71
     2
176
     1
 72
     1
176
     1
 73
     1
176
     1
 90
        2
176
     1
 40
-0.6
176
     1
 41
30.0
176
     1
 62
     5
 63
     7
421
 16777215
176
     1
 74
     1
176
     1
 91
        4
176
     1
 64
     7
176
     1
 65
   257
176
     1
 75
     1
176
     1
175
     1
176
     1
 42
1.0
176
     1
 92
        0
176
     1
 66
   257
176
     1
 43
1.0
176
     1
 76
     1
176
     1
 77
     6
176
     1
 78
     2
176
     1
 67
     7
176
     1
 79
     5
176
     1
170
     0
176
     1
171
     0
176
     1
290
     0
176
     1
 93
       13
176
     1
 44
0.0
176
     1
173
     0
176
     1
  0
VISUALSTYLE
  5
2D
102
{ACAD_REACTORS
330
2A
102
}
330
2A
100
AcDbVisualStyle
  2
Gouraud
 70
     2
177
     2
291
     1
 71
     2
176
     1
 72
     2
176
     1
 73
     1
176
     1
 90
        2
176
     1
 40
-0.6
176
     1
 41
30.0
176
     1
 62
     5
 63
     7
421
 16777215
176
     1
 74
     0
176
     1
 91
        4
176
     1
 64
     7
176
     1
 65
   257
176
     1
 75
     1
176
     1
175
     1
176
     1
 42
1.0
176
     1
 92
        0
176
     1
 66
     7
176
     1
 43
1.0
176
     1
 76
     1
176
     1
 77
     6
176
     1
 78
     2
176
     1
 67
     7
176
     1
 79
     5
176
     1
170
     0
176
     1
171
     0
176
     1
290
     0
176
     1
 93
       13
176
     1
 44
0.0
176
     1
173
     0
176
     1
  0
VISUALSTYLE
  5
2E
102
{ACAD_REACTORS
330
2A
102
}
330
2A
100
AcDbVisualStyle
  2
GouraudWithEdges
 70
     3
177
     2
291
     1
 71
     2
176
     1
 72
     2
176
     1
 73
     1
176
     1
 90
        2
176
     1
 40
-0.6
176
     1
 41
30.0
176
     1
 62
     5
 63
     7
421
 16777215
176
     1
 74
     1
176
     1
 91
        4
176
     1
 64
     7
176
     1
 65
   257
176
     1
 75
     1
176
     1
175
     1
176
     1
 42
1.0
176
     1
 92
        0
176
     1
 66
   257
176
     1
 43
1.0
176
     1
 76
     1
176
     1
 77
     6
176
     1
 78
     2
176
     1
 67
     7
176
     1
 79
     5
176
     1
170
     0
176
     1
171
     0
176
     1
290
     0
176
     1
 93
       13
176
     1
 44
0.0
176
     1
173
     0
176
     1
  0
VISUALSTYLE
  5
38
102
{ACAD_REACTORS
330
2A
102
}
330
2A
100
AcDbVisualStyle
  2
Linepattern
 70
    14
177
     2
291
     1
 71
     2
176
     1
 72
     2
176
     1
 73
     0
176
     1
 90
        0
176
     1
 40
-0.6
176
     1
 41
-30.0
176
     1
 62
     5
 63
     7
421
 16777215
176
     1
 74
     1
176
     1
 91
        4
176
     1
 64
     7
176
     1
 65
   257
176
     1
 75
     7
176
     1
175
     7
176
     1
 42
1.0
176
     1
 92
        8
176
     1
 66
     7
176
     1
 43
1.0
176
     1
 76
     1
176
     1
 77
     6
176
     1
 78
     2
176
     1
 67
     7
176
     1
 79
     5
176
     1
170
     0
176
     1
171
     0
176
     1
290
     0
176
     1
 93
        1
176
     1
 44
0.0
176
     1
173
     0
176
     1
  0
VISUALSTYLE
  5
33
102
{ACAD_REACTORS
330
2A
102
}
330
2A
100
AcDbVisualStyle
  2
Realistic
 70
     8
177
     2
291
     0
 71
     2
176
     1
 72
     2
176
     1
 73
     0
176
     1
 90
        0
176
     1
 40
-0.6
176
     1
 41
-30.0
176
     1
 62
     5
 63
     7
421
 16777215
176
     1
 74
     1
176
     1
 91
        0
176
     1
 64
     7
176
     1
 65
   257
176
     1
 75
     1
176
     1
175
     1
176
     1
 42
1.0
176
     1
 92
        8
176
     1
 66
     8
424
  7895160
176
     1
 43
1.0
176
     1
 76
     1
176
     1
 77
     6
176
     1
 78
     2
176
     1
 67
     7
176
     1
 79
     5
176
     1
170
     0
176
     1
171
     0
176
     1
290
     0
176
     1
 93
       13
176
     1
 44
0.0
176
     1
173
     0
176
     1
  0
VISUALSTYLE
  5
37
102
{ACAD_REACTORS
330
2A
102
}
330
2A
100
AcDbVisualStyle
  2
Thicken
 70
    13
177
     2
291
     1
 71
     2
176
     1
 72
     2
176
     1
 73
     0
176
     1
 90
        0
176
     1
 40
-0.6
176
     1
 41
-30.0
176
     1
 62
     5
 63
     7
421
 16777215
176
     1
 74
     1
176
     1
 91
        4
176
     1
 64
     7
176
     1
 65
   257
176
     1
 75
     1
176
     1
175
     1
176
     1
 42
1.0
176
     1
 92
       12
176
     1
 66
     7
176
     1
 43
1.0
176
     1
 76
     1
176
     1
 77
     6
176
     1
 78
     2
176
     1
 67
     7
176
     1
 79
     5
176
     1
170
     0
176
     1
171
     0
176
     1
290
     0
176
     1
 93
        1
176
     1
 44
0.0
176
     1
173
     0
176
     1
  0
ENDSEC
  0
EOF
