  0
SECTION
  2
HEADER
  9
$ACADVER
  1
AC1024
  9
$ACADMAINTVER
 70
     6
  9
$DWGCODEPAGE
  3
ANSI_932
  9
$INSBASE
 10
0.0
 20
0.0
 30
0.0
  9
$EXTMIN
 10
-6300.0
 20
-4455.0
 30
0.0
  9
$EXTMAX
 10
6300.0
 20
4455.0
 30
0.0
  9
$LIMMIN
 10
-6300.0
 20
-4455.0
  9
$LIMMAX
 10
6300.0
 20
4455.0
  9
$ORTHOMODE
 70
     0
  9
$REGENMODE
 70
     1
  9
$FILLMODE
 70
     1
  9
$QTEXTMODE
 70
     0
  9
$MIRRTEXT
 70
     1
  9
$LTSCALE
 40
30.0
  9
$ATTMODE
 70
     1
  9
$TEXTSIZE
 40
2.5
  9
$TRACEWID
 40
1.0
  9
$TEXTSTYLE
  7
Standard
  9
$CLAYER
  8
0
  9
$CELTYPE
  6
ByLayer
  9
$CECOLOR
 62
   256
  9
$CELTSCALE
 40
1.0
  9
$DISPSILH
 70
     0
  9
$DIMSCALE
 40
1.0
  9
$DIMASZ
 40
2.5
  9
$DIMEXO
 40
0.625
  9
$DIMDLI
 40
3.75
  9
$DIMRND
 40
0.0
  9
$DIMDLE
 40
0.0
  9
$DIMEXE
 40
1.25
  9
$DIMTP
 40
0.0
  9
$DIMTM
 40
0.0
  9
$DIMTXT
 40
2.5
  9
$DIMCEN
 40
2.5
  9
$DIMTSZ
 40
0.0
  9
$DIMTOL
 70
     0
  9
$DIMLIM
 70
     0
  9
$DIMTIH
 70
     0
  9
$DIMTOH
 70
     0
  9
$DIMSE1
 70
     0
  9
$DIMSE2
 70
     0
  9
$DIMTAD
 70
     1
  9
$DIMZIN
 70
     8
  9
$DIMBLK
  1

  9
$DIMASO
 70
     1
  9
$DIMSHO
 70
     1
  9
$DIMPOST
  1

  9
$DIMAPOST
  1

  9
$DIMALT
 70
     0
  9
$DIMALTD
 70
     3
  9
$DIMALTF
 40
0.03937007874016
  9
$DIMLFAC
 40
1.0
  9
$DIMTOFL
 70
     1
  9
$DIMTVP
 40
0.0
  9
$DIMTIX
 70
     0
  9
$DIMSOXD
 70
     0
  9
$DIMSAH
 70
     0
  9
$DIMBLK1
  1

  9
$DIMBLK2
  1

  9
$DIMSTYLE
  2
ISO-25
  9
$DIMCLRD
 70
     0
  9
$DIMCLRE
 70
     0
  9
$DIMCLRT
 70
     0
  9
$DIMTFAC
 40
1.0
  9
$DIMGAP
 40
0.625
  9
$DIMJUST
 70
     0
  9
$DIMSD1
 70
     0
  9
$DIMSD2
 70
     0
  9
$DIMTOLJ
 70
     0
  9
$DIMTZIN
 70
     8
  9
$DIMALTZ
 70
     0
  9
$DIMALTTZ
 70
     0
  9
$DIMUPT
 70
     0
  9
$DIMDEC
 70
     2
  9
$DIMTDEC
 70
     2
  9
$DIMALTU
 70
     2
  9
$DIMALTTD
 70
     3
  9
$DIMTXSTY
  7
Standard
  9
$DIMAUNIT
 70
     0
  9
$DIMADEC
 70
     0
  9
$DIMALTRND
 40
0.0
  9
$DIMAZIN
 70
     0
  9
$DIMDSEP
 70
    44
  9
$DIMATFIT
 70
     3
  9
$DIMFRAC
 70
     0
  9
$DIMLDRBLK
  1

  9
$DIMLUNIT
 70
     2
  9
$DIMLWD
 70
    -2
  9
$DIMLWE
 70
    -2
  9
$DIMTMOVE
 70
     0
  9
$DIMFXL
 40
1.0
  9
$DIMFXLON
 70
     0
  9
$DIMJOGANG
 40
0.7853981633974483
  9
$DIMTFILL
 70
     0
  9
$DIMTFILLCLR
 70
     0
  9
$DIMARCSYM
 70
     0
  9
$DIMLTYPE
  6

  9
$DIMLTEX1
  6

  9
$DIMLTEX2
  6

  9
$DIMTXTDIRECTION
 70
     0
  9
$LUNITS
 70
     2
  9
$LUPREC
 70
     4
  9
$SKETCHINC
 40
1.0
  9
$FILLETRAD
 40
10.0
  9
$AUNITS
 70
     0
  9
$AUPREC
 70
     0
  9
$MENU
  1
.
  9
$ELEVATION
 40
0.0
  9
$PELEVATION
 40
0.0
  9
$THICKNESS
 40
0.0
  9
$LIMCHECK
 70
     0
  9
$CHAMFERA
 40
10.0
  9
$CHAMFERB
 40
10.0
  9
$CHAMFERC
 40
20.0
  9
$CHAMFERD
 40
0.0
  9
$SKPOLY
 70
     0
  9
$TDCREATE
 40
2459432.494532407
  9
$TDUCREATE
 40
2459432.119532407
  9
$TDUPDATE
 40
2459432.494532419
  9
$TDUUPDATE
 40
2459432.119532419
  9
$TDINDWG
 40
0.0000000116
  9
$TDUSRTIMER
 40
0.0000000116
  9
$USRTIMER
 70
     1
  9
$ANGBASE
 50
0.0
  9
$ANGDIR
 70
     0
  9
$PDMODE
 70
     0
  9
$PDSIZE
 40
0.0
  9
$PLINEWID
 40
0.0
  9
$SPLFRAME
 70
     0
  9
$SPLINETYPE
 70
     6
  9
$SPLINESEGS
 70
     8
  9
$HANDSEED
  5
420
  9
$SURFTAB1
 70
     6
  9
$SURFTAB2
 70
     6
  9
$SURFTYPE
 70
     6
  9
$SURFU
 70
     6
  9
$SURFV
 70
     6
  9
$UCSBASE
  2

  9
$UCSNAME
  2

  9
$UCSORG
 10
0.0
 20
0.0
 30
0.0
  9
$UCSXDIR
 10
1.0
 20
0.0
 30
0.0
  9
$UCSYDIR
 10
0.0
 20
1.0
 30
0.0
  9
$UCSORTHOREF
  2

  9
$UCSORTHOVIEW
 70
     0
  9
$UCSORGTOP
 10
0.0
 20
0.0
 30
0.0
  9
$UCSORGBOTTOM
 10
0.0
 20
0.0
 30
0.0
  9
$UCSORGLEFT
 10
0.0
 20
0.0
 30
0.0
  9
$UCSORGRIGHT
 10
0.0
 20
0.0
 30
0.0
  9
$UCSORGFRONT
 10
0.0
 20
0.0
 30
0.0
  9
$UCSORGBACK
 10
0.0
 20
0.0
 30
0.0
  9
$PUCSBASE
  2

  9
$PUCSNAME
  2

  9
$PUCSORG
 10
0.0
 20
0.0
 30
0.0
  9
$PUCSXDIR
 10
1.0
 20
0.0
 30
0.0
  9
$PUCSYDIR
 10
0.0
 20
1.0
 30
0.0
  9
$PUCSORTHOREF
  2

  9
$PUCSORTHOVIEW
 70
     0
  9
$PUCSORGTOP
 10
0.0
 20
0.0
 30
0.0
  9
$PUCSORGBOTTOM
 10
0.0
 20
0.0
 30
0.0
  9
$PUCSORGLEFT
 10
0.0
 20
0.0
 30
0.0
  9
$PUCSORGRIGHT
 10
0.0
 20
0.0
 30
0.0
  9
$PUCSORGFRONT
 10
0.0
 20
0.0
 30
0.0
  9
$PUCSORGBACK
 10
0.0
 20
0.0
 30
0.0
  9
$USERI1
 70
     0
  9
$USERI2
 70
     0
  9
$USERI3
 70
     0
  9
$USERI4
 70
     0
  9
$USERI5
 70
     0
  9
$USERR1
 40
0.0
  9
$USERR2
 40
0.0
  9
$USERR3
 40
0.0
  9
$USERR4
 40
0.0
  9
$USERR5
 40
0.0
  9
$WORLDVIEW
 70
     1
  9
$SHADEDGE
 70
     3
  9
$SHADEDIF
 70
    70
  9
$TILEMODE
 70
     1
  9
$MAXACTVP
 70
    64
  9
$PINSBASE
 10
0.0
 20
0.0
 30
0.0
  9
$PLIMCHECK
 70
     0
  9
$PEXTMIN
 10
1.000000000000000E+20
 20
1.000000000000000E+20
 30
1.000000000000000E+20
  9
$PEXTMAX
 10
-1.000000000000000E+20
 20
-1.000000000000000E+20
 30
-1.000000000000000E+20
  9
$PLIMMIN
 10
0.0
 20
0.0
  9
$PLIMMAX
 10
420.0
 20
297.0
  9
$UNITMODE
 70
     0
  9
$VISRETAIN
 70
     1
  9
$PLINEGEN
 70
     0
  9
$PSLTSCALE
 70
     1
  9
$TREEDEPTH
 70
  3020
  9
$CMLSTYLE
  2
Standard
  9
$CMLJUST
 70
     0
  9
$CMLSCALE
 40
20.0
  9
$PROXYGRAPHICS
 70
     1
  9
$MEASUREMENT
 70
     1
  9
$CELWEIGHT
370
    -1
  9
$ENDCAPS
280
     0
  9
$JOINSTYLE
280
     0
  9
$LWDISPLAY
290
     0
  9
$INSUNITS
 70
     4
  9
$HYPERLINKBASE
  1

  9
$STYLESHEET
  1

  9
$XEDIT
290
     1
  9
$CEPSNTYPE
380
     0
  9
$PSTYLEMODE
290
     1
  9
$FINGERPRINTGUID
  2
{9DFC1853-AE5B-4BC5-B380-4F23C4A36C45}
  9
$VERSIONGUID
  2
{FAEB1C32-E019-11D5-929B-00C0DF256EC4}
  9
$EXTNAMES
290
     1
  9
$PSVPSCALE
 40
0.0
  9
$OLESTARTUP
290
     0
  9
$SORTENTS
280
   127
  9
$INDEXCTL
280
     0
  9
$HIDETEXT
280
     1
  9
$XCLIPFRAME
280
     2
  9
$HALOGAP
280
     0
  9
$OBSCOLOR
 70
   257
  9
$OBSLTYPE
280
     0
  9
$INTERSECTIONDISPLAY
280
     0
  9
$INTERSECTIONCOLOR
 70
   257
  9
$DIMASSOC
280
     2
  9
$PROJECTNAME
  1

  9
$CAMERADISPLAY
290
     0
  9
$LENSLENGTH
 40
50.0
  9
$CAMERAHEIGHT
 40
0.0
  9
$STEPSPERSEC
 40
2.0
  9
$STEPSIZE
 40
6.0
  9
$3DDWFPREC
 40
2.0
  9
$PSOLWIDTH
 40
5.0
  9
$PSOLHEIGHT
 40
80.0
  9
$LOFTANG1
 40
1.570796326794897
  9
$LOFTANG2
 40
1.570796326794897
  9
$LOFTMAG1
 40
0.0
  9
$LOFTMAG2
 40
0.0
  9
$LOFTPARAM
 70
     7
  9
$LOFTNORMALS
280
     1
  9
$LATITUDE
 40
37.795
  9
$LONGITUDE
 40
-122.394
  9
$NORTHDIRECTION
 40
0.0
  9
$TIMEZONE
 70
 -8000
  9
$LIGHTGLYPHDISPLAY
280
     1
  9
$TILEMODELIGHTSYNCH
280
     1
  9
$SOLIDHIST
280
     1
  9
$SHOWHIST
280
     1
  9
$DWFFRAME
280
     2
  9
$DGNFRAME
280
     2
  9
$REALWORLDSCALE
290
     1
  9
$INTERFERECOLOR
 62
   256
  9
$CSHADOW
280
     0
  9
$SHADOWPLANELOCATION
 40
0.0
  0
ENDSEC
  0
SECTION
  2
CLASSES
  0
CLASS
  1
ACDBDICTIONARYWDFLT
  2
AcDbDictionaryWithDefault
  3
ObjectDBX Classes
 90
        0
 91
        4
280
     0
281
     0
  0
CLASS
  1
VISUALSTYLE
  2
AcDbVisualStyle
  3
ObjectDBX Classes
 90
     4095
 91
        4
280
     0
281
     0
  0
CLASS
  1
MATERIAL
  2
AcDbMaterial
  3
ObjectDBX Classes
 90
     1153
 91
        4
280
     0
281
     0
  0
ENDSEC
  0
SECTION
  2
TABLES
  0
TABLE
  2
VPORT
  5
8
330
0
100
AcDbSymbolTable
 70
     1
  0
VPORT
  5
29
330
8
100
AcDbSymbolTableRecord
100
AcDbViewportTableRecord
  2
*Active
 70
     0
 10
0.0
 20
0.0
 11
1.0
 21
1.0
 12
0.0
 22
0.0
 13
0.0
 23
0.0
 14
10.0
 24
10.0
 15
10.0
 25
10.0
 16
0.0
 26
0.0
 36
1.0
 17
0.0
 27
0.0
 37
0.0
 40
9801.0
 41
1.414141414141414
 42
50.0
 43
0.0
 44
0.0
 50
0.0
 51
0.0
 71
     0
 72
 10000
 73
     1
 74
     3
 75
     0
 76
     0
 77
     0
 78
     0
281
     0
 65
     1
110
0.0
120
0.0
130
0.0
111
1.0
121
0.0
131
0.0
112
0.0
122
1.0
132
0.0
 79
     0
146
0.0
 60
     3
 61
     5
292
     1
282
     1
141
0.0
142
0.0
 63
   250
  0
ENDTAB
  0
TABLE
  2
LTYPE
  5
5
330
0
100
AcDbSymbolTable
 70
     5
  0
LTYPE
  5
14
330
5
100
AcDbSymbolTableRecord
100
AcDbLinetypeTableRecord
  2
ByBlock
 70
     0
  3

 72
    65
 73
     0
 40
0.0
  0
LTYPE
  5
15
330
5
100
AcDbSymbolTableRecord
100
AcDbLinetypeTableRecord
  2
ByLayer
 70
     0
  3

 72
    65
 73
     0
 40
0.0
  0
LTYPE
  5
16
330
5
100
AcDbSymbolTableRecord
100
AcDbLinetypeTableRecord
  2
Continuous
 70
     0
  3
Solid line
 72
    65
 73
     0
 40
0.0
  0
LTYPE
  5
3F
330
5
100
AcDbSymbolTableRecord
100
AcDbLinetypeTableRecord
  2
JWW_HOJO
 70
     0
  3
  -   -   -   -   -   -   -   - 
 72
    65
 73
     2
 40
1.693333333333333
 49
-1.27
 74
     0
 49
0.4233333333333333
 74
     0
  0
LTYPE
  5
40
330
5
100
AcDbSymbolTableRecord
100
AcDbLinetypeTableRecord
  2
JWW_CENTER2
 70
     0
  3
-------------  --  -------------
 72
    65
 73
     4
 40
13.54666666666667
 49
11.00666666666667
 74
     0
 49
-0.8466666666666667
 74
     0
 49
0.8466666666666667
 74
     0
 49
-0.8466666666666667
 74
     0
  0
LTYPE
  5
41
330
5
100
AcDbSymbolTableRecord
100
AcDbLinetypeTableRecord
  2
JWW_DASHED1
 70
     0
  3
-  --  --  --  --  --  --  --  -
 72
    65
 73
     2
 40
1.693333333333333
 49
0.8466666666666667
 74
     0
 49
-0.8466666666666667
 74
     0
  0
LTYPE
  5
42
330
5
100
AcDbSymbolTableRecord
100
AcDbLinetypeTableRecord
  2
JWW_CENTER1
 70
     0
  3
-----  --  ----------  --  -----
 72
    65
 73
     4
 40
6.773333333333333
 49
4.233333333333333
 74
     0
 49
-0.8466666666666667
 74
     0
 49
0.8466666666666667
 74
     0
 49
-0.8466666666666667
 74
     0
  0
ENDTAB
  0
TABLE
  2
LAYER
  5
2
330
0
100
AcDbSymbolTable
 70
    14
  0
LAYER
  5
10
330
2
100
AcDbSymbolTableRecord
100
AcDbLayerTableRecord
  2
0
 70
     0
 62
     7
  6
Continuous
370
    -3
390
F
347
3E
  0
LAYER
  5
43
330
2
100
AcDbSymbolTableRecord
100
AcDbLayerTableRecord
  2
F-0_補助線
 70
     0
 62
     7
  6
Continuous
370
    -3
390
F
347
3E
  0
LAYER
  5
44
330
2
100
AcDbSymbolTableRecord
100
AcDbLayerTableRecord
  2
F-1_枠
 70
     0
 62
     7
  6
Continuous
370
    -3
390
F
347
3E
  0
LAYER
  5
45
330
2
100
AcDbSymbolTableRecord
100
AcDbLayerTableRecord
  2
0-0_補助線
 70
     0
 62
     7
  6
Continuous
370
    -3
390
F
347
3E
  0
LAYER
  5
46
330
2
100
AcDbSymbolTableRecord
100
AcDbLayerTableRecord
  2
F-A_文字
 70
     0
 62
     7
  6
Continuous
370
    -3
390
F
347
3E
  0
LAYER
  5
47
330
2
100
AcDbSymbolTableRecord
100
AcDbLayerTableRecord
  2
0-4_枠
 70
     0
 62
     7
  6
Continuous
370
    -3
390
F
347
3E
  0
LAYER
  5
48
330
2
100
AcDbSymbolTableRecord
100
AcDbLayerTableRecord
  2
0-B_寸法
 70
     0
 62
     7
  6
Continuous
370
    -3
390
F
347
3E
  0
LAYER
  5
49
330
2
100
AcDbSymbolTableRecord
100
AcDbLayerTableRecord
  2
0-7
 70
     0
 62
     7
  6
Continuous
370
    -3
390
F
347
3E
  0
LAYER
  5
4A
330
2
100
AcDbSymbolTableRecord
100
AcDbLayerTableRecord
  2
0-A_文字
 70
     0
 62
     7
  6
Continuous
370
    -3
390
F
347
3E
  0
LAYER
  5
4B
330
2
100
AcDbSymbolTableRecord
100
AcDbLayerTableRecord
  2
0-2_扉
 70
     0
 62
     7
  6
Continuous
370
    -3
390
F
347
3E
  0
LAYER
  5
4C
330
2
100
AcDbSymbolTableRecord
100
AcDbLayerTableRecord
  2
0-3_仕上げ
 70
     0
 62
     7
  6
Continuous
370
    -3
390
F
347
3E
  0
LAYER
  5
4D
330
2
100
AcDbSymbolTableRecord
100
AcDbLayerTableRecord
  2
0-C_ハッチ
 70
     0
 62
     7
  6
Continuous
370
    -3
390
F
347
3E
  0
LAYER
  5
4E
330
2
100
AcDbSymbolTableRecord
100
AcDbLayerTableRecord
  2
0-1_通り芯
 70
     0
 62
     7
  6
Continuous
370
    -3
390
F
347
3E
  0
LAYER
  5
4F
330
2
100
AcDbSymbolTableRecord
100
AcDbLayerTableRecord
  2
レバー
 70
     0
 62
     7
  6
Continuous
370
    -3
390
F
347
3E
  0
ENDTAB
  0
TABLE
  2
STYLE
  5
3
330
0
100
AcDbSymbolTable
 70
     1
  0
STYLE
  5
11
330
3
100
AcDbSymbolTableRecord
100
AcDbTextStyleTableRecord
  2
Standard
 70
     0
 40
0.0
 41
1.0
 50
0.0
 71
     0
 42
2.5
  3
txt
  4

  0
ENDTAB
  0
TABLE
  2
VIEW
  5
6
330
0
100
AcDbSymbolTable
 70
     0
  0
ENDTAB
  0
TABLE
  2
UCS
  5
7
330
0
100
AcDbSymbolTable
 70
     0
  0
ENDTAB
  0
TABLE
  2
APPID
  5
9
330
0
100
AcDbSymbolTable
 70
     1
  0
APPID
  5
12
330
9
100
AcDbSymbolTableRecord
100
AcDbRegAppTableRecord
  2
ACAD
 70
     0
  0
ENDTAB
  0
TABLE
  2
DIMSTYLE
  5
A
330
0
100
AcDbSymbolTable
 70
     1
100
AcDbDimStyleTable
  0
DIMSTYLE
105
27
330
A
100
AcDbSymbolTableRecord
100
AcDbDimStyleTableRecord
  2
ISO-25
 70
     0
 41
2.5
 42
0.625
 43
3.75
 44
1.25
 73
     0
 74
     0
 77
     1
 78
     8
140
2.5
141
2.5
143
0.03937007874016
147
0.625
171
     3
172
     1
178
     0
271
     2
272
     2
274
     3
278
    44
283
     0
284
     8
340
11
  0
ENDTAB
  0
TABLE
  2
BLOCK_RECORD
  5
1
330
0
100
AcDbSymbolTable
 70
     1
  0
BLOCK_RECORD
  5
1F
330
1
100
AcDbSymbolTableRecord
100
AcDbBlockTableRecord
  2
*Model_Space
340
22
 70
     0
280
     1
281
     0
  0
BLOCK_RECORD
  5
1B
330
1
100
AcDbSymbolTableRecord
100
AcDbBlockTableRecord
  2
*Paper_Space
340
1E
 70
     0
280
     1
281
     0
  0
BLOCK_RECORD
  5
23
330
1
100
AcDbSymbolTableRecord
100
AcDbBlockTableRecord
  2
*Paper_Space0
340
26
 70
     0
280
     1
281
     0
  0
ENDTAB
  0
ENDSEC
  0
SECTION
  2
BLOCKS
  0
BLOCK
  5
20
330
1F
100
AcDbEntity
  8
0
100
AcDbBlockBegin
  2
*Model_Space
 70
     0
 10
0.0
 20
0.0
 30
0.0
  3
*Model_Space
  1

  0
ENDBLK
  5
21
330
1F
100
AcDbEntity
  8
0
100
AcDbBlockEnd
  0
BLOCK
  5
1C
330
1B
100
AcDbEntity
 67
     1
  8
0
100
AcDbBlockBegin
  2
*Paper_Space
 70
     0
 10
0.0
 20
0.0
 30
0.0
  3
*Paper_Space
  1

  0
ENDBLK
  5
1D
330
1B
100
AcDbEntity
 67
     1
  8
0
100
AcDbBlockEnd
  0
BLOCK
  5
24
330
23
100
AcDbEntity
  8
0
100
AcDbBlockBegin
  2
*Paper_Space0
 70
     0
 10
0.0
 20
0.0
 30
0.0
  3
*Paper_Space0
  1

  0
ENDBLK
  5
25
330
23
100
AcDbEntity
  8
0
100
AcDbBlockEnd
  0
ENDSEC
  0
SECTION
  2
ENTITIES
  0
LINE
  5
50
330
1F
100
AcDbEntity
  8
F-0_補助線
  6
JWW_HOJO
 62
   200
370
    20
100
AcDbLine
 10
-5999.99998453501
 20
4064.999901024072
 30
0.0
 11
5689.998977248734
 21
4064.999901024072
 31
0.0
  0
LINE
  5
51
330
1F
100
AcDbEntity
  8
F-0_補助線
  6
JWW_HOJO
 62
   120
370
     5
100
AcDbLine
 10
5999.999010240709
 20
-4455.0
 30
0.0
 11
-6300.0
 21
-4455.0
 31
0.0
  0
LINE
  5
52
330
1F
100
AcDbEntity
  8
F-1_枠
  6
Continuous
 62
   200
370
    20
100
AcDbLine
 10
-5999.999752560178
 20
4174.999769056166
 30
0.0
 11
5699.998762800888
 21
4174.999769056166
 31
0.0
  0
LINE
  5
53
330
1F
100
AcDbEntity
  8
F-0_補助線
  6
JWW_HOJO
 62
   120
370
     5
100
AcDbLine
 10
-6300.0
 20
-4455.0
 30
0.0
 11
-6300.0
 21
4424.999604096284
 31
0.0
  0
LINE
  5
54
330
1F
100
AcDbEntity
  8
F-0_補助線
  6
JWW_HOJO
 62
   120
370
     5
100
AcDbLine
 10
5999.999010240709
 20
4424.999604096284
 30
0.0
 11
5999.999010240709
 21
-4455.0
 31
0.0
  0
LINE
  5
55
330
1F
100
AcDbEntity
  8
F-1_枠
  6
Continuous
 62
   200
370
    20
100
AcDbLine
 10
-5999.999752560178
 20
4164.999983504013
 30
0.0
 11
5699.998762800888
 21
4164.999983504013
 31
0.0
  0
LINE
  5
56
330
1F
100
AcDbEntity
  8
F-1_枠
  6
Continuous
 62
   200
370
    20
100
AcDbLine
 10
-5999.999752560178
 20
4169.999505120355
 30
0.0
 11
5699.998762800888
 21
4169.999505120355
 31
0.0
  0
LINE
  5
57
330
1F
100
AcDbEntity
  8
F-1_枠
  6
Continuous
 62
   200
370
    20
100
AcDbLine
 10
5689.998977248734
 20
4174.999769056166
 30
0.0
 11
5689.998977248734
 21
-4205.000164959882
 31
0.0
  0
LINE
  5
58
330
1F
100
AcDbEntity
  8
F-1_枠
  6
Continuous
 62
   200
370
    20
100
AcDbLine
 10
5694.998498865077
 20
4174.999769056166
 30
0.0
 11
5694.998498865077
 21
-4205.000164959882
 31
0.0
  0
LINE
  5
59
330
1F
100
AcDbEntity
  8
F-1_枠
  6
Continuous
 62
   200
370
    20
100
AcDbLine
 10
5699.998762800888
 20
4174.999769056166
 30
0.0
 11
5699.998762800888
 21
-4205.000164959882
 31
0.0
  0
LINE
  5
5A
330
1F
100
AcDbEntity
  8
F-1_枠
  6
Continuous
 62
   200
370
    20
100
AcDbLine
 10
-5989.999990205507
 20
4174.999769056166
 30
0.0
 11
-5989.999990205507
 21
-4205.000164959882
 31
0.0
  0
LINE
  5
5B
330
1F
100
AcDbEntity
  8
F-1_枠
  6
Continuous
 62
   200
370
    20
100
AcDbLine
 10
-5994.999975771518
 20
4174.999769056166
 30
0.0
 11
-5994.999975771518
 21
-4205.000164959882
 31
0.0
  0
LINE
  5
5C
330
1F
100
AcDbEntity
  8
F-1_枠
  6
Continuous
 62
   200
370
    20
100
AcDbLine
 10
-5999.99998453501
 20
4174.999769056166
 30
0.0
 11
-5999.99998453501
 21
-4205.000164959882
 31
0.0
  0
LINE
  5
5D
330
1F
100
AcDbEntity
  8
F-1_枠
  6
Continuous
 62
   200
370
    20
100
AcDbLine
 10
-5490.000018557986
 20
4174.999769056166
 30
0.0
 11
-5490.000018557986
 21
-3790.000179909372
 31
0.0
  0
LINE
  5
5E
330
1F
100
AcDbEntity
  8
F-0_補助線
  6
JWW_HOJO
 62
   120
370
     5
100
AcDbLine
 10
-6300.0
 20
4424.999604096284
 30
0.0
 11
5999.999010240709
 21
4424.999604096284
 31
0.0
  0
LINE
  5
5F
330
1F
100
AcDbEntity
  8
F-0_補助線
  6
JWW_HOJO
 62
     7
370
     9
100
AcDbLine
 10
849.9995876002961
 20
-3795.000003092998
 30
0.0
 11
849.9995876002961
 21
-4195.000008247994
 31
0.0
  0
LINE
  5
60
330
1F
100
AcDbEntity
  8
F-0_補助線
  6
JWW_HOJO
 62
     7
370
     9
100
AcDbLine
 10
349.9999175200594
 20
-3795.000003092998
 30
0.0
 11
349.9999175200594
 21
-4195.000008247994
 31
0.0
  0
LINE
  5
61
330
1F
100
AcDbEntity
  8
F-1_枠
  6
Continuous
 62
   200
370
    20
100
AcDbLine
 10
5699.998762800888
 20
-4205.000002577498
 30
0.0
 11
-5999.999752560178
 21
-4205.000002577498
 31
0.0
  0
LINE
  5
62
330
1F
100
AcDbEntity
  8
F-1_枠
  6
Continuous
 62
   200
370
    20
100
AcDbLine
 10
5699.998762800888
 20
-4199.999993814004
 30
0.0
 11
-5999.999752560178
 21
-4199.999993814004
 31
0.0
  0
LINE
  5
63
330
1F
100
AcDbEntity
  8
F-1_枠
  6
Continuous
 62
   200
370
    20
100
AcDbLine
 10
5699.998762800888
 20
-4195.000008247994
 30
0.0
 11
-5999.999752560178
 21
-4195.000008247994
 31
0.0
  0
LINE
  5
64
330
1F
100
AcDbEntity
  8
F-1_枠
  6
Continuous
 62
   200
370
    20
100
AcDbLine
 10
4189.999224688556
 20
-3795.000003092998
 30
0.0
 11
4189.999224688556
 21
-4195.000008247994
 31
0.0
  0
LINE
  5
65
330
1F
100
AcDbEntity
  8
F-1_枠
  6
Continuous
 62
   200
370
    20
100
AcDbLine
 10
2689.998729808911
 20
-3795.000003092998
 30
0.0
 11
2689.998729808911
 21
-4195.000008247994
 31
0.0
  0
LINE
  5
66
330
1F
100
AcDbEntity
  8
F-1_枠
  6
Continuous
 62
   200
370
    20
100
AcDbLine
 10
-150.0001237199109
 20
-3795.000003092998
 30
0.0
 11
-150.0001237199109
 21
-4195.000008247994
 31
0.0
  0
LINE
  5
67
330
1F
100
AcDbEntity
  8
F-1_枠
  6
Continuous
 62
   200
370
    20
100
AcDbLine
 10
-150.0001237199109
 20
-3994.999936078046
 30
0.0
 11
5689.998977248734
 21
-3995.005364289155
 31
0.0
  0
LINE
  5
68
330
1F
100
AcDbEntity
  8
F-0_補助線
  6
JWW_HOJO
 62
     7
370
     9
100
AcDbLine
 10
-5989.999990205507
 20
-3994.99993607839
 30
0.0
 11
-150.0001237199109
 21
-3994.99993607839
 31
0.0
  0
LINE
  5
69
330
1F
100
AcDbEntity
  8
F-0_補助線
  6
JWW_HOJO
 62
     7
370
     9
100
AcDbLine
 10
-5989.999990205507
 20
-3904.99993607839
 30
0.0
 11
-150.0001237199109
 21
-3904.99993607839
 31
0.0
  0
LINE
  5
6A
330
1F
100
AcDbEntity
  8
F-0_補助線
  6
JWW_HOJO
 62
     7
370
     9
100
AcDbLine
 10
-5989.999990205507
 20
-4084.99993607839
 30
0.0
 11
-150.0001237199109
 21
-4084.99993607839
 31
0.0
  0
LINE
  5
6B
330
1F
100
AcDbEntity
  8
F-0_補助線
  6
JWW_HOJO
 62
     7
370
     9
100
AcDbLine
 10
-150.0002584955388
 20
-4139.999739777983
 30
0.0
 11
5689.998842473105
 21
-4140.005167989091
 31
0.0
  0
LINE
  5
6C
330
1F
100
AcDbEntity
  8
F-0_補助線
  6
JWW_HOJO
 62
     7
370
     9
100
AcDbLine
 10
-150.0001748415872
 20
-4049.999739778022
 30
0.0
 11
5689.998926127057
 21
-4050.005167989131
 31
0.0
  0
LINE
  5
6D
330
1F
100
AcDbEntity
  8
F-0_補助線
  6
JWW_HOJO
 62
     7
370
     9
100
AcDbLine
 10
-150.0000725978671
 20
-3939.99973721807
 30
0.0
 11
5689.999028370777
 21
-3940.005165429179
 31
0.0
  0
LINE
  5
6E
330
1F
100
AcDbEntity
  8
F-0_補助線
  6
JWW_HOJO
 62
     7
370
     9
100
AcDbLine
 10
-149.9999889439155
 20
-3849.999737218109
 30
0.0
 11
5689.999112024728
 21
-3850.005165429218
 31
0.0
  0
LINE
  5
6F
330
1F
100
AcDbEntity
  8
F-0_補助線
  6
JWW_HOJO
 62
     7
370
     9
100
AcDbLine
 10
2779.998729808911
 20
-3795.000003092998
 30
0.0
 11
2779.998729808911
 21
-4195.000008247994
 31
0.0
  0
LINE
  5
70
330
1F
100
AcDbEntity
  8
F-0_補助線
  6
JWW_HOJO
 62
     7
370
     9
100
AcDbLine
 10
-60.0001237199109
 20
-3795.000003092998
 30
0.0
 11
-60.0001237199109
 21
-4195.000008247994
 31
0.0
  0
LINE
  5
71
330
1F
100
AcDbEntity
  8
F-0_補助線
  6
JWW_HOJO
 62
     7
370
     9
100
AcDbLine
 10
4279.999224688556
 20
-3795.000003092998
 30
0.0
 11
4279.999224688556
 21
-4195.000008247994
 31
0.0
  0
LINE
  5
72
330
1F
100
AcDbEntity
  8
F-0_補助線
  6
JWW_HOJO
 62
     7
370
     9
100
AcDbLine
 10
-5247.547376752838
 20
-3795.000003092999
 30
0.0
 11
-5247.547376752838
 21
-4205.000164959882
 31
0.0
  0
LINE
  5
73
330
1F
100
AcDbEntity
  8
F-0_補助線
  6
JWW_HOJO
 62
     7
370
     9
100
AcDbLine
 10
-210.0001237199109
 20
-3795.000003092998
 30
0.0
 11
-210.0001237199109
 21
-4195.000008247994
 31
0.0
  0
LINE
  5
74
330
1F
100
AcDbEntity
  8
0-0_補助線
  6
JWW_HOJO
 62
     7
370
     9
100
AcDbLine
 10
-5490.000018557986
 20
-2701.250083820241
 30
0.0
 11
5699.998762800888
 21
-2701.250083820241
 31
0.0
  0
LINE
  5
75
330
1F
100
AcDbEntity
  8
0-0_補助線
  6
JWW_HOJO
 62
   120
370
     5
100
AcDbLine
 10
-5490.000018557986
 20
-2751.250083820241
 30
0.0
 11
5699.998762800888
 21
-2751.250083820241
 31
0.0
  0
LINE
  5
76
330
1F
100
AcDbEntity
  8
0-0_補助線
  6
JWW_HOJO
 62
     7
370
     9
100
AcDbLine
 10
-5490.000018557986
 20
-2951.250083820241
 30
0.0
 11
5699.998762800888
 21
-2951.250083820241
 31
0.0
  0
LINE
  5
77
330
1F
100
AcDbEntity
  8
F-1_枠
  6
Continuous
 62
   200
370
    20
100
AcDbLine
 10
5699.998762800888
 20
-3795.000003092998
 30
0.0
 11
-5999.99998453501
 21
-3795.000003092998
 31
0.0
  0
LINE
  5
78
330
1F
100
AcDbEntity
  8
F-1_枠
  6
Continuous
 62
   200
370
    20
100
AcDbLine
 10
-5999.99998453501
 20
3964.999818544131
 30
0.0
 11
5699.998762800888
 21
3964.999818544131
 31
0.0
  0
LINE
  5
79
330
1F
100
AcDbEntity
  8
F-1_枠
  6
Continuous
 62
   200
370
    20
100
AcDbLine
 10
5699.998762800888
 20
-3790.000017526987
 30
0.0
 11
-5999.99998453501
 21
-3790.000017526987
 31
0.0
  0
LINE
  5
7A
330
1F
100
AcDbEntity
  8
F-1_枠
  6
Continuous
 62
   200
370
    20
100
AcDbLine
 10
-5999.99998453501
 20
190.5001831054688
 30
0.0
 11
5699.998762800888
 21
190.5001831054688
 31
0.0
  0
LINE
  5
7B
330
1F
100
AcDbEntity
  8
F-1_枠
  6
Continuous
 62
   200
370
    20
100
AcDbLine
 10
-5999.99998453501
 20
-15.50015011349217
 30
0.0
 11
5699.998762800888
 21
-15.50015011349217
 31
0.0
  0
LINE
  5
7C
330
1F
100
AcDbEntity
  8
F-1_枠
  6
Continuous
 62
   200
370
    20
100
AcDbLine
 10
-5999.99998453501
 20
184.5000148463899
 30
0.0
 11
5699.998762800888
 21
184.5000148463899
 31
0.0
  0
LINE
  5
7D
330
1F
100
AcDbEntity
  8
F-1_枠
  6
Continuous
 62
   200
370
    20
100
AcDbLine
 10
-5999.99998453501
 20
187.5000989759289
 30
0.0
 11
5699.998762800888
 21
187.5000989759289
 31
0.0
  0
LINE
  5
7E
330
1F
100
AcDbEntity
  8
F-1_枠
  6
Continuous
 62
   200
370
    20
100
AcDbLine
 10
1204.8000851193
 20
4174.999769056166
 30
0.0
 11
1204.8000851193
 21
-3790.000179909372
 31
0.0
  0
LINE
  5
7F
330
1F
100
AcDbEntity
  8
F-1_枠
  6
Continuous
 62
   200
370
    20
100
AcDbLine
 10
-1026.799671069995
 20
4174.999769056166
 30
0.0
 11
-1026.799671069995
 21
-3790.000179909372
 31
0.0
  0
LINE
  5
80
330
1F
100
AcDbEntity
  8
F-1_枠
  6
Continuous
 62
   200
370
    20
100
AcDbLine
 10
3436.400212468328
 20
4174.999769056166
 30
0.0
 11
3436.400212468328
 21
-3790.000179909372
 31
0.0
  0
LINE
  5
81
330
1F
100
AcDbEntity
  8
F-1_枠
  6
Continuous
 62
   200
370
    20
100
AcDbLine
 10
-3258.399798419025
 20
4174.999769056166
 30
0.0
 11
-3258.399798419025
 21
-3790.000179909372
 31
0.0
  0
LINE
  5
82
330
1F
100
AcDbEntity
  8
0-0_補助線
  6
JWW_HOJO
 62
     7
370
     9
100
AcDbLine
 10
-4697.399798419023
 20
3964.999818544131
 30
0.0
 11
-4697.399798419023
 21
-3790.000179909372
 31
0.0
  0
LINE
  5
83
330
1F
100
AcDbEntity
  8
0-0_補助線
  6
JWW_HOJO
 62
   120
370
     5
100
AcDbLine
 10
-4747.399798419023
 20
3964.999818544131
 30
0.0
 11
-4747.399798419023
 21
-3790.000179909372
 31
0.0
  0
LINE
  5
84
330
1F
100
AcDbEntity
  8
0-0_補助線
  6
JWW_HOJO
 62
     7
370
     9
100
AcDbLine
 10
-2465.799671069994
 20
3964.999818544131
 30
0.0
 11
-2465.799671069994
 21
-3790.000179909372
 31
0.0
  0
LINE
  5
85
330
1F
100
AcDbEntity
  8
0-0_補助線
  6
JWW_HOJO
 62
   120
370
     5
100
AcDbLine
 10
-2515.799671069995
 20
3964.999818544131
 30
0.0
 11
-2515.799671069995
 21
-3790.000179909372
 31
0.0
  0
LINE
  5
86
330
1F
100
AcDbEntity
  8
0-0_補助線
  6
JWW_HOJO
 62
     7
370
     9
100
AcDbLine
 10
-234.1999148807008
 20
3964.999818544131
 30
0.0
 11
-234.1999148807008
 21
-3790.000179909372
 31
0.0
  0
LINE
  5
87
330
1F
100
AcDbEntity
  8
0-0_補助線
  6
JWW_HOJO
 62
   120
370
     5
100
AcDbLine
 10
-284.1999148807014
 20
3964.999818544131
 30
0.0
 11
-284.1999148807014
 21
-3790.000179909372
 31
0.0
  0
LINE
  5
88
330
1F
100
AcDbEntity
  8
0-0_補助線
  6
JWW_HOJO
 62
     7
370
     9
100
AcDbLine
 10
1997.400212468327
 20
3964.999818544131
 30
0.0
 11
1997.400212468327
 21
-3790.000179909372
 31
0.0
  0
LINE
  5
89
330
1F
100
AcDbEntity
  8
0-0_補助線
  6
JWW_HOJO
 62
   120
370
     5
100
AcDbLine
 10
1947.400212468327
 20
3964.999818544131
 30
0.0
 11
1947.400212468327
 21
-3790.000179909372
 31
0.0
  0
LINE
  5
8A
330
1F
100
AcDbEntity
  8
0-0_補助線
  6
JWW_HOJO
 62
     7
370
     9
100
AcDbLine
 10
4229.000339817359
 20
3964.999818544131
 30
0.0
 11
4229.000339817359
 21
-3790.000179909372
 31
0.0
  0
LINE
  5
8B
330
1F
100
AcDbEntity
  8
0-0_補助線
  6
JWW_HOJO
 62
   120
370
     5
100
AcDbLine
 10
4179.000339817359
 20
3964.999818544131
 30
0.0
 11
4179.000339817359
 21
-3790.000179909372
 31
0.0
  0
LINE
  5
8C
330
1F
100
AcDbEntity
  8
F-A_文字
  6
Continuous
 62
     7
370
     9
100
AcDbLine
 10
3436.400212468328
 20
-3790.000017526987
 30
0.0
 11
5689.998977248734
 21
184.5000148463899
 31
0.0
  0
LINE
  5
8D
330
1F
100
AcDbEntity
  8
F-A_文字
  6
Continuous
 62
     7
370
     9
100
AcDbLine
 10
1204.799992329369
 20
-3790.000017526987
 30
0.0
 11
3436.400212468328
 21
184.5000148463899
 31
0.0
  0
LINE
  5
8E
330
1F
100
AcDbEntity
  8
F-A_文字
  6
Continuous
 62
     7
370
     9
100
AcDbLine
 10
-1026.800135019659
 20
-3790.000017526987
 30
0.0
 11
1204.8000851193
 21
184.5000148463899
 31
0.0
  0
LINE
  5
8F
330
1F
100
AcDbEntity
  8
F-A_文字
  6
Continuous
 62
     7
370
     9
100
AcDbLine
 10
-3258.399891208955
 20
-3790.000017526987
 30
0.0
 11
-1026.799671069995
 21
184.5000148463899
 31
0.0
  0
LINE
  5
90
330
1F
100
AcDbEntity
  8
F-A_文字
  6
Continuous
 62
     7
370
     9
100
AcDbLine
 10
-5490.000018557984
 20
-3790.000017526987
 30
0.0
 11
-3258.399798419025
 21
184.5000148463899
 31
0.0
  0
LINE
  5
91
330
1F
100
AcDbEntity
  8
0-0_補助線
  6
JWW_HOJO
 62
   120
370
     5
100
AcDbLine
 10
-5999.99998453501
 20
550.5001831054688
 30
0.0
 11
5699.998762800888
 21
550.5001831054688
 31
0.0
  0
LINE
  5
92
330
1F
100
AcDbEntity
  8
0-0_補助線
  6
JWW_HOJO
 62
   120
370
     5
100
AcDbLine
 10
-5999.99998453501
 20
430.5001831054688
 30
0.0
 11
5699.998762800888
 21
430.5001831054688
 31
0.0
  0
LINE
  5
93
330
1F
100
AcDbEntity
  8
0-0_補助線
  6
JWW_HOJO
 62
   120
370
     5
100
AcDbLine
 10
-5999.99998453501
 20
310.5001831054688
 30
0.0
 11
5699.998762800888
 21
310.5001831054688
 31
0.0
  0
LINE
  5
94
330
1F
100
AcDbEntity
  8
0-0_補助線
  6
JWW_HOJO
 62
   120
370
     5
100
AcDbLine
 10
-906.7996710699953
 20
4174.999769056166
 30
0.0
 11
-906.7996710699953
 21
-3790.000179909371
 31
0.0
  0
LINE
  5
95
330
1F
100
AcDbEntity
  8
0-0_補助線
  6
JWW_HOJO
 62
   120
370
     5
100
AcDbLine
 10
1324.8000851193
 20
4174.999769056166
 30
0.0
 11
1324.8000851193
 21
-3790.000179909371
 31
0.0
  0
LINE
  5
96
330
1F
100
AcDbEntity
  8
0-0_補助線
  6
JWW_HOJO
 62
   120
370
     5
100
AcDbLine
 10
3556.400212468328
 20
4174.999769056166
 30
0.0
 11
3556.400212468328
 21
-3790.000179909371
 31
0.0
  0
LINE
  5
97
330
1F
100
AcDbEntity
  8
0-0_補助線
  6
JWW_HOJO
 62
   120
370
     5
100
AcDbLine
 10
5699.998762800888
 20
-3430.000017526988
 30
0.0
 11
-5999.99998453501
 21
-3430.000017526988
 31
0.0
  0
LINE
  5
98
330
1F
100
AcDbEntity
  8
0-0_補助線
  6
JWW_HOJO
 62
   120
370
     5
100
AcDbLine
 10
5699.998762800888
 20
-3550.000017526988
 30
0.0
 11
-5999.99998453501
 21
-3550.000017526988
 31
0.0
  0
LINE
  5
99
330
1F
100
AcDbEntity
  8
0-0_補助線
  6
JWW_HOJO
 62
   120
370
     5
100
AcDbLine
 10
5699.998762800888
 20
-3670.000017526988
 30
0.0
 11
-5999.99998453501
 21
-3670.000017526988
 31
0.0
  0
LINE
  5
9A
330
1F
100
AcDbEntity
  8
0-0_補助線
  6
JWW_HOJO
 62
   120
370
     5
100
AcDbLine
 10
-3138.399798419025
 20
4174.999769056166
 30
0.0
 11
-3138.399798419025
 21
-3790.000179909371
 31
0.0
  0
LINE
  5
9B
330
1F
100
AcDbEntity
  8
0-0_補助線
  6
JWW_HOJO
 62
   120
370
     5
100
AcDbLine
 10
-5370.000018557986
 20
4174.999769056166
 30
0.0
 11
-5370.000018557986
 21
-3790.000179909371
 31
0.0
  0
LINE
  5
9C
330
1F
100
AcDbEntity
  8
0-0_補助線
  6
JWW_HOJO
 62
     7
370
     9
100
AcDbLine
 10
-5490.000018557986
 20
1279.249884837382
 30
0.0
 11
5699.998762800888
 21
1279.249884837382
 31
0.0
  0
LINE
  5
9D
330
1F
100
AcDbEntity
  8
0-0_補助線
  6
JWW_HOJO
 62
   120
370
     5
100
AcDbLine
 10
-5490.000018557986
 20
1229.249884837383
 30
0.0
 11
5699.998762800888
 21
1229.249884837383
 31
0.0
  0
LINE
  5
9E
330
1F
100
AcDbEntity
  8
0-0_補助線
  6
JWW_HOJO
 62
     7
370
     9
100
AcDbLine
 10
-5490.000018557986
 20
1029.249884837382
 30
0.0
 11
5699.998762800888
 21
1029.249884837382
 31
0.0
  0
MTEXT
  5
9F
330
1F
100
AcDbEntity
  8
F-A_文字
  6
Continuous
 62
     7
370
     9
100
AcDbMText
 10
-5890.000004381747
 20
4018.575148463894
 30
0.0
 40
57.15
 41
300.0
 46
0.0
 71
     7
 72
     1
  1
{\fＭＳ ゴシック|b0|i0|c128|p49;デザイン}
 73
     1
 44
1.0
  0
MTEXT
  5
A0
330
1F
100
AcDbEntity
  8
F-A_文字
  6
Continuous
 62
     7
370
     9
100
AcDbMText
 10
-5852.500004381747
 20
2031.325062684755
 30
0.0
 40
57.15
 41
225.0
 46
0.0
 71
     7
 72
     1
  1
{\fＭＳ ゴシック|b0|i0|c128|p49;姿　図}
 73
     1
 44
1.0
  0
MTEXT
  5
A1
330
1F
100
AcDbEntity
  8
F-A_文字
  6
Continuous
 62
     7
370
     9
100
AcDbMText
 10
-5890.000004381747
 20
38.07493236644844
 30
0.0
 40
57.15
 41
300.0
 46
0.0
 71
     7
 72
     1
  1
{\fＭＳ ゴシック|b0|i0|c128|p49;デザイン}
 73
     1
 44
1.0
  0
MTEXT
  5
A2
330
1F
100
AcDbEntity
  8
F-A_文字
  6
Continuous
 62
     7
370
     9
100
AcDbMText
 10
-5852.500004381747
 20
-1949.175091552734
 30
0.0
 40
57.15
 41
225.0
 46
0.0
 71
     7
 72
     1
  1
{\fＭＳ ゴシック|b0|i0|c128|p49;姿　図}
 73
     1
 44
1.0
  0
MTEXT
  5
A3
330
1F
100
AcDbEntity
  8
F-A_文字
  6
Continuous
 62
     7
370
     0
100
AcDbMText
 10
-60.0001237199109
 20
-3887.139820871936
 30
0.0
 40
45.72
 41
180.0
 46
0.0
 71
     7
 72
     1
  1
{\fＭＳ ゴシック|b0|i0|c128|p49;図面名}
 73
     1
 44
1.0
  0
MTEXT
  5
A4
330
1F
100
AcDbEntity
  8
F-A_文字
  6
Continuous
 62
     7
370
     0
100
AcDbMText
 10
2779.998729808911
 20
-3887.142460617774
 30
0.0
 40
45.72
 41
300.0
 46
0.0
 71
     7
 72
     1
  1
{\fＭＳ ゴシック|b0|i0|c128|p49;ＳＣＡＬＥ}
 73
     1
 44
1.0
  0
MTEXT
  5
A5
330
1F
100
AcDbEntity
  8
F-A_文字
  6
Continuous
 62
     7
370
     0
100
AcDbMText
 10
4279.999224688556
 20
-3887.143854850754
 30
0.0
 40
45.72
 41
240.0
 46
0.0
 71
     7
 72
     1
  1
{\fＭＳ ゴシック|b0|i0|c128|p49;ＤＡＴＥ}
 73
     1
 44
1.0
  0
MTEXT
  5
A6
330
1F
100
AcDbEntity
  8
F-A_文字
  6
Continuous
 62
     7
370
     0
100
AcDbMText
 10
1180.417701903719
 20
-3946.423911599839
 30
0.0
 40
77.15249999999999
 41
405.0
 46
0.0
 71
     7
 72
     1
  1
{\fＭＳ ゴシック|b0|i0|c128|p49;建具姿図}
 73
     1
 44
1.0
  0
MTEXT
  5
A7
330
1F
100
AcDbEntity
  8
F-A_文字
  6
Continuous
 62
     7
370
     0
100
AcDbMText
 10
3383.748977248734
 20
-3946.426865907308
 30
0.0
 40
77.15249999999999
 41
202.5
 46
0.0
 71
     7
 72
     1
  1
{\fＭＳ ゴシック|b0|i0|c128|p49;1/30}
 73
     1
 44
1.0
  0
MTEXT
  5
A8
330
1F
100
AcDbEntity
  8
F-A_文字
  6
Continuous
 62
     7
370
     0
100
AcDbMText
 10
2779.998729808911
 20
-4087.14246317786
 30
0.0
 40
45.72
 41
240.0
 46
0.0
 71
     7
 72
     1
  1
{\fＭＳ ゴシック|b0|i0|c128|p49;ＦＩＬＥ}
 73
     1
 44
1.0
  0
MTEXT
  5
A9
330
1F
100
AcDbEntity
  8
F-A_文字
  6
Continuous
 62
     7
370
     0
100
AcDbMText
 10
4279.999224688556
 20
-4087.143857410839
 30
0.0
 40
45.72
 41
180.0
 46
0.0
 71
     7
 72
     1
  1
{\fＭＳ ゴシック|b0|i0|c128|p49;ＮＯ．}
 73
     1
 44
1.0
  0
MTEXT
  5
AA
330
1F
100
AcDbEntity
  8
F-A_文字
  6
Continuous
 62
     7
370
     0
100
AcDbMText
 10
1234.998729808911
 20
-4096.140669266149
 30
0.0
 40
45.72
 41
120.0
 46
0.0
 71
     7
 72
     1
  1
{\fＭＳ ゴシック|b0|i0|c128|p49;株式}
 73
     1
 44
1.0
  0
MTEXT
  5
AB
330
1F
100
AcDbEntity
  8
F-A_文字
  6
Continuous
 62
     7
370
     9
100
AcDbMText
 10
4936.249033580831
 20
-4147.857012699985
 30
0.0
 40
74.295
 41
97.5
 46
0.0
 71
     7
 72
     1
  1
{\fＭＳ ゴシック|b0|i0|c128|p49;01}
 73
     1
 44
1.0
  0
MTEXT
  5
AC
330
1F
100
AcDbEntity
  8
F-A_文字
  6
Continuous
 62
     7
370
     0
100
AcDbMText
 10
1444.998729808911
 20
-4164.281754523929
 30
0.0
 40
101.44125
 41
1065.0
 46
0.0
 71
     7
 72
     1
  1
{\fＭＳ ゴシック|b0|i0|c128|p49;ウッドワン・・・}
 73
     1
 44
1.0
  0
MTEXT
  5
AD
330
1F
100
AcDbEntity
  8
F-A_文字
  6
Continuous
 62
     7
370
     0
100
AcDbMText
 10
1234.998729808911
 20
-4168.140669266187
 30
0.0
 40
45.72
 41
120.0
 46
0.0
 71
     7
 72
     1
  1
{\fＭＳ ゴシック|b0|i0|c128|p49;会社}
 73
     1
 44
1.0
  0
MTEXT
  5
AE
330
1F
100
AcDbEntity
  8
F-A_文字
  6
Continuous
 62
     7
370
     0
100
AcDbMText
 10
5608.403311109712
 20
-4314.841419020919
 30
0.0
 40
68.58
 41
90.0
 46
0.0
 71
     7
 72
     1
  1
{\fＭＳ ゴシック|b0|i0|c128|p49;）}
 73
     1
 44
1.0
  0
MTEXT
  5
AF
330
1F
100
AcDbEntity
  8
F-A_文字
  6
Continuous
 62
     7
370
     0
100
AcDbMText
 10
5190.195950842071
 20
-4316.235443869856
 30
0.0
 40
68.58
 41
45.0
 46
0.0
 71
     7
 72
     1
  1
{\fＭＳ ゴシック|b0|i0|c128|p49;,}
 73
     1
 44
1.0
  0
MTEXT
  5
B0
330
1F
100
AcDbEntity
  8
F-A_文字
  6
Continuous
 62
     7
370
     0
100
AcDbMText
 10
4923.937261915373
 20
-4314.771967288282
 30
0.0
 40
74.295
 41
97.5
 46
0.0
 71
     7
 72
     1
  1
{\fＭＳ ゴシック|b0|i0|c128|p49;$y}
 73
     1
 44
1.0
  0
MTEXT
  5
B1
330
1F
100
AcDbEntity
  8
F-A_文字
  6
Continuous
 62
     7
370
     0
100
AcDbMText
 10
5078.673982954195
 20
-4314.771967288282
 30
0.0
 40
74.295
 41
97.5
 46
0.0
 71
     7
 72
     1
  1
{\fＭＳ ゴシック|b0|i0|c128|p49;$m}
 73
     1
 44
1.0
  0
MTEXT
  5
B2
330
1F
100
AcDbEntity
  8
F-A_文字
  6
Continuous
 62
     7
370
     0
100
AcDbMText
 10
5233.410715437103
 20
-4314.771967288282
 30
0.0
 40
74.295
 41
97.5
 46
0.0
 71
     7
 72
     1
  1
{\fＭＳ ゴシック|b0|i0|c128|p49;$d}
 73
     1
 44
1.0
  0
MTEXT
  5
B3
330
1F
100
AcDbEntity
  8
F-A_文字
  6
Continuous
 62
     7
370
     0
100
AcDbMText
 10
5388.147447920011
 20
-4314.771967288282
 30
0.0
 40
74.295
 41
195.0
 46
0.0
 71
     7
 72
     1
  1
{\fＭＳ ゴシック|b0|i0|c128|p49;印刷}
 73
     1
 44
1.0
  0
MTEXT
  5
B4
330
1F
100
AcDbEntity
  8
F-A_文字
  6
Continuous
 62
     7
370
     0
100
AcDbMText
 10
4784.033374252999
 20
-4319.023493567732
 30
0.0
 40
68.58
 41
90.0
 46
0.0
 71
     7
 72
     1
  1
{\fＭＳ ゴシック|b0|i0|c128|p49;（}
 73
     1
 44
1.0
  0
MTEXT
  5
B5
330
1F
100
AcDbEntity
  8
F-A_文字
  6
Continuous
 62
     7
370
     0
100
AcDbMText
 10
5031.277143812345
 20
-4319.023493567732
 30
0.0
 40
68.58
 41
45.0
 46
0.0
 71
     7
 72
     1
  1
{\fＭＳ ゴシック|b0|i0|c128|p49;,}
 73
     1
 44
1.0
  0
MTEXT
  5
B6
330
1F
100
AcDbEntity
  8
F-A_文字
  6
Continuous
 62
     7
370
     0
100
AcDbMText
 10
4726.249126529666
 20
-3938.071010139966
 30
0.0
 40
78.86699999999999
 41
517.5
 46
0.0
 71
     7
 72
     1
  1
{\fＭＳ ゴシック|b0|i0|c128|p49;2021.04.01}
 73
     1
 44
1.0
  0
LINE
  5
B7
330
1F
100
AcDbEntity
  8
F-0_補助線
  6
JWW_HOJO
 62
   200
370
    20
100
AcDbLine
 10
-5999.99998453501
 20
84.49993236644843
 30
0.0
 11
5689.998977248734
 21
84.49993236644843
 31
0.0
  0
LINE
  5
B8
330
1F
100
AcDbEntity
  8
0-0_補助線
  6
JWW_HOJO
 62
     7
370
     9
100
AcDbLine
 10
-5490.000018557986
 20
3679.249884837382
 30
0.0
 11
5699.998762800888
 21
3679.249884837382
 31
0.0
  0
LINE
  5
B9
330
1F
100
AcDbEntity
  8
0-0_補助線
  6
JWW_HOJO
 62
   120
370
     5
100
AcDbLine
 10
-5999.99998453501
 20
790.5001831054688
 30
0.0
 11
5699.998762800888
 21
790.5001831054688
 31
0.0
  0
LINE
  5
BA
330
1F
100
AcDbEntity
  8
0-0_補助線
  6
JWW_HOJO
 62
   120
370
     5
100
AcDbLine
 10
-5999.99998453501
 20
670.5001831054688
 30
0.0
 11
5699.998762800888
 21
670.5001831054688
 31
0.0
  0
LINE
  5
BB
330
1F
100
AcDbEntity
  8
0-0_補助線
  6
JWW_HOJO
 62
   120
370
     5
100
AcDbLine
 10
5699.998762800888
 20
-3190.000017526988
 30
0.0
 11
-5999.99998453501
 21
-3190.000017526988
 31
0.0
  0
LINE
  5
BC
330
1F
100
AcDbEntity
  8
0-0_補助線
  6
JWW_HOJO
 62
   120
370
     5
100
AcDbLine
 10
5699.998762800888
 20
-3310.000017526988
 30
0.0
 11
-5999.99998453501
 21
-3310.000017526988
 31
0.0
  0
LINE
  5
BD
330
1F
100
AcDbEntity
  8
0-4_枠
  6
Continuous
 62
    92
370
    13
100
AcDbLine
 10
-234.1999148806974
 20
1279.249884837382
 30
0.0
 11
523.8000851193004
 21
1279.249884837382
 31
0.0
  0
LWPOLYLINE
  5
BE
330
1F
100
AcDbEntity
  8
0-B_寸法
  6
Continuous
 62
     7
370
     9
100
AcDbPolyline
 90
        4
 70
     1
 43
3.0
 10
499.3000851193002
 20
1029.249884837383
 42
0.4142135623731
 10
497.8000851193002
 20
1030.749884837383
 42
0.4142135623731
 10
496.3000851193002
 20
1029.249884837383
 42
0.4142135623731
 10
497.8000851193002
 20
1027.749884837383
 42
0.4142135623731
  0
LWPOLYLINE
  5
BF
330
1F
100
AcDbEntity
  8
0-B_寸法
  6
Continuous
 62
     7
370
     9
100
AcDbPolyline
 90
        4
 70
     1
 43
3.0
 10
-203.6999148806982
 20
1029.249884837383
 42
0.4142135623731
 10
-205.1999148806982
 20
1030.749884837383
 42
0.4142135623731
 10
-206.6999148806982
 20
1029.249884837383
 42
0.4142135623731
 10
-205.1999148806982
 20
1027.749884837383
 42
0.4142135623731
  0
LINE
  5
C0
330
1F
100
AcDbEntity
  8
0-B_寸法
  6
Continuous
 62
   120
370
     5
100
AcDbLine
 10
497.8000851193002
 20
1029.249884837383
 30
0.0
 11
497.8000851193002
 21
1229.249884837383
 31
0.0
  0
LINE
  5
C1
330
1F
100
AcDbEntity
  8
0-B_寸法
  6
Continuous
 62
   120
370
     5
100
AcDbLine
 10
-205.1999148806982
 20
1029.249884837383
 30
0.0
 11
497.8000851193002
 21
1029.249884837383
 31
0.0
  0
LINE
  5
C2
330
1F
100
AcDbEntity
  8
0-B_寸法
  6
Continuous
 62
   120
370
     5
100
AcDbLine
 10
-205.1999148806982
 20
1029.249884837383
 30
0.0
 11
-205.1999148806982
 21
1229.249884837383
 31
0.0
  0
LINE
  5
C3
330
1F
100
AcDbEntity
  8
0-4_枠
  6
Continuous
 62
    92
370
    13
100
AcDbLine
 10
-234.1999148806974
 20
1279.249884837382
 30
0.0
 11
-234.1999148806974
 21
3679.249884837382
 31
0.0
  0
LINE
  5
C4
330
1F
100
AcDbEntity
  8
0-4_枠
  6
Continuous
 62
    92
370
    13
100
AcDbLine
 10
-210.1999148806988
 20
1279.249884837382
 30
0.0
 11
-210.1999148806988
 21
3679.249884837382
 31
0.0
  0
LINE
  5
C5
330
1F
100
AcDbEntity
  8
0-4_枠
  6
Continuous
 62
    92
370
    13
100
AcDbLine
 10
499.8000851193001
 20
1279.249884837382
 30
0.0
 11
499.8000851193001
 21
3679.249884837382
 31
0.0
  0
LWPOLYLINE
  5
C6
330
1F
100
AcDbEntity
  8
0-B_寸法
  6
Continuous
 62
     7
370
     9
100
AcDbPolyline
 90
        4
 70
     1
 43
3.0
 10
-532.6999148806974
 20
3669.249884837381
 42
0.4142135623731
 10
-534.1999148806974
 20
3670.749884837381
 42
0.4142135623731
 10
-535.6999148806974
 20
3669.249884837381
 42
0.4142135623731
 10
-534.1999148806974
 20
3667.749884837381
 42
0.4142135623731
  0
LINE
  5
C7
330
1F
100
AcDbEntity
  8
0-B_寸法
  6
Continuous
 62
   120
370
     5
100
AcDbLine
 10
-534.1999148806974
 20
3669.249884837381
 30
0.0
 11
-284.1999148806997
 21
3669.249884837381
 31
0.0
  0
LINE
  5
C8
330
1F
100
AcDbEntity
  8
0-4_枠
  6
Continuous
 62
    92
370
    13
100
AcDbLine
 10
523.8000851193004
 20
1279.249884837382
 30
0.0
 11
523.8000851193004
 21
3679.249884837382
 31
0.0
  0
LINE
  5
C9
330
1F
100
AcDbEntity
  8
0-4_枠
  6
Continuous
 62
    92
370
    13
100
AcDbLine
 10
-234.1999148806974
 20
3679.249884837382
 30
0.0
 11
523.8000851193004
 21
3679.249884837382
 31
0.0
  0
LWPOLYLINE
  5
CA
330
1F
100
AcDbEntity
  8
0-B_寸法
  6
Continuous
 62
     7
370
     9
100
AcDbPolyline
 90
        4
 70
     1
 43
3.0
 10
-532.6999148806974
 20
1292.249884837382
 42
0.4142135623731
 10
-534.1999148806974
 20
1293.749884837382
 42
0.4142135623731
 10
-535.6999148806974
 20
1292.249884837382
 42
0.4142135623731
 10
-534.1999148806974
 20
1290.749884837382
 42
0.4142135623731
  0
LINE
  5
CB
330
1F
100
AcDbEntity
  8
0-B_寸法
  6
Continuous
 62
   120
370
     5
100
AcDbLine
 10
-534.1999148806974
 20
1292.249884837382
 30
0.0
 11
-284.1999148806997
 21
1292.249884837382
 31
0.0
  0
LINE
  5
CC
330
1F
100
AcDbEntity
  8
0-B_寸法
  6
Continuous
 62
   120
370
     5
100
AcDbLine
 10
-534.1999148806974
 20
3669.249884837381
 30
0.0
 11
-534.1999148806974
 21
1292.249884837382
 31
0.0
  0
MTEXT
  5
CD
330
1F
100
AcDbEntity
  8
0-B_寸法
  6
Continuous
 62
     7
370
    70
100
AcDbMText
 10
-549.1999148806974
 20
2265.574884837382
 30
0.0
 40
57.14999999999999
 41
412.5
 46
0.0
 71
     7
 72
     1
  1
{\fＭＳ ゴシック|b0|i0|c128|p49;ＤＨ＝2,377}
 11
6.123031769111886E-17
 21
1.0
 31
0.0
 73
     1
 44
1.0
  0
MTEXT
  5
CE
330
1F
100
AcDbEntity
  8
0-B_寸法
  6
Continuous
 62
     7
370
    70
100
AcDbMText
 10
-22.449914880699
 20
1035.324884837383
 30
0.0
 40
57.15
 41
337.5
 46
0.0
 71
     7
 72
     1
  1
{\fＭＳ ゴシック|b0|i0|c128|p49;ＤＷ＝703}
 73
     1
 44
1.0
  0
MTEXT
  5
CF
330
1F
100
AcDbEntity
  8
0-B_寸法
  6
Continuous
 62
     7
370
    70
100
AcDbMText
 10
-2780.799578280062
 20
2265.574884837382
 30
0.0
 40
57.14999999999999
 41
412.5
 46
0.0
 71
     7
 72
     1
  1
{\fＭＳ ゴシック|b0|i0|c128|p49;ＤＨ＝2,377}
 11
6.123031769111886E-17
 21
1.0
 31
0.0
 73
     1
 44
1.0
  0
LWPOLYLINE
  5
D0
330
1F
100
AcDbEntity
  8
0-B_寸法
  6
Continuous
 62
     7
370
     9
100
AcDbPolyline
 90
        4
 70
     1
 43
3.0
 10
-1712.299578280064
 20
1029.249884837383
 42
0.4142135623731
 10
-1713.799578280064
 20
1030.749884837383
 42
0.4142135623731
 10
-1715.299578280064
 20
1029.249884837383
 42
0.4142135623731
 10
-1713.799578280064
 20
1027.749884837383
 42
0.4142135623731
  0
LINE
  5
D1
330
1F
100
AcDbEntity
  8
0-B_寸法
  6
Continuous
 62
   120
370
     5
100
AcDbLine
 10
-1713.799578280064
 20
1029.249884837383
 30
0.0
 11
-1713.799578280064
 21
1229.249884837383
 31
0.0
  0
LINE
  5
D2
330
1F
100
AcDbEntity
  8
0-B_寸法
  6
Continuous
 62
   120
370
     5
100
AcDbLine
 10
-2436.799578280063
 20
1029.249884837383
 30
0.0
 11
-1713.799578280064
 21
1029.249884837383
 31
0.0
  0
LWPOLYLINE
  5
D3
330
1F
100
AcDbEntity
  8
0-B_寸法
  6
Continuous
 62
     7
370
     9
100
AcDbPolyline
 90
        4
 70
     1
 43
3.0
 10
-2435.299578280063
 20
1029.249884837383
 42
0.4142135623731
 10
-2436.799578280063
 20
1030.749884837383
 42
0.4142135623731
 10
-2438.299578280063
 20
1029.249884837383
 42
0.4142135623731
 10
-2436.799578280063
 20
1027.749884837383
 42
0.4142135623731
  0
LINE
  5
D4
330
1F
100
AcDbEntity
  8
0-B_寸法
  6
Continuous
 62
   120
370
     5
100
AcDbLine
 10
-2436.799578280063
 20
1029.249884837383
 30
0.0
 11
-2436.799578280063
 21
1229.249884837383
 31
0.0
  0
LWPOLYLINE
  5
D5
330
1F
100
AcDbEntity
  8
0-B_寸法
  6
Continuous
 62
     7
370
     9
100
AcDbPolyline
 90
        4
 70
     1
 43
3.0
 10
-2764.299578280062
 20
3669.249884837381
 42
0.4142135623731
 10
-2765.799578280062
 20
3670.749884837381
 42
0.4142135623731
 10
-2767.299578280062
 20
3669.249884837381
 42
0.4142135623731
 10
-2765.799578280062
 20
3667.749884837381
 42
0.4142135623731
  0
LINE
  5
D6
330
1F
100
AcDbEntity
  8
0-B_寸法
  6
Continuous
 62
   120
370
     5
100
AcDbLine
 10
-2765.799578280062
 20
3669.249884837381
 30
0.0
 11
-2515.799578280064
 21
3669.249884837381
 31
0.0
  0
MTEXT
  5
D7
330
1F
100
AcDbEntity
  8
0-B_寸法
  6
Continuous
 62
     7
370
    70
100
AcDbMText
 10
-2244.549578280064
 20
1035.324884837383
 30
0.0
 40
57.15
 41
337.5
 46
0.0
 71
     7
 72
     1
  1
{\fＭＳ ゴシック|b0|i0|c128|p49;ＤＷ＝723}
 73
     1
 44
1.0
  0
LWPOLYLINE
  5
D8
330
1F
100
AcDbEntity
  8
0-B_寸法
  6
Continuous
 62
     7
370
     9
100
AcDbPolyline
 90
        4
 70
     1
 43
3.0
 10
-2764.299578280062
 20
1292.249884837382
 42
0.4142135623731
 10
-2765.799578280062
 20
1293.749884837382
 42
0.4142135623731
 10
-2767.299578280062
 20
1292.249884837382
 42
0.4142135623731
 10
-2765.799578280062
 20
1290.749884837382
 42
0.4142135623731
  0
LINE
  5
D9
330
1F
100
AcDbEntity
  8
0-B_寸法
  6
Continuous
 62
   120
370
     5
100
AcDbLine
 10
-2765.799578280062
 20
1292.249884837382
 30
0.0
 11
-2515.799578280064
 21
1292.249884837382
 31
0.0
  0
LINE
  5
DA
330
1F
100
AcDbEntity
  8
0-B_寸法
  6
Continuous
 62
   120
370
     5
100
AcDbLine
 10
-2765.799578280062
 20
3669.249884837381
 30
0.0
 11
-2765.799578280062
 21
1292.249884837382
 31
0.0
  0
LINE
  5
DB
330
1F
100
AcDbEntity
  8
0-7
  6
JWW_CENTER2
 62
     7
370
     9
100
AcDbLine
 10
-2436.799578280063
 20
3669.249884837381
 30
0.0
 11
-1713.799578280064
 21
2480.749884837383
 31
0.0
  0
LINE
  5
DC
330
1F
100
AcDbEntity
  8
0-7
  6
JWW_CENTER2
 62
     7
370
     9
100
AcDbLine
 10
-1713.799578280064
 20
2480.749884837383
 30
0.0
 11
-2436.799578280063
 21
1292.249884837382
 31
0.0
  0
LINE
  5
DD
330
1F
100
AcDbEntity
  8
0-7
  6
JWW_CENTER2
 62
     7
370
     9
100
AcDbLine
 10
-205.1999148806982
 20
3669.249884837381
 30
0.0
 11
497.8000851193002
 21
2480.749884837383
 31
0.0
  0
LINE
  5
DE
330
1F
100
AcDbEntity
  8
0-7
  6
JWW_CENTER2
 62
     7
370
     9
100
AcDbLine
 10
497.8000851193002
 20
2480.749884837383
 30
0.0
 11
-205.1999148806982
 21
1292.249884837382
 31
0.0
  0
LINE
  5
DF
330
1F
100
AcDbEntity
  8
0-4_枠
  6
Continuous
 62
    92
370
    13
100
AcDbLine
 10
-2441.799578280063
 20
1279.249884837382
 30
0.0
 11
-2441.799578280063
 21
3679.249884837382
 31
0.0
  0
LINE
  5
E0
330
1F
100
AcDbEntity
  8
0-4_枠
  6
Continuous
 62
    92
370
    13
100
AcDbLine
 10
-2465.799578280062
 20
1279.249884837382
 30
0.0
 11
-2465.799578280062
 21
3679.249884837382
 31
0.0
  0
LINE
  5
E1
330
1F
100
AcDbEntity
  8
0-4_枠
  6
Continuous
 62
    92
370
    13
100
AcDbLine
 10
-2465.799578280062
 20
3679.249884837382
 30
0.0
 11
-1687.799578280063
 21
3679.249884837382
 31
0.0
  0
LINE
  5
E2
330
1F
100
AcDbEntity
  8
0-4_枠
  6
Continuous
 62
    92
370
    13
100
AcDbLine
 10
-1711.799578280062
 20
1279.249884837382
 30
0.0
 11
-1711.799578280062
 21
3679.249884837382
 31
0.0
  0
LINE
  5
E3
330
1F
100
AcDbEntity
  8
0-4_枠
  6
Continuous
 62
    92
370
    13
100
AcDbLine
 10
-1687.799578280063
 20
1279.249884837382
 30
0.0
 11
-1687.799578280063
 21
3679.249884837382
 31
0.0
  0
LINE
  5
E4
330
1F
100
AcDbEntity
  8
0-4_枠
  6
Continuous
 62
    92
370
    13
100
AcDbLine
 10
-2465.799578280062
 20
1279.249884837382
 30
0.0
 11
-1687.799578280063
 21
1279.249884837382
 31
0.0
  0
MTEXT
  5
E5
330
1F
100
AcDbEntity
  8
0-A_文字
  6
Continuous
 62
     7
370
     9
100
AcDbMText
 10
-3138.399798419025
 20
541.5751831054688
 30
0.0
 40
57.15
 41
600.0
 46
0.0
 71
     7
 72
     1
  1
{\fＭＳ ゴシック|b0|i0|c128|p49;乳半合わせガラス}
 73
     1
 44
1.0
  0
MTEXT
  5
E6
330
1F
100
AcDbEntity
  8
0-A_文字
  6
Continuous
 62
     7
370
     9
100
AcDbMText
 10
-906.7995782800642
 20
541.5751831054688
 30
0.0
 40
57.15
 41
600.0
 46
0.0
 71
     7
 72
     1
  1
{\fＭＳ ゴシック|b0|i0|c128|p49;乳半合わせガラス}
 73
     1
 44
1.0
  0
MTEXT
  5
E7
330
1F
100
AcDbEntity
  8
0-A_文字
  6
Continuous
 62
     7
370
     9
100
AcDbMText
 10
-3138.399798419025
 20
661.5751831054681
 30
0.0
 40
57.15000000000001
 41
900.0
 46
0.0
 71
     7
 72
     1
  1
{\fＭＳ ゴシック|b0|i0|c128|p49;枠外幅 778mm（DW=723mm）}
 73
     1
 44
1.0
  0
MTEXT
  5
E8
330
1F
100
AcDbEntity
  8
0-A_文字
  6
Continuous
 62
     7
370
     9
100
AcDbMText
 10
-906.7995782800642
 20
661.5751831054681
 30
0.0
 40
57.15000000000001
 41
900.0
 46
0.0
 71
     7
 72
     1
  1
{\fＭＳ ゴシック|b0|i0|c128|p49;枠外幅 758mm（DW=703mm）}
 73
     1
 44
1.0
  0
MTEXT
  5
E9
330
1F
100
AcDbEntity
  8
F-A_文字
  6
Continuous
 62
     7
370
     0
100
AcDbMText
 10
-5231.428571428571
 20
-4045.199043221248
 30
0.0
 40
79.60178571428573
 41
2925.0
 46
0.0
 71
     7
 72
     1
  1
{\fＭＳ ゴシック|b0|i0|c128|p49;ピノアース　天井ジャストシリーズ　シングルドア　Ｎ－ＦＭ}
 73
     1
 44
1.0
  0
MTEXT
  5
EA
330
1F
100
AcDbEntity
  8
F-A_文字
  6
Continuous
 62
     7
370
     0
100
AcDbMText
 10
349.9999175200594
 20
-3946.417291872503
 30
0.0
 40
78.74000000000001
 41
465.0
 46
0.0
 71
     7
 72
     1
  1
{\fＭＳ ゴシック|b0|i0|c128|p49;PINOEARTH}
 73
     1
 44
1.0
  0
MTEXT
  5
EB
330
1F
100
AcDbEntity
  8
0-A_文字
  6
Continuous
 62
     7
370
     9
100
AcDbMText
 10
-2345.099734744509
 20
4013.576151024072
 30
0.0
 40
77.15249999999999
 41
405.0
 46
0.0
 71
     7
 72
     1
  1
{\fＭＳ ゴシック|b0|i0|c128|p49;Ｎ－ＦＭ}
 73
     1
 44
1.0
  0
MTEXT
  5
EC
330
1F
100
AcDbEntity
  8
0-A_文字
  6
Continuous
 62
     7
370
     9
100
AcDbMText
 10
-113.4995146055485
 20
4013.576151024072
 30
0.0
 40
77.15249999999999
 41
405.0
 46
0.0
 71
     7
 72
     1
  1
{\fＭＳ ゴシック|b0|i0|c128|p49;Ｎ－ＦＭ}
 73
     1
 44
1.0
  0
MTEXT
  5
ED
330
1F
100
AcDbEntity
  8
0-A_文字
  6
Continuous
 62
     7
370
     9
100
AcDbMText
 10
-5370.000018557986
 20
541.5751831054688
 30
0.0
 40
57.15
 41
600.0
 46
0.0
 71
     7
 72
     1
  1
{\fＭＳ ゴシック|b0|i0|c128|p49;乳半合わせガラス}
 73
     1
 44
1.0
  0
MTEXT
  5
EE
330
1F
100
AcDbEntity
  8
0-A_文字
  6
Continuous
 62
     7
370
     9
100
AcDbMText
 10
-4576.69995488347
 20
4013.576151024072
 30
0.0
 40
77.15249999999999
 41
405.0
 46
0.0
 71
     7
 72
     1
  1
{\fＭＳ ゴシック|b0|i0|c128|p49;Ｎ－ＦＭ}
 73
     1
 44
1.0
  0
MTEXT
  5
EF
330
1F
100
AcDbEntity
  8
0-A_文字
  6
Continuous
 62
     7
370
     9
100
AcDbMText
 10
-5370.000018557986
 20
661.5751831054682
 30
0.0
 40
57.15000000000001
 41
900.0
 46
0.0
 71
     7
 72
     1
  1
{\fＭＳ ゴシック|b0|i0|c128|p49;枠外幅 848mm（DW=793mm）}
 73
     1
 44
1.0
  0
LINE
  5
F0
330
1F
100
AcDbEntity
  8
0-4_枠
  6
Continuous
 62
    92
370
    13
100
AcDbLine
 10
-4697.399798419023
 20
3679.249884837382
 30
0.0
 11
-3849.399798419023
 21
3679.249884837382
 31
0.0
  0
LINE
  5
F1
330
1F
100
AcDbEntity
  8
0-2_扉
  6
Continuous
 62
    92
370
    13
100
AcDbLine
 10
-4668.399798419025
 20
3669.249884837381
 30
0.0
 11
-3875.399798419023
 21
3669.249884837381
 31
0.0
  0
LINE
  5
F2
330
1F
100
AcDbEntity
  8
0-3_仕上げ
  6
Continuous
 62
     7
370
     9
100
AcDbLine
 10
-4487.399798419026
 20
3661.249884837381
 30
0.0
 11
-4402.399798419025
 21
3661.249884837381
 31
0.0
  0
LINE
  5
F3
330
1F
100
AcDbEntity
  8
0-C_ハッチ
  6
JWW_DASHED1
 62
   120
370
     5
100
AcDbLine
 10
-4487.399798419032
 20
1695.868933671153
 30
0.0
 11
-4402.399798419029
 21
1780.868933671157
 31
0.0
  0
LINE
  5
F4
330
1F
100
AcDbEntity
  8
0-C_ハッチ
  6
JWW_DASHED1
 62
   120
370
     5
100
AcDbLine
 10
-4487.399798419021
 20
1738.295340542365
 30
0.0
 11
-4402.399798419017
 21
1823.295340542368
 31
0.0
  0
LINE
  5
F5
330
1F
100
AcDbEntity
  8
0-C_ハッチ
  6
JWW_DASHED1
 62
   120
370
     5
100
AcDbLine
 10
-4487.399798419025
 20
1780.721747413561
 30
0.0
 11
-4402.399798419021
 21
1865.721747413564
 31
0.0
  0
LINE
  5
F6
330
1F
100
AcDbEntity
  8
0-C_ハッチ
  6
JWW_DASHED1
 62
   120
370
     5
100
AcDbLine
 10
-4487.399798419016
 20
1823.148154284714
 30
0.0
 11
-4402.399798419029
 21
1908.148154284701
 31
0.0
  0
LINE
  5
F7
330
1F
100
AcDbEntity
  8
0-C_ハッチ
  6
JWW_DASHED1
 62
   120
370
     5
100
AcDbLine
 10
-4487.399798419021
 20
1865.57456115591
 30
0.0
 11
-4402.399798419034
 21
1950.574561155897
 31
0.0
  0
LINE
  5
F8
330
1F
100
AcDbEntity
  8
0-C_ハッチ
  6
JWW_DASHED1
 62
   120
370
     5
100
AcDbLine
 10
-4487.399798419025
 20
1908.000968027107
 30
0.0
 11
-4402.399798419036
 21
1993.000968027094
 31
0.0
  0
LINE
  5
F9
330
1F
100
AcDbEntity
  8
0-C_ハッチ
  6
JWW_DASHED1
 62
   120
370
     5
100
AcDbLine
 10
-4487.399798419026
 20
1950.427374898305
 30
0.0
 11
-4402.399798419022
 21
2035.427374898308
 31
0.0
  0
LINE
  5
FA
330
1F
100
AcDbEntity
  8
0-C_ハッチ
  6
JWW_DASHED1
 62
   120
370
     5
100
AcDbLine
 10
-4487.399798419029
 20
1992.853781769501
 30
0.0
 11
-4402.399798419026
 21
2077.853781769505
 31
0.0
  0
LINE
  5
FB
330
1F
100
AcDbEntity
  8
0-C_ハッチ
  6
JWW_DASHED1
 62
   120
370
     5
100
AcDbLine
 10
-4487.39979841902
 20
2035.280188640711
 30
0.0
 11
-4402.399798419017
 21
2120.280188640714
 31
0.0
  0
LINE
  5
FC
330
1F
100
AcDbEntity
  8
0-C_ハッチ
  6
JWW_DASHED1
 62
   120
370
     5
100
AcDbLine
 10
-4487.399798419024
 20
2077.706595511907
 30
0.0
 11
-4402.399798419021
 21
2162.70659551191
 31
0.0
  0
LINE
  5
FD
330
1F
100
AcDbEntity
  8
0-C_ハッチ
  6
JWW_DASHED1
 62
   120
370
     5
100
AcDbLine
 10
-4487.399798419012
 20
2120.133002383119
 30
0.0
 11
-4402.399798419025
 21
2205.133002383106
 31
0.0
  0
LINE
  5
FE
330
1F
100
AcDbEntity
  8
0-C_ハッチ
  6
JWW_DASHED1
 62
   120
370
     5
100
AcDbLine
 10
-4487.39979841902
 20
2162.559409254256
 30
0.0
 11
-4402.399798419033
 21
2247.559409254244
 31
0.0
  0
LINE
  5
FF
330
1F
100
AcDbEntity
  8
0-C_ハッチ
  6
JWW_DASHED1
 62
   120
370
     5
100
AcDbLine
 10
-4487.399798419024
 20
2204.985816125453
 30
0.0
 11
-4402.399798419036
 21
2289.98581612544
 31
0.0
  0
LINE
  5
100
330
1F
100
AcDbEntity
  8
0-C_ハッチ
  6
JWW_DASHED1
 62
   120
370
     5
100
AcDbLine
 10
-4487.399798419027
 20
2247.412222996649
 30
0.0
 11
-4402.399798419025
 21
2332.412222996652
 31
0.0
  0
LINE
  5
101
330
1F
100
AcDbEntity
  8
0-C_ハッチ
  6
JWW_DASHED1
 62
   120
370
     5
100
AcDbLine
 10
-4487.399798419026
 20
2289.83862986785
 30
0.0
 11
-4402.399798419023
 21
2374.838629867853
 31
0.0
  0
LINE
  5
102
330
1F
100
AcDbEntity
  8
0-C_ハッチ
  6
JWW_DASHED1
 62
   120
370
     5
100
AcDbLine
 10
-4487.399798419029
 20
2332.265036739047
 30
0.0
 11
-4402.399798419026
 21
2417.26503673905
 31
0.0
  0
LINE
  5
103
330
1F
100
AcDbEntity
  8
0-C_ハッチ
  6
JWW_DASHED1
 62
   120
370
     5
100
AcDbLine
 10
-4487.399798419024
 20
2374.691443610253
 30
0.0
 11
-4402.399798419021
 21
2459.691443610256
 31
0.0
  0
LINE
  5
104
330
1F
100
AcDbEntity
  8
0-C_ハッチ
  6
JWW_DASHED1
 62
   120
370
     5
100
AcDbLine
 10
-4487.399798419026
 20
2417.117850481449
 30
0.0
 11
-4402.399798419024
 21
2502.117850481452
 31
0.0
  0
LINE
  5
105
330
1F
100
AcDbEntity
  8
0-C_ハッチ
  6
JWW_DASHED1
 62
   120
370
     5
100
AcDbLine
 10
-4487.399798419015
 20
2459.544257352662
 30
0.0
 11
-4402.399798419028
 21
2544.544257352648
 31
0.0
  0
LINE
  5
106
330
1F
100
AcDbEntity
  8
0-C_ハッチ
  6
JWW_DASHED1
 62
   120
370
     5
100
AcDbLine
 10
-4487.399798419024
 20
2501.970664223799
 30
0.0
 11
-4402.399798419036
 21
2586.970664223786
 31
0.0
  0
LINE
  5
107
330
1F
100
AcDbEntity
  8
0-C_ハッチ
  6
JWW_DASHED1
 62
   120
370
     5
100
AcDbLine
 10
-4487.399798419026
 20
2544.397071094995
 30
0.0
 11
-4402.399798419039
 21
2629.397071094982
 31
0.0
  0
LINE
  5
108
330
1F
100
AcDbEntity
  8
0-C_ハッチ
  6
JWW_DASHED1
 62
   120
370
     5
100
AcDbLine
 10
-4487.399798419024
 20
2586.823477966198
 30
0.0
 11
-4402.39979841902
 21
2671.823477966202
 31
0.0
  0
LINE
  5
109
330
1F
100
AcDbEntity
  8
0-C_ハッチ
  6
JWW_DASHED1
 62
   120
370
     5
100
AcDbLine
 10
-4487.399798419026
 20
2629.249884837395
 30
0.0
 11
-4402.399798419023
 21
2714.249884837398
 31
0.0
  0
LINE
  5
10A
330
1F
100
AcDbEntity
  8
0-C_ハッチ
  6
JWW_DASHED1
 62
   120
370
     5
100
AcDbLine
 10
-4487.39979841903
 20
2671.676291708592
 30
0.0
 11
-4402.399798419026
 21
2756.676291708595
 31
0.0
  0
LINE
  5
10B
330
1F
100
AcDbEntity
  8
0-C_ハッチ
  6
JWW_DASHED1
 62
   120
370
     5
100
AcDbLine
 10
-4487.399798419026
 20
2714.102698579795
 30
0.0
 11
-4402.399798419024
 21
2799.102698579798
 31
0.0
  0
LINE
  5
10C
330
1F
100
AcDbEntity
  8
0-C_ハッチ
  6
JWW_DASHED1
 62
   120
370
     5
100
AcDbLine
 10
-4487.399798419014
 20
2756.529105451008
 30
0.0
 11
-4402.399798419027
 21
2841.529105450994
 31
0.0
  0
LINE
  5
10D
330
1F
100
AcDbEntity
  8
0-C_ハッチ
  6
JWW_DASHED1
 62
   120
370
     5
100
AcDbLine
 10
-4487.399798419023
 20
2798.955512322145
 30
0.0
 11
-4402.399798419036
 21
2883.955512322132
 31
0.0
  0
LINE
  5
10E
330
1F
100
AcDbEntity
  8
0-C_ハッチ
  6
JWW_DASHED1
 62
   120
370
     5
100
AcDbLine
 10
-4487.399798419026
 20
2841.381919193341
 30
0.0
 11
-4402.399798419039
 21
2926.381919193328
 31
0.0
  0
LINE
  5
10F
330
1F
100
AcDbEntity
  8
0-C_ハッチ
  6
JWW_DASHED1
 62
   120
370
     5
100
AcDbLine
 10
-4487.39979841903
 20
2883.808326064537
 30
0.0
 11
-4402.399798419043
 21
2968.808326064524
 31
0.0
  0
LINE
  5
110
330
1F
100
AcDbEntity
  8
0-C_ハッチ
  6
JWW_DASHED1
 62
   120
370
     5
100
AcDbLine
 10
-4487.399798419025
 20
2926.234732935743
 30
0.0
 11
-4402.399798419021
 21
3011.234732935747
 31
0.0
  0
LINE
  5
111
330
1F
100
AcDbEntity
  8
0-C_ハッチ
  6
JWW_DASHED1
 62
   120
370
     5
100
AcDbLine
 10
-4487.399798419027
 20
2968.66113980694
 30
0.0
 11
-4402.399798419024
 21
3053.661139806944
 31
0.0
  0
LINE
  5
112
330
1F
100
AcDbEntity
  8
0-C_ハッチ
  6
JWW_DASHED1
 62
   120
370
     5
100
AcDbLine
 10
-4487.399798419026
 20
3011.087546678141
 30
0.0
 11
-4402.399798419023
 21
3096.087546678144
 31
0.0
  0
LINE
  5
113
330
1F
100
AcDbEntity
  8
0-C_ハッチ
  6
JWW_DASHED1
 62
   120
370
     5
100
AcDbLine
 10
-4487.399798419029
 20
3053.513953549338
 30
0.0
 11
-4402.399798419026
 21
3138.51395354934
 31
0.0
  0
LINE
  5
114
330
1F
100
AcDbEntity
  8
0-C_ハッチ
  6
JWW_DASHED1
 62
   120
370
     5
100
AcDbLine
 10
-4487.399798419017
 20
3095.940360420549
 30
0.0
 11
-4402.399798419031
 21
3180.940360420537
 31
0.0
  0
LINE
  5
115
330
1F
100
AcDbEntity
  8
0-C_ハッチ
  6
JWW_DASHED1
 62
   120
370
     5
100
AcDbLine
 10
-4487.399798419026
 20
3138.366767291687
 30
0.0
 11
-4402.399798419038
 21
3223.366767291674
 31
0.0
  0
LINE
  5
116
330
1F
100
AcDbEntity
  8
0-C_ハッチ
  6
JWW_DASHED1
 62
   120
370
     5
100
AcDbLine
 10
-4487.399798419029
 20
3180.793174162884
 30
0.0
 11
-4402.399798419043
 21
3265.79317416287
 31
0.0
  0
LINE
  5
117
330
1F
100
AcDbEntity
  8
0-C_ハッチ
  6
JWW_DASHED1
 62
   120
370
     5
100
AcDbLine
 10
-4487.399798419034
 20
3223.219581034079
 30
0.0
 11
-4402.39979841903
 21
3308.219581034083
 31
0.0
  0
LINE
  5
118
330
1F
100
AcDbEntity
  8
0-C_ハッチ
  6
JWW_DASHED1
 62
   120
370
     5
100
AcDbLine
 10
-4487.399798419025
 20
3265.645987905288
 30
0.0
 11
-4402.399798419021
 21
3350.645987905292
 31
0.0
  0
LINE
  5
119
330
1F
100
AcDbEntity
  8
0-C_ハッチ
  6
JWW_DASHED1
 62
   120
370
     5
100
AcDbLine
 10
-4487.399798419027
 20
3308.072394776485
 30
0.0
 11
-4402.399798419025
 21
3393.072394776489
 31
0.0
  0
LINE
  5
11A
330
1F
100
AcDbEntity
  8
0-C_ハッチ
  6
JWW_DASHED1
 62
   120
370
     5
100
AcDbLine
 10
-4487.399798419029
 20
3350.498801647684
 30
0.0
 11
-4402.399798419026
 21
3435.498801647687
 31
0.0
  0
LINE
  5
11B
330
1F
100
AcDbEntity
  8
0-C_ハッチ
  6
JWW_DASHED1
 62
   120
370
     5
100
AcDbLine
 10
-4487.399798419033
 20
3392.92520851888
 30
0.0
 11
-4402.39979841903
 21
3477.925208518883
 31
0.0
  0
LINE
  5
11C
330
1F
100
AcDbEntity
  8
0-C_ハッチ
  6
JWW_DASHED1
 62
   120
370
     5
100
AcDbLine
 10
-4487.399798419021
 20
3435.351615390092
 30
0.0
 11
-4402.399798419034
 21
3520.351615390079
 31
0.0
  0
LINE
  5
11D
330
1F
100
AcDbEntity
  8
0-C_ハッチ
  6
JWW_DASHED1
 62
   120
370
     5
100
AcDbLine
 10
-4487.399798419028
 20
3477.77802226123
 30
0.0
 11
-4402.399798419042
 21
3562.778022261216
 31
0.0
  0
LINE
  5
11E
330
1F
100
AcDbEntity
  8
0-C_ハッチ
  6
JWW_DASHED1
 62
   120
370
     5
100
AcDbLine
 10
-4487.399798419033
 20
3520.204429132426
 30
0.0
 11
-4402.399798419046
 21
3605.204429132413
 31
0.0
  0
LINE
  5
11F
330
1F
100
AcDbEntity
  8
0-C_ハッチ
  6
JWW_DASHED1
 62
   120
370
     5
100
AcDbLine
 10
-4487.399798419022
 20
3562.630836003637
 30
0.0
 11
-4402.399798419018
 21
3647.630836003641
 31
0.0
  0
LINE
  5
120
330
1F
100
AcDbEntity
  8
0-C_ハッチ
  6
JWW_DASHED1
 62
   120
370
     5
100
AcDbLine
 10
-4487.399798419026
 20
3605.057242874833
 30
0.0
 11
-4431.207156456479
 21
3661.249884837379
 31
0.0
  0
LINE
  5
121
330
1F
100
AcDbEntity
  8
0-C_ハッチ
  6
JWW_DASHED1
 62
   120
370
     5
100
AcDbLine
 10
-4487.399798419028
 20
3647.48364974603
 30
0.0
 11
-4473.633563327674
 21
3661.249884837384
 31
0.0
  0
LINE
  5
122
330
1F
100
AcDbEntity
  8
0-4_枠
  6
Continuous
 62
    92
370
    13
100
AcDbLine
 10
-3849.399798419023
 20
1279.249884837382
 30
0.0
 11
-3849.399798419023
 21
3679.249884837382
 31
0.0
  0
LINE
  5
123
330
1F
100
AcDbEntity
  8
0-4_枠
  6
Continuous
 62
    92
370
    13
100
AcDbLine
 10
-4697.399798419023
 20
1279.249884837382
 30
0.0
 11
-3849.399798419023
 21
1279.249884837382
 31
0.0
  0
LINE
  5
124
330
1F
100
AcDbEntity
  8
0-4_枠
  6
Continuous
 62
    92
370
    13
100
AcDbLine
 10
-4697.399798419023
 20
1279.249884837382
 30
0.0
 11
-4697.399798419023
 21
3679.249884837382
 31
0.0
  0
LINE
  5
125
330
1F
100
AcDbEntity
  8
0-4_枠
  6
Continuous
 62
    92
370
    13
100
AcDbLine
 10
-3873.399798419025
 20
1279.249884837382
 30
0.0
 11
-3873.399798419025
 21
3679.249884837382
 31
0.0
  0
LINE
  5
126
330
1F
100
AcDbEntity
  8
0-4_枠
  6
Continuous
 62
    92
370
    13
100
AcDbLine
 10
-4673.399798419024
 20
1279.249884837382
 30
0.0
 11
-4673.399798419024
 21
3679.249884837382
 31
0.0
  0
LINE
  5
127
330
1F
100
AcDbEntity
  8
0-2_扉
  6
Continuous
 62
    92
370
    13
100
AcDbLine
 10
-3875.399798419023
 20
1292.249884837382
 30
0.0
 11
-3875.399798419023
 21
3669.249884837381
 31
0.0
  0
LINE
  5
128
330
1F
100
AcDbEntity
  8
0-2_扉
  6
Continuous
 62
    92
370
    13
100
AcDbLine
 10
-4668.399798419025
 20
1292.249884837382
 30
0.0
 11
-3875.399798419023
 21
1292.249884837382
 31
0.0
  0
LINE
  5
129
330
1F
100
AcDbEntity
  8
0-2_扉
  6
Continuous
 62
    92
370
    13
100
AcDbLine
 10
-4668.399798419025
 20
1292.249884837382
 30
0.0
 11
-4668.399798419025
 21
3669.249884837381
 31
0.0
  0
LINE
  5
12A
330
1F
100
AcDbEntity
  8
0-3_仕上げ
  6
Continuous
 62
     7
370
     9
100
AcDbLine
 10
-4487.399798419026
 20
1292.249884837382
 30
0.0
 11
-4487.399798419026
 21
3669.249884837381
 31
0.0
  0
LINE
  5
12B
330
1F
100
AcDbEntity
  8
0-3_仕上げ
  6
Continuous
 62
     7
370
     9
100
AcDbLine
 10
-4402.399798419025
 20
1292.249884837382
 30
0.0
 11
-4402.399798419025
 21
3669.249884837381
 31
0.0
  0
LINE
  5
12C
330
1F
100
AcDbEntity
  8
0-3_仕上げ
  6
Continuous
 62
    92
370
    13
100
AcDbLine
 10
-3961.399798419025
 20
1292.249884837382
 30
0.0
 11
-3961.399798419025
 21
3669.249884837381
 31
0.0
  0
LINE
  5
12D
330
1F
100
AcDbEntity
  8
0-3_仕上げ
  6
Continuous
 62
    92
370
    13
100
AcDbLine
 10
-4044.399798419026
 20
1292.249884837382
 30
0.0
 11
-4044.399798419026
 21
3669.249884837381
 31
0.0
  0
LINE
  5
12E
330
1F
100
AcDbEntity
  8
0-3_仕上げ
  6
Continuous
 62
    92
370
    13
100
AcDbLine
 10
-4319.399798419025
 20
1292.249884837382
 30
0.0
 11
-4319.399798419025
 21
3669.249884837381
 31
0.0
  0
LINE
  5
12F
330
1F
100
AcDbEntity
  8
0-3_仕上げ
  6
Continuous
 62
    92
370
    13
100
AcDbLine
 10
-4049.399798419026
 20
1292.249884837382
 30
0.0
 11
-4049.399798419026
 21
3669.249884837381
 31
0.0
  0
LINE
  5
130
330
1F
100
AcDbEntity
  8
0-3_仕上げ
  6
Continuous
 62
    92
370
    13
100
AcDbLine
 10
-4314.399798419025
 20
1292.249884837382
 30
0.0
 11
-4314.399798419025
 21
3669.249884837381
 31
0.0
  0
LINE
  5
131
330
1F
100
AcDbEntity
  8
0-3_仕上げ
  6
Continuous
 62
    92
370
    13
100
AcDbLine
 10
-4229.399798419025
 20
1292.249884837382
 30
0.0
 11
-4229.399798419025
 21
3669.249884837381
 31
0.0
  0
LINE
  5
132
330
1F
100
AcDbEntity
  8
0-3_仕上げ
  6
Continuous
 62
    92
370
    13
100
AcDbLine
 10
-4224.399798419025
 20
1292.249884837382
 30
0.0
 11
-4224.399798419025
 21
3669.249884837381
 31
0.0
  0
LINE
  5
133
330
1F
100
AcDbEntity
  8
0-3_仕上げ
  6
Continuous
 62
    92
370
    13
100
AcDbLine
 10
-4139.399798419025
 20
1292.249884837382
 30
0.0
 11
-4139.399798419025
 21
3669.249884837381
 31
0.0
  0
LINE
  5
134
330
1F
100
AcDbEntity
  8
0-3_仕上げ
  6
Continuous
 62
    92
370
    13
100
AcDbLine
 10
-4134.399798419025
 20
1292.249884837382
 30
0.0
 11
-4134.399798419025
 21
3669.249884837381
 31
0.0
  0
LINE
  5
135
330
1F
100
AcDbEntity
  8
0-3_仕上げ
  6
Continuous
 62
    92
370
    13
100
AcDbLine
 10
-3956.399798419026
 20
1292.249884837382
 30
0.0
 11
-3956.399798419026
 21
3669.249884837381
 31
0.0
  0
LINE
  5
136
330
1F
100
AcDbEntity
  8
0-3_仕上げ
  6
Continuous
 62
    92
370
    13
100
AcDbLine
 10
-3878.399798419023
 20
1292.249884837382
 30
0.0
 11
-3878.399798419023
 21
3669.249884837381
 31
0.0
  0
LINE
  5
137
330
1F
100
AcDbEntity
  8
0-3_仕上げ
  6
Continuous
 62
    92
370
    13
100
AcDbLine
 10
-4665.399798419026
 20
1292.249884837382
 30
0.0
 11
-4665.399798419026
 21
3669.249884837381
 31
0.0
  0
LINE
  5
138
330
1F
100
AcDbEntity
  8
0-3_仕上げ
  6
Continuous
 62
     7
370
     9
100
AcDbLine
 10
-4487.399798419026
 20
1300.249884837382
 30
0.0
 11
-4402.399798419025
 21
1300.249884837382
 31
0.0
  0
LINE
  5
139
330
1F
100
AcDbEntity
  8
0-1_通り芯
  6
JWW_CENTER1
 62
   120
370
     5
100
AcDbLine
 10
-4662.399798419026
 20
2249.749884837364
 30
0.0
 11
-4472.399798419027
 21
2249.749884837364
 31
0.0
  0
LINE
  5
13A
330
1F
100
AcDbEntity
  8
0-1_通り芯
  6
JWW_CENTER1
 62
   120
370
     5
100
AcDbLine
 10
-4617.399798419026
 20
2373.749884837363
 30
0.0
 11
-4617.399798419026
 21
2163.749884837364
 31
0.0
  0
MTEXT
  5
13B
330
1F
100
AcDbEntity
  8
0-B_寸法
  6
Continuous
 62
     7
370
    70
100
AcDbMText
 10
-5012.39970562909
 20
2265.574884837382
 30
0.0
 40
57.14999999999999
 41
412.5
 46
0.0
 71
     7
 72
     1
  1
{\fＭＳ ゴシック|b0|i0|c128|p49;ＤＨ＝2,377}
 11
6.123031769111886E-17
 21
1.0
 31
0.0
 73
     1
 44
1.0
  0
LWPOLYLINE
  5
13C
330
1F
100
AcDbEntity
  8
0-B_寸法
  6
Continuous
 62
     7
370
     9
100
AcDbPolyline
 90
        4
 70
     1
 43
3.0
 10
-4995.899705629089
 20
3669.249884837381
 42
0.4142135623731
 10
-4997.39970562909
 20
3670.749884837381
 42
0.4142135623731
 10
-4998.89970562909
 20
3669.249884837381
 42
0.4142135623731
 10
-4997.39970562909
 20
3667.749884837381
 42
0.4142135623731
  0
LINE
  5
13D
330
1F
100
AcDbEntity
  8
0-B_寸法
  6
Continuous
 62
   120
370
     5
100
AcDbLine
 10
-4997.39970562909
 20
3669.249884837381
 30
0.0
 11
-4747.399705629092
 21
3669.249884837381
 31
0.0
  0
LWPOLYLINE
  5
13E
330
1F
100
AcDbEntity
  8
0-B_寸法
  6
Continuous
 62
     7
370
     9
100
AcDbPolyline
 90
        4
 70
     1
 43
3.0
 10
-4995.899705629089
 20
1292.249884837382
 42
0.4142135623731
 10
-4997.39970562909
 20
1293.749884837382
 42
0.4142135623731
 10
-4998.89970562909
 20
1292.249884837382
 42
0.4142135623731
 10
-4997.39970562909
 20
1290.749884837382
 42
0.4142135623731
  0
LINE
  5
13F
330
1F
100
AcDbEntity
  8
0-B_寸法
  6
Continuous
 62
   120
370
     5
100
AcDbLine
 10
-4997.39970562909
 20
1292.249884837382
 30
0.0
 11
-4747.399705629092
 21
1292.249884837382
 31
0.0
  0
LINE
  5
140
330
1F
100
AcDbEntity
  8
0-B_寸法
  6
Continuous
 62
   120
370
     5
100
AcDbLine
 10
-4997.39970562909
 20
3669.249884837381
 30
0.0
 11
-4997.39970562909
 21
1292.249884837382
 31
0.0
  0
LWPOLYLINE
  5
141
330
1F
100
AcDbEntity
  8
0-B_寸法
  6
Continuous
 62
     7
370
     9
100
AcDbPolyline
 90
        4
 70
     1
 43
3.0
 10
-4666.899798419025
 20
1029.249884837383
 42
0.4142135623731
 10
-4668.399798419025
 20
1030.749884837383
 42
0.4142135623731
 10
-4669.899798419026
 20
1029.249884837383
 42
0.4142135623731
 10
-4668.399798419025
 20
1027.749884837383
 42
0.4142135623731
  0
LINE
  5
142
330
1F
100
AcDbEntity
  8
0-B_寸法
  6
Continuous
 62
   120
370
     5
100
AcDbLine
 10
-4668.399798419025
 20
1029.249884837383
 30
0.0
 11
-4668.399798419025
 21
1229.249884837383
 31
0.0
  0
MTEXT
  5
143
330
1F
100
AcDbEntity
  8
0-B_寸法
  6
Continuous
 62
     7
370
    70
100
AcDbMText
 10
-4439.649798419025
 20
1035.324884837383
 30
0.0
 40
57.15
 41
337.5
 46
0.0
 71
     7
 72
     1
  1
{\fＭＳ ゴシック|b0|i0|c128|p49;ＤＷ＝793}
 73
     1
 44
1.0
  0
LWPOLYLINE
  5
144
330
1F
100
AcDbEntity
  8
0-B_寸法
  6
Continuous
 62
     7
370
     9
100
AcDbPolyline
 90
        4
 70
     1
 43
3.0
 10
-3873.899798419023
 20
1029.249884837383
 42
0.4142135623731
 10
-3875.399798419023
 20
1030.749884837383
 42
0.4142135623731
 10
-3876.899798419024
 20
1029.249884837383
 42
0.4142135623731
 10
-3875.399798419023
 20
1027.749884837383
 42
0.4142135623731
  0
LINE
  5
145
330
1F
100
AcDbEntity
  8
0-B_寸法
  6
Continuous
 62
   120
370
     5
100
AcDbLine
 10
-3875.399798419023
 20
1029.249884837383
 30
0.0
 11
-3875.399798419023
 21
1229.249884837383
 31
0.0
  0
LINE
  5
146
330
1F
100
AcDbEntity
  8
0-B_寸法
  6
Continuous
 62
   120
370
     5
100
AcDbLine
 10
-4668.399798419025
 20
1029.249884837383
 30
0.0
 11
-3875.399798419023
 21
1029.249884837383
 31
0.0
  0
LINE
  5
147
330
1F
100
AcDbEntity
  8
0-C_ハッチ
  6
JWW_DASHED1
 62
   120
370
     5
100
AcDbLine
 10
-4487.399798419026
 20
1653.44252679996
 30
0.0
 11
-4402.399798419025
 21
1738.44252679996
 31
0.0
  0
LINE
  5
148
330
1F
100
AcDbEntity
  8
0-C_ハッチ
  6
JWW_DASHED1
 62
   120
370
     5
100
AcDbLine
 10
-4487.399798419026
 20
1611.01611992876
 30
0.0
 11
-4402.399798419021
 21
1696.016119928764
 31
0.0
  0
LINE
  5
149
330
1F
100
AcDbEntity
  8
0-C_ハッチ
  6
JWW_DASHED1
 62
   120
370
     5
100
AcDbLine
 10
-4487.399798419032
 20
1568.589713057549
 30
0.0
 11
-4402.399798419029
 21
1653.589713057553
 31
0.0
  0
LINE
  5
14A
330
1F
100
AcDbEntity
  8
0-C_ハッチ
  6
JWW_DASHED1
 62
   120
370
     5
100
AcDbLine
 10
-4487.399798419026
 20
1526.163306186356
 30
0.0
 11
-4402.399798419025
 21
1611.163306186357
 31
0.0
  0
LINE
  5
14B
330
1F
100
AcDbEntity
  8
0-C_ハッチ
  6
JWW_DASHED1
 62
   120
370
     5
100
AcDbLine
 10
-4487.399798419026
 20
1483.736899315156
 30
0.0
 11
-4402.399798419021
 21
1568.73689931516
 31
0.0
  0
LINE
  5
14C
330
1F
100
AcDbEntity
  8
0-C_ハッチ
  6
JWW_DASHED1
 62
   120
370
     5
100
AcDbLine
 10
-4487.399798419032
 20
1441.310492443945
 30
0.0
 11
-4402.399798419029
 21
1526.310492443949
 31
0.0
  0
LINE
  5
14D
330
1F
100
AcDbEntity
  8
0-C_ハッチ
  6
JWW_DASHED1
 62
   120
370
     5
100
AcDbLine
 10
-4487.399798419026
 20
1398.884085572752
 30
0.0
 11
-4402.399798419025
 21
1483.884085572753
 31
0.0
  0
LINE
  5
14E
330
1F
100
AcDbEntity
  8
0-C_ハッチ
  6
JWW_DASHED1
 62
   120
370
     5
100
AcDbLine
 10
-4487.399798419026
 20
1356.457678701552
 30
0.0
 11
-4402.399798419021
 21
1441.457678701556
 31
0.0
  0
LINE
  5
14F
330
1F
100
AcDbEntity
  8
0-C_ハッチ
  6
JWW_DASHED1
 62
   120
370
     5
100
AcDbLine
 10
-4487.399798419032
 20
1314.031271830341
 30
0.0
 11
-4402.399798419029
 21
1399.031271830345
 31
0.0
  0
LINE
  5
150
330
1F
100
AcDbEntity
  8
0-C_ハッチ
  6
JWW_DASHED1
 62
   120
370
     5
100
AcDbLine
 10
-4458.754778540791
 20
1300.249884837382
 30
0.0
 11
-4402.399798419025
 21
1356.604864959149
 31
0.0
  0
LINE
  5
151
330
1F
100
AcDbEntity
  8
0-C_ハッチ
  6
JWW_DASHED1
 62
   120
370
     5
100
AcDbLine
 10
-4416.328371669591
 20
1300.249884837382
 30
0.0
 11
-4402.399798419021
 21
1314.178458087952
 31
0.0
  0
LINE
  5
152
330
1F
100
AcDbEntity
  8
0-2_扉
  6
Continuous
 62
    92
370
    13
100
AcDbLine
 10
-2436.799578280063
 20
1292.249884837382
 30
0.0
 11
-2436.799578280063
 21
3669.249884837381
 31
0.0
  0
LINE
  5
153
330
1F
100
AcDbEntity
  8
0-2_扉
  6
Continuous
 62
    92
370
    13
100
AcDbLine
 10
-2436.799578280063
 20
3669.249884837381
 30
0.0
 11
-1713.799578280064
 21
3669.249884837381
 31
0.0
  0
LINE
  5
154
330
1F
100
AcDbEntity
  8
0-2_扉
  6
Continuous
 62
    92
370
    13
100
AcDbLine
 10
-1713.799578280064
 20
1292.249884837382
 30
0.0
 11
-1713.799578280064
 21
3669.249884837381
 31
0.0
  0
LINE
  5
155
330
1F
100
AcDbEntity
  8
0-2_扉
  6
Continuous
 62
    92
370
    13
100
AcDbLine
 10
-2436.799578280063
 20
1292.249884837382
 30
0.0
 11
-1713.799578280064
 21
1292.249884837382
 31
0.0
  0
LINE
  5
156
330
1F
100
AcDbEntity
  8
0-2_扉
  6
Continuous
 62
    92
370
    13
100
AcDbLine
 10
-205.1999148806982
 20
1292.249884837382
 30
0.0
 11
-205.1999148806982
 21
3669.249884837381
 31
0.0
  0
LINE
  5
157
330
1F
100
AcDbEntity
  8
0-2_扉
  6
Continuous
 62
    92
370
    13
100
AcDbLine
 10
-205.1999148806982
 20
3669.249884837381
 30
0.0
 11
497.8000851193002
 21
3669.249884837381
 31
0.0
  0
LINE
  5
158
330
1F
100
AcDbEntity
  8
0-2_扉
  6
Continuous
 62
    92
370
    13
100
AcDbLine
 10
497.8000851193002
 20
1292.249884837382
 30
0.0
 11
497.8000851193002
 21
3669.249884837381
 31
0.0
  0
LINE
  5
159
330
1F
100
AcDbEntity
  8
0-2_扉
  6
Continuous
 62
    92
370
    13
100
AcDbLine
 10
-205.1999148806982
 20
1292.249884837382
 30
0.0
 11
497.8000851193002
 21
1292.249884837382
 31
0.0
  0
LINE
  5
15A
330
1F
100
AcDbEntity
  8
0-3_仕上げ
  6
Continuous
 62
     7
370
     9
100
AcDbLine
 10
-2255.799578280063
 20
3661.249884837381
 30
0.0
 11
-2160.799578280063
 21
3661.249884837381
 31
0.0
  0
LINE
  5
15B
330
1F
100
AcDbEntity
  8
0-C_ハッチ
  6
JWW_DASHED1
 62
   120
370
     5
100
AcDbLine
 10
-2255.79957828008
 20
1690.868933671125
 30
0.0
 11
-2160.799578280069
 21
1785.868933671136
 31
0.0
  0
LINE
  5
15C
330
1F
100
AcDbEntity
  8
0-C_ハッチ
  6
JWW_DASHED1
 62
   120
370
     5
100
AcDbLine
 10
-2255.799578280069
 20
1733.295340542336
 30
0.0
 11
-2160.799578280058
 21
1828.295340542347
 31
0.0
  0
LINE
  5
15D
330
1F
100
AcDbEntity
  8
0-C_ハッチ
  6
JWW_DASHED1
 62
   120
370
     5
100
AcDbLine
 10
-2255.799578280057
 20
1775.721747413549
 30
0.0
 11
-2160.799578280062
 21
1870.721747413543
 31
0.0
  0
LINE
  5
15E
330
1F
100
AcDbEntity
  8
0-C_ハッチ
  6
JWW_DASHED1
 62
   120
370
     5
100
AcDbLine
 10
-2255.799578280065
 20
1818.148154284685
 30
0.0
 11
-2160.79957828007
 21
1913.14815428468
 31
0.0
  0
LINE
  5
15F
330
1F
100
AcDbEntity
  8
0-C_ハッチ
  6
JWW_DASHED1
 62
   120
370
     5
100
AcDbLine
 10
-2255.799578280069
 20
1860.574561155882
 30
0.0
 11
-2160.799578280058
 21
1955.574561155893
 31
0.0
  0
LINE
  5
160
330
1F
100
AcDbEntity
  8
0-C_ハッチ
  6
JWW_DASHED1
 62
   120
370
     5
100
AcDbLine
 10
-2255.799578280073
 20
1903.000968027078
 30
0.0
 11
-2160.799578280062
 21
1998.000968027088
 31
0.0
  0
LINE
  5
161
330
1F
100
AcDbEntity
  8
0-C_ハッチ
  6
JWW_DASHED1
 62
   120
370
     5
100
AcDbLine
 10
-2255.799578280074
 20
1945.427374898276
 30
0.0
 11
-2160.799578280063
 21
2040.427374898288
 31
0.0
  0
LINE
  5
162
330
1F
100
AcDbEntity
  8
0-C_ハッチ
  6
JWW_DASHED1
 62
   120
370
     5
100
AcDbLine
 10
-2255.799578280078
 20
1987.853781769473
 30
0.0
 11
-2160.799578280066
 21
2082.853781769484
 31
0.0
  0
LINE
  5
163
330
1F
100
AcDbEntity
  8
0-C_ハッチ
  6
JWW_DASHED1
 62
   120
370
     5
100
AcDbLine
 10
-2255.799578280068
 20
2030.280188640682
 30
0.0
 11
-2160.799578280058
 21
2125.280188640693
 31
0.0
  0
LINE
  5
164
330
1F
100
AcDbEntity
  8
0-C_ハッチ
  6
JWW_DASHED1
 62
   120
370
     5
100
AcDbLine
 10
-2255.799578280056
 20
2072.706595511894
 30
0.0
 11
-2160.799578280062
 21
2167.70659551189
 31
0.0
  0
LINE
  5
165
330
1F
100
AcDbEntity
  8
0-C_ハッチ
  6
JWW_DASHED1
 62
   120
370
     5
100
AcDbLine
 10
-2255.79957828006
 20
2115.133002383091
 30
0.0
 11
-2160.799578280065
 21
2210.133002383086
 31
0.0
  0
LINE
  5
166
330
1F
100
AcDbEntity
  8
0-C_ハッチ
  6
JWW_DASHED1
 62
   120
370
     5
100
AcDbLine
 10
-2255.799578280068
 20
2157.559409254228
 30
0.0
 11
-2160.799578280073
 21
2252.559409254223
 31
0.0
  0
LINE
  5
167
330
1F
100
AcDbEntity
  8
0-C_ハッチ
  6
JWW_DASHED1
 62
   120
370
     5
100
AcDbLine
 10
-2255.799578280072
 20
2199.985816125424
 30
0.0
 11
-2160.799578280061
 21
2294.985816125435
 31
0.0
  0
LINE
  5
168
330
1F
100
AcDbEntity
  8
0-C_ハッチ
  6
JWW_DASHED1
 62
   120
370
     5
100
AcDbLine
 10
-2255.799578280076
 20
2242.41222299662
 30
0.0
 11
-2160.799578280065
 21
2337.412222996631
 31
0.0
  0
LINE
  5
169
330
1F
100
AcDbEntity
  8
0-C_ハッチ
  6
JWW_DASHED1
 62
   120
370
     5
100
AcDbLine
 10
-2255.799578280074
 20
2284.838629867822
 30
0.0
 11
-2160.799578280064
 21
2379.838629867832
 31
0.0
  0
LINE
  5
16A
330
1F
100
AcDbEntity
  8
0-C_ハッチ
  6
JWW_DASHED1
 62
   120
370
     5
100
AcDbLine
 10
-2255.799578280079
 20
2327.265036739018
 30
0.0
 11
-2160.799578280067
 21
2422.265036739029
 31
0.0
  0
LINE
  5
16B
330
1F
100
AcDbEntity
  8
0-C_ハッチ
  6
JWW_DASHED1
 62
   120
370
     5
100
AcDbLine
 10
-2255.799578280072
 20
2369.691443610225
 30
0.0
 11
-2160.799578280061
 21
2464.691443610235
 31
0.0
  0
LINE
  5
16C
330
1F
100
AcDbEntity
  8
0-C_ハッチ
  6
JWW_DASHED1
 62
   120
370
     5
100
AcDbLine
 10
-2255.799578280059
 20
2412.117850481437
 30
0.0
 11
-2160.799578280065
 21
2507.117850481432
 31
0.0
  0
LINE
  5
16D
330
1F
100
AcDbEntity
  8
0-C_ハッチ
  6
JWW_DASHED1
 62
   120
370
     5
100
AcDbLine
 10
-2255.799578280064
 20
2454.544257352633
 30
0.0
 11
-2160.799578280069
 21
2549.544257352628
 31
0.0
  0
LINE
  5
16E
330
1F
100
AcDbEntity
  8
0-C_ハッチ
  6
JWW_DASHED1
 62
   120
370
     5
100
AcDbLine
 10
-2255.799578280071
 20
2496.970664223771
 30
0.0
 11
-2160.799578280061
 21
2591.970664223781
 31
0.0
  0
LINE
  5
16F
330
1F
100
AcDbEntity
  8
0-C_ハッチ
  6
JWW_DASHED1
 62
   120
370
     5
100
AcDbLine
 10
-2255.799578280075
 20
2539.397071094966
 30
0.0
 11
-2160.799578280064
 21
2634.397071094977
 31
0.0
  0
LINE
  5
170
330
1F
100
AcDbEntity
  8
0-C_ハッチ
  6
JWW_DASHED1
 62
   120
370
     5
100
AcDbLine
 10
-2255.799578280072
 20
2581.82347796617
 30
0.0
 11
-2160.79957828006
 21
2676.823477966181
 31
0.0
  0
LINE
  5
171
330
1F
100
AcDbEntity
  8
0-C_ハッチ
  6
JWW_DASHED1
 62
   120
370
     5
100
AcDbLine
 10
-2255.799578280075
 20
2624.249884837366
 30
0.0
 11
-2160.799578280064
 21
2719.249884837378
 31
0.0
  0
LINE
  5
172
330
1F
100
AcDbEntity
  8
0-C_ハッチ
  6
JWW_DASHED1
 62
   120
370
     5
100
AcDbLine
 10
-2255.799578280079
 20
2666.676291708563
 30
0.0
 11
-2160.799578280067
 21
2761.676291708574
 31
0.0
  0
LINE
  5
173
330
1F
100
AcDbEntity
  8
0-C_ハッチ
  6
JWW_DASHED1
 62
   120
370
     5
100
AcDbLine
 10
-2255.799578280074
 20
2709.102698579767
 30
0.0
 11
-2160.799578280064
 21
2804.102698579778
 31
0.0
  0
LINE
  5
174
330
1F
100
AcDbEntity
  8
0-C_ハッチ
  6
JWW_DASHED1
 62
   120
370
     5
100
AcDbLine
 10
-2255.799578280063
 20
2751.529105450979
 30
0.0
 11
-2160.799578280068
 21
2846.529105450973
 31
0.0
  0
LINE
  5
175
330
1F
100
AcDbEntity
  8
0-C_ハッチ
  6
JWW_DASHED1
 62
   120
370
     5
100
AcDbLine
 10
-2255.799578280071
 20
2793.955512322116
 30
0.0
 11
-2160.799578280076
 21
2888.955512322111
 31
0.0
  0
LINE
  5
176
330
1F
100
AcDbEntity
  8
0-C_ハッチ
  6
JWW_DASHED1
 62
   120
370
     5
100
AcDbLine
 10
-2255.799578280074
 20
2836.381919193312
 30
0.0
 11
-2160.799578280064
 21
2931.381919193323
 31
0.0
  0
LINE
  5
177
330
1F
100
AcDbEntity
  8
0-C_ハッチ
  6
JWW_DASHED1
 62
   120
370
     5
100
AcDbLine
 10
-2255.799578280079
 20
2878.808326064508
 30
0.0
 11
-2160.799578280068
 21
2973.808326064519
 31
0.0
  0
LINE
  5
178
330
1F
100
AcDbEntity
  8
0-C_ハッチ
  6
JWW_DASHED1
 62
   120
370
     5
100
AcDbLine
 10
-2255.799578280072
 20
2921.234732935715
 30
0.0
 11
-2160.799578280061
 21
3016.234732935726
 31
0.0
  0
LINE
  5
179
330
1F
100
AcDbEntity
  8
0-C_ハッチ
  6
JWW_DASHED1
 62
   120
370
     5
100
AcDbLine
 10
-2255.799578280076
 20
2963.661139806911
 30
0.0
 11
-2160.799578280064
 21
3058.661139806923
 31
0.0
  0
LINE
  5
17A
330
1F
100
AcDbEntity
  8
0-C_ハッチ
  6
JWW_DASHED1
 62
   120
370
     5
100
AcDbLine
 10
-2255.799578280074
 20
3006.087546678113
 30
0.0
 11
-2160.799578280064
 21
3101.087546678124
 31
0.0
  0
LINE
  5
17B
330
1F
100
AcDbEntity
  8
0-C_ハッチ
  6
JWW_DASHED1
 62
   120
370
     5
100
AcDbLine
 10
-2255.799578280062
 20
3048.513953549325
 30
0.0
 11
-2160.799578280067
 21
3143.51395354932
 31
0.0
  0
LINE
  5
17C
330
1F
100
AcDbEntity
  8
0-C_ハッチ
  6
JWW_DASHED1
 62
   120
370
     5
100
AcDbLine
 10
-2255.799578280066
 20
3090.940360420521
 30
0.0
 11
-2160.799578280071
 21
3185.940360420516
 31
0.0
  0
LINE
  5
17D
330
1F
100
AcDbEntity
  8
0-C_ハッチ
  6
JWW_DASHED1
 62
   120
370
     5
100
AcDbLine
 10
-2255.799578280074
 20
3133.366767291659
 30
0.0
 11
-2160.799578280079
 21
3228.366767291654
 31
0.0
  0
LINE
  5
17E
330
1F
100
AcDbEntity
  8
0-C_ハッチ
  6
JWW_DASHED1
 62
   120
370
     5
100
AcDbLine
 10
-2255.799578280078
 20
3175.793174162855
 30
0.0
 11
-2160.799578280067
 21
3270.793174162865
 31
0.0
  0
LINE
  5
17F
330
1F
100
AcDbEntity
  8
0-C_ハッチ
  6
JWW_DASHED1
 62
   120
370
     5
100
AcDbLine
 10
-2255.799578280082
 20
3218.219581034051
 30
0.0
 11
-2160.799578280071
 21
3313.219581034061
 31
0.0
  0
LINE
  5
180
330
1F
100
AcDbEntity
  8
0-C_ハッチ
  6
JWW_DASHED1
 62
   120
370
     5
100
AcDbLine
 10
-2255.799578280073
 20
3260.64598790526
 30
0.0
 11
-2160.799578280062
 21
3355.645987905271
 31
0.0
  0
LINE
  5
181
330
1F
100
AcDbEntity
  8
0-C_ハッチ
  6
JWW_DASHED1
 62
   120
370
     5
100
AcDbLine
 10
-2255.799578280077
 20
3303.072394776456
 30
0.0
 11
-2160.799578280065
 21
3398.072394776468
 31
0.0
  0
LINE
  5
182
330
1F
100
AcDbEntity
  8
0-C_ハッチ
  6
JWW_DASHED1
 62
   120
370
     5
100
AcDbLine
 10
-2255.799578280078
 20
3345.498801647655
 30
0.0
 11
-2160.799578280067
 21
3440.498801647665
 31
0.0
  0
LINE
  5
183
330
1F
100
AcDbEntity
  8
0-C_ハッチ
  6
JWW_DASHED1
 62
   120
370
     5
100
AcDbLine
 10
-2255.799578280065
 20
3387.925208518868
 30
0.0
 11
-2160.79957828007
 21
3482.925208518862
 31
0.0
  0
LINE
  5
184
330
1F
100
AcDbEntity
  8
0-C_ハッチ
  6
JWW_DASHED1
 62
   120
370
     5
100
AcDbLine
 10
-2255.799578280069
 20
3430.351615390063
 30
0.0
 11
-2160.799578280074
 21
3525.351615390058
 31
0.0
  0
LINE
  5
185
330
1F
100
AcDbEntity
  8
0-C_ハッチ
  6
JWW_DASHED1
 62
   120
370
     5
100
AcDbLine
 10
-2255.799578280078
 20
3472.778022261201
 30
0.0
 11
-2160.799578280067
 21
3567.778022261211
 31
0.0
  0
LINE
  5
186
330
1F
100
AcDbEntity
  8
0-C_ハッチ
  6
JWW_DASHED1
 62
   120
370
     5
100
AcDbLine
 10
-2255.799578280081
 20
3515.204429132397
 30
0.0
 11
-2160.79957828007
 21
3610.204429132408
 31
0.0
  0
LINE
  5
187
330
1F
100
AcDbEntity
  8
0-C_ハッチ
  6
JWW_DASHED1
 62
   120
370
     5
100
AcDbLine
 10
-2255.79957828007
 20
3557.630836003608
 30
0.0
 11
-2160.799578280059
 21
3652.63083600362
 31
0.0
  0
LINE
  5
188
330
1F
100
AcDbEntity
  8
0-C_ハッチ
  6
JWW_DASHED1
 62
   120
370
     5
100
AcDbLine
 10
-2255.799578280073
 20
3600.057242874805
 30
0.0
 11
-2194.606936317493
 21
3661.249884837384
 31
0.0
  0
LINE
  5
189
330
1F
100
AcDbEntity
  8
0-C_ハッチ
  6
JWW_DASHED1
 62
   120
370
     5
100
AcDbLine
 10
-2255.799578280077
 20
3642.483649746001
 30
0.0
 11
-2237.033343188685
 21
3661.249884837393
 31
0.0
  0
LINE
  5
18A
330
1F
100
AcDbEntity
  8
0-3_仕上げ
  6
Continuous
 62
     7
370
     9
100
AcDbLine
 10
-24.19991488069826
 20
3661.249884837381
 30
0.0
 11
60.80008511930203
 21
3661.249884837381
 31
0.0
  0
LINE
  5
18B
330
1F
100
AcDbEntity
  8
0-C_ハッチ
  6
JWW_DASHED1
 62
   120
370
     5
100
AcDbLine
 10
-24.19991488070508
 20
1695.868933671153
 30
0.0
 11
60.80008511929776
 21
1780.868933671157
 31
0.0
  0
LINE
  5
18C
330
1F
100
AcDbEntity
  8
0-C_ハッチ
  6
JWW_DASHED1
 62
   120
370
     5
100
AcDbLine
 10
-24.199914880694
 20
1738.295340542365
 30
0.0
 11
60.8000851193097
 21
1823.295340542368
 31
0.0
  0
LINE
  5
18D
330
1F
100
AcDbEntity
  8
0-C_ハッチ
  6
JWW_DASHED1
 62
   120
370
     5
100
AcDbLine
 10
-24.19991488069741
 20
1780.721747413561
 30
0.0
 11
60.80008511930544
 21
1865.721747413564
 31
0.0
  0
LINE
  5
18E
330
1F
100
AcDbEntity
  8
0-C_ハッチ
  6
JWW_DASHED1
 62
   120
370
     5
100
AcDbLine
 10
-24.19991488068973
 20
1823.148154284714
 30
0.0
 11
60.80008511929776
 21
1908.148154284701
 31
0.0
  0
LINE
  5
18F
330
1F
100
AcDbEntity
  8
0-C_ハッチ
  6
JWW_DASHED1
 62
   120
370
     5
100
AcDbLine
 10
-24.199914880694
 20
1865.57456115591
 30
0.0
 11
60.8000851192935
 21
1950.574561155897
 31
0.0
  0
LINE
  5
190
330
1F
100
AcDbEntity
  8
0-C_ハッチ
  6
JWW_DASHED1
 62
   120
370
     5
100
AcDbLine
 10
-24.19991488069741
 20
1908.000968027106
 30
0.0
 11
60.80008511929009
 21
1993.000968027094
 31
0.0
  0
LINE
  5
191
330
1F
100
AcDbEntity
  8
0-C_ハッチ
  6
JWW_DASHED1
 62
   120
370
     5
100
AcDbLine
 10
-24.19991488069911
 20
1950.427374898305
 30
0.0
 11
60.80008511930458
 21
2035.427374898308
 31
0.0
  0
LINE
  5
192
330
1F
100
AcDbEntity
  8
0-C_ハッチ
  6
JWW_DASHED1
 62
   120
370
     5
100
AcDbLine
 10
-24.19991488070252
 20
1992.853781769501
 30
0.0
 11
60.80008511930117
 21
2077.853781769505
 31
0.0
  0
LINE
  5
193
330
1F
100
AcDbEntity
  8
0-C_ハッチ
  6
JWW_DASHED1
 62
   120
370
     5
100
AcDbLine
 10
-24.19991488069314
 20
2035.280188640711
 30
0.0
 11
60.8000851193097
 21
2120.280188640714
 31
0.0
  0
LINE
  5
194
330
1F
100
AcDbEntity
  8
0-C_ハッチ
  6
JWW_DASHED1
 62
   120
370
     5
100
AcDbLine
 10
-24.19991488069655
 20
2077.706595511907
 30
0.0
 11
60.80008511930629
 21
2162.70659551191
 31
0.0
  0
LINE
  5
195
330
1F
100
AcDbEntity
  8
0-C_ハッチ
  6
JWW_DASHED1
 62
   120
370
     5
100
AcDbLine
 10
-24.19991488068462
 20
2120.133002383119
 30
0.0
 11
60.80008511930203
 21
2205.133002383106
 31
0.0
  0
LINE
  5
196
330
1F
100
AcDbEntity
  8
0-C_ハッチ
  6
JWW_DASHED1
 62
   120
370
     5
100
AcDbLine
 10
-24.19991488069314
 20
2162.559409254256
 30
0.0
 11
60.80008511929435
 21
2247.559409254244
 31
0.0
  0
LINE
  5
197
330
1F
100
AcDbEntity
  8
0-C_ハッチ
  6
JWW_DASHED1
 62
   120
370
     5
100
AcDbLine
 10
-24.19991488069655
 20
2204.985816125453
 30
0.0
 11
60.80008511929009
 21
2289.98581612544
 31
0.0
  0
LINE
  5
198
330
1F
100
AcDbEntity
  8
0-C_ハッチ
  6
JWW_DASHED1
 62
   120
370
     5
100
AcDbLine
 10
-24.19991488070082
 20
2247.412222996649
 30
0.0
 11
60.80008511930203
 21
2332.412222996652
 31
0.0
  0
LINE
  5
199
330
1F
100
AcDbEntity
  8
0-C_ハッチ
  6
JWW_DASHED1
 62
   120
370
     5
100
AcDbLine
 10
-24.19991488069996
 20
2289.83862986785
 30
0.0
 11
60.80008511930373
 21
2374.838629867853
 31
0.0
  0
LINE
  5
19A
330
1F
100
AcDbEntity
  8
0-C_ハッチ
  6
JWW_DASHED1
 62
   120
370
     5
100
AcDbLine
 10
-24.19991488070252
 20
2332.265036739047
 30
0.0
 11
60.80008511930032
 21
2417.26503673905
 31
0.0
  0
LINE
  5
19B
330
1F
100
AcDbEntity
  8
0-C_ハッチ
  6
JWW_DASHED1
 62
   120
370
     5
100
AcDbLine
 10
-24.19991488069655
 20
2374.691443610253
 30
0.0
 11
60.80008511930629
 21
2459.691443610256
 31
0.0
  0
LINE
  5
19C
330
1F
100
AcDbEntity
  8
0-C_ハッチ
  6
JWW_DASHED1
 62
   120
370
     5
100
AcDbLine
 10
-24.19991488069996
 20
2417.117850481449
 30
0.0
 11
60.80008511930288
 21
2502.117850481452
 31
0.0
  0
LINE
  5
19D
330
1F
100
AcDbEntity
  8
0-C_ハッチ
  6
JWW_DASHED1
 62
   120
370
     5
100
AcDbLine
 10
-24.19991488068803
 20
2459.544257352662
 30
0.0
 11
60.80008511929861
 21
2544.544257352648
 31
0.0
  0
LINE
  5
19E
330
1F
100
AcDbEntity
  8
0-C_ハッチ
  6
JWW_DASHED1
 62
   120
370
     5
100
AcDbLine
 10
-24.19991488069655
 20
2501.970664223799
 30
0.0
 11
60.80008511929094
 21
2586.970664223786
 31
0.0
  0
LINE
  5
19F
330
1F
100
AcDbEntity
  8
0-C_ハッチ
  6
JWW_DASHED1
 62
   120
370
     5
100
AcDbLine
 10
-24.19991488069996
 20
2544.397071094995
 30
0.0
 11
60.80008511928753
 21
2629.397071094982
 31
0.0
  0
LINE
  5
1A0
330
1F
100
AcDbEntity
  8
0-C_ハッチ
  6
JWW_DASHED1
 62
   120
370
     5
100
AcDbLine
 10
-24.19991488069655
 20
2586.823477966198
 30
0.0
 11
60.80008511930714
 21
2671.823477966202
 31
0.0
  0
LINE
  5
1A1
330
1F
100
AcDbEntity
  8
0-C_ハッチ
  6
JWW_DASHED1
 62
   120
370
     5
100
AcDbLine
 10
-24.19991488069996
 20
2629.249884837395
 30
0.0
 11
60.80008511930373
 21
2714.249884837398
 31
0.0
  0
LINE
  5
1A2
330
1F
100
AcDbEntity
  8
0-C_ハッチ
  6
JWW_DASHED1
 62
   120
370
     5
100
AcDbLine
 10
-24.19991488070337
 20
2671.676291708592
 30
0.0
 11
60.80008511930032
 21
2756.676291708595
 31
0.0
  0
LINE
  5
1A3
330
1F
100
AcDbEntity
  8
0-C_ハッチ
  6
JWW_DASHED1
 62
   120
370
     5
100
AcDbLine
 10
-24.19991488069911
 20
2714.102698579795
 30
0.0
 11
60.80008511930288
 21
2799.102698579798
 31
0.0
  0
LINE
  5
1A4
330
1F
100
AcDbEntity
  8
0-C_ハッチ
  6
JWW_DASHED1
 62
   120
370
     5
100
AcDbLine
 10
-24.19991488068717
 20
2756.529105451008
 30
0.0
 11
60.80008511929947
 21
2841.529105450994
 31
0.0
  0
LINE
  5
1A5
330
1F
100
AcDbEntity
  8
0-C_ハッチ
  6
JWW_DASHED1
 62
   120
370
     5
100
AcDbLine
 10
-24.1999148806957
 20
2798.955512322145
 30
0.0
 11
60.80008511929179
 21
2883.955512322132
 31
0.0
  0
LINE
  5
1A6
330
1F
100
AcDbEntity
  8
0-C_ハッチ
  6
JWW_DASHED1
 62
   120
370
     5
100
AcDbLine
 10
-24.19991488069911
 20
2841.381919193341
 30
0.0
 11
60.80008511928753
 21
2926.381919193328
 31
0.0
  0
LINE
  5
1A7
330
1F
100
AcDbEntity
  8
0-C_ハッチ
  6
JWW_DASHED1
 62
   120
370
     5
100
AcDbLine
 10
-24.19991488070337
 20
2883.808326064537
 30
0.0
 11
60.80008511928412
 21
2968.808326064524
 31
0.0
  0
LINE
  5
1A8
330
1F
100
AcDbEntity
  8
0-C_ハッチ
  6
JWW_DASHED1
 62
   120
370
     5
100
AcDbLine
 10
-24.19991488069741
 20
2926.234732935743
 30
0.0
 11
60.80008511930629
 21
3011.234732935747
 31
0.0
  0
LINE
  5
1A9
330
1F
100
AcDbEntity
  8
0-C_ハッチ
  6
JWW_DASHED1
 62
   120
370
     5
100
AcDbLine
 10
-24.19991488070082
 20
2968.66113980694
 30
0.0
 11
60.80008511930288
 21
3053.661139806944
 31
0.0
  0
LINE
  5
1AA
330
1F
100
AcDbEntity
  8
0-C_ハッチ
  6
JWW_DASHED1
 62
   120
370
     5
100
AcDbLine
 10
-24.19991488069911
 20
3011.087546678141
 30
0.0
 11
60.80008511930373
 21
3096.087546678144
 31
0.0
  0
LINE
  5
1AB
330
1F
100
AcDbEntity
  8
0-C_ハッチ
  6
JWW_DASHED1
 62
   120
370
     5
100
AcDbLine
 10
-24.19991488070252
 20
3053.513953549338
 30
0.0
 11
60.80008511930032
 21
3138.51395354934
 31
0.0
  0
LINE
  5
1AC
330
1F
100
AcDbEntity
  8
0-C_ハッチ
  6
JWW_DASHED1
 62
   120
370
     5
100
AcDbLine
 10
-24.19991488069059
 20
3095.940360420549
 30
0.0
 11
60.80008511929606
 21
3180.940360420537
 31
0.0
  0
LINE
  5
1AD
330
1F
100
AcDbEntity
  8
0-C_ハッチ
  6
JWW_DASHED1
 62
   120
370
     5
100
AcDbLine
 10
-24.19991488069911
 20
3138.366767291687
 30
0.0
 11
60.80008511928838
 21
3223.366767291674
 31
0.0
  0
LINE
  5
1AE
330
1F
100
AcDbEntity
  8
0-C_ハッチ
  6
JWW_DASHED1
 62
   120
370
     5
100
AcDbLine
 10
-24.19991488070252
 20
3180.793174162884
 30
0.0
 11
60.80008511928412
 21
3265.79317416287
 31
0.0
  0
LINE
  5
1AF
330
1F
100
AcDbEntity
  8
0-C_ハッチ
  6
JWW_DASHED1
 62
   120
370
     5
100
AcDbLine
 10
-24.19991488070679
 20
3223.219581034079
 30
0.0
 11
60.80008511929691
 21
3308.219581034083
 31
0.0
  0
LINE
  5
1B0
330
1F
100
AcDbEntity
  8
0-C_ハッチ
  6
JWW_DASHED1
 62
   120
370
     5
100
AcDbLine
 10
-24.19991488069741
 20
3265.645987905288
 30
0.0
 11
60.80008511930544
 21
3350.645987905292
 31
0.0
  0
LINE
  5
1B1
330
1F
100
AcDbEntity
  8
0-C_ハッチ
  6
JWW_DASHED1
 62
   120
370
     5
100
AcDbLine
 10
-24.19991488070082
 20
3308.072394776485
 30
0.0
 11
60.80008511930203
 21
3393.072394776489
 31
0.0
  0
LINE
  5
1B2
330
1F
100
AcDbEntity
  8
0-C_ハッチ
  6
JWW_DASHED1
 62
   120
370
     5
100
AcDbLine
 10
-24.19991488070252
 20
3350.498801647684
 30
0.0
 11
60.80008511930117
 21
3435.498801647687
 31
0.0
  0
LINE
  5
1B3
330
1F
100
AcDbEntity
  8
0-C_ハッチ
  6
JWW_DASHED1
 62
   120
370
     5
100
AcDbLine
 10
-24.19991488070593
 20
3392.92520851888
 30
0.0
 11
60.80008511929691
 21
3477.925208518883
 31
0.0
  0
LINE
  5
1B4
330
1F
100
AcDbEntity
  8
0-C_ハッチ
  6
JWW_DASHED1
 62
   120
370
     5
100
AcDbLine
 10
-24.199914880694
 20
3435.351615390092
 30
0.0
 11
60.8000851192935
 21
3520.351615390079
 31
0.0
  0
LINE
  5
1B5
330
1F
100
AcDbEntity
  8
0-C_ハッチ
  6
JWW_DASHED1
 62
   120
370
     5
100
AcDbLine
 10
-24.19991488070167
 20
3477.77802226123
 30
0.0
 11
60.80008511928497
 21
3562.778022261216
 31
0.0
  0
LINE
  5
1B6
330
1F
100
AcDbEntity
  8
0-C_ハッチ
  6
JWW_DASHED1
 62
   120
370
     5
100
AcDbLine
 10
-24.19991488070593
 20
3520.204429132426
 30
0.0
 11
60.80008511928156
 21
3605.204429132413
 31
0.0
  0
LINE
  5
1B7
330
1F
100
AcDbEntity
  8
0-C_ハッチ
  6
JWW_DASHED1
 62
   120
370
     5
100
AcDbLine
 10
-24.19991488069485
 20
3562.630836003637
 30
0.0
 11
60.80008511930885
 21
3647.630836003641
 31
0.0
  0
LINE
  5
1B8
330
1F
100
AcDbEntity
  8
0-C_ハッチ
  6
JWW_DASHED1
 62
   120
370
     5
100
AcDbLine
 10
-24.19991488069826
 20
3605.057242874833
 30
0.0
 11
31.99272708184736
 21
3661.249884837379
 31
0.0
  0
LINE
  5
1B9
330
1F
100
AcDbEntity
  8
0-C_ハッチ
  6
JWW_DASHED1
 62
   120
370
     5
100
AcDbLine
 10
-24.19991488070167
 20
3647.48364974603
 30
0.0
 11
-10.43367978934754
 21
3661.249884837384
 31
0.0
  0
LINE
  5
1BA
330
1F
100
AcDbEntity
  8
0-3_仕上げ
  6
Continuous
 62
     7
370
     9
100
AcDbLine
 10
-2255.799578280063
 20
1292.249884837382
 30
0.0
 11
-2255.799578280063
 21
3669.249884837381
 31
0.0
  0
LINE
  5
1BB
330
1F
100
AcDbEntity
  8
0-3_仕上げ
  6
Continuous
 62
    92
370
    13
100
AcDbLine
 10
-2433.799578280063
 20
1292.249884837382
 30
0.0
 11
-2433.799578280063
 21
3669.249884837381
 31
0.0
  0
LINE
  5
1BC
330
1F
100
AcDbEntity
  8
0-3_仕上げ
  6
Continuous
 62
     7
370
     9
100
AcDbLine
 10
-2160.799578280063
 20
1292.249884837382
 30
0.0
 11
-2160.799578280063
 21
3669.249884837381
 31
0.0
  0
LINE
  5
1BD
330
1F
100
AcDbEntity
  8
0-3_仕上げ
  6
Continuous
 62
     7
370
     9
100
AcDbLine
 10
-2255.799578280063
 20
1300.249884837382
 30
0.0
 11
-2160.799578280063
 21
1300.249884837382
 31
0.0
  0
LINE
  5
1BE
330
1F
100
AcDbEntity
  8
0-3_仕上げ
  6
Continuous
 62
    92
370
    13
100
AcDbLine
 10
-1809.799578280062
 20
1292.249884837382
 30
0.0
 11
-1809.799578280062
 21
3669.249884837381
 31
0.0
  0
LINE
  5
1BF
330
1F
100
AcDbEntity
  8
0-3_仕上げ
  6
Continuous
 62
    92
370
    13
100
AcDbLine
 10
-1716.799578280064
 20
1292.249884837382
 30
0.0
 11
-1716.799578280064
 21
3669.249884837381
 31
0.0
  0
LINE
  5
1C0
330
1F
100
AcDbEntity
  8
0-3_仕上げ
  6
Continuous
 62
    92
370
    13
100
AcDbLine
 10
-2077.799578280063
 20
1292.249884837382
 30
0.0
 11
-2077.799578280063
 21
3669.249884837381
 31
0.0
  0
LINE
  5
1C1
330
1F
100
AcDbEntity
  8
0-3_仕上げ
  6
Continuous
 62
    92
370
    13
100
AcDbLine
 10
-1892.799578280062
 20
1292.249884837382
 30
0.0
 11
-1892.799578280062
 21
3669.249884837381
 31
0.0
  0
LINE
  5
1C2
330
1F
100
AcDbEntity
  8
0-3_仕上げ
  6
Continuous
 62
    92
370
    13
100
AcDbLine
 10
-2072.799578280062
 20
1292.249884837382
 30
0.0
 11
-2072.799578280062
 21
3669.249884837381
 31
0.0
  0
LINE
  5
1C3
330
1F
100
AcDbEntity
  8
0-3_仕上げ
  6
Continuous
 62
    92
370
    13
100
AcDbLine
 10
-1897.799578280062
 20
1292.249884837382
 30
0.0
 11
-1897.799578280062
 21
3669.249884837381
 31
0.0
  0
LINE
  5
1C4
330
1F
100
AcDbEntity
  8
0-3_仕上げ
  6
Continuous
 62
    92
370
    13
100
AcDbLine
 10
-1987.799578280062
 20
1292.249884837382
 30
0.0
 11
-1987.799578280062
 21
3669.249884837381
 31
0.0
  0
LINE
  5
1C5
330
1F
100
AcDbEntity
  8
0-3_仕上げ
  6
Continuous
 62
    92
370
    13
100
AcDbLine
 10
-1982.799578280062
 20
1292.249884837382
 30
0.0
 11
-1982.799578280062
 21
3669.249884837381
 31
0.0
  0
LINE
  5
1C6
330
1F
100
AcDbEntity
  8
0-3_仕上げ
  6
Continuous
 62
    92
370
    13
100
AcDbLine
 10
-1804.799578280062
 20
1292.249884837382
 30
0.0
 11
-1804.799578280062
 21
3669.249884837381
 31
0.0
  0
LINE
  5
1C7
330
1F
100
AcDbEntity
  8
0-3_仕上げ
  6
Continuous
 62
     7
370
     9
100
AcDbLine
 10
-24.19991488069826
 20
1292.249884837382
 30
0.0
 11
-24.19991488069826
 21
3669.249884837381
 31
0.0
  0
LINE
  5
1C8
330
1F
100
AcDbEntity
  8
0-3_仕上げ
  6
Continuous
 62
     7
370
     9
100
AcDbLine
 10
60.80008511930203
 20
1292.249884837382
 30
0.0
 11
60.80008511930203
 21
3669.249884837381
 31
0.0
  0
LINE
  5
1C9
330
1F
100
AcDbEntity
  8
0-3_仕上げ
  6
Continuous
 62
    92
370
    13
100
AcDbLine
 10
-202.1999148806984
 20
1292.249884837382
 30
0.0
 11
-202.1999148806984
 21
3669.249884837381
 31
0.0
  0
LINE
  5
1CA
330
1F
100
AcDbEntity
  8
0-3_仕上げ
  6
Continuous
 62
     7
370
     9
100
AcDbLine
 10
-24.19991488069826
 20
1300.249884837382
 30
0.0
 11
60.80008511930203
 21
1300.249884837382
 31
0.0
  0
LINE
  5
1CB
330
1F
100
AcDbEntity
  8
0-3_仕上げ
  6
Continuous
 62
    92
370
    13
100
AcDbLine
 10
411.800085119302
 20
1292.249884837382
 30
0.0
 11
411.800085119302
 21
3669.249884837381
 31
0.0
  0
LINE
  5
1CC
330
1F
100
AcDbEntity
  8
0-3_仕上げ
  6
Continuous
 62
    92
370
    13
100
AcDbLine
 10
416.800085119302
 20
1292.249884837382
 30
0.0
 11
416.800085119302
 21
3669.249884837381
 31
0.0
  0
LINE
  5
1CD
330
1F
100
AcDbEntity
  8
0-3_仕上げ
  6
Continuous
 62
    92
370
    13
100
AcDbLine
 10
143.800085119302
 20
1292.249884837382
 30
0.0
 11
143.800085119302
 21
3669.249884837381
 31
0.0
  0
LINE
  5
1CE
330
1F
100
AcDbEntity
  8
0-3_仕上げ
  6
Continuous
 62
    92
370
    13
100
AcDbLine
 10
328.800085119302
 20
1292.249884837382
 30
0.0
 11
328.800085119302
 21
3669.249884837381
 31
0.0
  0
LINE
  5
1CF
330
1F
100
AcDbEntity
  8
0-3_仕上げ
  6
Continuous
 62
    92
370
    13
100
AcDbLine
 10
148.800085119302
 20
1292.249884837382
 30
0.0
 11
148.800085119302
 21
3669.249884837381
 31
0.0
  0
LINE
  5
1D0
330
1F
100
AcDbEntity
  8
0-3_仕上げ
  6
Continuous
 62
    92
370
    13
100
AcDbLine
 10
323.800085119302
 20
1292.249884837382
 30
0.0
 11
323.800085119302
 21
3669.249884837381
 31
0.0
  0
LINE
  5
1D1
330
1F
100
AcDbEntity
  8
0-3_仕上げ
  6
Continuous
 62
    92
370
    13
100
AcDbLine
 10
233.800085119302
 20
1292.249884837382
 30
0.0
 11
233.800085119302
 21
3669.249884837381
 31
0.0
  0
LINE
  5
1D2
330
1F
100
AcDbEntity
  8
0-3_仕上げ
  6
Continuous
 62
    92
370
    13
100
AcDbLine
 10
238.800085119302
 20
1292.249884837382
 30
0.0
 11
238.800085119302
 21
3669.249884837381
 31
0.0
  0
LINE
  5
1D3
330
1F
100
AcDbEntity
  8
0-3_仕上げ
  6
Continuous
 62
    92
370
    13
100
AcDbLine
 10
494.8000851193001
 20
1292.249884837382
 30
0.0
 11
494.8000851193001
 21
3669.249884837381
 31
0.0
  0
LINE
  5
1D4
330
1F
100
AcDbEntity
  8
0-1_通り芯
  6
JWW_CENTER1
 62
   120
370
     5
100
AcDbLine
 10
-2430.799578280063
 20
2249.749884837364
 30
0.0
 11
-2240.799578280065
 21
2249.749884837364
 31
0.0
  0
LINE
  5
1D5
330
1F
100
AcDbEntity
  8
0-1_通り芯
  6
JWW_CENTER1
 62
   120
370
     5
100
AcDbLine
 10
-2385.799578280063
 20
2373.749884837363
 30
0.0
 11
-2385.799578280063
 21
2163.749884837364
 31
0.0
  0
LINE
  5
1D6
330
1F
100
AcDbEntity
  8
0-1_通り芯
  6
JWW_CENTER1
 62
   120
370
     5
100
AcDbLine
 10
-199.1999148806985
 20
2249.749884837364
 30
0.0
 11
-9.199914880700817
 21
2249.749884837364
 31
0.0
  0
LINE
  5
1D7
330
1F
100
AcDbEntity
  8
0-1_通り芯
  6
JWW_CENTER1
 62
   120
370
     5
100
AcDbLine
 10
-154.1999148806985
 20
2373.749884837363
 30
0.0
 11
-154.1999148806985
 21
2163.749884837364
 31
0.0
  0
LINE
  5
1D8
330
1F
100
AcDbEntity
  8
0-C_ハッチ
  6
JWW_DASHED1
 62
   120
370
     5
100
AcDbLine
 10
-2255.799578280063
 20
1606.016119928741
 30
0.0
 11
-2160.799578280063
 21
1701.016119928743
 31
0.0
  0
LINE
  5
1D9
330
1F
100
AcDbEntity
  8
0-C_ハッチ
  6
JWW_DASHED1
 62
   120
370
     5
100
AcDbLine
 10
-2255.799578280063
 20
1648.442526799942
 30
0.0
 11
-2160.799578280066
 21
1743.442526799939
 31
0.0
  0
LINE
  5
1DA
330
1F
100
AcDbEntity
  8
0-C_ハッチ
  6
JWW_DASHED1
 62
   120
370
     5
100
AcDbLine
 10
-2255.79957828008
 20
1521.163306186324
 30
0.0
 11
-2160.799578280069
 21
1616.163306186336
 31
0.0
  0
LINE
  5
1DB
330
1F
100
AcDbEntity
  8
0-C_ハッチ
  6
JWW_DASHED1
 62
   120
370
     5
100
AcDbLine
 10
-2255.799578280069
 20
1563.589713057536
 30
0.0
 11
-2160.799578280058
 21
1658.589713057547
 31
0.0
  0
LINE
  5
1DC
330
1F
100
AcDbEntity
  8
0-C_ハッチ
  6
JWW_DASHED1
 62
   120
370
     5
100
AcDbLine
 10
-2255.79957828008
 20
1436.310492443924
 30
0.0
 11
-2160.799578280069
 21
1531.310492443935
 31
0.0
  0
LINE
  5
1DD
330
1F
100
AcDbEntity
  8
0-C_ハッチ
  6
JWW_DASHED1
 62
   120
370
     5
100
AcDbLine
 10
-2255.799578280069
 20
1478.736899315136
 30
0.0
 11
-2160.799578280058
 21
1573.736899315147
 31
0.0
  0
LINE
  5
1DE
330
1F
100
AcDbEntity
  8
0-C_ハッチ
  6
JWW_DASHED1
 62
   120
370
     5
100
AcDbLine
 10
-2255.79957828008
 20
1351.457678701517
 30
0.0
 11
-2160.799578280069
 21
1446.457678701528
 31
0.0
  0
LINE
  5
1DF
330
1F
100
AcDbEntity
  8
0-C_ハッチ
  6
JWW_DASHED1
 62
   120
370
     5
100
AcDbLine
 10
-2255.799578280069
 20
1393.884085572729
 30
0.0
 11
-2160.799578280058
 21
1488.884085572739
 31
0.0
  0
LINE
  5
1E0
330
1F
100
AcDbEntity
  8
0-C_ハッチ
  6
JWW_DASHED1
 62
   120
370
     5
100
AcDbLine
 10
-2255.799578280069
 20
1309.031271830321
 30
0.0
 11
-2160.799578280058
 21
1404.031271830332
 31
0.0
  0
LINE
  5
1E1
330
1F
100
AcDbEntity
  8
0-C_ハッチ
  6
JWW_DASHED1
 62
   120
370
     5
100
AcDbLine
 10
-2222.154558401808
 20
1300.249884837382
 30
0.0
 11
-2160.799578280069
 21
1361.604864959121
 31
0.0
  0
LINE
  5
1E2
330
1F
100
AcDbEntity
  8
0-C_ハッチ
  6
JWW_DASHED1
 62
   120
370
     5
100
AcDbLine
 10
-2179.728151530601
 20
1300.249884837382
 30
0.0
 11
-2160.799578280058
 21
1319.178458087925
 31
0.0
  0
LINE
  5
1E3
330
1F
100
AcDbEntity
  8
0-C_ハッチ
  6
JWW_DASHED1
 62
   120
370
     5
100
AcDbLine
 10
-24.19991488069826
 20
1653.44252679996
 30
0.0
 11
60.80008511930203
 21
1738.44252679996
 31
0.0
  0
LINE
  5
1E4
330
1F
100
AcDbEntity
  8
0-C_ハッチ
  6
JWW_DASHED1
 62
   120
370
     5
100
AcDbLine
 10
-24.19991488069825
 20
1611.01611992876
 30
0.0
 11
60.80008511930544
 21
1696.016119928764
 31
0.0
  0
LINE
  5
1E5
330
1F
100
AcDbEntity
  8
0-C_ハッチ
  6
JWW_DASHED1
 62
   120
370
     5
100
AcDbLine
 10
-24.19991488070508
 20
1526.163306186356
 30
0.0
 11
60.80008511929776
 21
1611.16330618636
 31
0.0
  0
LINE
  5
1E6
330
1F
100
AcDbEntity
  8
0-C_ハッチ
  6
JWW_DASHED1
 62
   120
370
     5
100
AcDbLine
 10
-24.199914880694
 20
1568.589713057568
 30
0.0
 11
60.8000851193097
 21
1653.589713057571
 31
0.0
  0
LINE
  5
1E7
330
1F
100
AcDbEntity
  8
0-C_ハッチ
  6
JWW_DASHED1
 62
   120
370
     5
100
AcDbLine
 10
-24.19991488070508
 20
1441.310492443952
 30
0.0
 11
60.80008511929776
 21
1526.310492443956
 31
0.0
  0
LINE
  5
1E8
330
1F
100
AcDbEntity
  8
0-C_ハッチ
  6
JWW_DASHED1
 62
   120
370
     5
100
AcDbLine
 10
-24.199914880694
 20
1483.736899315164
 30
0.0
 11
60.8000851193097
 21
1568.736899315167
 31
0.0
  0
LINE
  5
1E9
330
1F
100
AcDbEntity
  8
0-C_ハッチ
  6
JWW_DASHED1
 62
   120
370
     5
100
AcDbLine
 10
-24.19991488070508
 20
1356.457678701548
 30
0.0
 11
60.80008511929776
 21
1441.457678701551
 31
0.0
  0
LINE
  5
1EA
330
1F
100
AcDbEntity
  8
0-C_ハッチ
  6
JWW_DASHED1
 62
   120
370
     5
100
AcDbLine
 10
-24.199914880694
 20
1398.88408557276
 30
0.0
 11
60.8000851193097
 21
1483.884085572763
 31
0.0
  0
LINE
  5
1EB
330
1F
100
AcDbEntity
  8
0-C_ハッチ
  6
JWW_DASHED1
 62
   120
370
     5
100
AcDbLine
 10
-24.199914880694
 20
1314.031271830356
 30
0.0
 11
60.8000851193097
 21
1399.031271830358
 31
0.0
  0
LINE
  5
1EC
330
1F
100
AcDbEntity
  8
0-C_ハッチ
  6
JWW_DASHED1
 62
   120
370
     5
100
AcDbLine
 10
4.445104997533202
 20
1300.249884837382
 30
0.0
 11
60.80008511929776
 21
1356.604864959147
 31
0.0
  0
LINE
  5
1ED
330
1F
100
AcDbEntity
  8
0-C_ハッチ
  6
JWW_DASHED1
 62
   120
370
     5
100
AcDbLine
 10
46.8715118687374
 20
1300.249884837382
 30
0.0
 11
60.8000851193097
 21
1314.178458087954
 31
0.0
  0
LINE
  5
1EE
330
1F
100
AcDbEntity
  8
0-7
  6
JWW_CENTER2
 62
     7
370
     9
100
AcDbLine
 10
-4668.399798419025
 20
3669.249884837381
 30
0.0
 11
-3875.399798419023
 21
2480.749884837383
 31
0.0
  0
LINE
  5
1EF
330
1F
100
AcDbEntity
  8
0-7
  6
JWW_CENTER2
 62
     7
370
     9
100
AcDbLine
 10
-3875.399798419023
 20
2480.749884837383
 30
0.0
 11
-4668.399798419025
 21
1292.249884837382
 31
0.0
  0
MTEXT
  5
1F0
330
1F
100
AcDbEntity
  8
0-A_文字
  6
Continuous
 62
     7
370
     9
100
AcDbMText
 10
1324.800177909231
 20
541.5751831054688
 30
0.0
 40
57.15
 41
600.0
 46
0.0
 71
     7
 72
     1
  1
{\fＭＳ ゴシック|b0|i0|c128|p49;乳半合わせガラス}
 73
     1
 44
1.0
  0
LINE
  5
1F1
330
1F
100
AcDbEntity
  8
0-4_枠
  6
Continuous
 62
    92
370
    13
100
AcDbLine
 10
1997.400212468327
 20
1279.249884837382
 30
0.0
 11
1997.400212468327
 21
3679.249884837382
 31
0.0
  0
LINE
  5
1F2
330
1F
100
AcDbEntity
  8
0-4_枠
  6
Continuous
 62
    92
370
    13
100
AcDbLine
 10
2021.400212468326
 20
1279.249884837382
 30
0.0
 11
2021.400212468326
 21
3679.249884837382
 31
0.0
  0
LINE
  5
1F3
330
1F
100
AcDbEntity
  8
0-2_扉
  6
Continuous
 62
    92
370
    13
100
AcDbLine
 10
2026.400212468327
 20
1292.249884837382
 30
0.0
 11
2026.400212468327
 21
3669.249884837381
 31
0.0
  0
LINE
  5
1F4
330
1F
100
AcDbEntity
  8
0-1_通り芯
  6
JWW_CENTER1
 62
   120
370
     5
100
AcDbLine
 10
2077.400212468326
 20
2373.749884837363
 30
0.0
 11
2077.400212468326
 21
2163.749884837364
 31
0.0
  0
LINE
  5
1F5
330
1F
100
AcDbEntity
  8
0-1_通り芯
  6
JWW_CENTER1
 62
   120
370
     5
100
AcDbLine
 10
2032.400212468326
 20
2249.749884837364
 30
0.0
 11
2222.400212468324
 21
2249.749884837364
 31
0.0
  0
MTEXT
  5
1F6
330
1F
100
AcDbEntity
  8
0-A_文字
  6
Continuous
 62
     7
370
     9
100
AcDbMText
 10
2118.100241583747
 20
4013.576151024072
 30
0.0
 40
77.15249999999999
 41
405.0
 46
0.0
 71
     7
 72
     1
  1
{\fＭＳ ゴシック|b0|i0|c128|p49;Ｎ－ＦＭ}
 73
     1
 44
1.0
  0
LINE
  5
1F7
330
1F
100
AcDbEntity
  8
0-3_仕上げ
  6
Continuous
 62
     7
370
     9
100
AcDbLine
 10
2207.400212468327
 20
3661.249884837381
 30
0.0
 11
2292.400212468327
 21
3661.249884837381
 31
0.0
  0
LINE
  5
1F8
330
1F
100
AcDbEntity
  8
0-C_ハッチ
  6
JWW_DASHED1
 62
   120
370
     5
100
AcDbLine
 10
2207.40021246832
 20
1695.868933671153
 30
0.0
 11
2292.400212468322
 21
1780.868933671157
 31
0.0
  0
LINE
  5
1F9
330
1F
100
AcDbEntity
  8
0-C_ハッチ
  6
JWW_DASHED1
 62
   120
370
     5
100
AcDbLine
 10
2207.400212468331
 20
1738.295340542365
 30
0.0
 11
2292.400212468334
 21
1823.295340542368
 31
0.0
  0
LINE
  5
1FA
330
1F
100
AcDbEntity
  8
0-C_ハッチ
  6
JWW_DASHED1
 62
   120
370
     5
100
AcDbLine
 10
2207.400212468327
 20
1780.721747413561
 30
0.0
 11
2292.40021246833
 21
1865.721747413564
 31
0.0
  0
LINE
  5
1FB
330
1F
100
AcDbEntity
  8
0-C_ハッチ
  6
JWW_DASHED1
 62
   120
370
     5
100
AcDbLine
 10
2207.400212468335
 20
1823.148154284714
 30
0.0
 11
2292.400212468322
 21
1908.148154284701
 31
0.0
  0
LINE
  5
1FC
330
1F
100
AcDbEntity
  8
0-C_ハッチ
  6
JWW_DASHED1
 62
   120
370
     5
100
AcDbLine
 10
2207.400212468331
 20
1865.57456115591
 30
0.0
 11
2292.400212468318
 21
1950.574561155897
 31
0.0
  0
LINE
  5
1FD
330
1F
100
AcDbEntity
  8
0-C_ハッチ
  6
JWW_DASHED1
 62
   120
370
     5
100
AcDbLine
 10
2207.400212468327
 20
1908.000968027106
 30
0.0
 11
2292.400212468315
 21
1993.000968027094
 31
0.0
  0
LINE
  5
1FE
330
1F
100
AcDbEntity
  8
0-C_ハッチ
  6
JWW_DASHED1
 62
   120
370
     5
100
AcDbLine
 10
2207.400212468326
 20
1950.427374898305
 30
0.0
 11
2292.400212468329
 21
2035.427374898308
 31
0.0
  0
LINE
  5
1FF
330
1F
100
AcDbEntity
  8
0-C_ハッチ
  6
JWW_DASHED1
 62
   120
370
     5
100
AcDbLine
 10
2207.400212468322
 20
1992.853781769501
 30
0.0
 11
2292.400212468326
 21
2077.853781769505
 31
0.0
  0
LINE
  5
200
330
1F
100
AcDbEntity
  8
0-C_ハッチ
  6
JWW_DASHED1
 62
   120
370
     5
100
AcDbLine
 10
2207.400212468332
 20
2035.280188640711
 30
0.0
 11
2292.400212468334
 21
2120.280188640714
 31
0.0
  0
LINE
  5
201
330
1F
100
AcDbEntity
  8
0-C_ハッチ
  6
JWW_DASHED1
 62
   120
370
     5
100
AcDbLine
 10
2207.400212468328
 20
2077.706595511907
 30
0.0
 11
2292.400212468331
 21
2162.70659551191
 31
0.0
  0
LINE
  5
202
330
1F
100
AcDbEntity
  8
0-C_ハッチ
  6
JWW_DASHED1
 62
   120
370
     5
100
AcDbLine
 10
2207.40021246834
 20
2120.133002383119
 30
0.0
 11
2292.400212468327
 21
2205.133002383106
 31
0.0
  0
LINE
  5
203
330
1F
100
AcDbEntity
  8
0-C_ハッチ
  6
JWW_DASHED1
 62
   120
370
     5
100
AcDbLine
 10
2207.400212468332
 20
2162.559409254256
 30
0.0
 11
2292.400212468319
 21
2247.559409254244
 31
0.0
  0
LINE
  5
204
330
1F
100
AcDbEntity
  8
0-C_ハッチ
  6
JWW_DASHED1
 62
   120
370
     5
100
AcDbLine
 10
2207.400212468328
 20
2204.985816125453
 30
0.0
 11
2292.400212468315
 21
2289.98581612544
 31
0.0
  0
LINE
  5
205
330
1F
100
AcDbEntity
  8
0-C_ハッチ
  6
JWW_DASHED1
 62
   120
370
     5
100
AcDbLine
 10
2207.400212468324
 20
2247.412222996649
 30
0.0
 11
2292.400212468327
 21
2332.412222996652
 31
0.0
  0
LINE
  5
206
330
1F
100
AcDbEntity
  8
0-C_ハッチ
  6
JWW_DASHED1
 62
   120
370
     5
100
AcDbLine
 10
2207.400212468325
 20
2289.83862986785
 30
0.0
 11
2292.400212468328
 21
2374.838629867853
 31
0.0
  0
LINE
  5
207
330
1F
100
AcDbEntity
  8
0-C_ハッチ
  6
JWW_DASHED1
 62
   120
370
     5
100
AcDbLine
 10
2207.400212468322
 20
2332.265036739047
 30
0.0
 11
2292.400212468325
 21
2417.26503673905
 31
0.0
  0
LINE
  5
208
330
1F
100
AcDbEntity
  8
0-C_ハッチ
  6
JWW_DASHED1
 62
   120
370
     5
100
AcDbLine
 10
2207.400212468328
 20
2374.691443610253
 30
0.0
 11
2292.400212468331
 21
2459.691443610256
 31
0.0
  0
LINE
  5
209
330
1F
100
AcDbEntity
  8
0-C_ハッチ
  6
JWW_DASHED1
 62
   120
370
     5
100
AcDbLine
 10
2207.400212468325
 20
2417.117850481449
 30
0.0
 11
2292.400212468327
 21
2502.117850481452
 31
0.0
  0
LINE
  5
20A
330
1F
100
AcDbEntity
  8
0-C_ハッチ
  6
JWW_DASHED1
 62
   120
370
     5
100
AcDbLine
 10
2207.400212468337
 20
2459.544257352662
 30
0.0
 11
2292.400212468323
 21
2544.544257352648
 31
0.0
  0
LINE
  5
20B
330
1F
100
AcDbEntity
  8
0-C_ハッチ
  6
JWW_DASHED1
 62
   120
370
     5
100
AcDbLine
 10
2207.400212468328
 20
2501.970664223799
 30
0.0
 11
2292.400212468316
 21
2586.970664223786
 31
0.0
  0
LINE
  5
20C
330
1F
100
AcDbEntity
  8
0-C_ハッチ
  6
JWW_DASHED1
 62
   120
370
     5
100
AcDbLine
 10
2207.400212468325
 20
2544.397071094995
 30
0.0
 11
2292.400212468312
 21
2629.397071094982
 31
0.0
  0
LINE
  5
20D
330
1F
100
AcDbEntity
  8
0-C_ハッチ
  6
JWW_DASHED1
 62
   120
370
     5
100
AcDbLine
 10
2207.400212468328
 20
2586.823477966198
 30
0.0
 11
2292.400212468332
 21
2671.823477966202
 31
0.0
  0
LINE
  5
20E
330
1F
100
AcDbEntity
  8
0-C_ハッチ
  6
JWW_DASHED1
 62
   120
370
     5
100
AcDbLine
 10
2207.400212468325
 20
2629.249884837395
 30
0.0
 11
2292.400212468328
 21
2714.249884837398
 31
0.0
  0
LINE
  5
20F
330
1F
100
AcDbEntity
  8
0-C_ハッチ
  6
JWW_DASHED1
 62
   120
370
     5
100
AcDbLine
 10
2207.400212468321
 20
2671.676291708592
 30
0.0
 11
2292.400212468325
 21
2756.676291708595
 31
0.0
  0
LINE
  5
210
330
1F
100
AcDbEntity
  8
0-C_ハッチ
  6
JWW_DASHED1
 62
   120
370
     5
100
AcDbLine
 10
2207.400212468326
 20
2714.102698579795
 30
0.0
 11
2292.400212468327
 21
2799.102698579798
 31
0.0
  0
LINE
  5
211
330
1F
100
AcDbEntity
  8
0-C_ハッチ
  6
JWW_DASHED1
 62
   120
370
     5
100
AcDbLine
 10
2207.400212468337
 20
2756.529105451008
 30
0.0
 11
2292.400212468324
 21
2841.529105450994
 31
0.0
  0
LINE
  5
212
330
1F
100
AcDbEntity
  8
0-C_ハッチ
  6
JWW_DASHED1
 62
   120
370
     5
100
AcDbLine
 10
2207.400212468329
 20
2798.955512322145
 30
0.0
 11
2292.400212468317
 21
2883.955512322132
 31
0.0
  0
LINE
  5
213
330
1F
100
AcDbEntity
  8
0-C_ハッチ
  6
JWW_DASHED1
 62
   120
370
     5
100
AcDbLine
 10
2207.400212468326
 20
2841.381919193341
 30
0.0
 11
2292.400212468312
 21
2926.381919193328
 31
0.0
  0
LINE
  5
214
330
1F
100
AcDbEntity
  8
0-C_ハッチ
  6
JWW_DASHED1
 62
   120
370
     5
100
AcDbLine
 10
2207.400212468321
 20
2883.808326064537
 30
0.0
 11
2292.400212468309
 21
2968.808326064524
 31
0.0
  0
LINE
  5
215
330
1F
100
AcDbEntity
  8
0-C_ハッチ
  6
JWW_DASHED1
 62
   120
370
     5
100
AcDbLine
 10
2207.400212468327
 20
2926.234732935743
 30
0.0
 11
2292.400212468331
 21
3011.234732935747
 31
0.0
  0
LINE
  5
216
330
1F
100
AcDbEntity
  8
0-C_ハッチ
  6
JWW_DASHED1
 62
   120
370
     5
100
AcDbLine
 10
2207.400212468324
 20
2968.66113980694
 30
0.0
 11
2292.400212468327
 21
3053.661139806944
 31
0.0
  0
LINE
  5
217
330
1F
100
AcDbEntity
  8
0-C_ハッチ
  6
JWW_DASHED1
 62
   120
370
     5
100
AcDbLine
 10
2207.400212468326
 20
3011.087546678141
 30
0.0
 11
2292.400212468328
 21
3096.087546678144
 31
0.0
  0
LINE
  5
218
330
1F
100
AcDbEntity
  8
0-C_ハッチ
  6
JWW_DASHED1
 62
   120
370
     5
100
AcDbLine
 10
2207.400212468322
 20
3053.513953549338
 30
0.0
 11
2292.400212468325
 21
3138.51395354934
 31
0.0
  0
LINE
  5
219
330
1F
100
AcDbEntity
  8
0-C_ハッチ
  6
JWW_DASHED1
 62
   120
370
     5
100
AcDbLine
 10
2207.400212468334
 20
3095.940360420549
 30
0.0
 11
2292.400212468321
 21
3180.940360420537
 31
0.0
  0
LINE
  5
21A
330
1F
100
AcDbEntity
  8
0-C_ハッチ
  6
JWW_DASHED1
 62
   120
370
     5
100
AcDbLine
 10
2207.400212468326
 20
3138.366767291687
 30
0.0
 11
2292.400212468313
 21
3223.366767291674
 31
0.0
  0
LINE
  5
21B
330
1F
100
AcDbEntity
  8
0-C_ハッチ
  6
JWW_DASHED1
 62
   120
370
     5
100
AcDbLine
 10
2207.400212468322
 20
3180.793174162884
 30
0.0
 11
2292.400212468309
 21
3265.79317416287
 31
0.0
  0
LINE
  5
21C
330
1F
100
AcDbEntity
  8
0-C_ハッチ
  6
JWW_DASHED1
 62
   120
370
     5
100
AcDbLine
 10
2207.400212468318
 20
3223.219581034079
 30
0.0
 11
2292.400212468322
 21
3308.219581034083
 31
0.0
  0
LINE
  5
21D
330
1F
100
AcDbEntity
  8
0-C_ハッチ
  6
JWW_DASHED1
 62
   120
370
     5
100
AcDbLine
 10
2207.400212468327
 20
3265.645987905288
 30
0.0
 11
2292.40021246833
 21
3350.645987905292
 31
0.0
  0
LINE
  5
21E
330
1F
100
AcDbEntity
  8
0-C_ハッチ
  6
JWW_DASHED1
 62
   120
370
     5
100
AcDbLine
 10
2207.400212468324
 20
3308.072394776485
 30
0.0
 11
2292.400212468327
 21
3393.072394776489
 31
0.0
  0
LINE
  5
21F
330
1F
100
AcDbEntity
  8
0-C_ハッチ
  6
JWW_DASHED1
 62
   120
370
     5
100
AcDbLine
 10
2207.400212468322
 20
3350.498801647684
 30
0.0
 11
2292.400212468326
 21
3435.498801647687
 31
0.0
  0
LINE
  5
220
330
1F
100
AcDbEntity
  8
0-C_ハッチ
  6
JWW_DASHED1
 62
   120
370
     5
100
AcDbLine
 10
2207.400212468319
 20
3392.92520851888
 30
0.0
 11
2292.400212468322
 21
3477.925208518883
 31
0.0
  0
LINE
  5
221
330
1F
100
AcDbEntity
  8
0-C_ハッチ
  6
JWW_DASHED1
 62
   120
370
     5
100
AcDbLine
 10
2207.400212468331
 20
3435.351615390092
 30
0.0
 11
2292.400212468318
 21
3520.351615390079
 31
0.0
  0
LINE
  5
222
330
1F
100
AcDbEntity
  8
0-C_ハッチ
  6
JWW_DASHED1
 62
   120
370
     5
100
AcDbLine
 10
2207.400212468323
 20
3477.77802226123
 30
0.0
 11
2292.40021246831
 21
3562.778022261216
 31
0.0
  0
LINE
  5
223
330
1F
100
AcDbEntity
  8
0-C_ハッチ
  6
JWW_DASHED1
 62
   120
370
     5
100
AcDbLine
 10
2207.400212468319
 20
3520.204429132426
 30
0.0
 11
2292.400212468306
 21
3605.204429132413
 31
0.0
  0
LINE
  5
224
330
1F
100
AcDbEntity
  8
0-C_ハッチ
  6
JWW_DASHED1
 62
   120
370
     5
100
AcDbLine
 10
2207.40021246833
 20
3562.630836003637
 30
0.0
 11
2292.400212468333
 21
3647.630836003641
 31
0.0
  0
LINE
  5
225
330
1F
100
AcDbEntity
  8
0-C_ハッチ
  6
JWW_DASHED1
 62
   120
370
     5
100
AcDbLine
 10
2207.400212468327
 20
3605.057242874833
 30
0.0
 11
2263.592854430872
 21
3661.249884837379
 31
0.0
  0
LINE
  5
226
330
1F
100
AcDbEntity
  8
0-C_ハッチ
  6
JWW_DASHED1
 62
   120
370
     5
100
AcDbLine
 10
2207.400212468323
 20
3647.48364974603
 30
0.0
 11
2221.166447559677
 21
3661.249884837384
 31
0.0
  0
LINE
  5
227
330
1F
100
AcDbEntity
  8
0-3_仕上げ
  6
Continuous
 62
     7
370
     9
100
AcDbLine
 10
2207.400212468327
 20
1292.249884837382
 30
0.0
 11
2207.400212468327
 21
3669.249884837381
 31
0.0
  0
LINE
  5
228
330
1F
100
AcDbEntity
  8
0-3_仕上げ
  6
Continuous
 62
     7
370
     9
100
AcDbLine
 10
2292.400212468327
 20
1292.249884837382
 30
0.0
 11
2292.400212468327
 21
3669.249884837381
 31
0.0
  0
LINE
  5
229
330
1F
100
AcDbEntity
  8
0-3_仕上げ
  6
Continuous
 62
    92
370
    13
100
AcDbLine
 10
2029.400212468326
 20
1292.249884837382
 30
0.0
 11
2029.400212468326
 21
3669.249884837381
 31
0.0
  0
LINE
  5
22A
330
1F
100
AcDbEntity
  8
0-3_仕上げ
  6
Continuous
 62
     7
370
     9
100
AcDbLine
 10
2207.400212468327
 20
1300.249884837382
 30
0.0
 11
2292.400212468327
 21
1300.249884837382
 31
0.0
  0
LINE
  5
22B
330
1F
100
AcDbEntity
  8
0-3_仕上げ
  6
Continuous
 62
    92
370
    13
100
AcDbLine
 10
2620.400212468327
 20
1292.249884837382
 30
0.0
 11
2620.400212468327
 21
3669.249884837381
 31
0.0
  0
LINE
  5
22C
330
1F
100
AcDbEntity
  8
0-3_仕上げ
  6
Continuous
 62
    92
370
    13
100
AcDbLine
 10
2625.400212468327
 20
1292.249884837382
 30
0.0
 11
2625.400212468327
 21
3669.249884837381
 31
0.0
  0
LINE
  5
22D
330
1F
100
AcDbEntity
  8
0-3_仕上げ
  6
Continuous
 62
    92
370
    13
100
AcDbLine
 10
2363.900212468327
 20
1292.249884837382
 30
0.0
 11
2363.900212468327
 21
3669.249884837381
 31
0.0
  0
LINE
  5
22E
330
1F
100
AcDbEntity
  8
0-3_仕上げ
  6
Continuous
 62
    92
370
    13
100
AcDbLine
 10
2548.900212468327
 20
1292.249884837382
 30
0.0
 11
2548.900212468327
 21
3669.249884837381
 31
0.0
  0
LINE
  5
22F
330
1F
100
AcDbEntity
  8
0-3_仕上げ
  6
Continuous
 62
    92
370
    13
100
AcDbLine
 10
2368.900212468327
 20
1292.249884837382
 30
0.0
 11
2368.900212468327
 21
3669.249884837381
 31
0.0
  0
LINE
  5
230
330
1F
100
AcDbEntity
  8
0-3_仕上げ
  6
Continuous
 62
    92
370
    13
100
AcDbLine
 10
2543.900212468327
 20
1292.249884837382
 30
0.0
 11
2543.900212468327
 21
3669.249884837381
 31
0.0
  0
LINE
  5
231
330
1F
100
AcDbEntity
  8
0-3_仕上げ
  6
Continuous
 62
    92
370
    13
100
AcDbLine
 10
2453.900212468327
 20
1292.249884837382
 30
0.0
 11
2453.900212468327
 21
3669.249884837381
 31
0.0
  0
LINE
  5
232
330
1F
100
AcDbEntity
  8
0-3_仕上げ
  6
Continuous
 62
    92
370
    13
100
AcDbLine
 10
2458.900212468327
 20
1292.249884837382
 30
0.0
 11
2458.900212468327
 21
3669.249884837381
 31
0.0
  0
LINE
  5
233
330
1F
100
AcDbEntity
  8
0-3_仕上げ
  6
Continuous
 62
    92
370
    13
100
AcDbLine
 10
2703.400212468326
 20
1292.249884837382
 30
0.0
 11
2703.400212468326
 21
3669.249884837381
 31
0.0
  0
LINE
  5
234
330
1F
100
AcDbEntity
  8
0-C_ハッチ
  6
JWW_DASHED1
 62
   120
370
     5
100
AcDbLine
 10
2207.400212468327
 20
1653.44252679996
 30
0.0
 11
2292.400212468327
 21
1738.44252679996
 31
0.0
  0
LINE
  5
235
330
1F
100
AcDbEntity
  8
0-C_ハッチ
  6
JWW_DASHED1
 62
   120
370
     5
100
AcDbLine
 10
2207.400212468327
 20
1611.01611992876
 30
0.0
 11
2292.40021246833
 21
1696.016119928764
 31
0.0
  0
LINE
  5
236
330
1F
100
AcDbEntity
  8
0-C_ハッチ
  6
JWW_DASHED1
 62
   120
370
     5
100
AcDbLine
 10
2207.400212468327
 20
1568.589713057567
 30
0.0
 11
2292.400212468327
 21
1653.589713057567
 31
0.0
  0
LINE
  5
237
330
1F
100
AcDbEntity
  8
0-C_ハッチ
  6
JWW_DASHED1
 62
   120
370
     5
100
AcDbLine
 10
2207.400212468327
 20
1526.163306186367
 30
0.0
 11
2292.40021246833
 21
1611.163306186371
 31
0.0
  0
LINE
  5
238
330
1F
100
AcDbEntity
  8
0-C_ハッチ
  6
JWW_DASHED1
 62
   120
370
     5
100
AcDbLine
 10
2207.400212468327
 20
1483.736899315174
 30
0.0
 11
2292.400212468327
 21
1568.736899315175
 31
0.0
  0
LINE
  5
239
330
1F
100
AcDbEntity
  8
0-C_ハッチ
  6
JWW_DASHED1
 62
   120
370
     5
100
AcDbLine
 10
2207.400212468327
 20
1441.310492443974
 30
0.0
 11
2292.40021246833
 21
1526.310492443978
 31
0.0
  0
LINE
  5
23A
330
1F
100
AcDbEntity
  8
0-C_ハッチ
  6
JWW_DASHED1
 62
   120
370
     5
100
AcDbLine
 10
2207.400212468327
 20
1398.884085572782
 30
0.0
 11
2292.400212468327
 21
1483.884085572782
 31
0.0
  0
LINE
  5
23B
330
1F
100
AcDbEntity
  8
0-C_ハッチ
  6
JWW_DASHED1
 62
   120
370
     5
100
AcDbLine
 10
2207.400212468327
 20
1356.457678701581
 30
0.0
 11
2292.40021246833
 21
1441.457678701585
 31
0.0
  0
LINE
  5
23C
330
1F
100
AcDbEntity
  8
0-C_ハッチ
  6
JWW_DASHED1
 62
   120
370
     5
100
AcDbLine
 10
2207.400212468327
 20
1314.031271830389
 30
0.0
 11
2292.400212468327
 21
1399.031271830389
 31
0.0
  0
LINE
  5
23D
330
1F
100
AcDbEntity
  8
0-C_ハッチ
  6
JWW_DASHED1
 62
   120
370
     5
100
AcDbLine
 10
2236.04523234652
 20
1300.249884837382
 30
0.0
 11
2292.40021246833
 21
1356.604864959193
 31
0.0
  0
LINE
  5
23E
330
1F
100
AcDbEntity
  8
0-C_ハッチ
  6
JWW_DASHED1
 62
   120
370
     5
100
AcDbLine
 10
2278.471639217712
 20
1300.249884837382
 30
0.0
 11
2292.400212468327
 21
1314.178458087996
 31
0.0
  0
MTEXT
  5
23F
330
1F
100
AcDbEntity
  8
0-A_文字
  6
Continuous
 62
     7
370
     9
100
AcDbMText
 10
1324.800177909231
 20
661.5751831054678
 30
0.0
 40
57.15000000000001
 41
900.0
 46
0.0
 71
     7
 72
     1
  1
{\fＭＳ ゴシック|b0|i0|c128|p49;枠外幅 735mm（DW=680mm）}
 73
     1
 44
1.0
  0
LINE
  5
240
330
1F
100
AcDbEntity
  8
F-A_文字
  6
Continuous
 62
     7
370
     9
100
AcDbLine
 10
3436.400212468328
 20
190.4999511306352
 30
0.0
 11
5689.998977248734
 21
4164.999983504013
 31
0.0
  0
LINE
  5
241
330
1F
100
AcDbEntity
  8
0-4_枠
  6
Continuous
 62
    92
370
    13
100
AcDbLine
 10
1997.400212468327
 20
1279.249884837382
 30
0.0
 11
2732.400212468327
 21
1279.249884837382
 31
0.0
  0
LINE
  5
242
330
1F
100
AcDbEntity
  8
0-4_枠
  6
Continuous
 62
    92
370
    13
100
AcDbLine
 10
2708.400212468327
 20
1279.249884837382
 30
0.0
 11
2708.400212468327
 21
3679.249884837382
 31
0.0
  0
LINE
  5
243
330
1F
100
AcDbEntity
  8
0-4_枠
  6
Continuous
 62
    92
370
    13
100
AcDbLine
 10
2732.400212468327
 20
1279.249884837382
 30
0.0
 11
2732.400212468327
 21
3679.249884837382
 31
0.0
  0
LINE
  5
244
330
1F
100
AcDbEntity
  8
0-4_枠
  6
Continuous
 62
    92
370
    13
100
AcDbLine
 10
1997.400212468327
 20
3679.249884837382
 30
0.0
 11
2732.400212468327
 21
3679.249884837382
 31
0.0
  0
LINE
  5
245
330
1F
100
AcDbEntity
  8
0-2_扉
  6
Continuous
 62
    92
370
    13
100
AcDbLine
 10
2026.400212468327
 20
3669.249884837381
 30
0.0
 11
2706.400212468327
 21
3669.249884837381
 31
0.0
  0
LINE
  5
246
330
1F
100
AcDbEntity
  8
0-2_扉
  6
Continuous
 62
    92
370
    13
100
AcDbLine
 10
2706.400212468327
 20
1292.249884837382
 30
0.0
 11
2706.400212468327
 21
3669.249884837381
 31
0.0
  0
LINE
  5
247
330
1F
100
AcDbEntity
  8
0-2_扉
  6
Continuous
 62
    92
370
    13
100
AcDbLine
 10
2026.400212468327
 20
1292.249884837382
 30
0.0
 11
2706.400212468327
 21
1292.249884837382
 31
0.0
  0
LINE
  5
248
330
1F
100
AcDbEntity
  8
0-7
  6
JWW_CENTER2
 62
     7
370
     9
100
AcDbLine
 10
2026.400212468327
 20
3669.249884837381
 30
0.0
 11
2706.400212468327
 21
2480.749884837383
 31
0.0
  0
LINE
  5
249
330
1F
100
AcDbEntity
  8
0-7
  6
JWW_CENTER2
 62
     7
370
     9
100
AcDbLine
 10
2706.400212468327
 20
2480.749884837383
 30
0.0
 11
2026.400212468327
 21
1292.249884837382
 31
0.0
  0
LWPOLYLINE
  5
24A
330
1F
100
AcDbEntity
  8
0-B_寸法
  6
Continuous
 62
     7
370
     9
100
AcDbPolyline
 90
        4
 70
     1
 43
3.0
 10
2027.90021246833
 20
1029.249884837383
 42
0.4142135623731
 10
2026.40021246833
 20
1030.749884837383
 42
0.4142135623731
 10
2024.90021246833
 20
1029.249884837383
 42
0.4142135623731
 10
2026.40021246833
 20
1027.749884837383
 42
0.4142135623731
  0
LINE
  5
24B
330
1F
100
AcDbEntity
  8
0-B_寸法
  6
Continuous
 62
   120
370
     5
100
AcDbLine
 10
2026.40021246833
 20
1029.249884837383
 30
0.0
 11
2026.40021246833
 21
1229.249884837383
 31
0.0
  0
LWPOLYLINE
  5
24C
330
1F
100
AcDbEntity
  8
0-B_寸法
  6
Continuous
 62
     7
370
     9
100
AcDbPolyline
 90
        4
 70
     1
 43
3.0
 10
1698.900212468331
 20
3669.249884837381
 42
0.4142135623731
 10
1697.400212468331
 20
3670.749884837381
 42
0.4142135623731
 10
1695.900212468331
 20
3669.249884837381
 42
0.4142135623731
 10
1697.400212468331
 20
3667.749884837381
 42
0.4142135623731
  0
LINE
  5
24D
330
1F
100
AcDbEntity
  8
0-B_寸法
  6
Continuous
 62
   120
370
     5
100
AcDbLine
 10
1697.400212468331
 20
3669.249884837381
 30
0.0
 11
1947.400212468328
 21
3669.249884837381
 31
0.0
  0
LWPOLYLINE
  5
24E
330
1F
100
AcDbEntity
  8
0-B_寸法
  6
Continuous
 62
     7
370
     9
100
AcDbPolyline
 90
        4
 70
     1
 43
3.0
 10
1698.900212468331
 20
1292.249884837382
 42
0.4142135623731
 10
1697.400212468331
 20
1293.749884837382
 42
0.4142135623731
 10
1695.900212468331
 20
1292.249884837382
 42
0.4142135623731
 10
1697.400212468331
 20
1290.749884837382
 42
0.4142135623731
  0
LINE
  5
24F
330
1F
100
AcDbEntity
  8
0-B_寸法
  6
Continuous
 62
   120
370
     5
100
AcDbLine
 10
1697.400212468331
 20
1292.249884837382
 30
0.0
 11
1947.400212468328
 21
1292.249884837382
 31
0.0
  0
LINE
  5
250
330
1F
100
AcDbEntity
  8
0-B_寸法
  6
Continuous
 62
   120
370
     5
100
AcDbLine
 10
1697.400212468331
 20
3669.249884837381
 30
0.0
 11
1697.400212468331
 21
1292.249884837382
 31
0.0
  0
MTEXT
  5
251
330
1F
100
AcDbEntity
  8
0-B_寸法
  6
Continuous
 62
     7
370
    70
100
AcDbMText
 10
1682.400212468331
 20
2265.574884837382
 30
0.0
 40
57.14999999999999
 41
412.5
 46
0.0
 71
     7
 72
     1
  1
{\fＭＳ ゴシック|b0|i0|c128|p49;ＤＨ＝2,377}
 11
6.123031769111886E-17
 21
1.0
 31
0.0
 73
     1
 44
1.0
  0
LWPOLYLINE
  5
252
330
1F
100
AcDbEntity
  8
0-B_寸法
  6
Continuous
 62
     7
370
     9
100
AcDbPolyline
 90
        4
 70
     1
 43
3.0
 10
2707.900212468327
 20
1029.249884837383
 42
0.4142135623731
 10
2706.400212468327
 20
1030.749884837383
 42
0.4142135623731
 10
2704.900212468327
 20
1029.249884837383
 42
0.4142135623731
 10
2706.400212468327
 20
1027.749884837383
 42
0.4142135623731
  0
LINE
  5
253
330
1F
100
AcDbEntity
  8
0-B_寸法
  6
Continuous
 62
   120
370
     5
100
AcDbLine
 10
2706.400212468327
 20
1029.249884837383
 30
0.0
 11
2706.400212468327
 21
1229.249884837383
 31
0.0
  0
LINE
  5
254
330
1F
100
AcDbEntity
  8
0-B_寸法
  6
Continuous
 62
   120
370
     5
100
AcDbLine
 10
2026.40021246833
 20
1029.249884837383
 30
0.0
 11
2706.400212468327
 21
1029.249884837383
 31
0.0
  0
MTEXT
  5
255
330
1F
100
AcDbEntity
  8
0-B_寸法
  6
Continuous
 62
     7
370
    70
100
AcDbMText
 10
2197.650212468328
 20
1035.324884837383
 30
0.0
 40
57.15
 41
337.5
 46
0.0
 71
     7
 72
     1
  1
{\fＭＳ ゴシック|b0|i0|c128|p49;ＤＷ＝680}
 73
     1
 44
1.0
  0
ARC
  5
256
330
1F
100
AcDbEntity
  8
レバー
  6
Continuous
 62
     7
370
     0
100
AcDbCircle
 10
-4507.827413489024
 20
2249.755490071464
 30
0.0
 40
6.504676784093584
100
AcDbArc
 50
272.068770375314
 51
78.40309628259999
  0
LINE
  5
257
330
1F
100
AcDbEntity
  8
レバー
  6
Continuous
 62
     7
370
     0
100
AcDbLine
 10
-4612.501592088225
 20
2235.567948677664
 30
0.0
 11
-4611.385079744925
 21
2235.446473480264
 31
0.0
  0
LINE
  5
258
330
1F
100
AcDbEntity
  8
レバー
  6
Continuous
 62
     7
370
     0
100
AcDbLine
 10
-4613.394309945125
 20
2235.835673184264
 30
0.0
 11
-4612.501592088225
 21
2235.567948677664
 31
0.0
  0
LINE
  5
259
330
1F
100
AcDbEntity
  8
レバー
  6
Continuous
 62
     7
370
     0
100
AcDbLine
 10
-4614.592252012025
 20
2236.697671831664
 30
0.0
 11
-4613.394309945125
 21
2235.835673184264
 31
0.0
  0
LINE
  5
25A
330
1F
100
AcDbEntity
  8
レバー
  6
Continuous
 62
     7
370
     0
100
AcDbLine
 10
-4614.898887408624
 20
2237.526038558264
 30
0.0
 11
-4614.592252012025
 21
2236.697671831664
 31
0.0
  0
ARC
  5
25B
330
1F
100
AcDbEntity
  8
レバー
  6
Continuous
 62
     7
370
     0
100
AcDbCircle
 10
-4610.493432880225
 20
2249.115727794164
 30
0.0
 40
13.69830455304785
100
AcDbArc
 50
266.2678777687
 51
322.9657593178
  0
ARC
  5
25C
330
1F
100
AcDbEntity
  8
レバー
  6
Continuous
 62
     7
370
     0
100
AcDbCircle
 10
-4610.674115054525
 20
2249.987420971264
 30
0.0
 40
14.08383174377784
100
AcDbArc
 50
37.4373654117
 51
92.89357313089998
  0
LINE
  5
25D
330
1F
100
AcDbEntity
  8
レバー
  6
Continuous
 62
     7
370
     0
100
AcDbLine
 10
-4614.687071360325
 20
2262.661571511164
 30
0.0
 11
-4614.898949574324
 21
2261.971996062564
 31
0.0
  0
LINE
  5
25E
330
1F
100
AcDbEntity
  8
レバー
  6
Continuous
 62
     7
370
     0
100
AcDbLine
 10
-4614.122650298925
 20
2263.260222868164
 30
0.0
 11
-4614.687071360325
 21
2262.661571511164
 31
0.0
  0
LINE
  5
25F
330
1F
100
AcDbEntity
  8
レバー
  6
Continuous
 62
     7
370
     0
100
AcDbLine
 10
-4613.180917400525
 20
2263.745761373164
 30
0.0
 11
-4614.122650298925
 21
2263.260222868164
 31
0.0
  0
LINE
  5
260
330
1F
100
AcDbEntity
  8
レバー
  6
Continuous
 62
     7
370
     0
100
AcDbLine
 10
-4611.941842540825
 20
2264.017574385864
 30
0.0
 11
-4613.180917400525
 21
2263.745761373164
 31
0.0
  0
LINE
  5
261
330
1F
100
AcDbEntity
  8
レバー
  6
Continuous
 62
     7
370
     0
100
AcDbLine
 10
-4611.668426722025
 20
2264.040866763464
 30
0.0
 11
-4611.941842540825
 21
2264.017574385864
 31
0.0
  0
LINE
  5
262
330
1F
100
AcDbEntity
  8
レバー
  6
Continuous
 62
     7
370
     0
100
AcDbLine
 10
-4611.385079744925
 20
2264.053296194464
 30
0.0
 11
-4611.668426722025
 21
2264.040866763464
 31
0.0
  0
LINE
  5
263
330
1F
100
AcDbEntity
  8
レバー
  6
Continuous
 62
     7
370
     0
100
AcDbLine
 10
-4614.894898088325
 20
2237.574570708964
 30
0.0
 11
-4614.898887175726
 21
2237.526073948564
 31
0.0
  0
LINE
  5
264
330
1F
100
AcDbEntity
  8
レバー
  6
Continuous
 62
     7
370
     0
100
AcDbLine
 10
-4614.898949574324
 20
2261.972026796164
 30
0.0
 11
-4614.895214970826
 21
2261.925064855364
 31
0.0
  0
ARC
  5
265
330
1F
100
AcDbEntity
  8
レバー
  6
Continuous
 62
     7
370
     0
100
AcDbCircle
 10
-4609.100158018725
 20
2259.361811189364
 30
0.0
 40
0.3899910764044223
100
AcDbArc
 50
267.8080598574001
 51
279.0817549815
  0
ARC
  5
266
330
1F
100
AcDbEntity
  8
レバー
  6
Continuous
 62
     7
370
     0
100
AcDbCircle
 10
-4609.112548882525
 20
2239.980154986264
 30
0.0
 40
0.4960694075698727
100
AcDbArc
 50
81.6688905765
 51
90.9480805973
  0
LINE
  5
267
330
1F
100
AcDbEntity
  8
レバー
  6
Continuous
 62
     7
370
     0
100
AcDbLine
 10
-4598.480011980625
 20
2240.763380088964
 30
0.0
 11
-4597.365932251925
 21
2240.666586802464
 31
0.0
  0
LINE
  5
268
330
1F
100
AcDbEntity
  8
レバー
  6
Continuous
 62
     7
370
     0
100
AcDbLine
 10
-4598.480065997425
 20
2240.763388470864
 30
0.0
 11
-4598.480011980625
 21
2240.763380088964
 31
0.0
  0
ARC
  5
269
330
1F
100
AcDbEntity
  8
レバー
  6
Continuous
 62
     7
370
     0
100
AcDbCircle
 10
-4597.353989442025
 20
2252.332651753864
 30
0.0
 40
6.403665562558807
100
AcDbArc
 50
89.9521151651
 51
99.74091970990001
  0
ARC
  5
26A
330
1F
100
AcDbEntity
  8
レバー
  6
Continuous
 62
     7
370
     0
100
AcDbCircle
 10
-4602.849508190025
 20
2205.373606670964
 30
0.0
 40
35.65847864935863
100
AcDbArc
 50
82.96561544869999
 51
100.1292764492
  0
ARC
  5
26B
330
1F
100
AcDbEntity
  8
レバー
  6
Continuous
 62
     7
370
     0
100
AcDbCircle
 10
-4602.708261721726
 20
2293.582952579364
 30
0.0
 40
35.19896791796239
100
AcDbArc
 50
259.5127289737001
 51
276.9654538853
  0
ARC
  5
26C
330
1F
100
AcDbEntity
  8
レバー
  6
Continuous
 62
     7
370
     0
100
AcDbCircle
 10
-4617.438987950725
 20
2249.776185945364
 30
0.0
 40
24.12609751714855
100
AcDbArc
 50
21.7469064922
 51
180.062461108
  0
ARC
  5
26D
330
1F
100
AcDbEntity
  8
レバー
  6
Continuous
 62
     7
370
     0
100
AcDbCircle
 10
-4617.404304566626
 20
2249.751117709464
 30
0.0
 40
24.16076659656543
100
AcDbArc
 50
180.0029236807
 51
337.9452597753
  0
ARC
  5
26E
330
1F
100
AcDbEntity
  8
レバー
  6
Continuous
 62
     7
370
     0
100
AcDbCircle
 10
-4507.900915322924
 20
2249.749884837364
 30
0.0
 40
3.100584228877046
100
AcDbArc
 50
270.0206095586
 51
89.97939044139999
  0
LINE
  5
26F
330
1F
100
AcDbEntity
  8
レバー
  6
Continuous
 62
     7
370
     0
100
AcDbLine
 10
-4597.829358365126
 20
2244.909472194564
 30
0.0
 11
-4617.399798439025
 21
2244.749884949164
 31
0.0
  0
LINE
  5
270
330
1F
100
AcDbEntity
  8
レバー
  6
Continuous
 62
     7
370
     0
100
AcDbLine
 10
-4578.263083185725
 20
2245.283509966964
 30
0.0
 11
-4597.829358365126
 21
2244.909472194564
 31
0.0
  0
LINE
  5
271
330
1F
100
AcDbEntity
  8
レバー
  6
Continuous
 62
     7
370
     0
100
AcDbLine
 10
-4539.130748893725
 20
2246.043090605264
 30
0.0
 11
-4578.263083185725
 21
2245.283509966964
 31
0.0
  0
LINE
  5
272
330
1F
100
AcDbEntity
  8
レバー
  6
Continuous
 62
     7
370
     0
100
AcDbLine
 10
-4514.145986821225
 20
2246.528058908064
 30
0.0
 11
-4539.130748893725
 21
2246.043090605264
 31
0.0
  0
LINE
  5
273
330
1F
100
AcDbEntity
  8
レバー
  6
Continuous
 62
     7
370
     0
100
AcDbLine
 10
-4507.899800028325
 20
2246.649300809064
 30
0.0
 11
-4514.145986821225
 21
2246.528058908064
 31
0.0
  0
LINE
  5
274
330
1F
100
AcDbEntity
  8
レバー
  6
Continuous
 62
     7
370
     0
100
AcDbLine
 10
-4547.178180601125
 20
2253.612884217064
 30
0.0
 11
-4507.899800028325
 21
2252.850468865664
 31
0.0
  0
LINE
  5
275
330
1F
100
AcDbEntity
  8
レバー
  6
Continuous
 62
     7
370
     0
100
AcDbLine
 10
-4586.456557448625
 20
2254.375299801164
 30
0.0
 11
-4547.178180601125
 21
2253.612884217064
 31
0.0
  0
LINE
  5
276
330
1F
100
AcDbEntity
  8
レバー
  6
Continuous
 62
     7
370
     0
100
AcDbLine
 10
-4598.833435859226
 20
2254.606263143064
 30
0.0
 11
-4586.456557448625
 21
2254.375299801164
 31
0.0
  0
LINE
  5
277
330
1F
100
AcDbEntity
  8
レバー
  6
Continuous
 62
     7
370
     0
100
AcDbLine
 10
-4611.210844192326
 20
2254.734239437664
 30
0.0
 11
-4598.833435859226
 21
2254.606263143064
 31
0.0
  0
LINE
  5
278
330
1F
100
AcDbEntity
  8
レバー
  6
Continuous
 62
     7
370
     0
100
AcDbLine
 10
-4617.399798419026
 20
2254.749884725664
 30
0.0
 11
-4611.210844192326
 21
2254.734239437664
 31
0.0
  0
ARC
  5
279
330
1F
100
AcDbEntity
  8
レバー
  6
Continuous
 62
     7
370
     0
100
AcDbCircle
 10
-4617.399798419026
 20
2249.749884837364
 30
0.0
 40
25.50000000000001
100
AcDbArc
 50
180.0
 51
339.3829929451001
  0
ARC
  5
27A
330
1F
100
AcDbEntity
  8
レバー
  6
Continuous
 62
     7
370
     0
100
AcDbCircle
 10
-4617.399798419026
 20
2249.749884837364
 30
0.0
 40
25.50000000000001
100
AcDbArc
 50
20.6528913685
 51
180.0
  0
ARC
  5
27B
330
1F
100
AcDbEntity
  8
レバー
  6
Continuous
 62
     7
370
     0
100
AcDbCircle
 10
-4617.399798419026
 20
2249.749884837364
 30
0.0
 40
24.50000000000003
100
AcDbArc
 50
180.0
 51
338.1475948238
  0
ARC
  5
27C
330
1F
100
AcDbEntity
  8
レバー
  6
Continuous
 62
     7
370
     0
100
AcDbCircle
 10
-4617.399798419026
 20
2249.749884837364
 30
0.0
 40
24.5
100
AcDbArc
 50
21.4578848307
 51
180.0
  0
LINE
  5
27D
330
1F
100
AcDbEntity
  8
レバー
  6
Continuous
 62
     7
370
     0
100
AcDbLine
 10
-4609.308888848525
 20
2240.433889337864
 30
0.0
 11
-4608.961636844725
 21
2240.457212449164
 31
0.0
  0
LINE
  5
27E
330
1F
100
AcDbEntity
  8
レバー
  6
Continuous
 62
     7
370
     0
100
AcDbLine
 10
-4610.663818373925
 20
2240.216205724564
 30
0.0
 11
-4609.308888848525
 21
2240.433889337864
 31
0.0
  0
LINE
  5
27F
330
1F
100
AcDbEntity
  8
レバー
  6
Continuous
 62
     7
370
     0
100
AcDbLine
 10
-4611.878498170225
 20
2239.893292904964
 30
0.0
 11
-4610.663818373925
 21
2240.216205724564
 31
0.0
  0
LINE
  5
280
330
1F
100
AcDbEntity
  8
レバー
  6
Continuous
 62
     7
370
     0
100
AcDbLine
 10
-4612.920308198425
 20
2239.485264652464
 30
0.0
 11
-4611.878498170225
 21
2239.893292904964
 31
0.0
  0
LINE
  5
281
330
1F
100
AcDbEntity
  8
レバー
  6
Continuous
 62
     7
370
     0
100
AcDbLine
 10
-4613.753654008426
 20
2239.024643682964
 30
0.0
 11
-4612.920308198425
 21
2239.485264652464
 31
0.0
  0
LINE
  5
282
330
1F
100
AcDbEntity
  8
レバー
  6
Continuous
 62
     7
370
     0
100
AcDbLine
 10
-4614.361313815824
 20
2238.548018866264
 30
0.0
 11
-4613.753654008426
 21
2239.024643682964
 31
0.0
  0
LINE
  5
283
330
1F
100
AcDbEntity
  8
レバー
  6
Continuous
 62
     7
370
     0
100
AcDbLine
 10
-4614.717311171526
 20
2238.121000946564
 30
0.0
 11
-4614.361313815824
 21
2238.548018866264
 31
0.0
  0
LINE
  5
284
330
1F
100
AcDbEntity
  8
レバー
  6
Continuous
 62
     7
370
     0
100
AcDbLine
 10
-4614.882663303725
 20
2237.732579828364
 30
0.0
 11
-4614.717311171526
 21
2238.121000946564
 31
0.0
  0
LINE
  5
285
330
1F
100
AcDbEntity
  8
レバー
  6
Continuous
 62
     7
370
     0
100
AcDbLine
 10
-4614.877298420025
 20
2237.592763164164
 30
0.0
 11
-4614.882663303725
 21
2237.732579828364
 31
0.0
  0
LINE
  5
286
330
1F
100
AcDbEntity
  8
レバー
  6
Continuous
 62
     7
370
     0
100
AcDbLine
 10
-4614.892984220425
 20
2261.826284126464
 30
0.0
 11
-4614.872303038525
 21
2261.948901125364
 31
0.0
  0
LINE
  5
287
330
1F
100
AcDbEntity
  8
レバー
  6
Continuous
 62
     7
370
     0
100
AcDbLine
 10
-4614.757962703426
 20
2261.444395304764
 30
0.0
 11
-4614.892984220425
 21
2261.826284126464
 31
0.0
  0
LINE
  5
288
330
1F
100
AcDbEntity
  8
レバー
  6
Continuous
 62
     7
370
     0
100
AcDbLine
 10
-4614.414100015225
 20
2260.997765594264
 30
0.0
 11
-4614.757962703426
 21
2261.444395304764
 31
0.0
  0
LINE
  5
289
330
1F
100
AcDbEntity
  8
レバー
  6
Continuous
 62
     7
370
     0
100
AcDbLine
 10
-4613.833130282926
 20
2260.517602683164
 30
0.0
 11
-4614.414100015225
 21
2260.997765594264
 31
0.0
  0
LINE
  5
28A
330
1F
100
AcDbEntity
  8
レバー
  6
Continuous
 62
     7
370
     0
100
AcDbLine
 10
-4613.043409950726
 20
2260.056094163164
 30
0.0
 11
-4613.833130282926
 21
2260.517602683164
 31
0.0
  0
LINE
  5
28B
330
1F
100
AcDbEntity
  8
レバー
  6
Continuous
 62
     7
370
     0
100
AcDbLine
 10
-4612.064696095625
 20
2259.642992065364
 30
0.0
 11
-4613.043409950726
 21
2260.056094163164
 31
0.0
  0
LINE
  5
28C
330
1F
100
AcDbEntity
  8
レバー
  6
Continuous
 62
     7
370
     0
100
AcDbLine
 10
-4610.927454840124
 20
2259.306365520764
 30
0.0
 11
-4612.064696095625
 21
2259.642992065364
 31
0.0
  0
LINE
  5
28D
330
1F
100
AcDbEntity
  8
レバー
  6
Continuous
 62
     7
370
     0
100
AcDbLine
 10
-4609.670676469525
 20
2259.064350173864
 30
0.0
 11
-4610.927454840124
 21
2259.306365520764
 31
0.0
  0
LINE
  5
28E
330
1F
100
AcDbEntity
  8
レバー
  6
Continuous
 62
     7
370
     0
100
AcDbLine
 10
-4609.202517840725
 20
2259.018681840164
 30
0.0
 11
-4609.670676469525
 21
2259.064350173864
 31
0.0
  0
LINE
  5
28F
330
1F
100
AcDbEntity
  8
レバー
  6
Continuous
 62
     7
370
     0
100
AcDbLine
 10
-4507.709132220325
 20
2243.230369770064
 30
0.0
 11
-4507.347130860825
 21
2243.307047420264
 31
0.0
  0
LINE
  5
290
330
1F
100
AcDbEntity
  8
レバー
  6
Continuous
 62
     7
370
     0
100
AcDbLine
 10
-4508.513921584625
 20
2243.195617933864
 30
0.0
 11
-4507.709132220325
 21
2243.230369770064
 31
0.0
  0
LINE
  5
291
330
1F
100
AcDbEntity
  8
レバー
  6
Continuous
 62
     7
370
     0
100
AcDbLine
 10
-4509.313353981524
 20
2243.161232573064
 30
0.0
 11
-4508.513921584625
 21
2243.195617933864
 31
0.0
  0
LINE
  5
292
330
1F
100
AcDbEntity
  8
レバー
  6
Continuous
 62
     7
370
     0
100
AcDbLine
 10
-4510.107399608625
 20
2243.127209962464
 30
0.0
 11
-4509.313353981524
 21
2243.161232573064
 31
0.0
  0
LINE
  5
293
330
1F
100
AcDbEntity
  8
レバー
  6
Continuous
 62
     7
370
     0
100
AcDbLine
 10
-4510.896118070625
 20
2243.093544048364
 30
0.0
 11
-4510.107399608625
 21
2243.127209962464
 31
0.0
  0
LINE
  5
294
330
1F
100
AcDbEntity
  8
レバー
  6
Continuous
 62
     7
370
     0
100
AcDbLine
 10
-4514.759020592725
 20
2242.930475053464
 30
0.0
 11
-4510.896118070625
 21
2243.093544048364
 31
0.0
  0
LINE
  5
295
330
1F
100
AcDbEntity
  8
レバー
  6
Continuous
 62
     7
370
     0
100
AcDbLine
 10
-4522.083194639225
 20
2242.629432016164
 30
0.0
 11
-4514.759020592725
 21
2242.930475053464
 31
0.0
  0
LINE
  5
296
330
1F
100
AcDbEntity
  8
レバー
  6
Continuous
 62
     7
370
     0
100
AcDbLine
 10
-4528.874823536425
 20
2242.360099581164
 30
0.0
 11
-4522.083194639225
 21
2242.629432016164
 31
0.0
  0
LINE
  5
297
330
1F
100
AcDbEntity
  8
レバー
  6
Continuous
 62
     7
370
     0
100
AcDbLine
 10
-4535.132014836825
 20
2242.121169240264
 30
0.0
 11
-4528.874823536425
 21
2242.360099581164
 31
0.0
  0
LINE
  5
298
330
1F
100
AcDbEntity
  8
レバー
  6
Continuous
 62
     7
370
     0
100
AcDbLine
 10
-4542.653107728525
 20
2241.847826995964
 30
0.0
 11
-4535.132014836825
 21
2242.121169240264
 31
0.0
  0
LINE
  5
299
330
1F
100
AcDbEntity
  8
レバー
  6
Continuous
 62
     7
370
     0
100
AcDbLine
 10
-4549.229392494725
 20
2241.623901658764
 30
0.0
 11
-4542.653107728525
 21
2241.847826995964
 31
0.0
  0
LINE
  5
29A
330
1F
100
AcDbEntity
  8
レバー
  6
Continuous
 62
     7
370
     0
100
AcDbLine
 10
-4554.856570150425
 20
2241.445405305464
 30
0.0
 11
-4549.229392494725
 21
2241.623901658764
 31
0.0
  0
LINE
  5
29B
330
1F
100
AcDbEntity
  8
レバー
  6
Continuous
 62
     7
370
     0
100
AcDbLine
 10
-4559.149762328426
 20
2241.318439961464
 30
0.0
 11
-4554.856570150425
 21
2241.445405305464
 31
0.0
  0
LINE
  5
29C
330
1F
100
AcDbEntity
  8
レバー
  6
Continuous
 62
     7
370
     0
100
AcDbLine
 10
-4564.022252049026
 20
2241.185210541864
 30
0.0
 11
-4559.149762328426
 21
2241.318439961464
 31
0.0
  0
LINE
  5
29D
330
1F
100
AcDbEntity
  8
レバー
  6
Continuous
 62
     7
370
     0
100
AcDbLine
 10
-4569.605799104726
 20
2241.048031383264
 30
0.0
 11
-4564.022252049026
 21
2241.185210541864
 31
0.0
  0
LINE
  5
29E
330
1F
100
AcDbEntity
  8
レバー
  6
Continuous
 62
     7
370
     0
100
AcDbLine
 10
-4575.898481245825
 20
2240.915107437464
 30
0.0
 11
-4569.605799104726
 21
2241.048031383264
 31
0.0
  0
LINE
  5
29F
330
1F
100
AcDbEntity
  8
レバー
  6
Continuous
 62
     7
370
     0
100
AcDbLine
 10
-4582.897489603324
 20
2240.796830401864
 30
0.0
 11
-4575.898481245825
 21
2240.915107437464
 31
0.0
  0
LINE
  5
2A0
330
1F
100
AcDbEntity
  8
レバー
  6
Continuous
 62
     7
370
     0
100
AcDbLine
 10
-4590.608946691926
 20
2240.705407121264
 30
0.0
 11
-4582.897489603324
 21
2240.796830401864
 31
0.0
  0
LINE
  5
2A1
330
1F
100
AcDbEntity
  8
レバー
  6
Continuous
 62
     7
370
     0
100
AcDbLine
 10
-4597.365921076124
 20
2240.664780967964
 30
0.0
 11
-4590.608946691926
 21
2240.705407121264
 31
0.0
  0
LINE
  5
2A2
330
1F
100
AcDbEntity
  8
レバー
  6
Continuous
 62
     7
370
     0
100
AcDbLine
 10
-4593.520156752025
 20
2258.701634490064
 30
0.0
 11
-4597.348643179726
 21
2258.735731140764
 31
0.0
  0
LINE
  5
2A3
330
1F
100
AcDbEntity
  8
レバー
  6
Continuous
 62
     7
370
     0
100
AcDbLine
 10
-4588.726550053525
 20
2258.644011699664
 30
0.0
 11
-4593.520156752025
 21
2258.701634490064
 31
0.0
  0
LINE
  5
2A4
330
1F
100
AcDbEntity
  8
レバー
  6
Continuous
 62
     7
370
     0
100
AcDbLine
 10
-4584.607174332925
 20
2258.583827772264
 30
0.0
 11
-4588.726550053525
 21
2258.644011699664
 31
0.0
  0
LINE
  5
2A5
330
1F
100
AcDbEntity
  8
レバー
  6
Continuous
 62
     7
370
     0
100
AcDbLine
 10
-4581.162580933125
 20
2258.526150033864
 30
0.0
 11
-4584.607174332925
 21
2258.583827772264
 31
0.0
  0
LINE
  5
2A6
330
1F
100
AcDbEntity
  8
レバー
  6
Continuous
 62
     7
370
     0
100
AcDbLine
 10
-4578.391270424825
 20
2258.475017630564
 30
0.0
 11
-4581.162580933125
 21
2258.526150033864
 31
0.0
  0
LINE
  5
2A7
330
1F
100
AcDbEntity
  8
レバー
  6
Continuous
 62
     7
370
     0
100
AcDbLine
 10
-4575.915490921326
 20
2258.425900609364
 30
0.0
 11
-4578.391270424825
 21
2258.475017630564
 31
0.0
  0
LINE
  5
2A8
330
1F
100
AcDbEntity
  8
レバー
  6
Continuous
 62
     7
370
     0
100
AcDbLine
 10
-4573.404548402525
 20
2258.372899972964
 30
0.0
 11
-4575.915490921326
 21
2258.425900609364
 31
0.0
  0
LINE
  5
2A9
330
1F
100
AcDbEntity
  8
レバー
  6
Continuous
 62
     7
370
     0
100
AcDbLine
 10
-4565.747884746325
 20
2258.192777530364
 30
0.0
 11
-4573.404548402525
 21
2258.372899972964
 31
0.0
  0
LINE
  5
2AA
330
1F
100
AcDbEntity
  8
レバー
  6
Continuous
 62
     7
370
     0
100
AcDbLine
 10
-4557.994125123725
 20
2257.984773152564
 30
0.0
 11
-4565.747884746325
 21
2258.192777530364
 31
0.0
  0
LINE
  5
2AB
330
1F
100
AcDbEntity
  8
レバー
  6
Continuous
 62
     7
370
     0
100
AcDbLine
 10
-4550.058411147125
 20
2257.749286376964
 30
0.0
 11
-4557.994125123725
 21
2257.984773152564
 31
0.0
  0
LINE
  5
2AC
330
1F
100
AcDbEntity
  8
レバー
  6
Continuous
 62
     7
370
     0
100
AcDbLine
 10
-4546.805554713726
 20
2257.647213422764
 30
0.0
 11
-4550.058411147125
 21
2257.749286376964
 31
0.0
  0
LINE
  5
2AD
330
1F
100
AcDbEntity
  8
レバー
  6
Continuous
 62
     7
370
     0
100
AcDbLine
 10
-4543.443703736825
 20
2257.538769756564
 30
0.0
 11
-4546.805554713726
 21
2257.647213422764
 31
0.0
  0
LINE
  5
2AE
330
1F
100
AcDbEntity
  8
レバー
  6
Continuous
 62
     7
370
     0
100
AcDbLine
 10
-4540.269860710625
 20
2257.433912147864
 30
0.0
 11
-4543.443703736825
 21
2257.538769756564
 31
0.0
  0
LINE
  5
2AF
330
1F
100
AcDbEntity
  8
レバー
  6
Continuous
 62
     7
370
     0
100
AcDbLine
 10
-4537.589588846725
 20
2257.343681425864
 30
0.0
 11
-4540.269860710625
 21
2257.433912147864
 31
0.0
  0
LINE
  5
2B0
330
1F
100
AcDbEntity
  8
レバー
  6
Continuous
 62
     7
370
     0
100
AcDbLine
 10
-4535.398097421625
 20
2257.268878062364
 30
0.0
 11
-4537.589588846725
 21
2257.343681425864
 31
0.0
  0
LINE
  5
2B1
330
1F
100
AcDbEntity
  8
レバー
  6
Continuous
 62
     7
370
     0
100
AcDbLine
 10
-4533.067183281925
 20
2257.188402478664
 30
0.0
 11
-4535.398097421625
 21
2257.268878062364
 31
0.0
  0
LINE
  5
2B2
330
1F
100
AcDbEntity
  8
レバー
  6
Continuous
 62
     7
370
     0
100
AcDbLine
 10
-4529.764936949725
 20
2257.072964579864
 30
0.0
 11
-4533.067183281925
 21
2257.188402478664
 31
0.0
  0
LINE
  5
2B3
330
1F
100
AcDbEntity
  8
レバー
  6
Continuous
 62
     7
370
     0
100
AcDbLine
 10
-4525.802688386026
 20
2256.932472241164
 30
0.0
 11
-4529.764936949725
 21
2257.072964579864
 31
0.0
  0
LINE
  5
2B4
330
1F
100
AcDbEntity
  8
レバー
  6
Continuous
 62
     7
370
     0
100
AcDbLine
 10
-4521.894642796025
 20
2256.792036247564
 30
0.0
 11
-4525.802688386026
 21
2256.932472241164
 31
0.0
  0
LINE
  5
2B5
330
1F
100
AcDbEntity
  8
レバー
  6
Continuous
 62
     7
370
     0
100
AcDbLine
 10
-4515.860119547425
 20
2256.571993128464
 30
0.0
 11
-4521.894642796025
 21
2256.792036247564
 31
0.0
  0
LINE
  5
2B6
330
1F
100
AcDbEntity
  8
レバー
  6
Continuous
 62
     7
370
     0
100
AcDbLine
 10
-4512.460248257626
 20
2256.445761666764
 30
0.0
 11
-4515.860119547425
 21
2256.571993128464
 31
0.0
  0
LINE
  5
2B7
330
1F
100
AcDbEntity
  8
レバー
  6
Continuous
 62
     7
370
     0
100
AcDbLine
 10
-4510.406972553225
 20
2256.367587846764
 30
0.0
 11
-4512.460248257626
 21
2256.445761666764
 31
0.0
  0
LINE
  5
2B8
330
1F
100
AcDbEntity
  8
レバー
  6
Continuous
 62
     7
370
     0
100
AcDbLine
 10
-4509.210319902425
 20
2256.320946280964
 30
0.0
 11
-4510.406972553225
 21
2256.367587846764
 31
0.0
  0
LINE
  5
2B9
330
1F
100
AcDbEntity
  8
レバー
  6
Continuous
 62
     7
370
     0
100
AcDbLine
 10
-4508.525514688025
 20
2256.293812197764
 30
0.0
 11
-4509.210319902425
 21
2256.320946280964
 31
0.0
  0
LINE
  5
2BA
330
1F
100
AcDbEntity
  8
レバー
  6
Continuous
 62
     7
370
     0
100
AcDbLine
 10
-4508.137413944725
 20
2256.278275874564
 30
0.0
 11
-4508.525514688025
 21
2256.293812197764
 31
0.0
  0
LINE
  5
2BB
330
1F
100
AcDbEntity
  8
レバー
  6
Continuous
 62
     7
370
     0
100
AcDbLine
 10
-4507.918635096124
 20
2256.269464631664
 30
0.0
 11
-4508.137413944725
 21
2256.278275874564
 31
0.0
  0
LINE
  5
2BC
330
1F
100
AcDbEntity
  8
レバー
  6
Continuous
 62
     7
370
     0
100
AcDbLine
 10
-4507.795670713925
 20
2256.264495094364
 30
0.0
 11
-4507.918635096124
 21
2256.269464631664
 31
0.0
  0
LINE
  5
2BD
330
1F
100
AcDbEntity
  8
レバー
  6
Continuous
 62
     7
370
     0
100
AcDbLine
 10
-4507.645526613725
 20
2256.258389809264
 30
0.0
 11
-4507.795670713925
 21
2256.264495094364
 31
0.0
  0
LINE
  5
2BE
330
1F
100
AcDbEntity
  8
レバー
  6
Continuous
 62
     7
370
     0
100
AcDbLine
 10
-4507.644073750525
 20
2256.258331135964
 30
0.0
 11
-4507.645526613725
 21
2256.258389809264
 31
0.0
  0
LINE
  5
2BF
330
1F
100
AcDbEntity
  8
レバー
  6
Continuous
 62
     7
370
     0
100
AcDbLine
 10
-4507.640348460225
 20
2256.258183986964
 30
0.0
 11
-4507.644073750525
 21
2256.258331135964
 31
0.0
  0
LINE
  5
2C0
330
1F
100
AcDbEntity
  8
レバー
  6
Continuous
 62
     7
370
     0
100
AcDbLine
 10
-4507.633225705125
 20
2256.257902727564
 30
0.0
 11
-4507.640348460225
 21
2256.258183986964
 31
0.0
  0
LINE
  5
2C1
330
1F
100
AcDbEntity
  8
レバー
  6
Continuous
 62
     7
370
     0
100
AcDbLine
 10
-4507.617378320226
 20
2256.257251733065
 30
0.0
 11
-4507.633225705125
 21
2256.257902727564
 31
0.0
  0
LINE
  5
2C2
330
1F
100
AcDbEntity
  8
レバー
  6
Continuous
 62
     7
370
     0
100
AcDbLine
 10
-4506.637403454325
 20
2256.144809898964
 30
0.0
 11
-4507.617378320226
 21
2256.257251733065
 31
0.0
  0
ARC
  5
2C3
330
1F
100
AcDbEntity
  8
レバー
  6
Continuous
 62
     7
370
     0
100
AcDbCircle
 10
-4507.647700726026
 20
2251.319154390764
 30
0.0
 40
4.937374218354459
100
AcDbArc
 50
76.5929451595
 51
86.3535137711
  0
ARC
  5
2C4
330
1F
100
AcDbEntity
  8
レバー
  6
Continuous
 62
     7
370
     0
100
AcDbCircle
 10
-2276.227193350063
 20
2249.755490071464
 30
0.0
 40
6.504676784093584
100
AcDbArc
 50
272.068770375314
 51
78.40309628259999
  0
LINE
  5
2C5
330
1F
100
AcDbEntity
  8
レバー
  6
Continuous
 62
     7
370
     0
100
AcDbLine
 10
-2380.901371949262
 20
2235.567948677664
 30
0.0
 11
-2379.784859605963
 21
2235.446473480264
 31
0.0
  0
LINE
  5
2C6
330
1F
100
AcDbEntity
  8
レバー
  6
Continuous
 62
     7
370
     0
100
AcDbLine
 10
-2381.794089806162
 20
2235.835673184264
 30
0.0
 11
-2380.901371949262
 21
2235.567948677664
 31
0.0
  0
LINE
  5
2C7
330
1F
100
AcDbEntity
  8
レバー
  6
Continuous
 62
     7
370
     0
100
AcDbLine
 10
-2382.992031873063
 20
2236.697671831664
 30
0.0
 11
-2381.794089806162
 21
2235.835673184264
 31
0.0
  0
LINE
  5
2C8
330
1F
100
AcDbEntity
  8
レバー
  6
Continuous
 62
     7
370
     0
100
AcDbLine
 10
-2383.298667269662
 20
2237.526038558264
 30
0.0
 11
-2382.992031873063
 21
2236.697671831664
 31
0.0
  0
ARC
  5
2C9
330
1F
100
AcDbEntity
  8
レバー
  6
Continuous
 62
     7
370
     0
100
AcDbCircle
 10
-2378.893212741263
 20
2249.115727794164
 30
0.0
 40
13.69830455304785
100
AcDbArc
 50
266.2678777687
 51
322.9657593178
  0
ARC
  5
2CA
330
1F
100
AcDbEntity
  8
レバー
  6
Continuous
 62
     7
370
     0
100
AcDbCircle
 10
-2379.073894915563
 20
2249.987420971264
 30
0.0
 40
14.08383174377784
100
AcDbArc
 50
37.4373654117
 51
92.89357313089998
  0
LINE
  5
2CB
330
1F
100
AcDbEntity
  8
レバー
  6
Continuous
 62
     7
370
     0
100
AcDbLine
 10
-2383.086851221362
 20
2262.661571511164
 30
0.0
 11
-2383.298729435362
 21
2261.971996062564
 31
0.0
  0
LINE
  5
2CC
330
1F
100
AcDbEntity
  8
レバー
  6
Continuous
 62
     7
370
     0
100
AcDbLine
 10
-2382.522430159962
 20
2263.260222868164
 30
0.0
 11
-2383.086851221362
 21
2262.661571511164
 31
0.0
  0
LINE
  5
2CD
330
1F
100
AcDbEntity
  8
レバー
  6
Continuous
 62
     7
370
     0
100
AcDbLine
 10
-2381.580697261562
 20
2263.745761373164
 30
0.0
 11
-2382.522430159962
 21
2263.260222868164
 31
0.0
  0
LINE
  5
2CE
330
1F
100
AcDbEntity
  8
レバー
  6
Continuous
 62
     7
370
     0
100
AcDbLine
 10
-2380.341622401862
 20
2264.017574385864
 30
0.0
 11
-2381.580697261562
 21
2263.745761373164
 31
0.0
  0
LINE
  5
2CF
330
1F
100
AcDbEntity
  8
レバー
  6
Continuous
 62
     7
370
     0
100
AcDbLine
 10
-2380.068206583062
 20
2264.040866763464
 30
0.0
 11
-2380.341622401862
 21
2264.017574385864
 31
0.0
  0
LINE
  5
2D0
330
1F
100
AcDbEntity
  8
レバー
  6
Continuous
 62
     7
370
     0
100
AcDbLine
 10
-2379.784859605963
 20
2264.053296194464
 30
0.0
 11
-2380.068206583062
 21
2264.040866763464
 31
0.0
  0
LINE
  5
2D1
330
1F
100
AcDbEntity
  8
レバー
  6
Continuous
 62
     7
370
     0
100
AcDbLine
 10
-2383.294677949363
 20
2237.574570708964
 30
0.0
 11
-2383.298667036763
 21
2237.526073948564
 31
0.0
  0
LINE
  5
2D2
330
1F
100
AcDbEntity
  8
レバー
  6
Continuous
 62
     7
370
     0
100
AcDbLine
 10
-2383.298729435362
 20
2261.972026796164
 30
0.0
 11
-2383.294994831863
 21
2261.925064855364
 31
0.0
  0
ARC
  5
2D3
330
1F
100
AcDbEntity
  8
レバー
  6
Continuous
 62
     7
370
     0
100
AcDbCircle
 10
-2377.499937879762
 20
2259.361811189364
 30
0.0
 40
0.3899910764044223
100
AcDbArc
 50
267.8080598574001
 51
279.0817549815
  0
ARC
  5
2D4
330
1F
100
AcDbEntity
  8
レバー
  6
Continuous
 62
     7
370
     0
100
AcDbCircle
 10
-2377.512328743562
 20
2239.980154986264
 30
0.0
 40
0.4960694075698727
100
AcDbArc
 50
81.6688905765
 51
90.9480805973
  0
LINE
  5
2D5
330
1F
100
AcDbEntity
  8
レバー
  6
Continuous
 62
     7
370
     0
100
AcDbLine
 10
-2366.879791841663
 20
2240.763380088964
 30
0.0
 11
-2365.765712112962
 21
2240.666586802464
 31
0.0
  0
LINE
  5
2D6
330
1F
100
AcDbEntity
  8
レバー
  6
Continuous
 62
     7
370
     0
100
AcDbLine
 10
-2366.879845858462
 20
2240.763388470864
 30
0.0
 11
-2366.879791841663
 21
2240.763380088964
 31
0.0
  0
ARC
  5
2D7
330
1F
100
AcDbEntity
  8
レバー
  6
Continuous
 62
     7
370
     0
100
AcDbCircle
 10
-2365.753769303062
 20
2252.332651753864
 30
0.0
 40
6.403665562558807
100
AcDbArc
 50
89.9521151651
 51
99.74091970990001
  0
ARC
  5
2D8
330
1F
100
AcDbEntity
  8
レバー
  6
Continuous
 62
     7
370
     0
100
AcDbCircle
 10
-2371.249288051063
 20
2205.373606670964
 30
0.0
 40
35.65847864935863
100
AcDbArc
 50
82.96561544869999
 51
100.1292764492
  0
ARC
  5
2D9
330
1F
100
AcDbEntity
  8
レバー
  6
Continuous
 62
     7
370
     0
100
AcDbCircle
 10
-2371.108041582762
 20
2293.582952579364
 30
0.0
 40
35.19896791796239
100
AcDbArc
 50
259.5127289737001
 51
276.9654538853
  0
ARC
  5
2DA
330
1F
100
AcDbEntity
  8
レバー
  6
Continuous
 62
     7
370
     0
100
AcDbCircle
 10
-2385.838767811763
 20
2249.776185945364
 30
0.0
 40
24.12609751714855
100
AcDbArc
 50
21.7469064922
 51
180.062461108
  0
ARC
  5
2DB
330
1F
100
AcDbEntity
  8
レバー
  6
Continuous
 62
     7
370
     0
100
AcDbCircle
 10
-2385.804084427662
 20
2249.751117709464
 30
0.0
 40
24.16076659656543
100
AcDbArc
 50
180.0029236807
 51
337.9452597753
  0
ARC
  5
2DC
330
1F
100
AcDbEntity
  8
レバー
  6
Continuous
 62
     7
370
     0
100
AcDbCircle
 10
-2276.300695183962
 20
2249.749884837364
 30
0.0
 40
3.100584228877046
100
AcDbArc
 50
270.0206095586
 51
89.97939044139999
  0
LINE
  5
2DD
330
1F
100
AcDbEntity
  8
レバー
  6
Continuous
 62
     7
370
     0
100
AcDbLine
 10
-2366.229138226163
 20
2244.909472194564
 30
0.0
 11
-2385.799578300062
 21
2244.749884949164
 31
0.0
  0
LINE
  5
2DE
330
1F
100
AcDbEntity
  8
レバー
  6
Continuous
 62
     7
370
     0
100
AcDbLine
 10
-2346.662863046763
 20
2245.283509966964
 30
0.0
 11
-2366.229138226163
 21
2244.909472194564
 31
0.0
  0
LINE
  5
2DF
330
1F
100
AcDbEntity
  8
レバー
  6
Continuous
 62
     7
370
     0
100
AcDbLine
 10
-2307.530528754763
 20
2246.043090605264
 30
0.0
 11
-2346.662863046763
 21
2245.283509966964
 31
0.0
  0
LINE
  5
2E0
330
1F
100
AcDbEntity
  8
レバー
  6
Continuous
 62
     7
370
     0
100
AcDbLine
 10
-2282.545766682263
 20
2246.528058908064
 30
0.0
 11
-2307.530528754763
 21
2246.043090605264
 31
0.0
  0
LINE
  5
2E1
330
1F
100
AcDbEntity
  8
レバー
  6
Continuous
 62
     7
370
     0
100
AcDbLine
 10
-2276.299579889363
 20
2246.649300809064
 30
0.0
 11
-2282.545766682263
 21
2246.528058908064
 31
0.0
  0
LINE
  5
2E2
330
1F
100
AcDbEntity
  8
レバー
  6
Continuous
 62
     7
370
     0
100
AcDbLine
 10
-2315.577960462163
 20
2253.612884217064
 30
0.0
 11
-2276.299579889363
 21
2252.850468865664
 31
0.0
  0
LINE
  5
2E3
330
1F
100
AcDbEntity
  8
レバー
  6
Continuous
 62
     7
370
     0
100
AcDbLine
 10
-2354.856337309663
 20
2254.375299801164
 30
0.0
 11
-2315.577960462163
 21
2253.612884217064
 31
0.0
  0
LINE
  5
2E4
330
1F
100
AcDbEntity
  8
レバー
  6
Continuous
 62
     7
370
     0
100
AcDbLine
 10
-2367.233215720263
 20
2254.606263143064
 30
0.0
 11
-2354.856337309663
 21
2254.375299801164
 31
0.0
  0
LINE
  5
2E5
330
1F
100
AcDbEntity
  8
レバー
  6
Continuous
 62
     7
370
     0
100
AcDbLine
 10
-2379.610624053363
 20
2254.734239437664
 30
0.0
 11
-2367.233215720263
 21
2254.606263143064
 31
0.0
  0
LINE
  5
2E6
330
1F
100
AcDbEntity
  8
レバー
  6
Continuous
 62
     7
370
     0
100
AcDbLine
 10
-2385.799578280063
 20
2254.749884725664
 30
0.0
 11
-2379.610624053363
 21
2254.734239437664
 31
0.0
  0
ARC
  5
2E7
330
1F
100
AcDbEntity
  8
レバー
  6
Continuous
 62
     7
370
     0
100
AcDbCircle
 10
-2385.799578280063
 20
2249.749884837364
 30
0.0
 40
25.50000000000001
100
AcDbArc
 50
180.0
 51
339.3829929451001
  0
ARC
  5
2E8
330
1F
100
AcDbEntity
  8
レバー
  6
Continuous
 62
     7
370
     0
100
AcDbCircle
 10
-2385.799578280063
 20
2249.749884837364
 30
0.0
 40
25.50000000000001
100
AcDbArc
 50
20.6528913685
 51
180.0
  0
ARC
  5
2E9
330
1F
100
AcDbEntity
  8
レバー
  6
Continuous
 62
     7
370
     0
100
AcDbCircle
 10
-2385.799578280063
 20
2249.749884837364
 30
0.0
 40
24.50000000000003
100
AcDbArc
 50
180.0
 51
338.1475948238
  0
ARC
  5
2EA
330
1F
100
AcDbEntity
  8
レバー
  6
Continuous
 62
     7
370
     0
100
AcDbCircle
 10
-2385.799578280063
 20
2249.749884837364
 30
0.0
 40
24.5
100
AcDbArc
 50
21.4578848307
 51
180.0
  0
LINE
  5
2EB
330
1F
100
AcDbEntity
  8
レバー
  6
Continuous
 62
     7
370
     0
100
AcDbLine
 10
-2377.708668709563
 20
2240.433889337864
 30
0.0
 11
-2377.361416705762
 21
2240.457212449164
 31
0.0
  0
LINE
  5
2EC
330
1F
100
AcDbEntity
  8
レバー
  6
Continuous
 62
     7
370
     0
100
AcDbLine
 10
-2379.063598234962
 20
2240.216205724564
 30
0.0
 11
-2377.708668709563
 21
2240.433889337864
 31
0.0
  0
LINE
  5
2ED
330
1F
100
AcDbEntity
  8
レバー
  6
Continuous
 62
     7
370
     0
100
AcDbLine
 10
-2380.278278031262
 20
2239.893292904964
 30
0.0
 11
-2379.063598234962
 21
2240.216205724564
 31
0.0
  0
LINE
  5
2EE
330
1F
100
AcDbEntity
  8
レバー
  6
Continuous
 62
     7
370
     0
100
AcDbLine
 10
-2381.320088059463
 20
2239.485264652464
 30
0.0
 11
-2380.278278031262
 21
2239.893292904964
 31
0.0
  0
LINE
  5
2EF
330
1F
100
AcDbEntity
  8
レバー
  6
Continuous
 62
     7
370
     0
100
AcDbLine
 10
-2382.153433869462
 20
2239.024643682964
 30
0.0
 11
-2381.320088059463
 21
2239.485264652464
 31
0.0
  0
LINE
  5
2F0
330
1F
100
AcDbEntity
  8
レバー
  6
Continuous
 62
     7
370
     0
100
AcDbLine
 10
-2382.761093676862
 20
2238.548018866264
 30
0.0
 11
-2382.153433869462
 21
2239.024643682964
 31
0.0
  0
LINE
  5
2F1
330
1F
100
AcDbEntity
  8
レバー
  6
Continuous
 62
     7
370
     0
100
AcDbLine
 10
-2383.117091032562
 20
2238.121000946564
 30
0.0
 11
-2382.761093676862
 21
2238.548018866264
 31
0.0
  0
LINE
  5
2F2
330
1F
100
AcDbEntity
  8
レバー
  6
Continuous
 62
     7
370
     0
100
AcDbLine
 10
-2383.282443164762
 20
2237.732579828364
 30
0.0
 11
-2383.117091032562
 21
2238.121000946564
 31
0.0
  0
LINE
  5
2F3
330
1F
100
AcDbEntity
  8
レバー
  6
Continuous
 62
     7
370
     0
100
AcDbLine
 10
-2383.277078281062
 20
2237.592763164164
 30
0.0
 11
-2383.282443164762
 21
2237.732579828364
 31
0.0
  0
LINE
  5
2F4
330
1F
100
AcDbEntity
  8
レバー
  6
Continuous
 62
     7
370
     0
100
AcDbLine
 10
-2383.292764081462
 20
2261.826284126464
 30
0.0
 11
-2383.272082899563
 21
2261.948901125364
 31
0.0
  0
LINE
  5
2F5
330
1F
100
AcDbEntity
  8
レバー
  6
Continuous
 62
     7
370
     0
100
AcDbLine
 10
-2383.157742564463
 20
2261.444395304764
 30
0.0
 11
-2383.292764081462
 21
2261.826284126464
 31
0.0
  0
LINE
  5
2F6
330
1F
100
AcDbEntity
  8
レバー
  6
Continuous
 62
     7
370
     0
100
AcDbLine
 10
-2382.813879876262
 20
2260.997765594264
 30
0.0
 11
-2383.157742564463
 21
2261.444395304764
 31
0.0
  0
LINE
  5
2F7
330
1F
100
AcDbEntity
  8
レバー
  6
Continuous
 62
     7
370
     0
100
AcDbLine
 10
-2382.232910143963
 20
2260.517602683164
 30
0.0
 11
-2382.813879876262
 21
2260.997765594264
 31
0.0
  0
LINE
  5
2F8
330
1F
100
AcDbEntity
  8
レバー
  6
Continuous
 62
     7
370
     0
100
AcDbLine
 10
-2381.443189811763
 20
2260.056094163164
 30
0.0
 11
-2382.232910143963
 21
2260.517602683164
 31
0.0
  0
LINE
  5
2F9
330
1F
100
AcDbEntity
  8
レバー
  6
Continuous
 62
     7
370
     0
100
AcDbLine
 10
-2380.464475956662
 20
2259.642992065364
 30
0.0
 11
-2381.443189811763
 21
2260.056094163164
 31
0.0
  0
LINE
  5
2FA
330
1F
100
AcDbEntity
  8
レバー
  6
Continuous
 62
     7
370
     0
100
AcDbLine
 10
-2379.327234701163
 20
2259.306365520764
 30
0.0
 11
-2380.464475956662
 21
2259.642992065364
 31
0.0
  0
LINE
  5
2FB
330
1F
100
AcDbEntity
  8
レバー
  6
Continuous
 62
     7
370
     0
100
AcDbLine
 10
-2378.070456330563
 20
2259.064350173864
 30
0.0
 11
-2379.327234701163
 21
2259.306365520764
 31
0.0
  0
LINE
  5
2FC
330
1F
100
AcDbEntity
  8
レバー
  6
Continuous
 62
     7
370
     0
100
AcDbLine
 10
-2377.602297701762
 20
2259.018681840164
 30
0.0
 11
-2378.070456330563
 21
2259.064350173864
 31
0.0
  0
LINE
  5
2FD
330
1F
100
AcDbEntity
  8
レバー
  6
Continuous
 62
     7
370
     0
100
AcDbLine
 10
-2276.108912081363
 20
2243.230369770064
 30
0.0
 11
-2275.746910721863
 21
2243.307047420264
 31
0.0
  0
LINE
  5
2FE
330
1F
100
AcDbEntity
  8
レバー
  6
Continuous
 62
     7
370
     0
100
AcDbLine
 10
-2276.913701445662
 20
2243.195617933864
 30
0.0
 11
-2276.108912081363
 21
2243.230369770064
 31
0.0
  0
LINE
  5
2FF
330
1F
100
AcDbEntity
  8
レバー
  6
Continuous
 62
     7
370
     0
100
AcDbLine
 10
-2277.713133842562
 20
2243.161232573064
 30
0.0
 11
-2276.913701445662
 21
2243.195617933864
 31
0.0
  0
LINE
  5
300
330
1F
100
AcDbEntity
  8
レバー
  6
Continuous
 62
     7
370
     0
100
AcDbLine
 10
-2278.507179469663
 20
2243.127209962464
 30
0.0
 11
-2277.713133842562
 21
2243.161232573064
 31
0.0
  0
LINE
  5
301
330
1F
100
AcDbEntity
  8
レバー
  6
Continuous
 62
     7
370
     0
100
AcDbLine
 10
-2279.295897931663
 20
2243.093544048364
 30
0.0
 11
-2278.507179469663
 21
2243.127209962464
 31
0.0
  0
LINE
  5
302
330
1F
100
AcDbEntity
  8
レバー
  6
Continuous
 62
     7
370
     0
100
AcDbLine
 10
-2283.158800453763
 20
2242.930475053464
 30
0.0
 11
-2279.295897931663
 21
2243.093544048364
 31
0.0
  0
LINE
  5
303
330
1F
100
AcDbEntity
  8
レバー
  6
Continuous
 62
     7
370
     0
100
AcDbLine
 10
-2290.482974500263
 20
2242.629432016164
 30
0.0
 11
-2283.158800453763
 21
2242.930475053464
 31
0.0
  0
LINE
  5
304
330
1F
100
AcDbEntity
  8
レバー
  6
Continuous
 62
     7
370
     0
100
AcDbLine
 10
-2297.274603397463
 20
2242.360099581164
 30
0.0
 11
-2290.482974500263
 21
2242.629432016164
 31
0.0
  0
LINE
  5
305
330
1F
100
AcDbEntity
  8
レバー
  6
Continuous
 62
     7
370
     0
100
AcDbLine
 10
-2303.531794697863
 20
2242.121169240264
 30
0.0
 11
-2297.274603397463
 21
2242.360099581164
 31
0.0
  0
LINE
  5
306
330
1F
100
AcDbEntity
  8
レバー
  6
Continuous
 62
     7
370
     0
100
AcDbLine
 10
-2311.052887589562
 20
2241.847826995964
 30
0.0
 11
-2303.531794697863
 21
2242.121169240264
 31
0.0
  0
LINE
  5
307
330
1F
100
AcDbEntity
  8
レバー
  6
Continuous
 62
     7
370
     0
100
AcDbLine
 10
-2317.629172355762
 20
2241.623901658764
 30
0.0
 11
-2311.052887589562
 21
2241.847826995964
 31
0.0
  0
LINE
  5
308
330
1F
100
AcDbEntity
  8
レバー
  6
Continuous
 62
     7
370
     0
100
AcDbLine
 10
-2323.256350011462
 20
2241.445405305464
 30
0.0
 11
-2317.629172355762
 21
2241.623901658764
 31
0.0
  0
LINE
  5
309
330
1F
100
AcDbEntity
  8
レバー
  6
Continuous
 62
     7
370
     0
100
AcDbLine
 10
-2327.549542189463
 20
2241.318439961464
 30
0.0
 11
-2323.256350011462
 21
2241.445405305464
 31
0.0
  0
LINE
  5
30A
330
1F
100
AcDbEntity
  8
レバー
  6
Continuous
 62
     7
370
     0
100
AcDbLine
 10
-2332.422031910063
 20
2241.185210541864
 30
0.0
 11
-2327.549542189463
 21
2241.318439961464
 31
0.0
  0
LINE
  5
30B
330
1F
100
AcDbEntity
  8
レバー
  6
Continuous
 62
     7
370
     0
100
AcDbLine
 10
-2338.005578965763
 20
2241.048031383264
 30
0.0
 11
-2332.422031910063
 21
2241.185210541864
 31
0.0
  0
LINE
  5
30C
330
1F
100
AcDbEntity
  8
レバー
  6
Continuous
 62
     7
370
     0
100
AcDbLine
 10
-2344.298261106862
 20
2240.915107437464
 30
0.0
 11
-2338.005578965763
 21
2241.048031383264
 31
0.0
  0
LINE
  5
30D
330
1F
100
AcDbEntity
  8
レバー
  6
Continuous
 62
     7
370
     0
100
AcDbLine
 10
-2351.297269464362
 20
2240.796830401864
 30
0.0
 11
-2344.298261106862
 21
2240.915107437464
 31
0.0
  0
LINE
  5
30E
330
1F
100
AcDbEntity
  8
レバー
  6
Continuous
 62
     7
370
     0
100
AcDbLine
 10
-2359.008726552963
 20
2240.705407121264
 30
0.0
 11
-2351.297269464362
 21
2240.796830401864
 31
0.0
  0
LINE
  5
30F
330
1F
100
AcDbEntity
  8
レバー
  6
Continuous
 62
     7
370
     0
100
AcDbLine
 10
-2365.765700937162
 20
2240.664780967964
 30
0.0
 11
-2359.008726552963
 21
2240.705407121264
 31
0.0
  0
LINE
  5
310
330
1F
100
AcDbEntity
  8
レバー
  6
Continuous
 62
     7
370
     0
100
AcDbLine
 10
-2361.919936613062
 20
2258.701634490064
 30
0.0
 11
-2365.748423040762
 21
2258.735731140764
 31
0.0
  0
LINE
  5
311
330
1F
100
AcDbEntity
  8
レバー
  6
Continuous
 62
     7
370
     0
100
AcDbLine
 10
-2357.126329914563
 20
2258.644011699664
 30
0.0
 11
-2361.919936613062
 21
2258.701634490064
 31
0.0
  0
LINE
  5
312
330
1F
100
AcDbEntity
  8
レバー
  6
Continuous
 62
     7
370
     0
100
AcDbLine
 10
-2353.006954193962
 20
2258.583827772264
 30
0.0
 11
-2357.126329914563
 21
2258.644011699664
 31
0.0
  0
LINE
  5
313
330
1F
100
AcDbEntity
  8
レバー
  6
Continuous
 62
     7
370
     0
100
AcDbLine
 10
-2349.562360794162
 20
2258.526150033864
 30
0.0
 11
-2353.006954193962
 21
2258.583827772264
 31
0.0
  0
LINE
  5
314
330
1F
100
AcDbEntity
  8
レバー
  6
Continuous
 62
     7
370
     0
100
AcDbLine
 10
-2346.791050285863
 20
2258.475017630564
 30
0.0
 11
-2349.562360794162
 21
2258.526150033864
 31
0.0
  0
LINE
  5
315
330
1F
100
AcDbEntity
  8
レバー
  6
Continuous
 62
     7
370
     0
100
AcDbLine
 10
-2344.315270782363
 20
2258.425900609364
 30
0.0
 11
-2346.791050285863
 21
2258.475017630564
 31
0.0
  0
LINE
  5
316
330
1F
100
AcDbEntity
  8
レバー
  6
Continuous
 62
     7
370
     0
100
AcDbLine
 10
-2341.804328263563
 20
2258.372899972964
 30
0.0
 11
-2344.315270782363
 21
2258.425900609364
 31
0.0
  0
LINE
  5
317
330
1F
100
AcDbEntity
  8
レバー
  6
Continuous
 62
     7
370
     0
100
AcDbLine
 10
-2334.147664607362
 20
2258.192777530364
 30
0.0
 11
-2341.804328263563
 21
2258.372899972964
 31
0.0
  0
LINE
  5
318
330
1F
100
AcDbEntity
  8
レバー
  6
Continuous
 62
     7
370
     0
100
AcDbLine
 10
-2326.393904984762
 20
2257.984773152564
 30
0.0
 11
-2334.147664607362
 21
2258.192777530364
 31
0.0
  0
LINE
  5
319
330
1F
100
AcDbEntity
  8
レバー
  6
Continuous
 62
     7
370
     0
100
AcDbLine
 10
-2318.458191008162
 20
2257.749286376964
 30
0.0
 11
-2326.393904984762
 21
2257.984773152564
 31
0.0
  0
LINE
  5
31A
330
1F
100
AcDbEntity
  8
レバー
  6
Continuous
 62
     7
370
     0
100
AcDbLine
 10
-2315.205334574763
 20
2257.647213422764
 30
0.0
 11
-2318.458191008162
 21
2257.749286376964
 31
0.0
  0
LINE
  5
31B
330
1F
100
AcDbEntity
  8
レバー
  6
Continuous
 62
     7
370
     0
100
AcDbLine
 10
-2311.843483597862
 20
2257.538769756564
 30
0.0
 11
-2315.205334574763
 21
2257.647213422764
 31
0.0
  0
LINE
  5
31C
330
1F
100
AcDbEntity
  8
レバー
  6
Continuous
 62
     7
370
     0
100
AcDbLine
 10
-2308.669640571663
 20
2257.433912147864
 30
0.0
 11
-2311.843483597862
 21
2257.538769756564
 31
0.0
  0
LINE
  5
31D
330
1F
100
AcDbEntity
  8
レバー
  6
Continuous
 62
     7
370
     0
100
AcDbLine
 10
-2305.989368707762
 20
2257.343681425864
 30
0.0
 11
-2308.669640571663
 21
2257.433912147864
 31
0.0
  0
LINE
  5
31E
330
1F
100
AcDbEntity
  8
レバー
  6
Continuous
 62
     7
370
     0
100
AcDbLine
 10
-2303.797877282663
 20
2257.268878062364
 30
0.0
 11
-2305.989368707762
 21
2257.343681425864
 31
0.0
  0
LINE
  5
31F
330
1F
100
AcDbEntity
  8
レバー
  6
Continuous
 62
     7
370
     0
100
AcDbLine
 10
-2301.466963142962
 20
2257.188402478664
 30
0.0
 11
-2303.797877282663
 21
2257.268878062364
 31
0.0
  0
LINE
  5
320
330
1F
100
AcDbEntity
  8
レバー
  6
Continuous
 62
     7
370
     0
100
AcDbLine
 10
-2298.164716810762
 20
2257.072964579864
 30
0.0
 11
-2301.466963142962
 21
2257.188402478664
 31
0.0
  0
LINE
  5
321
330
1F
100
AcDbEntity
  8
レバー
  6
Continuous
 62
     7
370
     0
100
AcDbLine
 10
-2294.202468247063
 20
2256.932472241164
 30
0.0
 11
-2298.164716810762
 21
2257.072964579864
 31
0.0
  0
LINE
  5
322
330
1F
100
AcDbEntity
  8
レバー
  6
Continuous
 62
     7
370
     0
100
AcDbLine
 10
-2290.294422657063
 20
2256.792036247564
 30
0.0
 11
-2294.202468247063
 21
2256.932472241164
 31
0.0
  0
LINE
  5
323
330
1F
100
AcDbEntity
  8
レバー
  6
Continuous
 62
     7
370
     0
100
AcDbLine
 10
-2284.259899408463
 20
2256.571993128464
 30
0.0
 11
-2290.294422657063
 21
2256.792036247564
 31
0.0
  0
LINE
  5
324
330
1F
100
AcDbEntity
  8
レバー
  6
Continuous
 62
     7
370
     0
100
AcDbLine
 10
-2280.860028118662
 20
2256.445761666764
 30
0.0
 11
-2284.259899408463
 21
2256.571993128464
 31
0.0
  0
LINE
  5
325
330
1F
100
AcDbEntity
  8
レバー
  6
Continuous
 62
     7
370
     0
100
AcDbLine
 10
-2278.806752414263
 20
2256.367587846764
 30
0.0
 11
-2280.860028118662
 21
2256.445761666764
 31
0.0
  0
LINE
  5
326
330
1F
100
AcDbEntity
  8
レバー
  6
Continuous
 62
     7
370
     0
100
AcDbLine
 10
-2277.610099763463
 20
2256.320946280964
 30
0.0
 11
-2278.806752414263
 21
2256.367587846764
 31
0.0
  0
LINE
  5
327
330
1F
100
AcDbEntity
  8
レバー
  6
Continuous
 62
     7
370
     0
100
AcDbLine
 10
-2276.925294549063
 20
2256.293812197764
 30
0.0
 11
-2277.610099763463
 21
2256.320946280964
 31
0.0
  0
LINE
  5
328
330
1F
100
AcDbEntity
  8
レバー
  6
Continuous
 62
     7
370
     0
100
AcDbLine
 10
-2276.537193805762
 20
2256.278275874564
 30
0.0
 11
-2276.925294549063
 21
2256.293812197764
 31
0.0
  0
LINE
  5
329
330
1F
100
AcDbEntity
  8
レバー
  6
Continuous
 62
     7
370
     0
100
AcDbLine
 10
-2276.318414957163
 20
2256.269464631664
 30
0.0
 11
-2276.537193805762
 21
2256.278275874564
 31
0.0
  0
LINE
  5
32A
330
1F
100
AcDbEntity
  8
レバー
  6
Continuous
 62
     7
370
     0
100
AcDbLine
 10
-2276.195450574962
 20
2256.264495094364
 30
0.0
 11
-2276.318414957163
 21
2256.269464631664
 31
0.0
  0
LINE
  5
32B
330
1F
100
AcDbEntity
  8
レバー
  6
Continuous
 62
     7
370
     0
100
AcDbLine
 10
-2276.045306474763
 20
2256.258389809264
 30
0.0
 11
-2276.195450574962
 21
2256.264495094364
 31
0.0
  0
LINE
  5
32C
330
1F
100
AcDbEntity
  8
レバー
  6
Continuous
 62
     7
370
     0
100
AcDbLine
 10
-2276.043853611562
 20
2256.258331135964
 30
0.0
 11
-2276.045306474763
 21
2256.258389809264
 31
0.0
  0
LINE
  5
32D
330
1F
100
AcDbEntity
  8
レバー
  6
Continuous
 62
     7
370
     0
100
AcDbLine
 10
-2276.040128321263
 20
2256.258183986964
 30
0.0
 11
-2276.043853611562
 21
2256.258331135964
 31
0.0
  0
LINE
  5
32E
330
1F
100
AcDbEntity
  8
レバー
  6
Continuous
 62
     7
370
     0
100
AcDbLine
 10
-2276.033005566163
 20
2256.257902727564
 30
0.0
 11
-2276.040128321263
 21
2256.258183986964
 31
0.0
  0
LINE
  5
32F
330
1F
100
AcDbEntity
  8
レバー
  6
Continuous
 62
     7
370
     0
100
AcDbLine
 10
-2276.017158181262
 20
2256.257251733065
 30
0.0
 11
-2276.033005566163
 21
2256.257902727564
 31
0.0
  0
LINE
  5
330
330
1F
100
AcDbEntity
  8
レバー
  6
Continuous
 62
     7
370
     0
100
AcDbLine
 10
-2275.037183315362
 20
2256.144809898964
 30
0.0
 11
-2276.017158181262
 21
2256.257251733065
 31
0.0
  0
ARC
  5
331
330
1F
100
AcDbEntity
  8
レバー
  6
Continuous
 62
     7
370
     0
100
AcDbCircle
 10
-2276.047480587063
 20
2251.319154390764
 30
0.0
 40
4.937374218354459
100
AcDbArc
 50
76.5929451595
 51
86.3535137711
  0
ARC
  5
332
330
1F
100
AcDbEntity
  8
レバー
  6
Continuous
 62
     7
370
     0
100
AcDbCircle
 10
-44.6275299506982
 20
2249.755490071464
 30
0.0
 40
6.504676784093584
100
AcDbArc
 50
272.068770375314
 51
78.40309628259999
  0
LINE
  5
333
330
1F
100
AcDbEntity
  8
レバー
  6
Continuous
 62
     7
370
     0
100
AcDbLine
 10
-149.301708549898
 20
2235.567948677664
 30
0.0
 11
-148.185196206598
 21
2235.446473480264
 31
0.0
  0
LINE
  5
334
330
1F
100
AcDbEntity
  8
レバー
  6
Continuous
 62
     7
370
     0
100
AcDbLine
 10
-150.1944264067981
 20
2235.835673184264
 30
0.0
 11
-149.301708549898
 21
2235.567948677664
 31
0.0
  0
LINE
  5
335
330
1F
100
AcDbEntity
  8
レバー
  6
Continuous
 62
     7
370
     0
100
AcDbLine
 10
-151.3923684736983
 20
2236.697671831664
 30
0.0
 11
-150.1944264067981
 21
2235.835673184264
 31
0.0
  0
LINE
  5
336
330
1F
100
AcDbEntity
  8
レバー
  6
Continuous
 62
     7
370
     0
100
AcDbLine
 10
-151.6990038702977
 20
2237.526038558264
 30
0.0
 11
-151.3923684736983
 21
2236.697671831664
 31
0.0
  0
ARC
  5
337
330
1F
100
AcDbEntity
  8
レバー
  6
Continuous
 62
     7
370
     0
100
AcDbCircle
 10
-147.2935493418981
 20
2249.115727794164
 30
0.0
 40
13.69830455304785
100
AcDbArc
 50
266.2678777687
 51
322.9657593178
  0
ARC
  5
338
330
1F
100
AcDbEntity
  8
レバー
  6
Continuous
 62
     7
370
     0
100
AcDbCircle
 10
-147.4742315161984
 20
2249.987420971264
 30
0.0
 40
14.08383174377784
100
AcDbArc
 50
37.4373654117
 51
92.89357313089998
  0
LINE
  5
339
330
1F
100
AcDbEntity
  8
レバー
  6
Continuous
 62
     7
370
     0
100
AcDbLine
 10
-151.4871878219981
 20
2262.661571511164
 30
0.0
 11
-151.6990660359977
 21
2261.971996062564
 31
0.0
  0
LINE
  5
33A
330
1F
100
AcDbEntity
  8
レバー
  6
Continuous
 62
     7
370
     0
100
AcDbLine
 10
-150.9227667605978
 20
2263.260222868164
 30
0.0
 11
-151.4871878219981
 21
2262.661571511164
 31
0.0
  0
LINE
  5
33B
330
1F
100
AcDbEntity
  8
レバー
  6
Continuous
 62
     7
370
     0
100
AcDbLine
 10
-149.9810338621978
 20
2263.745761373164
 30
0.0
 11
-150.9227667605978
 21
2263.260222868164
 31
0.0
  0
LINE
  5
33C
330
1F
100
AcDbEntity
  8
レバー
  6
Continuous
 62
     7
370
     0
100
AcDbLine
 10
-148.7419590024979
 20
2264.017574385864
 30
0.0
 11
-149.9810338621978
 21
2263.745761373164
 31
0.0
  0
LINE
  5
33D
330
1F
100
AcDbEntity
  8
レバー
  6
Continuous
 62
     7
370
     0
100
AcDbLine
 10
-148.4685431836982
 20
2264.040866763464
 30
0.0
 11
-148.7419590024979
 21
2264.017574385864
 31
0.0
  0
LINE
  5
33E
330
1F
100
AcDbEntity
  8
レバー
  6
Continuous
 62
     7
370
     0
100
AcDbLine
 10
-148.185196206598
 20
2264.053296194464
 30
0.0
 11
-148.4685431836982
 21
2264.040866763464
 31
0.0
  0
LINE
  5
33F
330
1F
100
AcDbEntity
  8
レバー
  6
Continuous
 62
     7
370
     0
100
AcDbLine
 10
-151.6950145499982
 20
2237.574570708964
 30
0.0
 11
-151.6990036373988
 21
2237.526073948564
 31
0.0
  0
LINE
  5
340
330
1F
100
AcDbEntity
  8
レバー
  6
Continuous
 62
     7
370
     0
100
AcDbLine
 10
-151.6990660359977
 20
2261.972026796164
 30
0.0
 11
-151.6953314324985
 21
2261.925064855364
 31
0.0
  0
ARC
  5
341
330
1F
100
AcDbEntity
  8
レバー
  6
Continuous
 62
     7
370
     0
100
AcDbCircle
 10
-145.9002744803979
 20
2259.361811189364
 30
0.0
 40
0.3899910764044223
100
AcDbArc
 50
267.8080598574001
 51
279.0817549815
  0
ARC
  5
342
330
1F
100
AcDbEntity
  8
レバー
  6
Continuous
 62
     7
370
     0
100
AcDbCircle
 10
-145.9126653441979
 20
2239.980154986264
 30
0.0
 40
0.4960694075698727
100
AcDbArc
 50
81.6688905765
 51
90.9480805973
  0
LINE
  5
343
330
1F
100
AcDbEntity
  8
レバー
  6
Continuous
 62
     7
370
     0
100
AcDbLine
 10
-135.2801284422981
 20
2240.763380088964
 30
0.0
 11
-134.1660487135982
 21
2240.666586802464
 31
0.0
  0
LINE
  5
344
330
1F
100
AcDbEntity
  8
レバー
  6
Continuous
 62
     7
370
     0
100
AcDbLine
 10
-135.2801824590983
 20
2240.763388470864
 30
0.0
 11
-135.2801284422981
 21
2240.763380088964
 31
0.0
  0
ARC
  5
345
330
1F
100
AcDbEntity
  8
レバー
  6
Continuous
 62
     7
370
     0
100
AcDbCircle
 10
-134.1541059036979
 20
2252.332651753864
 30
0.0
 40
6.403665562558807
100
AcDbArc
 50
89.9521151651
 51
99.74091970990001
  0
ARC
  5
346
330
1F
100
AcDbEntity
  8
レバー
  6
Continuous
 62
     7
370
     0
100
AcDbCircle
 10
-139.6496246516983
 20
2205.373606670964
 30
0.0
 40
35.65847864935863
100
AcDbArc
 50
82.96561544869999
 51
100.1292764492
  0
ARC
  5
347
330
1F
100
AcDbEntity
  8
レバー
  6
Continuous
 62
     7
370
     0
100
AcDbCircle
 10
-139.5083781833983
 20
2293.582952579364
 30
0.0
 40
35.19896791796239
100
AcDbArc
 50
259.5127289737001
 51
276.9654538853
  0
ARC
  5
348
330
1F
100
AcDbEntity
  8
レバー
  6
Continuous
 62
     7
370
     0
100
AcDbCircle
 10
-154.2391044123985
 20
2249.776185945364
 30
0.0
 40
24.12609751714855
100
AcDbArc
 50
21.7469064922
 51
180.062461108
  0
ARC
  5
349
330
1F
100
AcDbEntity
  8
レバー
  6
Continuous
 62
     7
370
     0
100
AcDbCircle
 10
-154.2044210282984
 20
2249.751117709464
 30
0.0
 40
24.16076659656543
100
AcDbArc
 50
180.0029236807
 51
337.9452597753
  0
ARC
  5
34A
330
1F
100
AcDbEntity
  8
レバー
  6
Continuous
 62
     7
370
     0
100
AcDbCircle
 10
-44.70103178459794
 20
2249.749884837364
 30
0.0
 40
3.100584228877046
100
AcDbArc
 50
270.0206095586
 51
89.97939044139999
  0
LINE
  5
34B
330
1F
100
AcDbEntity
  8
レバー
  6
Continuous
 62
     7
370
     0
100
AcDbLine
 10
-134.6294748267985
 20
2244.909472194564
 30
0.0
 11
-154.1999149006983
 21
2244.749884949164
 31
0.0
  0
LINE
  5
34C
330
1F
100
AcDbEntity
  8
レバー
  6
Continuous
 62
     7
370
     0
100
AcDbLine
 10
-115.0631996473982
 20
2245.283509966964
 30
0.0
 11
-134.6294748267985
 21
2244.909472194564
 31
0.0
  0
LINE
  5
34D
330
1F
100
AcDbEntity
  8
レバー
  6
Continuous
 62
     7
370
     0
100
AcDbLine
 10
-75.9308653553984
 20
2246.043090605264
 30
0.0
 11
-115.0631996473982
 21
2245.283509966964
 31
0.0
  0
LINE
  5
34E
330
1F
100
AcDbEntity
  8
レバー
  6
Continuous
 62
     7
370
     0
100
AcDbLine
 10
-50.94610328289833
 20
2246.528058908064
 30
0.0
 11
-75.9308653553984
 21
2246.043090605264
 31
0.0
  0
LINE
  5
34F
330
1F
100
AcDbEntity
  8
レバー
  6
Continuous
 62
     7
370
     0
100
AcDbLine
 10
-44.69991648999837
 20
2246.649300809064
 30
0.0
 11
-50.94610328289833
 21
2246.528058908064
 31
0.0
  0
LINE
  5
350
330
1F
100
AcDbEntity
  8
レバー
  6
Continuous
 62
     7
370
     0
100
AcDbLine
 10
-83.97829706279822
 20
2253.612884217064
 30
0.0
 11
-44.69991648999837
 21
2252.850468865664
 31
0.0
  0
LINE
  5
351
330
1F
100
AcDbEntity
  8
レバー
  6
Continuous
 62
     7
370
     0
100
AcDbLine
 10
-123.2566739102981
 20
2254.375299801164
 30
0.0
 11
-83.97829706279822
 21
2253.612884217064
 31
0.0
  0
LINE
  5
352
330
1F
100
AcDbEntity
  8
レバー
  6
Continuous
 62
     7
370
     0
100
AcDbLine
 10
-135.6335523208986
 20
2254.606263143064
 30
0.0
 11
-123.2566739102981
 21
2254.375299801164
 31
0.0
  0
LINE
  5
353
330
1F
100
AcDbEntity
  8
レバー
  6
Continuous
 62
     7
370
     0
100
AcDbLine
 10
-148.0109606539986
 20
2254.734239437664
 30
0.0
 11
-135.6335523208986
 21
2254.606263143064
 31
0.0
  0
LINE
  5
354
330
1F
100
AcDbEntity
  8
レバー
  6
Continuous
 62
     7
370
     0
100
AcDbLine
 10
-154.1999148806985
 20
2254.749884725664
 30
0.0
 11
-148.0109606539986
 21
2254.734239437664
 31
0.0
  0
ARC
  5
355
330
1F
100
AcDbEntity
  8
レバー
  6
Continuous
 62
     7
370
     0
100
AcDbCircle
 10
-154.1999148806985
 20
2249.749884837364
 30
0.0
 40
25.50000000000001
100
AcDbArc
 50
180.0
 51
339.3829929451001
  0
ARC
  5
356
330
1F
100
AcDbEntity
  8
レバー
  6
Continuous
 62
     7
370
     0
100
AcDbCircle
 10
-154.1999148806985
 20
2249.749884837364
 30
0.0
 40
25.50000000000001
100
AcDbArc
 50
20.6528913685
 51
180.0
  0
ARC
  5
357
330
1F
100
AcDbEntity
  8
レバー
  6
Continuous
 62
     7
370
     0
100
AcDbCircle
 10
-154.1999148806985
 20
2249.749884837364
 30
0.0
 40
24.50000000000003
100
AcDbArc
 50
180.0
 51
338.1475948238
  0
ARC
  5
358
330
1F
100
AcDbEntity
  8
レバー
  6
Continuous
 62
     7
370
     0
100
AcDbCircle
 10
-154.1999148806985
 20
2249.749884837364
 30
0.0
 40
24.5
100
AcDbArc
 50
21.4578848307
 51
180.0
  0
LINE
  5
359
330
1F
100
AcDbEntity
  8
レバー
  6
Continuous
 62
     7
370
     0
100
AcDbLine
 10
-146.1090053101987
 20
2240.433889337864
 30
0.0
 11
-145.7617533063978
 21
2240.457212449164
 31
0.0
  0
LINE
  5
35A
330
1F
100
AcDbEntity
  8
レバー
  6
Continuous
 62
     7
370
     0
100
AcDbLine
 10
-147.4639348355981
 20
2240.216205724564
 30
0.0
 11
-146.1090053101987
 21
2240.433889337864
 31
0.0
  0
LINE
  5
35B
330
1F
100
AcDbEntity
  8
レバー
  6
Continuous
 62
     7
370
     0
100
AcDbLine
 10
-148.678614631898
 20
2239.893292904964
 30
0.0
 11
-147.4639348355981
 21
2240.216205724564
 31
0.0
  0
LINE
  5
35C
330
1F
100
AcDbEntity
  8
レバー
  6
Continuous
 62
     7
370
     0
100
AcDbLine
 10
-149.7204246600984
 20
2239.485264652464
 30
0.0
 11
-148.678614631898
 21
2239.893292904964
 31
0.0
  0
LINE
  5
35D
330
1F
100
AcDbEntity
  8
レバー
  6
Continuous
 62
     7
370
     0
100
AcDbLine
 10
-150.5537704700981
 20
2239.024643682964
 30
0.0
 11
-149.7204246600984
 21
2239.485264652464
 31
0.0
  0
LINE
  5
35E
330
1F
100
AcDbEntity
  8
レバー
  6
Continuous
 62
     7
370
     0
100
AcDbLine
 10
-151.1614302774979
 20
2238.548018866264
 30
0.0
 11
-150.5537704700981
 21
2239.024643682964
 31
0.0
  0
LINE
  5
35F
330
1F
100
AcDbEntity
  8
レバー
  6
Continuous
 62
     7
370
     0
100
AcDbLine
 10
-151.5174276331982
 20
2238.121000946564
 30
0.0
 11
-151.1614302774979
 21
2238.548018866264
 31
0.0
  0
LINE
  5
360
330
1F
100
AcDbEntity
  8
レバー
  6
Continuous
 62
     7
370
     0
100
AcDbLine
 10
-151.682779765398
 20
2237.732579828364
 30
0.0
 11
-151.5174276331982
 21
2238.121000946564
 31
0.0
  0
LINE
  5
361
330
1F
100
AcDbEntity
  8
レバー
  6
Continuous
 62
     7
370
     0
100
AcDbLine
 10
-151.6774148816978
 20
2237.592763164164
 30
0.0
 11
-151.682779765398
 21
2237.732579828364
 31
0.0
  0
LINE
  5
362
330
1F
100
AcDbEntity
  8
レバー
  6
Continuous
 62
     7
370
     0
100
AcDbLine
 10
-151.6931006820982
 20
2261.826284126464
 30
0.0
 11
-151.6724195001984
 21
2261.948901125364
 31
0.0
  0
LINE
  5
363
330
1F
100
AcDbEntity
  8
レバー
  6
Continuous
 62
     7
370
     0
100
AcDbLine
 10
-151.5580791650984
 20
2261.444395304764
 30
0.0
 11
-151.6931006820982
 21
2261.826284126464
 31
0.0
  0
LINE
  5
364
330
1F
100
AcDbEntity
  8
レバー
  6
Continuous
 62
     7
370
     0
100
AcDbLine
 10
-151.2142164768983
 20
2260.997765594264
 30
0.0
 11
-151.5580791650984
 21
2261.444395304764
 31
0.0
  0
LINE
  5
365
330
1F
100
AcDbEntity
  8
レバー
  6
Continuous
 62
     7
370
     0
100
AcDbLine
 10
-150.6332467445986
 20
2260.517602683164
 30
0.0
 11
-151.2142164768983
 21
2260.997765594264
 31
0.0
  0
LINE
  5
366
330
1F
100
AcDbEntity
  8
レバー
  6
Continuous
 62
     7
370
     0
100
AcDbLine
 10
-149.8435264123987
 20
2260.056094163164
 30
0.0
 11
-150.6332467445986
 21
2260.517602683164
 31
0.0
  0
LINE
  5
367
330
1F
100
AcDbEntity
  8
レバー
  6
Continuous
 62
     7
370
     0
100
AcDbLine
 10
-148.8648125572979
 20
2259.642992065364
 30
0.0
 11
-149.8435264123987
 21
2260.056094163164
 31
0.0
  0
LINE
  5
368
330
1F
100
AcDbEntity
  8
レバー
  6
Continuous
 62
     7
370
     0
100
AcDbLine
 10
-147.727571301798
 20
2259.306365520764
 30
0.0
 11
-148.8648125572979
 21
2259.642992065364
 31
0.0
  0
LINE
  5
369
330
1F
100
AcDbEntity
  8
レバー
  6
Continuous
 62
     7
370
     0
100
AcDbLine
 10
-146.4707929311982
 20
2259.064350173864
 30
0.0
 11
-147.727571301798
 21
2259.306365520764
 31
0.0
  0
LINE
  5
36A
330
1F
100
AcDbEntity
  8
レバー
  6
Continuous
 62
     7
370
     0
100
AcDbLine
 10
-146.0026343023981
 20
2259.018681840164
 30
0.0
 11
-146.4707929311982
 21
2259.064350173864
 31
0.0
  0
LINE
  5
36B
330
1F
100
AcDbEntity
  8
レバー
  6
Continuous
 62
     7
370
     0
100
AcDbLine
 10
-44.5092486819982
 20
2243.230369770064
 30
0.0
 11
-44.14724732249852
 21
2243.307047420264
 31
0.0
  0
LINE
  5
36C
330
1F
100
AcDbEntity
  8
レバー
  6
Continuous
 62
     7
370
     0
100
AcDbLine
 10
-45.31403804629804
 20
2243.195617933864
 30
0.0
 11
-44.5092486819982
 21
2243.230369770064
 31
0.0
  0
LINE
  5
36D
330
1F
100
AcDbEntity
  8
レバー
  6
Continuous
 62
     7
370
     0
100
AcDbLine
 10
-46.11347044319813
 20
2243.161232573064
 30
0.0
 11
-45.31403804629804
 21
2243.195617933864
 31
0.0
  0
LINE
  5
36E
330
1F
100
AcDbEntity
  8
レバー
  6
Continuous
 62
     7
370
     0
100
AcDbLine
 10
-46.90751607029824
 20
2243.127209962464
 30
0.0
 11
-46.11347044319813
 21
2243.161232573064
 31
0.0
  0
LINE
  5
36F
330
1F
100
AcDbEntity
  8
レバー
  6
Continuous
 62
     7
370
     0
100
AcDbLine
 10
-47.69623453229826
 20
2243.093544048364
 30
0.0
 11
-46.90751607029824
 21
2243.127209962464
 31
0.0
  0
LINE
  5
370
330
1F
100
AcDbEntity
  8
レバー
  6
Continuous
 62
     7
370
     0
100
AcDbLine
 10
-51.55913705439843
 20
2242.930475053464
 30
0.0
 11
-47.69623453229826
 21
2243.093544048364
 31
0.0
  0
LINE
  5
371
330
1F
100
AcDbEntity
  8
レバー
  6
Continuous
 62
     7
370
     0
100
AcDbLine
 10
-58.88331110089837
 20
2242.629432016164
 30
0.0
 11
-51.55913705439843
 21
2242.930475053464
 31
0.0
  0
LINE
  5
372
330
1F
100
AcDbEntity
  8
レバー
  6
Continuous
 62
     7
370
     0
100
AcDbLine
 10
-65.67493999809813
 20
2242.360099581164
 30
0.0
 11
-58.88331110089837
 21
2242.629432016164
 31
0.0
  0
LINE
  5
373
330
1F
100
AcDbEntity
  8
レバー
  6
Continuous
 62
     7
370
     0
100
AcDbLine
 10
-71.93213129849823
 20
2242.121169240264
 30
0.0
 11
-65.67493999809813
 21
2242.360099581164
 31
0.0
  0
LINE
  5
374
330
1F
100
AcDbEntity
  8
レバー
  6
Continuous
 62
     7
370
     0
100
AcDbLine
 10
-79.45322419019817
 20
2241.847826995964
 30
0.0
 11
-71.93213129849823
 21
2242.121169240264
 31
0.0
  0
LINE
  5
375
330
1F
100
AcDbEntity
  8
レバー
  6
Continuous
 62
     7
370
     0
100
AcDbLine
 10
-86.02950895639822
 20
2241.623901658764
 30
0.0
 11
-79.45322419019817
 21
2241.847826995964
 31
0.0
  0
LINE
  5
376
330
1F
100
AcDbEntity
  8
レバー
  6
Continuous
 62
     7
370
     0
100
AcDbLine
 10
-91.65668661209793
 20
2241.445405305464
 30
0.0
 11
-86.02950895639822
 21
2241.623901658764
 31
0.0
  0
LINE
  5
377
330
1F
100
AcDbEntity
  8
レバー
  6
Continuous
 62
     7
370
     0
100
AcDbLine
 10
-95.94987879009862
 20
2241.318439961464
 30
0.0
 11
-91.65668661209793
 21
2241.445405305464
 31
0.0
  0
LINE
  5
378
330
1F
100
AcDbEntity
  8
レバー
  6
Continuous
 62
     7
370
     0
100
AcDbLine
 10
-100.8223685106986
 20
2241.185210541864
 30
0.0
 11
-95.94987879009862
 21
2241.318439961464
 31
0.0
  0
LINE
  5
379
330
1F
100
AcDbEntity
  8
レバー
  6
Continuous
 62
     7
370
     0
100
AcDbLine
 10
-106.4059155663983
 20
2241.048031383264
 30
0.0
 11
-100.8223685106986
 21
2241.185210541864
 31
0.0
  0
LINE
  5
37A
330
1F
100
AcDbEntity
  8
レバー
  6
Continuous
 62
     7
370
     0
100
AcDbLine
 10
-112.6985977074981
 20
2240.915107437464
 30
0.0
 11
-106.4059155663983
 21
2241.048031383264
 31
0.0
  0
LINE
  5
37B
330
1F
100
AcDbEntity
  8
レバー
  6
Continuous
 62
     7
370
     0
100
AcDbLine
 10
-119.6976060649979
 20
2240.796830401864
 30
0.0
 11
-112.6985977074981
 21
2240.915107437464
 31
0.0
  0
LINE
  5
37C
330
1F
100
AcDbEntity
  8
レバー
  6
Continuous
 62
     7
370
     0
100
AcDbLine
 10
-127.4090631535984
 20
2240.705407121264
 30
0.0
 11
-119.6976060649979
 21
2240.796830401864
 31
0.0
  0
LINE
  5
37D
330
1F
100
AcDbEntity
  8
レバー
  6
Continuous
 62
     7
370
     0
100
AcDbLine
 10
-134.1660375377978
 20
2240.664780967964
 30
0.0
 11
-127.4090631535984
 21
2240.705407121264
 31
0.0
  0
LINE
  5
37E
330
1F
100
AcDbEntity
  8
レバー
  6
Continuous
 62
     7
370
     0
100
AcDbLine
 10
-130.3202732136981
 20
2258.701634490064
 30
0.0
 11
-134.1487596413981
 21
2258.735731140764
 31
0.0
  0
LINE
  5
37F
330
1F
100
AcDbEntity
  8
レバー
  6
Continuous
 62
     7
370
     0
100
AcDbLine
 10
-125.5266665151981
 20
2258.644011699664
 30
0.0
 11
-130.3202732136981
 21
2258.701634490064
 31
0.0
  0
LINE
  5
380
330
1F
100
AcDbEntity
  8
レバー
  6
Continuous
 62
     7
370
     0
100
AcDbLine
 10
-121.4072907945979
 20
2258.583827772264
 30
0.0
 11
-125.5266665151981
 21
2258.644011699664
 31
0.0
  0
LINE
  5
381
330
1F
100
AcDbEntity
  8
レバー
  6
Continuous
 62
     7
370
     0
100
AcDbLine
 10
-117.9626973947984
 20
2258.526150033864
 30
0.0
 11
-121.4072907945979
 21
2258.583827772264
 31
0.0
  0
LINE
  5
382
330
1F
100
AcDbEntity
  8
レバー
  6
Continuous
 62
     7
370
     0
100
AcDbLine
 10
-115.1913868864983
 20
2258.475017630564
 30
0.0
 11
-117.9626973947984
 21
2258.526150033864
 31
0.0
  0
LINE
  5
383
330
1F
100
AcDbEntity
  8
レバー
  6
Continuous
 62
     7
370
     0
100
AcDbLine
 10
-112.7156073829985
 20
2258.425900609364
 30
0.0
 11
-115.1913868864983
 21
2258.475017630564
 31
0.0
  0
LINE
  5
384
330
1F
100
AcDbEntity
  8
レバー
  6
Continuous
 62
     7
370
     0
100
AcDbLine
 10
-110.2046648641982
 20
2258.372899972964
 30
0.0
 11
-112.7156073829985
 21
2258.425900609364
 31
0.0
  0
LINE
  5
385
330
1F
100
AcDbEntity
  8
レバー
  6
Continuous
 62
     7
370
     0
100
AcDbLine
 10
-102.5480012079981
 20
2258.192777530364
 30
0.0
 11
-110.2046648641982
 21
2258.372899972964
 31
0.0
  0
LINE
  5
386
330
1F
100
AcDbEntity
  8
レバー
  6
Continuous
 62
     7
370
     0
100
AcDbLine
 10
-94.79424158539813
 20
2257.984773152564
 30
0.0
 11
-102.5480012079981
 21
2258.192777530364
 31
0.0
  0
LINE
  5
387
330
1F
100
AcDbEntity
  8
レバー
  6
Continuous
 62
     7
370
     0
100
AcDbLine
 10
-86.85852760879811
 20
2257.749286376964
 30
0.0
 11
-94.79424158539813
 21
2257.984773152564
 31
0.0
  0
LINE
  5
388
330
1F
100
AcDbEntity
  8
レバー
  6
Continuous
 62
     7
370
     0
100
AcDbLine
 10
-83.60567117539858
 20
2257.647213422764
 30
0.0
 11
-86.85852760879811
 21
2257.749286376964
 31
0.0
  0
LINE
  5
389
330
1F
100
AcDbEntity
  8
レバー
  6
Continuous
 62
     7
370
     0
100
AcDbLine
 10
-80.24382019849838
 20
2257.538769756564
 30
0.0
 11
-83.60567117539858
 21
2257.647213422764
 31
0.0
  0
LINE
  5
38A
330
1F
100
AcDbEntity
  8
レバー
  6
Continuous
 62
     7
370
     0
100
AcDbLine
 10
-77.06997717229797
 20
2257.433912147864
 30
0.0
 11
-80.24382019849838
 21
2257.538769756564
 31
0.0
  0
LINE
  5
38B
330
1F
100
AcDbEntity
  8
レバー
  6
Continuous
 62
     7
370
     0
100
AcDbLine
 10
-74.3897053083981
 20
2257.343681425864
 30
0.0
 11
-77.06997717229797
 21
2257.433912147864
 31
0.0
  0
LINE
  5
38C
330
1F
100
AcDbEntity
  8
レバー
  6
Continuous
 62
     7
370
     0
100
AcDbLine
 10
-72.1982138832982
 20
2257.268878062364
 30
0.0
 11
-74.3897053083981
 21
2257.343681425864
 31
0.0
  0
LINE
  5
38D
330
1F
100
AcDbEntity
  8
レバー
  6
Continuous
 62
     7
370
     0
100
AcDbLine
 10
-69.86729974359832
 20
2257.188402478664
 30
0.0
 11
-72.1982138832982
 21
2257.268878062364
 31
0.0
  0
LINE
  5
38E
330
1F
100
AcDbEntity
  8
レバー
  6
Continuous
 62
     7
370
     0
100
AcDbLine
 10
-66.56505341139791
 20
2257.072964579864
 30
0.0
 11
-69.86729974359832
 21
2257.188402478664
 31
0.0
  0
LINE
  5
38F
330
1F
100
AcDbEntity
  8
レバー
  6
Continuous
 62
     7
370
     0
100
AcDbLine
 10
-62.60280484769851
 20
2256.932472241164
 30
0.0
 11
-66.56505341139791
 21
2257.072964579864
 31
0.0
  0
LINE
  5
390
330
1F
100
AcDbEntity
  8
レバー
  6
Continuous
 62
     7
370
     0
100
AcDbLine
 10
-58.69475925769849
 20
2256.792036247564
 30
0.0
 11
-62.60280484769851
 21
2256.932472241164
 31
0.0
  0
LINE
  5
391
330
1F
100
AcDbEntity
  8
レバー
  6
Continuous
 62
     7
370
     0
100
AcDbLine
 10
-52.66023600909818
 20
2256.571993128464
 30
0.0
 11
-58.69475925769849
 21
2256.792036247564
 31
0.0
  0
LINE
  5
392
330
1F
100
AcDbEntity
  8
レバー
  6
Continuous
 62
     7
370
     0
100
AcDbLine
 10
-49.2603647192982
 20
2256.445761666764
 30
0.0
 11
-52.66023600909818
 21
2256.571993128464
 31
0.0
  0
LINE
  5
393
330
1F
100
AcDbEntity
  8
レバー
  6
Continuous
 62
     7
370
     0
100
AcDbLine
 10
-47.20708901489843
 20
2256.367587846764
 30
0.0
 11
-49.2603647192982
 21
2256.445761666764
 31
0.0
  0
LINE
  5
394
330
1F
100
AcDbEntity
  8
レバー
  6
Continuous
 62
     7
370
     0
100
AcDbLine
 10
-46.01043636409826
 20
2256.320946280964
 30
0.0
 11
-47.20708901489843
 21
2256.367587846764
 31
0.0
  0
LINE
  5
395
330
1F
100
AcDbEntity
  8
レバー
  6
Continuous
 62
     7
370
     0
100
AcDbLine
 10
-45.32563114969833
 20
2256.293812197764
 30
0.0
 11
-46.01043636409826
 21
2256.320946280964
 31
0.0
  0
LINE
  5
396
330
1F
100
AcDbEntity
  8
レバー
  6
Continuous
 62
     7
370
     0
100
AcDbLine
 10
-44.93753040639831
 20
2256.278275874564
 30
0.0
 11
-45.32563114969833
 21
2256.293812197764
 31
0.0
  0
LINE
  5
397
330
1F
100
AcDbEntity
  8
レバー
  6
Continuous
 62
     7
370
     0
100
AcDbLine
 10
-44.71875155779799
 20
2256.269464631664
 30
0.0
 11
-44.93753040639831
 21
2256.278275874564
 31
0.0
  0
LINE
  5
398
330
1F
100
AcDbEntity
  8
レバー
  6
Continuous
 62
     7
370
     0
100
AcDbLine
 10
-44.59578717559793
 20
2256.264495094364
 30
0.0
 11
-44.71875155779799
 21
2256.269464631664
 31
0.0
  0
LINE
  5
399
330
1F
100
AcDbEntity
  8
レバー
  6
Continuous
 62
     7
370
     0
100
AcDbLine
 10
-44.44564307539849
 20
2256.258389809264
 30
0.0
 11
-44.59578717559793
 21
2256.264495094364
 31
0.0
  0
LINE
  5
39A
330
1F
100
AcDbEntity
  8
レバー
  6
Continuous
 62
     7
370
     0
100
AcDbLine
 10
-44.44419021219802
 20
2256.258331135964
 30
0.0
 11
-44.44564307539849
 21
2256.258389809264
 31
0.0
  0
LINE
  5
39B
330
1F
100
AcDbEntity
  8
レバー
  6
Continuous
 62
     7
370
     0
100
AcDbLine
 10
-44.44046492189842
 20
2256.258183986964
 30
0.0
 11
-44.44419021219802
 21
2256.258331135964
 31
0.0
  0
LINE
  5
39C
330
1F
100
AcDbEntity
  8
レバー
  6
Continuous
 62
     7
370
     0
100
AcDbLine
 10
-44.4333421667983
 20
2256.257902727564
 30
0.0
 11
-44.44046492189842
 21
2256.258183986964
 31
0.0
  0
LINE
  5
39D
330
1F
100
AcDbEntity
  8
レバー
  6
Continuous
 62
     7
370
     0
100
AcDbLine
 10
-44.41749478189821
 20
2256.257251733065
 30
0.0
 11
-44.4333421667983
 21
2256.257902727564
 31
0.0
  0
LINE
  5
39E
330
1F
100
AcDbEntity
  8
レバー
  6
Continuous
 62
     7
370
     0
100
AcDbLine
 10
-43.43751991599789
 20
2256.144809898964
 30
0.0
 11
-44.41749478189821
 21
2256.257251733065
 31
0.0
  0
ARC
  5
39F
330
1F
100
AcDbEntity
  8
レバー
  6
Continuous
 62
     7
370
     0
100
AcDbCircle
 10
-44.44781718769833
 20
2251.319154390764
 30
0.0
 40
4.937374218354459
100
AcDbArc
 50
76.5929451595
 51
86.3535137711
  0
ARC
  5
3A0
330
1F
100
AcDbEntity
  8
レバー
  6
Continuous
 62
     7
370
     0
100
AcDbCircle
 10
2186.972597398326
 20
2249.755490071464
 30
0.0
 40
6.504676784093584
100
AcDbArc
 50
272.068770375314
 51
78.40309628259999
  0
LINE
  5
3A1
330
1F
100
AcDbEntity
  8
レバー
  6
Continuous
 62
     7
370
     0
100
AcDbLine
 10
2082.298418799127
 20
2235.567948677664
 30
0.0
 11
2083.414931142427
 21
2235.446473480264
 31
0.0
  0
LINE
  5
3A2
330
1F
100
AcDbEntity
  8
レバー
  6
Continuous
 62
     7
370
     0
100
AcDbLine
 10
2081.405700942227
 20
2235.835673184264
 30
0.0
 11
2082.298418799127
 21
2235.567948677664
 31
0.0
  0
LINE
  5
3A3
330
1F
100
AcDbEntity
  8
レバー
  6
Continuous
 62
     7
370
     0
100
AcDbLine
 10
2080.207758875326
 20
2236.697671831664
 30
0.0
 11
2081.405700942227
 21
2235.835673184264
 31
0.0
  0
LINE
  5
3A4
330
1F
100
AcDbEntity
  8
レバー
  6
Continuous
 62
     7
370
     0
100
AcDbLine
 10
2079.901123478727
 20
2237.526038558264
 30
0.0
 11
2080.207758875326
 21
2236.697671831664
 31
0.0
  0
ARC
  5
3A5
330
1F
100
AcDbEntity
  8
レバー
  6
Continuous
 62
     7
370
     0
100
AcDbCircle
 10
2084.306578007127
 20
2249.115727794164
 30
0.0
 40
13.69830455304785
100
AcDbArc
 50
266.2678777687
 51
322.9657593178
  0
ARC
  5
3A6
330
1F
100
AcDbEntity
  8
レバー
  6
Continuous
 62
     7
370
     0
100
AcDbCircle
 10
2084.125895832826
 20
2249.987420971264
 30
0.0
 40
14.08383174377784
100
AcDbArc
 50
37.4373654117
 51
92.89357313089998
  0
LINE
  5
3A7
330
1F
100
AcDbEntity
  8
レバー
  6
Continuous
 62
     7
370
     0
100
AcDbLine
 10
2080.112939527026
 20
2262.661571511164
 30
0.0
 11
2079.901061313027
 21
2261.971996062564
 31
0.0
  0
LINE
  5
3A8
330
1F
100
AcDbEntity
  8
レバー
  6
Continuous
 62
     7
370
     0
100
AcDbLine
 10
2080.677360588427
 20
2263.260222868164
 30
0.0
 11
2080.112939527026
 21
2262.661571511164
 31
0.0
  0
LINE
  5
3A9
330
1F
100
AcDbEntity
  8
レバー
  6
Continuous
 62
     7
370
     0
100
AcDbLine
 10
2081.619093486827
 20
2263.745761373164
 30
0.0
 11
2080.677360588427
 21
2263.260222868164
 31
0.0
  0
LINE
  5
3AA
330
1F
100
AcDbEntity
  8
レバー
  6
Continuous
 62
     7
370
     0
100
AcDbLine
 10
2082.858168346527
 20
2264.017574385864
 30
0.0
 11
2081.619093486827
 21
2263.745761373164
 31
0.0
  0
LINE
  5
3AB
330
1F
100
AcDbEntity
  8
レバー
  6
Continuous
 62
     7
370
     0
100
AcDbLine
 10
2083.131584165326
 20
2264.040866763464
 30
0.0
 11
2082.858168346527
 21
2264.017574385864
 31
0.0
  0
LINE
  5
3AC
330
1F
100
AcDbEntity
  8
レバー
  6
Continuous
 62
     7
370
     0
100
AcDbLine
 10
2083.414931142427
 20
2264.053296194464
 30
0.0
 11
2083.131584165326
 21
2264.040866763464
 31
0.0
  0
LINE
  5
3AD
330
1F
100
AcDbEntity
  8
レバー
  6
Continuous
 62
     7
370
     0
100
AcDbLine
 10
2079.905112799026
 20
2237.574570708964
 30
0.0
 11
2079.901123711626
 21
2237.526073948564
 31
0.0
  0
LINE
  5
3AE
330
1F
100
AcDbEntity
  8
レバー
  6
Continuous
 62
     7
370
     0
100
AcDbLine
 10
2079.901061313027
 20
2261.972026796164
 30
0.0
 11
2079.904795916526
 21
2261.925064855364
 31
0.0
  0
ARC
  5
3AF
330
1F
100
AcDbEntity
  8
レバー
  6
Continuous
 62
     7
370
     0
100
AcDbCircle
 10
2085.699852868627
 20
2259.361811189364
 30
0.0
 40
0.3899910764044223
100
AcDbArc
 50
267.8080598574001
 51
279.0817549815
  0
ARC
  5
3B0
330
1F
100
AcDbEntity
  8
レバー
  6
Continuous
 62
     7
370
     0
100
AcDbCircle
 10
2085.687462004827
 20
2239.980154986264
 30
0.0
 40
0.4960694075698727
100
AcDbArc
 50
81.6688905765
 51
90.9480805973
  0
LINE
  5
3B1
330
1F
100
AcDbEntity
  8
レバー
  6
Continuous
 62
     7
370
     0
100
AcDbLine
 10
2096.319998906727
 20
2240.763380088964
 30
0.0
 11
2097.434078635426
 21
2240.666586802464
 31
0.0
  0
LINE
  5
3B2
330
1F
100
AcDbEntity
  8
レバー
  6
Continuous
 62
     7
370
     0
100
AcDbLine
 10
2096.319944889926
 20
2240.763388470864
 30
0.0
 11
2096.319998906727
 21
2240.763380088964
 31
0.0
  0
ARC
  5
3B3
330
1F
100
AcDbEntity
  8
レバー
  6
Continuous
 62
     7
370
     0
100
AcDbCircle
 10
2097.446021445327
 20
2252.332651753864
 30
0.0
 40
6.403665562558807
100
AcDbArc
 50
89.9521151651
 51
99.74091970990001
  0
ARC
  5
3B4
330
1F
100
AcDbEntity
  8
レバー
  6
Continuous
 62
     7
370
     0
100
AcDbCircle
 10
2091.950502697326
 20
2205.373606670964
 30
0.0
 40
35.65847864935863
100
AcDbArc
 50
82.96561544869999
 51
100.1292764492
  0
ARC
  5
3B5
330
1F
100
AcDbEntity
  8
レバー
  6
Continuous
 62
     7
370
     0
100
AcDbCircle
 10
2092.091749165626
 20
2293.582952579364
 30
0.0
 40
35.19896791796239
100
AcDbArc
 50
259.5127289737001
 51
276.9654538853
  0
ARC
  5
3B6
330
1F
100
AcDbEntity
  8
レバー
  6
Continuous
 62
     7
370
     0
100
AcDbCircle
 10
2077.361022936626
 20
2249.776185945364
 30
0.0
 40
24.12609751714855
100
AcDbArc
 50
21.7469064922
 51
180.062461108
  0
ARC
  5
3B7
330
1F
100
AcDbEntity
  8
レバー
  6
Continuous
 62
     7
370
     0
100
AcDbCircle
 10
2077.395706320726
 20
2249.751117709464
 30
0.0
 40
24.16076659656543
100
AcDbArc
 50
180.0029236807
 51
337.9452597753
  0
ARC
  5
3B8
330
1F
100
AcDbEntity
  8
レバー
  6
Continuous
 62
     7
370
     0
100
AcDbCircle
 10
2186.899095564427
 20
2249.749884837364
 30
0.0
 40
3.100584228877046
100
AcDbArc
 50
270.0206095586
 51
89.97939044139999
  0
LINE
  5
3B9
330
1F
100
AcDbEntity
  8
レバー
  6
Continuous
 62
     7
370
     0
100
AcDbLine
 10
2096.970652522226
 20
2244.909472194564
 30
0.0
 11
2077.400212448326
 21
2244.749884949164
 31
0.0
  0
LINE
  5
3BA
330
1F
100
AcDbEntity
  8
レバー
  6
Continuous
 62
     7
370
     0
100
AcDbLine
 10
2116.536927701627
 20
2245.283509966964
 30
0.0
 11
2096.970652522226
 21
2244.909472194564
 31
0.0
  0
LINE
  5
3BB
330
1F
100
AcDbEntity
  8
レバー
  6
Continuous
 62
     7
370
     0
100
AcDbLine
 10
2155.669261993626
 20
2246.043090605264
 30
0.0
 11
2116.536927701627
 21
2245.283509966964
 31
0.0
  0
LINE
  5
3BC
330
1F
100
AcDbEntity
  8
レバー
  6
Continuous
 62
     7
370
     0
100
AcDbLine
 10
2180.654024066127
 20
2246.528058908064
 30
0.0
 11
2155.669261993626
 21
2246.043090605264
 31
0.0
  0
LINE
  5
3BD
330
1F
100
AcDbEntity
  8
レバー
  6
Continuous
 62
     7
370
     0
100
AcDbLine
 10
2186.900210859026
 20
2246.649300809064
 30
0.0
 11
2180.654024066127
 21
2246.528058908064
 31
0.0
  0
LINE
  5
3BE
330
1F
100
AcDbEntity
  8
レバー
  6
Continuous
 62
     7
370
     0
100
AcDbLine
 10
2147.621830286227
 20
2253.612884217064
 30
0.0
 11
2186.900210859026
 21
2252.850468865664
 31
0.0
  0
LINE
  5
3BF
330
1F
100
AcDbEntity
  8
レバー
  6
Continuous
 62
     7
370
     0
100
AcDbLine
 10
2108.343453438727
 20
2254.375299801164
 30
0.0
 11
2147.621830286227
 21
2253.612884217064
 31
0.0
  0
LINE
  5
3C0
330
1F
100
AcDbEntity
  8
レバー
  6
Continuous
 62
     7
370
     0
100
AcDbLine
 10
2095.966575028126
 20
2254.606263143064
 30
0.0
 11
2108.343453438727
 21
2254.375299801164
 31
0.0
  0
LINE
  5
3C1
330
1F
100
AcDbEntity
  8
レバー
  6
Continuous
 62
     7
370
     0
100
AcDbLine
 10
2083.589166695026
 20
2254.734239437664
 30
0.0
 11
2095.966575028126
 21
2254.606263143064
 31
0.0
  0
LINE
  5
3C2
330
1F
100
AcDbEntity
  8
レバー
  6
Continuous
 62
     7
370
     0
100
AcDbLine
 10
2077.400212468326
 20
2254.749884725664
 30
0.0
 11
2083.589166695026
 21
2254.734239437664
 31
0.0
  0
ARC
  5
3C3
330
1F
100
AcDbEntity
  8
レバー
  6
Continuous
 62
     7
370
     0
100
AcDbCircle
 10
2077.400212468326
 20
2249.749884837364
 30
0.0
 40
25.50000000000001
100
AcDbArc
 50
180.0
 51
339.3829929451001
  0
ARC
  5
3C4
330
1F
100
AcDbEntity
  8
レバー
  6
Continuous
 62
     7
370
     0
100
AcDbCircle
 10
2077.400212468326
 20
2249.749884837364
 30
0.0
 40
25.50000000000001
100
AcDbArc
 50
20.6528913685
 51
180.0
  0
ARC
  5
3C5
330
1F
100
AcDbEntity
  8
レバー
  6
Continuous
 62
     7
370
     0
100
AcDbCircle
 10
2077.400212468326
 20
2249.749884837364
 30
0.0
 40
24.50000000000003
100
AcDbArc
 50
180.0
 51
338.1475948238
  0
ARC
  5
3C6
330
1F
100
AcDbEntity
  8
レバー
  6
Continuous
 62
     7
370
     0
100
AcDbCircle
 10
2077.400212468326
 20
2249.749884837364
 30
0.0
 40
24.5
100
AcDbArc
 50
21.4578848307
 51
180.0
  0
LINE
  5
3C7
330
1F
100
AcDbEntity
  8
レバー
  6
Continuous
 62
     7
370
     0
100
AcDbLine
 10
2085.491122038826
 20
2240.433889337864
 30
0.0
 11
2085.838374042627
 21
2240.457212449164
 31
0.0
  0
LINE
  5
3C8
330
1F
100
AcDbEntity
  8
レバー
  6
Continuous
 62
     7
370
     0
100
AcDbLine
 10
2084.136192513427
 20
2240.216205724564
 30
0.0
 11
2085.491122038826
 21
2240.433889337864
 31
0.0
  0
LINE
  5
3C9
330
1F
100
AcDbEntity
  8
レバー
  6
Continuous
 62
     7
370
     0
100
AcDbLine
 10
2082.921512717127
 20
2239.893292904964
 30
0.0
 11
2084.136192513427
 21
2240.216205724564
 31
0.0
  0
LINE
  5
3CA
330
1F
100
AcDbEntity
  8
レバー
  6
Continuous
 62
     7
370
     0
100
AcDbLine
 10
2081.879702688926
 20
2239.485264652464
 30
0.0
 11
2082.921512717127
 21
2239.893292904964
 31
0.0
  0
LINE
  5
3CB
330
1F
100
AcDbEntity
  8
レバー
  6
Continuous
 62
     7
370
     0
100
AcDbLine
 10
2081.046356878927
 20
2239.024643682964
 30
0.0
 11
2081.879702688926
 21
2239.485264652464
 31
0.0
  0
LINE
  5
3CC
330
1F
100
AcDbEntity
  8
レバー
  6
Continuous
 62
     7
370
     0
100
AcDbLine
 10
2080.438697071527
 20
2238.548018866264
 30
0.0
 11
2081.046356878927
 21
2239.024643682964
 31
0.0
  0
LINE
  5
3CD
330
1F
100
AcDbEntity
  8
レバー
  6
Continuous
 62
     7
370
     0
100
AcDbLine
 10
2080.082699715826
 20
2238.121000946564
 30
0.0
 11
2080.438697071527
 21
2238.548018866264
 31
0.0
  0
LINE
  5
3CE
330
1F
100
AcDbEntity
  8
レバー
  6
Continuous
 62
     7
370
     0
100
AcDbLine
 10
2079.917347583627
 20
2237.732579828364
 30
0.0
 11
2080.082699715826
 21
2238.121000946564
 31
0.0
  0
LINE
  5
3CF
330
1F
100
AcDbEntity
  8
レバー
  6
Continuous
 62
     7
370
     0
100
AcDbLine
 10
2079.922712467327
 20
2237.592763164164
 30
0.0
 11
2079.917347583627
 21
2237.732579828364
 31
0.0
  0
LINE
  5
3D0
330
1F
100
AcDbEntity
  8
レバー
  6
Continuous
 62
     7
370
     0
100
AcDbLine
 10
2079.907026666926
 20
2261.826284126464
 30
0.0
 11
2079.927707848826
 21
2261.948901125364
 31
0.0
  0
LINE
  5
3D1
330
1F
100
AcDbEntity
  8
レバー
  6
Continuous
 62
     7
370
     0
100
AcDbLine
 10
2080.042048183926
 20
2261.444395304764
 30
0.0
 11
2079.907026666926
 21
2261.826284126464
 31
0.0
  0
LINE
  5
3D2
330
1F
100
AcDbEntity
  8
レバー
  6
Continuous
 62
     7
370
     0
100
AcDbLine
 10
2080.385910872126
 20
2260.997765594264
 30
0.0
 11
2080.042048183926
 21
2261.444395304764
 31
0.0
  0
LINE
  5
3D3
330
1F
100
AcDbEntity
  8
レバー
  6
Continuous
 62
     7
370
     0
100
AcDbLine
 10
2080.966880604426
 20
2260.517602683164
 30
0.0
 11
2080.385910872126
 21
2260.997765594264
 31
0.0
  0
LINE
  5
3D4
330
1F
100
AcDbEntity
  8
レバー
  6
Continuous
 62
     7
370
     0
100
AcDbLine
 10
2081.756600936626
 20
2260.056094163164
 30
0.0
 11
2080.966880604426
 21
2260.517602683164
 31
0.0
  0
LINE
  5
3D5
330
1F
100
AcDbEntity
  8
レバー
  6
Continuous
 62
     7
370
     0
100
AcDbLine
 10
2082.735314791727
 20
2259.642992065364
 30
0.0
 11
2081.756600936626
 21
2260.056094163164
 31
0.0
  0
LINE
  5
3D6
330
1F
100
AcDbEntity
  8
レバー
  6
Continuous
 62
     7
370
     0
100
AcDbLine
 10
2083.872556047227
 20
2259.306365520764
 30
0.0
 11
2082.735314791727
 21
2259.642992065364
 31
0.0
  0
LINE
  5
3D7
330
1F
100
AcDbEntity
  8
レバー
  6
Continuous
 62
     7
370
     0
100
AcDbLine
 10
2085.129334417826
 20
2259.064350173864
 30
0.0
 11
2083.872556047227
 21
2259.306365520764
 31
0.0
  0
LINE
  5
3D8
330
1F
100
AcDbEntity
  8
レバー
  6
Continuous
 62
     7
370
     0
100
AcDbLine
 10
2085.597493046626
 20
2259.018681840164
 30
0.0
 11
2085.129334417826
 21
2259.064350173864
 31
0.0
  0
LINE
  5
3D9
330
1F
100
AcDbEntity
  8
レバー
  6
Continuous
 62
     7
370
     0
100
AcDbLine
 10
2187.090878667027
 20
2243.230369770064
 30
0.0
 11
2187.452880026526
 21
2243.307047420264
 31
0.0
  0
LINE
  5
3DA
330
1F
100
AcDbEntity
  8
レバー
  6
Continuous
 62
     7
370
     0
100
AcDbLine
 10
2186.286089302726
 20
2243.195617933864
 30
0.0
 11
2187.090878667027
 21
2243.230369770064
 31
0.0
  0
LINE
  5
3DB
330
1F
100
AcDbEntity
  8
レバー
  6
Continuous
 62
     7
370
     0
100
AcDbLine
 10
2185.486656905826
 20
2243.161232573064
 30
0.0
 11
2186.286089302726
 21
2243.195617933864
 31
0.0
  0
LINE
  5
3DC
330
1F
100
AcDbEntity
  8
レバー
  6
Continuous
 62
     7
370
     0
100
AcDbLine
 10
2184.692611278726
 20
2243.127209962464
 30
0.0
 11
2185.486656905826
 21
2243.161232573064
 31
0.0
  0
LINE
  5
3DD
330
1F
100
AcDbEntity
  8
レバー
  6
Continuous
 62
     7
370
     0
100
AcDbLine
 10
2183.903892816726
 20
2243.093544048364
 30
0.0
 11
2184.692611278726
 21
2243.127209962464
 31
0.0
  0
LINE
  5
3DE
330
1F
100
AcDbEntity
  8
レバー
  6
Continuous
 62
     7
370
     0
100
AcDbLine
 10
2180.040990294626
 20
2242.930475053464
 30
0.0
 11
2183.903892816726
 21
2243.093544048364
 31
0.0
  0
LINE
  5
3DF
330
1F
100
AcDbEntity
  8
レバー
  6
Continuous
 62
     7
370
     0
100
AcDbLine
 10
2172.716816248127
 20
2242.629432016164
 30
0.0
 11
2180.040990294626
 21
2242.930475053464
 31
0.0
  0
LINE
  5
3E0
330
1F
100
AcDbEntity
  8
レバー
  6
Continuous
 62
     7
370
     0
100
AcDbLine
 10
2165.925187350927
 20
2242.360099581164
 30
0.0
 11
2172.716816248127
 21
2242.629432016164
 31
0.0
  0
LINE
  5
3E1
330
1F
100
AcDbEntity
  8
レバー
  6
Continuous
 62
     7
370
     0
100
AcDbLine
 10
2159.667996050527
 20
2242.121169240264
 30
0.0
 11
2165.925187350927
 21
2242.360099581164
 31
0.0
  0
LINE
  5
3E2
330
1F
100
AcDbEntity
  8
レバー
  6
Continuous
 62
     7
370
     0
100
AcDbLine
 10
2152.146903158827
 20
2241.847826995964
 30
0.0
 11
2159.667996050527
 21
2242.121169240264
 31
0.0
  0
LINE
  5
3E3
330
1F
100
AcDbEntity
  8
レバー
  6
Continuous
 62
     7
370
     0
100
AcDbLine
 10
2145.570618392626
 20
2241.623901658764
 30
0.0
 11
2152.146903158827
 21
2241.847826995964
 31
0.0
  0
LINE
  5
3E4
330
1F
100
AcDbEntity
  8
レバー
  6
Continuous
 62
     7
370
     0
100
AcDbLine
 10
2139.943440736927
 20
2241.445405305464
 30
0.0
 11
2145.570618392626
 21
2241.623901658764
 31
0.0
  0
LINE
  5
3E5
330
1F
100
AcDbEntity
  8
レバー
  6
Continuous
 62
     7
370
     0
100
AcDbLine
 10
2135.650248558926
 20
2241.318439961464
 30
0.0
 11
2139.943440736927
 21
2241.445405305464
 31
0.0
  0
LINE
  5
3E6
330
1F
100
AcDbEntity
  8
レバー
  6
Continuous
 62
     7
370
     0
100
AcDbLine
 10
2130.777758838326
 20
2241.185210541864
 30
0.0
 11
2135.650248558926
 21
2241.318439961464
 31
0.0
  0
LINE
  5
3E7
330
1F
100
AcDbEntity
  8
レバー
  6
Continuous
 62
     7
370
     0
100
AcDbLine
 10
2125.194211782627
 20
2241.048031383264
 30
0.0
 11
2130.777758838326
 21
2241.185210541864
 31
0.0
  0
LINE
  5
3E8
330
1F
100
AcDbEntity
  8
レバー
  6
Continuous
 62
     7
370
     0
100
AcDbLine
 10
2118.901529641526
 20
2240.915107437464
 30
0.0
 11
2125.194211782627
 21
2241.048031383264
 31
0.0
  0
LINE
  5
3E9
330
1F
100
AcDbEntity
  8
レバー
  6
Continuous
 62
     7
370
     0
100
AcDbLine
 10
2111.902521284027
 20
2240.796830401864
 30
0.0
 11
2118.901529641526
 21
2240.915107437464
 31
0.0
  0
LINE
  5
3EA
330
1F
100
AcDbEntity
  8
レバー
  6
Continuous
 62
     7
370
     0
100
AcDbLine
 10
2104.191064195426
 20
2240.705407121264
 30
0.0
 11
2111.902521284027
 21
2240.796830401864
 31
0.0
  0
LINE
  5
3EB
330
1F
100
AcDbEntity
  8
レバー
  6
Continuous
 62
     7
370
     0
100
AcDbLine
 10
2097.434089811227
 20
2240.664780967964
 30
0.0
 11
2104.191064195426
 21
2240.705407121264
 31
0.0
  0
LINE
  5
3EC
330
1F
100
AcDbEntity
  8
レバー
  6
Continuous
 62
     7
370
     0
100
AcDbLine
 10
2101.279854135327
 20
2258.701634490064
 30
0.0
 11
2097.451367707627
 21
2258.735731140764
 31
0.0
  0
LINE
  5
3ED
330
1F
100
AcDbEntity
  8
レバー
  6
Continuous
 62
     7
370
     0
100
AcDbLine
 10
2106.073460833827
 20
2258.644011699664
 30
0.0
 11
2101.279854135327
 21
2258.701634490064
 31
0.0
  0
LINE
  5
3EE
330
1F
100
AcDbEntity
  8
レバー
  6
Continuous
 62
     7
370
     0
100
AcDbLine
 10
2110.192836554427
 20
2258.583827772264
 30
0.0
 11
2106.073460833827
 21
2258.644011699664
 31
0.0
  0
LINE
  5
3EF
330
1F
100
AcDbEntity
  8
レバー
  6
Continuous
 62
     7
370
     0
100
AcDbLine
 10
2113.637429954226
 20
2258.526150033864
 30
0.0
 11
2110.192836554427
 21
2258.583827772264
 31
0.0
  0
LINE
  5
3F0
330
1F
100
AcDbEntity
  8
レバー
  6
Continuous
 62
     7
370
     0
100
AcDbLine
 10
2116.408740462526
 20
2258.475017630564
 30
0.0
 11
2113.637429954226
 21
2258.526150033864
 31
0.0
  0
LINE
  5
3F1
330
1F
100
AcDbEntity
  8
レバー
  6
Continuous
 62
     7
370
     0
100
AcDbLine
 10
2118.884519966026
 20
2258.425900609364
 30
0.0
 11
2116.408740462526
 21
2258.475017630564
 31
0.0
  0
LINE
  5
3F2
330
1F
100
AcDbEntity
  8
レバー
  6
Continuous
 62
     7
370
     0
100
AcDbLine
 10
2121.395462484826
 20
2258.372899972964
 30
0.0
 11
2118.884519966026
 21
2258.425900609364
 31
0.0
  0
LINE
  5
3F3
330
1F
100
AcDbEntity
  8
レバー
  6
Continuous
 62
     7
370
     0
100
AcDbLine
 10
2129.052126141027
 20
2258.192777530364
 30
0.0
 11
2121.395462484826
 21
2258.372899972964
 31
0.0
  0
LINE
  5
3F4
330
1F
100
AcDbEntity
  8
レバー
  6
Continuous
 62
     7
370
     0
100
AcDbLine
 10
2136.805885763627
 20
2257.984773152564
 30
0.0
 11
2129.052126141027
 21
2258.192777530364
 31
0.0
  0
LINE
  5
3F5
330
1F
100
AcDbEntity
  8
レバー
  6
Continuous
 62
     7
370
     0
100
AcDbLine
 10
2144.741599740227
 20
2257.749286376964
 30
0.0
 11
2136.805885763627
 21
2257.984773152564
 31
0.0
  0
LINE
  5
3F6
330
1F
100
AcDbEntity
  8
レバー
  6
Continuous
 62
     7
370
     0
100
AcDbLine
 10
2147.994456173626
 20
2257.647213422764
 30
0.0
 11
2144.741599740227
 21
2257.749286376964
 31
0.0
  0
LINE
  5
3F7
330
1F
100
AcDbEntity
  8
レバー
  6
Continuous
 62
     7
370
     0
100
AcDbLine
 10
2151.356307150526
 20
2257.538769756564
 30
0.0
 11
2147.994456173626
 21
2257.647213422764
 31
0.0
  0
LINE
  5
3F8
330
1F
100
AcDbEntity
  8
レバー
  6
Continuous
 62
     7
370
     0
100
AcDbLine
 10
2154.530150176727
 20
2257.433912147864
 30
0.0
 11
2151.356307150526
 21
2257.538769756564
 31
0.0
  0
LINE
  5
3F9
330
1F
100
AcDbEntity
  8
レバー
  6
Continuous
 62
     7
370
     0
100
AcDbLine
 10
2157.210422040626
 20
2257.343681425864
 30
0.0
 11
2154.530150176727
 21
2257.433912147864
 31
0.0
  0
LINE
  5
3FA
330
1F
100
AcDbEntity
  8
レバー
  6
Continuous
 62
     7
370
     0
100
AcDbLine
 10
2159.401913465726
 20
2257.268878062364
 30
0.0
 11
2157.210422040626
 21
2257.343681425864
 31
0.0
  0
LINE
  5
3FB
330
1F
100
AcDbEntity
  8
レバー
  6
Continuous
 62
     7
370
     0
100
AcDbLine
 10
2161.732827605426
 20
2257.188402478664
 30
0.0
 11
2159.401913465726
 21
2257.268878062364
 31
0.0
  0
LINE
  5
3FC
330
1F
100
AcDbEntity
  8
レバー
  6
Continuous
 62
     7
370
     0
100
AcDbLine
 10
2165.035073937627
 20
2257.072964579864
 30
0.0
 11
2161.732827605426
 21
2257.188402478664
 31
0.0
  0
LINE
  5
3FD
330
1F
100
AcDbEntity
  8
レバー
  6
Continuous
 62
     7
370
     0
100
AcDbLine
 10
2168.997322501326
 20
2256.932472241164
 30
0.0
 11
2165.035073937627
 21
2257.072964579864
 31
0.0
  0
LINE
  5
3FE
330
1F
100
AcDbEntity
  8
レバー
  6
Continuous
 62
     7
370
     0
100
AcDbLine
 10
2172.905368091326
 20
2256.792036247564
 30
0.0
 11
2168.997322501326
 21
2256.932472241164
 31
0.0
  0
LINE
  5
3FF
330
1F
100
AcDbEntity
  8
レバー
  6
Continuous
 62
     7
370
     0
100
AcDbLine
 10
2178.939891339926
 20
2256.571993128464
 30
0.0
 11
2172.905368091326
 21
2256.792036247564
 31
0.0
  0
LINE
  5
400
330
1F
100
AcDbEntity
  8
レバー
  6
Continuous
 62
     7
370
     0
100
AcDbLine
 10
2182.339762629726
 20
2256.445761666764
 30
0.0
 11
2178.939891339926
 21
2256.571993128464
 31
0.0
  0
LINE
  5
401
330
1F
100
AcDbEntity
  8
レバー
  6
Continuous
 62
     7
370
     0
100
AcDbLine
 10
2184.393038334126
 20
2256.367587846764
 30
0.0
 11
2182.339762629726
 21
2256.445761666764
 31
0.0
  0
LINE
  5
402
330
1F
100
AcDbEntity
  8
レバー
  6
Continuous
 62
     7
370
     0
100
AcDbLine
 10
2185.589690984926
 20
2256.320946280964
 30
0.0
 11
2184.393038334126
 21
2256.367587846764
 31
0.0
  0
LINE
  5
403
330
1F
100
AcDbEntity
  8
レバー
  6
Continuous
 62
     7
370
     0
100
AcDbLine
 10
2186.274496199327
 20
2256.293812197764
 30
0.0
 11
2185.589690984926
 21
2256.320946280964
 31
0.0
  0
LINE
  5
404
330
1F
100
AcDbEntity
  8
レバー
  6
Continuous
 62
     7
370
     0
100
AcDbLine
 10
2186.662596942626
 20
2256.278275874564
 30
0.0
 11
2186.274496199327
 21
2256.293812197764
 31
0.0
  0
LINE
  5
405
330
1F
100
AcDbEntity
  8
レバー
  6
Continuous
 62
     7
370
     0
100
AcDbLine
 10
2186.881375791227
 20
2256.269464631664
 30
0.0
 11
2186.662596942626
 21
2256.278275874564
 31
0.0
  0
LINE
  5
406
330
1F
100
AcDbEntity
  8
レバー
  6
Continuous
 62
     7
370
     0
100
AcDbLine
 10
2187.004340173426
 20
2256.264495094364
 30
0.0
 11
2186.881375791227
 21
2256.269464631664
 31
0.0
  0
LINE
  5
407
330
1F
100
AcDbEntity
  8
レバー
  6
Continuous
 62
     7
370
     0
100
AcDbLine
 10
2187.154484273626
 20
2256.258389809264
 30
0.0
 11
2187.004340173426
 21
2256.264495094364
 31
0.0
  0
LINE
  5
408
330
1F
100
AcDbEntity
  8
レバー
  6
Continuous
 62
     7
370
     0
100
AcDbLine
 10
2187.155937136827
 20
2256.258331135964
 30
0.0
 11
2187.154484273626
 21
2256.258389809264
 31
0.0
  0
LINE
  5
409
330
1F
100
AcDbEntity
  8
レバー
  6
Continuous
 62
     7
370
     0
100
AcDbLine
 10
2187.159662427126
 20
2256.258183986964
 30
0.0
 11
2187.155937136827
 21
2256.258331135964
 31
0.0
  0
LINE
  5
40A
330
1F
100
AcDbEntity
  8
レバー
  6
Continuous
 62
     7
370
     0
100
AcDbLine
 10
2187.166785182226
 20
2256.257902727564
 30
0.0
 11
2187.159662427126
 21
2256.258183986964
 31
0.0
  0
LINE
  5
40B
330
1F
100
AcDbEntity
  8
レバー
  6
Continuous
 62
     7
370
     0
100
AcDbLine
 10
2187.182632567127
 20
2256.257251733065
 30
0.0
 11
2187.166785182226
 21
2256.257902727564
 31
0.0
  0
LINE
  5
40C
330
1F
100
AcDbEntity
  8
レバー
  6
Continuous
 62
     7
370
     0
100
AcDbLine
 10
2188.162607433027
 20
2256.144809898964
 30
0.0
 11
2187.182632567127
 21
2256.257251733065
 31
0.0
  0
ARC
  5
40D
330
1F
100
AcDbEntity
  8
レバー
  6
Continuous
 62
     7
370
     0
100
AcDbCircle
 10
2187.152310161327
 20
2251.319154390764
 30
0.0
 40
4.937374218354459
100
AcDbArc
 50
76.5929451595
 51
86.3535137711
  0
LINE
  5
40E
330
1F
100
AcDbEntity
  8
0-3_仕上げ
  6
Continuous
 62
    92
370
    13
100
AcDbLine
 10
2116.400212468327
 20
2258.475017630564
 30
0.0
 11
2116.400212468327
 21
3669.249884837381
 31
0.0
  0
LINE
  5
40F
330
1F
100
AcDbEntity
  8
0-3_仕上げ
  6
Continuous
 62
    92
370
    13
100
AcDbLine
 10
2121.400212468326
 20
2258.372788229956
 30
0.0
 11
2121.400212468326
 21
3669.249884837381
 31
0.0
  0
LINE
  5
410
330
1F
100
AcDbEntity
  8
0-3_仕上げ
  6
Continuous
 62
    92
370
    13
100
AcDbLine
 10
2116.400212468327
 20
1292.249884837382
 30
0.0
 11
2116.400212468327
 21
2240.872837395019
 31
0.0
  0
LINE
  5
411
330
1F
100
AcDbEntity
  8
0-3_仕上げ
  6
Continuous
 62
    92
370
    13
100
AcDbLine
 10
2121.400212468326
 20
1292.249884837382
 30
0.0
 11
2121.400212468326
 21
2240.967888552606
 31
0.0
  0
LINE
  5
412
330
1F
100
AcDbEntity
  8
0-3_仕上げ
  6
Continuous
 62
    92
370
    13
100
AcDbLine
 10
-115.1999148806982
 20
2258.475174977364
 30
0.0
 11
-115.1999148806982
 21
3669.249884837381
 31
0.0
  0
LINE
  5
413
330
1F
100
AcDbEntity
  8
0-3_仕上げ
  6
Continuous
 62
    92
370
    13
100
AcDbLine
 10
-110.1999148806985
 20
2258.372788229956
 30
0.0
 11
-110.1999148806985
 21
3669.249884837381
 31
0.0
  0
LINE
  5
414
330
1F
100
AcDbEntity
  8
0-3_仕上げ
  6
Continuous
 62
    92
370
    13
100
AcDbLine
 10
-115.1999148806982
 20
1292.249884837382
 30
0.0
 11
-115.1999148806982
 21
2240.872837395019
 31
0.0
  0
LINE
  5
415
330
1F
100
AcDbEntity
  8
0-3_仕上げ
  6
Continuous
 62
    92
370
    13
100
AcDbLine
 10
-110.1999148806985
 20
1292.249884837382
 30
0.0
 11
-110.1999148806985
 21
2240.967888552606
 31
0.0
  0
LINE
  5
416
330
1F
100
AcDbEntity
  8
0-3_仕上げ
  6
Continuous
 62
    92
370
    13
100
AcDbLine
 10
-2346.799578280063
 20
2258.475017630564
 30
0.0
 11
-2346.799578280063
 21
3669.249884837381
 31
0.0
  0
LINE
  5
417
330
1F
100
AcDbEntity
  8
0-3_仕上げ
  6
Continuous
 62
    92
370
    13
100
AcDbLine
 10
-2341.799578280063
 20
2258.372788229956
 30
0.0
 11
-2341.799578280063
 21
3669.249884837381
 31
0.0
  0
LINE
  5
418
330
1F
100
AcDbEntity
  8
0-3_仕上げ
  6
Continuous
 62
    92
370
    13
100
AcDbLine
 10
-2346.799578280063
 20
1292.249884837382
 30
0.0
 11
-2346.799578280063
 21
2240.872837395019
 31
0.0
  0
LINE
  5
419
330
1F
100
AcDbEntity
  8
0-3_仕上げ
  6
Continuous
 62
    92
370
    13
100
AcDbLine
 10
-2341.799578280063
 20
1292.249884837382
 30
0.0
 11
-2341.799578280063
 21
2240.967888552606
 31
0.0
  0
LINE
  5
41A
330
1F
100
AcDbEntity
  8
0-3_仕上げ
  6
Continuous
 62
    92
370
    13
100
AcDbLine
 10
-4578.399798419025
 20
2258.475174977364
 30
0.0
 11
-4578.399798419025
 21
3669.249884837381
 31
0.0
  0
LINE
  5
41B
330
1F
100
AcDbEntity
  8
0-3_仕上げ
  6
Continuous
 62
    92
370
    13
100
AcDbLine
 10
-4573.399798419026
 20
2258.372788229956
 30
0.0
 11
-4573.399798419026
 21
3669.249884837381
 31
0.0
  0
LINE
  5
41C
330
1F
100
AcDbEntity
  8
0-3_仕上げ
  6
Continuous
 62
    92
370
    13
100
AcDbLine
 10
-4578.399798419025
 20
1292.249884837382
 30
0.0
 11
-4578.399798419025
 21
2240.872837395019
 31
0.0
  0
LINE
  5
41D
330
1F
100
AcDbEntity
  8
0-3_仕上げ
  6
Continuous
 62
    92
370
    13
100
AcDbLine
 10
-4573.399798419026
 20
1292.249884837382
 30
0.0
 11
-4573.399798419026
 21
2240.967888552606
 31
0.0
  0
ENDSEC
  0
SECTION
  2
OBJECTS
  0
DICTIONARY
  5
C
330
0
100
AcDbDictionary
281
     1
  3
ACAD_GROUP
350
D
  3
ACAD_LAYOUT
350
1A
  3
ACAD_MATERIAL
350
3B
  3
ACAD_MLEADERSTYLE
350
41F
  3
ACAD_MLINESTYLE
350
17
  3
ACAD_PLOTSETTINGS
350
19
  3
ACAD_PLOTSTYLENAME
350
E
  3
ACAD_TABLESTYLE
350
41E
  3
ACAD_VISUALSTYLE
350
2A
  0
DICTIONARY
  5
D
102
{ACAD_REACTORS
330
C
102
}
330
C
100
AcDbDictionary
281
     1
  0
DICTIONARY
  5
1A
102
{ACAD_REACTORS
330
C
102
}
330
C
100
AcDbDictionary
281
     1
  3
Layout1
350
1E
  3
Layout2
350
26
  3
Model
350
22
  0
DICTIONARY
  5
3B
102
{ACAD_REACTORS
330
C
102
}
330
C
100
AcDbDictionary
281
     1
  3
ByBlock
350
3D
  3
ByLayer
350
3C
  3
Global
350
3E
  0
DICTIONARY
  5
41F
102
{ACAD_REACTORS
330
C
102
}
330
C
100
AcDbDictionary
281
     1
  0
DICTIONARY
  5
17
102
{ACAD_REACTORS
330
C
102
}
330
C
100
AcDbDictionary
281
     1
  3
Standard
350
18
  0
DICTIONARY
  5
19
102
{ACAD_REACTORS
330
C
102
}
330
C
100
AcDbDictionary
281
     1
  0
ACDBDICTIONARYWDFLT
  5
E
102
{ACAD_REACTORS
330
C
102
}
330
C
100
AcDbDictionary
281
     1
  3
Normal
350
F
100
AcDbDictionaryWithDefault
340
F
  0
DICTIONARY
  5
41E
102
{ACAD_REACTORS
330
C
102
}
330
C
100
AcDbDictionary
281
     1
  0
DICTIONARY
  5
2A
102
{ACAD_REACTORS
330
C
102
}
330
C
100
AcDbDictionary
281
     1
  3
2dWireframe
350
2F
  3
3D Hidden
350
31
  3
3dWireframe
350
30
  3
Basic
350
32
  3
Brighten
350
36
  3
ColorChange
350
3A
  3
Conceptual
350
34
  3
Dim
350
35
  3
Facepattern
350
39
  3
Flat
350
2B
  3
FlatWithEdges
350
2C
  3
Gouraud
350
2D
  3
GouraudWithEdges
350
2E
  3
Linepattern
350
38
  3
Realistic
350
33
  3
Thicken
350
37
  0
LAYOUT
  5
1E
102
{ACAD_REACTORS
330
1A
102
}
330
1A
100
AcDbPlotSettings
  1

  2
none_device
  4

  6

 40
0.0
 41
0.0
 42
0.0
 43
0.0
 44
0.0
 45
0.0
 46
0.0
 47
0.0
 48
0.0
 49
0.0
140
0.0
141
0.0
142
1.0
143
1.0
 70
   688
 72
     0
 73
     0
 74
     5
  7

 75
    16
 76
     0
 77
     5
 78
   300
147
1.0
148
0.0
149
0.0
100
AcDbLayout
  1
Layout1
 70
     1
 71
     1
 10
0.0
 20
0.0
 11
420.0
 21
297.0
 12
0.0
 22
0.0
 32
0.0
 14
1.000000000000000E+20
 24
1.000000000000000E+20
 34
1.000000000000000E+20
 15
-1.000000000000000E+20
 25
-1.000000000000000E+20
 35
-1.000000000000000E+20
146
0.0
 13
0.0
 23
0.0
 33
0.0
 16
1.0
 26
0.0
 36
0.0
 17
0.0
 27
1.0
 37
0.0
 76
     0
330
1B
  0
LAYOUT
  5
26
102
{ACAD_REACTORS
330
1A
102
}
330
1A
100
AcDbPlotSettings
  1

  2
none_device
  4

  6

 40
0.0
 41
0.0
 42
0.0
 43
0.0
 44
0.0
 45
0.0
 46
0.0
 47
0.0
 48
0.0
 49
0.0
140
0.0
141
0.0
142
1.0
143
1.0
 70
   688
 72
     0
 73
     0
 74
     5
  7

 75
    16
 76
     0
 77
     5
 78
   300
147
1.0
148
0.0
149
0.0
100
AcDbLayout
  1
Layout2
 70
     1
 71
     2
 10
0.0
 20
0.0
 11
0.0
 21
0.0
 12
0.0
 22
0.0
 32
0.0
 14
0.0
 24
0.0
 34
0.0
 15
0.0
 25
0.0
 35
0.0
146
0.0
 13
0.0
 23
0.0
 33
0.0
 16
1.0
 26
0.0
 36
0.0
 17
0.0
 27
1.0
 37
0.0
 76
     0
330
23
  0
LAYOUT
  5
22
102
{ACAD_REACTORS
330
1A
102
}
330
1A
100
AcDbPlotSettings
  1

  2
none_device
  4

  6

 40
0.0
 41
0.0
 42
0.0
 43
0.0
 44
0.0
 45
0.0
 46
0.0
 47
0.0
 48
0.0
 49
0.0
140
0.0
141
0.0
142
1.0
143
1.0
 70
  1712
 72
     0
 73
     0
 74
     0
  7

 75
     0
 76
     0
 77
     5
 78
   300
147
1.0
148
0.0
149
0.0
100
AcDbLayout
  1
Model
 70
     1
 71
     0
 10
-6300.0
 20
-4455.0
 11
6300.0
 21
4455.0
 12
0.0
 22
0.0
 32
0.0
 14
-6300.0
 24
-4455.0
 34
0.0
 15
6300.0
 25
4455.0
 35
0.0
146
0.0
 13
0.0
 23
0.0
 33
0.0
 16
1.0
 26
0.0
 36
0.0
 17
0.0
 27
1.0
 37
0.0
 76
     0
330
1F
331
29
  0
MATERIAL
  5
3D
102
{ACAD_REACTORS
330
3B
102
}
330
3B
100
AcDbMaterial
  1
ByBlock
 72
     1
 94
      127
  0
MATERIAL
  5
3C
102
{ACAD_REACTORS
330
3B
102
}
330
3B
100
AcDbMaterial
  1
ByLayer
 72
     1
 94
      127
  0
MATERIAL
  5
3E
102
{ACAD_REACTORS
330
3B
102
}
330
3B
100
AcDbMaterial
  1
Global
 72
     1
 94
      127
  0
MLINESTYLE
  5
18
102
{ACAD_REACTORS
330
17
102
}
330
17
100
AcDbMlineStyle
  2
Standard
 70
     0
  3

 62
   256
 51
90.0
 52
90.0
 71
     2
 49
0.5
 62
   256
  6
BYLAYER
 49
-0.5
 62
   256
  6
BYLAYER
  0
ACDBPLACEHOLDER
  5
F
102
{ACAD_REACTORS
330
E
102
}
330
E
  0
VISUALSTYLE
  5
2F
102
{ACAD_REACTORS
330
2A
102
}
330
2A
100
AcDbVisualStyle
  2
2dWireframe
 70
     4
177
     2
291
     0
 71
     0
176
     1
 72
     2
176
     1
 73
     0
176
     1
 90
        0
176
     1
 40
-0.6
176
     1
 41
-30.0
176
     1
 62
     5
 63
     7
421
 16777215
176
     1
 74
     1
176
     1
 91
        4
176
     1
 64
     7
176
     1
 65
   257
176
     1
 75
     1
176
     1
175
     1
176
     1
 42
1.0
176
     1
 92
        0
176
     1
 66
   257
176
     1
 43
1.0
176
     1
 76
     1
176
     1
 77
     6
176
     1
 78
     2
176
     1
 67
     7
176
     1
 79
     5
176
     1
170
     0
176
     1
171
     0
176
     1
290
     0
176
     1
 93
        1
176
     1
 44
0.0
176
     1
173
     0
176
     1
  0
VISUALSTYLE
  5
31
102
{ACAD_REACTORS
330
2A
102
}
330
2A
100
AcDbVisualStyle
  2
3D Hidden
 70
     6
177
     2
291
     0
 71
     1
176
     1
 72
     2
176
     1
 73
     2
176
     1
 90
        0
176
     1
 40
-0.6
176
     1
 41
-30.0
176
     1
 62
     5
 63
     7
421
 16777215
176
     1
 74
     2
176
     1
 91
        2
176
     1
 64
     7
176
     1
 65
   257
176
     1
 75
     2
176
     1
175
     1
176
     1
 42
40.0
176
     1
 92
        0
176
     1
 66
   257
176
     1
 43
1.0
176
     1
 76
     1
176
     1
 77
     6
176
     1
 78
     2
176
     1
 67
     7
176
     1
 79
     3
176
     1
170
     0
176
     1
171
     0
176
     1
290
     0
176
     1
 93
        1
176
     1
 44
0.0
176
     1
173
     0
176
     1
  0
VISUALSTYLE
  5
30
102
{ACAD_REACTORS
330
2A
102
}
330
2A
100
AcDbVisualStyle
  2
3dWireframe
 70
     5
177
     2
291
     0
 71
     0
176
     1
 72
     2
176
     1
 73
     0
176
     1
 90
        0
176
     1
 40
-0.6
176
     1
 41
-30.0
176
     1
 62
     5
 63
     7
421
 16777215
176
     1
 74
     1
176
     1
 91
        4
176
     1
 64
     7
176
     1
 65
   257
176
     1
 75
     1
176
     1
175
     1
176
     1
 42
1.0
176
     1
 92
        0
176
     1
 66
   257
176
     1
 43
1.0
176
     1
 76
     1
176
     1
 77
     6
176
     1
 78
     2
176
     1
 67
     7
176
     1
 79
     5
176
     1
170
     0
176
     1
171
     0
176
     1
290
     0
176
     1
 93
        1
176
     1
 44
0.0
176
     1
173
     0
176
     1
  0
VISUALSTYLE
  5
32
102
{ACAD_REACTORS
330
2A
102
}
330
2A
100
AcDbVisualStyle
  2
Basic
 70
     7
177
     2
291
     1
 71
     1
176
     1
 72
     0
176
     1
 73
     1
176
     1
 90
        0
176
     1
 40
-0.6
176
     1
 41
-30.0
176
     1
 62
     5
 63
     7
421
 16777215
176
     1
 74
     0
176
     1
 91
        4
176
     1
 64
     7
176
     1
 65
   257
176
     1
 75
     1
176
     1
175
     1
176
     1
 42
1.0
176
     1
 92
        8
176
     1
 66
     7
176
     1
 43
1.0
176
     1
 76
     1
176
     1
 77
     6
176
     1
 78
     2
176
     1
 67
     7
176
     1
 79
     5
176
     1
170
     0
176
     1
171
     0
176
     1
290
     0
176
     1
 93
        1
176
     1
 44
0.0
176
     1
173
     0
176
     1
  0
VISUALSTYLE
  5
36
102
{ACAD_REACTORS
330
2A
102
}
330
2A
100
AcDbVisualStyle
  2
Brighten
 70
    12
177
     2
291
     1
 71
     2
176
     1
 72
     2
176
     1
 73
     0
176
     1
 90
        0
176
     1
 40
-0.6
176
     1
 41
-30.0
176
     1
 62
     5
 63
     7
421
 16777215
176
     1
 74
     1
176
     1
 91
        4
176
     1
 64
     7
176
     1
 65
   257
176
     1
 75
     1
176
     1
175
     1
176
     1
 42
1.0
176
     1
 92
        8
176
     1
 66
     7
176
     1
 43
1.0
176
     1
 76
     1
176
     1
 77
     6
176
     1
 78
     2
176
     1
 67
     7
176
     1
 79
     5
176
     1
170
     0
176
     1
171
     0
176
     1
290
     0
176
     1
 93
        1
176
     1
 44
50.0
176
     1
173
     0
176
     1
  0
VISUALSTYLE
  5
3A
102
{ACAD_REACTORS
330
2A
102
}
330
2A
100
AcDbVisualStyle
  2
ColorChange
 70
    16
177
     2
291
     1
 71
     2
176
     1
 72
     2
176
     1
 73
     3
176
     1
 90
        0
176
     1
 40
-0.6
176
     1
 41
-30.0
176
     1
 62
     5
 63
     8
421
  8421504
176
     1
 74
     1
176
     1
 91
        4
176
     1
 64
     7
176
     1
 65
   257
176
     1
 75
     1
176
     1
175
     1
176
     1
 42
1.0
176
     1
 92
        8
176
     1
 66
     8
424
  8421504
176
     1
 43
1.0
176
     1
 76
     1
176
     1
 77
     6
176
     1
 78
     2
176
     1
 67
     7
176
     1
 79
     5
176
     1
170
     0
176
     1
171
     0
176
     1
290
     0
176
     1
 93
        1
176
     1
 44
0.0
176
     1
173
     0
176
     1
  0
VISUALSTYLE
  5
34
102
{ACAD_REACTORS
330
2A
102
}
330
2A
100
AcDbVisualStyle
  2
Conceptual
 70
     9
177
     2
291
     0
 71
     3
176
     1
 72
     2
176
     1
 73
     0
176
     1
 90
        0
176
     1
 40
-0.6
176
     1
 41
-30.0
176
     1
 62
     5
 63
     7
421
 16777215
176
     1
 74
     2
176
     1
 91
        2
176
     1
 64
     7
176
     1
 65
   257
176
     1
 75
     1
176
     1
175
     1
176
     1
 42
40.0
176
     1
 92
        8
176
     1
 66
     7
176
     1
 43
1.0
176
     1
 76
     1
176
     1
 77
     6
176
     1
 78
     2
176
     1
 67
     7
176
     1
 79
     3
176
     1
170
     0
176
     1
171
     0
176
     1
290
     0
176
     1
 93
        1
176
     1
 44
0.0
176
     1
173
     0
176
     1
  0
VISUALSTYLE
  5
35
102
{ACAD_REACTORS
330
2A
102
}
330
2A
100
AcDbVisualStyle
  2
Dim
 70
    11
177
     2
291
     1
 71
     2
176
     1
 72
     2
176
     1
 73
     0
176
     1
 90
        0
176
     1
 40
-0.6
176
     1
 41
-30.0
176
     1
 62
     5
 63
     7
421
 16777215
176
     1
 74
     1
176
     1
 91
        4
176
     1
 64
     7
176
     1
 65
   257
176
     1
 75
     1
176
     1
175
     1
176
     1
 42
1.0
176
     1
 92
        8
176
     1
 66
     7
176
     1
 43
1.0
176
     1
 76
     1
176
     1
 77
     6
176
     1
 78
     2
176
     1
 67
     7
176
     1
 79
     5
176
     1
170
     0
176
     1
171
     0
176
     1
290
     0
176
     1
 93
        1
176
     1
 44
-50.0
176
     1
173
     0
176
     1
  0
VISUALSTYLE
  5
39
102
{ACAD_REACTORS
330
2A
102
}
330
2A
100
AcDbVisualStyle
  2
Facepattern
 70
    15
177
     2
291
     1
 71
     2
176
     1
 72
     2
176
     1
 73
     0
176
     1
 90
        0
176
     1
 40
-0.6
176
     1
 41
-30.0
176
     1
 62
     5
 63
     7
421
 16777215
176
     1
 74
     1
176
     1
 91
        4
176
     1
 64
     7
176
     1
 65
   257
176
     1
 75
     1
176
     1
175
     1
176
     1
 42
1.0
176
     1
 92
        8
176
     1
 66
     7
176
     1
 43
1.0
176
     1
 76
     1
176
     1
 77
     6
176
     1
 78
     2
176
     1
 67
     7
176
     1
 79
     5
176
     1
170
     0
176
     1
171
     0
176
     1
290
     0
176
     1
 93
        1
176
     1
 44
0.0
176
     1
173
     0
176
     1
  0
VISUALSTYLE
  5
2B
102
{ACAD_REACTORS
330
2A
102
}
330
2A
100
AcDbVisualStyle
  2
Flat
 70
     0
177
     2
291
     1
 71
     2
176
     1
 72
     1
176
     1
 73
     1
176
     1
 90
        2
176
     1
 40
-0.6
176
     1
 41
30.0
176
     1
 62
     5
 63
     7
421
 16777215
176
     1
 74
     0
176
     1
 91
        4
176
     1
 64
     7
176
     1
 65
   257
176
     1
 75
     1
176
     1
175
     1
176
     1
 42
1.0
176
     1
 92
        8
176
     1
 66
     7
176
     1
 43
1.0
176
     1
 76
     1
176
     1
 77
     6
176
     1
 78
     2
176
     1
 67
     7
176
     1
 79
     5
176
     1
170
     0
176
     1
171
     0
176
     1
290
     0
176
     1
 93
       13
176
     1
 44
0.0
176
     1
173
     0
176
     1
  0
VISUALSTYLE
  5
2C
102
{ACAD_REACTORS
330
2A
102
}
330
2A
100
AcDbVisualStyle
  2
FlatWithEdges
 70
     1
177
     2
291
     1
 71
     2
176
     1
 72
     1
176
     1
 73
     1
176
     1
 90
        2
176
     1
 40
-0.6
176
     1
 41
30.0
176
     1
 62
     5
 63
     7
421
 16777215
176
     1
 74
     1
176
     1
 91
        4
176
     1
 64
     7
176
     1
 65
   257
176
     1
 75
     1
176
     1
175
     1
176
     1
 42
1.0
176
     1
 92
        0
176
     1
 66
   257
176
     1
 43
1.0
176
     1
 76
     1
176
     1
 77
     6
176
     1
 78
     2
176
     1
 67
     7
176
     1
 79
     5
176
     1
170
     0
176
     1
171
     0
176
     1
290
     0
176
     1
 93
       13
176
     1
 44
0.0
176
     1
173
     0
176
     1
  0
VISUALSTYLE
  5
2D
102
{ACAD_REACTORS
330
2A
102
}
330
2A
100
AcDbVisualStyle
  2
Gouraud
 70
     2
177
     2
291
     1
 71
     2
176
     1
 72
     2
176
     1
 73
     1
176
     1
 90
        2
176
     1
 40
-0.6
176
     1
 41
30.0
176
     1
 62
     5
 63
     7
421
 16777215
176
     1
 74
     0
176
     1
 91
        4
176
     1
 64
     7
176
     1
 65
   257
176
     1
 75
     1
176
     1
175
     1
176
     1
 42
1.0
176
     1
 92
        0
176
     1
 66
     7
176
     1
 43
1.0
176
     1
 76
     1
176
     1
 77
     6
176
     1
 78
     2
176
     1
 67
     7
176
     1
 79
     5
176
     1
170
     0
176
     1
171
     0
176
     1
290
     0
176
     1
 93
       13
176
     1
 44
0.0
176
     1
173
     0
176
     1
  0
VISUALSTYLE
  5
2E
102
{ACAD_REACTORS
330
2A
102
}
330
2A
100
AcDbVisualStyle
  2
GouraudWithEdges
 70
     3
177
     2
291
     1
 71
     2
176
     1
 72
     2
176
     1
 73
     1
176
     1
 90
        2
176
     1
 40
-0.6
176
     1
 41
30.0
176
     1
 62
     5
 63
     7
421
 16777215
176
     1
 74
     1
176
     1
 91
        4
176
     1
 64
     7
176
     1
 65
   257
176
     1
 75
     1
176
     1
175
     1
176
     1
 42
1.0
176
     1
 92
        0
176
     1
 66
   257
176
     1
 43
1.0
176
     1
 76
     1
176
     1
 77
     6
176
     1
 78
     2
176
     1
 67
     7
176
     1
 79
     5
176
     1
170
     0
176
     1
171
     0
176
     1
290
     0
176
     1
 93
       13
176
     1
 44
0.0
176
     1
173
     0
176
     1
  0
VISUALSTYLE
  5
38
102
{ACAD_REACTORS
330
2A
102
}
330
2A
100
AcDbVisualStyle
  2
Linepattern
 70
    14
177
     2
291
     1
 71
     2
176
     1
 72
     2
176
     1
 73
     0
176
     1
 90
        0
176
     1
 40
-0.6
176
     1
 41
-30.0
176
     1
 62
     5
 63
     7
421
 16777215
176
     1
 74
     1
176
     1
 91
        4
176
     1
 64
     7
176
     1
 65
   257
176
     1
 75
     7
176
     1
175
     7
176
     1
 42
1.0
176
     1
 92
        8
176
     1
 66
     7
176
     1
 43
1.0
176
     1
 76
     1
176
     1
 77
     6
176
     1
 78
     2
176
     1
 67
     7
176
     1
 79
     5
176
     1
170
     0
176
     1
171
     0
176
     1
290
     0
176
     1
 93
        1
176
     1
 44
0.0
176
     1
173
     0
176
     1
  0
VISUALSTYLE
  5
33
102
{ACAD_REACTORS
330
2A
102
}
330
2A
100
AcDbVisualStyle
  2
Realistic
 70
     8
177
     2
291
     0
 71
     2
176
     1
 72
     2
176
     1
 73
     0
176
     1
 90
        0
176
     1
 40
-0.6
176
     1
 41
-30.0
176
     1
 62
     5
 63
     7
421
 16777215
176
     1
 74
     1
176
     1
 91
        0
176
     1
 64
     7
176
     1
 65
   257
176
     1
 75
     1
176
     1
175
     1
176
     1
 42
1.0
176
     1
 92
        8
176
     1
 66
     8
424
  7895160
176
     1
 43
1.0
176
     1
 76
     1
176
     1
 77
     6
176
     1
 78
     2
176
     1
 67
     7
176
     1
 79
     5
176
     1
170
     0
176
     1
171
     0
176
     1
290
     0
176
     1
 93
       13
176
     1
 44
0.0
176
     1
173
     0
176
     1
  0
VISUALSTYLE
  5
37
102
{ACAD_REACTORS
330
2A
102
}
330
2A
100
AcDbVisualStyle
  2
Thicken
 70
    13
177
     2
291
     1
 71
     2
176
     1
 72
     2
176
     1
 73
     0
176
     1
 90
        0
176
     1
 40
-0.6
176
     1
 41
-30.0
176
     1
 62
     5
 63
     7
421
 16777215
176
     1
 74
     1
176
     1
 91
        4
176
     1
 64
     7
176
     1
 65
   257
176
     1
 75
     1
176
     1
175
     1
176
     1
 42
1.0
176
     1
 92
       12
176
     1
 66
     7
176
     1
 43
1.0
176
     1
 76
     1
176
     1
 77
     6
176
     1
 78
     2
176
     1
 67
     7
176
     1
 79
     5
176
     1
170
     0
176
     1
171
     0
176
     1
290
     0
176
     1
 93
        1
176
     1
 44
0.0
176
     1
173
     0
176
     1
  0
ENDSEC
  0
EOF
