  0
SECTION
  2
HEADER
  9
$ACADVER
  1
AC1024
  9
$ACADMAINTVER
 70
     6
  9
$DWGCODEPAGE
  3
ANSI_932
  9
$INSBASE
 10
0.0
 20
0.0
 30
0.0
  9
$EXTMIN
 10
-6300.0
 20
-4455.0
 30
0.0
  9
$EXTMAX
 10
6300.0
 20
4455.0
 30
0.0
  9
$LIMMIN
 10
-6300.0
 20
-4455.0
  9
$LIMMAX
 10
6300.0
 20
4455.0
  9
$ORTHOMODE
 70
     0
  9
$REGENMODE
 70
     1
  9
$FILLMODE
 70
     1
  9
$QTEXTMODE
 70
     0
  9
$MIRRTEXT
 70
     1
  9
$LTSCALE
 40
30.0
  9
$ATTMODE
 70
     1
  9
$TEXTSIZE
 40
2.5
  9
$TRACEWID
 40
1.0
  9
$TEXTSTYLE
  7
Standard
  9
$CLAYER
  8
0
  9
$CELTYPE
  6
ByLayer
  9
$CECOLOR
 62
   256
  9
$CELTSCALE
 40
1.0
  9
$DISPSILH
 70
     0
  9
$DIMSCALE
 40
1.0
  9
$DIMASZ
 40
2.5
  9
$DIMEXO
 40
0.625
  9
$DIMDLI
 40
3.75
  9
$DIMRND
 40
0.0
  9
$DIMDLE
 40
0.0
  9
$DIMEXE
 40
1.25
  9
$DIMTP
 40
0.0
  9
$DIMTM
 40
0.0
  9
$DIMTXT
 40
2.5
  9
$DIMCEN
 40
2.5
  9
$DIMTSZ
 40
0.0
  9
$DIMTOL
 70
     0
  9
$DIMLIM
 70
     0
  9
$DIMTIH
 70
     0
  9
$DIMTOH
 70
     0
  9
$DIMSE1
 70
     0
  9
$DIMSE2
 70
     0
  9
$DIMTAD
 70
     1
  9
$DIMZIN
 70
     8
  9
$DIMBLK
  1

  9
$DIMASO
 70
     1
  9
$DIMSHO
 70
     1
  9
$DIMPOST
  1

  9
$DIMAPOST
  1

  9
$DIMALT
 70
     0
  9
$DIMALTD
 70
     3
  9
$DIMALTF
 40
0.03937007874016
  9
$DIMLFAC
 40
1.0
  9
$DIMTOFL
 70
     1
  9
$DIMTVP
 40
0.0
  9
$DIMTIX
 70
     0
  9
$DIMSOXD
 70
     0
  9
$DIMSAH
 70
     0
  9
$DIMBLK1
  1

  9
$DIMBLK2
  1

  9
$DIMSTYLE
  2
ISO-25
  9
$DIMCLRD
 70
     0
  9
$DIMCLRE
 70
     0
  9
$DIMCLRT
 70
     0
  9
$DIMTFAC
 40
1.0
  9
$DIMGAP
 40
0.625
  9
$DIMJUST
 70
     0
  9
$DIMSD1
 70
     0
  9
$DIMSD2
 70
     0
  9
$DIMTOLJ
 70
     0
  9
$DIMTZIN
 70
     8
  9
$DIMALTZ
 70
     0
  9
$DIMALTTZ
 70
     0
  9
$DIMUPT
 70
     0
  9
$DIMDEC
 70
     2
  9
$DIMTDEC
 70
     2
  9
$DIMALTU
 70
     2
  9
$DIMALTTD
 70
     3
  9
$DIMTXSTY
  7
Standard
  9
$DIMAUNIT
 70
     0
  9
$DIMADEC
 70
     0
  9
$DIMALTRND
 40
0.0
  9
$DIMAZIN
 70
     0
  9
$DIMDSEP
 70
    44
  9
$DIMATFIT
 70
     3
  9
$DIMFRAC
 70
     0
  9
$DIMLDRBLK
  1

  9
$DIMLUNIT
 70
     2
  9
$DIMLWD
 70
    -2
  9
$DIMLWE
 70
    -2
  9
$DIMTMOVE
 70
     0
  9
$DIMFXL
 40
1.0
  9
$DIMFXLON
 70
     0
  9
$DIMJOGANG
 40
0.7853981633974483
  9
$DIMTFILL
 70
     0
  9
$DIMTFILLCLR
 70
     0
  9
$DIMARCSYM
 70
     0
  9
$DIMLTYPE
  6

  9
$DIMLTEX1
  6

  9
$DIMLTEX2
  6

  9
$DIMTXTDIRECTION
 70
     0
  9
$LUNITS
 70
     2
  9
$LUPREC
 70
     4
  9
$SKETCHINC
 40
1.0
  9
$FILLETRAD
 40
10.0
  9
$AUNITS
 70
     0
  9
$AUPREC
 70
     0
  9
$MENU
  1
.
  9
$ELEVATION
 40
0.0
  9
$PELEVATION
 40
0.0
  9
$THICKNESS
 40
0.0
  9
$LIMCHECK
 70
     0
  9
$CHAMFERA
 40
10.0
  9
$CHAMFERB
 40
10.0
  9
$CHAMFERC
 40
20.0
  9
$CHAMFERD
 40
0.0
  9
$SKPOLY
 70
     0
  9
$TDCREATE
 40
2459432.480727408
  9
$TDUCREATE
 40
2459432.105727408
  9
$TDUPDATE
 40
2459432.480727419
  9
$TDUUPDATE
 40
2459432.105727419
  9
$TDINDWG
 40
0.0000000116
  9
$TDUSRTIMER
 40
0.0000000116
  9
$USRTIMER
 70
     1
  9
$ANGBASE
 50
0.0
  9
$ANGDIR
 70
     0
  9
$PDMODE
 70
     0
  9
$PDSIZE
 40
0.0
  9
$PLINEWID
 40
0.0
  9
$SPLFRAME
 70
     0
  9
$SPLINETYPE
 70
     6
  9
$SPLINESEGS
 70
     8
  9
$HANDSEED
  5
296
  9
$SURFTAB1
 70
     6
  9
$SURFTAB2
 70
     6
  9
$SURFTYPE
 70
     6
  9
$SURFU
 70
     6
  9
$SURFV
 70
     6
  9
$UCSBASE
  2

  9
$UCSNAME
  2

  9
$UCSORG
 10
0.0
 20
0.0
 30
0.0
  9
$UCSXDIR
 10
1.0
 20
0.0
 30
0.0
  9
$UCSYDIR
 10
0.0
 20
1.0
 30
0.0
  9
$UCSORTHOREF
  2

  9
$UCSORTHOVIEW
 70
     0
  9
$UCSORGTOP
 10
0.0
 20
0.0
 30
0.0
  9
$UCSORGBOTTOM
 10
0.0
 20
0.0
 30
0.0
  9
$UCSORGLEFT
 10
0.0
 20
0.0
 30
0.0
  9
$UCSORGRIGHT
 10
0.0
 20
0.0
 30
0.0
  9
$UCSORGFRONT
 10
0.0
 20
0.0
 30
0.0
  9
$UCSORGBACK
 10
0.0
 20
0.0
 30
0.0
  9
$PUCSBASE
  2

  9
$PUCSNAME
  2

  9
$PUCSORG
 10
0.0
 20
0.0
 30
0.0
  9
$PUCSXDIR
 10
1.0
 20
0.0
 30
0.0
  9
$PUCSYDIR
 10
0.0
 20
1.0
 30
0.0
  9
$PUCSORTHOREF
  2

  9
$PUCSORTHOVIEW
 70
     0
  9
$PUCSORGTOP
 10
0.0
 20
0.0
 30
0.0
  9
$PUCSORGBOTTOM
 10
0.0
 20
0.0
 30
0.0
  9
$PUCSORGLEFT
 10
0.0
 20
0.0
 30
0.0
  9
$PUCSORGRIGHT
 10
0.0
 20
0.0
 30
0.0
  9
$PUCSORGFRONT
 10
0.0
 20
0.0
 30
0.0
  9
$PUCSORGBACK
 10
0.0
 20
0.0
 30
0.0
  9
$USERI1
 70
     0
  9
$USERI2
 70
     0
  9
$USERI3
 70
     0
  9
$USERI4
 70
     0
  9
$USERI5
 70
     0
  9
$USERR1
 40
0.0
  9
$USERR2
 40
0.0
  9
$USERR3
 40
0.0
  9
$USERR4
 40
0.0
  9
$USERR5
 40
0.0
  9
$WORLDVIEW
 70
     1
  9
$SHADEDGE
 70
     3
  9
$SHADEDIF
 70
    70
  9
$TILEMODE
 70
     1
  9
$MAXACTVP
 70
    64
  9
$PINSBASE
 10
0.0
 20
0.0
 30
0.0
  9
$PLIMCHECK
 70
     0
  9
$PEXTMIN
 10
1.000000000000000E+20
 20
1.000000000000000E+20
 30
1.000000000000000E+20
  9
$PEXTMAX
 10
-1.000000000000000E+20
 20
-1.000000000000000E+20
 30
-1.000000000000000E+20
  9
$PLIMMIN
 10
0.0
 20
0.0
  9
$PLIMMAX
 10
420.0
 20
297.0
  9
$UNITMODE
 70
     0
  9
$VISRETAIN
 70
     1
  9
$PLINEGEN
 70
     0
  9
$PSLTSCALE
 70
     1
  9
$TREEDEPTH
 70
  3020
  9
$CMLSTYLE
  2
Standard
  9
$CMLJUST
 70
     0
  9
$CMLSCALE
 40
20.0
  9
$PROXYGRAPHICS
 70
     1
  9
$MEASUREMENT
 70
     1
  9
$CELWEIGHT
370
    -1
  9
$ENDCAPS
280
     0
  9
$JOINSTYLE
280
     0
  9
$LWDISPLAY
290
     0
  9
$INSUNITS
 70
     4
  9
$HYPERLINKBASE
  1

  9
$STYLESHEET
  1

  9
$XEDIT
290
     1
  9
$CEPSNTYPE
380
     0
  9
$PSTYLEMODE
290
     1
  9
$FINGERPRINTGUID
  2
{61C0B15E-AC1F-485F-952A-EB444A616BCD}
  9
$VERSIONGUID
  2
{FAEB1C32-E019-11D5-929B-00C0DF256EC4}
  9
$EXTNAMES
290
     1
  9
$PSVPSCALE
 40
0.0
  9
$OLESTARTUP
290
     0
  9
$SORTENTS
280
   127
  9
$INDEXCTL
280
     0
  9
$HIDETEXT
280
     1
  9
$XCLIPFRAME
280
     2
  9
$HALOGAP
280
     0
  9
$OBSCOLOR
 70
   257
  9
$OBSLTYPE
280
     0
  9
$INTERSECTIONDISPLAY
280
     0
  9
$INTERSECTIONCOLOR
 70
   257
  9
$DIMASSOC
280
     2
  9
$PROJECTNAME
  1

  9
$CAMERADISPLAY
290
     0
  9
$LENSLENGTH
 40
50.0
  9
$CAMERAHEIGHT
 40
0.0
  9
$STEPSPERSEC
 40
2.0
  9
$STEPSIZE
 40
6.0
  9
$3DDWFPREC
 40
2.0
  9
$PSOLWIDTH
 40
5.0
  9
$PSOLHEIGHT
 40
80.0
  9
$LOFTANG1
 40
1.570796326794897
  9
$LOFTANG2
 40
1.570796326794897
  9
$LOFTMAG1
 40
0.0
  9
$LOFTMAG2
 40
0.0
  9
$LOFTPARAM
 70
     7
  9
$LOFTNORMALS
280
     1
  9
$LATITUDE
 40
37.795
  9
$LONGITUDE
 40
-122.394
  9
$NORTHDIRECTION
 40
0.0
  9
$TIMEZONE
 70
 -8000
  9
$LIGHTGLYPHDISPLAY
280
     1
  9
$TILEMODELIGHTSYNCH
280
     1
  9
$SOLIDHIST
280
     1
  9
$SHOWHIST
280
     1
  9
$DWFFRAME
280
     2
  9
$DGNFRAME
280
     2
  9
$REALWORLDSCALE
290
     1
  9
$INTERFERECOLOR
 62
   256
  9
$CSHADOW
280
     0
  9
$SHADOWPLANELOCATION
 40
0.0
  0
ENDSEC
  0
SECTION
  2
CLASSES
  0
CLASS
  1
ACDBDICTIONARYWDFLT
  2
AcDbDictionaryWithDefault
  3
ObjectDBX Classes
 90
        0
 91
        4
280
     0
281
     0
  0
CLASS
  1
VISUALSTYLE
  2
AcDbVisualStyle
  3
ObjectDBX Classes
 90
     4095
 91
        4
280
     0
281
     0
  0
CLASS
  1
MATERIAL
  2
AcDbMaterial
  3
ObjectDBX Classes
 90
     1153
 91
        4
280
     0
281
     0
  0
ENDSEC
  0
SECTION
  2
TABLES
  0
TABLE
  2
VPORT
  5
8
330
0
100
AcDbSymbolTable
 70
     1
  0
VPORT
  5
29
330
8
100
AcDbSymbolTableRecord
100
AcDbViewportTableRecord
  2
*Active
 70
     0
 10
0.0
 20
0.0
 11
1.0
 21
1.0
 12
0.0
 22
0.0
 13
0.0
 23
0.0
 14
10.0
 24
10.0
 15
10.0
 25
10.0
 16
0.0
 26
0.0
 36
1.0
 17
0.0
 27
0.0
 37
0.0
 40
9801.0
 41
1.414141414141414
 42
50.0
 43
0.0
 44
0.0
 50
0.0
 51
0.0
 71
     0
 72
 10000
 73
     1
 74
     3
 75
     0
 76
     0
 77
     0
 78
     0
281
     0
 65
     1
110
0.0
120
0.0
130
0.0
111
1.0
121
0.0
131
0.0
112
0.0
122
1.0
132
0.0
 79
     0
146
0.0
 60
     3
 61
     5
292
     1
282
     1
141
0.0
142
0.0
 63
   250
  0
ENDTAB
  0
TABLE
  2
LTYPE
  5
5
330
0
100
AcDbSymbolTable
 70
     5
  0
LTYPE
  5
14
330
5
100
AcDbSymbolTableRecord
100
AcDbLinetypeTableRecord
  2
ByBlock
 70
     0
  3

 72
    65
 73
     0
 40
0.0
  0
LTYPE
  5
15
330
5
100
AcDbSymbolTableRecord
100
AcDbLinetypeTableRecord
  2
ByLayer
 70
     0
  3

 72
    65
 73
     0
 40
0.0
  0
LTYPE
  5
16
330
5
100
AcDbSymbolTableRecord
100
AcDbLinetypeTableRecord
  2
Continuous
 70
     0
  3
Solid line
 72
    65
 73
     0
 40
0.0
  0
LTYPE
  5
3F
330
5
100
AcDbSymbolTableRecord
100
AcDbLinetypeTableRecord
  2
JWW_HOJO
 70
     0
  3
  -   -   -   -   -   -   -   - 
 72
    65
 73
     2
 40
1.693333333333333
 49
-1.27
 74
     0
 49
0.4233333333333333
 74
     0
  0
LTYPE
  5
40
330
5
100
AcDbSymbolTableRecord
100
AcDbLinetypeTableRecord
  2
JWW_CENTER1
 70
     0
  3
-----  --  ----------  --  -----
 72
    65
 73
     4
 40
6.773333333333333
 49
4.233333333333333
 74
     0
 49
-0.8466666666666667
 74
     0
 49
0.8466666666666667
 74
     0
 49
-0.8466666666666667
 74
     0
  0
LTYPE
  5
41
330
5
100
AcDbSymbolTableRecord
100
AcDbLinetypeTableRecord
  2
JWW_DASHED1
 70
     0
  3
-  --  --  --  --  --  --  --  -
 72
    65
 73
     2
 40
1.693333333333333
 49
0.8466666666666667
 74
     0
 49
-0.8466666666666667
 74
     0
  0
LTYPE
  5
42
330
5
100
AcDbSymbolTableRecord
100
AcDbLinetypeTableRecord
  2
JWW_CENTER2
 70
     0
  3
-------------  --  -------------
 72
    65
 73
     4
 40
13.54666666666667
 49
11.00666666666667
 74
     0
 49
-0.8466666666666667
 74
     0
 49
0.8466666666666667
 74
     0
 49
-0.8466666666666667
 74
     0
  0
ENDTAB
  0
TABLE
  2
LAYER
  5
2
330
0
100
AcDbSymbolTable
 70
    14
  0
LAYER
  5
10
330
2
100
AcDbSymbolTableRecord
100
AcDbLayerTableRecord
  2
0
 70
     0
 62
     7
  6
Continuous
370
    -3
390
F
347
3E
  0
LAYER
  5
43
330
2
100
AcDbSymbolTableRecord
100
AcDbLayerTableRecord
  2
F-1_枠
 70
     0
 62
     7
  6
Continuous
370
    -3
390
F
347
3E
  0
LAYER
  5
44
330
2
100
AcDbSymbolTableRecord
100
AcDbLayerTableRecord
  2
F-0_補助線
 70
     0
 62
     7
  6
Continuous
370
    -3
390
F
347
3E
  0
LAYER
  5
45
330
2
100
AcDbSymbolTableRecord
100
AcDbLayerTableRecord
  2
0-0_補助線
 70
     0
 62
     7
  6
Continuous
370
    -3
390
F
347
3E
  0
LAYER
  5
46
330
2
100
AcDbSymbolTableRecord
100
AcDbLayerTableRecord
  2
0-2_扉
 70
     0
 62
     7
  6
Continuous
370
    -3
390
F
347
3E
  0
LAYER
  5
47
330
2
100
AcDbSymbolTableRecord
100
AcDbLayerTableRecord
  2
0-4_枠
 70
     0
 62
     7
  6
Continuous
370
    -3
390
F
347
3E
  0
LAYER
  5
48
330
2
100
AcDbSymbolTableRecord
100
AcDbLayerTableRecord
  2
0-B_寸法
 70
     0
 62
     7
  6
Continuous
370
    -3
390
F
347
3E
  0
LAYER
  5
49
330
2
100
AcDbSymbolTableRecord
100
AcDbLayerTableRecord
  2
F-A_文字
 70
     0
 62
     7
  6
Continuous
370
    -3
390
F
347
3E
  0
LAYER
  5
4A
330
2
100
AcDbSymbolTableRecord
100
AcDbLayerTableRecord
  2
0-3_仕上げ
 70
     0
 62
     7
  6
Continuous
370
    -3
390
F
347
3E
  0
LAYER
  5
4B
330
2
100
AcDbSymbolTableRecord
100
AcDbLayerTableRecord
  2
0-1_通り芯
 70
     0
 62
     7
  6
Continuous
370
    -3
390
F
347
3E
  0
LAYER
  5
4C
330
2
100
AcDbSymbolTableRecord
100
AcDbLayerTableRecord
  2
0-C_ハッチ
 70
     0
 62
     7
  6
Continuous
370
    -3
390
F
347
3E
  0
LAYER
  5
4D
330
2
100
AcDbSymbolTableRecord
100
AcDbLayerTableRecord
  2
0-A_文字
 70
     0
 62
     7
  6
Continuous
370
    -3
390
F
347
3E
  0
LAYER
  5
4E
330
2
100
AcDbSymbolTableRecord
100
AcDbLayerTableRecord
  2
0-7
 70
     0
 62
     7
  6
Continuous
370
    -3
390
F
347
3E
  0
LAYER
  5
4F
330
2
100
AcDbSymbolTableRecord
100
AcDbLayerTableRecord
  2
レバー
 70
     0
 62
     7
  6
Continuous
370
    -3
390
F
347
3E
  0
ENDTAB
  0
TABLE
  2
STYLE
  5
3
330
0
100
AcDbSymbolTable
 70
     1
  0
STYLE
  5
11
330
3
100
AcDbSymbolTableRecord
100
AcDbTextStyleTableRecord
  2
Standard
 70
     0
 40
0.0
 41
1.0
 50
0.0
 71
     0
 42
2.5
  3
txt
  4

  0
ENDTAB
  0
TABLE
  2
VIEW
  5
6
330
0
100
AcDbSymbolTable
 70
     0
  0
ENDTAB
  0
TABLE
  2
UCS
  5
7
330
0
100
AcDbSymbolTable
 70
     0
  0
ENDTAB
  0
TABLE
  2
APPID
  5
9
330
0
100
AcDbSymbolTable
 70
     1
  0
APPID
  5
12
330
9
100
AcDbSymbolTableRecord
100
AcDbRegAppTableRecord
  2
ACAD
 70
     0
  0
ENDTAB
  0
TABLE
  2
DIMSTYLE
  5
A
330
0
100
AcDbSymbolTable
 70
     1
100
AcDbDimStyleTable
  0
DIMSTYLE
105
27
330
A
100
AcDbSymbolTableRecord
100
AcDbDimStyleTableRecord
  2
ISO-25
 70
     0
 41
2.5
 42
0.625
 43
3.75
 44
1.25
 73
     0
 74
     0
 77
     1
 78
     8
140
2.5
141
2.5
143
0.03937007874016
147
0.625
171
     3
172
     1
178
     0
271
     2
272
     2
274
     3
278
    44
283
     0
284
     8
340
11
  0
ENDTAB
  0
TABLE
  2
BLOCK_RECORD
  5
1
330
0
100
AcDbSymbolTable
 70
     1
  0
BLOCK_RECORD
  5
1F
330
1
100
AcDbSymbolTableRecord
100
AcDbBlockTableRecord
  2
*Model_Space
340
22
 70
     0
280
     1
281
     0
  0
BLOCK_RECORD
  5
1B
330
1
100
AcDbSymbolTableRecord
100
AcDbBlockTableRecord
  2
*Paper_Space
340
1E
 70
     0
280
     1
281
     0
  0
BLOCK_RECORD
  5
23
330
1
100
AcDbSymbolTableRecord
100
AcDbBlockTableRecord
  2
*Paper_Space0
340
26
 70
     0
280
     1
281
     0
  0
ENDTAB
  0
ENDSEC
  0
SECTION
  2
BLOCKS
  0
BLOCK
  5
20
330
1F
100
AcDbEntity
  8
0
100
AcDbBlockBegin
  2
*Model_Space
 70
     0
 10
0.0
 20
0.0
 30
0.0
  3
*Model_Space
  1

  0
ENDBLK
  5
21
330
1F
100
AcDbEntity
  8
0
100
AcDbBlockEnd
  0
BLOCK
  5
1C
330
1B
100
AcDbEntity
 67
     1
  8
0
100
AcDbBlockBegin
  2
*Paper_Space
 70
     0
 10
0.0
 20
0.0
 30
0.0
  3
*Paper_Space
  1

  0
ENDBLK
  5
1D
330
1B
100
AcDbEntity
 67
     1
  8
0
100
AcDbBlockEnd
  0
BLOCK
  5
24
330
23
100
AcDbEntity
  8
0
100
AcDbBlockBegin
  2
*Paper_Space0
 70
     0
 10
0.0
 20
0.0
 30
0.0
  3
*Paper_Space0
  1

  0
ENDBLK
  5
25
330
23
100
AcDbEntity
  8
0
100
AcDbBlockEnd
  0
ENDSEC
  0
SECTION
  2
ENTITIES
  0
LINE
  5
50
330
1F
100
AcDbEntity
  8
F-1_枠
  6
Continuous
 62
   200
370
    20
100
AcDbLine
 10
-5999.999752560178
 20
4174.999769056166
 30
0.0
 11
5699.998762800888
 21
4174.999769056166
 31
0.0
  0
LINE
  5
51
330
1F
100
AcDbEntity
  8
F-0_補助線
  6
JWW_HOJO
 62
   120
370
     5
100
AcDbLine
 10
-6300.0
 20
-4455.0
 30
0.0
 11
-6300.0
 21
4424.999604096284
 31
0.0
  0
LINE
  5
52
330
1F
100
AcDbEntity
  8
F-0_補助線
  6
JWW_HOJO
 62
   120
370
     5
100
AcDbLine
 10
5999.999010240709
 20
4424.999604096284
 30
0.0
 11
5999.999010240709
 21
-4455.0
 31
0.0
  0
LINE
  5
53
330
1F
100
AcDbEntity
  8
F-0_補助線
  6
JWW_HOJO
 62
   120
370
     5
100
AcDbLine
 10
5999.999010240709
 20
-4455.0
 30
0.0
 11
-6300.0
 21
-4455.0
 31
0.0
  0
LINE
  5
54
330
1F
100
AcDbEntity
  8
F-1_枠
  6
Continuous
 62
   200
370
    20
100
AcDbLine
 10
-5999.999752560178
 20
4164.999983504013
 30
0.0
 11
5699.998762800888
 21
4164.999983504013
 31
0.0
  0
LINE
  5
55
330
1F
100
AcDbEntity
  8
F-1_枠
  6
Continuous
 62
   200
370
    20
100
AcDbLine
 10
-5999.999752560178
 20
4169.999505120355
 30
0.0
 11
5699.998762800888
 21
4169.999505120355
 31
0.0
  0
LINE
  5
56
330
1F
100
AcDbEntity
  8
F-1_枠
  6
Continuous
 62
   200
370
    20
100
AcDbLine
 10
5689.998977248734
 20
4174.999769056166
 30
0.0
 11
5689.998977248734
 21
-4205.000164959882
 31
0.0
  0
LINE
  5
57
330
1F
100
AcDbEntity
  8
F-1_枠
  6
Continuous
 62
   200
370
    20
100
AcDbLine
 10
5694.998498865077
 20
4174.999769056166
 30
0.0
 11
5694.998498865077
 21
-4205.000164959882
 31
0.0
  0
LINE
  5
58
330
1F
100
AcDbEntity
  8
F-1_枠
  6
Continuous
 62
   200
370
    20
100
AcDbLine
 10
5699.998762800888
 20
4174.999769056166
 30
0.0
 11
5699.998762800888
 21
-4205.000164959882
 31
0.0
  0
LINE
  5
59
330
1F
100
AcDbEntity
  8
F-1_枠
  6
Continuous
 62
   200
370
    20
100
AcDbLine
 10
-5989.999990205507
 20
4174.999769056166
 30
0.0
 11
-5989.999990205507
 21
-4205.000164959882
 31
0.0
  0
LINE
  5
5A
330
1F
100
AcDbEntity
  8
F-1_枠
  6
Continuous
 62
   200
370
    20
100
AcDbLine
 10
-5994.999975771518
 20
4174.999769056166
 30
0.0
 11
-5994.999975771518
 21
-4205.000164959882
 31
0.0
  0
LINE
  5
5B
330
1F
100
AcDbEntity
  8
F-1_枠
  6
Continuous
 62
   200
370
    20
100
AcDbLine
 10
-5999.99998453501
 20
4174.999769056166
 30
0.0
 11
-5999.99998453501
 21
-4205.000164959882
 31
0.0
  0
LINE
  5
5C
330
1F
100
AcDbEntity
  8
F-1_枠
  6
Continuous
 62
   200
370
    20
100
AcDbLine
 10
-5490.000018557986
 20
4174.999769056166
 30
0.0
 11
-5490.000018557986
 21
-3790.000179909372
 31
0.0
  0
LINE
  5
5D
330
1F
100
AcDbEntity
  8
F-0_補助線
  6
JWW_HOJO
 62
   120
370
     5
100
AcDbLine
 10
-6300.0
 20
4424.999604096284
 30
0.0
 11
5999.999010240709
 21
4424.999604096284
 31
0.0
  0
LINE
  5
5E
330
1F
100
AcDbEntity
  8
F-0_補助線
  6
JWW_HOJO
 62
     7
370
     9
100
AcDbLine
 10
849.9995876002961
 20
-3795.000003092998
 30
0.0
 11
849.9995876002961
 21
-4195.000008247994
 31
0.0
  0
LINE
  5
5F
330
1F
100
AcDbEntity
  8
F-0_補助線
  6
JWW_HOJO
 62
     7
370
     9
100
AcDbLine
 10
349.9999175200594
 20
-3795.000003092998
 30
0.0
 11
349.9999175200594
 21
-4195.000008247994
 31
0.0
  0
LINE
  5
60
330
1F
100
AcDbEntity
  8
F-1_枠
  6
Continuous
 62
   200
370
    20
100
AcDbLine
 10
5699.998762800888
 20
-4205.000002577498
 30
0.0
 11
-5999.999752560178
 21
-4205.000002577498
 31
0.0
  0
LINE
  5
61
330
1F
100
AcDbEntity
  8
F-1_枠
  6
Continuous
 62
   200
370
    20
100
AcDbLine
 10
5699.998762800888
 20
-4199.999993814004
 30
0.0
 11
-5999.999752560178
 21
-4199.999993814004
 31
0.0
  0
LINE
  5
62
330
1F
100
AcDbEntity
  8
F-1_枠
  6
Continuous
 62
   200
370
    20
100
AcDbLine
 10
5699.998762800888
 20
-4195.000008247994
 30
0.0
 11
-5999.999752560178
 21
-4195.000008247994
 31
0.0
  0
LINE
  5
63
330
1F
100
AcDbEntity
  8
F-1_枠
  6
Continuous
 62
   200
370
    20
100
AcDbLine
 10
4189.999224688556
 20
-3795.000003092998
 30
0.0
 11
4189.999224688556
 21
-4195.000008247994
 31
0.0
  0
LINE
  5
64
330
1F
100
AcDbEntity
  8
F-1_枠
  6
Continuous
 62
   200
370
    20
100
AcDbLine
 10
2689.998729808911
 20
-3795.000003092998
 30
0.0
 11
2689.998729808911
 21
-4195.000008247994
 31
0.0
  0
LINE
  5
65
330
1F
100
AcDbEntity
  8
F-1_枠
  6
Continuous
 62
   200
370
    20
100
AcDbLine
 10
-150.0001237199109
 20
-3795.000003092998
 30
0.0
 11
-150.0001237199109
 21
-4195.000008247994
 31
0.0
  0
LINE
  5
66
330
1F
100
AcDbEntity
  8
F-1_枠
  6
Continuous
 62
   200
370
    20
100
AcDbLine
 10
-150.0001237199109
 20
-3994.999936078046
 30
0.0
 11
5689.998977248734
 21
-3995.005364289155
 31
0.0
  0
LINE
  5
67
330
1F
100
AcDbEntity
  8
F-0_補助線
  6
JWW_HOJO
 62
     7
370
     9
100
AcDbLine
 10
-5989.999990205507
 20
-3994.99993607839
 30
0.0
 11
-150.0001237199109
 21
-3994.99993607839
 31
0.0
  0
LINE
  5
68
330
1F
100
AcDbEntity
  8
F-0_補助線
  6
JWW_HOJO
 62
     7
370
     9
100
AcDbLine
 10
-5989.999990205507
 20
-3904.99993607839
 30
0.0
 11
-150.0001237199109
 21
-3904.99993607839
 31
0.0
  0
LINE
  5
69
330
1F
100
AcDbEntity
  8
F-0_補助線
  6
JWW_HOJO
 62
     7
370
     9
100
AcDbLine
 10
-5989.999990205507
 20
-4084.99993607839
 30
0.0
 11
-150.0001237199109
 21
-4084.99993607839
 31
0.0
  0
LINE
  5
6A
330
1F
100
AcDbEntity
  8
F-0_補助線
  6
JWW_HOJO
 62
     7
370
     9
100
AcDbLine
 10
-150.0002584955388
 20
-4139.999739777983
 30
0.0
 11
5689.998842473105
 21
-4140.005167989091
 31
0.0
  0
LINE
  5
6B
330
1F
100
AcDbEntity
  8
F-0_補助線
  6
JWW_HOJO
 62
     7
370
     9
100
AcDbLine
 10
-150.0001748415872
 20
-4049.999739778022
 30
0.0
 11
5689.998926127057
 21
-4050.005167989131
 31
0.0
  0
LINE
  5
6C
330
1F
100
AcDbEntity
  8
F-0_補助線
  6
JWW_HOJO
 62
     7
370
     9
100
AcDbLine
 10
-150.0000725978671
 20
-3939.99973721807
 30
0.0
 11
5689.999028370777
 21
-3940.005165429179
 31
0.0
  0
LINE
  5
6D
330
1F
100
AcDbEntity
  8
F-0_補助線
  6
JWW_HOJO
 62
     7
370
     9
100
AcDbLine
 10
-149.9999889439155
 20
-3849.999737218109
 30
0.0
 11
5689.999112024728
 21
-3850.005165429218
 31
0.0
  0
LINE
  5
6E
330
1F
100
AcDbEntity
  8
F-0_補助線
  6
JWW_HOJO
 62
     7
370
     9
100
AcDbLine
 10
2779.998729808911
 20
-3795.000003092998
 30
0.0
 11
2779.998729808911
 21
-4195.000008247994
 31
0.0
  0
LINE
  5
6F
330
1F
100
AcDbEntity
  8
F-0_補助線
  6
JWW_HOJO
 62
     7
370
     9
100
AcDbLine
 10
-60.0001237199109
 20
-3795.000003092998
 30
0.0
 11
-60.0001237199109
 21
-4195.000008247994
 31
0.0
  0
LINE
  5
70
330
1F
100
AcDbEntity
  8
F-0_補助線
  6
JWW_HOJO
 62
     7
370
     9
100
AcDbLine
 10
4279.999224688556
 20
-3795.000003092998
 30
0.0
 11
4279.999224688556
 21
-4195.000008247994
 31
0.0
  0
LINE
  5
71
330
1F
100
AcDbEntity
  8
F-0_補助線
  6
JWW_HOJO
 62
     7
370
     9
100
AcDbLine
 10
-5247.547376752838
 20
-3795.000003092999
 30
0.0
 11
-5247.547376752838
 21
-4205.000164959882
 31
0.0
  0
LINE
  5
72
330
1F
100
AcDbEntity
  8
F-0_補助線
  6
JWW_HOJO
 62
     7
370
     9
100
AcDbLine
 10
-210.0001237199109
 20
-3795.000003092998
 30
0.0
 11
-210.0001237199109
 21
-4195.000008247994
 31
0.0
  0
LINE
  5
73
330
1F
100
AcDbEntity
  8
0-0_補助線
  6
JWW_HOJO
 62
     7
370
     9
100
AcDbLine
 10
-5490.000018557986
 20
3465.000148463894
 30
0.0
 11
5689.998977248734
 21
3465.000148463894
 31
0.0
  0
LINE
  5
74
330
1F
100
AcDbEntity
  8
0-0_補助線
  6
JWW_HOJO
 62
     7
370
     9
100
AcDbLine
 10
-5490.000018557986
 20
1418.000148463893
 30
0.0
 11
5689.998977248734
 21
1418.000148463893
 31
0.0
  0
LINE
  5
75
330
1F
100
AcDbEntity
  8
0-0_補助線
  6
JWW_HOJO
 62
   120
370
     5
100
AcDbLine
 10
-5490.000018557986
 20
1368.000148463894
 30
0.0
 11
5689.998977248734
 21
1368.000148463894
 31
0.0
  0
LINE
  5
76
330
1F
100
AcDbEntity
  8
0-0_補助線
  6
JWW_HOJO
 62
     7
370
     9
100
AcDbLine
 10
-5490.000018557986
 20
-2701.250083820241
 30
0.0
 11
5699.998762800888
 21
-2701.250083820241
 31
0.0
  0
LINE
  5
77
330
1F
100
AcDbEntity
  8
0-0_補助線
  6
JWW_HOJO
 62
   120
370
     5
100
AcDbLine
 10
-5490.000018557986
 20
-2751.250083820241
 30
0.0
 11
5699.998762800888
 21
-2751.250083820241
 31
0.0
  0
LINE
  5
78
330
1F
100
AcDbEntity
  8
0-0_補助線
  6
JWW_HOJO
 62
     7
370
     9
100
AcDbLine
 10
-5490.000018557986
 20
1168.000148463894
 30
0.0
 11
5689.998977248734
 21
1168.000148463894
 31
0.0
  0
LINE
  5
79
330
1F
100
AcDbEntity
  8
0-0_補助線
  6
JWW_HOJO
 62
     7
370
     9
100
AcDbLine
 10
-5490.000018557986
 20
-2951.250083820241
 30
0.0
 11
5699.998762800888
 21
-2951.250083820241
 31
0.0
  0
LINE
  5
7A
330
1F
100
AcDbEntity
  8
0-0_補助線
  6
JWW_HOJO
 62
     7
370
     9
100
AcDbLine
 10
-5490.000018557986
 20
-454.2500838202386
 30
0.0
 11
5699.998762800888
 21
-454.2500838202386
 31
0.0
  0
LINE
  5
7B
330
1F
100
AcDbEntity
  8
F-1_枠
  6
Continuous
 62
   200
370
    20
100
AcDbLine
 10
5699.998762800888
 20
-3795.000003092998
 30
0.0
 11
-5999.99998453501
 21
-3795.000003092998
 31
0.0
  0
LINE
  5
7C
330
1F
100
AcDbEntity
  8
F-1_枠
  6
Continuous
 62
   200
370
    20
100
AcDbLine
 10
-5999.99998453501
 20
3964.999818544131
 30
0.0
 11
5699.998762800888
 21
3964.999818544131
 31
0.0
  0
LINE
  5
7D
330
1F
100
AcDbEntity
  8
F-1_枠
  6
Continuous
 62
   200
370
    20
100
AcDbLine
 10
5699.998762800888
 20
-3790.000017526987
 30
0.0
 11
-5999.99998453501
 21
-3790.000017526987
 31
0.0
  0
LINE
  5
7E
330
1F
100
AcDbEntity
  8
F-1_枠
  6
Continuous
 62
   200
370
    20
100
AcDbLine
 10
-5999.99998453501
 20
190.5001831054688
 30
0.0
 11
5699.998762800888
 21
190.5001831054688
 31
0.0
  0
LINE
  5
7F
330
1F
100
AcDbEntity
  8
F-1_枠
  6
Continuous
 62
   200
370
    20
100
AcDbLine
 10
-5999.99998453501
 20
-15.50015011349217
 30
0.0
 11
5699.998762800888
 21
-15.50015011349217
 31
0.0
  0
LINE
  5
80
330
1F
100
AcDbEntity
  8
F-1_枠
  6
Continuous
 62
   200
370
    20
100
AcDbLine
 10
-5999.99998453501
 20
184.5000148463899
 30
0.0
 11
5699.998762800888
 21
184.5000148463899
 31
0.0
  0
LINE
  5
81
330
1F
100
AcDbEntity
  8
F-1_枠
  6
Continuous
 62
   200
370
    20
100
AcDbLine
 10
-5999.99998453501
 20
187.5000989759289
 30
0.0
 11
5699.998762800888
 21
187.5000989759289
 31
0.0
  0
LINE
  5
82
330
1F
100
AcDbEntity
  8
F-1_枠
  6
Continuous
 62
   200
370
    20
100
AcDbLine
 10
1204.8000851193
 20
4174.999769056166
 30
0.0
 11
1204.8000851193
 21
-3790.000179909372
 31
0.0
  0
LINE
  5
83
330
1F
100
AcDbEntity
  8
F-1_枠
  6
Continuous
 62
   200
370
    20
100
AcDbLine
 10
-1026.799671069995
 20
4174.999769056166
 30
0.0
 11
-1026.799671069995
 21
-3790.000179909372
 31
0.0
  0
LINE
  5
84
330
1F
100
AcDbEntity
  8
F-1_枠
  6
Continuous
 62
   200
370
    20
100
AcDbLine
 10
3436.400212468328
 20
4174.999769056166
 30
0.0
 11
3436.400212468328
 21
-3790.000179909372
 31
0.0
  0
LINE
  5
85
330
1F
100
AcDbEntity
  8
F-1_枠
  6
Continuous
 62
   200
370
    20
100
AcDbLine
 10
-3258.399798419025
 20
4174.999769056166
 30
0.0
 11
-3258.399798419025
 21
-3790.000179909372
 31
0.0
  0
LINE
  5
86
330
1F
100
AcDbEntity
  8
0-2_扉
  6
Continuous
 62
    92
370
    13
100
AcDbLine
 10
-2436.799671069995
 20
3438.000148463894
 30
0.0
 11
-1713.799671069996
 21
3438.000148463894
 31
0.0
  0
LINE
  5
87
330
1F
100
AcDbEntity
  8
0-2_扉
  6
Continuous
 62
    92
370
    13
100
AcDbLine
 10
-1713.799671069996
 20
1443.000148463894
 30
0.0
 11
-1713.799671069996
 21
3438.000148463894
 31
0.0
  0
LINE
  5
88
330
1F
100
AcDbEntity
  8
0-2_扉
  6
Continuous
 62
    92
370
    13
100
AcDbLine
 10
-2436.799671069995
 20
1443.000148463894
 30
0.0
 11
-1713.799671069996
 21
1443.000148463894
 31
0.0
  0
LINE
  5
89
330
1F
100
AcDbEntity
  8
0-4_枠
  6
Continuous
 62
    92
370
    13
100
AcDbLine
 10
-2465.799671069994
 20
3465.000148463894
 30
0.0
 11
-1687.799671069996
 21
3465.000148463894
 31
0.0
  0
LINE
  5
8A
330
1F
100
AcDbEntity
  8
0-4_枠
  6
Continuous
 62
    92
370
    13
100
AcDbLine
 10
-2441.799671069996
 20
3441.000148463893
 30
0.0
 11
-1711.799671069995
 21
3441.000148463893
 31
0.0
  0
LINE
  5
8B
330
1F
100
AcDbEntity
  8
0-4_枠
  6
Continuous
 62
    92
370
    13
100
AcDbLine
 10
-1711.799671069995
 20
1418.000148463893
 30
0.0
 11
-1711.799671069995
 21
3441.000148463893
 31
0.0
  0
LINE
  5
8C
330
1F
100
AcDbEntity
  8
0-4_枠
  6
Continuous
 62
    92
370
    13
100
AcDbLine
 10
-1687.799671069996
 20
1418.000148463893
 30
0.0
 11
-1687.799671069996
 21
3465.000148463894
 31
0.0
  0
LINE
  5
8D
330
1F
100
AcDbEntity
  8
0-4_枠
  6
Continuous
 62
    92
370
    13
100
AcDbLine
 10
-2465.799671069994
 20
1418.000148463893
 30
0.0
 11
-1687.799671069996
 21
1418.000148463893
 31
0.0
  0
LINE
  5
8E
330
1F
100
AcDbEntity
  8
0-2_扉
  6
Continuous
 62
    92
370
    13
100
AcDbLine
 10
2026.400212468328
 20
3438.000148463894
 30
0.0
 11
2706.400212468327
 21
3438.000148463894
 31
0.0
  0
LINE
  5
8F
330
1F
100
AcDbEntity
  8
0-2_扉
  6
Continuous
 62
    92
370
    13
100
AcDbLine
 10
2706.400212468327
 20
1443.000148463894
 30
0.0
 11
2706.400212468327
 21
3438.000148463894
 31
0.0
  0
LINE
  5
90
330
1F
100
AcDbEntity
  8
0-2_扉
  6
Continuous
 62
    92
370
    13
100
AcDbLine
 10
2026.400212468328
 20
1443.000148463894
 30
0.0
 11
2706.400212468327
 21
1443.000148463894
 31
0.0
  0
LINE
  5
91
330
1F
100
AcDbEntity
  8
0-2_扉
  6
Continuous
 62
    92
370
    13
100
AcDbLine
 10
2026.400212468328
 20
1443.000148463894
 30
0.0
 11
2026.400212468328
 21
3438.000148463894
 31
0.0
  0
LINE
  5
92
330
1F
100
AcDbEntity
  8
0-2_扉
  6
Continuous
 62
    92
370
    13
100
AcDbLine
 10
-205.1999148806999
 20
3438.000148463894
 30
0.0
 11
497.8000851192985
 21
3438.000148463894
 31
0.0
  0
LINE
  5
93
330
1F
100
AcDbEntity
  8
0-2_扉
  6
Continuous
 62
    92
370
    13
100
AcDbLine
 10
497.8000851192985
 20
1443.000148463894
 30
0.0
 11
497.8000851192985
 21
3438.000148463894
 31
0.0
  0
LINE
  5
94
330
1F
100
AcDbEntity
  8
0-2_扉
  6
Continuous
 62
    92
370
    13
100
AcDbLine
 10
-205.1999148806999
 20
1443.000148463894
 30
0.0
 11
497.8000851192985
 21
1443.000148463894
 31
0.0
  0
LINE
  5
95
330
1F
100
AcDbEntity
  8
0-2_扉
  6
Continuous
 62
    92
370
    13
100
AcDbLine
 10
-205.1999148806999
 20
1443.000148463894
 30
0.0
 11
-205.1999148806999
 21
3438.000148463894
 31
0.0
  0
LINE
  5
96
330
1F
100
AcDbEntity
  8
0-2_扉
  6
Continuous
 62
    92
370
    13
100
AcDbLine
 10
-2436.799671069995
 20
1443.000148463894
 30
0.0
 11
-2436.799671069995
 21
3438.000148463894
 31
0.0
  0
LINE
  5
97
330
1F
100
AcDbEntity
  8
0-2_扉
  6
Continuous
 62
    92
370
    13
100
AcDbLine
 10
-4668.399798419025
 20
3438.000148463894
 30
0.0
 11
-3875.399798419023
 21
3438.000148463894
 31
0.0
  0
LINE
  5
98
330
1F
100
AcDbEntity
  8
0-2_扉
  6
Continuous
 62
    92
370
    13
100
AcDbLine
 10
-3875.399798419023
 20
1443.000148463894
 30
0.0
 11
-3875.399798419023
 21
3438.000148463894
 31
0.0
  0
LINE
  5
99
330
1F
100
AcDbEntity
  8
0-2_扉
  6
Continuous
 62
    92
370
    13
100
AcDbLine
 10
-4668.399798419025
 20
1443.000148463894
 30
0.0
 11
-3875.399798419023
 21
1443.000148463894
 31
0.0
  0
LINE
  5
9A
330
1F
100
AcDbEntity
  8
0-2_扉
  6
Continuous
 62
    92
370
    13
100
AcDbLine
 10
-4668.399798419025
 20
1443.000148463894
 30
0.0
 11
-4668.399798419025
 21
3438.000148463894
 31
0.0
  0
LWPOLYLINE
  5
9B
330
1F
100
AcDbEntity
  8
0-B_寸法
  6
Continuous
 62
     7
370
     9
100
AcDbPolyline
 90
        4
 70
     1
 43
3.0
 10
1698.900212468327
 20
1443.000148463894
 42
0.4142135623731
 10
1697.400212468327
 20
1444.500148463894
 42
0.4142135623731
 10
1695.900212468327
 20
1443.000148463894
 42
0.4142135623731
 10
1697.400212468327
 20
1441.500148463894
 42
0.4142135623731
  0
LWPOLYLINE
  5
9C
330
1F
100
AcDbEntity
  8
0-B_寸法
  6
Continuous
 62
     7
370
     9
100
AcDbPolyline
 90
        4
 70
     1
 43
3.0
 10
1698.900212468327
 20
3438.000148463894
 42
0.4142135623731
 10
1697.400212468327
 20
3439.500148463894
 42
0.4142135623731
 10
1695.900212468327
 20
3438.000148463894
 42
0.4142135623731
 10
1697.400212468327
 20
3436.500148463895
 42
0.4142135623731
  0
LWPOLYLINE
  5
9D
330
1F
100
AcDbEntity
  8
0-B_寸法
  6
Continuous
 62
     7
370
     9
100
AcDbPolyline
 90
        4
 70
     1
 43
3.0
 10
-532.6999148807008
 20
1443.000148463894
 42
0.4142135623731
 10
-534.1999148807008
 20
1444.500148463894
 42
0.4142135623731
 10
-535.6999148807008
 20
1443.000148463894
 42
0.4142135623731
 10
-534.1999148807008
 20
1441.500148463894
 42
0.4142135623731
  0
LWPOLYLINE
  5
9E
330
1F
100
AcDbEntity
  8
0-B_寸法
  6
Continuous
 62
     7
370
     9
100
AcDbPolyline
 90
        4
 70
     1
 43
3.0
 10
-532.6999148807008
 20
3438.000148463894
 42
0.4142135623731
 10
-534.1999148807008
 20
3439.500148463894
 42
0.4142135623731
 10
-535.6999148807008
 20
3438.000148463894
 42
0.4142135623731
 10
-534.1999148807008
 20
3436.500148463895
 42
0.4142135623731
  0
LWPOLYLINE
  5
9F
330
1F
100
AcDbEntity
  8
0-B_寸法
  6
Continuous
 62
     7
370
     9
100
AcDbPolyline
 90
        4
 70
     1
 43
3.0
 10
-2764.299671069994
 20
1443.000148463894
 42
0.4142135623731
 10
-2765.799671069994
 20
1444.500148463894
 42
0.4142135623731
 10
-2767.299671069994
 20
1443.000148463894
 42
0.4142135623731
 10
-2765.799671069994
 20
1441.500148463894
 42
0.4142135623731
  0
LWPOLYLINE
  5
A0
330
1F
100
AcDbEntity
  8
0-B_寸法
  6
Continuous
 62
     7
370
     9
100
AcDbPolyline
 90
        4
 70
     1
 43
3.0
 10
-2764.299671069994
 20
3438.000148463894
 42
0.4142135623731
 10
-2765.799671069994
 20
3439.500148463894
 42
0.4142135623731
 10
-2767.299671069994
 20
3438.000148463894
 42
0.4142135623731
 10
-2765.799671069994
 20
3436.500148463895
 42
0.4142135623731
  0
LWPOLYLINE
  5
A1
330
1F
100
AcDbEntity
  8
0-B_寸法
  6
Continuous
 62
     7
370
     9
100
AcDbPolyline
 90
        4
 70
     1
 43
3.0
 10
-4995.899798419022
 20
1443.000148463894
 42
0.4142135623731
 10
-4997.399798419023
 20
1444.500148463894
 42
0.4142135623731
 10
-4998.899798419023
 20
1443.000148463894
 42
0.4142135623731
 10
-4997.399798419023
 20
1441.500148463894
 42
0.4142135623731
  0
LWPOLYLINE
  5
A2
330
1F
100
AcDbEntity
  8
0-B_寸法
  6
Continuous
 62
     7
370
     9
100
AcDbPolyline
 90
        4
 70
     1
 43
3.0
 10
-4995.899798419022
 20
3438.000148463894
 42
0.4142135623731
 10
-4997.399798419023
 20
3439.500148463894
 42
0.4142135623731
 10
-4998.899798419023
 20
3438.000148463894
 42
0.4142135623731
 10
-4997.399798419023
 20
3436.500148463895
 42
0.4142135623731
  0
LINE
  5
A3
330
1F
100
AcDbEntity
  8
0-B_寸法
  6
Continuous
 62
   120
370
     5
100
AcDbLine
 10
1697.400212468327
 20
1443.000148463894
 30
0.0
 11
1947.400212468328
 21
1443.000148463894
 31
0.0
  0
LINE
  5
A4
330
1F
100
AcDbEntity
  8
0-B_寸法
  6
Continuous
 62
   120
370
     5
100
AcDbLine
 10
1697.400212468327
 20
3438.000148463894
 30
0.0
 11
1947.400212468328
 21
3438.000148463894
 31
0.0
  0
LINE
  5
A5
330
1F
100
AcDbEntity
  8
0-B_寸法
  6
Continuous
 62
   120
370
     5
100
AcDbLine
 10
1697.400212468327
 20
3438.000148463894
 30
0.0
 11
1697.400212468327
 21
1443.000148463894
 31
0.0
  0
LINE
  5
A6
330
1F
100
AcDbEntity
  8
0-B_寸法
  6
Continuous
 62
   120
370
     5
100
AcDbLine
 10
-534.1999148807008
 20
1443.000148463894
 30
0.0
 11
-284.1999148807014
 21
1443.000148463894
 31
0.0
  0
LINE
  5
A7
330
1F
100
AcDbEntity
  8
0-B_寸法
  6
Continuous
 62
   120
370
     5
100
AcDbLine
 10
-534.1999148807008
 20
3438.000148463894
 30
0.0
 11
-284.1999148807014
 21
3438.000148463894
 31
0.0
  0
LINE
  5
A8
330
1F
100
AcDbEntity
  8
0-B_寸法
  6
Continuous
 62
   120
370
     5
100
AcDbLine
 10
-534.1999148807008
 20
3438.000148463894
 30
0.0
 11
-534.1999148807008
 21
1443.000148463894
 31
0.0
  0
LINE
  5
A9
330
1F
100
AcDbEntity
  8
0-B_寸法
  6
Continuous
 62
   120
370
     5
100
AcDbLine
 10
-2765.799671069994
 20
1443.000148463894
 30
0.0
 11
-2515.799671069997
 21
1443.000148463894
 31
0.0
  0
LINE
  5
AA
330
1F
100
AcDbEntity
  8
0-B_寸法
  6
Continuous
 62
   120
370
     5
100
AcDbLine
 10
-2765.799671069994
 20
3438.000148463894
 30
0.0
 11
-2515.799671069997
 21
3438.000148463894
 31
0.0
  0
LINE
  5
AB
330
1F
100
AcDbEntity
  8
0-B_寸法
  6
Continuous
 62
   120
370
     5
100
AcDbLine
 10
-2765.799671069994
 20
3438.000148463894
 30
0.0
 11
-2765.799671069994
 21
1443.000148463894
 31
0.0
  0
LINE
  5
AC
330
1F
100
AcDbEntity
  8
0-B_寸法
  6
Continuous
 62
   120
370
     5
100
AcDbLine
 10
-4997.399798419023
 20
1443.000148463894
 30
0.0
 11
-4747.399798419025
 21
1443.000148463894
 31
0.0
  0
LINE
  5
AD
330
1F
100
AcDbEntity
  8
0-B_寸法
  6
Continuous
 62
   120
370
     5
100
AcDbLine
 10
-4997.399798419023
 20
3438.000148463894
 30
0.0
 11
-4747.399798419025
 21
3438.000148463894
 31
0.0
  0
LINE
  5
AE
330
1F
100
AcDbEntity
  8
0-B_寸法
  6
Continuous
 62
   120
370
     5
100
AcDbLine
 10
-4997.399798419023
 20
3438.000148463894
 30
0.0
 11
-4997.399798419023
 21
1443.000148463894
 31
0.0
  0
LINE
  5
AF
330
1F
100
AcDbEntity
  8
0-4_枠
  6
Continuous
 62
    92
370
    13
100
AcDbLine
 10
1997.400212468327
 20
3465.000148463894
 30
0.0
 11
2732.400212468327
 21
3465.000148463894
 31
0.0
  0
LINE
  5
B0
330
1F
100
AcDbEntity
  8
0-4_枠
  6
Continuous
 62
    92
370
    13
100
AcDbLine
 10
2021.400212468329
 20
3441.000148463893
 30
0.0
 11
2708.400212468328
 21
3441.000148463893
 31
0.0
  0
LINE
  5
B1
330
1F
100
AcDbEntity
  8
0-4_枠
  6
Continuous
 62
    92
370
    13
100
AcDbLine
 10
2708.400212468328
 20
1418.000148463893
 30
0.0
 11
2708.400212468328
 21
3441.000148463893
 31
0.0
  0
LINE
  5
B2
330
1F
100
AcDbEntity
  8
0-4_枠
  6
Continuous
 62
    92
370
    13
100
AcDbLine
 10
2732.400212468327
 20
1418.000148463893
 30
0.0
 11
2732.400212468327
 21
3465.000148463894
 31
0.0
  0
LINE
  5
B3
330
1F
100
AcDbEntity
  8
0-4_枠
  6
Continuous
 62
    92
370
    13
100
AcDbLine
 10
1997.400212468327
 20
1418.000148463893
 30
0.0
 11
2732.400212468327
 21
1418.000148463893
 31
0.0
  0
LINE
  5
B4
330
1F
100
AcDbEntity
  8
0-4_枠
  6
Continuous
 62
    92
370
    13
100
AcDbLine
 10
1997.400212468327
 20
1418.000148463893
 30
0.0
 11
1997.400212468327
 21
3465.000148463894
 31
0.0
  0
LINE
  5
B5
330
1F
100
AcDbEntity
  8
0-4_枠
  6
Continuous
 62
    92
370
    13
100
AcDbLine
 10
2021.400212468329
 20
1418.000148463893
 30
0.0
 11
2021.400212468329
 21
3441.000148463893
 31
0.0
  0
LINE
  5
B6
330
1F
100
AcDbEntity
  8
0-4_枠
  6
Continuous
 62
    92
370
    13
100
AcDbLine
 10
-234.1999148807008
 20
3465.000148463894
 30
0.0
 11
523.8000851192996
 21
3465.000148463894
 31
0.0
  0
LINE
  5
B7
330
1F
100
AcDbEntity
  8
0-4_枠
  6
Continuous
 62
    92
370
    13
100
AcDbLine
 10
-210.1999148807005
 20
3441.000148463893
 30
0.0
 11
499.8000851192984
 21
3441.000148463893
 31
0.0
  0
LINE
  5
B8
330
1F
100
AcDbEntity
  8
0-4_枠
  6
Continuous
 62
    92
370
    13
100
AcDbLine
 10
499.8000851192984
 20
1418.000148463893
 30
0.0
 11
499.8000851192984
 21
3441.000148463893
 31
0.0
  0
LINE
  5
B9
330
1F
100
AcDbEntity
  8
0-4_枠
  6
Continuous
 62
    92
370
    13
100
AcDbLine
 10
523.8000851192996
 20
1418.000148463893
 30
0.0
 11
523.8000851192996
 21
3465.000148463894
 31
0.0
  0
LINE
  5
BA
330
1F
100
AcDbEntity
  8
0-4_枠
  6
Continuous
 62
    92
370
    13
100
AcDbLine
 10
-234.1999148807008
 20
1418.000148463893
 30
0.0
 11
523.8000851192996
 21
1418.000148463893
 31
0.0
  0
LINE
  5
BB
330
1F
100
AcDbEntity
  8
0-4_枠
  6
Continuous
 62
    92
370
    13
100
AcDbLine
 10
-234.1999148807008
 20
1418.000148463893
 30
0.0
 11
-234.1999148807008
 21
3465.000148463894
 31
0.0
  0
LINE
  5
BC
330
1F
100
AcDbEntity
  8
0-4_枠
  6
Continuous
 62
    92
370
    13
100
AcDbLine
 10
-210.1999148807005
 20
1418.000148463893
 30
0.0
 11
-210.1999148807005
 21
3441.000148463893
 31
0.0
  0
LINE
  5
BD
330
1F
100
AcDbEntity
  8
0-4_枠
  6
Continuous
 62
    92
370
    13
100
AcDbLine
 10
-2465.799671069994
 20
1418.000148463893
 30
0.0
 11
-2465.799671069994
 21
3465.000148463894
 31
0.0
  0
LINE
  5
BE
330
1F
100
AcDbEntity
  8
0-4_枠
  6
Continuous
 62
    92
370
    13
100
AcDbLine
 10
-2441.799671069996
 20
1418.000148463893
 30
0.0
 11
-2441.799671069996
 21
3441.000148463893
 31
0.0
  0
LINE
  5
BF
330
1F
100
AcDbEntity
  8
0-4_枠
  6
Continuous
 62
    92
370
    13
100
AcDbLine
 10
-4697.399798419023
 20
3465.000148463894
 30
0.0
 11
-3849.399798419023
 21
3465.000148463894
 31
0.0
  0
LINE
  5
C0
330
1F
100
AcDbEntity
  8
0-4_枠
  6
Continuous
 62
    92
370
    13
100
AcDbLine
 10
-4673.399798419024
 20
3441.000148463893
 30
0.0
 11
-3873.399798419025
 21
3441.000148463893
 31
0.0
  0
LINE
  5
C1
330
1F
100
AcDbEntity
  8
0-4_枠
  6
Continuous
 62
    92
370
    13
100
AcDbLine
 10
-3873.399798419025
 20
1418.000148463893
 30
0.0
 11
-3873.399798419025
 21
3441.000148463893
 31
0.0
  0
LINE
  5
C2
330
1F
100
AcDbEntity
  8
0-4_枠
  6
Continuous
 62
    92
370
    13
100
AcDbLine
 10
-3849.399798419023
 20
1418.000148463893
 30
0.0
 11
-3849.399798419023
 21
3465.000148463894
 31
0.0
  0
LINE
  5
C3
330
1F
100
AcDbEntity
  8
0-4_枠
  6
Continuous
 62
    92
370
    13
100
AcDbLine
 10
-4697.399798419023
 20
1418.000148463893
 30
0.0
 11
-3849.399798419023
 21
1418.000148463893
 31
0.0
  0
LINE
  5
C4
330
1F
100
AcDbEntity
  8
0-4_枠
  6
Continuous
 62
    92
370
    13
100
AcDbLine
 10
-4697.399798419023
 20
1418.000148463893
 30
0.0
 11
-4697.399798419023
 21
3465.000148463894
 31
0.0
  0
LINE
  5
C5
330
1F
100
AcDbEntity
  8
0-4_枠
  6
Continuous
 62
    92
370
    13
100
AcDbLine
 10
-4673.399798419024
 20
1418.000148463893
 30
0.0
 11
-4673.399798419024
 21
3441.000148463893
 31
0.0
  0
LWPOLYLINE
  5
C6
330
1F
100
AcDbEntity
  8
0-B_寸法
  6
Continuous
 62
     7
370
     9
100
AcDbPolyline
 90
        4
 70
     1
 43
3.0
 10
3930.500339817359
 20
1443.000148463894
 42
0.4142135623731
 10
3929.000339817359
 20
1444.500148463894
 42
0.4142135623731
 10
3927.500339817359
 20
1443.000148463894
 42
0.4142135623731
 10
3929.000339817359
 20
1441.500148463894
 42
0.4142135623731
  0
LWPOLYLINE
  5
C7
330
1F
100
AcDbEntity
  8
0-B_寸法
  6
Continuous
 62
     7
370
     9
100
AcDbPolyline
 90
        4
 70
     1
 43
3.0
 10
3930.500339817359
 20
3438.000148463894
 42
0.4142135623731
 10
3929.000339817359
 20
3439.500148463894
 42
0.4142135623731
 10
3927.500339817359
 20
3438.000148463894
 42
0.4142135623731
 10
3929.000339817359
 20
3436.500148463895
 42
0.4142135623731
  0
LINE
  5
C8
330
1F
100
AcDbEntity
  8
0-B_寸法
  6
Continuous
 62
   120
370
     5
100
AcDbLine
 10
3929.000339817359
 20
1443.000148463894
 30
0.0
 11
4179.000339817357
 21
1443.000148463894
 31
0.0
  0
LINE
  5
C9
330
1F
100
AcDbEntity
  8
0-B_寸法
  6
Continuous
 62
   120
370
     5
100
AcDbLine
 10
3929.000339817359
 20
3438.000148463894
 30
0.0
 11
4179.000339817357
 21
3438.000148463894
 31
0.0
  0
LINE
  5
CA
330
1F
100
AcDbEntity
  8
0-B_寸法
  6
Continuous
 62
   120
370
     5
100
AcDbLine
 10
3929.000339817359
 20
3438.000148463894
 30
0.0
 11
3929.000339817359
 21
1443.000148463894
 31
0.0
  0
LINE
  5
CB
330
1F
100
AcDbEntity
  8
0-2_扉
  6
Continuous
 62
    92
370
    13
100
AcDbLine
 10
4258.000339817356
 20
3438.000148463894
 30
0.0
 11
4857.000339817358
 21
3438.000148463894
 31
0.0
  0
LINE
  5
CC
330
1F
100
AcDbEntity
  8
0-2_扉
  6
Continuous
 62
    92
370
    13
100
AcDbLine
 10
4857.000339817358
 20
1443.000148463894
 30
0.0
 11
4857.000339817358
 21
3438.000148463894
 31
0.0
  0
LINE
  5
CD
330
1F
100
AcDbEntity
  8
0-2_扉
  6
Continuous
 62
    92
370
    13
100
AcDbLine
 10
4258.000339817356
 20
1443.000148463894
 30
0.0
 11
4857.000339817358
 21
1443.000148463894
 31
0.0
  0
LINE
  5
CE
330
1F
100
AcDbEntity
  8
0-2_扉
  6
Continuous
 62
    92
370
    13
100
AcDbLine
 10
4258.000339817356
 20
1443.000148463894
 30
0.0
 11
4258.000339817356
 21
3438.000148463894
 31
0.0
  0
LINE
  5
CF
330
1F
100
AcDbEntity
  8
0-4_枠
  6
Continuous
 62
    92
370
    13
100
AcDbLine
 10
4229.000339817359
 20
3465.000148463894
 30
0.0
 11
4883.000339817358
 21
3465.000148463894
 31
0.0
  0
LINE
  5
D0
330
1F
100
AcDbEntity
  8
0-4_枠
  6
Continuous
 62
    92
370
    13
100
AcDbLine
 10
4253.000339817358
 20
3441.000148463893
 30
0.0
 11
4859.000339817359
 21
3441.000148463893
 31
0.0
  0
LINE
  5
D1
330
1F
100
AcDbEntity
  8
0-4_枠
  6
Continuous
 62
    92
370
    13
100
AcDbLine
 10
4859.000339817359
 20
1418.000148463893
 30
0.0
 11
4859.000339817359
 21
3441.000148463893
 31
0.0
  0
LINE
  5
D2
330
1F
100
AcDbEntity
  8
0-4_枠
  6
Continuous
 62
    92
370
    13
100
AcDbLine
 10
4883.000339817358
 20
1418.000148463893
 30
0.0
 11
4883.000339817358
 21
3465.000148463894
 31
0.0
  0
LINE
  5
D3
330
1F
100
AcDbEntity
  8
0-4_枠
  6
Continuous
 62
    92
370
    13
100
AcDbLine
 10
4229.000339817359
 20
1418.000148463893
 30
0.0
 11
4883.000339817358
 21
1418.000148463893
 31
0.0
  0
LINE
  5
D4
330
1F
100
AcDbEntity
  8
0-4_枠
  6
Continuous
 62
    92
370
    13
100
AcDbLine
 10
4229.000339817359
 20
1418.000148463893
 30
0.0
 11
4229.000339817359
 21
3465.000148463894
 31
0.0
  0
LINE
  5
D5
330
1F
100
AcDbEntity
  8
0-4_枠
  6
Continuous
 62
    92
370
    13
100
AcDbLine
 10
4253.000339817358
 20
1418.000148463893
 30
0.0
 11
4253.000339817358
 21
3441.000148463893
 31
0.0
  0
LWPOLYLINE
  5
D6
330
1F
100
AcDbEntity
  8
0-B_寸法
  6
Continuous
 62
     7
370
     9
100
AcDbPolyline
 90
        4
 70
     1
 43
3.0
 10
-1712.299671069996
 20
1168.000148463894
 42
0.4142135623731
 10
-1713.799671069996
 20
1169.500148463894
 42
0.4142135623731
 10
-1715.299671069996
 20
1168.000148463894
 42
0.4142135623731
 10
-1713.799671069996
 20
1166.500148463894
 42
0.4142135623731
  0
LINE
  5
D7
330
1F
100
AcDbEntity
  8
0-B_寸法
  6
Continuous
 62
   120
370
     5
100
AcDbLine
 10
-1713.799671069996
 20
1168.000148463894
 30
0.0
 11
-1713.799671069996
 21
1368.000148463894
 31
0.0
  0
LINE
  5
D8
330
1F
100
AcDbEntity
  8
0-B_寸法
  6
Continuous
 62
   120
370
     5
100
AcDbLine
 10
-2436.799671069995
 20
1168.000148463894
 30
0.0
 11
-1713.799671069996
 21
1168.000148463894
 31
0.0
  0
LWPOLYLINE
  5
D9
330
1F
100
AcDbEntity
  8
0-B_寸法
  6
Continuous
 62
     7
370
     9
100
AcDbPolyline
 90
        4
 70
     1
 43
3.0
 10
2707.900212468327
 20
1168.000148463894
 42
0.4142135623731
 10
2706.400212468327
 20
1169.500148463894
 42
0.4142135623731
 10
2704.900212468327
 20
1168.000148463894
 42
0.4142135623731
 10
2706.400212468327
 20
1166.500148463894
 42
0.4142135623731
  0
LWPOLYLINE
  5
DA
330
1F
100
AcDbEntity
  8
0-B_寸法
  6
Continuous
 62
     7
370
     9
100
AcDbPolyline
 90
        4
 70
     1
 43
3.0
 10
2027.900212468328
 20
1168.000148463894
 42
0.4142135623731
 10
2026.400212468328
 20
1169.500148463894
 42
0.4142135623731
 10
2024.900212468328
 20
1168.000148463894
 42
0.4142135623731
 10
2026.400212468328
 20
1166.500148463894
 42
0.4142135623731
  0
LWPOLYLINE
  5
DB
330
1F
100
AcDbEntity
  8
0-B_寸法
  6
Continuous
 62
     7
370
     9
100
AcDbPolyline
 90
        4
 70
     1
 43
3.0
 10
499.3000851192985
 20
1168.000148463894
 42
0.4142135623731
 10
497.8000851192985
 20
1169.500148463894
 42
0.4142135623731
 10
496.3000851192985
 20
1168.000148463894
 42
0.4142135623731
 10
497.8000851192985
 20
1166.500148463894
 42
0.4142135623731
  0
LWPOLYLINE
  5
DC
330
1F
100
AcDbEntity
  8
0-B_寸法
  6
Continuous
 62
     7
370
     9
100
AcDbPolyline
 90
        4
 70
     1
 43
3.0
 10
-203.6999148806999
 20
1168.000148463894
 42
0.4142135623731
 10
-205.1999148806999
 20
1169.500148463894
 42
0.4142135623731
 10
-206.6999148806999
 20
1168.000148463894
 42
0.4142135623731
 10
-205.1999148806999
 20
1166.500148463894
 42
0.4142135623731
  0
LWPOLYLINE
  5
DD
330
1F
100
AcDbEntity
  8
0-B_寸法
  6
Continuous
 62
     7
370
     9
100
AcDbPolyline
 90
        4
 70
     1
 43
3.0
 10
-2435.299671069995
 20
1168.000148463894
 42
0.4142135623731
 10
-2436.799671069995
 20
1169.500148463894
 42
0.4142135623731
 10
-2438.299671069995
 20
1168.000148463894
 42
0.4142135623731
 10
-2436.799671069995
 20
1166.500148463894
 42
0.4142135623731
  0
LWPOLYLINE
  5
DE
330
1F
100
AcDbEntity
  8
0-B_寸法
  6
Continuous
 62
     7
370
     9
100
AcDbPolyline
 90
        4
 70
     1
 43
3.0
 10
-3873.899798419023
 20
1168.000148463894
 42
0.4142135623731
 10
-3875.399798419023
 20
1169.500148463894
 42
0.4142135623731
 10
-3876.899798419024
 20
1168.000148463894
 42
0.4142135623731
 10
-3875.399798419023
 20
1166.500148463894
 42
0.4142135623731
  0
LWPOLYLINE
  5
DF
330
1F
100
AcDbEntity
  8
0-B_寸法
  6
Continuous
 62
     7
370
     9
100
AcDbPolyline
 90
        4
 70
     1
 43
3.0
 10
-4666.899798419025
 20
1168.000148463894
 42
0.4142135623731
 10
-4668.399798419025
 20
1169.500148463894
 42
0.4142135623731
 10
-4669.899798419026
 20
1168.000148463894
 42
0.4142135623731
 10
-4668.399798419025
 20
1166.500148463894
 42
0.4142135623731
  0
LINE
  5
E0
330
1F
100
AcDbEntity
  8
0-B_寸法
  6
Continuous
 62
   120
370
     5
100
AcDbLine
 10
2706.400212468327
 20
1168.000148463894
 30
0.0
 11
2706.400212468327
 21
1368.000148463894
 31
0.0
  0
LINE
  5
E1
330
1F
100
AcDbEntity
  8
0-B_寸法
  6
Continuous
 62
   120
370
     5
100
AcDbLine
 10
2026.400212468328
 20
1168.000148463894
 30
0.0
 11
2706.400212468327
 21
1168.000148463894
 31
0.0
  0
LINE
  5
E2
330
1F
100
AcDbEntity
  8
0-B_寸法
  6
Continuous
 62
   120
370
     5
100
AcDbLine
 10
2026.400212468328
 20
1168.000148463894
 30
0.0
 11
2026.400212468328
 21
1368.000148463894
 31
0.0
  0
LINE
  5
E3
330
1F
100
AcDbEntity
  8
0-B_寸法
  6
Continuous
 62
   120
370
     5
100
AcDbLine
 10
497.8000851192985
 20
1168.000148463894
 30
0.0
 11
497.8000851192985
 21
1368.000148463894
 31
0.0
  0
LINE
  5
E4
330
1F
100
AcDbEntity
  8
0-B_寸法
  6
Continuous
 62
   120
370
     5
100
AcDbLine
 10
-205.1999148806999
 20
1168.000148463894
 30
0.0
 11
497.8000851192985
 21
1168.000148463894
 31
0.0
  0
LINE
  5
E5
330
1F
100
AcDbEntity
  8
0-B_寸法
  6
Continuous
 62
   120
370
     5
100
AcDbLine
 10
-205.1999148806999
 20
1168.000148463894
 30
0.0
 11
-205.1999148806999
 21
1368.000148463894
 31
0.0
  0
LINE
  5
E6
330
1F
100
AcDbEntity
  8
0-B_寸法
  6
Continuous
 62
   120
370
     5
100
AcDbLine
 10
-2436.799671069995
 20
1168.000148463894
 30
0.0
 11
-2436.799671069995
 21
1368.000148463894
 31
0.0
  0
LINE
  5
E7
330
1F
100
AcDbEntity
  8
0-B_寸法
  6
Continuous
 62
   120
370
     5
100
AcDbLine
 10
-3875.399798419023
 20
1168.000148463894
 30
0.0
 11
-3875.399798419023
 21
1368.000148463894
 31
0.0
  0
LINE
  5
E8
330
1F
100
AcDbEntity
  8
0-B_寸法
  6
Continuous
 62
   120
370
     5
100
AcDbLine
 10
-4668.399798419025
 20
1168.000148463894
 30
0.0
 11
-3875.399798419023
 21
1168.000148463894
 31
0.0
  0
LINE
  5
E9
330
1F
100
AcDbEntity
  8
0-B_寸法
  6
Continuous
 62
   120
370
     5
100
AcDbLine
 10
-4668.399798419025
 20
1168.000148463894
 30
0.0
 11
-4668.399798419025
 21
1368.000148463894
 31
0.0
  0
LWPOLYLINE
  5
EA
330
1F
100
AcDbEntity
  8
0-B_寸法
  6
Continuous
 62
     7
370
     9
100
AcDbPolyline
 90
        4
 70
     1
 43
3.0
 10
4858.500339817358
 20
1168.000148463894
 42
0.4142135623731
 10
4857.000339817358
 20
1169.500148463894
 42
0.4142135623731
 10
4855.500339817357
 20
1168.000148463894
 42
0.4142135623731
 10
4857.000339817358
 20
1166.500148463894
 42
0.4142135623731
  0
LWPOLYLINE
  5
EB
330
1F
100
AcDbEntity
  8
0-B_寸法
  6
Continuous
 62
     7
370
     9
100
AcDbPolyline
 90
        4
 70
     1
 43
3.0
 10
4259.500339817357
 20
1168.000148463894
 42
0.4142135623731
 10
4258.000339817356
 20
1169.500148463894
 42
0.4142135623731
 10
4256.500339817356
 20
1168.000148463894
 42
0.4142135623731
 10
4258.000339817356
 20
1166.500148463894
 42
0.4142135623731
  0
LINE
  5
EC
330
1F
100
AcDbEntity
  8
0-B_寸法
  6
Continuous
 62
   120
370
     5
100
AcDbLine
 10
4857.000339817358
 20
1168.000148463894
 30
0.0
 11
4857.000339817358
 21
1368.000148463894
 31
0.0
  0
LINE
  5
ED
330
1F
100
AcDbEntity
  8
0-B_寸法
  6
Continuous
 62
   120
370
     5
100
AcDbLine
 10
4258.000339817356
 20
1168.000148463894
 30
0.0
 11
4857.000339817358
 21
1168.000148463894
 31
0.0
  0
LINE
  5
EE
330
1F
100
AcDbEntity
  8
0-B_寸法
  6
Continuous
 62
   120
370
     5
100
AcDbLine
 10
4258.000339817356
 20
1168.000148463894
 30
0.0
 11
4258.000339817356
 21
1368.000148463894
 31
0.0
  0
LINE
  5
EF
330
1F
100
AcDbEntity
  8
0-0_補助線
  6
JWW_HOJO
 62
     7
370
     9
100
AcDbLine
 10
-4697.399798419023
 20
3964.999818544131
 30
0.0
 11
-4697.399798419023
 21
-3790.000179909372
 31
0.0
  0
LINE
  5
F0
330
1F
100
AcDbEntity
  8
0-0_補助線
  6
JWW_HOJO
 62
   120
370
     5
100
AcDbLine
 10
-4747.399798419023
 20
3964.999818544131
 30
0.0
 11
-4747.399798419023
 21
-3790.000179909372
 31
0.0
  0
LINE
  5
F1
330
1F
100
AcDbEntity
  8
0-0_補助線
  6
JWW_HOJO
 62
     7
370
     9
100
AcDbLine
 10
-2465.799671069994
 20
3964.999818544131
 30
0.0
 11
-2465.799671069994
 21
-3790.000179909372
 31
0.0
  0
LINE
  5
F2
330
1F
100
AcDbEntity
  8
0-0_補助線
  6
JWW_HOJO
 62
   120
370
     5
100
AcDbLine
 10
-2515.799671069995
 20
3964.999818544131
 30
0.0
 11
-2515.799671069995
 21
-3790.000179909372
 31
0.0
  0
LINE
  5
F3
330
1F
100
AcDbEntity
  8
0-0_補助線
  6
JWW_HOJO
 62
     7
370
     9
100
AcDbLine
 10
-234.1999148807008
 20
3964.999818544131
 30
0.0
 11
-234.1999148807008
 21
-3790.000179909372
 31
0.0
  0
LINE
  5
F4
330
1F
100
AcDbEntity
  8
0-0_補助線
  6
JWW_HOJO
 62
   120
370
     5
100
AcDbLine
 10
-284.1999148807014
 20
3964.999818544131
 30
0.0
 11
-284.1999148807014
 21
-3790.000179909372
 31
0.0
  0
LINE
  5
F5
330
1F
100
AcDbEntity
  8
0-0_補助線
  6
JWW_HOJO
 62
     7
370
     9
100
AcDbLine
 10
1997.400212468327
 20
3964.999818544131
 30
0.0
 11
1997.400212468327
 21
-3790.000179909372
 31
0.0
  0
LINE
  5
F6
330
1F
100
AcDbEntity
  8
0-0_補助線
  6
JWW_HOJO
 62
   120
370
     5
100
AcDbLine
 10
1947.400212468327
 20
3964.999818544131
 30
0.0
 11
1947.400212468327
 21
-3790.000179909372
 31
0.0
  0
LINE
  5
F7
330
1F
100
AcDbEntity
  8
0-0_補助線
  6
JWW_HOJO
 62
     7
370
     9
100
AcDbLine
 10
4229.000339817359
 20
3964.999818544131
 30
0.0
 11
4229.000339817359
 21
-3790.000179909372
 31
0.0
  0
LINE
  5
F8
330
1F
100
AcDbEntity
  8
0-0_補助線
  6
JWW_HOJO
 62
   120
370
     5
100
AcDbLine
 10
4179.000339817359
 20
3964.999818544131
 30
0.0
 11
4179.000339817359
 21
-3790.000179909372
 31
0.0
  0
MTEXT
  5
F9
330
1F
100
AcDbEntity
  8
0-B_寸法
  6
Continuous
 62
     7
370
    70
100
AcDbMText
 10
-5012.399798419023
 20
2225.325148463893
 30
0.0
 40
57.14999999999999
 41
412.5
 46
0.0
 71
     7
 72
     1
  1
{\fＭＳ ゴシック|b0|i0|c128|p49;ＤＨ＝1,995}
 11
6.123031769111886E-17
 21
1.0
 31
0.0
 73
     1
 44
1.0
  0
MTEXT
  5
FA
330
1F
100
AcDbEntity
  8
0-B_寸法
  6
Continuous
 62
     7
370
    70
100
AcDbMText
 10
-2780.799671069994
 20
2225.325148463893
 30
0.0
 40
57.14999999999999
 41
412.5
 46
0.0
 71
     7
 72
     1
  1
{\fＭＳ ゴシック|b0|i0|c128|p49;ＤＨ＝1,995}
 11
6.123031769111886E-17
 21
1.0
 31
0.0
 73
     1
 44
1.0
  0
MTEXT
  5
FB
330
1F
100
AcDbEntity
  8
0-B_寸法
  6
Continuous
 62
     7
370
    70
100
AcDbMText
 10
-549.1999148807008
 20
2225.325148463893
 30
0.0
 40
57.14999999999999
 41
412.5
 46
0.0
 71
     7
 72
     1
  1
{\fＭＳ ゴシック|b0|i0|c128|p49;ＤＨ＝1,995}
 11
6.123031769111886E-17
 21
1.0
 31
0.0
 73
     1
 44
1.0
  0
MTEXT
  5
FC
330
1F
100
AcDbEntity
  8
0-B_寸法
  6
Continuous
 62
     7
370
    70
100
AcDbMText
 10
1682.400212468327
 20
2225.325148463893
 30
0.0
 40
57.14999999999999
 41
412.5
 46
0.0
 71
     7
 72
     1
  1
{\fＭＳ ゴシック|b0|i0|c128|p49;ＤＨ＝1,995}
 11
6.123031769111886E-17
 21
1.0
 31
0.0
 73
     1
 44
1.0
  0
MTEXT
  5
FD
330
1F
100
AcDbEntity
  8
0-B_寸法
  6
Continuous
 62
     7
370
    70
100
AcDbMText
 10
3914.000339817359
 20
2225.325148463893
 30
0.0
 40
57.14999999999999
 41
412.5
 46
0.0
 71
     7
 72
     1
  1
{\fＭＳ ゴシック|b0|i0|c128|p49;ＤＨ＝1,995}
 11
6.123031769111886E-17
 21
1.0
 31
0.0
 73
     1
 44
1.0
  0
MTEXT
  5
FE
330
1F
100
AcDbEntity
  8
0-B_寸法
  6
Continuous
 62
     7
370
    70
100
AcDbMText
 10
-4440.649798419025
 20
1174.075148463894
 30
0.0
 40
57.15
 41
337.5
 46
0.0
 71
     7
 72
     1
  1
{\fＭＳ ゴシック|b0|i0|c128|p49;ＤＷ＝793}
 73
     1
 44
1.0
  0
MTEXT
  5
FF
330
1F
100
AcDbEntity
  8
0-B_寸法
  6
Continuous
 62
     7
370
    70
100
AcDbMText
 10
-2244.549671069994
 20
1174.075148463894
 30
0.0
 40
57.15
 41
337.5
 46
0.0
 71
     7
 72
     1
  1
{\fＭＳ ゴシック|b0|i0|c128|p49;ＤＷ＝723}
 73
     1
 44
1.0
  0
MTEXT
  5
100
330
1F
100
AcDbEntity
  8
0-B_寸法
  6
Continuous
 62
     7
370
    70
100
AcDbMText
 10
-22.4499148807007
 20
1174.075148463894
 30
0.0
 40
57.15
 41
337.5
 46
0.0
 71
     7
 72
     1
  1
{\fＭＳ ゴシック|b0|i0|c128|p49;ＤＷ＝703}
 73
     1
 44
1.0
  0
MTEXT
  5
101
330
1F
100
AcDbEntity
  8
0-B_寸法
  6
Continuous
 62
     7
370
    70
100
AcDbMText
 10
2197.650212468327
 20
1174.075148463894
 30
0.0
 40
57.15
 41
337.5
 46
0.0
 71
     7
 72
     1
  1
{\fＭＳ ゴシック|b0|i0|c128|p49;ＤＷ＝680}
 73
     1
 44
1.0
  0
MTEXT
  5
102
330
1F
100
AcDbEntity
  8
0-B_寸法
  6
Continuous
 62
     7
370
    70
100
AcDbMText
 10
4388.750339817357
 20
1174.075148463894
 30
0.0
 40
57.15
 41
337.5
 46
0.0
 71
     7
 72
     1
  1
{\fＭＳ ゴシック|b0|i0|c128|p49;ＤＷ＝599}
 73
     1
 44
1.0
  0
MTEXT
  5
103
330
1F
100
AcDbEntity
  8
F-A_文字
  6
Continuous
 62
     7
370
     9
100
AcDbMText
 10
-5890.000004381747
 20
4018.575148463894
 30
0.0
 40
57.15
 41
300.0
 46
0.0
 71
     7
 72
     1
  1
{\fＭＳ ゴシック|b0|i0|c128|p49;デザイン}
 73
     1
 44
1.0
  0
MTEXT
  5
104
330
1F
100
AcDbEntity
  8
F-A_文字
  6
Continuous
 62
     7
370
     9
100
AcDbMText
 10
-5852.500004381747
 20
2031.325062684755
 30
0.0
 40
57.15
 41
225.0
 46
0.0
 71
     7
 72
     1
  1
{\fＭＳ ゴシック|b0|i0|c128|p49;姿　図}
 73
     1
 44
1.0
  0
MTEXT
  5
105
330
1F
100
AcDbEntity
  8
F-A_文字
  6
Continuous
 62
     7
370
     9
100
AcDbMText
 10
-5890.000004381747
 20
38.07493236644844
 30
0.0
 40
57.15
 41
300.0
 46
0.0
 71
     7
 72
     1
  1
{\fＭＳ ゴシック|b0|i0|c128|p49;デザイン}
 73
     1
 44
1.0
  0
MTEXT
  5
106
330
1F
100
AcDbEntity
  8
F-A_文字
  6
Continuous
 62
     7
370
     9
100
AcDbMText
 10
-5852.500004381747
 20
-1949.175091552734
 30
0.0
 40
57.15
 41
225.0
 46
0.0
 71
     7
 72
     1
  1
{\fＭＳ ゴシック|b0|i0|c128|p49;姿　図}
 73
     1
 44
1.0
  0
MTEXT
  5
107
330
1F
100
AcDbEntity
  8
F-A_文字
  6
Continuous
 62
     7
370
     0
100
AcDbMText
 10
-60.0001237199109
 20
-3887.139820871936
 30
0.0
 40
45.72
 41
180.0
 46
0.0
 71
     7
 72
     1
  1
{\fＭＳ ゴシック|b0|i0|c128|p49;図面名}
 73
     1
 44
1.0
  0
MTEXT
  5
108
330
1F
100
AcDbEntity
  8
F-A_文字
  6
Continuous
 62
     7
370
     0
100
AcDbMText
 10
2779.998729808911
 20
-3887.142460617774
 30
0.0
 40
45.72
 41
300.0
 46
0.0
 71
     7
 72
     1
  1
{\fＭＳ ゴシック|b0|i0|c128|p49;ＳＣＡＬＥ}
 73
     1
 44
1.0
  0
MTEXT
  5
109
330
1F
100
AcDbEntity
  8
F-A_文字
  6
Continuous
 62
     7
370
     0
100
AcDbMText
 10
4279.999224688556
 20
-3887.143854850754
 30
0.0
 40
45.72
 41
240.0
 46
0.0
 71
     7
 72
     1
  1
{\fＭＳ ゴシック|b0|i0|c128|p49;ＤＡＴＥ}
 73
     1
 44
1.0
  0
MTEXT
  5
10A
330
1F
100
AcDbEntity
  8
F-A_文字
  6
Continuous
 62
     7
370
     0
100
AcDbMText
 10
1180.417701903719
 20
-3946.423911599839
 30
0.0
 40
77.15249999999999
 41
405.0
 46
0.0
 71
     7
 72
     1
  1
{\fＭＳ ゴシック|b0|i0|c128|p49;建具姿図}
 73
     1
 44
1.0
  0
MTEXT
  5
10B
330
1F
100
AcDbEntity
  8
F-A_文字
  6
Continuous
 62
     7
370
     0
100
AcDbMText
 10
3383.748977248734
 20
-3946.426865907308
 30
0.0
 40
77.15249999999999
 41
202.5
 46
0.0
 71
     7
 72
     1
  1
{\fＭＳ ゴシック|b0|i0|c128|p49;1/30}
 73
     1
 44
1.0
  0
MTEXT
  5
10C
330
1F
100
AcDbEntity
  8
F-A_文字
  6
Continuous
 62
     7
370
     0
100
AcDbMText
 10
2779.998729808911
 20
-4087.14246317786
 30
0.0
 40
45.72
 41
240.0
 46
0.0
 71
     7
 72
     1
  1
{\fＭＳ ゴシック|b0|i0|c128|p49;ＦＩＬＥ}
 73
     1
 44
1.0
  0
MTEXT
  5
10D
330
1F
100
AcDbEntity
  8
F-A_文字
  6
Continuous
 62
     7
370
     0
100
AcDbMText
 10
4279.999224688556
 20
-4087.143857410839
 30
0.0
 40
45.72
 41
180.0
 46
0.0
 71
     7
 72
     1
  1
{\fＭＳ ゴシック|b0|i0|c128|p49;ＮＯ．}
 73
     1
 44
1.0
  0
MTEXT
  5
10E
330
1F
100
AcDbEntity
  8
F-A_文字
  6
Continuous
 62
     7
370
     0
100
AcDbMText
 10
1234.998729808911
 20
-4096.140669266149
 30
0.0
 40
45.72
 41
120.0
 46
0.0
 71
     7
 72
     1
  1
{\fＭＳ ゴシック|b0|i0|c128|p49;株式}
 73
     1
 44
1.0
  0
MTEXT
  5
10F
330
1F
100
AcDbEntity
  8
F-A_文字
  6
Continuous
 62
     7
370
     0
100
AcDbMText
 10
1444.998729808911
 20
-4164.281754523929
 30
0.0
 40
101.44125
 41
1065.0
 46
0.0
 71
     7
 72
     1
  1
{\fＭＳ ゴシック|b0|i0|c128|p49;ウッドワン・・・}
 73
     1
 44
1.0
  0
MTEXT
  5
110
330
1F
100
AcDbEntity
  8
F-A_文字
  6
Continuous
 62
     7
370
     0
100
AcDbMText
 10
1234.998729808911
 20
-4168.140669266187
 30
0.0
 40
45.72
 41
120.0
 46
0.0
 71
     7
 72
     1
  1
{\fＭＳ ゴシック|b0|i0|c128|p49;会社}
 73
     1
 44
1.0
  0
MTEXT
  5
111
330
1F
100
AcDbEntity
  8
F-A_文字
  6
Continuous
 62
     7
370
     0
100
AcDbMText
 10
5608.403311109712
 20
-4314.841419020919
 30
0.0
 40
68.58
 41
90.0
 46
0.0
 71
     7
 72
     1
  1
{\fＭＳ ゴシック|b0|i0|c128|p49;）}
 73
     1
 44
1.0
  0
MTEXT
  5
112
330
1F
100
AcDbEntity
  8
F-A_文字
  6
Continuous
 62
     7
370
     0
100
AcDbMText
 10
5190.195950842071
 20
-4316.235443869856
 30
0.0
 40
68.58
 41
45.0
 46
0.0
 71
     7
 72
     1
  1
{\fＭＳ ゴシック|b0|i0|c128|p49;,}
 73
     1
 44
1.0
  0
MTEXT
  5
113
330
1F
100
AcDbEntity
  8
F-A_文字
  6
Continuous
 62
     7
370
     0
100
AcDbMText
 10
4923.937261915373
 20
-4314.771967288282
 30
0.0
 40
74.295
 41
97.5
 46
0.0
 71
     7
 72
     1
  1
{\fＭＳ ゴシック|b0|i0|c128|p49;$y}
 73
     1
 44
1.0
  0
MTEXT
  5
114
330
1F
100
AcDbEntity
  8
F-A_文字
  6
Continuous
 62
     7
370
     0
100
AcDbMText
 10
5078.673982954195
 20
-4314.771967288282
 30
0.0
 40
74.295
 41
97.5
 46
0.0
 71
     7
 72
     1
  1
{\fＭＳ ゴシック|b0|i0|c128|p49;$m}
 73
     1
 44
1.0
  0
MTEXT
  5
115
330
1F
100
AcDbEntity
  8
F-A_文字
  6
Continuous
 62
     7
370
     0
100
AcDbMText
 10
5233.410715437103
 20
-4314.771967288282
 30
0.0
 40
74.295
 41
97.5
 46
0.0
 71
     7
 72
     1
  1
{\fＭＳ ゴシック|b0|i0|c128|p49;$d}
 73
     1
 44
1.0
  0
MTEXT
  5
116
330
1F
100
AcDbEntity
  8
F-A_文字
  6
Continuous
 62
     7
370
     0
100
AcDbMText
 10
5388.147447920011
 20
-4314.771967288282
 30
0.0
 40
74.295
 41
195.0
 46
0.0
 71
     7
 72
     1
  1
{\fＭＳ ゴシック|b0|i0|c128|p49;印刷}
 73
     1
 44
1.0
  0
MTEXT
  5
117
330
1F
100
AcDbEntity
  8
F-A_文字
  6
Continuous
 62
     7
370
     0
100
AcDbMText
 10
4784.033374252999
 20
-4319.023493567732
 30
0.0
 40
68.58
 41
90.0
 46
0.0
 71
     7
 72
     1
  1
{\fＭＳ ゴシック|b0|i0|c128|p49;（}
 73
     1
 44
1.0
  0
MTEXT
  5
118
330
1F
100
AcDbEntity
  8
F-A_文字
  6
Continuous
 62
     7
370
     0
100
AcDbMText
 10
5031.277143812345
 20
-4319.023493567732
 30
0.0
 40
68.58
 41
45.0
 46
0.0
 71
     7
 72
     1
  1
{\fＭＳ ゴシック|b0|i0|c128|p49;,}
 73
     1
 44
1.0
  0
LINE
  5
119
330
1F
100
AcDbEntity
  8
0-3_仕上げ
  6
Continuous
 62
     7
370
     9
100
AcDbLine
 10
-3989.399798419022
 20
2234.000148463895
 30
0.0
 11
-3987.899798419023
 21
2232.500148463894
 31
0.0
  0
LINE
  5
11A
330
1F
100
AcDbEntity
  8
0-3_仕上げ
  6
Continuous
 62
     7
370
     9
100
AcDbLine
 10
-4554.399798419023
 20
1443.000148463894
 30
0.0
 11
-4554.399798419023
 21
1639.000148463894
 31
0.0
  0
LINE
  5
11B
330
1F
100
AcDbEntity
  8
0-3_仕上げ
  6
Continuous
 62
    92
370
    13
100
AcDbLine
 10
-4553.399798419021
 20
2230.000148463895
 30
0.0
 11
-4553.399798419021
 21
1643.000148463894
 31
0.0
  0
LINE
  5
11C
330
1F
100
AcDbEntity
  8
0-3_仕上げ
  6
Continuous
 62
     7
370
     9
100
AcDbLine
 10
-3986.399798419021
 20
1443.000148463894
 30
0.0
 11
-3986.399798419021
 21
3438.000148463894
 31
0.0
  0
LINE
  5
11D
330
1F
100
AcDbEntity
  8
0-3_仕上げ
  6
Continuous
 62
    92
370
    13
100
AcDbLine
 10
-3990.399798419025
 20
1643.000148463894
 30
0.0
 11
-4553.399798419021
 21
1643.000148463894
 31
0.0
  0
LINE
  5
11E
330
1F
100
AcDbEntity
  8
0-3_仕上げ
  6
Continuous
 62
    92
370
    13
100
AcDbLine
 10
-3990.399798419025
 20
3288.000148463894
 30
0.0
 11
-4553.399798419021
 21
3288.000148463894
 31
0.0
  0
LINE
  5
11F
330
1F
100
AcDbEntity
  8
0-3_仕上げ
  6
Continuous
 62
     7
370
     9
100
AcDbLine
 10
-3989.399798419022
 20
1443.000148463894
 30
0.0
 11
-3989.399798419022
 21
1639.000148463894
 31
0.0
  0
LINE
  5
120
330
1F
100
AcDbEntity
  8
0-3_仕上げ
  6
Continuous
 62
     7
370
     9
100
AcDbLine
 10
-3989.399798419022
 20
3292.000148463894
 30
0.0
 11
-3989.399798419022
 21
3438.000148463894
 31
0.0
  0
LINE
  5
121
330
1F
100
AcDbEntity
  8
0-3_仕上げ
  6
Continuous
 62
    92
370
    13
100
AcDbLine
 10
-3990.399798419025
 20
2330.000148463894
 30
0.0
 11
-4553.399798419021
 21
2330.000148463894
 31
0.0
  0
LINE
  5
122
330
1F
100
AcDbEntity
  8
0-3_仕上げ
  6
Continuous
 62
    92
370
    13
100
AcDbLine
 10
-4553.399798419021
 20
2230.000148463895
 30
0.0
 11
-3990.399798419025
 21
2230.000148463895
 31
0.0
  0
LINE
  5
123
330
1F
100
AcDbEntity
  8
0-3_仕上げ
  6
Continuous
 62
    92
370
    13
100
AcDbLine
 10
-3990.399798419025
 20
2230.000148463895
 30
0.0
 11
-3990.399798419025
 21
1643.000148463894
 31
0.0
  0
LINE
  5
124
330
1F
100
AcDbEntity
  8
0-3_仕上げ
  6
Continuous
 62
    92
370
    13
100
AcDbLine
 10
-3990.399798419025
 20
2330.000148463894
 30
0.0
 11
-3990.399798419025
 21
3288.000148463894
 31
0.0
  0
LINE
  5
125
330
1F
100
AcDbEntity
  8
0-3_仕上げ
  6
Continuous
 62
     7
370
     9
100
AcDbLine
 10
-4554.399798419023
 20
3292.000148463894
 30
0.0
 11
-4555.899798419022
 21
3290.500148463894
 31
0.0
  0
LINE
  5
126
330
1F
100
AcDbEntity
  8
0-3_仕上げ
  6
Continuous
 62
     7
370
     9
100
AcDbLine
 10
-3989.399798419022
 20
2326.000148463895
 30
0.0
 11
-3987.899798419023
 21
2327.500148463895
 31
0.0
  0
LINE
  5
127
330
1F
100
AcDbEntity
  8
0-3_仕上げ
  6
Continuous
 62
     7
370
     9
100
AcDbLine
 10
-3989.399798419022
 20
3292.000148463894
 30
0.0
 11
-3987.899798419023
 21
3290.500148463894
 31
0.0
  0
LINE
  5
128
330
1F
100
AcDbEntity
  8
0-3_仕上げ
  6
Continuous
 62
     7
370
     9
100
AcDbLine
 10
-3987.899798419023
 20
3290.500148463894
 30
0.0
 11
-3987.899798419023
 21
3438.000148463894
 31
0.0
  0
LINE
  5
129
330
1F
100
AcDbEntity
  8
0-3_仕上げ
  6
Continuous
 62
     7
370
     9
100
AcDbLine
 10
-3987.899798419023
 20
3290.500148463894
 30
0.0
 11
-3990.399798419025
 21
3288.000148463894
 31
0.0
  0
LINE
  5
12A
330
1F
100
AcDbEntity
  8
0-3_仕上げ
  6
Continuous
 62
     7
370
     9
100
AcDbLine
 10
-4553.399798419021
 20
3288.000148463894
 30
0.0
 11
-4555.899798419022
 21
3290.500148463894
 31
0.0
  0
LINE
  5
12B
330
1F
100
AcDbEntity
  8
0-3_仕上げ
  6
Continuous
 62
     7
370
     9
100
AcDbLine
 10
-4555.899798419022
 20
3290.500148463894
 30
0.0
 11
-4555.899798419022
 21
3438.000148463894
 31
0.0
  0
LINE
  5
12C
330
1F
100
AcDbEntity
  8
0-3_仕上げ
  6
Continuous
 62
     7
370
     9
100
AcDbLine
 10
-4554.399798419023
 20
3292.000148463894
 30
0.0
 11
-4554.399798419023
 21
3438.000148463894
 31
0.0
  0
LINE
  5
12D
330
1F
100
AcDbEntity
  8
0-3_仕上げ
  6
Continuous
 62
     7
370
     9
100
AcDbLine
 10
-3989.399798419022
 20
3292.000148463894
 30
0.0
 11
-4554.399798419023
 21
3292.000148463894
 31
0.0
  0
LINE
  5
12E
330
1F
100
AcDbEntity
  8
0-3_仕上げ
  6
Continuous
 62
     7
370
     9
100
AcDbLine
 10
-4554.399798419023
 20
2326.000148463895
 30
0.0
 11
-4555.899798419022
 21
2327.500148463895
 31
0.0
  0
LINE
  5
12F
330
1F
100
AcDbEntity
  8
0-3_仕上げ
  6
Continuous
 62
     7
370
     9
100
AcDbLine
 10
-4555.899798419022
 20
2327.500148463895
 30
0.0
 11
-4553.399798419021
 21
2330.000148463895
 31
0.0
  0
LINE
  5
130
330
1F
100
AcDbEntity
  8
0-3_仕上げ
  6
Continuous
 62
     7
370
     9
100
AcDbLine
 10
-3990.399798419025
 20
2330.000148463895
 30
0.0
 11
-3987.899798419023
 21
2327.500148463895
 31
0.0
  0
LINE
  5
131
330
1F
100
AcDbEntity
  8
0-3_仕上げ
  6
Continuous
 62
     7
370
     9
100
AcDbLine
 10
-3989.399798419022
 20
2326.000148463895
 30
0.0
 11
-4554.399798419023
 21
2326.000148463895
 31
0.0
  0
LINE
  5
132
330
1F
100
AcDbEntity
  8
0-3_仕上げ
  6
Continuous
 62
     7
370
     9
100
AcDbLine
 10
-3989.399798419022
 20
2234.000148463895
 30
0.0
 11
-3989.399798419022
 21
2326.000148463895
 31
0.0
  0
LINE
  5
133
330
1F
100
AcDbEntity
  8
0-3_仕上げ
  6
Continuous
 62
     7
370
     9
100
AcDbLine
 10
-3987.899798419023
 20
2232.500148463894
 30
0.0
 11
-3987.899798419023
 21
2327.500148463895
 31
0.0
  0
LINE
  5
134
330
1F
100
AcDbEntity
  8
0-3_仕上げ
  6
Continuous
 62
     7
370
     9
100
AcDbLine
 10
-3987.899798419023
 20
2232.500148463894
 30
0.0
 11
-3990.399798419025
 21
2230.000148463895
 31
0.0
  0
LINE
  5
135
330
1F
100
AcDbEntity
  8
0-3_仕上げ
  6
Continuous
 62
     7
370
     9
100
AcDbLine
 10
-4554.399798419023
 20
1639.000148463894
 30
0.0
 11
-4555.899798419022
 21
1640.500148463894
 31
0.0
  0
LINE
  5
136
330
1F
100
AcDbEntity
  8
0-3_仕上げ
  6
Continuous
 62
     7
370
     9
100
AcDbLine
 10
-4555.899798419022
 20
1640.500148463894
 30
0.0
 11
-4553.399798419021
 21
1643.000148463894
 31
0.0
  0
LINE
  5
137
330
1F
100
AcDbEntity
  8
0-3_仕上げ
  6
Continuous
 62
     7
370
     9
100
AcDbLine
 10
-4555.899798419022
 20
1443.000148463894
 30
0.0
 11
-4555.899798419022
 21
1640.500148463894
 31
0.0
  0
LINE
  5
138
330
1F
100
AcDbEntity
  8
0-3_仕上げ
  6
Continuous
 62
     7
370
     9
100
AcDbLine
 10
-4554.399798419023
 20
2234.000148463895
 30
0.0
 11
-4555.899798419022
 21
2232.500148463894
 31
0.0
  0
LINE
  5
139
330
1F
100
AcDbEntity
  8
0-3_仕上げ
  6
Continuous
 62
     7
370
     9
100
AcDbLine
 10
-4554.399798419023
 20
2234.000148463895
 30
0.0
 11
-3989.399798419022
 21
2234.000148463895
 31
0.0
  0
LINE
  5
13A
330
1F
100
AcDbEntity
  8
0-3_仕上げ
  6
Continuous
 62
     7
370
     9
100
AcDbLine
 10
-4554.399798419023
 20
2234.000148463895
 30
0.0
 11
-4554.399798419023
 21
2326.000148463895
 31
0.0
  0
LINE
  5
13B
330
1F
100
AcDbEntity
  8
0-3_仕上げ
  6
Continuous
 62
     7
370
     9
100
AcDbLine
 10
-4555.899798419022
 20
2232.500148463894
 30
0.0
 11
-4555.899798419022
 21
2327.500148463895
 31
0.0
  0
LINE
  5
13C
330
1F
100
AcDbEntity
  8
0-3_仕上げ
  6
Continuous
 62
     7
370
     9
100
AcDbLine
 10
-4553.399798419021
 20
2230.000148463895
 30
0.0
 11
-4555.899798419022
 21
2232.500148463894
 31
0.0
  0
LINE
  5
13D
330
1F
100
AcDbEntity
  8
0-3_仕上げ
  6
Continuous
 62
     7
370
     9
100
AcDbLine
 10
-3987.899798419023
 20
1443.000148463894
 30
0.0
 11
-3987.899798419023
 21
1640.500148463894
 31
0.0
  0
LINE
  5
13E
330
1F
100
AcDbEntity
  8
0-3_仕上げ
  6
Continuous
 62
     7
370
     9
100
AcDbLine
 10
-3990.399798419025
 20
1643.000148463894
 30
0.0
 11
-3987.899798419023
 21
1640.500148463894
 31
0.0
  0
LINE
  5
13F
330
1F
100
AcDbEntity
  8
0-3_仕上げ
  6
Continuous
 62
     7
370
     9
100
AcDbLine
 10
-3989.399798419022
 20
1639.000148463894
 30
0.0
 11
-3987.899798419023
 21
1640.500148463894
 31
0.0
  0
LINE
  5
140
330
1F
100
AcDbEntity
  8
0-3_仕上げ
  6
Continuous
 62
     7
370
     9
100
AcDbLine
 10
-3989.399798419022
 20
1639.000148463894
 30
0.0
 11
-4554.399798419023
 21
1639.000148463894
 31
0.0
  0
LINE
  5
141
330
1F
100
AcDbEntity
  8
0-3_仕上げ
  6
Continuous
 62
     7
370
     9
100
AcDbLine
 10
-2322.799671069995
 20
1443.000148463894
 30
0.0
 11
-2322.799671069995
 21
1639.000148463894
 31
0.0
  0
LINE
  5
142
330
1F
100
AcDbEntity
  8
0-3_仕上げ
  6
Continuous
 62
    92
370
    13
100
AcDbLine
 10
-2321.799671069996
 20
2230.000148463895
 30
0.0
 11
-2321.799671069996
 21
1643.000148463894
 31
0.0
  0
LINE
  5
143
330
1F
100
AcDbEntity
  8
0-3_仕上げ
  6
Continuous
 62
     7
370
     9
100
AcDbLine
 10
-2322.799671069995
 20
3292.000148463894
 30
0.0
 11
-2324.299671069995
 21
3290.500148463894
 31
0.0
  0
LINE
  5
144
330
1F
100
AcDbEntity
  8
0-3_仕上げ
  6
Continuous
 62
     7
370
     9
100
AcDbLine
 10
-2324.299671069995
 20
3290.500148463894
 30
0.0
 11
-2324.299671069995
 21
3438.000148463894
 31
0.0
  0
LINE
  5
145
330
1F
100
AcDbEntity
  8
0-3_仕上げ
  6
Continuous
 62
     7
370
     9
100
AcDbLine
 10
-2321.799671069994
 20
3288.000148463894
 30
0.0
 11
-2324.299671069995
 21
3290.500148463894
 31
0.0
  0
LINE
  5
146
330
1F
100
AcDbEntity
  8
0-3_仕上げ
  6
Continuous
 62
     7
370
     9
100
AcDbLine
 10
-2322.799671069995
 20
3292.000148463894
 30
0.0
 11
-2322.799671069995
 21
3438.000148463894
 31
0.0
  0
LINE
  5
147
330
1F
100
AcDbEntity
  8
0-3_仕上げ
  6
Continuous
 62
     7
370
     9
100
AcDbLine
 10
-2322.799671069995
 20
2326.000148463894
 30
0.0
 11
-2324.299671069995
 21
2327.500148463895
 31
0.0
  0
LINE
  5
148
330
1F
100
AcDbEntity
  8
0-3_仕上げ
  6
Continuous
 62
     7
370
     9
100
AcDbLine
 10
-2324.299671069995
 20
2327.500148463895
 30
0.0
 11
-2321.799671069996
 21
2330.000148463894
 31
0.0
  0
LINE
  5
149
330
1F
100
AcDbEntity
  8
0-3_仕上げ
  6
Continuous
 62
     7
370
     9
100
AcDbLine
 10
-2322.799671069995
 20
1639.000148463894
 30
0.0
 11
-2324.299671069995
 21
1640.500148463894
 31
0.0
  0
LINE
  5
14A
330
1F
100
AcDbEntity
  8
0-3_仕上げ
  6
Continuous
 62
     7
370
     9
100
AcDbLine
 10
-2324.299671069995
 20
1640.500148463894
 30
0.0
 11
-2321.799671069996
 21
1643.000148463894
 31
0.0
  0
LINE
  5
14B
330
1F
100
AcDbEntity
  8
0-3_仕上げ
  6
Continuous
 62
     7
370
     9
100
AcDbLine
 10
-2324.299671069995
 20
1443.000148463894
 30
0.0
 11
-2324.299671069995
 21
1640.500148463894
 31
0.0
  0
LINE
  5
14C
330
1F
100
AcDbEntity
  8
0-3_仕上げ
  6
Continuous
 62
     7
370
     9
100
AcDbLine
 10
-2322.799671069995
 20
2234.000148463895
 30
0.0
 11
-2324.299671069995
 21
2232.500148463894
 31
0.0
  0
LINE
  5
14D
330
1F
100
AcDbEntity
  8
0-3_仕上げ
  6
Continuous
 62
     7
370
     9
100
AcDbLine
 10
-2322.799671069995
 20
2234.000148463895
 30
0.0
 11
-2322.799671069995
 21
2326.000148463894
 31
0.0
  0
LINE
  5
14E
330
1F
100
AcDbEntity
  8
0-3_仕上げ
  6
Continuous
 62
     7
370
     9
100
AcDbLine
 10
-2324.299671069995
 20
2232.500148463894
 30
0.0
 11
-2324.299671069995
 21
2327.500148463895
 31
0.0
  0
LINE
  5
14F
330
1F
100
AcDbEntity
  8
0-3_仕上げ
  6
Continuous
 62
     7
370
     9
100
AcDbLine
 10
-2321.799671069994
 20
2230.000148463895
 30
0.0
 11
-2324.299671069995
 21
2232.500148463894
 31
0.0
  0
LINE
  5
150
330
1F
100
AcDbEntity
  8
0-3_仕上げ
  6
Continuous
 62
     7
370
     9
100
AcDbLine
 10
-2322.799671069995
 20
2234.000148463895
 30
0.0
 11
-1827.799671069995
 21
2234.000148463895
 31
0.0
  0
LINE
  5
151
330
1F
100
AcDbEntity
  8
0-3_仕上げ
  6
Continuous
 62
     7
370
     9
100
AcDbLine
 10
-1827.799671069995
 20
2234.000148463895
 30
0.0
 11
-1827.799671069995
 21
2326.000148463894
 31
0.0
  0
LINE
  5
152
330
1F
100
AcDbEntity
  8
0-3_仕上げ
  6
Continuous
 62
     7
370
     9
100
AcDbLine
 10
-1826.299671069996
 20
2232.500148463894
 30
0.0
 11
-1828.799671069996
 21
2230.000148463895
 31
0.0
  0
LINE
  5
153
330
1F
100
AcDbEntity
  8
0-3_仕上げ
  6
Continuous
 62
     7
370
     9
100
AcDbLine
 10
-1826.299671069996
 20
2232.500148463894
 30
0.0
 11
-1826.299671069996
 21
2327.500148463895
 31
0.0
  0
LINE
  5
154
330
1F
100
AcDbEntity
  8
0-3_仕上げ
  6
Continuous
 62
     7
370
     9
100
AcDbLine
 10
-1827.799671069995
 20
1443.000148463894
 30
0.0
 11
-1827.799671069995
 21
1639.000148463894
 31
0.0
  0
LINE
  5
155
330
1F
100
AcDbEntity
  8
0-3_仕上げ
  6
Continuous
 62
     7
370
     9
100
AcDbLine
 10
-1827.799671069995
 20
1639.000148463894
 30
0.0
 11
-2322.799671069995
 21
1639.000148463894
 31
0.0
  0
LINE
  5
156
330
1F
100
AcDbEntity
  8
0-3_仕上げ
  6
Continuous
 62
     7
370
     9
100
AcDbLine
 10
-1826.299671069996
 20
1443.000148463894
 30
0.0
 11
-1826.299671069996
 21
1640.500148463894
 31
0.0
  0
LINE
  5
157
330
1F
100
AcDbEntity
  8
0-3_仕上げ
  6
Continuous
 62
     7
370
     9
100
AcDbLine
 10
-1828.799671069997
 20
1643.000148463894
 30
0.0
 11
-1826.299671069996
 21
1640.500148463894
 31
0.0
  0
LINE
  5
158
330
1F
100
AcDbEntity
  8
0-3_仕上げ
  6
Continuous
 62
     7
370
     9
100
AcDbLine
 10
-1827.799671069995
 20
1639.000148463894
 30
0.0
 11
-1826.299671069996
 21
1640.500148463894
 31
0.0
  0
LINE
  5
159
330
1F
100
AcDbEntity
  8
0-3_仕上げ
  6
Continuous
 62
     7
370
     9
100
AcDbLine
 10
-1827.799671069995
 20
2326.000148463894
 30
0.0
 11
-1826.299671069996
 21
2327.500148463895
 31
0.0
  0
LINE
  5
15A
330
1F
100
AcDbEntity
  8
0-3_仕上げ
  6
Continuous
 62
     7
370
     9
100
AcDbLine
 10
-1827.799671069995
 20
2326.000148463894
 30
0.0
 11
-2322.799671069995
 21
2326.000148463894
 31
0.0
  0
LINE
  5
15B
330
1F
100
AcDbEntity
  8
0-3_仕上げ
  6
Continuous
 62
     7
370
     9
100
AcDbLine
 10
-1828.799671069997
 20
2330.000148463894
 30
0.0
 11
-1826.299671069996
 21
2327.500148463895
 31
0.0
  0
LINE
  5
15C
330
1F
100
AcDbEntity
  8
0-3_仕上げ
  6
Continuous
 62
     7
370
     9
100
AcDbLine
 10
-1827.799671069995
 20
3292.000148463894
 30
0.0
 11
-2322.799671069995
 21
3292.000148463894
 31
0.0
  0
LINE
  5
15D
330
1F
100
AcDbEntity
  8
0-3_仕上げ
  6
Continuous
 62
     7
370
     9
100
AcDbLine
 10
-1826.299671069996
 20
3290.500148463894
 30
0.0
 11
-1828.799671069996
 21
3288.000148463894
 31
0.0
  0
LINE
  5
15E
330
1F
100
AcDbEntity
  8
0-3_仕上げ
  6
Continuous
 62
     7
370
     9
100
AcDbLine
 10
-1826.299671069996
 20
3290.500148463894
 30
0.0
 11
-1826.299671069996
 21
3438.000148463894
 31
0.0
  0
LINE
  5
15F
330
1F
100
AcDbEntity
  8
0-3_仕上げ
  6
Continuous
 62
     7
370
     9
100
AcDbLine
 10
-1827.799671069995
 20
3292.000148463894
 30
0.0
 11
-1826.299671069996
 21
3290.500148463894
 31
0.0
  0
LINE
  5
160
330
1F
100
AcDbEntity
  8
0-3_仕上げ
  6
Continuous
 62
    92
370
    13
100
AcDbLine
 10
-1828.799671069996
 20
2330.000148463894
 30
0.0
 11
-1828.799671069996
 21
3288.000148463894
 31
0.0
  0
LINE
  5
161
330
1F
100
AcDbEntity
  8
0-3_仕上げ
  6
Continuous
 62
    92
370
    13
100
AcDbLine
 10
-1828.799671069996
 20
2230.000148463895
 30
0.0
 11
-1828.799671069996
 21
1643.000148463894
 31
0.0
  0
LINE
  5
162
330
1F
100
AcDbEntity
  8
0-3_仕上げ
  6
Continuous
 62
    92
370
    13
100
AcDbLine
 10
-2321.799671069996
 20
2230.000148463895
 30
0.0
 11
-1828.799671069996
 21
2230.000148463895
 31
0.0
  0
LINE
  5
163
330
1F
100
AcDbEntity
  8
0-3_仕上げ
  6
Continuous
 62
    92
370
    13
100
AcDbLine
 10
-1828.799671069996
 20
2330.000148463894
 30
0.0
 11
-2321.799671069996
 21
2330.000148463894
 31
0.0
  0
LINE
  5
164
330
1F
100
AcDbEntity
  8
0-3_仕上げ
  6
Continuous
 62
     7
370
     9
100
AcDbLine
 10
-1827.799671069995
 20
3292.000148463894
 30
0.0
 11
-1827.799671069995
 21
3438.000148463894
 31
0.0
  0
LINE
  5
165
330
1F
100
AcDbEntity
  8
0-3_仕上げ
  6
Continuous
 62
    92
370
    13
100
AcDbLine
 10
-1828.799671069996
 20
3288.000148463894
 30
0.0
 11
-2321.799671069996
 21
3288.000148463894
 31
0.0
  0
LINE
  5
166
330
1F
100
AcDbEntity
  8
0-3_仕上げ
  6
Continuous
 62
    92
370
    13
100
AcDbLine
 10
-1828.799671069996
 20
1643.000148463894
 30
0.0
 11
-2321.799671069996
 21
1643.000148463894
 31
0.0
  0
LINE
  5
167
330
1F
100
AcDbEntity
  8
0-3_仕上げ
  6
Continuous
 62
     7
370
     9
100
AcDbLine
 10
-1824.799671069994
 20
1443.000148463894
 30
0.0
 11
-1824.799671069994
 21
3438.000148463894
 31
0.0
  0
LINE
  5
168
330
1F
100
AcDbEntity
  8
0-3_仕上げ
  6
Continuous
 62
     7
370
     9
100
AcDbLine
 10
-1827.799671069995
 20
2234.000148463895
 30
0.0
 11
-1826.299671069996
 21
2232.500148463894
 31
0.0
  0
LINE
  5
169
330
1F
100
AcDbEntity
  8
0-3_仕上げ
  6
Continuous
 62
     7
370
     9
100
AcDbLine
 10
-91.19991488070127
 20
1443.000148463894
 30
0.0
 11
-91.19991488070127
 21
1639.000148463894
 31
0.0
  0
LINE
  5
16A
330
1F
100
AcDbEntity
  8
0-3_仕上げ
  6
Continuous
 62
     7
370
     9
100
AcDbLine
 10
386.8000851192988
 20
1443.000148463894
 30
0.0
 11
386.8000851192988
 21
3438.000148463894
 31
0.0
  0
LINE
  5
16B
330
1F
100
AcDbEntity
  8
0-3_仕上げ
  6
Continuous
 62
    92
370
    13
100
AcDbLine
 10
382.8000851192974
 20
1643.000148463894
 30
0.0
 11
-90.19991488070218
 21
1643.000148463894
 31
0.0
  0
LINE
  5
16C
330
1F
100
AcDbEntity
  8
0-3_仕上げ
  6
Continuous
 62
    92
370
    13
100
AcDbLine
 10
382.8000851192974
 20
3288.000148463894
 30
0.0
 11
-90.19991488070218
 21
3288.000148463894
 31
0.0
  0
LINE
  5
16D
330
1F
100
AcDbEntity
  8
0-3_仕上げ
  6
Continuous
 62
    92
370
    13
100
AcDbLine
 10
-90.19991488070218
 20
2230.000148463895
 30
0.0
 11
-90.19991488070218
 21
1643.000148463894
 31
0.0
  0
LINE
  5
16E
330
1F
100
AcDbEntity
  8
0-3_仕上げ
  6
Continuous
 62
    92
370
    13
100
AcDbLine
 10
382.8000851192974
 20
2330.000148463894
 30
0.0
 11
-90.19991488070218
 21
2330.000148463894
 31
0.0
  0
LINE
  5
16F
330
1F
100
AcDbEntity
  8
0-3_仕上げ
  6
Continuous
 62
    92
370
    13
100
AcDbLine
 10
-90.19991488070218
 20
2230.000148463895
 30
0.0
 11
382.8000851192974
 21
2230.000148463895
 31
0.0
  0
LINE
  5
170
330
1F
100
AcDbEntity
  8
0-3_仕上げ
  6
Continuous
 62
    92
370
    13
100
AcDbLine
 10
382.8000851192974
 20
2230.000148463895
 30
0.0
 11
382.8000851192974
 21
1643.000148463894
 31
0.0
  0
LINE
  5
171
330
1F
100
AcDbEntity
  8
0-3_仕上げ
  6
Continuous
 62
    92
370
    13
100
AcDbLine
 10
382.8000851192974
 20
2330.000148463894
 30
0.0
 11
382.8000851192974
 21
3288.000148463894
 31
0.0
  0
LINE
  5
172
330
1F
100
AcDbEntity
  8
0-3_仕上げ
  6
Continuous
 62
     7
370
     9
100
AcDbLine
 10
-91.19991488070127
 20
3292.000148463894
 30
0.0
 11
-92.69991488070161
 21
3290.500148463894
 31
0.0
  0
LINE
  5
173
330
1F
100
AcDbEntity
  8
0-3_仕上げ
  6
Continuous
 62
     7
370
     9
100
AcDbLine
 10
383.8000851192982
 20
2326.000148463894
 30
0.0
 11
385.3000851192985
 21
2327.500148463895
 31
0.0
  0
LINE
  5
174
330
1F
100
AcDbEntity
  8
0-3_仕上げ
  6
Continuous
 62
     7
370
     9
100
AcDbLine
 10
383.8000851192982
 20
3292.000148463894
 30
0.0
 11
385.3000851192985
 21
3290.500148463894
 31
0.0
  0
LINE
  5
175
330
1F
100
AcDbEntity
  8
0-3_仕上げ
  6
Continuous
 62
     7
370
     9
100
AcDbLine
 10
-91.19991488070127
 20
2326.000148463894
 30
0.0
 11
-92.69991488070161
 21
2327.500148463895
 31
0.0
  0
LINE
  5
176
330
1F
100
AcDbEntity
  8
0-3_仕上げ
  6
Continuous
 62
     7
370
     9
100
AcDbLine
 10
-91.19991488070127
 20
2234.000148463895
 30
0.0
 11
-92.69991488070161
 21
2232.500148463894
 31
0.0
  0
LINE
  5
177
330
1F
100
AcDbEntity
  8
0-3_仕上げ
  6
Continuous
 62
     7
370
     9
100
AcDbLine
 10
383.8000851192982
 20
2234.000148463895
 30
0.0
 11
385.3000851192985
 21
2232.500148463894
 31
0.0
  0
LINE
  5
178
330
1F
100
AcDbEntity
  8
0-3_仕上げ
  6
Continuous
 62
     7
370
     9
100
AcDbLine
 10
-91.19991488070127
 20
1639.000148463894
 30
0.0
 11
-92.69991488070161
 21
1640.500148463894
 31
0.0
  0
LINE
  5
179
330
1F
100
AcDbEntity
  8
0-3_仕上げ
  6
Continuous
 62
     7
370
     9
100
AcDbLine
 10
-92.69991488070161
 20
1640.500148463894
 30
0.0
 11
-90.19991488070218
 21
1643.000148463894
 31
0.0
  0
LINE
  5
17A
330
1F
100
AcDbEntity
  8
0-3_仕上げ
  6
Continuous
 62
     7
370
     9
100
AcDbLine
 10
-92.69991488070161
 20
1443.000148463894
 30
0.0
 11
-92.69991488070161
 21
1640.500148463894
 31
0.0
  0
LINE
  5
17B
330
1F
100
AcDbEntity
  8
0-3_仕上げ
  6
Continuous
 62
     7
370
     9
100
AcDbLine
 10
385.3000851192985
 20
2232.500148463894
 30
0.0
 11
382.8000851192991
 21
2230.000148463895
 31
0.0
  0
LINE
  5
17C
330
1F
100
AcDbEntity
  8
0-3_仕上げ
  6
Continuous
 62
     7
370
     9
100
AcDbLine
 10
-91.19991488070127
 20
2234.000148463895
 30
0.0
 11
383.8000851192982
 21
2234.000148463895
 31
0.0
  0
LINE
  5
17D
330
1F
100
AcDbEntity
  8
0-3_仕上げ
  6
Continuous
 62
     7
370
     9
100
AcDbLine
 10
-90.19991488070048
 20
2230.000148463895
 30
0.0
 11
-92.69991488070161
 21
2232.500148463894
 31
0.0
  0
LINE
  5
17E
330
1F
100
AcDbEntity
  8
0-3_仕上げ
  6
Continuous
 62
     7
370
     9
100
AcDbLine
 10
-92.69991488070161
 20
2232.500148463894
 30
0.0
 11
-92.69991488070161
 21
2327.500148463895
 31
0.0
  0
LINE
  5
17F
330
1F
100
AcDbEntity
  8
0-3_仕上げ
  6
Continuous
 62
     7
370
     9
100
AcDbLine
 10
-92.69991488070161
 20
2327.500148463895
 30
0.0
 11
-90.19991488070218
 21
2330.000148463894
 31
0.0
  0
LINE
  5
180
330
1F
100
AcDbEntity
  8
0-3_仕上げ
  6
Continuous
 62
     7
370
     9
100
AcDbLine
 10
-91.19991488070127
 20
2234.000148463895
 30
0.0
 11
-91.19991488070127
 21
2326.000148463894
 31
0.0
  0
LINE
  5
181
330
1F
100
AcDbEntity
  8
0-3_仕上げ
  6
Continuous
 62
     7
370
     9
100
AcDbLine
 10
383.8000851192982
 20
2326.000148463894
 30
0.0
 11
-91.19991488070127
 21
2326.000148463894
 31
0.0
  0
LINE
  5
182
330
1F
100
AcDbEntity
  8
0-3_仕上げ
  6
Continuous
 62
     7
370
     9
100
AcDbLine
 10
383.8000851192982
 20
2234.000148463895
 30
0.0
 11
383.8000851192982
 21
2326.000148463894
 31
0.0
  0
LINE
  5
183
330
1F
100
AcDbEntity
  8
0-3_仕上げ
  6
Continuous
 62
     7
370
     9
100
AcDbLine
 10
382.8000851192974
 20
2330.000148463894
 30
0.0
 11
385.3000851192985
 21
2327.500148463895
 31
0.0
  0
LINE
  5
184
330
1F
100
AcDbEntity
  8
0-3_仕上げ
  6
Continuous
 62
     7
370
     9
100
AcDbLine
 10
385.3000851192985
 20
2232.500148463894
 30
0.0
 11
385.3000851192985
 21
2327.500148463895
 31
0.0
  0
LINE
  5
185
330
1F
100
AcDbEntity
  8
0-3_仕上げ
  6
Continuous
 62
     7
370
     9
100
AcDbLine
 10
383.8000851192982
 20
1639.000148463894
 30
0.0
 11
385.3000851192985
 21
1640.500148463894
 31
0.0
  0
LINE
  5
186
330
1F
100
AcDbEntity
  8
0-3_仕上げ
  6
Continuous
 62
     7
370
     9
100
AcDbLine
 10
383.8000851192982
 20
1639.000148463894
 30
0.0
 11
-91.19991488070127
 21
1639.000148463894
 31
0.0
  0
LINE
  5
187
330
1F
100
AcDbEntity
  8
0-3_仕上げ
  6
Continuous
 62
     7
370
     9
100
AcDbLine
 10
383.8000851192982
 20
1443.000148463894
 30
0.0
 11
383.8000851192982
 21
1639.000148463894
 31
0.0
  0
LINE
  5
188
330
1F
100
AcDbEntity
  8
0-3_仕上げ
  6
Continuous
 62
     7
370
     9
100
AcDbLine
 10
382.8000851192974
 20
1643.000148463894
 30
0.0
 11
385.3000851192985
 21
1640.500148463894
 31
0.0
  0
LINE
  5
189
330
1F
100
AcDbEntity
  8
0-3_仕上げ
  6
Continuous
 62
     7
370
     9
100
AcDbLine
 10
385.3000851192985
 20
1443.000148463894
 30
0.0
 11
385.3000851192985
 21
1640.500148463894
 31
0.0
  0
LINE
  5
18A
330
1F
100
AcDbEntity
  8
0-3_仕上げ
  6
Continuous
 62
     7
370
     9
100
AcDbLine
 10
-92.69991488070161
 20
3290.500148463894
 30
0.0
 11
-92.69991488070161
 21
3438.000148463894
 31
0.0
  0
LINE
  5
18B
330
1F
100
AcDbEntity
  8
0-3_仕上げ
  6
Continuous
 62
     7
370
     9
100
AcDbLine
 10
-90.19991488070048
 20
3288.000148463894
 30
0.0
 11
-92.69991488070161
 21
3290.500148463894
 31
0.0
  0
LINE
  5
18C
330
1F
100
AcDbEntity
  8
0-3_仕上げ
  6
Continuous
 62
     7
370
     9
100
AcDbLine
 10
-91.19991488070127
 20
3292.000148463894
 30
0.0
 11
-91.19991488070127
 21
3438.000148463894
 31
0.0
  0
LINE
  5
18D
330
1F
100
AcDbEntity
  8
0-3_仕上げ
  6
Continuous
 62
     7
370
     9
100
AcDbLine
 10
383.8000851192982
 20
3292.000148463894
 30
0.0
 11
383.8000851192982
 21
3438.000148463894
 31
0.0
  0
LINE
  5
18E
330
1F
100
AcDbEntity
  8
0-3_仕上げ
  6
Continuous
 62
     7
370
     9
100
AcDbLine
 10
383.8000851192982
 20
3292.000148463894
 30
0.0
 11
-91.19991488070127
 21
3292.000148463894
 31
0.0
  0
LINE
  5
18F
330
1F
100
AcDbEntity
  8
0-3_仕上げ
  6
Continuous
 62
     7
370
     9
100
AcDbLine
 10
385.3000851192985
 20
3290.500148463894
 30
0.0
 11
385.3000851192985
 21
3438.000148463894
 31
0.0
  0
LINE
  5
190
330
1F
100
AcDbEntity
  8
0-3_仕上げ
  6
Continuous
 62
     7
370
     9
100
AcDbLine
 10
385.3000851192985
 20
3290.500148463894
 30
0.0
 11
382.8000851192991
 21
3288.000148463894
 31
0.0
  0
LINE
  5
191
330
1F
100
AcDbEntity
  8
0-3_仕上げ
  6
Continuous
 62
     7
370
     9
100
AcDbLine
 10
2606.900212468327
 20
1443.000148463894
 30
0.0
 11
2606.900212468327
 21
3438.000148463894
 31
0.0
  0
LINE
  5
192
330
1F
100
AcDbEntity
  8
0-3_仕上げ
  6
Continuous
 62
    92
370
    13
100
AcDbLine
 10
2602.900212468327
 20
1643.000148463894
 30
0.0
 11
2129.900212468328
 21
1643.000148463894
 31
0.0
  0
LINE
  5
193
330
1F
100
AcDbEntity
  8
0-3_仕上げ
  6
Continuous
 62
    92
370
    13
100
AcDbLine
 10
2602.900212468327
 20
3288.000148463894
 30
0.0
 11
2129.900212468328
 21
3288.000148463894
 31
0.0
  0
LINE
  5
194
330
1F
100
AcDbEntity
  8
0-3_仕上げ
  6
Continuous
 62
    92
370
    13
100
AcDbLine
 10
2129.900212468328
 20
2230.000148463895
 30
0.0
 11
2129.900212468328
 21
1643.000148463894
 31
0.0
  0
LINE
  5
195
330
1F
100
AcDbEntity
  8
0-3_仕上げ
  6
Continuous
 62
    92
370
    13
100
AcDbLine
 10
2602.900212468327
 20
2330.000148463894
 30
0.0
 11
2129.900212468328
 21
2330.000148463894
 31
0.0
  0
LINE
  5
196
330
1F
100
AcDbEntity
  8
0-3_仕上げ
  6
Continuous
 62
    92
370
    13
100
AcDbLine
 10
2129.900212468328
 20
2230.000148463895
 30
0.0
 11
2602.900212468327
 21
2230.000148463895
 31
0.0
  0
LINE
  5
197
330
1F
100
AcDbEntity
  8
0-3_仕上げ
  6
Continuous
 62
    92
370
    13
100
AcDbLine
 10
2602.900212468327
 20
2230.000148463895
 30
0.0
 11
2602.900212468327
 21
1643.000148463894
 31
0.0
  0
LINE
  5
198
330
1F
100
AcDbEntity
  8
0-3_仕上げ
  6
Continuous
 62
    92
370
    13
100
AcDbLine
 10
2602.900212468327
 20
2330.000148463894
 30
0.0
 11
2602.900212468327
 21
3288.000148463894
 31
0.0
  0
LINE
  5
199
330
1F
100
AcDbEntity
  8
0-3_仕上げ
  6
Continuous
 62
     7
370
     9
100
AcDbLine
 10
2128.900212468329
 20
3292.000148463894
 30
0.0
 11
2127.400212468327
 21
3290.500148463894
 31
0.0
  0
LINE
  5
19A
330
1F
100
AcDbEntity
  8
0-3_仕上げ
  6
Continuous
 62
     7
370
     9
100
AcDbLine
 10
2603.900212468327
 20
2326.000148463894
 30
0.0
 11
2605.400212468327
 21
2327.500148463895
 31
0.0
  0
LINE
  5
19B
330
1F
100
AcDbEntity
  8
0-3_仕上げ
  6
Continuous
 62
     7
370
     9
100
AcDbLine
 10
2602.900212468326
 20
2330.000148463894
 30
0.0
 11
2605.400212468327
 21
2327.500148463895
 31
0.0
  0
LINE
  5
19C
330
1F
100
AcDbEntity
  8
0-3_仕上げ
  6
Continuous
 62
     7
370
     9
100
AcDbLine
 10
2603.900212468327
 20
3292.000148463894
 30
0.0
 11
2605.400212468327
 21
3290.500148463894
 31
0.0
  0
LINE
  5
19D
330
1F
100
AcDbEntity
  8
0-3_仕上げ
  6
Continuous
 62
     7
370
     9
100
AcDbLine
 10
2128.900212468329
 20
3292.000148463894
 30
0.0
 11
2128.900212468329
 21
3438.000148463894
 31
0.0
  0
LINE
  5
19E
330
1F
100
AcDbEntity
  8
0-3_仕上げ
  6
Continuous
 62
     7
370
     9
100
AcDbLine
 10
2127.400212468327
 20
3290.500148463894
 30
0.0
 11
2127.400212468327
 21
3438.000148463894
 31
0.0
  0
LINE
  5
19F
330
1F
100
AcDbEntity
  8
0-3_仕上げ
  6
Continuous
 62
     7
370
     9
100
AcDbLine
 10
2129.900212468328
 20
3288.000148463894
 30
0.0
 11
2127.400212468327
 21
3290.500148463894
 31
0.0
  0
LINE
  5
1A0
330
1F
100
AcDbEntity
  8
0-3_仕上げ
  6
Continuous
 62
     7
370
     9
100
AcDbLine
 10
2603.900212468327
 20
3292.000148463894
 30
0.0
 11
2603.900212468327
 21
3438.000148463894
 31
0.0
  0
LINE
  5
1A1
330
1F
100
AcDbEntity
  8
0-3_仕上げ
  6
Continuous
 62
     7
370
     9
100
AcDbLine
 10
2603.900212468327
 20
3292.000148463894
 30
0.0
 11
2128.900212468329
 21
3292.000148463894
 31
0.0
  0
LINE
  5
1A2
330
1F
100
AcDbEntity
  8
0-3_仕上げ
  6
Continuous
 62
     7
370
     9
100
AcDbLine
 10
2605.400212468327
 20
3290.500148463894
 30
0.0
 11
2605.400212468327
 21
3438.000148463894
 31
0.0
  0
LINE
  5
1A3
330
1F
100
AcDbEntity
  8
0-3_仕上げ
  6
Continuous
 62
     7
370
     9
100
AcDbLine
 10
2605.400212468327
 20
3290.500148463894
 30
0.0
 11
2602.900212468327
 21
3288.000148463894
 31
0.0
  0
LINE
  5
1A4
330
1F
100
AcDbEntity
  8
0-3_仕上げ
  6
Continuous
 62
     7
370
     9
100
AcDbLine
 10
2603.900212468327
 20
2326.000148463894
 30
0.0
 11
2128.900212468329
 21
2326.000148463894
 31
0.0
  0
LINE
  5
1A5
330
1F
100
AcDbEntity
  8
0-3_仕上げ
  6
Continuous
 62
     7
370
     9
100
AcDbLine
 10
2128.900212468329
 20
2326.000148463894
 30
0.0
 11
2127.400212468327
 21
2327.500148463895
 31
0.0
  0
LINE
  5
1A6
330
1F
100
AcDbEntity
  8
0-3_仕上げ
  6
Continuous
 62
     7
370
     9
100
AcDbLine
 10
2127.400212468327
 20
2327.500148463895
 30
0.0
 11
2129.900212468328
 21
2330.000148463894
 31
0.0
  0
LINE
  5
1A7
330
1F
100
AcDbEntity
  8
0-3_仕上げ
  6
Continuous
 62
     7
370
     9
100
AcDbLine
 10
2603.900212468327
 20
1639.000148463894
 30
0.0
 11
2605.400212468327
 21
1640.500148463894
 31
0.0
  0
LINE
  5
1A8
330
1F
100
AcDbEntity
  8
0-3_仕上げ
  6
Continuous
 62
     7
370
     9
100
AcDbLine
 10
2128.900212468329
 20
1639.000148463894
 30
0.0
 11
2127.400212468327
 21
1640.500148463894
 31
0.0
  0
LINE
  5
1A9
330
1F
100
AcDbEntity
  8
0-3_仕上げ
  6
Continuous
 62
     7
370
     9
100
AcDbLine
 10
2128.900212468329
 20
2234.000148463895
 30
0.0
 11
2127.400212468327
 21
2232.500148463894
 31
0.0
  0
LINE
  5
1AA
330
1F
100
AcDbEntity
  8
0-3_仕上げ
  6
Continuous
 62
     7
370
     9
100
AcDbLine
 10
2603.900212468327
 20
2234.000148463895
 30
0.0
 11
2605.400212468327
 21
2232.500148463894
 31
0.0
  0
LINE
  5
1AB
330
1F
100
AcDbEntity
  8
0-3_仕上げ
  6
Continuous
 62
     7
370
     9
100
AcDbLine
 10
2603.900212468327
 20
2234.000148463895
 30
0.0
 11
2603.900212468327
 21
2326.000148463894
 31
0.0
  0
LINE
  5
1AC
330
1F
100
AcDbEntity
  8
0-3_仕上げ
  6
Continuous
 62
     7
370
     9
100
AcDbLine
 10
2605.400212468327
 20
2232.500148463894
 30
0.0
 11
2605.400212468327
 21
2327.500148463895
 31
0.0
  0
LINE
  5
1AD
330
1F
100
AcDbEntity
  8
0-3_仕上げ
  6
Continuous
 62
     7
370
     9
100
AcDbLine
 10
2605.400212468327
 20
2232.500148463894
 30
0.0
 11
2602.900212468327
 21
2230.000148463895
 31
0.0
  0
LINE
  5
1AE
330
1F
100
AcDbEntity
  8
0-3_仕上げ
  6
Continuous
 62
     7
370
     9
100
AcDbLine
 10
2128.900212468329
 20
2234.000148463895
 30
0.0
 11
2603.900212468327
 21
2234.000148463895
 31
0.0
  0
LINE
  5
1AF
330
1F
100
AcDbEntity
  8
0-3_仕上げ
  6
Continuous
 62
     7
370
     9
100
AcDbLine
 10
2128.900212468329
 20
2234.000148463895
 30
0.0
 11
2128.900212468329
 21
2326.000148463894
 31
0.0
  0
LINE
  5
1B0
330
1F
100
AcDbEntity
  8
0-3_仕上げ
  6
Continuous
 62
     7
370
     9
100
AcDbLine
 10
2127.400212468327
 20
2232.500148463894
 30
0.0
 11
2127.400212468327
 21
2327.500148463895
 31
0.0
  0
LINE
  5
1B1
330
1F
100
AcDbEntity
  8
0-3_仕上げ
  6
Continuous
 62
     7
370
     9
100
AcDbLine
 10
2129.900212468328
 20
2230.000148463895
 30
0.0
 11
2127.400212468327
 21
2232.500148463894
 31
0.0
  0
LINE
  5
1B2
330
1F
100
AcDbEntity
  8
0-3_仕上げ
  6
Continuous
 62
     7
370
     9
100
AcDbLine
 10
2128.900212468329
 20
1443.000148463894
 30
0.0
 11
2128.900212468329
 21
1639.000148463894
 31
0.0
  0
LINE
  5
1B3
330
1F
100
AcDbEntity
  8
0-3_仕上げ
  6
Continuous
 62
     7
370
     9
100
AcDbLine
 10
2127.400212468327
 20
1640.500148463894
 30
0.0
 11
2129.900212468328
 21
1643.000148463894
 31
0.0
  0
LINE
  5
1B4
330
1F
100
AcDbEntity
  8
0-3_仕上げ
  6
Continuous
 62
     7
370
     9
100
AcDbLine
 10
2127.400212468327
 20
1443.000148463894
 30
0.0
 11
2127.400212468327
 21
1640.500148463894
 31
0.0
  0
LINE
  5
1B5
330
1F
100
AcDbEntity
  8
0-3_仕上げ
  6
Continuous
 62
     7
370
     9
100
AcDbLine
 10
2603.900212468327
 20
1639.000148463894
 30
0.0
 11
2128.900212468329
 21
1639.000148463894
 31
0.0
  0
LINE
  5
1B6
330
1F
100
AcDbEntity
  8
0-3_仕上げ
  6
Continuous
 62
     7
370
     9
100
AcDbLine
 10
2603.900212468327
 20
1443.000148463894
 30
0.0
 11
2603.900212468327
 21
1639.000148463894
 31
0.0
  0
LINE
  5
1B7
330
1F
100
AcDbEntity
  8
0-3_仕上げ
  6
Continuous
 62
     7
370
     9
100
AcDbLine
 10
2605.400212468327
 20
1443.000148463894
 30
0.0
 11
2605.400212468327
 21
1640.500148463894
 31
0.0
  0
LINE
  5
1B8
330
1F
100
AcDbEntity
  8
0-3_仕上げ
  6
Continuous
 62
     7
370
     9
100
AcDbLine
 10
2602.900212468326
 20
1643.000148463894
 30
0.0
 11
2605.400212468327
 21
1640.500148463894
 31
0.0
  0
LINE
  5
1B9
330
1F
100
AcDbEntity
  8
0-3_仕上げ
  6
Continuous
 62
     7
370
     9
100
AcDbLine
 10
4757.500339817359
 20
1443.000148463894
 30
0.0
 11
4757.500339817359
 21
3438.000148463894
 31
0.0
  0
LINE
  5
1BA
330
1F
100
AcDbEntity
  8
0-3_仕上げ
  6
Continuous
 62
    92
370
    13
100
AcDbLine
 10
4753.500339817356
 20
2230.000148463895
 30
0.0
 11
4753.500339817356
 21
1643.000148463893
 31
0.0
  0
LINE
  5
1BB
330
1F
100
AcDbEntity
  8
0-3_仕上げ
  6
Continuous
 62
    92
370
    13
100
AcDbLine
 10
4753.500339817356
 20
2330.000148463894
 30
0.0
 11
4753.500339817356
 21
3288.000148463894
 31
0.0
  0
LINE
  5
1BC
330
1F
100
AcDbEntity
  8
0-3_仕上げ
  6
Continuous
 62
     7
370
     9
100
AcDbLine
 10
4754.500339817359
 20
2326.000148463894
 30
0.0
 11
4756.000339817357
 21
2327.500148463895
 31
0.0
  0
LINE
  5
1BD
330
1F
100
AcDbEntity
  8
0-3_仕上げ
  6
Continuous
 62
     7
370
     9
100
AcDbLine
 10
4753.500339817356
 20
2330.000148463894
 30
0.0
 11
4756.000339817357
 21
2327.500148463895
 31
0.0
  0
LINE
  5
1BE
330
1F
100
AcDbEntity
  8
0-3_仕上げ
  6
Continuous
 62
     7
370
     9
100
AcDbLine
 10
4754.500339817359
 20
3292.000148463894
 30
0.0
 11
4756.000339817357
 21
3290.500148463894
 31
0.0
  0
LINE
  5
1BF
330
1F
100
AcDbEntity
  8
0-3_仕上げ
  6
Continuous
 62
     7
370
     9
100
AcDbLine
 10
4754.500339817359
 20
3292.000148463894
 30
0.0
 11
4754.500339817359
 21
3438.000148463894
 31
0.0
  0
LINE
  5
1C0
330
1F
100
AcDbEntity
  8
0-3_仕上げ
  6
Continuous
 62
     7
370
     9
100
AcDbLine
 10
4756.000339817357
 20
3290.500148463894
 30
0.0
 11
4756.000339817357
 21
3438.000148463894
 31
0.0
  0
LINE
  5
1C1
330
1F
100
AcDbEntity
  8
0-3_仕上げ
  6
Continuous
 62
     7
370
     9
100
AcDbLine
 10
4756.000339817357
 20
3290.500148463894
 30
0.0
 11
4753.500339817356
 21
3288.000148463894
 31
0.0
  0
LINE
  5
1C2
330
1F
100
AcDbEntity
  8
0-3_仕上げ
  6
Continuous
 62
     7
370
     9
100
AcDbLine
 10
4754.500339817359
 20
1639.000148463894
 30
0.0
 11
4756.000339817357
 21
1640.500148463894
 31
0.0
  0
LINE
  5
1C3
330
1F
100
AcDbEntity
  8
0-3_仕上げ
  6
Continuous
 62
     7
370
     9
100
AcDbLine
 10
4754.500339817359
 20
2234.000148463895
 30
0.0
 11
4756.000339817357
 21
2232.500148463894
 31
0.0
  0
LINE
  5
1C4
330
1F
100
AcDbEntity
  8
0-3_仕上げ
  6
Continuous
 62
     7
370
     9
100
AcDbLine
 10
4754.500339817359
 20
2234.000148463895
 30
0.0
 11
4754.500339817359
 21
2326.000148463894
 31
0.0
  0
LINE
  5
1C5
330
1F
100
AcDbEntity
  8
0-3_仕上げ
  6
Continuous
 62
     7
370
     9
100
AcDbLine
 10
4756.000339817357
 20
2232.500148463894
 30
0.0
 11
4756.000339817357
 21
2327.500148463895
 31
0.0
  0
LINE
  5
1C6
330
1F
100
AcDbEntity
  8
0-3_仕上げ
  6
Continuous
 62
     7
370
     9
100
AcDbLine
 10
4756.000339817357
 20
2232.500148463894
 30
0.0
 11
4753.500339817356
 21
2230.000148463895
 31
0.0
  0
LINE
  5
1C7
330
1F
100
AcDbEntity
  8
0-3_仕上げ
  6
Continuous
 62
     7
370
     9
100
AcDbLine
 10
4754.500339817359
 20
1443.000148463894
 30
0.0
 11
4754.500339817359
 21
1639.000148463894
 31
0.0
  0
LINE
  5
1C8
330
1F
100
AcDbEntity
  8
0-3_仕上げ
  6
Continuous
 62
     7
370
     9
100
AcDbLine
 10
4756.000339817357
 20
1443.000148463894
 30
0.0
 11
4756.000339817357
 21
1640.500148463894
 31
0.0
  0
LINE
  5
1C9
330
1F
100
AcDbEntity
  8
0-3_仕上げ
  6
Continuous
 62
     7
370
     9
100
AcDbLine
 10
4753.500339817356
 20
1643.000148463894
 30
0.0
 11
4756.000339817357
 21
1640.500148463894
 31
0.0
  0
LINE
  5
1CA
330
1F
100
AcDbEntity
  8
0-3_仕上げ
  6
Continuous
 62
    92
370
    13
100
AcDbLine
 10
4753.500339817356
 20
1643.000148463893
 30
0.0
 11
4361.500339817358
 21
1643.000148463893
 31
0.0
  0
LINE
  5
1CB
330
1F
100
AcDbEntity
  8
0-3_仕上げ
  6
Continuous
 62
    92
370
    13
100
AcDbLine
 10
4753.500339817356
 20
3288.000148463894
 30
0.0
 11
4361.500339817358
 21
3288.000148463894
 31
0.0
  0
LINE
  5
1CC
330
1F
100
AcDbEntity
  8
0-3_仕上げ
  6
Continuous
 62
    92
370
    13
100
AcDbLine
 10
4361.500339817358
 20
2230.000148463895
 30
0.0
 11
4361.500339817358
 21
1643.000148463893
 31
0.0
  0
LINE
  5
1CD
330
1F
100
AcDbEntity
  8
0-3_仕上げ
  6
Continuous
 62
    92
370
    13
100
AcDbLine
 10
4753.500339817356
 20
2330.000148463894
 30
0.0
 11
4361.500339817358
 21
2330.000148463894
 31
0.0
  0
LINE
  5
1CE
330
1F
100
AcDbEntity
  8
0-3_仕上げ
  6
Continuous
 62
    92
370
    13
100
AcDbLine
 10
4361.500339817358
 20
2230.000148463895
 30
0.0
 11
4753.500339817356
 21
2230.000148463895
 31
0.0
  0
LINE
  5
1CF
330
1F
100
AcDbEntity
  8
0-3_仕上げ
  6
Continuous
 62
     7
370
     9
100
AcDbLine
 10
4360.500339817359
 20
3292.000148463894
 30
0.0
 11
4359.000339817359
 21
3290.500148463894
 31
0.0
  0
LINE
  5
1D0
330
1F
100
AcDbEntity
  8
0-3_仕上げ
  6
Continuous
 62
     7
370
     9
100
AcDbLine
 10
4360.500339817359
 20
3292.000148463894
 30
0.0
 11
4360.500339817359
 21
3438.000148463894
 31
0.0
  0
LINE
  5
1D1
330
1F
100
AcDbEntity
  8
0-3_仕上げ
  6
Continuous
 62
     7
370
     9
100
AcDbLine
 10
4359.000339817359
 20
3290.500148463894
 30
0.0
 11
4359.000339817359
 21
3438.000148463894
 31
0.0
  0
LINE
  5
1D2
330
1F
100
AcDbEntity
  8
0-3_仕上げ
  6
Continuous
 62
     7
370
     9
100
AcDbLine
 10
4361.500339817358
 20
3288.000148463894
 30
0.0
 11
4359.000339817359
 21
3290.500148463894
 31
0.0
  0
LINE
  5
1D3
330
1F
100
AcDbEntity
  8
0-3_仕上げ
  6
Continuous
 62
     7
370
     9
100
AcDbLine
 10
4754.500339817359
 20
3292.000148463894
 30
0.0
 11
4360.500339817359
 21
3292.000148463894
 31
0.0
  0
LINE
  5
1D4
330
1F
100
AcDbEntity
  8
0-3_仕上げ
  6
Continuous
 62
     7
370
     9
100
AcDbLine
 10
4754.500339817359
 20
2326.000148463894
 30
0.0
 11
4360.500339817359
 21
2326.000148463894
 31
0.0
  0
LINE
  5
1D5
330
1F
100
AcDbEntity
  8
0-3_仕上げ
  6
Continuous
 62
     7
370
     9
100
AcDbLine
 10
4360.500339817359
 20
2326.000148463894
 30
0.0
 11
4359.000339817359
 21
2327.500148463895
 31
0.0
  0
LINE
  5
1D6
330
1F
100
AcDbEntity
  8
0-3_仕上げ
  6
Continuous
 62
     7
370
     9
100
AcDbLine
 10
4359.000339817359
 20
2327.500148463895
 30
0.0
 11
4361.500339817358
 21
2330.000148463894
 31
0.0
  0
LINE
  5
1D7
330
1F
100
AcDbEntity
  8
0-3_仕上げ
  6
Continuous
 62
     7
370
     9
100
AcDbLine
 10
4360.500339817359
 20
1639.000148463894
 30
0.0
 11
4359.000339817359
 21
1640.500148463894
 31
0.0
  0
LINE
  5
1D8
330
1F
100
AcDbEntity
  8
0-3_仕上げ
  6
Continuous
 62
     7
370
     9
100
AcDbLine
 10
4360.500339817359
 20
2234.000148463895
 30
0.0
 11
4359.000339817359
 21
2232.500148463894
 31
0.0
  0
LINE
  5
1D9
330
1F
100
AcDbEntity
  8
0-3_仕上げ
  6
Continuous
 62
     7
370
     9
100
AcDbLine
 10
4360.500339817359
 20
2234.000148463895
 30
0.0
 11
4754.500339817359
 21
2234.000148463895
 31
0.0
  0
LINE
  5
1DA
330
1F
100
AcDbEntity
  8
0-3_仕上げ
  6
Continuous
 62
     7
370
     9
100
AcDbLine
 10
4360.500339817359
 20
2234.000148463895
 30
0.0
 11
4360.500339817359
 21
2326.000148463894
 31
0.0
  0
LINE
  5
1DB
330
1F
100
AcDbEntity
  8
0-3_仕上げ
  6
Continuous
 62
     7
370
     9
100
AcDbLine
 10
4359.000339817359
 20
2232.500148463894
 30
0.0
 11
4359.000339817359
 21
2327.500148463895
 31
0.0
  0
LINE
  5
1DC
330
1F
100
AcDbEntity
  8
0-3_仕上げ
  6
Continuous
 62
     7
370
     9
100
AcDbLine
 10
4361.500339817358
 20
2230.000148463895
 30
0.0
 11
4359.000339817359
 21
2232.500148463894
 31
0.0
  0
LINE
  5
1DD
330
1F
100
AcDbEntity
  8
0-3_仕上げ
  6
Continuous
 62
     7
370
     9
100
AcDbLine
 10
4360.500339817359
 20
1443.000148463894
 30
0.0
 11
4360.500339817359
 21
1639.000148463894
 31
0.0
  0
LINE
  5
1DE
330
1F
100
AcDbEntity
  8
0-3_仕上げ
  6
Continuous
 62
     7
370
     9
100
AcDbLine
 10
4359.000339817359
 20
1640.500148463894
 30
0.0
 11
4361.500339817358
 21
1643.000148463894
 31
0.0
  0
LINE
  5
1DF
330
1F
100
AcDbEntity
  8
0-3_仕上げ
  6
Continuous
 62
     7
370
     9
100
AcDbLine
 10
4359.000339817359
 20
1443.000148463894
 30
0.0
 11
4359.000339817359
 21
1640.500148463894
 31
0.0
  0
LINE
  5
1E0
330
1F
100
AcDbEntity
  8
0-3_仕上げ
  6
Continuous
 62
     7
370
     9
100
AcDbLine
 10
4754.500339817359
 20
1639.000148463894
 30
0.0
 11
4360.500339817359
 21
1639.000148463894
 31
0.0
  0
LINE
  5
1E1
330
1F
100
AcDbEntity
  8
0-1_通り芯
  6
JWW_CENTER1
 62
   120
370
     5
100
AcDbLine
 10
4308.000339817359
 20
3212.333481479336
 30
0.0
 11
4308.000339817359
 21
3263.666815448452
 31
0.0
  0
LINE
  5
1E2
330
1F
100
AcDbEntity
  8
0-1_通り芯
  6
JWW_CENTER1
 62
   120
370
     5
100
AcDbLine
 10
4333.667006801916
 20
3238.000148463894
 30
0.0
 11
4282.333672832801
 21
3238.000148463894
 31
0.0
  0
CIRCLE
  5
1E3
330
1F
100
AcDbEntity
  8
0-3_仕上げ
  6
Continuous
 62
    92
370
    13
100
AcDbCircle
 10
4308.000339817359
 20
3238.000148463894
 30
0.0
 40
12.50000016109364
  0
CIRCLE
  5
1E4
330
1F
100
AcDbEntity
  8
0-3_仕上げ
  6
Continuous
 62
     7
370
     9
100
AcDbCircle
 10
4308.000339817359
 20
3238.000148463894
 30
0.0
 40
15.00000019331236
  0
LINE
  5
1E5
330
1F
100
AcDbEntity
  8
0-C_ハッチ
  6
JWW_DASHED1
 62
   120
370
     5
100
AcDbLine
 10
4296.57621012715
 20
3243.073536370276
 30
0.0
 11
4302.926951910975
 21
3249.424278154104
 31
0.0
  0
LINE
  5
1E6
330
1F
100
AcDbEntity
  8
0-C_ハッチ
  6
JWW_DASHED1
 62
   120
370
     5
100
AcDbLine
 10
4296.501235423375
 20
3233.099066729867
 30
0.0
 11
4312.901421551385
 21
3249.499252857877
 31
0.0
  0
LINE
  5
1E7
330
1F
100
AcDbEntity
  8
0-C_ハッチ
  6
JWW_DASHED1
 62
   120
370
     5
100
AcDbLine
 10
4300.967754458953
 20
3227.666090828866
 30
0.0
 11
4318.334397452387
 21
3245.032733822299
 31
0.0
  0
LINE
  5
1E8
330
1F
100
AcDbEntity
  8
0-C_ハッチ
  6
JWW_DASHED1
 62
   120
370
     5
100
AcDbLine
 10
4308.722165569316
 20
3225.521007002594
 30
0.0
 11
4320.47948127866
 21
3237.278322711935
 31
0.0
  0
LINE
  5
1E9
330
1F
100
AcDbEntity
  8
F-A_文字
  6
Continuous
 62
     7
370
     9
100
AcDbLine
 10
-3258.399798419025
 20
184.5000148463899
 30
0.0
 11
-5490.000018557986
 21
-3790.000017526987
 31
0.0
  0
LINE
  5
1EA
330
1F
100
AcDbEntity
  8
F-A_文字
  6
Continuous
 62
     7
370
     9
100
AcDbLine
 10
-1026.799671069995
 20
184.5000148463899
 30
0.0
 11
-3258.399798419025
 21
-3790.000017526987
 31
0.0
  0
LINE
  5
1EB
330
1F
100
AcDbEntity
  8
F-A_文字
  6
Continuous
 62
     7
370
     9
100
AcDbLine
 10
1204.800085119301
 20
184.5000148463899
 30
0.0
 11
-1026.79974162023
 21
-3790.000179909371
 31
0.0
  0
LINE
  5
1EC
330
1F
100
AcDbEntity
  8
F-A_文字
  6
Continuous
 62
     7
370
     9
100
AcDbLine
 10
1204.8000851193
 20
-3790.000017526987
 30
0.0
 11
3436.400212468328
 21
184.5000148463899
 31
0.0
  0
LINE
  5
1ED
330
1F
100
AcDbEntity
  8
F-A_文字
  6
Continuous
 62
     7
370
     9
100
AcDbLine
 10
3436.400212468328
 20
-3790.000017526987
 30
0.0
 11
5689.998977248734
 21
184.5000148463899
 31
0.0
  0
LINE
  5
1EE
330
1F
100
AcDbEntity
  8
0-0_補助線
  6
JWW_HOJO
 62
   120
370
     5
100
AcDbLine
 10
-5999.99998453501
 20
790.5001831054692
 30
0.0
 11
5699.998762800888
 21
790.5001831054692
 31
0.0
  0
LINE
  5
1EF
330
1F
100
AcDbEntity
  8
0-0_補助線
  6
JWW_HOJO
 62
   120
370
     5
100
AcDbLine
 10
-5999.99998453501
 20
670.5001831054692
 30
0.0
 11
5699.998762800888
 21
670.5001831054692
 31
0.0
  0
LINE
  5
1F0
330
1F
100
AcDbEntity
  8
0-0_補助線
  6
JWW_HOJO
 62
   120
370
     5
100
AcDbLine
 10
-5999.99998453501
 20
550.5001831054688
 30
0.0
 11
5699.998762800888
 21
550.5001831054688
 31
0.0
  0
LINE
  5
1F1
330
1F
100
AcDbEntity
  8
0-0_補助線
  6
JWW_HOJO
 62
   120
370
     5
100
AcDbLine
 10
-5999.99998453501
 20
430.5001831054688
 30
0.0
 11
5699.998762800888
 21
430.5001831054688
 31
0.0
  0
LINE
  5
1F2
330
1F
100
AcDbEntity
  8
0-0_補助線
  6
JWW_HOJO
 62
   120
370
     5
100
AcDbLine
 10
-5999.99998453501
 20
310.5001831054688
 30
0.0
 11
5699.998762800888
 21
310.5001831054688
 31
0.0
  0
LINE
  5
1F3
330
1F
100
AcDbEntity
  8
0-0_補助線
  6
JWW_HOJO
 62
   120
370
     5
100
AcDbLine
 10
-906.7996710699953
 20
4174.999769056166
 30
0.0
 11
-906.7996710699953
 21
-3790.000179909371
 31
0.0
  0
LINE
  5
1F4
330
1F
100
AcDbEntity
  8
0-0_補助線
  6
JWW_HOJO
 62
   120
370
     5
100
AcDbLine
 10
1324.8000851193
 20
4174.999769056166
 30
0.0
 11
1324.8000851193
 21
-3790.000179909371
 31
0.0
  0
LINE
  5
1F5
330
1F
100
AcDbEntity
  8
0-0_補助線
  6
JWW_HOJO
 62
   120
370
     5
100
AcDbLine
 10
3556.400212468328
 20
4174.999769056166
 30
0.0
 11
3556.400212468328
 21
-3790.000179909371
 31
0.0
  0
LINE
  5
1F6
330
1F
100
AcDbEntity
  8
0-0_補助線
  6
JWW_HOJO
 62
   120
370
     5
100
AcDbLine
 10
5699.998762800888
 20
-3310.000017526988
 30
0.0
 11
-5999.99998453501
 21
-3310.000017526988
 31
0.0
  0
LINE
  5
1F7
330
1F
100
AcDbEntity
  8
0-0_補助線
  6
JWW_HOJO
 62
   120
370
     5
100
AcDbLine
 10
5699.998762800888
 20
-3430.000017526988
 30
0.0
 11
-5999.99998453501
 21
-3430.000017526988
 31
0.0
  0
LINE
  5
1F8
330
1F
100
AcDbEntity
  8
0-0_補助線
  6
JWW_HOJO
 62
   120
370
     5
100
AcDbLine
 10
5699.998762800888
 20
-3550.000017526988
 30
0.0
 11
-5999.99998453501
 21
-3550.000017526988
 31
0.0
  0
LINE
  5
1F9
330
1F
100
AcDbEntity
  8
0-0_補助線
  6
JWW_HOJO
 62
   120
370
     5
100
AcDbLine
 10
5699.998762800888
 20
-3670.000017526988
 30
0.0
 11
-5999.99998453501
 21
-3670.000017526988
 31
0.0
  0
LINE
  5
1FA
330
1F
100
AcDbEntity
  8
0-0_補助線
  6
JWW_HOJO
 62
   120
370
     5
100
AcDbLine
 10
-3138.399798419025
 20
4174.999769056166
 30
0.0
 11
-3138.399798419025
 21
-3790.000179909371
 31
0.0
  0
LINE
  5
1FB
330
1F
100
AcDbEntity
  8
0-0_補助線
  6
JWW_HOJO
 62
   120
370
     5
100
AcDbLine
 10
-5370.000018557986
 20
4174.999769056166
 30
0.0
 11
-5370.000018557986
 21
-3790.000179909371
 31
0.0
  0
MTEXT
  5
1FC
330
1F
100
AcDbEntity
  8
0-A_文字
  6
Continuous
 62
     7
370
     9
100
AcDbMText
 10
-5370.000018557986
 20
661.5751831054688
 30
0.0
 40
57.15000000000003
 41
900.0
 46
0.0
 71
     7
 72
     1
  1
{\fＭＳ ゴシック|b0|i0|c128|p49;枠外幅 848mm（DW=793mm）}
 73
     1
 44
1.0
  0
MTEXT
  5
1FD
330
1F
100
AcDbEntity
  8
0-A_文字
  6
Continuous
 62
     7
370
     9
100
AcDbMText
 10
-3138.399798419025
 20
661.5751831054688
 30
0.0
 40
57.15000000000003
 41
900.0
 46
0.0
 71
     7
 72
     1
  1
{\fＭＳ ゴシック|b0|i0|c128|p49;枠外幅 778mm（DW=723mm）}
 73
     1
 44
1.0
  0
MTEXT
  5
1FE
330
1F
100
AcDbEntity
  8
0-A_文字
  6
Continuous
 62
     7
370
     9
100
AcDbMText
 10
-906.7996710699953
 20
661.5751831054688
 30
0.0
 40
57.15000000000003
 41
900.0
 46
0.0
 71
     7
 72
     1
  1
{\fＭＳ ゴシック|b0|i0|c128|p49;枠外幅 758mm（DW=703mm）}
 73
     1
 44
1.0
  0
MTEXT
  5
1FF
330
1F
100
AcDbEntity
  8
0-A_文字
  6
Continuous
 62
     7
370
     9
100
AcDbMText
 10
1324.8000851193
 20
661.5751831054688
 30
0.0
 40
57.15000000000003
 41
900.0
 46
0.0
 71
     7
 72
     1
  1
{\fＭＳ ゴシック|b0|i0|c128|p49;枠外幅 735mm（DW=680mm）}
 73
     1
 44
1.0
  0
MTEXT
  5
200
330
1F
100
AcDbEntity
  8
0-A_文字
  6
Continuous
 62
     7
370
     9
100
AcDbMText
 10
3556.400212468327
 20
661.5751831054688
 30
0.0
 40
57.15000000000003
 41
900.0
 46
0.0
 71
     7
 72
     1
  1
{\fＭＳ ゴシック|b0|i0|c128|p49;枠外幅 654mm（DW=599mm）}
 73
     1
 44
1.0
  0
LINE
  5
201
330
1F
100
AcDbEntity
  8
0-A_文字
  6
Continuous
 62
     7
370
     9
100
AcDbLine
 10
3476.400212468328
 20
3924.999818544131
 30
0.0
 11
3476.400212468328
 21
3774.999818544131
 31
0.0
  0
LINE
  5
202
330
1F
100
AcDbEntity
  8
0-A_文字
  6
Continuous
 62
     7
370
     9
100
AcDbLine
 10
3486.400212468329
 20
3914.999818544132
 30
0.0
 11
3486.400212468329
 21
3784.999818544131
 31
0.0
  0
MTEXT
  5
203
330
1F
100
AcDbEntity
  8
0-A_文字
  6
Continuous
 62
     7
370
     9
100
AcDbMText
 10
3541.062920160016
 20
3798.861818544131
 30
0.0
 40
77.724
 41
510.0
 46
0.0
 71
     7
 72
     1
  1
{\fＭＳ ゴシック|b0|i0|c128|p49;トイレドア}
 73
     1
 44
1.0
  0
LINE
  5
204
330
1F
100
AcDbEntity
  8
0-A_文字
  6
Continuous
 62
     7
370
     9
100
AcDbLine
 10
3476.400212468328
 20
3924.999818544131
 30
0.0
 11
4107.433850061878
 21
3924.999818544131
 31
0.0
  0
LINE
  5
205
330
1F
100
AcDbEntity
  8
0-A_文字
  6
Continuous
 62
     7
370
     9
100
AcDbLine
 10
4107.433850061878
 20
3924.999818544131
 30
0.0
 11
4107.433850061878
 21
3774.999818544131
 31
0.0
  0
LINE
  5
206
330
1F
100
AcDbEntity
  8
0-A_文字
  6
Continuous
 62
     7
370
     9
100
AcDbLine
 10
3476.400212468328
 20
3774.999818544131
 30
0.0
 11
4107.433850061878
 21
3774.999818544131
 31
0.0
  0
LINE
  5
207
330
1F
100
AcDbEntity
  8
0-A_文字
  6
Continuous
 62
     7
370
     9
100
AcDbLine
 10
3486.400212468329
 20
3784.999818544131
 30
0.0
 11
4097.433850061877
 21
3784.999818544131
 31
0.0
  0
LINE
  5
208
330
1F
100
AcDbEntity
  8
0-A_文字
  6
Continuous
 62
     7
370
     9
100
AcDbLine
 10
4097.433850061877
 20
3914.999818544132
 30
0.0
 11
4097.433850061877
 21
3784.999818544131
 31
0.0
  0
LINE
  5
209
330
1F
100
AcDbEntity
  8
0-A_文字
  6
Continuous
 62
     7
370
     9
100
AcDbLine
 10
3486.400212468329
 20
3914.999818544132
 30
0.0
 11
4097.433850061877
 21
3914.999818544132
 31
0.0
  0
LINE
  5
20A
330
1F
100
AcDbEntity
  8
0-0_補助線
  6
JWW_HOJO
 62
   120
370
     5
100
AcDbLine
 10
5699.998762800888
 20
-3190.000017526988
 30
0.0
 11
-5999.99998453501
 21
-3190.000017526988
 31
0.0
  0
MTEXT
  5
20B
330
1F
100
AcDbEntity
  8
F-A_文字
  6
Continuous
 62
     7
370
     0
100
AcDbMText
 10
4726.249126529666
 20
-3938.071010139966
 30
0.0
 40
78.86699999999999
 41
517.5
 46
0.0
 71
     7
 72
     1
  1
{\fＭＳ ゴシック|b0|i0|c128|p49;2021.04.01}
 73
     1
 44
1.0
  0
LINE
  5
20C
330
1F
100
AcDbEntity
  8
F-0_補助線
  6
JWW_HOJO
 62
   200
370
    20
100
AcDbLine
 10
-5999.99998453501
 20
4064.999901024072
 30
0.0
 11
5689.998977248734
 21
4064.999901024072
 31
0.0
  0
LINE
  5
20D
330
1F
100
AcDbEntity
  8
F-0_補助線
  6
JWW_HOJO
 62
   200
370
    20
100
AcDbLine
 10
-5999.99998453501
 20
84.49993236644843
 30
0.0
 11
5689.998977248734
 21
84.49993236644843
 31
0.0
  0
LINE
  5
20E
330
1F
100
AcDbEntity
  8
0-7
  6
JWW_CENTER2
 62
     7
370
     9
100
AcDbLine
 10
-1713.799671069996
 20
2440.500148463894
 30
0.0
 11
-2436.799671069995
 21
1443.000148463894
 31
0.0
  0
LINE
  5
20F
330
1F
100
AcDbEntity
  8
0-7
  6
JWW_CENTER2
 62
     7
370
     9
100
AcDbLine
 10
-2436.799671069995
 20
3438.000148463894
 30
0.0
 11
-1713.799671069996
 21
2440.500148463894
 31
0.0
  0
LINE
  5
210
330
1F
100
AcDbEntity
  8
0-7
  6
JWW_CENTER2
 62
     7
370
     9
100
AcDbLine
 10
2706.400212468327
 20
2440.500148463894
 30
0.0
 11
2026.400212468328
 21
1443.000148463894
 31
0.0
  0
LINE
  5
211
330
1F
100
AcDbEntity
  8
0-7
  6
JWW_CENTER2
 62
     7
370
     9
100
AcDbLine
 10
2026.400212468328
 20
3438.000148463894
 30
0.0
 11
2706.400212468327
 21
2440.500148463894
 31
0.0
  0
LINE
  5
212
330
1F
100
AcDbEntity
  8
0-7
  6
JWW_CENTER2
 62
     7
370
     9
100
AcDbLine
 10
497.8000851192985
 20
2440.500148463894
 30
0.0
 11
-205.1999148806999
 21
1443.000148463894
 31
0.0
  0
LINE
  5
213
330
1F
100
AcDbEntity
  8
0-7
  6
JWW_CENTER2
 62
     7
370
     9
100
AcDbLine
 10
-205.1999148806999
 20
3438.000148463894
 30
0.0
 11
497.8000851192985
 21
2440.500148463894
 31
0.0
  0
LINE
  5
214
330
1F
100
AcDbEntity
  8
0-7
  6
JWW_CENTER2
 62
     7
370
     9
100
AcDbLine
 10
-3875.399798419023
 20
2440.500148463894
 30
0.0
 11
-4668.399798419025
 21
1443.000148463894
 31
0.0
  0
LINE
  5
215
330
1F
100
AcDbEntity
  8
0-7
  6
JWW_CENTER2
 62
     7
370
     9
100
AcDbLine
 10
-4668.399798419025
 20
3438.000148463894
 30
0.0
 11
-3875.399798419023
 21
2440.500148463894
 31
0.0
  0
LINE
  5
216
330
1F
100
AcDbEntity
  8
0-7
  6
JWW_CENTER2
 62
     7
370
     9
100
AcDbLine
 10
4857.000339817358
 20
2440.500148463894
 30
0.0
 11
4258.000339817356
 21
1443.000148463894
 31
0.0
  0
LINE
  5
217
330
1F
100
AcDbEntity
  8
0-7
  6
JWW_CENTER2
 62
     7
370
     9
100
AcDbLine
 10
4258.000339817356
 20
3438.000148463894
 30
0.0
 11
4857.000339817358
 21
2440.500148463894
 31
0.0
  0
MTEXT
  5
218
330
1F
100
AcDbEntity
  8
0-A_文字
  6
Continuous
 62
     7
370
     9
100
AcDbMText
 10
-5370.000018557986
 20
541.5751831054688
 30
0.0
 40
57.15
 41
675.0
 46
0.0
 71
     7
 72
     1
  1
{\fＭＳ ゴシック|b0|i0|c128|p49;落とし込み中帯框組}
 73
     1
 44
1.0
  0
MTEXT
  5
219
330
1F
100
AcDbEntity
  8
0-A_文字
  6
Continuous
 62
     7
370
     9
100
AcDbMText
 10
-3138.399798419025
 20
541.5751831054688
 30
0.0
 40
57.15
 41
675.0
 46
0.0
 71
     7
 72
     1
  1
{\fＭＳ ゴシック|b0|i0|c128|p49;落とし込み中帯框組}
 73
     1
 44
1.0
  0
MTEXT
  5
21A
330
1F
100
AcDbEntity
  8
0-A_文字
  6
Continuous
 62
     7
370
     9
100
AcDbMText
 10
-906.7996710699953
 20
541.5751831054688
 30
0.0
 40
57.15
 41
675.0
 46
0.0
 71
     7
 72
     1
  1
{\fＭＳ ゴシック|b0|i0|c128|p49;落とし込み中帯框組}
 73
     1
 44
1.0
  0
MTEXT
  5
21B
330
1F
100
AcDbEntity
  8
0-A_文字
  6
Continuous
 62
     7
370
     9
100
AcDbMText
 10
1324.8000851193
 20
541.5751831054688
 30
0.0
 40
57.15
 41
675.0
 46
0.0
 71
     7
 72
     1
  1
{\fＭＳ ゴシック|b0|i0|c128|p49;落とし込み中帯框組}
 73
     1
 44
1.0
  0
MTEXT
  5
21C
330
1F
100
AcDbEntity
  8
0-A_文字
  6
Continuous
 62
     7
370
     9
100
AcDbMText
 10
3556.400212468328
 20
541.5751831054693
 30
0.0
 40
57.15
 41
675.0
 46
0.0
 71
     7
 72
     1
  1
{\fＭＳ ゴシック|b0|i0|c128|p49;落とし込み中帯框組}
 73
     1
 44
1.0
  0
MTEXT
  5
21D
330
1F
100
AcDbEntity
  8
0-A_文字
  6
Continuous
 62
     7
370
     9
100
AcDbMText
 10
3556.400212468328
 20
421.5751831054692
 30
0.0
 40
57.15
 41
375.0
 46
0.0
 71
     7
 72
     1
  1
{\fＭＳ ゴシック|b0|i0|c128|p49;スコープ付}
 73
     1
 44
1.0
  0
LINE
  5
21E
330
1F
100
AcDbEntity
  8
0-1_通り芯
  6
JWW_CENTER1
 62
   120
370
     5
100
AcDbLine
 10
-4662.399798419026
 20
2400.500148463893
 30
0.0
 11
-4472.399798419027
 21
2400.500148463893
 31
0.0
  0
LINE
  5
21F
330
1F
100
AcDbEntity
  8
0-1_通り芯
  6
JWW_CENTER1
 62
   120
370
     5
100
AcDbLine
 10
-4617.399798419026
 20
2524.500148463892
 30
0.0
 11
-4617.399798419026
 21
2314.500148463893
 31
0.0
  0
ARC
  5
220
330
1F
100
AcDbEntity
  8
レバー
  6
Continuous
 62
   120
370
     5
100
AcDbCircle
 10
-4617.399798419026
 20
2400.500148463893
 30
0.0
 40
24.5500000000001
100
AcDbArc
 50
27.93254752189982
 51
332.0674524191729
  0
ARC
  5
221
330
1F
100
AcDbEntity
  8
レバー
  6
Continuous
 62
   120
370
     5
100
AcDbCircle
 10
-4617.399798419026
 20
2400.500148463893
 30
0.0
 40
10.99999999999989
100
AcDbArc
 50
59.72735868109907
 51
300.2726413189009
  0
ARC
  5
222
330
1F
100
AcDbEntity
  8
レバー
  6
Continuous
 62
    92
370
    13
100
AcDbCircle
 10
-4617.399798419026
 20
2400.500148463893
 30
0.0
 40
9.500260477871905
100
AcDbArc
 50
90.0
 51
270.0
  0
LINE
  5
223
330
1F
100
AcDbEntity
  8
レバー
  6
Continuous
 62
    92
370
    13
100
AcDbLine
 10
-4617.399798419026
 20
2410.000148463893
 30
0.0
 11
-4598.399799029926
 21
2410.000148463893
 31
0.0
  0
LINE
  5
224
330
1F
100
AcDbEntity
  8
レバー
  6
Continuous
 62
    92
370
    13
100
AcDbLine
 10
-4617.399798419026
 20
2391.000148463893
 30
0.0
 11
-4598.399799029926
 21
2391.000148463893
 31
0.0
  0
LINE
  5
225
330
1F
100
AcDbEntity
  8
レバー
  6
Continuous
 62
    92
370
    13
100
AcDbLine
 10
-4597.399798866026
 20
2412.000148486294
 30
0.0
 11
-4493.399800445525
 21
2412.000148486294
 31
0.0
  0
LINE
  5
226
330
1F
100
AcDbEntity
  8
レバー
  6
Continuous
 62
    92
370
    13
100
AcDbLine
 10
-4493.399800445525
 20
2389.000148441593
 30
0.0
 11
-4597.399798866026
 21
2389.000148441593
 31
0.0
  0
LINE
  5
227
330
1F
100
AcDbEntity
  8
レバー
  6
Continuous
 62
    92
370
    13
100
AcDbLine
 10
-4598.399799029926
 20
2390.000148605493
 30
0.0
 11
-4597.399798866026
 21
2389.000148441593
 31
0.0
  0
LINE
  5
228
330
1F
100
AcDbEntity
  8
レバー
  6
Continuous
 62
   120
370
     5
100
AcDbLine
 10
-4597.399798866026
 20
2389.000148441593
 30
0.0
 11
-4597.399798866026
 21
2412.000148486294
 31
0.0
  0
LINE
  5
229
330
1F
100
AcDbEntity
  8
レバー
  6
Continuous
 62
   120
370
     5
100
AcDbLine
 10
-4493.399800445525
 20
2412.000148486294
 30
0.0
 11
-4493.399800445525
 21
2389.000148441593
 31
0.0
  0
LINE
  5
22A
330
1F
100
AcDbEntity
  8
レバー
  6
Continuous
 62
    92
370
    13
100
AcDbLine
 10
-4598.399799029926
 20
2411.000148322293
 30
0.0
 11
-4597.399798866026
 21
2412.000148486193
 31
0.0
  0
LINE
  5
22B
330
1F
100
AcDbEntity
  8
レバー
  6
Continuous
 62
    92
370
    13
100
AcDbLine
 10
-4598.399799029926
 20
2390.000148605493
 30
0.0
 11
-4598.399799029926
 21
2411.000148322394
 31
0.0
  0
LINE
  5
22C
330
1F
100
AcDbEntity
  8
レバー
  6
Continuous
 62
    92
370
    13
100
AcDbLine
 10
-4492.399800281625
 20
2390.000148605493
 30
0.0
 11
-4493.399800445525
 21
2389.000148441593
 31
0.0
  0
LINE
  5
22D
330
1F
100
AcDbEntity
  8
レバー
  6
Continuous
 62
    92
370
    13
100
AcDbLine
 10
-4492.399800281625
 20
2411.000148322293
 30
0.0
 11
-4493.399800445525
 21
2412.000148486193
 31
0.0
  0
LINE
  5
22E
330
1F
100
AcDbEntity
  8
レバー
  6
Continuous
 62
    92
370
    13
100
AcDbLine
 10
-4492.399800281625
 20
2390.000148605493
 30
0.0
 11
-4492.399800281625
 21
2411.000148322394
 31
0.0
  0
LINE
  5
22F
330
1F
100
AcDbEntity
  8
0-1_通り芯
  6
JWW_CENTER1
 62
   120
370
     5
100
AcDbLine
 10
-2430.799671069995
 20
2400.500148463893
 30
0.0
 11
-2240.799671069998
 21
2400.500148463893
 31
0.0
  0
LINE
  5
230
330
1F
100
AcDbEntity
  8
0-1_通り芯
  6
JWW_CENTER1
 62
   120
370
     5
100
AcDbLine
 10
-2385.799671069995
 20
2524.500148463892
 30
0.0
 11
-2385.799671069995
 21
2314.500148463893
 31
0.0
  0
ARC
  5
231
330
1F
100
AcDbEntity
  8
レバー
  6
Continuous
 62
   120
370
     5
100
AcDbCircle
 10
-2385.799671069995
 20
2400.500148463893
 30
0.0
 40
24.5500000000001
100
AcDbArc
 50
27.93254752189982
 51
332.0674524191729
  0
ARC
  5
232
330
1F
100
AcDbEntity
  8
レバー
  6
Continuous
 62
   120
370
     5
100
AcDbCircle
 10
-2385.799671069995
 20
2400.500148463893
 30
0.0
 40
10.99999999999989
100
AcDbArc
 50
59.72735868109907
 51
300.2726413189009
  0
ARC
  5
233
330
1F
100
AcDbEntity
  8
レバー
  6
Continuous
 62
    92
370
    13
100
AcDbCircle
 10
-2385.799671069995
 20
2400.500148463893
 30
0.0
 40
9.500260477871905
100
AcDbArc
 50
90.0
 51
270.0
  0
LINE
  5
234
330
1F
100
AcDbEntity
  8
レバー
  6
Continuous
 62
    92
370
    13
100
AcDbLine
 10
-2385.799671069995
 20
2410.000148463893
 30
0.0
 11
-2366.799671680896
 21
2410.000148463893
 31
0.0
  0
LINE
  5
235
330
1F
100
AcDbEntity
  8
レバー
  6
Continuous
 62
    92
370
    13
100
AcDbLine
 10
-2385.799671069995
 20
2391.000148463893
 30
0.0
 11
-2366.799671680896
 21
2391.000148463893
 31
0.0
  0
LINE
  5
236
330
1F
100
AcDbEntity
  8
レバー
  6
Continuous
 62
    92
370
    13
100
AcDbLine
 10
-2365.799671516996
 20
2412.000148486294
 30
0.0
 11
-2261.799673096496
 21
2412.000148486294
 31
0.0
  0
LINE
  5
237
330
1F
100
AcDbEntity
  8
レバー
  6
Continuous
 62
    92
370
    13
100
AcDbLine
 10
-2261.799673096496
 20
2389.000148441593
 30
0.0
 11
-2365.799671516996
 21
2389.000148441593
 31
0.0
  0
LINE
  5
238
330
1F
100
AcDbEntity
  8
レバー
  6
Continuous
 62
    92
370
    13
100
AcDbLine
 10
-2366.799671680896
 20
2390.000148605493
 30
0.0
 11
-2365.799671516996
 21
2389.000148441593
 31
0.0
  0
LINE
  5
239
330
1F
100
AcDbEntity
  8
レバー
  6
Continuous
 62
   120
370
     5
100
AcDbLine
 10
-2365.799671516996
 20
2389.000148441593
 30
0.0
 11
-2365.799671516996
 21
2412.000148486294
 31
0.0
  0
LINE
  5
23A
330
1F
100
AcDbEntity
  8
レバー
  6
Continuous
 62
   120
370
     5
100
AcDbLine
 10
-2261.799673096496
 20
2412.000148486294
 30
0.0
 11
-2261.799673096496
 21
2389.000148441593
 31
0.0
  0
LINE
  5
23B
330
1F
100
AcDbEntity
  8
レバー
  6
Continuous
 62
    92
370
    13
100
AcDbLine
 10
-2366.799671680896
 20
2411.000148322293
 30
0.0
 11
-2365.799671516996
 21
2412.000148486193
 31
0.0
  0
LINE
  5
23C
330
1F
100
AcDbEntity
  8
レバー
  6
Continuous
 62
    92
370
    13
100
AcDbLine
 10
-2366.799671680896
 20
2390.000148605493
 30
0.0
 11
-2366.799671680896
 21
2411.000148322394
 31
0.0
  0
LINE
  5
23D
330
1F
100
AcDbEntity
  8
レバー
  6
Continuous
 62
    92
370
    13
100
AcDbLine
 10
-2260.799672932596
 20
2390.000148605493
 30
0.0
 11
-2261.799673096496
 21
2389.000148441593
 31
0.0
  0
LINE
  5
23E
330
1F
100
AcDbEntity
  8
レバー
  6
Continuous
 62
    92
370
    13
100
AcDbLine
 10
-2260.799672932596
 20
2411.000148322293
 30
0.0
 11
-2261.799673096496
 21
2412.000148486193
 31
0.0
  0
LINE
  5
23F
330
1F
100
AcDbEntity
  8
レバー
  6
Continuous
 62
    92
370
    13
100
AcDbLine
 10
-2260.799672932596
 20
2390.000148605493
 30
0.0
 11
-2260.799672932596
 21
2411.000148322394
 31
0.0
  0
LINE
  5
240
330
1F
100
AcDbEntity
  8
0-1_通り芯
  6
JWW_CENTER1
 62
   120
370
     5
100
AcDbLine
 10
-199.1999148807002
 20
2400.500148463893
 30
0.0
 11
-9.199914880702522
 21
2400.500148463893
 31
0.0
  0
LINE
  5
241
330
1F
100
AcDbEntity
  8
0-1_通り芯
  6
JWW_CENTER1
 62
   120
370
     5
100
AcDbLine
 10
-154.1999148807002
 20
2524.500148463892
 30
0.0
 11
-154.1999148807002
 21
2314.500148463893
 31
0.0
  0
ARC
  5
242
330
1F
100
AcDbEntity
  8
レバー
  6
Continuous
 62
   120
370
     5
100
AcDbCircle
 10
-154.1999148807002
 20
2400.500148463893
 30
0.0
 40
24.5500000000001
100
AcDbArc
 50
27.93254752189982
 51
332.0674524191729
  0
ARC
  5
243
330
1F
100
AcDbEntity
  8
レバー
  6
Continuous
 62
   120
370
     5
100
AcDbCircle
 10
-154.1999148807002
 20
2400.500148463893
 30
0.0
 40
10.99999999999989
100
AcDbArc
 50
59.72735868109907
 51
300.2726413189009
  0
ARC
  5
244
330
1F
100
AcDbEntity
  8
レバー
  6
Continuous
 62
    92
370
    13
100
AcDbCircle
 10
-154.1999148807002
 20
2400.500148463893
 30
0.0
 40
9.500260477871905
100
AcDbArc
 50
90.0
 51
270.0
  0
LINE
  5
245
330
1F
100
AcDbEntity
  8
レバー
  6
Continuous
 62
    92
370
    13
100
AcDbLine
 10
-154.1999148807002
 20
2410.000148463893
 30
0.0
 11
-135.1999154916004
 21
2410.000148463893
 31
0.0
  0
LINE
  5
246
330
1F
100
AcDbEntity
  8
レバー
  6
Continuous
 62
    92
370
    13
100
AcDbLine
 10
-154.1999148807002
 20
2391.000148463893
 30
0.0
 11
-135.1999154916004
 21
2391.000148463893
 31
0.0
  0
LINE
  5
247
330
1F
100
AcDbEntity
  8
レバー
  6
Continuous
 62
    92
370
    13
100
AcDbLine
 10
-134.1999153277004
 20
2412.000148486294
 30
0.0
 11
-30.19991690720019
 21
2412.000148486294
 31
0.0
  0
LINE
  5
248
330
1F
100
AcDbEntity
  8
レバー
  6
Continuous
 62
    92
370
    13
100
AcDbLine
 10
-30.19991690720019
 20
2389.000148441593
 30
0.0
 11
-134.1999153277004
 21
2389.000148441593
 31
0.0
  0
LINE
  5
249
330
1F
100
AcDbEntity
  8
レバー
  6
Continuous
 62
    92
370
    13
100
AcDbLine
 10
-135.1999154916004
 20
2390.000148605493
 30
0.0
 11
-134.1999153277004
 21
2389.000148441593
 31
0.0
  0
LINE
  5
24A
330
1F
100
AcDbEntity
  8
レバー
  6
Continuous
 62
   120
370
     5
100
AcDbLine
 10
-134.1999153277004
 20
2389.000148441593
 30
0.0
 11
-134.1999153277004
 21
2412.000148486294
 31
0.0
  0
LINE
  5
24B
330
1F
100
AcDbEntity
  8
レバー
  6
Continuous
 62
   120
370
     5
100
AcDbLine
 10
-30.19991690720019
 20
2412.000148486294
 30
0.0
 11
-30.19991690720019
 21
2389.000148441593
 31
0.0
  0
LINE
  5
24C
330
1F
100
AcDbEntity
  8
レバー
  6
Continuous
 62
    92
370
    13
100
AcDbLine
 10
-135.1999154916004
 20
2411.000148322293
 30
0.0
 11
-134.1999153277004
 21
2412.000148486193
 31
0.0
  0
LINE
  5
24D
330
1F
100
AcDbEntity
  8
レバー
  6
Continuous
 62
    92
370
    13
100
AcDbLine
 10
-135.1999154916004
 20
2390.000148605493
 30
0.0
 11
-135.1999154916004
 21
2411.000148322394
 31
0.0
  0
LINE
  5
24E
330
1F
100
AcDbEntity
  8
レバー
  6
Continuous
 62
    92
370
    13
100
AcDbLine
 10
-29.19991674330021
 20
2390.000148605493
 30
0.0
 11
-30.19991690720019
 21
2389.000148441593
 31
0.0
  0
LINE
  5
24F
330
1F
100
AcDbEntity
  8
レバー
  6
Continuous
 62
    92
370
    13
100
AcDbLine
 10
-29.19991674330021
 20
2411.000148322293
 30
0.0
 11
-30.19991690720019
 21
2412.000148486193
 31
0.0
  0
LINE
  5
250
330
1F
100
AcDbEntity
  8
レバー
  6
Continuous
 62
    92
370
    13
100
AcDbLine
 10
-29.19991674330021
 20
2390.000148605493
 30
0.0
 11
-29.19991674330021
 21
2411.000148322394
 31
0.0
  0
LINE
  5
251
330
1F
100
AcDbEntity
  8
0-1_通り芯
  6
JWW_CENTER1
 62
   120
370
     5
100
AcDbLine
 10
2032.400212468328
 20
2400.500148463893
 30
0.0
 11
2222.400212468326
 21
2400.500148463893
 31
0.0
  0
LINE
  5
252
330
1F
100
AcDbEntity
  8
0-1_通り芯
  6
JWW_CENTER1
 62
   120
370
     5
100
AcDbLine
 10
2077.400212468328
 20
2524.500148463892
 30
0.0
 11
2077.400212468328
 21
2314.500148463893
 31
0.0
  0
ARC
  5
253
330
1F
100
AcDbEntity
  8
レバー
  6
Continuous
 62
   120
370
     5
100
AcDbCircle
 10
2077.400212468328
 20
2400.500148463893
 30
0.0
 40
24.5500000000001
100
AcDbArc
 50
27.93254752189982
 51
332.0674524191729
  0
ARC
  5
254
330
1F
100
AcDbEntity
  8
レバー
  6
Continuous
 62
   120
370
     5
100
AcDbCircle
 10
2077.400212468328
 20
2400.500148463893
 30
0.0
 40
10.99999999999989
100
AcDbArc
 50
59.72735868109907
 51
300.2726413189009
  0
ARC
  5
255
330
1F
100
AcDbEntity
  8
レバー
  6
Continuous
 62
    92
370
    13
100
AcDbCircle
 10
2077.400212468328
 20
2400.500148463893
 30
0.0
 40
9.500260477871905
100
AcDbArc
 50
90.0
 51
270.0
  0
LINE
  5
256
330
1F
100
AcDbEntity
  8
レバー
  6
Continuous
 62
    92
370
    13
100
AcDbLine
 10
2077.400212468328
 20
2410.000148463893
 30
0.0
 11
2096.400211857428
 21
2410.000148463893
 31
0.0
  0
LINE
  5
257
330
1F
100
AcDbEntity
  8
レバー
  6
Continuous
 62
    92
370
    13
100
AcDbLine
 10
2077.400212468328
 20
2391.000148463893
 30
0.0
 11
2096.400211857428
 21
2391.000148463893
 31
0.0
  0
LINE
  5
258
330
1F
100
AcDbEntity
  8
レバー
  6
Continuous
 62
    92
370
    13
100
AcDbLine
 10
2097.400212021328
 20
2412.000148486294
 30
0.0
 11
2201.400210441828
 21
2412.000148486294
 31
0.0
  0
LINE
  5
259
330
1F
100
AcDbEntity
  8
レバー
  6
Continuous
 62
    92
370
    13
100
AcDbLine
 10
2201.400210441828
 20
2389.000148441593
 30
0.0
 11
2097.400212021328
 21
2389.000148441593
 31
0.0
  0
LINE
  5
25A
330
1F
100
AcDbEntity
  8
レバー
  6
Continuous
 62
    92
370
    13
100
AcDbLine
 10
2096.400211857428
 20
2390.000148605493
 30
0.0
 11
2097.400212021328
 21
2389.000148441593
 31
0.0
  0
LINE
  5
25B
330
1F
100
AcDbEntity
  8
レバー
  6
Continuous
 62
   120
370
     5
100
AcDbLine
 10
2097.400212021328
 20
2389.000148441593
 30
0.0
 11
2097.400212021328
 21
2412.000148486294
 31
0.0
  0
LINE
  5
25C
330
1F
100
AcDbEntity
  8
レバー
  6
Continuous
 62
   120
370
     5
100
AcDbLine
 10
2201.400210441828
 20
2412.000148486294
 30
0.0
 11
2201.400210441828
 21
2389.000148441593
 31
0.0
  0
LINE
  5
25D
330
1F
100
AcDbEntity
  8
レバー
  6
Continuous
 62
    92
370
    13
100
AcDbLine
 10
2096.400211857428
 20
2411.000148322293
 30
0.0
 11
2097.400212021328
 21
2412.000148486193
 31
0.0
  0
LINE
  5
25E
330
1F
100
AcDbEntity
  8
レバー
  6
Continuous
 62
    92
370
    13
100
AcDbLine
 10
2096.400211857428
 20
2390.000148605493
 30
0.0
 11
2096.400211857428
 21
2411.000148322394
 31
0.0
  0
LINE
  5
25F
330
1F
100
AcDbEntity
  8
レバー
  6
Continuous
 62
    92
370
    13
100
AcDbLine
 10
2202.400210605728
 20
2390.000148605493
 30
0.0
 11
2201.400210441828
 21
2389.000148441593
 31
0.0
  0
LINE
  5
260
330
1F
100
AcDbEntity
  8
レバー
  6
Continuous
 62
    92
370
    13
100
AcDbLine
 10
2202.400210605728
 20
2411.000148322293
 30
0.0
 11
2201.400210441828
 21
2412.000148486193
 31
0.0
  0
LINE
  5
261
330
1F
100
AcDbEntity
  8
レバー
  6
Continuous
 62
    92
370
    13
100
AcDbLine
 10
2202.400210605728
 20
2390.000148605493
 30
0.0
 11
2202.400210605728
 21
2411.000148322394
 31
0.0
  0
LINE
  5
262
330
1F
100
AcDbEntity
  8
0-1_通り芯
  6
JWW_CENTER1
 62
   120
370
     5
100
AcDbLine
 10
4264.000339817356
 20
2400.500148463893
 30
0.0
 11
4454.000339817354
 21
2400.500148463893
 31
0.0
  0
LINE
  5
263
330
1F
100
AcDbEntity
  8
0-1_通り芯
  6
JWW_CENTER1
 62
   120
370
     5
100
AcDbLine
 10
4309.000339817356
 20
2524.500148463892
 30
0.0
 11
4309.000339817356
 21
2314.500148463893
 31
0.0
  0
ARC
  5
264
330
1F
100
AcDbEntity
  8
レバー
  6
Continuous
 62
   120
370
     5
100
AcDbCircle
 10
4309.000339817356
 20
2400.500148463893
 30
0.0
 40
24.5500000000001
100
AcDbArc
 50
27.93254752189982
 51
332.0674524191729
  0
ARC
  5
265
330
1F
100
AcDbEntity
  8
レバー
  6
Continuous
 62
   120
370
     5
100
AcDbCircle
 10
4309.000339817356
 20
2400.500148463893
 30
0.0
 40
10.99999999999989
100
AcDbArc
 50
59.72735868109907
 51
300.2726413189009
  0
ARC
  5
266
330
1F
100
AcDbEntity
  8
レバー
  6
Continuous
 62
    92
370
    13
100
AcDbCircle
 10
4309.000339817356
 20
2400.500148463893
 30
0.0
 40
9.500260477871905
100
AcDbArc
 50
90.0
 51
270.0
  0
LINE
  5
267
330
1F
100
AcDbEntity
  8
レバー
  6
Continuous
 62
    92
370
    13
100
AcDbLine
 10
4309.000339817356
 20
2410.000148463893
 30
0.0
 11
4328.000339206455
 21
2410.000148463893
 31
0.0
  0
LINE
  5
268
330
1F
100
AcDbEntity
  8
レバー
  6
Continuous
 62
    92
370
    13
100
AcDbLine
 10
4309.000339817356
 20
2391.000148463893
 30
0.0
 11
4328.000339206455
 21
2391.000148463893
 31
0.0
  0
LINE
  5
269
330
1F
100
AcDbEntity
  8
レバー
  6
Continuous
 62
    92
370
    13
100
AcDbLine
 10
4329.000339370356
 20
2412.000148486294
 30
0.0
 11
4433.000337790856
 21
2412.000148486294
 31
0.0
  0
LINE
  5
26A
330
1F
100
AcDbEntity
  8
レバー
  6
Continuous
 62
    92
370
    13
100
AcDbLine
 10
4433.000337790856
 20
2389.000148441593
 30
0.0
 11
4329.000339370356
 21
2389.000148441593
 31
0.0
  0
LINE
  5
26B
330
1F
100
AcDbEntity
  8
レバー
  6
Continuous
 62
    92
370
    13
100
AcDbLine
 10
4328.000339206455
 20
2390.000148605493
 30
0.0
 11
4329.000339370356
 21
2389.000148441593
 31
0.0
  0
LINE
  5
26C
330
1F
100
AcDbEntity
  8
レバー
  6
Continuous
 62
   120
370
     5
100
AcDbLine
 10
4329.000339370356
 20
2389.000148441593
 30
0.0
 11
4329.000339370356
 21
2412.000148486294
 31
0.0
  0
LINE
  5
26D
330
1F
100
AcDbEntity
  8
レバー
  6
Continuous
 62
   120
370
     5
100
AcDbLine
 10
4433.000337790856
 20
2412.000148486294
 30
0.0
 11
4433.000337790856
 21
2389.000148441593
 31
0.0
  0
LINE
  5
26E
330
1F
100
AcDbEntity
  8
レバー
  6
Continuous
 62
    92
370
    13
100
AcDbLine
 10
4328.000339206455
 20
2411.000148322293
 30
0.0
 11
4329.000339370356
 21
2412.000148486193
 31
0.0
  0
LINE
  5
26F
330
1F
100
AcDbEntity
  8
レバー
  6
Continuous
 62
    92
370
    13
100
AcDbLine
 10
4328.000339206455
 20
2390.000148605493
 30
0.0
 11
4328.000339206455
 21
2411.000148322394
 31
0.0
  0
LINE
  5
270
330
1F
100
AcDbEntity
  8
レバー
  6
Continuous
 62
    92
370
    13
100
AcDbLine
 10
4434.000337954756
 20
2390.000148605493
 30
0.0
 11
4433.000337790856
 21
2389.000148441593
 31
0.0
  0
LINE
  5
271
330
1F
100
AcDbEntity
  8
レバー
  6
Continuous
 62
    92
370
    13
100
AcDbLine
 10
4434.000337954756
 20
2411.000148322293
 30
0.0
 11
4433.000337790856
 21
2412.000148486193
 31
0.0
  0
LINE
  5
272
330
1F
100
AcDbEntity
  8
レバー
  6
Continuous
 62
    92
370
    13
100
AcDbLine
 10
4434.000337954756
 20
2390.000148605493
 30
0.0
 11
4434.000337954756
 21
2411.000148322394
 31
0.0
  0
LINE
  5
273
330
1F
100
AcDbEntity
  8
0-3_仕上げ
  6
Continuous
 62
     7
370
     9
100
AcDbLine
 10
-4557.39979841902
 20
1443.000148463894
 30
0.0
 11
-4557.39979841902
 21
2389.000148441593
 31
0.0
  0
LINE
  5
274
330
1F
100
AcDbEntity
  8
0-3_仕上げ
  6
Continuous
 62
     7
370
     9
100
AcDbLine
 10
-4557.39979841902
 20
2412.000148486294
 30
0.0
 11
-4557.39979841902
 21
3438.000148463894
 31
0.0
  0
LINE
  5
275
330
1F
100
AcDbEntity
  8
0-3_仕上げ
  6
Continuous
 62
    92
370
    13
100
AcDbLine
 10
-4553.399798419021
 20
2330.000148463894
 30
0.0
 11
-4553.399798419021
 21
2389.000148441593
 31
0.0
  0
LINE
  5
276
330
1F
100
AcDbEntity
  8
0-3_仕上げ
  6
Continuous
 62
    92
370
    13
100
AcDbLine
 10
-4553.399798419021
 20
2412.000148486294
 30
0.0
 11
-4553.399798419021
 21
3288.000148463894
 31
0.0
  0
LINE
  5
277
330
1F
100
AcDbEntity
  8
0-3_仕上げ
  6
Continuous
 62
     7
370
     9
100
AcDbLine
 10
-2325.799671069995
 20
1443.000148463894
 30
0.0
 11
-2325.799671069995
 21
2389.000148441593
 31
0.0
  0
LINE
  5
278
330
1F
100
AcDbEntity
  8
0-3_仕上げ
  6
Continuous
 62
     7
370
     9
100
AcDbLine
 10
-2325.799671069995
 20
2412.000148486294
 30
0.0
 11
-2325.799671069995
 21
3438.000148463894
 31
0.0
  0
LINE
  5
279
330
1F
100
AcDbEntity
  8
0-3_仕上げ
  6
Continuous
 62
    92
370
    13
100
AcDbLine
 10
-2321.799671069996
 20
2330.000148463894
 30
0.0
 11
-2321.799671069996
 21
2389.000148441593
 31
0.0
  0
LINE
  5
27A
330
1F
100
AcDbEntity
  8
0-3_仕上げ
  6
Continuous
 62
    92
370
    13
100
AcDbLine
 10
-2321.799671069996
 20
2412.000148486294
 30
0.0
 11
-2321.799671069996
 21
3288.000148463894
 31
0.0
  0
LINE
  5
27B
330
1F
100
AcDbEntity
  8
0-3_仕上げ
  6
Continuous
 62
     7
370
     9
100
AcDbLine
 10
-94.19991488070195
 20
1443.000148463894
 30
0.0
 11
-94.19991488070195
 21
2389.000148441593
 31
0.0
  0
LINE
  5
27C
330
1F
100
AcDbEntity
  8
0-3_仕上げ
  6
Continuous
 62
     7
370
     9
100
AcDbLine
 10
-94.19991488070195
 20
2412.000148486294
 30
0.0
 11
-94.19991488070195
 21
3438.000148463894
 31
0.0
  0
LINE
  5
27D
330
1F
100
AcDbEntity
  8
0-3_仕上げ
  6
Continuous
 62
    92
370
    13
100
AcDbLine
 10
-90.19991488070218
 20
2330.000148463894
 30
0.0
 11
-90.19991488070218
 21
2389.000148441593
 31
0.0
  0
LINE
  5
27E
330
1F
100
AcDbEntity
  8
0-3_仕上げ
  6
Continuous
 62
    92
370
    13
100
AcDbLine
 10
-90.19991488070218
 20
2412.000148486294
 30
0.0
 11
-90.19991488070218
 21
3288.000148463894
 31
0.0
  0
LINE
  5
27F
330
1F
100
AcDbEntity
  8
0-3_仕上げ
  6
Continuous
 62
     7
370
     9
100
AcDbLine
 10
2125.900212468328
 20
1443.000148463894
 30
0.0
 11
2125.900212468328
 21
2389.000148441593
 31
0.0
  0
LINE
  5
280
330
1F
100
AcDbEntity
  8
0-3_仕上げ
  6
Continuous
 62
     7
370
     9
100
AcDbLine
 10
2125.900212468328
 20
2412.000148486294
 30
0.0
 11
2125.900212468328
 21
3438.000148463894
 31
0.0
  0
LINE
  5
281
330
1F
100
AcDbEntity
  8
0-3_仕上げ
  6
Continuous
 62
    92
370
    13
100
AcDbLine
 10
2129.900212468328
 20
2330.000148463894
 30
0.0
 11
2129.900212468328
 21
2389.000148441593
 31
0.0
  0
LINE
  5
282
330
1F
100
AcDbEntity
  8
0-3_仕上げ
  6
Continuous
 62
    92
370
    13
100
AcDbLine
 10
2129.900212468328
 20
2412.000148486294
 30
0.0
 11
2129.900212468328
 21
3288.000148463894
 31
0.0
  0
LINE
  5
283
330
1F
100
AcDbEntity
  8
0-3_仕上げ
  6
Continuous
 62
     7
370
     9
100
AcDbLine
 10
4357.500339817358
 20
1443.000148463894
 30
0.0
 11
4357.500339817358
 21
2389.000148441593
 31
0.0
  0
LINE
  5
284
330
1F
100
AcDbEntity
  8
0-3_仕上げ
  6
Continuous
 62
     7
370
     9
100
AcDbLine
 10
4357.500339817358
 20
2412.000148486294
 30
0.0
 11
4357.500339817358
 21
3438.000148463894
 31
0.0
  0
LINE
  5
285
330
1F
100
AcDbEntity
  8
0-3_仕上げ
  6
Continuous
 62
    92
370
    13
100
AcDbLine
 10
4361.500339817358
 20
2330.000148463894
 30
0.0
 11
4361.500339817358
 21
2389.000148441593
 31
0.0
  0
LINE
  5
286
330
1F
100
AcDbEntity
  8
0-3_仕上げ
  6
Continuous
 62
    92
370
    13
100
AcDbLine
 10
4361.500339817358
 20
2412.000148486294
 30
0.0
 11
4361.500339817358
 21
3288.000148463894
 31
0.0
  0
MTEXT
  5
287
330
1F
100
AcDbEntity
  8
0-A_文字
  6
Continuous
 62
     7
370
     9
100
AcDbMText
 10
-4576.699908488504
 20
4013.576151024072
 30
0.0
 40
77.15249999999999
 41
405.0
 46
0.0
 71
     7
 72
     1
  1
{\fＭＳ ゴシック|b0|i0|c128|p49;Ｎ－ＶＥ}
 73
     1
 44
1.0
  0
MTEXT
  5
288
330
1F
100
AcDbEntity
  8
0-A_文字
  6
Continuous
 62
     7
370
     9
100
AcDbMText
 10
-2345.099734744509
 20
4013.576151024072
 30
0.0
 40
77.15249999999999
 41
405.0
 46
0.0
 71
     7
 72
     1
  1
{\fＭＳ ゴシック|b0|i0|c128|p49;Ｎ－ＶＥ}
 73
     1
 44
1.0
  0
MTEXT
  5
289
330
1F
100
AcDbEntity
  8
0-A_文字
  6
Continuous
 62
     7
370
     9
100
AcDbMText
 10
-113.4997929753467
 20
4013.576151024072
 30
0.0
 40
77.15249999999999
 41
405.0
 46
0.0
 71
     7
 72
     1
  1
{\fＭＳ ゴシック|b0|i0|c128|p49;Ｎ－ＶＥ}
 73
     1
 44
1.0
  0
MTEXT
  5
28A
330
1F
100
AcDbEntity
  8
0-A_文字
  6
Continuous
 62
     7
370
     9
100
AcDbMText
 10
2118.100148793814
 20
4013.576151024072
 30
0.0
 40
77.15249999999999
 41
405.0
 46
0.0
 71
     7
 72
     1
  1
{\fＭＳ ゴシック|b0|i0|c128|p49;Ｎ－ＶＥ}
 73
     1
 44
1.0
  0
MTEXT
  5
28B
330
1F
100
AcDbEntity
  8
0-A_文字
  6
Continuous
 62
     7
370
     9
100
AcDbMText
 10
4360.699594858532
 20
4013.576151024072
 30
0.0
 40
77.15249999999999
 41
405.0
 46
0.0
 71
     7
 72
     1
  1
{\fＭＳ ゴシック|b0|i0|c128|p49;Ｎ－ＶＥ}
 73
     1
 44
1.0
  0
MTEXT
  5
28C
330
1F
100
AcDbEntity
  8
F-A_文字
  6
Continuous
 62
     7
370
     0
100
AcDbMText
 10
-5239.999990205507
 20
-4045.24341433926
 30
0.0
 40
79.51304347826087
 41
2400.0
 46
0.0
 71
     7
 72
     1
  1
{\fＭＳ ゴシック|b0|i0|c128|p49;ピノアース　シングルドア／トイレドア　Ｎ－ＶＥ}
 73
     1
 44
1.0
  0
MTEXT
  5
28D
330
1F
100
AcDbEntity
  8
F-A_文字
  6
Continuous
 62
     7
370
     0
100
AcDbMText
 10
349.9999175200594
 20
-3945.630201962234
 30
0.0
 40
78.74000000000001
 41
465.0
 46
0.0
 71
     7
 72
     1
  1
{\fＭＳ ゴシック|b0|i0|c128|p49;PINOEARTH}
 73
     1
 44
1.0
  0
MTEXT
  5
28E
330
1F
100
AcDbEntity
  8
F-A_文字
  6
Continuous
 62
     7
370
     9
100
AcDbMText
 10
4936.249033580831
 20
-4147.857012699985
 30
0.0
 40
74.295
 41
97.5
 46
0.0
 71
     7
 72
     1
  1
{\fＭＳ ゴシック|b0|i0|c128|p49;01}
 73
     1
 44
1.0
  0
LINE
  5
28F
330
1F
100
AcDbEntity
  8
0-4_枠
  6
Continuous
 62
    92
370
    13
100
AcDbLine
 10
-2441.799671069996
 20
1430.000148463893
 30
0.0
 11
-1711.799671069995
 21
1430.000148463893
 31
0.0
  0
LINE
  5
290
330
1F
100
AcDbEntity
  8
0-4_枠
  6
Continuous
 62
    92
370
    13
100
AcDbLine
 10
2021.400212468329
 20
1430.000148463893
 30
0.0
 11
2708.400212468328
 21
1430.000148463893
 31
0.0
  0
LINE
  5
291
330
1F
100
AcDbEntity
  8
0-4_枠
  6
Continuous
 62
    92
370
    13
100
AcDbLine
 10
-210.1999148807005
 20
1430.000148463893
 30
0.0
 11
499.8000851192984
 21
1430.000148463893
 31
0.0
  0
LINE
  5
292
330
1F
100
AcDbEntity
  8
0-4_枠
  6
Continuous
 62
    92
370
    13
100
AcDbLine
 10
-4673.399798419024
 20
1430.000148463893
 30
0.0
 11
-3873.399798419025
 21
1430.000148463893
 31
0.0
  0
LINE
  5
293
330
1F
100
AcDbEntity
  8
0-4_枠
  6
Continuous
 62
    92
370
    13
100
AcDbLine
 10
4253.000339817358
 20
1430.000148463893
 30
0.0
 11
4859.000339817359
 21
1430.000148463893
 31
0.0
  0
ENDSEC
  0
SECTION
  2
OBJECTS
  0
DICTIONARY
  5
C
330
0
100
AcDbDictionary
281
     1
  3
ACAD_GROUP
350
D
  3
ACAD_LAYOUT
350
1A
  3
ACAD_MATERIAL
350
3B
  3
ACAD_MLEADERSTYLE
350
295
  3
ACAD_MLINESTYLE
350
17
  3
ACAD_PLOTSETTINGS
350
19
  3
ACAD_PLOTSTYLENAME
350
E
  3
ACAD_TABLESTYLE
350
294
  3
ACAD_VISUALSTYLE
350
2A
  0
DICTIONARY
  5
D
102
{ACAD_REACTORS
330
C
102
}
330
C
100
AcDbDictionary
281
     1
  0
DICTIONARY
  5
1A
102
{ACAD_REACTORS
330
C
102
}
330
C
100
AcDbDictionary
281
     1
  3
Layout1
350
1E
  3
Layout2
350
26
  3
Model
350
22
  0
DICTIONARY
  5
3B
102
{ACAD_REACTORS
330
C
102
}
330
C
100
AcDbDictionary
281
     1
  3
ByBlock
350
3D
  3
ByLayer
350
3C
  3
Global
350
3E
  0
DICTIONARY
  5
295
102
{ACAD_REACTORS
330
C
102
}
330
C
100
AcDbDictionary
281
     1
  0
DICTIONARY
  5
17
102
{ACAD_REACTORS
330
C
102
}
330
C
100
AcDbDictionary
281
     1
  3
Standard
350
18
  0
DICTIONARY
  5
19
102
{ACAD_REACTORS
330
C
102
}
330
C
100
AcDbDictionary
281
     1
  0
ACDBDICTIONARYWDFLT
  5
E
102
{ACAD_REACTORS
330
C
102
}
330
C
100
AcDbDictionary
281
     1
  3
Normal
350
F
100
AcDbDictionaryWithDefault
340
F
  0
DICTIONARY
  5
294
102
{ACAD_REACTORS
330
C
102
}
330
C
100
AcDbDictionary
281
     1
  0
DICTIONARY
  5
2A
102
{ACAD_REACTORS
330
C
102
}
330
C
100
AcDbDictionary
281
     1
  3
2dWireframe
350
2F
  3
3D Hidden
350
31
  3
3dWireframe
350
30
  3
Basic
350
32
  3
Brighten
350
36
  3
ColorChange
350
3A
  3
Conceptual
350
34
  3
Dim
350
35
  3
Facepattern
350
39
  3
Flat
350
2B
  3
FlatWithEdges
350
2C
  3
Gouraud
350
2D
  3
GouraudWithEdges
350
2E
  3
Linepattern
350
38
  3
Realistic
350
33
  3
Thicken
350
37
  0
LAYOUT
  5
1E
102
{ACAD_REACTORS
330
1A
102
}
330
1A
100
AcDbPlotSettings
  1

  2
none_device
  4

  6

 40
0.0
 41
0.0
 42
0.0
 43
0.0
 44
0.0
 45
0.0
 46
0.0
 47
0.0
 48
0.0
 49
0.0
140
0.0
141
0.0
142
1.0
143
1.0
 70
   688
 72
     0
 73
     0
 74
     5
  7

 75
    16
 76
     0
 77
     5
 78
   300
147
1.0
148
0.0
149
0.0
100
AcDbLayout
  1
Layout1
 70
     1
 71
     1
 10
0.0
 20
0.0
 11
420.0
 21
297.0
 12
0.0
 22
0.0
 32
0.0
 14
1.000000000000000E+20
 24
1.000000000000000E+20
 34
1.000000000000000E+20
 15
-1.000000000000000E+20
 25
-1.000000000000000E+20
 35
-1.000000000000000E+20
146
0.0
 13
0.0
 23
0.0
 33
0.0
 16
1.0
 26
0.0
 36
0.0
 17
0.0
 27
1.0
 37
0.0
 76
     0
330
1B
  0
LAYOUT
  5
26
102
{ACAD_REACTORS
330
1A
102
}
330
1A
100
AcDbPlotSettings
  1

  2
none_device
  4

  6

 40
0.0
 41
0.0
 42
0.0
 43
0.0
 44
0.0
 45
0.0
 46
0.0
 47
0.0
 48
0.0
 49
0.0
140
0.0
141
0.0
142
1.0
143
1.0
 70
   688
 72
     0
 73
     0
 74
     5
  7

 75
    16
 76
     0
 77
     5
 78
   300
147
1.0
148
0.0
149
0.0
100
AcDbLayout
  1
Layout2
 70
     1
 71
     2
 10
0.0
 20
0.0
 11
0.0
 21
0.0
 12
0.0
 22
0.0
 32
0.0
 14
0.0
 24
0.0
 34
0.0
 15
0.0
 25
0.0
 35
0.0
146
0.0
 13
0.0
 23
0.0
 33
0.0
 16
1.0
 26
0.0
 36
0.0
 17
0.0
 27
1.0
 37
0.0
 76
     0
330
23
  0
LAYOUT
  5
22
102
{ACAD_REACTORS
330
1A
102
}
330
1A
100
AcDbPlotSettings
  1

  2
none_device
  4

  6

 40
0.0
 41
0.0
 42
0.0
 43
0.0
 44
0.0
 45
0.0
 46
0.0
 47
0.0
 48
0.0
 49
0.0
140
0.0
141
0.0
142
1.0
143
1.0
 70
  1712
 72
     0
 73
     0
 74
     0
  7

 75
     0
 76
     0
 77
     5
 78
   300
147
1.0
148
0.0
149
0.0
100
AcDbLayout
  1
Model
 70
     1
 71
     0
 10
-6300.0
 20
-4455.0
 11
6300.0
 21
4455.0
 12
0.0
 22
0.0
 32
0.0
 14
-6300.0
 24
-4455.0
 34
0.0
 15
6300.0
 25
4455.0
 35
0.0
146
0.0
 13
0.0
 23
0.0
 33
0.0
 16
1.0
 26
0.0
 36
0.0
 17
0.0
 27
1.0
 37
0.0
 76
     0
330
1F
331
29
  0
MATERIAL
  5
3D
102
{ACAD_REACTORS
330
3B
102
}
330
3B
100
AcDbMaterial
  1
ByBlock
 72
     1
 94
      127
  0
MATERIAL
  5
3C
102
{ACAD_REACTORS
330
3B
102
}
330
3B
100
AcDbMaterial
  1
ByLayer
 72
     1
 94
      127
  0
MATERIAL
  5
3E
102
{ACAD_REACTORS
330
3B
102
}
330
3B
100
AcDbMaterial
  1
Global
 72
     1
 94
      127
  0
MLINESTYLE
  5
18
102
{ACAD_REACTORS
330
17
102
}
330
17
100
AcDbMlineStyle
  2
Standard
 70
     0
  3

 62
   256
 51
90.0
 52
90.0
 71
     2
 49
0.5
 62
   256
  6
BYLAYER
 49
-0.5
 62
   256
  6
BYLAYER
  0
ACDBPLACEHOLDER
  5
F
102
{ACAD_REACTORS
330
E
102
}
330
E
  0
VISUALSTYLE
  5
2F
102
{ACAD_REACTORS
330
2A
102
}
330
2A
100
AcDbVisualStyle
  2
2dWireframe
 70
     4
177
     2
291
     0
 71
     0
176
     1
 72
     2
176
     1
 73
     0
176
     1
 90
        0
176
     1
 40
-0.6
176
     1
 41
-30.0
176
     1
 62
     5
 63
     7
421
 16777215
176
     1
 74
     1
176
     1
 91
        4
176
     1
 64
     7
176
     1
 65
   257
176
     1
 75
     1
176
     1
175
     1
176
     1
 42
1.0
176
     1
 92
        0
176
     1
 66
   257
176
     1
 43
1.0
176
     1
 76
     1
176
     1
 77
     6
176
     1
 78
     2
176
     1
 67
     7
176
     1
 79
     5
176
     1
170
     0
176
     1
171
     0
176
     1
290
     0
176
     1
 93
        1
176
     1
 44
0.0
176
     1
173
     0
176
     1
  0
VISUALSTYLE
  5
31
102
{ACAD_REACTORS
330
2A
102
}
330
2A
100
AcDbVisualStyle
  2
3D Hidden
 70
     6
177
     2
291
     0
 71
     1
176
     1
 72
     2
176
     1
 73
     2
176
     1
 90
        0
176
     1
 40
-0.6
176
     1
 41
-30.0
176
     1
 62
     5
 63
     7
421
 16777215
176
     1
 74
     2
176
     1
 91
        2
176
     1
 64
     7
176
     1
 65
   257
176
     1
 75
     2
176
     1
175
     1
176
     1
 42
40.0
176
     1
 92
        0
176
     1
 66
   257
176
     1
 43
1.0
176
     1
 76
     1
176
     1
 77
     6
176
     1
 78
     2
176
     1
 67
     7
176
     1
 79
     3
176
     1
170
     0
176
     1
171
     0
176
     1
290
     0
176
     1
 93
        1
176
     1
 44
0.0
176
     1
173
     0
176
     1
  0
VISUALSTYLE
  5
30
102
{ACAD_REACTORS
330
2A
102
}
330
2A
100
AcDbVisualStyle
  2
3dWireframe
 70
     5
177
     2
291
     0
 71
     0
176
     1
 72
     2
176
     1
 73
     0
176
     1
 90
        0
176
     1
 40
-0.6
176
     1
 41
-30.0
176
     1
 62
     5
 63
     7
421
 16777215
176
     1
 74
     1
176
     1
 91
        4
176
     1
 64
     7
176
     1
 65
   257
176
     1
 75
     1
176
     1
175
     1
176
     1
 42
1.0
176
     1
 92
        0
176
     1
 66
   257
176
     1
 43
1.0
176
     1
 76
     1
176
     1
 77
     6
176
     1
 78
     2
176
     1
 67
     7
176
     1
 79
     5
176
     1
170
     0
176
     1
171
     0
176
     1
290
     0
176
     1
 93
        1
176
     1
 44
0.0
176
     1
173
     0
176
     1
  0
VISUALSTYLE
  5
32
102
{ACAD_REACTORS
330
2A
102
}
330
2A
100
AcDbVisualStyle
  2
Basic
 70
     7
177
     2
291
     1
 71
     1
176
     1
 72
     0
176
     1
 73
     1
176
     1
 90
        0
176
     1
 40
-0.6
176
     1
 41
-30.0
176
     1
 62
     5
 63
     7
421
 16777215
176
     1
 74
     0
176
     1
 91
        4
176
     1
 64
     7
176
     1
 65
   257
176
     1
 75
     1
176
     1
175
     1
176
     1
 42
1.0
176
     1
 92
        8
176
     1
 66
     7
176
     1
 43
1.0
176
     1
 76
     1
176
     1
 77
     6
176
     1
 78
     2
176
     1
 67
     7
176
     1
 79
     5
176
     1
170
     0
176
     1
171
     0
176
     1
290
     0
176
     1
 93
        1
176
     1
 44
0.0
176
     1
173
     0
176
     1
  0
VISUALSTYLE
  5
36
102
{ACAD_REACTORS
330
2A
102
}
330
2A
100
AcDbVisualStyle
  2
Brighten
 70
    12
177
     2
291
     1
 71
     2
176
     1
 72
     2
176
     1
 73
     0
176
     1
 90
        0
176
     1
 40
-0.6
176
     1
 41
-30.0
176
     1
 62
     5
 63
     7
421
 16777215
176
     1
 74
     1
176
     1
 91
        4
176
     1
 64
     7
176
     1
 65
   257
176
     1
 75
     1
176
     1
175
     1
176
     1
 42
1.0
176
     1
 92
        8
176
     1
 66
     7
176
     1
 43
1.0
176
     1
 76
     1
176
     1
 77
     6
176
     1
 78
     2
176
     1
 67
     7
176
     1
 79
     5
176
     1
170
     0
176
     1
171
     0
176
     1
290
     0
176
     1
 93
        1
176
     1
 44
50.0
176
     1
173
     0
176
     1
  0
VISUALSTYLE
  5
3A
102
{ACAD_REACTORS
330
2A
102
}
330
2A
100
AcDbVisualStyle
  2
ColorChange
 70
    16
177
     2
291
     1
 71
     2
176
     1
 72
     2
176
     1
 73
     3
176
     1
 90
        0
176
     1
 40
-0.6
176
     1
 41
-30.0
176
     1
 62
     5
 63
     8
421
  8421504
176
     1
 74
     1
176
     1
 91
        4
176
     1
 64
     7
176
     1
 65
   257
176
     1
 75
     1
176
     1
175
     1
176
     1
 42
1.0
176
     1
 92
        8
176
     1
 66
     8
424
  8421504
176
     1
 43
1.0
176
     1
 76
     1
176
     1
 77
     6
176
     1
 78
     2
176
     1
 67
     7
176
     1
 79
     5
176
     1
170
     0
176
     1
171
     0
176
     1
290
     0
176
     1
 93
        1
176
     1
 44
0.0
176
     1
173
     0
176
     1
  0
VISUALSTYLE
  5
34
102
{ACAD_REACTORS
330
2A
102
}
330
2A
100
AcDbVisualStyle
  2
Conceptual
 70
     9
177
     2
291
     0
 71
     3
176
     1
 72
     2
176
     1
 73
     0
176
     1
 90
        0
176
     1
 40
-0.6
176
     1
 41
-30.0
176
     1
 62
     5
 63
     7
421
 16777215
176
     1
 74
     2
176
     1
 91
        2
176
     1
 64
     7
176
     1
 65
   257
176
     1
 75
     1
176
     1
175
     1
176
     1
 42
40.0
176
     1
 92
        8
176
     1
 66
     7
176
     1
 43
1.0
176
     1
 76
     1
176
     1
 77
     6
176
     1
 78
     2
176
     1
 67
     7
176
     1
 79
     3
176
     1
170
     0
176
     1
171
     0
176
     1
290
     0
176
     1
 93
        1
176
     1
 44
0.0
176
     1
173
     0
176
     1
  0
VISUALSTYLE
  5
35
102
{ACAD_REACTORS
330
2A
102
}
330
2A
100
AcDbVisualStyle
  2
Dim
 70
    11
177
     2
291
     1
 71
     2
176
     1
 72
     2
176
     1
 73
     0
176
     1
 90
        0
176
     1
 40
-0.6
176
     1
 41
-30.0
176
     1
 62
     5
 63
     7
421
 16777215
176
     1
 74
     1
176
     1
 91
        4
176
     1
 64
     7
176
     1
 65
   257
176
     1
 75
     1
176
     1
175
     1
176
     1
 42
1.0
176
     1
 92
        8
176
     1
 66
     7
176
     1
 43
1.0
176
     1
 76
     1
176
     1
 77
     6
176
     1
 78
     2
176
     1
 67
     7
176
     1
 79
     5
176
     1
170
     0
176
     1
171
     0
176
     1
290
     0
176
     1
 93
        1
176
     1
 44
-50.0
176
     1
173
     0
176
     1
  0
VISUALSTYLE
  5
39
102
{ACAD_REACTORS
330
2A
102
}
330
2A
100
AcDbVisualStyle
  2
Facepattern
 70
    15
177
     2
291
     1
 71
     2
176
     1
 72
     2
176
     1
 73
     0
176
     1
 90
        0
176
     1
 40
-0.6
176
     1
 41
-30.0
176
     1
 62
     5
 63
     7
421
 16777215
176
     1
 74
     1
176
     1
 91
        4
176
     1
 64
     7
176
     1
 65
   257
176
     1
 75
     1
176
     1
175
     1
176
     1
 42
1.0
176
     1
 92
        8
176
     1
 66
     7
176
     1
 43
1.0
176
     1
 76
     1
176
     1
 77
     6
176
     1
 78
     2
176
     1
 67
     7
176
     1
 79
     5
176
     1
170
     0
176
     1
171
     0
176
     1
290
     0
176
     1
 93
        1
176
     1
 44
0.0
176
     1
173
     0
176
     1
  0
VISUALSTYLE
  5
2B
102
{ACAD_REACTORS
330
2A
102
}
330
2A
100
AcDbVisualStyle
  2
Flat
 70
     0
177
     2
291
     1
 71
     2
176
     1
 72
     1
176
     1
 73
     1
176
     1
 90
        2
176
     1
 40
-0.6
176
     1
 41
30.0
176
     1
 62
     5
 63
     7
421
 16777215
176
     1
 74
     0
176
     1
 91
        4
176
     1
 64
     7
176
     1
 65
   257
176
     1
 75
     1
176
     1
175
     1
176
     1
 42
1.0
176
     1
 92
        8
176
     1
 66
     7
176
     1
 43
1.0
176
     1
 76
     1
176
     1
 77
     6
176
     1
 78
     2
176
     1
 67
     7
176
     1
 79
     5
176
     1
170
     0
176
     1
171
     0
176
     1
290
     0
176
     1
 93
       13
176
     1
 44
0.0
176
     1
173
     0
176
     1
  0
VISUALSTYLE
  5
2C
102
{ACAD_REACTORS
330
2A
102
}
330
2A
100
AcDbVisualStyle
  2
FlatWithEdges
 70
     1
177
     2
291
     1
 71
     2
176
     1
 72
     1
176
     1
 73
     1
176
     1
 90
        2
176
     1
 40
-0.6
176
     1
 41
30.0
176
     1
 62
     5
 63
     7
421
 16777215
176
     1
 74
     1
176
     1
 91
        4
176
     1
 64
     7
176
     1
 65
   257
176
     1
 75
     1
176
     1
175
     1
176
     1
 42
1.0
176
     1
 92
        0
176
     1
 66
   257
176
     1
 43
1.0
176
     1
 76
     1
176
     1
 77
     6
176
     1
 78
     2
176
     1
 67
     7
176
     1
 79
     5
176
     1
170
     0
176
     1
171
     0
176
     1
290
     0
176
     1
 93
       13
176
     1
 44
0.0
176
     1
173
     0
176
     1
  0
VISUALSTYLE
  5
2D
102
{ACAD_REACTORS
330
2A
102
}
330
2A
100
AcDbVisualStyle
  2
Gouraud
 70
     2
177
     2
291
     1
 71
     2
176
     1
 72
     2
176
     1
 73
     1
176
     1
 90
        2
176
     1
 40
-0.6
176
     1
 41
30.0
176
     1
 62
     5
 63
     7
421
 16777215
176
     1
 74
     0
176
     1
 91
        4
176
     1
 64
     7
176
     1
 65
   257
176
     1
 75
     1
176
     1
175
     1
176
     1
 42
1.0
176
     1
 92
        0
176
     1
 66
     7
176
     1
 43
1.0
176
     1
 76
     1
176
     1
 77
     6
176
     1
 78
     2
176
     1
 67
     7
176
     1
 79
     5
176
     1
170
     0
176
     1
171
     0
176
     1
290
     0
176
     1
 93
       13
176
     1
 44
0.0
176
     1
173
     0
176
     1
  0
VISUALSTYLE
  5
2E
102
{ACAD_REACTORS
330
2A
102
}
330
2A
100
AcDbVisualStyle
  2
GouraudWithEdges
 70
     3
177
     2
291
     1
 71
     2
176
     1
 72
     2
176
     1
 73
     1
176
     1
 90
        2
176
     1
 40
-0.6
176
     1
 41
30.0
176
     1
 62
     5
 63
     7
421
 16777215
176
     1
 74
     1
176
     1
 91
        4
176
     1
 64
     7
176
     1
 65
   257
176
     1
 75
     1
176
     1
175
     1
176
     1
 42
1.0
176
     1
 92
        0
176
     1
 66
   257
176
     1
 43
1.0
176
     1
 76
     1
176
     1
 77
     6
176
     1
 78
     2
176
     1
 67
     7
176
     1
 79
     5
176
     1
170
     0
176
     1
171
     0
176
     1
290
     0
176
     1
 93
       13
176
     1
 44
0.0
176
     1
173
     0
176
     1
  0
VISUALSTYLE
  5
38
102
{ACAD_REACTORS
330
2A
102
}
330
2A
100
AcDbVisualStyle
  2
Linepattern
 70
    14
177
     2
291
     1
 71
     2
176
     1
 72
     2
176
     1
 73
     0
176
     1
 90
        0
176
     1
 40
-0.6
176
     1
 41
-30.0
176
     1
 62
     5
 63
     7
421
 16777215
176
     1
 74
     1
176
     1
 91
        4
176
     1
 64
     7
176
     1
 65
   257
176
     1
 75
     7
176
     1
175
     7
176
     1
 42
1.0
176
     1
 92
        8
176
     1
 66
     7
176
     1
 43
1.0
176
     1
 76
     1
176
     1
 77
     6
176
     1
 78
     2
176
     1
 67
     7
176
     1
 79
     5
176
     1
170
     0
176
     1
171
     0
176
     1
290
     0
176
     1
 93
        1
176
     1
 44
0.0
176
     1
173
     0
176
     1
  0
VISUALSTYLE
  5
33
102
{ACAD_REACTORS
330
2A
102
}
330
2A
100
AcDbVisualStyle
  2
Realistic
 70
     8
177
     2
291
     0
 71
     2
176
     1
 72
     2
176
     1
 73
     0
176
     1
 90
        0
176
     1
 40
-0.6
176
     1
 41
-30.0
176
     1
 62
     5
 63
     7
421
 16777215
176
     1
 74
     1
176
     1
 91
        0
176
     1
 64
     7
176
     1
 65
   257
176
     1
 75
     1
176
     1
175
     1
176
     1
 42
1.0
176
     1
 92
        8
176
     1
 66
     8
424
  7895160
176
     1
 43
1.0
176
     1
 76
     1
176
     1
 77
     6
176
     1
 78
     2
176
     1
 67
     7
176
     1
 79
     5
176
     1
170
     0
176
     1
171
     0
176
     1
290
     0
176
     1
 93
       13
176
     1
 44
0.0
176
     1
173
     0
176
     1
  0
VISUALSTYLE
  5
37
102
{ACAD_REACTORS
330
2A
102
}
330
2A
100
AcDbVisualStyle
  2
Thicken
 70
    13
177
     2
291
     1
 71
     2
176
     1
 72
     2
176
     1
 73
     0
176
     1
 90
        0
176
     1
 40
-0.6
176
     1
 41
-30.0
176
     1
 62
     5
 63
     7
421
 16777215
176
     1
 74
     1
176
     1
 91
        4
176
     1
 64
     7
176
     1
 65
   257
176
     1
 75
     1
176
     1
175
     1
176
     1
 42
1.0
176
     1
 92
       12
176
     1
 66
     7
176
     1
 43
1.0
176
     1
 76
     1
176
     1
 77
     6
176
     1
 78
     2
176
     1
 67
     7
176
     1
 79
     5
176
     1
170
     0
176
     1
171
     0
176
     1
290
     0
176
     1
 93
        1
176
     1
 44
0.0
176
     1
173
     0
176
     1
  0
ENDSEC
  0
EOF
