  0
SECTION
  2
HEADER
  9
$ACADVER
  1
AC1024
  9
$ACADMAINTVER
 70
     6
  9
$DWGCODEPAGE
  3
ANSI_932
  9
$INSBASE
 10
0.0
 20
0.0
 30
0.0
  9
$EXTMIN
 10
-6300.0
 20
-4455.0
 30
0.0
  9
$EXTMAX
 10
6300.0
 20
4455.0
 30
0.0
  9
$LIMMIN
 10
-6300.0
 20
-4455.0
  9
$LIMMAX
 10
6300.0
 20
4455.0
  9
$ORTHOMODE
 70
     0
  9
$REGENMODE
 70
     1
  9
$FILLMODE
 70
     1
  9
$QTEXTMODE
 70
     0
  9
$MIRRTEXT
 70
     1
  9
$LTSCALE
 40
30.0
  9
$ATTMODE
 70
     1
  9
$TEXTSIZE
 40
2.5
  9
$TRACEWID
 40
1.0
  9
$TEXTSTYLE
  7
Standard
  9
$CLAYER
  8
0
  9
$CELTYPE
  6
ByLayer
  9
$CECOLOR
 62
   256
  9
$CELTSCALE
 40
1.0
  9
$DISPSILH
 70
     0
  9
$DIMSCALE
 40
1.0
  9
$DIMASZ
 40
2.5
  9
$DIMEXO
 40
0.625
  9
$DIMDLI
 40
3.75
  9
$DIMRND
 40
0.0
  9
$DIMDLE
 40
0.0
  9
$DIMEXE
 40
1.25
  9
$DIMTP
 40
0.0
  9
$DIMTM
 40
0.0
  9
$DIMTXT
 40
2.5
  9
$DIMCEN
 40
2.5
  9
$DIMTSZ
 40
0.0
  9
$DIMTOL
 70
     0
  9
$DIMLIM
 70
     0
  9
$DIMTIH
 70
     0
  9
$DIMTOH
 70
     0
  9
$DIMSE1
 70
     0
  9
$DIMSE2
 70
     0
  9
$DIMTAD
 70
     1
  9
$DIMZIN
 70
     8
  9
$DIMBLK
  1

  9
$DIMASO
 70
     1
  9
$DIMSHO
 70
     1
  9
$DIMPOST
  1

  9
$DIMAPOST
  1

  9
$DIMALT
 70
     0
  9
$DIMALTD
 70
     3
  9
$DIMALTF
 40
0.03937007874016
  9
$DIMLFAC
 40
1.0
  9
$DIMTOFL
 70
     1
  9
$DIMTVP
 40
0.0
  9
$DIMTIX
 70
     0
  9
$DIMSOXD
 70
     0
  9
$DIMSAH
 70
     0
  9
$DIMBLK1
  1

  9
$DIMBLK2
  1

  9
$DIMSTYLE
  2
ISO-25
  9
$DIMCLRD
 70
     0
  9
$DIMCLRE
 70
     0
  9
$DIMCLRT
 70
     0
  9
$DIMTFAC
 40
1.0
  9
$DIMGAP
 40
0.625
  9
$DIMJUST
 70
     0
  9
$DIMSD1
 70
     0
  9
$DIMSD2
 70
     0
  9
$DIMTOLJ
 70
     0
  9
$DIMTZIN
 70
     8
  9
$DIMALTZ
 70
     0
  9
$DIMALTTZ
 70
     0
  9
$DIMUPT
 70
     0
  9
$DIMDEC
 70
     2
  9
$DIMTDEC
 70
     2
  9
$DIMALTU
 70
     2
  9
$DIMALTTD
 70
     3
  9
$DIMTXSTY
  7
Standard
  9
$DIMAUNIT
 70
     0
  9
$DIMADEC
 70
     0
  9
$DIMALTRND
 40
0.0
  9
$DIMAZIN
 70
     0
  9
$DIMDSEP
 70
    44
  9
$DIMATFIT
 70
     3
  9
$DIMFRAC
 70
     0
  9
$DIMLDRBLK
  1

  9
$DIMLUNIT
 70
     2
  9
$DIMLWD
 70
    -2
  9
$DIMLWE
 70
    -2
  9
$DIMTMOVE
 70
     0
  9
$DIMFXL
 40
1.0
  9
$DIMFXLON
 70
     0
  9
$DIMJOGANG
 40
0.7853981633974483
  9
$DIMTFILL
 70
     0
  9
$DIMTFILLCLR
 70
     0
  9
$DIMARCSYM
 70
     0
  9
$DIMLTYPE
  6

  9
$DIMLTEX1
  6

  9
$DIMLTEX2
  6

  9
$DIMTXTDIRECTION
 70
     0
  9
$LUNITS
 70
     2
  9
$LUPREC
 70
     4
  9
$SKETCHINC
 40
1.0
  9
$FILLETRAD
 40
10.0
  9
$AUNITS
 70
     0
  9
$AUPREC
 70
     0
  9
$MENU
  1
.
  9
$ELEVATION
 40
0.0
  9
$PELEVATION
 40
0.0
  9
$THICKNESS
 40
0.0
  9
$LIMCHECK
 70
     0
  9
$CHAMFERA
 40
10.0
  9
$CHAMFERB
 40
10.0
  9
$CHAMFERC
 40
20.0
  9
$CHAMFERD
 40
0.0
  9
$SKPOLY
 70
     0
  9
$TDCREATE
 40
2459380.621059734
  9
$TDUCREATE
 40
2459380.246059734
  9
$TDUPDATE
 40
2459380.621059746
  9
$TDUUPDATE
 40
2459380.246059746
  9
$TDINDWG
 40
0.0000000116
  9
$TDUSRTIMER
 40
0.0000000116
  9
$USRTIMER
 70
     1
  9
$ANGBASE
 50
0.0
  9
$ANGDIR
 70
     0
  9
$PDMODE
 70
     0
  9
$PDSIZE
 40
0.0
  9
$PLINEWID
 40
0.0
  9
$SPLFRAME
 70
     0
  9
$SPLINETYPE
 70
     6
  9
$SPLINESEGS
 70
     8
  9
$HANDSEED
  5
39E
  9
$SURFTAB1
 70
     6
  9
$SURFTAB2
 70
     6
  9
$SURFTYPE
 70
     6
  9
$SURFU
 70
     6
  9
$SURFV
 70
     6
  9
$UCSBASE
  2

  9
$UCSNAME
  2

  9
$UCSORG
 10
0.0
 20
0.0
 30
0.0
  9
$UCSXDIR
 10
1.0
 20
0.0
 30
0.0
  9
$UCSYDIR
 10
0.0
 20
1.0
 30
0.0
  9
$UCSORTHOREF
  2

  9
$UCSORTHOVIEW
 70
     0
  9
$UCSORGTOP
 10
0.0
 20
0.0
 30
0.0
  9
$UCSORGBOTTOM
 10
0.0
 20
0.0
 30
0.0
  9
$UCSORGLEFT
 10
0.0
 20
0.0
 30
0.0
  9
$UCSORGRIGHT
 10
0.0
 20
0.0
 30
0.0
  9
$UCSORGFRONT
 10
0.0
 20
0.0
 30
0.0
  9
$UCSORGBACK
 10
0.0
 20
0.0
 30
0.0
  9
$PUCSBASE
  2

  9
$PUCSNAME
  2

  9
$PUCSORG
 10
0.0
 20
0.0
 30
0.0
  9
$PUCSXDIR
 10
1.0
 20
0.0
 30
0.0
  9
$PUCSYDIR
 10
0.0
 20
1.0
 30
0.0
  9
$PUCSORTHOREF
  2

  9
$PUCSORTHOVIEW
 70
     0
  9
$PUCSORGTOP
 10
0.0
 20
0.0
 30
0.0
  9
$PUCSORGBOTTOM
 10
0.0
 20
0.0
 30
0.0
  9
$PUCSORGLEFT
 10
0.0
 20
0.0
 30
0.0
  9
$PUCSORGRIGHT
 10
0.0
 20
0.0
 30
0.0
  9
$PUCSORGFRONT
 10
0.0
 20
0.0
 30
0.0
  9
$PUCSORGBACK
 10
0.0
 20
0.0
 30
0.0
  9
$USERI1
 70
     0
  9
$USERI2
 70
     0
  9
$USERI3
 70
     0
  9
$USERI4
 70
     0
  9
$USERI5
 70
     0
  9
$USERR1
 40
0.0
  9
$USERR2
 40
0.0
  9
$USERR3
 40
0.0
  9
$USERR4
 40
0.0
  9
$USERR5
 40
0.0
  9
$WORLDVIEW
 70
     1
  9
$SHADEDGE
 70
     3
  9
$SHADEDIF
 70
    70
  9
$TILEMODE
 70
     1
  9
$MAXACTVP
 70
    64
  9
$PINSBASE
 10
0.0
 20
0.0
 30
0.0
  9
$PLIMCHECK
 70
     0
  9
$PEXTMIN
 10
1.000000000000000E+20
 20
1.000000000000000E+20
 30
1.000000000000000E+20
  9
$PEXTMAX
 10
-1.000000000000000E+20
 20
-1.000000000000000E+20
 30
-1.000000000000000E+20
  9
$PLIMMIN
 10
0.0
 20
0.0
  9
$PLIMMAX
 10
420.0
 20
297.0
  9
$UNITMODE
 70
     0
  9
$VISRETAIN
 70
     1
  9
$PLINEGEN
 70
     0
  9
$PSLTSCALE
 70
     1
  9
$TREEDEPTH
 70
  3020
  9
$CMLSTYLE
  2
Standard
  9
$CMLJUST
 70
     0
  9
$CMLSCALE
 40
20.0
  9
$PROXYGRAPHICS
 70
     1
  9
$MEASUREMENT
 70
     1
  9
$CELWEIGHT
370
    -1
  9
$ENDCAPS
280
     0
  9
$JOINSTYLE
280
     0
  9
$LWDISPLAY
290
     0
  9
$INSUNITS
 70
     4
  9
$HYPERLINKBASE
  1

  9
$STYLESHEET
  1

  9
$XEDIT
290
     1
  9
$CEPSNTYPE
380
     0
  9
$PSTYLEMODE
290
     1
  9
$FINGERPRINTGUID
  2
{9C3BCC3A-8C4F-4774-A4B2-CBA3276FBD52}
  9
$VERSIONGUID
  2
{FAEB1C32-E019-11D5-929B-00C0DF256EC4}
  9
$EXTNAMES
290
     1
  9
$PSVPSCALE
 40
0.0
  9
$OLESTARTUP
290
     0
  9
$SORTENTS
280
   127
  9
$INDEXCTL
280
     0
  9
$HIDETEXT
280
     1
  9
$XCLIPFRAME
280
     2
  9
$HALOGAP
280
     0
  9
$OBSCOLOR
 70
   257
  9
$OBSLTYPE
280
     0
  9
$INTERSECTIONDISPLAY
280
     0
  9
$INTERSECTIONCOLOR
 70
   257
  9
$DIMASSOC
280
     2
  9
$PROJECTNAME
  1

  9
$CAMERADISPLAY
290
     0
  9
$LENSLENGTH
 40
50.0
  9
$CAMERAHEIGHT
 40
0.0
  9
$STEPSPERSEC
 40
2.0
  9
$STEPSIZE
 40
6.0
  9
$3DDWFPREC
 40
2.0
  9
$PSOLWIDTH
 40
5.0
  9
$PSOLHEIGHT
 40
80.0
  9
$LOFTANG1
 40
1.570796326794897
  9
$LOFTANG2
 40
1.570796326794897
  9
$LOFTMAG1
 40
0.0
  9
$LOFTMAG2
 40
0.0
  9
$LOFTPARAM
 70
     7
  9
$LOFTNORMALS
280
     1
  9
$LATITUDE
 40
37.795
  9
$LONGITUDE
 40
-122.394
  9
$NORTHDIRECTION
 40
0.0
  9
$TIMEZONE
 70
 -8000
  9
$LIGHTGLYPHDISPLAY
280
     1
  9
$TILEMODELIGHTSYNCH
280
     1
  9
$SOLIDHIST
280
     1
  9
$SHOWHIST
280
     1
  9
$DWFFRAME
280
     2
  9
$DGNFRAME
280
     2
  9
$REALWORLDSCALE
290
     1
  9
$INTERFERECOLOR
 62
   256
  9
$CSHADOW
280
     0
  9
$SHADOWPLANELOCATION
 40
0.0
  0
ENDSEC
  0
SECTION
  2
CLASSES
  0
CLASS
  1
ACDBDICTIONARYWDFLT
  2
AcDbDictionaryWithDefault
  3
ObjectDBX Classes
 90
        0
 91
        4
280
     0
281
     0
  0
CLASS
  1
VISUALSTYLE
  2
AcDbVisualStyle
  3
ObjectDBX Classes
 90
     4095
 91
        4
280
     0
281
     0
  0
CLASS
  1
MATERIAL
  2
AcDbMaterial
  3
ObjectDBX Classes
 90
     1153
 91
        4
280
     0
281
     0
  0
ENDSEC
  0
SECTION
  2
TABLES
  0
TABLE
  2
VPORT
  5
8
330
0
100
AcDbSymbolTable
 70
     1
  0
VPORT
  5
29
330
8
100
AcDbSymbolTableRecord
100
AcDbViewportTableRecord
  2
*Active
 70
     0
 10
0.0
 20
0.0
 11
1.0
 21
1.0
 12
0.0
 22
0.0
 13
0.0
 23
0.0
 14
10.0
 24
10.0
 15
10.0
 25
10.0
 16
0.0
 26
0.0
 36
1.0
 17
0.0
 27
0.0
 37
0.0
 40
9801.0
 41
1.414141414141414
 42
50.0
 43
0.0
 44
0.0
 50
0.0
 51
0.0
 71
     0
 72
 10000
 73
     1
 74
     3
 75
     0
 76
     0
 77
     0
 78
     0
281
     0
 65
     1
110
0.0
120
0.0
130
0.0
111
1.0
121
0.0
131
0.0
112
0.0
122
1.0
132
0.0
 79
     0
146
0.0
 60
     3
 61
     5
292
     1
282
     1
141
0.0
142
0.0
 63
   250
  0
ENDTAB
  0
TABLE
  2
LTYPE
  5
5
330
0
100
AcDbSymbolTable
 70
     5
  0
LTYPE
  5
14
330
5
100
AcDbSymbolTableRecord
100
AcDbLinetypeTableRecord
  2
ByBlock
 70
     0
  3

 72
    65
 73
     0
 40
0.0
  0
LTYPE
  5
15
330
5
100
AcDbSymbolTableRecord
100
AcDbLinetypeTableRecord
  2
ByLayer
 70
     0
  3

 72
    65
 73
     0
 40
0.0
  0
LTYPE
  5
16
330
5
100
AcDbSymbolTableRecord
100
AcDbLinetypeTableRecord
  2
Continuous
 70
     0
  3
Solid line
 72
    65
 73
     0
 40
0.0
  0
LTYPE
  5
3F
330
5
100
AcDbSymbolTableRecord
100
AcDbLinetypeTableRecord
  2
JWW_HOJO
 70
     0
  3
  -   -   -   -   -   -   -   - 
 72
    65
 73
     2
 40
1.693333333333333
 49
-1.27
 74
     0
 49
0.4233333333333333
 74
     0
  0
LTYPE
  5
40
330
5
100
AcDbSymbolTableRecord
100
AcDbLinetypeTableRecord
  2
JWW_DASHED2
 70
     0
  3
--    ----    ----    ----    --
 72
    65
 73
     2
 40
3.386666666666667
 49
1.693333333333333
 74
     0
 49
-1.693333333333333
 74
     0
  0
LTYPE
  5
41
330
5
100
AcDbSymbolTableRecord
100
AcDbLinetypeTableRecord
  2
JWW_CENTER1
 70
     0
  3
-----  --  ----------  --  -----
 72
    65
 73
     4
 40
6.773333333333333
 49
4.233333333333333
 74
     0
 49
-0.8466666666666667
 74
     0
 49
0.8466666666666667
 74
     0
 49
-0.8466666666666667
 74
     0
  0
LTYPE
  5
42
330
5
100
AcDbSymbolTableRecord
100
AcDbLinetypeTableRecord
  2
JWW_DASHED1
 70
     0
  3
-  --  --  --  --  --  --  --  -
 72
    65
 73
     2
 40
1.693333333333333
 49
0.8466666666666667
 74
     0
 49
-0.8466666666666667
 74
     0
  0
ENDTAB
  0
TABLE
  2
LAYER
  5
2
330
0
100
AcDbSymbolTable
 70
    16
  0
LAYER
  5
10
330
2
100
AcDbSymbolTableRecord
100
AcDbLayerTableRecord
  2
0
 70
     0
 62
     7
  6
Continuous
370
    -3
390
F
347
3E
  0
LAYER
  5
43
330
2
100
AcDbSymbolTableRecord
100
AcDbLayerTableRecord
  2
戸当り
 70
     0
 62
     7
  6
Continuous
370
    -3
390
F
347
3E
  0
LAYER
  5
44
330
2
100
AcDbSymbolTableRecord
100
AcDbLayerTableRecord
  2
0-A_文字
 70
     0
 62
     7
  6
Continuous
370
    -3
390
F
347
3E
  0
LAYER
  5
45
330
2
100
AcDbSymbolTableRecord
100
AcDbLayerTableRecord
  2
0-0_補助線
 70
     0
 62
     7
  6
Continuous
370
    -3
390
F
347
3E
  0
LAYER
  5
46
330
2
100
AcDbSymbolTableRecord
100
AcDbLayerTableRecord
  2
F-A_文字
 70
     0
 62
     7
  6
Continuous
370
    -3
390
F
347
3E
  0
LAYER
  5
47
330
2
100
AcDbSymbolTableRecord
100
AcDbLayerTableRecord
  2
F-0_補助線
 70
     0
 62
     7
  6
Continuous
370
    -3
390
F
347
3E
  0
LAYER
  5
48
330
2
100
AcDbSymbolTableRecord
100
AcDbLayerTableRecord
  2
F-1_枠
 70
     0
 62
     7
  6
Continuous
370
    -3
390
F
347
3E
  0
LAYER
  5
49
330
2
100
AcDbSymbolTableRecord
100
AcDbLayerTableRecord
  2
0-B_寸法
 70
     0
 62
     7
  6
Continuous
370
    -3
390
F
347
3E
  0
LAYER
  5
4A
330
2
100
AcDbSymbolTableRecord
100
AcDbLayerTableRecord
  2
0-6_扉
 70
     0
 62
     7
  6
Continuous
370
    -3
390
F
347
3E
  0
LAYER
  5
4B
330
2
100
AcDbSymbolTableRecord
100
AcDbLayerTableRecord
  2
0-1_通り芯
 70
     0
 62
     7
  6
Continuous
370
    -3
390
F
347
3E
  0
LAYER
  5
4C
330
2
100
AcDbSymbolTableRecord
100
AcDbLayerTableRecord
  2
0-7_金物
 70
     0
 62
     7
  6
Continuous
370
    -3
390
F
347
3E
  0
LAYER
  5
4D
330
2
100
AcDbSymbolTableRecord
100
AcDbLayerTableRecord
  2
0-4_枠
 70
     0
 62
     7
  6
Continuous
370
    -3
390
F
347
3E
  0
LAYER
  5
4E
330
2
100
AcDbSymbolTableRecord
100
AcDbLayerTableRecord
  2
0-C_ハッチ
 70
     0
 62
     7
  6
Continuous
370
    -3
390
F
347
3E
  0
LAYER
  5
4F
330
2
100
AcDbSymbolTableRecord
100
AcDbLayerTableRecord
  2
0-3_仕上げ
 70
     0
 62
     7
  6
Continuous
370
    -3
390
F
347
3E
  0
LAYER
  5
50
330
2
100
AcDbSymbolTableRecord
100
AcDbLayerTableRecord
  2
0-E
 70
     0
 62
     7
  6
Continuous
370
    -3
390
F
347
3E
  0
LAYER
  5
51
330
2
100
AcDbSymbolTableRecord
100
AcDbLayerTableRecord
  2
1-E
 70
     0
 62
     7
  6
Continuous
370
    -3
390
F
347
3E
  0
ENDTAB
  0
TABLE
  2
STYLE
  5
3
330
0
100
AcDbSymbolTable
 70
     1
  0
STYLE
  5
11
330
3
100
AcDbSymbolTableRecord
100
AcDbTextStyleTableRecord
  2
Standard
 70
     0
 40
0.0
 41
1.0
 50
0.0
 71
     0
 42
2.5
  3
txt
  4

  0
ENDTAB
  0
TABLE
  2
VIEW
  5
6
330
0
100
AcDbSymbolTable
 70
     0
  0
ENDTAB
  0
TABLE
  2
UCS
  5
7
330
0
100
AcDbSymbolTable
 70
     0
  0
ENDTAB
  0
TABLE
  2
APPID
  5
9
330
0
100
AcDbSymbolTable
 70
     1
  0
APPID
  5
12
330
9
100
AcDbSymbolTableRecord
100
AcDbRegAppTableRecord
  2
ACAD
 70
     0
  0
ENDTAB
  0
TABLE
  2
DIMSTYLE
  5
A
330
0
100
AcDbSymbolTable
 70
     1
100
AcDbDimStyleTable
  0
DIMSTYLE
105
27
330
A
100
AcDbSymbolTableRecord
100
AcDbDimStyleTableRecord
  2
ISO-25
 70
     0
 41
2.5
 42
0.625
 43
3.75
 44
1.25
 73
     0
 74
     0
 77
     1
 78
     8
140
2.5
141
2.5
143
0.03937007874016
147
0.625
171
     3
172
     1
178
     0
271
     2
272
     2
274
     3
278
    44
283
     0
284
     8
340
11
  0
ENDTAB
  0
TABLE
  2
BLOCK_RECORD
  5
1
330
0
100
AcDbSymbolTable
 70
     2
  0
BLOCK_RECORD
  5
1F
330
1
100
AcDbSymbolTableRecord
100
AcDbBlockTableRecord
  2
*Model_Space
340
22
 70
     0
280
     1
281
     0
  0
BLOCK_RECORD
  5
1B
330
1
100
AcDbSymbolTableRecord
100
AcDbBlockTableRecord
  2
*Paper_Space
340
1E
 70
     0
280
     1
281
     0
  0
BLOCK_RECORD
  5
23
330
1
100
AcDbSymbolTableRecord
100
AcDbBlockTableRecord
  2
*Paper_Space0
340
26
 70
     0
280
     1
281
     0
  0
BLOCK_RECORD
  5
52
330
1
100
AcDbSymbolTableRecord
100
AcDbBlockTableRecord
  2
03@@SfigorgFlag@@4
340
0
102
{BLKREFS
331
23A
102
}
 70
     0
280
     1
281
     0
  0
ENDTAB
  0
ENDSEC
  0
SECTION
  2
BLOCKS
  0
BLOCK
  5
20
330
1F
100
AcDbEntity
  8
0
100
AcDbBlockBegin
  2
*Model_Space
 70
     0
 10
0.0
 20
0.0
 30
0.0
  3
*Model_Space
  1

  0
ENDBLK
  5
21
330
1F
100
AcDbEntity
  8
0
100
AcDbBlockEnd
  0
BLOCK
  5
1C
330
1B
100
AcDbEntity
 67
     1
  8
0
100
AcDbBlockBegin
  2
*Paper_Space
 70
     0
 10
0.0
 20
0.0
 30
0.0
  3
*Paper_Space
  1

  0
ENDBLK
  5
1D
330
1B
100
AcDbEntity
 67
     1
  8
0
100
AcDbBlockEnd
  0
BLOCK
  5
24
330
23
100
AcDbEntity
  8
0
100
AcDbBlockBegin
  2
*Paper_Space0
 70
     0
 10
0.0
 20
0.0
 30
0.0
  3
*Paper_Space0
  1

  0
ENDBLK
  5
25
330
23
100
AcDbEntity
  8
0
100
AcDbBlockEnd
  0
BLOCK
  5
53
330
52
100
AcDbEntity
  8
0
100
AcDbBlockBegin
  2
03@@SfigorgFlag@@4
 70
     0
 10
0.0
 20
0.0
 30
0.0
  3
03@@SfigorgFlag@@4
  1

  0
LINE
  5
374
330
52
100
AcDbEntity
  8
0-0_補助線
  6
Continuous
 62
     7
370
     9
100
AcDbLine
 10
-0.3159038607017521
 20
0.4295350827996884
 30
0.0
 11
0.3840961392983289
 21
0.4295350827996884
 31
0.0
  0
LINE
  5
375
330
52
100
AcDbEntity
  8
0-0_補助線
  6
Continuous
 62
     7
370
     9
100
AcDbLine
 10
1.044096139298325
 20
-0.1204838333161433
 30
0.0
 11
1.044096139298325
 21
-0.3504649172002416
 31
0.0
  0
LINE
  5
376
330
52
100
AcDbEntity
  8
0-0_補助線
  6
Continuous
 62
     7
370
     9
100
AcDbLine
 10
1.084096139298332
 20
-0.3904649172002479
 30
0.0
 11
1.194096139298246
 21
-0.3904649172002479
 31
0.0
  0
LINE
  5
377
330
52
100
AcDbEntity
  8
0-0_補助線
  6
Continuous
 62
     7
370
     9
100
AcDbLine
 10
1.194096139298246
 20
-0.3904649172002479
 30
0.0
 11
1.194096139298246
 21
-0.5304649172002485
 31
0.0
  0
LINE
  5
378
330
52
100
AcDbEntity
  8
0-0_補助線
  6
Continuous
 62
     7
370
     9
100
AcDbLine
 10
1.044096139298325
 20
-0.3504649172002416
 30
0.0
 11
1.044096139298325
 21
-0.3904649172002479
 31
0.0
  0
LINE
  5
379
330
52
100
AcDbEntity
  8
0-0_補助線
  6
Continuous
 62
     7
370
     9
100
AcDbLine
 10
1.044096139298325
 20
-0.3904649172002479
 30
0.0
 11
1.084096139298332
 21
-0.3904649172002479
 31
0.0
  0
LINE
  5
37A
330
52
100
AcDbEntity
  8
0-0_補助線
  6
Continuous
 62
     7
370
     9
100
AcDbLine
 10
0.6340961392982436
 20
0.2695350827996918
 30
0.0
 11
0.6340961392982436
 21
0.1695350827996975
 31
0.0
  0
LINE
  5
37B
330
52
100
AcDbEntity
  8
0-0_補助線
  6
Continuous
 62
     7
370
     9
100
AcDbLine
 10
0.6340961392982436
 20
0.2695350827996918
 30
0.0
 11
0.5340961392982493
 21
0.3695350827996862
 31
0.0
  0
LINE
  5
37C
330
52
100
AcDbEntity
  8
0-0_補助線
  6
Continuous
 62
     7
370
     9
100
AcDbLine
 10
-0.4659038607017578
 20
0.3695350827996862
 30
0.0
 11
-0.5659038607017521
 21
0.2695350827996918
 31
0.0
  0
LINE
  5
37D
330
52
100
AcDbEntity
  8
0-0_補助線
  6
Continuous
 62
     7
370
     9
100
AcDbLine
 10
-0.5659038607017237
 20
0.1695350827996975
 30
0.0
 11
-0.5659038607017521
 21
0.2695350827996918
 31
0.0
  0
LINE
  5
37E
330
52
100
AcDbEntity
  8
0-0_補助線
  6
Continuous
 62
     7
370
     9
100
AcDbLine
 10
-1.015903860701826
 20
-0.3904649172002479
 30
0.0
 11
-0.9759038607018056
 21
-0.3904649172002479
 31
0.0
  0
LINE
  5
37F
330
52
100
AcDbEntity
  8
0-0_補助線
  6
Continuous
 62
     7
370
     9
100
AcDbLine
 10
-0.9759038607018056
 20
-0.3904649172002479
 30
0.0
 11
-0.9759038607018056
 21
-0.3504649172002416
 31
0.0
  0
LINE
  5
380
330
52
100
AcDbEntity
  8
0-0_補助線
  6
Continuous
 62
     7
370
     9
100
AcDbLine
 10
-1.125903860701726
 20
-0.5304649172002485
 30
0.0
 11
-1.125903860701726
 21
-0.3904649172002479
 31
0.0
  0
LINE
  5
381
330
52
100
AcDbEntity
  8
0-0_補助線
  6
Continuous
 62
     7
370
     9
100
AcDbLine
 10
-1.125903860701726
 20
-0.3904649172002479
 30
0.0
 11
-1.015903860701826
 21
-0.3904649172002479
 31
0.0
  0
LINE
  5
382
330
52
100
AcDbEntity
  8
0-0_補助線
  6
Continuous
 62
     7
370
     9
100
AcDbLine
 10
-0.9759038607018056
 20
-0.3504649172002416
 30
0.0
 11
-0.9759038607018056
 21
-0.1204838333161433
 31
0.0
  0
ARC
  5
383
330
52
100
AcDbEntity
  8
0-0_補助線
  6
Continuous
 62
     7
370
     9
100
AcDbCircle
 10
1.034096139298249
 20
-0.5304649172002485
 30
0.0
 40
0.1600000000000016
100
AcDbArc
 50
270.0
 51
0.0
  0
ARC
  5
384
330
52
100
AcDbEntity
  8
0-0_補助線
  6
Continuous
 62
     7
370
     9
100
AcDbCircle
 10
-0.9659038607017294
 20
-0.5304649172002485
 30
0.0
 40
0.1600000000000023
100
AcDbArc
 50
180.0
 51
270.0
  0
LINE
  5
385
330
52
100
AcDbEntity
  8
0-0_補助線
  6
Continuous
 62
     7
370
     9
100
AcDbLine
 10
-0.5659038607017237
 20
0.4736168279767838
 30
0.0
 11
0.6340961392982436
 21
0.473616827976798
 31
0.0
  0
LINE
  5
386
330
52
100
AcDbEntity
  8
0-0_補助線
  6
Continuous
 62
     7
370
     9
100
AcDbLine
 10
-0.3159038607017521
 20
0.4295350827996884
 30
0.0
 11
-0.5659038607017237
 21
0.4736168279767838
 31
0.0
  0
LINE
  5
387
330
52
100
AcDbEntity
  8
0-0_補助線
  6
Continuous
 62
     7
370
     9
100
AcDbLine
 10
0.3840961392983289
 20
0.4295350827996884
 30
0.0
 11
0.6340961392982436
 21
0.473616827976798
 31
0.0
  0
LINE
  5
388
330
52
100
AcDbEntity
  8
0-0_補助線
  6
Continuous
 62
     7
370
     9
100
AcDbLine
 10
-0.3159038607017521
 20
0.4295350827996884
 30
0.0
 11
-0.3159038607017521
 21
0.3695350827996862
 31
0.0
  0
LINE
  5
389
330
52
100
AcDbEntity
  8
0-0_補助線
  6
Continuous
 62
     7
370
     9
100
AcDbLine
 10
0.3840961392983289
 20
0.4295350827996884
 30
0.0
 11
0.3840961392983289
 21
0.3695350827996862
 31
0.0
  0
LINE
  5
38A
330
52
100
AcDbEntity
  8
0-0_補助線
  6
Continuous
 62
     7
370
     9
100
AcDbLine
 10
-0.4659038607017578
 20
0.3695350827996862
 30
0.0
 11
0.5340961392982493
 21
0.3695350827996862
 31
0.0
  0
LINE
  5
38B
330
52
100
AcDbEntity
  8
0-0_補助線
  6
Continuous
 62
     7
370
     9
100
AcDbLine
 10
0.6340961392982436
 20
0.2695350827996918
 30
0.0
 11
-0.5659038607017521
 21
0.2695350827997771
 31
0.0
  0
LINE
  5
38C
330
52
100
AcDbEntity
  8
0-0_補助線
  6
Continuous
 62
     7
370
     9
100
AcDbLine
 10
-1.001672218598486
 20
-0.1164025263725961
 30
0.0
 11
-0.9759038607018056
 21
-0.1204838333161433
 31
0.0
  0
LINE
  5
38D
330
52
100
AcDbEntity
  8
0-0_補助線
  6
Continuous
 62
     7
370
     9
100
AcDbLine
 10
-0.9759038607018056
 20
-0.3904649172002479
 30
0.0
 11
1.044096139298325
 21
-0.3904649172002479
 31
0.0
  0
LINE
  5
38E
330
52
100
AcDbEntity
  8
0-0_補助線
  6
Continuous
 62
     7
370
     9
100
AcDbLine
 10
-0.9659038607017294
 20
-0.6904649172002593
 30
0.0
 11
1.034096139298249
 21
-0.6904649172002593
 31
0.0
  0
LINE
  5
38F
330
52
100
AcDbEntity
  8
0-0_補助線
  6
Continuous
 62
     7
370
     9
100
AcDbLine
 10
-0.9759038607018056
 20
-0.1225824922177026
 30
0.0
 11
1.044096139298325
 21
-0.1225824922177026
 31
0.0
  0
LINE
  5
390
330
52
100
AcDbEntity
  8
0-0_補助線
  6
Continuous
 62
     7
370
     9
100
AcDbLine
 10
-0.5659038607013542
 20
1.2813521170538
 30
0.0
 11
-0.5659038607017237
 21
0.4736168279767838
 31
0.0
  0
LINE
  5
391
330
52
100
AcDbEntity
  8
0-0_補助線
  6
Continuous
 62
     7
370
     9
100
AcDbLine
 10
0.6340961392982436
 20
0.473616827976798
 30
0.0
 11
0.6340961392986202
 21
1.2813521170538
 31
0.0
  0
LINE
  5
392
330
52
100
AcDbEntity
  8
0-0_補助線
  6
Continuous
 62
     7
370
     9
100
AcDbLine
 10
-1.291710868090519
 20
-0.0704649172003116
 30
0.0
 11
-1.001672218598486
 21
-0.1164025263725961
 31
0.0
  0
LINE
  5
393
330
52
100
AcDbEntity
  8
0-0_補助線
  6
Continuous
 62
     7
370
     9
100
AcDbLine
 10
-1.365903860701707
 20
0.1695350827996975
 30
0.0
 11
0.6340961392982436
 21
0.1695350827996975
 31
0.0
  0
LINE
  5
394
330
52
100
AcDbEntity
  8
0-0_補助線
  6
Continuous
 62
     7
370
     9
100
AcDbLine
 10
-1.465903860701701
 20
-0.0704649172003116
 30
0.0
 11
-1.465903860701729
 21
0.069535082799689
 31
0.0
  0
ARC
  5
395
330
52
100
AcDbEntity
  8
0-0_補助線
  6
Continuous
 62
     7
370
     9
100
AcDbCircle
 10
-1.365903860701707
 20
0.069535082799689
 30
0.0
 40
0.1
100
AcDbArc
 50
90.0
 51
180.0
  0
LINE
  5
396
330
52
100
AcDbEntity
  8
0-0_補助線
  6
Continuous
 62
     7
370
     9
100
AcDbLine
 10
-1.465903860701701
 20
-0.0704649172003116
 30
0.0
 11
-1.291710868090519
 21
-0.0704649172003116
 31
0.0
  0
LINE
  5
397
330
52
100
AcDbEntity
  8
0-0_補助線
  6
Continuous
 62
     7
370
     9
100
AcDbLine
 10
0.6340961392982436
 20
0.1695350827996975
 30
0.0
 11
1.434096139298227
 21
0.1695350827996975
 31
0.0
  0
ARC
  5
398
330
52
100
AcDbEntity
  8
0-0_補助線
  6
Continuous
 62
     7
370
     9
100
AcDbCircle
 10
1.434096139298227
 20
0.069535082799689
 30
0.0
 40
0.1000000000000227
100
AcDbArc
 50
0.0
 51
90.0
  0
LINE
  5
399
330
52
100
AcDbEntity
  8
0-0_補助線
  6
Continuous
 62
     7
370
     9
100
AcDbLine
 10
1.534096139298249
 20
0.069535082799689
 30
0.0
 11
1.534096139298221
 21
-0.0704649172003116
 31
0.0
  0
LINE
  5
39A
330
52
100
AcDbEntity
  8
0-0_補助線
  6
Continuous
 62
     7
370
     9
100
AcDbLine
 10
1.359903146687024
 20
-0.0704649172003116
 30
0.0
 11
1.534096139298221
 21
-0.0704649172003116
 31
0.0
  0
LINE
  5
39B
330
52
100
AcDbEntity
  8
0-0_補助線
  6
Continuous
 62
     7
370
     9
100
AcDbLine
 10
1.044096139298325
 20
-0.1204838333161433
 30
0.0
 11
1.359903146687024
 21
-0.0704649172003116
 31
0.0
  0
ENDBLK
  5
54
330
52
100
AcDbEntity
  8
0
100
AcDbBlockEnd
  0
ENDSEC
  0
SECTION
  2
ENTITIES
  0
ELLIPSE
  5
55
330
1F
100
AcDbEntity
  8
戸当り
  6
Continuous
 62
    92
370
    13
100
AcDbEllipse
 10
4855.430917458078
 20
2876.053590301511
 30
0.0
 11
11.36181697857171
 21
42.40287823032828
 31
0.0
210
0.0
220
0.0
230
0.9999999999999999
 40
0.6
 41
1.570796326794897
 42
4.71238898038469
  0
LINE
  5
56
330
1F
100
AcDbEntity
  8
戸当り
  6
Continuous
 62
    92
370
    13
100
AcDbLine
 10
4880.872644396272
 20
2869.236500114367
 30
0.0
 11
4829.989190519878
 21
2882.870680488653
 31
0.0
  0
LINE
  5
57
330
1F
100
AcDbEntity
  8
戸当り
  6
Continuous
 62
    92
370
    13
100
AcDbLine
 10
4884.133764364564
 20
2881.407165525609
 30
0.0
 11
4833.25031048817
 21
2895.041345899896
 31
0.0
  0
ELLIPSE
  5
58
330
1F
100
AcDbEntity
  8
戸当り
  6
Continuous
 62
    92
370
    13
100
AcDbEllipse
 10
4879.604310755758
 20
2966.269922279796
 30
0.0
 11
21.86569797210526
 21
81.6038957748525
 31
0.0
210
0.0
220
0.0
230
1.0
 40
0.5
 41
4.340591432030095
 42
8.225779182329084
  0
ELLIPSE
  5
59
330
1F
100
AcDbEntity
  8
戸当り
  6
Continuous
 62
    92
370
    13
100
AcDbEllipse
 10
4878.978687882654
 20
2963.935065931004
 30
0.0
 11
26.49533313827761
 21
98.88192943551533
 31
0.0
210
0.0
220
0.0
230
0.9999999999999999
 40
0.4
 41
3.840308517104466
 42
4.432552034522944
  0
ELLIPSE
  5
5A
330
1F
100
AcDbEntity
  8
戸当り
  6
Continuous
 62
    92
370
    13
100
AcDbEllipse
 10
4878.978687882654
 20
2963.935065931004
 30
0.0
 11
26.49533313827761
 21
98.88192943551533
 31
0.0
210
0.0
220
0.0
230
0.9999999999999999
 40
0.4
 41
1.850633272656679
 42
2.442876790075129
  0
ELLIPSE
  5
5B
330
1F
100
AcDbEntity
  8
戸当り
  6
Continuous
 62
    92
370
    13
100
AcDbEllipse
 10
4740.316707711373
 20
2838.28484693721
 30
0.0
 11
-7.622927487939132
 21
43.23177007461331
 31
0.0
210
0.0
220
0.0
230
1.0
 40
0.6000000000000001
 41
1.570796326794897
 42
4.71238898038469
  0
LINE
  5
5C
330
1F
100
AcDbEntity
  8
戸当り
  6
Continuous
 62
    92
370
    13
100
AcDbLine
 10
4766.255769756144
 20
2842.858603429973
 30
0.0
 11
4714.377645666606
 21
2833.711090444447
 31
0.0
  0
LINE
  5
5D
330
1F
100
AcDbEntity
  8
戸当り
  6
Continuous
 62
    92
370
    13
100
AcDbLine
 10
4764.067802717541
 20
2855.267181117928
 30
0.0
 11
4712.189678628002
 21
2846.1196681324
 31
0.0
  0
ELLIPSE
  5
5E
330
1F
100
AcDbEntity
  8
戸当り
  6
Continuous
 62
    92
370
    13
100
AcDbEllipse
 10
4724.098172894875
 20
2930.264728582853
 30
0.0
 11
-14.67024424252691
 21
83.19908946199426
 31
0.0
210
0.0
220
0.0
230
1.0
 40
0.5
 41
4.340591432030095
 42
8.225779182329084
  0
ELLIPSE
  5
5F
330
1F
100
AcDbEntity
  8
戸当り
  6
Continuous
 62
    92
370
    13
100
AcDbEllipse
 10
4724.517918944779
 20
2927.884230441196
 30
0.0
 11
-17.7763823922528
 21
100.8148742797557
 31
0.0
210
0.0
220
0.0
230
1.0
 40
0.4000000000000001
 41
3.840308517104466
 42
4.432552034522944
  0
ELLIPSE
  5
60
330
1F
100
AcDbEntity
  8
戸当り
  6
Continuous
 62
    92
370
    13
100
AcDbEllipse
 10
4724.517918944779
 20
2927.884230441196
 30
0.0
 11
-17.7763823922528
 21
100.8148742797557
 31
0.0
210
0.0
220
0.0
230
1.0
 40
0.4000000000000001
 41
1.850633272656679
 42
2.442876790075129
  0
LINE
  5
61
330
1F
100
AcDbEntity
  8
0-A_文字
  6
Continuous
 62
    92
370
    13
100
AcDbLine
 10
5369.917643811961
 20
3684.999983504013
 30
0.0
 11
5369.917643811961
 21
2718.999983504013
 31
0.0
  0
LINE
  5
62
330
1F
100
AcDbEntity
  8
0-A_文字
  6
Continuous
 62
    92
370
    13
100
AcDbLine
 10
5369.917643811961
 20
2718.999983504013
 30
0.0
 11
4229.917643811961
 21
2718.999983504013
 31
0.0
  0
LINE
  5
63
330
1F
100
AcDbEntity
  8
0-A_文字
  6
Continuous
 62
    92
370
    13
100
AcDbLine
 10
4229.917643811961
 20
3684.999983504013
 30
0.0
 11
4229.917643811961
 21
2718.999983504013
 31
0.0
  0
LINE
  5
64
330
1F
100
AcDbEntity
  8
0-0_補助線
  6
JWW_HOJO
 62
   120
370
     5
100
AcDbLine
 10
5339.917643811961
 20
3684.999983504013
 30
0.0
 11
5339.917643811961
 21
2718.999983504013
 31
0.0
  0
LINE
  5
65
330
1F
100
AcDbEntity
  8
0-0_補助線
  6
JWW_HOJO
 62
   120
370
     5
100
AcDbLine
 10
4259.917643811961
 20
3684.999983504013
 30
0.0
 11
4259.917643811961
 21
2718.999983504013
 31
0.0
  0
LINE
  5
66
330
1F
100
AcDbEntity
  8
0-0_補助線
  6
JWW_HOJO
 62
   120
370
     5
100
AcDbLine
 10
4799.917643811961
 20
3684.999983504013
 30
0.0
 11
4799.917643811961
 21
2718.999983504013
 31
0.0
  0
CIRCLE
  5
67
330
1F
100
AcDbEntity
  8
0-0_補助線
  6
JWW_HOJO
 62
   120
370
     5
100
AcDbCircle
 10
5159.917643811961
 20
3385.504011182749
 30
0.0
 40
240.0
  0
CIRCLE
  5
68
330
1F
100
AcDbEntity
  8
0-0_補助線
  6
JWW_HOJO
 62
   120
370
     5
100
AcDbCircle
 10
4799.917643811961
 20
3385.504011182749
 30
0.0
 40
240.0
  0
CIRCLE
  5
69
330
1F
100
AcDbEntity
  8
0-0_補助線
  6
JWW_HOJO
 62
   120
370
     5
100
AcDbCircle
 10
4444.047372024825
 20
3385.504011182749
 30
0.0
 40
240.0
  0
LINE
  5
6A
330
1F
100
AcDbEntity
  8
戸当り
  6
Continuous
 62
    40
370
    15
100
AcDbLine
 10
4502.034214636565
 20
3153.681812873372
 30
0.0
 11
4564.150785461171
 21
3385.504011182749
 31
0.0
  0
LINE
  5
6B
330
1F
100
AcDbEntity
  8
戸当り
  6
Continuous
 62
    40
370
    15
100
AcDbLine
 10
4502.034214636565
 20
3153.681812873372
 30
0.0
 11
4439.917643811961
 21
3385.504011182749
 31
0.0
  0
LINE
  5
6C
330
1F
100
AcDbEntity
  8
戸当り
  6
Continuous
 62
    40
370
    15
100
AcDbLine
 10
5035.684502162751
 20
3385.504011182749
 30
0.0
 11
5097.801072987355
 21
3153.681812873372
 31
0.0
  0
LINE
  5
6D
330
1F
100
AcDbEntity
  8
戸当り
  6
Continuous
 62
    40
370
    15
100
AcDbLine
 10
5159.917643811961
 20
3385.504011182749
 30
0.0
 11
5097.801072987355
 21
3153.681812873372
 31
0.0
  0
LINE
  5
6E
330
1F
100
AcDbEntity
  8
戸当り
  6
JWW_DASHED2
 62
     7
370
     9
100
AcDbLine
 10
5159.917643811961
 20
3385.504011182749
 30
0.0
 11
4439.917643811961
 21
3385.504011182749
 31
0.0
  0
LINE
  5
6F
330
1F
100
AcDbEntity
  8
戸当り
  6
Continuous
 62
    40
370
    15
100
AcDbLine
 10
5159.917643811961
 20
3439.504011182748
 30
0.0
 11
5159.917643811961
 21
3385.504011182749
 31
0.0
  0
LINE
  5
70
330
1F
100
AcDbEntity
  8
戸当り
  6
Continuous
 62
    40
370
    15
100
AcDbLine
 10
5159.917643811961
 20
3439.504011182748
 30
0.0
 11
5339.917643811961
 21
3439.504011182748
 31
0.0
  0
LINE
  5
71
330
1F
100
AcDbEntity
  8
戸当り
  6
Continuous
 62
    40
370
    15
100
AcDbLine
 10
5159.917643811961
 20
3385.504011182749
 30
0.0
 11
5339.917643811961
 21
3385.504011182749
 31
0.0
  0
LINE
  5
72
330
1F
100
AcDbEntity
  8
戸当り
  6
Continuous
 62
    40
370
    15
100
AcDbLine
 10
4439.917643811961
 20
3439.504011182748
 30
0.0
 11
4439.917643811961
 21
3385.504011182749
 31
0.0
  0
LINE
  5
73
330
1F
100
AcDbEntity
  8
戸当り
  6
Continuous
 62
    40
370
    15
100
AcDbLine
 10
4439.917643811961
 20
3439.504011182748
 30
0.0
 11
4259.917643811961
 21
3439.504011182748
 31
0.0
  0
LINE
  5
74
330
1F
100
AcDbEntity
  8
戸当り
  6
Continuous
 62
    40
370
    15
100
AcDbLine
 10
4439.917643811961
 20
3385.504011182749
 30
0.0
 11
4259.917643811961
 21
3385.504011182749
 31
0.0
  0
LINE
  5
75
330
1F
100
AcDbEntity
  8
0-A_文字
  6
Continuous
 62
    92
370
    13
100
AcDbLine
 10
5369.917643811961
 20
3540.999983504012
 30
0.0
 11
4229.917643811961
 21
3540.999983504012
 31
0.0
  0
LINE
  5
76
330
1F
100
AcDbEntity
  8
0-A_文字
  6
Continuous
 62
    92
370
    13
100
AcDbLine
 10
5369.917643811961
 20
3684.999983504013
 30
0.0
 11
4229.917643811961
 21
3684.999983504013
 31
0.0
  0
MTEXT
  5
77
330
1F
100
AcDbEntity
  8
0-A_文字
  6
Continuous
 62
     7
370
     9
100
AcDbMText
 10
4278.667643811961
 20
3554.775383504013
 30
0.0
 40
63.55080000000001
 41
1042.5
 46
0.0
 71
     7
 72
     1
  1
{\fＭＳ ゴシック|b0|i0|c128|p49;上吊軸固定/フリーオープン}
 73
     1
 44
1.0
  0
MTEXT
  5
78
330
1F
100
AcDbEntity
  8
F-A_文字
  6
Continuous
 62
     7
370
     0
100
AcDbMText
 10
5768.321977672939
 20
-4314.841419020919
 30
0.0
 40
68.58
 41
90.0
 46
0.0
 71
     7
 72
     1
  1
{\fＭＳ ゴシック|b0|i0|c128|p49;）}
 73
     1
 44
1.0
  0
MTEXT
  5
79
330
1F
100
AcDbEntity
  8
F-A_文字
  6
Continuous
 62
     7
370
     0
100
AcDbMText
 10
5548.066114483239
 20
-4314.771967288282
 30
0.0
 40
74.295
 41
195.0
 46
0.0
 71
     7
 72
     1
  1
{\fＭＳ ゴシック|b0|i0|c128|p49;印刷}
 73
     1
 44
1.0
  0
MTEXT
  5
7A
330
1F
100
AcDbEntity
  8
F-A_文字
  6
Continuous
 62
     7
370
     0
100
AcDbMText
 10
5393.32938200033
 20
-4314.771967288282
 30
0.0
 40
74.295
 41
97.5
 46
0.0
 71
     7
 72
     1
  1
{\fＭＳ ゴシック|b0|i0|c128|p49;$d}
 73
     1
 44
1.0
  0
MTEXT
  5
7B
330
1F
100
AcDbEntity
  8
F-A_文字
  6
Continuous
 62
     7
370
     0
100
AcDbMText
 10
5350.114617405298
 20
-4316.235443869856
 30
0.0
 40
68.58
 41
45.0
 46
0.0
 71
     7
 72
     1
  1
{\fＭＳ ゴシック|b0|i0|c128|p49;,}
 73
     1
 44
1.0
  0
MTEXT
  5
7C
330
1F
100
AcDbEntity
  8
F-A_文字
  6
Continuous
 62
     7
370
     0
100
AcDbMText
 10
5238.592649517422
 20
-4314.771967288282
 30
0.0
 40
74.295
 41
97.5
 46
0.0
 71
     7
 72
     1
  1
{\fＭＳ ゴシック|b0|i0|c128|p49;$m}
 73
     1
 44
1.0
  0
MTEXT
  5
7D
330
1F
100
AcDbEntity
  8
F-A_文字
  6
Continuous
 62
     7
370
     0
100
AcDbMText
 10
5191.195810375571
 20
-4319.023493567732
 30
0.0
 40
68.58
 41
45.0
 46
0.0
 71
     7
 72
     1
  1
{\fＭＳ ゴシック|b0|i0|c128|p49;,}
 73
     1
 44
1.0
  0
MTEXT
  5
7E
330
1F
100
AcDbEntity
  8
F-A_文字
  6
Continuous
 62
     7
370
     0
100
AcDbMText
 10
5083.855928478601
 20
-4314.771967288282
 30
0.0
 40
74.295
 41
97.5
 46
0.0
 71
     7
 72
     1
  1
{\fＭＳ ゴシック|b0|i0|c128|p49;$y}
 73
     1
 44
1.0
  0
MTEXT
  5
7F
330
1F
100
AcDbEntity
  8
F-A_文字
  6
Continuous
 62
     7
370
     0
100
AcDbMText
 10
4943.952040816226
 20
-4319.023493567732
 30
0.0
 40
68.58
 41
90.0
 46
0.0
 71
     7
 72
     1
  1
{\fＭＳ ゴシック|b0|i0|c128|p49;（}
 73
     1
 44
1.0
  0
LINE
  5
80
330
1F
100
AcDbEntity
  8
F-0_補助線
  6
JWW_HOJO
 62
   120
370
     5
100
AcDbLine
 10
-6140.081333436773
 20
-4455.0
 30
0.0
 11
-6140.081333436773
 21
4424.999604096284
 31
0.0
  0
LINE
  5
81
330
1F
100
AcDbEntity
  8
F-0_補助線
  6
JWW_HOJO
 62
   120
370
     5
100
AcDbLine
 10
-6140.081333436773
 20
4424.999604096284
 30
0.0
 11
6159.917676803936
 21
4424.999604096284
 31
0.0
  0
LINE
  5
82
330
1F
100
AcDbEntity
  8
F-0_補助線
  6
JWW_HOJO
 62
   120
370
     5
100
AcDbLine
 10
6159.917676803936
 20
4424.999604096284
 30
0.0
 11
6159.917676803936
 21
-4455.0
 31
0.0
  0
LINE
  5
83
330
1F
100
AcDbEntity
  8
F-0_補助線
  6
JWW_HOJO
 62
   120
370
     5
100
AcDbLine
 10
6159.917676803936
 20
-4455.0
 30
0.0
 11
-6140.081333436773
 21
-4455.0
 31
0.0
  0
LINE
  5
84
330
1F
100
AcDbEntity
  8
F-1_枠
  6
Continuous
 62
   200
370
    20
100
AcDbLine
 10
5859.917429364114
 20
4174.999769056166
 30
0.0
 11
5859.917429364114
 21
-4205.000164959882
 31
0.0
  0
LINE
  5
85
330
1F
100
AcDbEntity
  8
F-1_枠
  6
Continuous
 62
   200
370
    20
100
AcDbLine
 10
-5840.081317971782
 20
4174.999769056166
 30
0.0
 11
-5840.081317971782
 21
-4205.000164959882
 31
0.0
  0
LINE
  5
86
330
1F
100
AcDbEntity
  8
F-1_枠
  6
Continuous
 62
   200
370
    20
100
AcDbLine
 10
5859.917429364114
 20
-4205.000002577498
 30
0.0
 11
-5840.081085996952
 21
-4205.000002577498
 31
0.0
  0
LINE
  5
87
330
1F
100
AcDbEntity
  8
F-1_枠
  6
Continuous
 62
   200
370
    20
100
AcDbLine
 10
-5830.081323642279
 20
4174.999769056166
 30
0.0
 11
-5830.081323642279
 21
-4205.000164959882
 31
0.0
  0
LINE
  5
88
330
1F
100
AcDbEntity
  8
F-1_枠
  6
Continuous
 62
   200
370
    20
100
AcDbLine
 10
-5835.081309208291
 20
4174.999769056166
 30
0.0
 11
-5835.081309208291
 21
-4205.000164959882
 31
0.0
  0
LINE
  5
89
330
1F
100
AcDbEntity
  8
F-1_枠
  6
Continuous
 62
   200
370
    20
100
AcDbLine
 10
5854.917165428304
 20
4174.999769056166
 30
0.0
 11
5854.917165428304
 21
-4205.000164959882
 31
0.0
  0
LINE
  5
8A
330
1F
100
AcDbEntity
  8
F-1_枠
  6
Continuous
 62
   200
370
    20
100
AcDbLine
 10
5849.917643811961
 20
4174.999769056166
 30
0.0
 11
5849.917643811961
 21
-4205.000164959882
 31
0.0
  0
LINE
  5
8B
330
1F
100
AcDbEntity
  8
F-1_枠
  6
Continuous
 62
   200
370
    20
100
AcDbLine
 10
5859.917429364114
 20
-4199.999993814004
 30
0.0
 11
-5840.081085996952
 21
-4199.999993814004
 31
0.0
  0
LINE
  5
8C
330
1F
100
AcDbEntity
  8
F-1_枠
  6
Continuous
 62
   200
370
    20
100
AcDbLine
 10
5859.917429364114
 20
-4195.000008247994
 30
0.0
 11
-5840.081085996952
 21
-4195.000008247994
 31
0.0
  0
LINE
  5
8D
330
1F
100
AcDbEntity
  8
F-1_枠
  6
Continuous
 62
   200
370
    20
100
AcDbLine
 10
9.918542843316231
 20
-3994.999936078046
 30
0.0
 11
5849.917643811961
 21
-3995.005364289155
 31
0.0
  0
LINE
  5
8E
330
1F
100
AcDbEntity
  8
F-1_枠
  6
Continuous
 62
   200
370
    20
100
AcDbLine
 10
-5840.081085996952
 20
4174.999769056166
 30
0.0
 11
5859.917429364114
 21
4174.999769056166
 31
0.0
  0
LINE
  5
8F
330
1F
100
AcDbEntity
  8
F-1_枠
  6
Continuous
 62
   200
370
    20
100
AcDbLine
 10
-5840.081085996952
 20
4164.999983504013
 30
0.0
 11
5859.917429364114
 21
4164.999983504013
 31
0.0
  0
LINE
  5
90
330
1F
100
AcDbEntity
  8
F-1_枠
  6
Continuous
 62
   200
370
    20
100
AcDbLine
 10
-5840.081085996952
 20
4169.999505120355
 30
0.0
 11
5859.917429364114
 21
4169.999505120355
 31
0.0
  0
LINE
  5
91
330
1F
100
AcDbEntity
  8
F-0_補助線
  6
JWW_HOJO
 62
     7
370
     9
100
AcDbLine
 10
-5830.081323642279
 20
-3994.99993607839
 30
0.0
 11
9.918542843316231
 21
-3994.99993607839
 31
0.0
  0
LINE
  5
92
330
1F
100
AcDbEntity
  8
F-0_補助線
  6
JWW_HOJO
 62
     7
370
     9
100
AcDbLine
 10
-5830.081323642279
 20
-3904.99993607839
 30
0.0
 11
9.918542843316231
 21
-3904.99993607839
 31
0.0
  0
LINE
  5
93
330
1F
100
AcDbEntity
  8
F-0_補助線
  6
JWW_HOJO
 62
     7
370
     9
100
AcDbLine
 10
-5830.081323642279
 20
-4084.99993607839
 30
0.0
 11
9.918542843316231
 21
-4084.99993607839
 31
0.0
  0
LINE
  5
94
330
1F
100
AcDbEntity
  8
F-0_補助線
  6
JWW_HOJO
 62
     7
370
     9
100
AcDbLine
 10
9.918408067688347
 20
-4139.999739777983
 30
0.0
 11
5849.917509036332
 21
-4140.005167989091
 31
0.0
  0
LINE
  5
95
330
1F
100
AcDbEntity
  8
F-0_補助線
  6
JWW_HOJO
 62
     7
370
     9
100
AcDbLine
 10
9.918491721639953
 20
-4049.999739778022
 30
0.0
 11
5849.917592690284
 21
-4050.005167989131
 31
0.0
  0
LINE
  5
96
330
1F
100
AcDbEntity
  8
F-0_補助線
  6
JWW_HOJO
 62
     7
370
     9
100
AcDbLine
 10
9.918593965360003
 20
-3939.99973721807
 30
0.0
 11
5849.917694934004
 21
-3940.005165429179
 31
0.0
  0
LINE
  5
97
330
1F
100
AcDbEntity
  8
F-0_補助線
  6
JWW_HOJO
 62
     7
370
     9
100
AcDbLine
 10
9.918677619311609
 20
-3849.999737218109
 30
0.0
 11
5849.917778587956
 21
-3850.005165429218
 31
0.0
  0
LINE
  5
98
330
1F
100
AcDbEntity
  8
F-1_枠
  6
Continuous
 62
   200
370
    20
100
AcDbLine
 10
5859.917429364114
 20
-3795.000003092998
 30
0.0
 11
-5840.081085996952
 21
-3795.000003092998
 31
0.0
  0
LINE
  5
99
330
1F
100
AcDbEntity
  8
F-1_枠
  6
Continuous
 62
   200
370
    20
100
AcDbLine
 10
5859.917429364114
 20
-3790.000017526987
 30
0.0
 11
-5840.081085996952
 21
-3790.000017526987
 31
0.0
  0
MTEXT
  5
9A
330
1F
100
AcDbEntity
  8
0-A_文字
  6
Continuous
 62
     7
370
     9
100
AcDbMText
 10
-2765.095421270461
 20
3268.437834982982
 30
0.0
 40
100.584
 41
660.0
 46
0.0
 71
     7
 72
     1
  1
{\fＭＳ ゴシック|b0|i0|c128|p49;■横断面図}
 73
     1
 44
1.0
  0
LINE
  5
9B
330
1F
100
AcDbEntity
  8
0-0_補助線
  6
JWW_HOJO
 62
     7
370
     9
100
AcDbLine
 10
9.918542843314526
 20
906.9451465964958
 30
0.0
 11
9.918542843314526
 21
3141.945146596496
 31
0.0
  0
MTEXT
  5
9C
330
1F
100
AcDbEntity
  8
0-A_文字
  6
Continuous
 62
     7
370
     9
100
AcDbMText
 10
-83.08243453797502
 20
931.6903738692229
 30
0.0
 40
79.49045454545431
 41
2294.999999999993
 46
0.0
 71
     7
 72
     1
  1
{\fＭＳ ゴシック|b0|i0|c128|p49;※有効開口寸法にはハンドルの突出は含まない。}
 73
     1
 44
1.0
  0
MTEXT
  5
9D
330
1F
100
AcDbEntity
  8
0-A_文字
  6
Continuous
 62
     7
370
     9
100
AcDbMText
 10
-608.0824345379767
 20
826.738479929829
 30
0.0
 40
79.58666666666667
 41
2820.0
 46
0.0
 71
     7
 72
     1
  1
{\fＭＳ ゴシック|b0|i0|c128|p49;※有効開口寸法は扉の厚さや調整によって若干異なります。}
 73
     1
 44
1.0
  0
MTEXT
  5
9E
330
1F
100
AcDbEntity
  8
0-B_寸法
  6
Continuous
 62
     7
370
   211
100
AcDbMText
 10
-380.0814571566855
 20
3142.665146596498
 30
0.0
 40
91.43999999999997
 41
780.0
 46
0.0
 71
     7
 72
     1
  1
{\fＭＳ ゴシック|b0|i0|c128|p49;ＲＯＷ＝1,655}
 73
     1
 44
1.0
  0
LINE
  5
9F
330
1F
100
AcDbEntity
  8
0-B_寸法
  6
Continuous
 62
   120
370
     5
100
AcDbLine
 10
3.918542843314441
 20
1446.945146596496
 30
0.0
 11
3.918542843314441
 21
1806.945146596496
 31
0.0
  0
LWPOLYLINE
  5
A0
330
1F
100
AcDbEntity
  8
0-B_寸法
  6
Continuous
 62
     7
370
     9
100
AcDbPolyline
 90
        4
 70
     1
 43
3.0
 10
5.418542843314441
 20
1446.945146596496
 42
0.4142135623731
 10
3.918542843314441
 20
1448.445146596496
 42
0.4142135623731
 10
2.418542843314441
 20
1446.945146596496
 42
0.4142135623731
 10
3.918542843314441
 20
1445.445146596496
 42
0.4142135623731
  0
LINE
  5
A1
330
1F
100
AcDbEntity
  8
0-B_寸法
  6
Continuous
 62
   120
370
     5
100
AcDbLine
 10
-983.081797389442
 20
1626.945146596496
 30
0.0
 11
-983.081797389442
 21
1806.945146596496
 31
0.0
  0
LWPOLYLINE
  5
A2
330
1F
100
AcDbEntity
  8
0-B_寸法
  6
Continuous
 62
     7
370
     9
100
AcDbPolyline
 90
        4
 70
     1
 43
3.0
 10
5.418542843314441
 20
1626.945146596496
 42
0.4142135623731
 10
3.918542843314441
 20
1628.445146596496
 42
0.4142135623731
 10
2.418542843314441
 20
1626.945146596496
 42
0.4142135623731
 10
3.918542843314441
 20
1625.445146596496
 42
0.4142135623731
  0
LWPOLYLINE
  5
A3
330
1F
100
AcDbEntity
  8
0-B_寸法
  6
Continuous
 62
     7
370
     9
100
AcDbPolyline
 90
        4
 70
     1
 43
3.0
 10
-981.5817973894422
 20
1626.945146596496
 42
0.4142135623731
 10
-983.081797389442
 20
1628.445146596496
 42
0.4142135623731
 10
-984.5817973894419
 20
1626.945146596496
 42
0.4142135623731
 10
-983.081797389442
 20
1625.445146596496
 42
0.4142135623731
  0
LINE
  5
A4
330
1F
100
AcDbEntity
  8
0-B_寸法
  6
Continuous
 62
   120
370
     5
100
AcDbLine
 10
-983.081797389442
 20
1626.945146596496
 30
0.0
 11
3.918542843314441
 21
1626.945146596496
 31
0.0
  0
LINE
  5
A5
330
1F
100
AcDbEntity
  8
0-6_扉
  6
Continuous
 62
   200
370
    20
100
AcDbLine
 10
-458.0816087150787
 20
2280.945146596496
 30
0.0
 11
3.918542843314441
 21
2280.945146596496
 31
0.0
  0
LINE
  5
A6
330
1F
100
AcDbEntity
  8
0-6_扉
  6
Continuous
 62
   200
370
    20
100
AcDbLine
 10
3.918542843314441
 20
2280.945146596496
 30
0.0
 11
3.918542843314441
 21
2442.946443181168
 31
0.0
  0
LINE
  5
A7
330
1F
100
AcDbEntity
  8
0-6_扉
  6
Continuous
 62
   200
370
    20
100
AcDbLine
 10
-458.0816087150787
 20
2442.946443181168
 30
0.0
 11
3.918542843314441
 21
2442.946443181168
 31
0.0
  0
LINE
  5
A8
330
1F
100
AcDbEntity
  8
0-6_扉
  6
Continuous
 62
   200
370
    20
100
AcDbLine
 10
-983.081797389442
 20
2280.945146596496
 30
0.0
 11
-518.0816087150787
 21
2280.945146596496
 31
0.0
  0
LINE
  5
A9
330
1F
100
AcDbEntity
  8
0-6_扉
  6
Continuous
 62
   200
370
    20
100
AcDbLine
 10
-983.081797389442
 20
2442.945146596497
 30
0.0
 11
-518.0816087150787
 21
2442.945146596497
 31
0.0
  0
LINE
  5
AA
330
1F
100
AcDbEntity
  8
0-6_扉
  6
Continuous
 62
   200
370
    20
100
AcDbLine
 10
-983.081797389442
 20
2442.946443181168
 30
0.0
 11
-518.0816087150787
 21
2442.946443181168
 31
0.0
  0
LINE
  5
AB
330
1F
100
AcDbEntity
  8
0-0_補助線
  6
JWW_HOJO
 62
     7
370
     9
100
AcDbLine
 10
-518.0816087150787
 20
2442.946443181168
 30
0.0
 11
-518.0816087150787
 21
2280.945146596496
 31
0.0
  0
LINE
  5
AC
330
1F
100
AcDbEntity
  8
0-0_補助線
  6
JWW_HOJO
 62
     7
370
     9
100
AcDbLine
 10
-458.0816087150787
 20
2442.946443181168
 30
0.0
 11
-458.0816087150787
 21
2280.945146596496
 31
0.0
  0
LINE
  5
AD
330
1F
100
AcDbEntity
  8
0-6_扉
  6
Continuous
 62
   200
370
    20
100
AcDbLine
 10
-983.081797389442
 20
2442.946443181168
 30
0.0
 11
-983.081797389442
 21
2280.945146596496
 31
0.0
  0
CIRCLE
  5
AE
330
1F
100
AcDbEntity
  8
0-A_文字
  6
Continuous
 62
     7
370
     9
100
AcDbCircle
 10
-986.0817602734693
 20
2472.945146596497
 30
0.0
 40
30.0
  0
CIRCLE
  5
AF
330
1F
100
AcDbEntity
  8
0-A_文字
  6
Continuous
 62
     7
370
     9
100
AcDbCircle
 10
-986.0817602734693
 20
2472.945146596497
 30
0.0
 40
21.00000000000001
  0
LINE
  5
B0
330
1F
100
AcDbEntity
  8
0-0_補助線
  6
JWW_HOJO
 62
     7
370
     9
100
AcDbLine
 10
-986.081797389441
 20
906.9451465964958
 30
0.0
 11
-986.081797389441
 21
3141.945146596496
 31
0.0
  0
LINE
  5
B1
330
1F
100
AcDbEntity
  8
0-B_寸法
  6
Continuous
 62
   120
370
     5
100
AcDbLine
 10
-1997.081543754621
 20
1446.945146596496
 30
0.0
 11
-1997.081543754621
 21
1806.945146596496
 31
0.0
  0
LWPOLYLINE
  5
B2
330
1F
100
AcDbEntity
  8
0-B_寸法
  6
Continuous
 62
     7
370
     9
100
AcDbPolyline
 90
        4
 70
     1
 43
3.0
 10
-1995.581543754621
 20
1446.945146596496
 42
0.4142135623731
 10
-1997.081543754621
 20
1448.445146596496
 42
0.4142135623731
 10
-1998.581543754621
 20
1446.945146596496
 42
0.4142135623731
 10
-1997.081543754621
 20
1445.445146596496
 42
0.4142135623731
  0
LINE
  5
B3
330
1F
100
AcDbEntity
  8
0-B_寸法
  6
Continuous
 62
   120
370
     5
100
AcDbLine
 10
-1997.081543754621
 20
1446.945146596496
 30
0.0
 11
3.918542843314441
 21
1446.945146596496
 31
0.0
  0
LINE
  5
B4
330
1F
100
AcDbEntity
  8
0-B_寸法
  6
Continuous
 62
   120
370
     5
100
AcDbLine
 10
-989.0817973894425
 20
1626.945146596496
 30
0.0
 11
-989.0817973894425
 21
1806.945146596496
 31
0.0
  0
LWPOLYLINE
  5
B5
330
1F
100
AcDbEntity
  8
0-B_寸法
  6
Continuous
 62
     7
370
     9
100
AcDbPolyline
 90
        4
 70
     1
 43
3.0
 10
-987.5817973894426
 20
1626.945146596496
 42
0.4142135623731
 10
-989.0817973894425
 20
1628.445146596496
 42
0.4142135623731
 10
-990.5817973894425
 20
1626.945146596496
 42
0.4142135623731
 10
-989.0817973894425
 20
1625.445146596496
 42
0.4142135623731
  0
LWPOLYLINE
  5
B6
330
1F
100
AcDbEntity
  8
0-B_寸法
  6
Continuous
 62
     7
370
     9
100
AcDbPolyline
 90
        4
 70
     1
 43
3.0
 10
-1995.581543754621
 20
1626.945146596496
 42
0.4142135623731
 10
-1997.081543754621
 20
1628.445146596496
 42
0.4142135623731
 10
-1998.581543754621
 20
1626.945146596496
 42
0.4142135623731
 10
-1997.081543754621
 20
1625.445146596496
 42
0.4142135623731
  0
LINE
  5
B7
330
1F
100
AcDbEntity
  8
0-B_寸法
  6
Continuous
 62
   120
370
     5
100
AcDbLine
 10
-1997.081543754621
 20
1626.945146596496
 30
0.0
 11
-989.0817973894425
 21
1626.945146596496
 31
0.0
  0
LINE
  5
B8
330
1F
100
AcDbEntity
  8
0-6_扉
  6
Continuous
 62
   200
370
    20
100
AcDbLine
 10
-1454.081986063805
 20
2280.945146596496
 30
0.0
 11
-989.0817973894425
 21
2280.945146596496
 31
0.0
  0
LINE
  5
B9
330
1F
100
AcDbEntity
  8
0-6_扉
  6
Continuous
 62
   200
370
    20
100
AcDbLine
 10
-1454.081986063805
 20
2442.946443181168
 30
0.0
 11
-989.0817973894425
 21
2442.946443181168
 31
0.0
  0
LINE
  5
BA
330
1F
100
AcDbEntity
  8
0-6_扉
  6
Continuous
 62
   200
370
    20
100
AcDbLine
 10
-989.0817973894425
 20
2442.946443181168
 30
0.0
 11
-989.0817973894425
 21
2280.945146596496
 31
0.0
  0
LWPOLYLINE
  5
BB
330
1F
100
AcDbEntity
  8
0-B_寸法
  6
Continuous
 62
     7
370
     9
100
AcDbPolyline
 90
        4
 70
     1
 43
3.0
 10
-1316.205435023245
 20
2280.945146596496
 42
0.4142135623731
 10
-1317.705435023245
 20
2282.445146596496
 42
0.4142135623731
 10
-1319.205435023245
 20
2280.945146596496
 42
0.4142135623731
 10
-1317.705435023245
 20
2279.445146596496
 42
0.4142135623731
  0
LWPOLYLINE
  5
BC
330
1F
100
AcDbEntity
  8
0-B_寸法
  6
Continuous
 62
     7
370
     9
100
AcDbPolyline
 90
        4
 70
     1
 43
3.0
 10
-1316.205435023245
 20
2442.945146596497
 42
0.4142135623731
 10
-1317.705435023245
 20
2444.445146596497
 42
0.4142135623731
 10
-1319.205435023245
 20
2442.945146596497
 42
0.4142135623731
 10
-1317.705435023245
 20
2441.445146596497
 42
0.4142135623731
  0
LINE
  5
BD
330
1F
100
AcDbEntity
  8
0-B_寸法
  6
Continuous
 62
   120
370
     5
100
AcDbLine
 10
-1317.705435023245
 20
2280.944503252957
 30
0.0
 11
-1317.705435023245
 21
2442.945146596497
 31
0.0
  0
MTEXT
  5
BE
330
1F
100
AcDbEntity
  8
0-B_寸法
  6
Continuous
 62
     7
370
   211
100
AcDbMText
 10
-560.0814571566855
 20
2962.665146596496
 30
0.0
 40
91.43999999999998
 41
1140.0
 46
0.0
 71
     7
 72
     1
  1
{\fＭＳ ゴシック|b0|i0|c128|p49;有効開口寸法＝1,327}
 73
     1
 44
1.0
  0
MTEXT
  5
BF
330
1F
100
AcDbEntity
  8
0-B_寸法
  6
Continuous
 62
     7
370
     9
100
AcDbMText
 10
-1987.002075020882
 20
2311.82863119337
 30
0.0
 40
91.43999999999913
 41
179.9999999999983
 46
0.0
 71
     7
 72
     1
  1
{\fＭＳ ゴシック|b0|i0|c128|p49;2.5}
 73
     1
 44
1.0
  0
LINE
  5
C0
330
1F
100
AcDbEntity
  8
0-6_扉
  6
Continuous
 62
   200
370
    20
100
AcDbLine
 10
-1997.081444790693
 20
2280.945146596496
 30
0.0
 11
-1514.081986063805
 21
2280.945146596496
 31
0.0
  0
LINE
  5
C1
330
1F
100
AcDbEntity
  8
0-6_扉
  6
Continuous
 62
   200
370
    20
100
AcDbLine
 10
-1997.081444790693
 20
2442.946443181168
 30
0.0
 11
-1514.081986063805
 21
2442.946443181168
 31
0.0
  0
LINE
  5
C2
330
1F
100
AcDbEntity
  8
0-0_補助線
  6
JWW_HOJO
 62
     7
370
     9
100
AcDbLine
 10
-1514.081986063805
 20
2442.946443181168
 30
0.0
 11
-1514.081986063805
 21
2280.945146596496
 31
0.0
  0
LINE
  5
C3
330
1F
100
AcDbEntity
  8
0-0_補助線
  6
JWW_HOJO
 62
     7
370
     9
100
AcDbLine
 10
-1454.081986063805
 20
2442.946443181168
 30
0.0
 11
-1454.081986063805
 21
2280.945146596496
 31
0.0
  0
LINE
  5
C4
330
1F
100
AcDbEntity
  8
0-6_扉
  6
Continuous
 62
   200
370
    20
100
AcDbLine
 10
-1997.081444790693
 20
2442.946443181168
 30
0.0
 11
-1997.081444790693
 21
2280.945146596496
 31
0.0
  0
MTEXT
  5
C5
330
1F
100
AcDbEntity
  8
0-B_寸法
  6
Continuous
 62
     7
370
     9
100
AcDbMText
 10
-1572.380705046235
 20
2287.874763172173
 30
0.0
 40
91.44
 41
120.0
 46
0.0
 71
     7
 72
     1
  1
{\fＭＳ ゴシック|b0|i0|c128|p49;92}
 11
6.123031769111886E-17
 21
1.0
 31
0.0
 73
     1
 44
1.0
  0
LWPOLYLINE
  5
C6
330
1F
100
AcDbEntity
  8
0-B_寸法
  6
Continuous
 62
     7
370
     9
100
AcDbPolyline
 90
        4
 70
     1
 43
3.0
 10
-1555.87954207907
 20
2085.945943352727
 42
0.4142135623731
 10
-1557.37954207907
 20
2087.445943352727
 42
0.4142135623731
 10
-1558.87954207907
 20
2085.945943352727
 42
0.4142135623731
 10
-1557.37954207907
 20
2084.445943352727
 42
0.4142135623731
  0
LINE
  5
C7
330
1F
100
AcDbEntity
  8
0-B_寸法
  6
Continuous
 62
   120
370
     5
100
AcDbLine
 10
-1676.155110860741
 20
2085.945943352727
 30
0.0
 11
-1557.37954207907
 21
2085.945943352727
 31
0.0
  0
LWPOLYLINE
  5
C8
330
1F
100
AcDbEntity
  8
0-B_寸法
  6
Continuous
 62
     7
370
     9
100
AcDbPolyline
 90
        4
 70
     1
 43
3.0
 10
-1555.87954207907
 20
2637.945092159735
 42
0.4142135623731
 10
-1557.37954207907
 20
2639.445092159734
 42
0.4142135623731
 10
-1558.87954207907
 20
2637.945092159735
 42
0.4142135623731
 10
-1557.37954207907
 20
2636.445092159735
 42
0.4142135623731
  0
LINE
  5
C9
330
1F
100
AcDbEntity
  8
0-B_寸法
  6
Continuous
 62
   120
370
     5
100
AcDbLine
 10
-1676.155110860741
 20
2637.945092159735
 30
0.0
 11
-1557.37954207907
 21
2637.945092159735
 31
0.0
  0
LINE
  5
CA
330
1F
100
AcDbEntity
  8
0-B_寸法
  6
Continuous
 62
   120
370
     5
100
AcDbLine
 10
-1557.37954207907
 20
2085.945943352727
 30
0.0
 11
-1557.37954207907
 21
2637.945092159735
 31
0.0
  0
MTEXT
  5
CB
330
1F
100
AcDbEntity
  8
0-B_寸法
  6
Continuous
 62
     7
370
     0
100
AcDbMText
 10
-1332.705484511207
 20
2285.414374584249
 30
0.0
 40
91.44
 41
120.0
 46
0.0
 71
     7
 72
     1
  1
{\fＭＳ ゴシック|b0|i0|c128|p49;27}
 11
6.123031769111886E-17
 21
1.0
 31
0.0
 73
     1
 44
1.0
  0
MTEXT
  5
CC
330
1F
100
AcDbEntity
  8
0-B_寸法
  6
Continuous
 62
     7
370
     0
100
AcDbMText
 10
-1170.413539509703
 20
2225.414374584249
 30
0.0
 40
91.44
 41
240.0
 46
0.0
 71
     7
 72
     1
  1
{\fＭＳ ゴシック|b0|i0|c128|p49;(24)}
 11
6.123031769111886E-17
 21
1.0
 31
0.0
 73
     1
 44
1.0
  0
ARC
  5
CD
330
1F
100
AcDbEntity
  8
0-6_扉
  6
JWW_DASHED2
 62
    40
370
    15
100
AcDbCircle
 10
-1305.930190359689
 20
2527.165080826557
 30
0.0
 40
18.0
100
AcDbArc
 50
355.653979278361
 51
85.65397927836072
  0
LINE
  5
CE
330
1F
100
AcDbEntity
  8
0-6_扉
  6
JWW_DASHED2
 62
    40
370
    15
100
AcDbLine
 10
-1430.203854658349
 20
2554.661559906318
 30
0.0
 11
-1304.566156574497
 21
2545.113323409963
 31
0.0
  0
ARC
  5
CF
330
1F
100
AcDbEntity
  8
0-6_扉
  6
JWW_DASHED2
 62
    40
370
    15
100
AcDbCircle
 10
-1431.567888443542
 20
2536.713317322911
 30
0.0
 40
18.0
100
AcDbArc
 50
85.6539792783607
 51
175.6539792783611
  0
ARC
  5
D0
330
1F
100
AcDbEntity
  8
0-6_扉
  6
JWW_DASHED2
 62
    40
370
    15
100
AcDbCircle
 10
-1756.846830249335
 20
2538.077351108103
 30
0.0
 40
18.0
100
AcDbArc
 50
4.346020721639738
 51
94.3460207216407
  0
LINE
  5
D1
330
1F
100
AcDbEntity
  8
0-6_扉
  6
JWW_DASHED2
 62
    40
370
    15
100
AcDbLine
 10
-1883.848562118385
 20
2546.477357195152
 30
0.0
 11
-1758.21086403453
 21
2556.02559369151
 31
0.0
  0
ARC
  5
D2
330
1F
100
AcDbEntity
  8
0-6_扉
  6
JWW_DASHED2
 62
    40
370
    15
100
AcDbCircle
 10
-1882.484528333191
 20
2528.529114611746
 30
0.0
 40
18.0
100
AcDbArc
 50
94.34602072164084
 51
184.3460207216404
  0
LINE
  5
D3
330
1F
100
AcDbEntity
  8
0-6_扉
  6
JWW_DASHED2
 62
    40
370
    15
100
AcDbLine
 10
-1287.98194777628
 20
2525.801047041362
 30
0.0
 11
-1321.410135479501
 21
2085.945943352727
 31
0.0
  0
LINE
  5
D4
330
1F
100
AcDbEntity
  8
0-6_扉
  6
JWW_DASHED2
 62
    40
370
    15
100
AcDbLine
 10
-1900.432770916598
 20
2527.165080826551
 30
0.0
 11
-1866.900919127125
 21
2085.945943352727
 31
0.0
  0
LINE
  5
D5
330
1F
100
AcDbEntity
  8
0-6_扉
  6
JWW_DASHED2
 62
    40
370
    15
100
AcDbLine
 10
-1449.516131026947
 20
2538.077351108103
 30
0.0
 11
-1483.877295506386
 21
2085.945943352727
 31
0.0
  0
LINE
  5
D6
330
1F
100
AcDbEntity
  8
0-6_扉
  6
JWW_DASHED2
 62
    40
370
    15
100
AcDbLine
 10
-1738.898587665931
 20
2539.441384893296
 30
0.0
 11
-1704.433759100235
 21
2085.945943352727
 31
0.0
  0
LWPOLYLINE
  5
D7
330
1F
100
AcDbEntity
  8
0-B_寸法
  6
Continuous
 62
     7
370
     9
100
AcDbPolyline
 90
        4
 70
     1
 43
3.0
 10
-1286.48194777628
 20
2961.945146596496
 42
0.4142135623731
 10
-1287.98194777628
 20
2963.445146596496
 42
0.4142135623731
 10
-1289.48194777628
 20
2961.945146596496
 42
0.4142135623731
 10
-1287.98194777628
 20
2960.445146596496
 42
0.4142135623731
  0
LINE
  5
D8
330
1F
100
AcDbEntity
  8
0-B_寸法
  6
Continuous
 62
   120
370
     5
100
AcDbLine
 10
-1287.98194777628
 20
2961.945146596496
 30
0.0
 11
-1287.98194777628
 21
2781.945146596496
 31
0.0
  0
LINE
  5
D9
330
1F
100
AcDbEntity
  8
0-1_通り芯
  6
JWW_CENTER1
 62
   120
370
     5
100
AcDbLine
 10
-1287.98194777628
 20
2781.945146596496
 30
0.0
 11
-1287.98194777628
 21
2528.52911461175
 31
0.0
  0
LINE
  5
DA
330
1F
100
AcDbEntity
  8
0-0_補助線
  6
JWW_HOJO
 62
     7
370
     9
100
AcDbLine
 10
-1982.082137622197
 20
906.9451465964958
 30
0.0
 11
-1982.082137622197
 21
3141.945146596496
 31
0.0
  0
LWPOLYLINE
  5
DB
330
1F
100
AcDbEntity
  8
0-B_寸法
  6
Continuous
 62
     7
370
     9
100
AcDbPolyline
 90
        4
 70
     1
 43
3.0
 10
-1995.581444790693
 20
2324.359196304037
 42
0.4142135623731
 10
-1997.081444790693
 20
2325.859196304037
 42
0.4142135623731
 10
-1998.581444790693
 20
2324.359196304037
 42
0.4142135623731
 10
-1997.081444790693
 20
2322.859196304037
 42
0.4142135623731
  0
LINE
  5
DC
330
1F
100
AcDbEntity
  8
0-B_寸法
  6
Continuous
 62
   120
370
     5
100
AcDbLine
 10
-1997.081444790693
 20
2405.688459527219
 30
0.0
 11
-1997.081444790693
 21
2324.359196304037
 31
0.0
  0
LINE
  5
DD
330
1F
100
AcDbEntity
  8
0-B_寸法
  6
Continuous
 62
   120
370
     5
100
AcDbLine
 10
-2192.081444790693
 20
1086.945146596496
 30
0.0
 11
-2192.081444790693
 21
1986.945146596496
 31
0.0
  0
LINE
  5
DE
330
1F
100
AcDbEntity
  8
0-B_寸法
  6
Continuous
 62
   120
370
     5
100
AcDbLine
 10
-2222.08144479068
 20
1086.945146596496
 30
0.0
 11
-2222.08144479068
 21
1986.945146596496
 31
0.0
  0
LWPOLYLINE
  5
DF
330
1F
100
AcDbEntity
  8
0-B_寸法
  6
Continuous
 62
     7
370
     9
100
AcDbPolyline
 90
        4
 70
     1
 43
3.0
 10
-2190.581444790693
 20
1086.945146596496
 42
0.4142135623731
 10
-2192.081444790693
 20
1088.445146596496
 42
0.4142135623731
 10
-2193.581444790693
 20
1086.945146596496
 42
0.4142135623731
 10
-2192.081444790693
 20
1085.445146596496
 42
0.4142135623731
  0
LWPOLYLINE
  5
E0
330
1F
100
AcDbEntity
  8
0-B_寸法
  6
Continuous
 62
     7
370
     9
100
AcDbPolyline
 90
        4
 70
     1
 43
3.0
 10
-2220.58144479068
 20
1086.945146596496
 42
0.4142135623731
 10
-2222.08144479068
 20
1088.445146596496
 42
0.4142135623731
 10
-2223.58144479068
 20
1086.945146596496
 42
0.4142135623731
 10
-2222.08144479068
 20
1085.445146596496
 42
0.4142135623731
  0
LINE
  5
E1
330
1F
100
AcDbEntity
  8
0-B_寸法
  6
Continuous
 62
   120
370
     5
100
AcDbLine
 10
-2222.08144479068
 20
1086.945146596496
 30
0.0
 11
-2192.081444790693
 21
1086.945146596496
 31
0.0
  0
LINE
  5
E2
330
1F
100
AcDbEntity
  8
0-B_寸法
  6
Continuous
 62
   120
370
     5
100
AcDbLine
 10
-2012.081444790693
 20
1266.945146596496
 30
0.0
 11
-2012.081444790693
 21
1986.945146596496
 31
0.0
  0
LWPOLYLINE
  5
E3
330
1F
100
AcDbEntity
  8
0-B_寸法
  6
Continuous
 62
     7
370
     9
100
AcDbPolyline
 90
        4
 70
     1
 43
3.0
 10
-2010.581444790693
 20
1266.945146596496
 42
0.4142135623731
 10
-2012.081444790693
 20
1268.445146596496
 42
0.4142135623731
 10
-2013.581444790693
 20
1266.945146596496
 42
0.4142135623731
 10
-2012.081444790693
 20
1265.445146596496
 42
0.4142135623731
  0
LWPOLYLINE
  5
E4
330
1F
100
AcDbEntity
  8
0-B_寸法
  6
Continuous
 62
     7
370
     9
100
AcDbPolyline
 90
        4
 70
     1
 43
3.0
 10
-2190.581444790693
 20
1266.945146596496
 42
0.4142135623731
 10
-2192.081444790693
 20
1268.445146596496
 42
0.4142135623731
 10
-2193.581444790693
 20
1266.945146596496
 42
0.4142135623731
 10
-2192.081444790693
 20
1265.445146596496
 42
0.4142135623731
  0
LINE
  5
E5
330
1F
100
AcDbEntity
  8
0-B_寸法
  6
Continuous
 62
   120
370
     5
100
AcDbLine
 10
-2192.081444790693
 20
1266.945146596496
 30
0.0
 11
-2012.081444790693
 21
1266.945146596496
 31
0.0
  0
MTEXT
  5
E6
330
1F
100
AcDbEntity
  8
0-B_寸法
  6
Continuous
 62
     7
370
   211
100
AcDbMText
 10
-2129.081395314724
 20
1807.665146596496
 30
0.0
 40
91.44
 41
60.0
 46
0.0
 71
     7
 72
     1
  1
{\fＭＳ ゴシック|b0|i0|c128|p49;9}
 73
     1
 44
1.0
  0
MTEXT
  5
E7
330
1F
100
AcDbEntity
  8
0-B_寸法
  6
Continuous
 62
     7
370
   211
100
AcDbMText
 10
-1763.081670572031
 20
1627.665146596496
 30
0.0
 40
91.43999999999998
 41
540.0
 46
0.0
 71
     7
 72
     1
  1
{\fＭＳ ゴシック|b0|i0|c128|p49;ＤＷ＝394}
 73
     1
 44
1.0
  0
LINE
  5
E8
330
1F
100
AcDbEntity
  8
0-7_金物
  6
Continuous
 62
     7
370
     9
100
AcDbLine
 10
-2192.081444790693
 20
2415.945180928771
 30
0.0
 11
-2198.081513455234
 21
2415.945180928771
 31
0.0
  0
LINE
  5
E9
330
1F
100
AcDbEntity
  8
0-7_金物
  6
Continuous
 62
     7
370
     9
100
AcDbLine
 10
-2198.081513455234
 20
2307.94511226422
 30
0.0
 11
-2192.081444790693
 21
2307.94511226422
 31
0.0
  0
LINE
  5
EA
330
1F
100
AcDbEntity
  8
0-7_金物
  6
Continuous
 62
     7
370
     9
100
AcDbLine
 10
-2198.081513455234
 20
2301.944946324889
 30
0.0
 11
-2198.081513455234
 21
2421.944603002135
 31
0.0
  0
LINE
  5
EB
330
1F
100
AcDbEntity
  8
0-7_金物
  6
Continuous
 62
     7
370
     9
100
AcDbLine
 10
-2210.081107189977
 20
2421.944603002135
 30
0.0
 11
-2198.081513455234
 21
2421.944603002135
 31
0.0
  0
LINE
  5
EC
330
1F
100
AcDbEntity
  8
0-7_金物
  6
Continuous
 62
     7
370
     9
100
AcDbLine
 10
-2210.081107189977
 20
2301.944946324889
 30
0.0
 11
-2198.081513455234
 21
2301.944946324889
 31
0.0
  0
LINE
  5
ED
330
1F
100
AcDbEntity
  8
0-7_金物
  6
Continuous
 62
     7
370
     9
100
AcDbLine
 10
-2222.08144479068
 20
2271.944843328066
 30
0.0
 11
-2222.08144479068
 21
2451.944705998962
 31
0.0
  0
LINE
  5
EE
330
1F
100
AcDbEntity
  8
0-7_金物
  6
Continuous
 62
     7
370
     9
100
AcDbLine
 10
-2222.08144479068
 20
2271.944843328066
 30
0.0
 11
-2210.081107189977
 21
2271.944843328066
 31
0.0
  0
LINE
  5
EF
330
1F
100
AcDbEntity
  8
0-7_金物
  6
Continuous
 62
     7
370
     9
100
AcDbLine
 10
-2222.08144479068
 20
2451.944705998962
 30
0.0
 11
-2210.081107189977
 21
2451.944705998962
 31
0.0
  0
LINE
  5
F0
330
1F
100
AcDbEntity
  8
0-7_金物
  6
Continuous
 62
     7
370
     9
100
AcDbLine
 10
-2210.081107189977
 20
2271.944843328066
 30
0.0
 11
-2210.081107189977
 21
2451.944705998962
 31
0.0
  0
LINE
  5
F1
330
1F
100
AcDbEntity
  8
0-4_枠
  6
Continuous
 62
    92
370
    13
100
AcDbLine
 10
-2192.081444790693
 20
2637.945092159735
 30
0.0
 11
-2192.081444790693
 21
2127.945943352727
 31
0.0
  0
LINE
  5
F2
330
1F
100
AcDbEntity
  8
0-4_枠
  6
Continuous
 62
    92
370
    13
100
AcDbLine
 10
-2162.081444790693
 20
2127.945943352727
 30
0.0
 11
-2192.081444790693
 21
2127.945943352727
 31
0.0
  0
LINE
  5
F3
330
1F
100
AcDbEntity
  8
0-4_枠
  6
Continuous
 62
    92
370
    13
100
AcDbLine
 10
-2162.081444790693
 20
2127.945943352727
 30
0.0
 11
-2162.081444790693
 21
2085.945943352727
 31
0.0
  0
LINE
  5
F4
330
1F
100
AcDbEntity
  8
0-4_枠
  6
Continuous
 62
    92
370
    13
100
AcDbLine
 10
-2126.081444790692
 20
2085.945943352727
 30
0.0
 11
-2162.081444790693
 21
2085.945943352727
 31
0.0
  0
LINE
  5
F5
330
1F
100
AcDbEntity
  8
0-C_ハッチ
  6
Continuous
 62
   120
370
     5
100
AcDbLine
 10
-2114.28770072925
 20
2637.945092159735
 30
0.0
 11
-2012.081444790693
 21
2535.739578540647
 31
0.0
  0
LINE
  5
F6
330
1F
100
AcDbEntity
  8
0-C_ハッチ
  6
Continuous
 62
   120
370
     5
100
AcDbLine
 10
-2192.081667486537
 20
2630.886376339422
 30
0.0
 11
-2012.081444790693
 21
2450.886524803317
 31
0.0
  0
LINE
  5
F7
330
1F
100
AcDbEntity
  8
0-C_ハッチ
  6
Continuous
 62
   120
370
     5
100
AcDbLine
 10
-2192.081667486537
 20
2291.474903709567
 30
0.0
 11
-2012.081444790693
 21
2111.47505217346
 31
0.0
  0
LINE
  5
F8
330
1F
100
AcDbEntity
  8
0-C_ハッチ
  6
Continuous
 62
   120
370
     5
100
AcDbLine
 10
-2012.081444790693
 20
2281.180417328655
 30
0.0
 11
-2192.081667486537
 21
2461.18026886476
 31
0.0
  0
LINE
  5
F9
330
1F
100
AcDbEntity
  8
0-C_ハッチ
  6
Continuous
 62
   120
370
     5
100
AcDbLine
 10
-2012.081444790693
 20
2196.327363591322
 30
0.0
 11
-2192.081667486537
 21
2376.327957446897
 31
0.0
  0
LINE
  5
FA
330
1F
100
AcDbEntity
  8
0-C_ハッチ
  6
Continuous
 62
   120
370
     5
100
AcDbLine
 10
-2192.081667486537
 20
2546.033322602092
 30
0.0
 11
-2012.081444790693
 21
2366.032728746519
 31
0.0
  0
LINE
  5
FB
330
1F
100
AcDbEntity
  8
0-C_ハッチ
  6
Continuous
 62
   120
370
     5
100
AcDbLine
 10
-2162.081444790693
 20
2091.768740538963
 30
0.0
 11
-2156.258615191117
 21
2085.945943352727
 31
0.0
  0
LINE
  5
FC
330
1F
100
AcDbEntity
  8
0-4_枠
  6
Continuous
 62
    92
370
    13
100
AcDbLine
 10
-2018.081444790688
 20
2085.945943352727
 30
0.0
 11
-2072.081444790693
 21
2085.945943352727
 31
0.0
  0
LINE
  5
FD
330
1F
100
AcDbEntity
  8
0-4_枠
  6
Continuous
 62
    92
370
    13
100
AcDbLine
 10
-2012.081444790693
 20
2091.945943352727
 30
0.0
 11
-2018.081444790688
 21
2085.945943352727
 31
0.0
  0
LINE
  5
FE
330
1F
100
AcDbEntity
  8
0-4_枠
  6
Continuous
 62
    92
370
    13
100
AcDbLine
 10
-2018.081444790688
 20
2637.945092159735
 30
0.0
 11
-2192.081444790693
 21
2637.945092159735
 31
0.0
  0
LINE
  5
FF
330
1F
100
AcDbEntity
  8
0-4_枠
  6
Continuous
 62
    92
370
    13
100
AcDbLine
 10
-2012.081444790693
 20
2631.945092159736
 30
0.0
 11
-2012.081444790693
 21
2091.945943352727
 31
0.0
  0
LINE
  5
100
330
1F
100
AcDbEntity
  8
0-4_枠
  6
Continuous
 62
    92
370
    13
100
AcDbLine
 10
-2018.081444790688
 20
2637.945092159735
 30
0.0
 11
-2012.081444790693
 21
2631.945092159736
 31
0.0
  0
LINE
  5
101
330
1F
100
AcDbEntity
  8
0-C_ハッチ
  6
Continuous
 62
   120
370
     5
100
AcDbLine
 10
-2192.081444790693
 20
2588.278201641952
 30
0.0
 11
-2190.414554272912
 21
2589.945092159732
 31
0.0
  0
LINE
  5
102
330
1F
100
AcDbEntity
  8
0-4_枠
  6
Continuous
 62
    92
370
    13
100
AcDbLine
 10
-2126.081444790692
 20
2145.945943352727
 30
0.0
 11
-2126.081444790692
 21
2085.945943352727
 31
0.0
  0
LINE
  5
103
330
1F
100
AcDbEntity
  8
0-4_枠
  6
Continuous
 62
    92
370
    13
100
AcDbLine
 10
-2072.081444790693
 20
2145.945943352727
 30
0.0
 11
-2126.081444790692
 21
2145.945943352727
 31
0.0
  0
LINE
  5
104
330
1F
100
AcDbEntity
  8
0-4_枠
  6
Continuous
 62
    92
370
    13
100
AcDbLine
 10
-2072.081444790693
 20
2145.945943352727
 30
0.0
 11
-2072.081444790693
 21
2085.945943352727
 31
0.0
  0
LINE
  5
105
330
1F
100
AcDbEntity
  8
0-C_ハッチ
  6
Continuous
 62
   120
370
     5
100
AcDbLine
 10
-2192.081667486537
 20
2206.621849972235
 30
0.0
 11
-2126.081444790692
 21
2140.62199467297
 31
0.0
  0
LWPOLYLINE
  5
106
330
1F
100
AcDbEntity
  8
0-B_寸法
  6
Continuous
 62
     7
370
     9
100
AcDbPolyline
 90
        4
 70
     1
 43
3.0
 10
-2010.581395314729
 20
1806.945146596496
 42
0.4142135623731
 10
-2012.081395314729
 20
1808.445146596496
 42
0.4142135623731
 10
-2013.581395314729
 20
1806.945146596496
 42
0.4142135623731
 10
-2012.081395314729
 20
1805.445146596496
 42
0.4142135623731
  0
LWPOLYLINE
  5
107
330
1F
100
AcDbEntity
  8
0-B_寸法
  6
Continuous
 62
     7
370
     9
100
AcDbPolyline
 90
        4
 70
     1
 43
3.0
 10
-2070.581395314729
 20
1806.945146596496
 42
0.4142135623731
 10
-2072.081395314729
 20
1808.445146596496
 42
0.4142135623731
 10
-2073.581395314729
 20
1806.945146596496
 42
0.4142135623731
 10
-2072.081395314729
 20
1805.445146596496
 42
0.4142135623731
  0
LWPOLYLINE
  5
108
330
1F
100
AcDbEntity
  8
0-B_寸法
  6
Continuous
 62
     7
370
     9
100
AcDbPolyline
 90
        4
 70
     1
 43
3.0
 10
-2124.581395314728
 20
1806.945146596496
 42
0.4142135623731
 10
-2126.081395314728
 20
1808.445146596496
 42
0.4142135623731
 10
-2127.581395314728
 20
1806.945146596496
 42
0.4142135623731
 10
-2126.081395314728
 20
1805.445146596496
 42
0.4142135623731
  0
LWPOLYLINE
  5
109
330
1F
100
AcDbEntity
  8
0-B_寸法
  6
Continuous
 62
     7
370
     9
100
AcDbPolyline
 90
        4
 70
     1
 43
3.0
 10
-2160.581395314729
 20
1806.945146596496
 42
0.4142135623731
 10
-2162.081395314729
 20
1808.445146596496
 42
0.4142135623731
 10
-2163.581395314729
 20
1806.945146596496
 42
0.4142135623731
 10
-2162.081395314729
 20
1805.445146596496
 42
0.4142135623731
  0
LWPOLYLINE
  5
10A
330
1F
100
AcDbEntity
  8
0-B_寸法
  6
Continuous
 62
     7
370
     9
100
AcDbPolyline
 90
        4
 70
     1
 43
3.0
 10
-2190.581618010567
 20
1806.945146596496
 42
0.4142135623731
 10
-2192.081618010567
 20
1808.445146596496
 42
0.4142135623731
 10
-2193.581618010566
 20
1806.945146596496
 42
0.4142135623731
 10
-2192.081618010567
 20
1805.445146596496
 42
0.4142135623731
  0
LINE
  5
10B
330
1F
100
AcDbEntity
  8
0-B_寸法
  6
Continuous
 62
   120
370
     5
100
AcDbLine
 10
-2012.081395314729
 20
1806.945146596496
 30
0.0
 11
-2192.081618010567
 21
1806.945146596496
 31
0.0
  0
LINE
  5
10C
330
1F
100
AcDbEntity
  8
0-B_寸法
  6
Continuous
 62
   120
370
     5
100
AcDbLine
 10
-2072.081395314729
 20
1806.945146596496
 30
0.0
 11
-2072.081395314729
 21
1986.945146596496
 31
0.0
  0
LINE
  5
10D
330
1F
100
AcDbEntity
  8
0-B_寸法
  6
Continuous
 62
   120
370
     5
100
AcDbLine
 10
-2126.081395314728
 20
1806.945146596496
 30
0.0
 11
-2126.081395314728
 21
1986.945146596496
 31
0.0
  0
LINE
  5
10E
330
1F
100
AcDbEntity
  8
0-B_寸法
  6
Continuous
 62
   120
370
     5
100
AcDbLine
 10
-2162.081395314729
 20
1806.945146596496
 30
0.0
 11
-2162.081395314729
 21
1986.945146596496
 31
0.0
  0
LINE
  5
10F
330
1F
100
AcDbEntity
  8
0-0_補助線
  6
JWW_HOJO
 62
   120
370
     5
100
AcDbLine
 10
-2762.081197362867
 20
2961.945146596496
 30
0.0
 11
-2762.081197362867
 21
1086.945146596496
 31
0.0
  0
LWPOLYLINE
  5
110
330
1F
100
AcDbEntity
  8
0-B_寸法
  6
Continuous
 62
     7
370
     9
100
AcDbPolyline
 90
        4
 70
     1
 43
3.0
 10
-2010.581444790693
 20
2324.359196304037
 42
0.4142135623731
 10
-2012.081444790693
 20
2325.859196304037
 42
0.4142135623731
 10
-2013.581444790693
 20
2324.359196304037
 42
0.4142135623731
 10
-2012.081444790693
 20
2322.859196304037
 42
0.4142135623731
  0
LINE
  5
111
330
1F
100
AcDbEntity
  8
0-B_寸法
  6
Continuous
 62
   120
370
     5
100
AcDbLine
 10
-2012.081444790693
 20
2405.688459527219
 30
0.0
 11
-2012.081444790693
 21
2324.359196304037
 31
0.0
  0
LINE
  5
112
330
1F
100
AcDbEntity
  8
0-B_寸法
  6
Continuous
 62
   120
370
     5
100
AcDbLine
 10
-2012.081444790693
 20
2324.359196304037
 30
0.0
 11
-1997.081444790693
 21
2324.359196304037
 31
0.0
  0
LINE
  5
113
330
1F
100
AcDbEntity
  8
0-B_寸法
  6
Continuous
 62
   120
370
     5
100
AcDbLine
 10
15.91854284331419
 20
1446.945146596496
 30
0.0
 11
15.91854284331419
 21
1806.945146596496
 31
0.0
  0
LWPOLYLINE
  5
114
330
1F
100
AcDbEntity
  8
0-B_寸法
  6
Continuous
 62
     7
370
     9
100
AcDbPolyline
 90
        4
 70
     1
 43
3.0
 10
17.41854284331419
 20
1446.945146596496
 42
0.4142135623731
 10
15.91854284331419
 20
1448.445146596496
 42
0.4142135623731
 10
14.41854284331419
 20
1446.945146596496
 42
0.4142135623731
 10
15.91854284331419
 20
1445.445146596496
 42
0.4142135623731
  0
LINE
  5
115
330
1F
100
AcDbEntity
  8
0-B_寸法
  6
Continuous
 62
   120
370
     5
100
AcDbLine
 10
1002.918883076071
 20
1626.945146596496
 30
0.0
 11
1002.918883076071
 21
1806.945146596496
 31
0.0
  0
LWPOLYLINE
  5
116
330
1F
100
AcDbEntity
  8
0-B_寸法
  6
Continuous
 62
     7
370
     9
100
AcDbPolyline
 90
        4
 70
     1
 43
3.0
 10
1004.418883076071
 20
1626.945146596496
 42
0.4142135623731
 10
1002.918883076071
 20
1628.445146596496
 42
0.4142135623731
 10
1001.418883076071
 20
1626.945146596496
 42
0.4142135623731
 10
1002.918883076071
 20
1625.445146596496
 42
0.4142135623731
  0
LWPOLYLINE
  5
117
330
1F
100
AcDbEntity
  8
0-B_寸法
  6
Continuous
 62
     7
370
     9
100
AcDbPolyline
 90
        4
 70
     1
 43
3.0
 10
17.41854284331419
 20
1626.945146596496
 42
0.4142135623731
 10
15.91854284331419
 20
1628.445146596496
 42
0.4142135623731
 10
14.41854284331419
 20
1626.945146596496
 42
0.4142135623731
 10
15.91854284331419
 20
1625.445146596496
 42
0.4142135623731
  0
LINE
  5
118
330
1F
100
AcDbEntity
  8
0-B_寸法
  6
Continuous
 62
   120
370
     5
100
AcDbLine
 10
15.91854284331419
 20
1626.945146596496
 30
0.0
 11
1002.918883076071
 21
1626.945146596496
 31
0.0
  0
LINE
  5
119
330
1F
100
AcDbEntity
  8
0-6_扉
  6
Continuous
 62
   200
370
    20
100
AcDbLine
 10
15.91854284331419
 20
2280.945146596496
 30
0.0
 11
15.91854284331419
 21
2442.946443181168
 31
0.0
  0
LINE
  5
11A
330
1F
100
AcDbEntity
  8
0-6_扉
  6
Continuous
 62
   200
370
    20
100
AcDbLine
 10
15.91854284331419
 20
2280.945146596496
 30
0.0
 11
477.9186944017073
 21
2280.945146596496
 31
0.0
  0
LINE
  5
11B
330
1F
100
AcDbEntity
  8
0-6_扉
  6
Continuous
 62
   200
370
    20
100
AcDbLine
 10
15.91854284331419
 20
2442.946443181168
 30
0.0
 11
477.9186944017073
 21
2442.946443181168
 31
0.0
  0
LINE
  5
11C
330
1F
100
AcDbEntity
  8
0-0_補助線
  6
JWW_HOJO
 62
     7
370
     9
100
AcDbLine
 10
477.9186944017073
 20
2442.946443181168
 30
0.0
 11
477.9186944017073
 21
2280.945146596496
 31
0.0
  0
LINE
  5
11D
330
1F
100
AcDbEntity
  8
0-6_扉
  6
Continuous
 62
   200
370
    20
100
AcDbLine
 10
537.9186944017073
 20
2442.946443181168
 30
0.0
 11
1002.918883076071
 21
2442.946443181168
 31
0.0
  0
LINE
  5
11E
330
1F
100
AcDbEntity
  8
0-0_補助線
  6
JWW_HOJO
 62
     7
370
     9
100
AcDbLine
 10
537.9186944017073
 20
2442.946443181168
 30
0.0
 11
537.9186944017073
 21
2280.945146596496
 31
0.0
  0
LINE
  5
11F
330
1F
100
AcDbEntity
  8
0-6_扉
  6
Continuous
 62
   200
370
    20
100
AcDbLine
 10
537.9186944017073
 20
2280.945146596496
 30
0.0
 11
1002.918883076071
 21
2280.945146596496
 31
0.0
  0
LINE
  5
120
330
1F
100
AcDbEntity
  8
0-6_扉
  6
Continuous
 62
   200
370
    20
100
AcDbLine
 10
1002.918883076071
 20
2442.946443181168
 30
0.0
 11
1002.918883076071
 21
2280.945146596496
 31
0.0
  0
CIRCLE
  5
121
330
1F
100
AcDbEntity
  8
0-A_文字
  6
Continuous
 62
     7
370
     9
100
AcDbCircle
 10
1005.918845960098
 20
2472.945146596497
 30
0.0
 40
30.0
  0
CIRCLE
  5
122
330
1F
100
AcDbEntity
  8
0-A_文字
  6
Continuous
 62
     7
370
     9
100
AcDbCircle
 10
1005.918845960098
 20
2472.945146596497
 30
0.0
 40
21.00000000000001
  0
LINE
  5
123
330
1F
100
AcDbEntity
  8
0-0_補助線
  6
JWW_HOJO
 62
     7
370
     9
100
AcDbLine
 10
2001.919223308826
 20
906.9451465964958
 30
0.0
 11
2001.919223308826
 21
3141.945146596496
 31
0.0
  0
LINE
  5
124
330
1F
100
AcDbEntity
  8
0-6_扉
  6
Continuous
 62
   200
370
    20
100
AcDbLine
 10
2016.918579965285
 20
2442.946443181168
 30
0.0
 11
2016.918579965285
 21
2280.945146596496
 31
0.0
  0
LINE
  5
125
330
1F
100
AcDbEntity
  8
0-6_扉
  6
Continuous
 62
   200
370
    20
100
AcDbLine
 10
2016.918530477323
 20
2442.946443181168
 30
0.0
 11
2016.918530477323
 21
2280.945146596496
 31
0.0
  0
LINE
  5
126
330
1F
100
AcDbEntity
  8
0-6_扉
  6
Continuous
 62
   200
370
    20
100
AcDbLine
 10
1533.919071750433
 20
2442.946443181168
 30
0.0
 11
2016.918579965285
 21
2442.946443181168
 31
0.0
  0
LINE
  5
127
330
1F
100
AcDbEntity
  8
0-6_扉
  6
Continuous
 62
   200
370
    20
100
AcDbLine
 10
1533.919071750433
 20
2280.945146596496
 30
0.0
 11
2016.918579965285
 21
2280.945146596496
 31
0.0
  0
LINE
  5
128
330
1F
100
AcDbEntity
  8
0-0_補助線
  6
JWW_HOJO
 62
     7
370
     9
100
AcDbLine
 10
1533.919071750433
 20
2442.946443181168
 30
0.0
 11
1533.919071750433
 21
2280.945146596496
 31
0.0
  0
LINE
  5
129
330
1F
100
AcDbEntity
  8
0-0_補助線
  6
JWW_HOJO
 62
     7
370
     9
100
AcDbLine
 10
1473.919071750433
 20
2442.946443181168
 30
0.0
 11
1473.919071750433
 21
2280.945146596496
 31
0.0
  0
LINE
  5
12A
330
1F
100
AcDbEntity
  8
0-6_扉
  6
Continuous
 62
   200
370
    20
100
AcDbLine
 10
1008.918883076071
 20
2442.946443181168
 30
0.0
 11
1473.919071750433
 21
2442.946443181168
 31
0.0
  0
LINE
  5
12B
330
1F
100
AcDbEntity
  8
0-6_扉
  6
Continuous
 62
   200
370
    20
100
AcDbLine
 10
1008.918883076071
 20
2280.945146596496
 30
0.0
 11
1473.919071750433
 21
2280.945146596496
 31
0.0
  0
LINE
  5
12C
330
1F
100
AcDbEntity
  8
0-6_扉
  6
Continuous
 62
   200
370
    20
100
AcDbLine
 10
1008.918883076071
 20
2442.946443181168
 30
0.0
 11
1008.918883076071
 21
2280.945146596496
 31
0.0
  0
LINE
  5
12D
330
1F
100
AcDbEntity
  8
0-6_扉
  6
JWW_DASHED2
 62
    40
370
    15
100
AcDbLine
 10
1758.73567335256
 20
2539.441384893296
 30
0.0
 11
1724.270844786864
 21
2085.945943352727
 31
0.0
  0
LINE
  5
12E
330
1F
100
AcDbEntity
  8
0-6_扉
  6
JWW_DASHED2
 62
    40
370
    15
100
AcDbLine
 10
1469.353216713578
 20
2538.077351108103
 30
0.0
 11
1503.714381193017
 21
2085.945943352727
 31
0.0
  0
LINE
  5
12F
330
1F
100
AcDbEntity
  8
0-6_扉
  6
JWW_DASHED2
 62
    40
370
    15
100
AcDbLine
 10
1920.269856603227
 20
2527.165080826551
 30
0.0
 11
1886.738004813753
 21
2085.945943352727
 31
0.0
  0
LINE
  5
130
330
1F
100
AcDbEntity
  8
0-6_扉
  6
JWW_DASHED2
 62
    40
370
    15
100
AcDbLine
 10
1307.819033462909
 20
2525.801047041362
 30
0.0
 11
1341.24722116613
 21
2085.945943352727
 31
0.0
  0
ARC
  5
131
330
1F
100
AcDbEntity
  8
0-6_扉
  6
JWW_DASHED2
 62
    40
370
    15
100
AcDbCircle
 10
1902.32161401982
 20
2528.529114611746
 30
0.0
 40
18.0
100
AcDbArc
 50
355.6539792783596
 51
85.65397927835919
  0
LINE
  5
132
330
1F
100
AcDbEntity
  8
0-6_扉
  6
JWW_DASHED2
 62
    40
370
    15
100
AcDbLine
 10
1903.685647805014
 20
2546.477357195152
 30
0.0
 11
1778.047949721159
 21
2556.02559369151
 31
0.0
  0
ARC
  5
133
330
1F
100
AcDbEntity
  8
0-6_扉
  6
JWW_DASHED2
 62
    40
370
    15
100
AcDbCircle
 10
1776.683915935964
 20
2538.077351108103
 30
0.0
 40
18.0
100
AcDbArc
 50
85.65397927835929
 51
175.6539792783603
  0
ARC
  5
134
330
1F
100
AcDbEntity
  8
0-6_扉
  6
JWW_DASHED2
 62
    40
370
    15
100
AcDbCircle
 10
1451.404974130171
 20
2536.713317322911
 30
0.0
 40
18.0
100
AcDbArc
 50
4.346020721638936
 51
94.34602072163932
  0
LINE
  5
135
330
1F
100
AcDbEntity
  8
0-6_扉
  6
JWW_DASHED2
 62
    40
370
    15
100
AcDbLine
 10
1450.040940344978
 20
2554.661559906318
 30
0.0
 11
1324.403242261125
 21
2545.113323409963
 31
0.0
  0
ARC
  5
136
330
1F
100
AcDbEntity
  8
0-6_扉
  6
JWW_DASHED2
 62
    40
370
    15
100
AcDbCircle
 10
1325.767276046318
 20
2527.165080826557
 30
0.0
 40
18.0
100
AcDbArc
 50
94.34602072163928
 51
184.346020721639
  0
LINE
  5
137
330
1F
100
AcDbEntity
  8
0-1_通り芯
  6
JWW_CENTER1
 62
   120
370
     5
100
AcDbLine
 10
1307.819033462909
 20
2781.945146596496
 30
0.0
 11
1307.819033462909
 21
2528.52911461175
 31
0.0
  0
LWPOLYLINE
  5
138
330
1F
100
AcDbEntity
  8
0-B_寸法
  6
Continuous
 62
     7
370
     9
100
AcDbPolyline
 90
        4
 70
     1
 43
3.0
 10
1309.319033462909
 20
2961.945146596496
 42
0.4142135623731
 10
1307.819033462909
 20
2963.445146596496
 42
0.4142135623731
 10
1306.319033462909
 20
2961.945146596496
 42
0.4142135623731
 10
1307.819033462909
 20
2960.445146596496
 42
0.4142135623731
  0
LINE
  5
139
330
1F
100
AcDbEntity
  8
0-B_寸法
  6
Continuous
 62
   120
370
     5
100
AcDbLine
 10
1307.819033462909
 20
2961.945146596496
 30
0.0
 11
1307.819033462909
 21
2781.945146596496
 31
0.0
  0
LINE
  5
13A
330
1F
100
AcDbEntity
  8
0-B_寸法
  6
Continuous
 62
   120
370
     5
100
AcDbLine
 10
1008.918883076071
 20
1626.945146596496
 30
0.0
 11
2016.918579965285
 21
1626.945146596496
 31
0.0
  0
LWPOLYLINE
  5
13B
330
1F
100
AcDbEntity
  8
0-B_寸法
  6
Continuous
 62
     7
370
     9
100
AcDbPolyline
 90
        4
 70
     1
 43
3.0
 10
1010.418883076071
 20
1626.945146596496
 42
0.4142135623731
 10
1008.918883076071
 20
1628.445146596496
 42
0.4142135623731
 10
1007.418883076071
 20
1626.945146596496
 42
0.4142135623731
 10
1008.918883076071
 20
1625.445146596496
 42
0.4142135623731
  0
LWPOLYLINE
  5
13C
330
1F
100
AcDbEntity
  8
0-B_寸法
  6
Continuous
 62
     7
370
     9
100
AcDbPolyline
 90
        4
 70
     1
 43
3.0
 10
2018.418579965285
 20
1626.945146596496
 42
0.4142135623731
 10
2016.918579965285
 20
1628.445146596496
 42
0.4142135623731
 10
2015.418579965285
 20
1626.945146596496
 42
0.4142135623731
 10
2016.918579965285
 20
1625.445146596496
 42
0.4142135623731
  0
LINE
  5
13D
330
1F
100
AcDbEntity
  8
0-B_寸法
  6
Continuous
 62
   120
370
     5
100
AcDbLine
 10
1008.918883076071
 20
1626.945146596496
 30
0.0
 11
1008.918883076071
 21
1806.945146596496
 31
0.0
  0
LINE
  5
13E
330
1F
100
AcDbEntity
  8
0-B_寸法
  6
Continuous
 62
   120
370
     5
100
AcDbLine
 10
15.91854284331419
 20
1446.945146596496
 30
0.0
 11
2016.918579965285
 21
1446.945146596496
 31
0.0
  0
LWPOLYLINE
  5
13F
330
1F
100
AcDbEntity
  8
0-B_寸法
  6
Continuous
 62
     7
370
     9
100
AcDbPolyline
 90
        4
 70
     1
 43
3.0
 10
2018.418579965285
 20
1446.945146596496
 42
0.4142135623731
 10
2016.918579965285
 20
1448.445146596496
 42
0.4142135623731
 10
2015.418579965285
 20
1446.945146596496
 42
0.4142135623731
 10
2016.918579965285
 20
1445.445146596496
 42
0.4142135623731
  0
LINE
  5
140
330
1F
100
AcDbEntity
  8
0-B_寸法
  6
Continuous
 62
   120
370
     5
100
AcDbLine
 10
2016.918579965285
 20
1446.945146596496
 30
0.0
 11
2016.918579965285
 21
1806.945146596496
 31
0.0
  0
LINE
  5
141
330
1F
100
AcDbEntity
  8
0-0_補助線
  6
JWW_HOJO
 62
     7
370
     9
100
AcDbLine
 10
1005.91888307607
 20
906.9451465964958
 30
0.0
 11
1005.91888307607
 21
3141.945146596496
 31
0.0
  0
LINE
  5
142
330
1F
100
AcDbEntity
  8
0-B_寸法
  6
Continuous
 62
   120
370
     5
100
AcDbLine
 10
3.918542843314441
 20
1446.945146596496
 30
0.0
 11
15.91854284331419
 21
1446.945146596496
 31
0.0
  0
LINE
  5
143
330
1F
100
AcDbEntity
  8
0-B_寸法
  6
Continuous
 62
   120
370
     5
100
AcDbLine
 10
-1287.98194777628
 20
2961.945146596496
 30
0.0
 11
1307.819033462909
 21
2961.945146596496
 31
0.0
  0
LINE
  5
144
330
1F
100
AcDbEntity
  8
0-4_枠
  6
Continuous
 62
    92
370
    13
100
AcDbLine
 10
2031.918579965285
 20
2631.945092159736
 30
0.0
 11
2031.918579965285
 21
2091.945943352727
 31
0.0
  0
LINE
  5
145
330
1F
100
AcDbEntity
  8
0-0_補助線
  6
JWW_HOJO
 62
   120
370
     5
100
AcDbLine
 10
2781.918332525463
 20
2961.945146596496
 30
0.0
 11
2781.918332525463
 21
1086.945146596496
 31
0.0
  0
LINE
  5
146
330
1F
100
AcDbEntity
  8
0-C_ハッチ
  6
Continuous
 62
   120
370
     5
100
AcDbLine
 10
2211.918802661125
 20
2206.621849972235
 30
0.0
 11
2145.918579965282
 21
2140.62199467297
 31
0.0
  0
LINE
  5
147
330
1F
100
AcDbEntity
  8
0-4_枠
  6
Continuous
 62
    92
370
    13
100
AcDbLine
 10
2145.918579965282
 20
2145.945943352727
 30
0.0
 11
2145.918579965282
 21
2085.945943352727
 31
0.0
  0
LINE
  5
148
330
1F
100
AcDbEntity
  8
0-4_枠
  6
Continuous
 62
    92
370
    13
100
AcDbLine
 10
2091.918579965285
 20
2145.945943352727
 30
0.0
 11
2145.918579965282
 21
2145.945943352727
 31
0.0
  0
LINE
  5
149
330
1F
100
AcDbEntity
  8
0-4_枠
  6
Continuous
 62
    92
370
    13
100
AcDbLine
 10
2091.918579965285
 20
2145.945943352727
 30
0.0
 11
2091.918579965285
 21
2085.945943352727
 31
0.0
  0
LINE
  5
14A
330
1F
100
AcDbEntity
  8
0-4_枠
  6
Continuous
 62
    92
370
    13
100
AcDbLine
 10
2211.918579965285
 20
2637.945092159735
 30
0.0
 11
2211.918579965285
 21
2127.945943352727
 31
0.0
  0
LINE
  5
14B
330
1F
100
AcDbEntity
  8
0-4_枠
  6
Continuous
 62
    92
370
    13
100
AcDbLine
 10
2181.918579965285
 20
2127.945943352727
 30
0.0
 11
2211.918579965285
 21
2127.945943352727
 31
0.0
  0
LINE
  5
14C
330
1F
100
AcDbEntity
  8
0-4_枠
  6
Continuous
 62
    92
370
    13
100
AcDbLine
 10
2181.918579965285
 20
2127.945943352727
 30
0.0
 11
2181.918579965285
 21
2085.945943352727
 31
0.0
  0
LINE
  5
14D
330
1F
100
AcDbEntity
  8
0-4_枠
  6
Continuous
 62
    92
370
    13
100
AcDbLine
 10
2145.918579965282
 20
2085.945943352727
 30
0.0
 11
2181.918579965285
 21
2085.945943352727
 31
0.0
  0
LINE
  5
14E
330
1F
100
AcDbEntity
  8
0-C_ハッチ
  6
Continuous
 62
   120
370
     5
100
AcDbLine
 10
2134.12483590384
 20
2637.945092159735
 30
0.0
 11
2031.918579965285
 21
2535.739578540647
 31
0.0
  0
LINE
  5
14F
330
1F
100
AcDbEntity
  8
0-C_ハッチ
  6
Continuous
 62
   120
370
     5
100
AcDbLine
 10
2211.918802661125
 20
2630.886376339422
 30
0.0
 11
2031.918579965285
 21
2450.886524803317
 31
0.0
  0
LINE
  5
150
330
1F
100
AcDbEntity
  8
0-C_ハッチ
  6
Continuous
 62
   120
370
     5
100
AcDbLine
 10
2211.918802661125
 20
2291.474903709567
 30
0.0
 11
2031.918579965285
 21
2111.47505217346
 31
0.0
  0
LINE
  5
151
330
1F
100
AcDbEntity
  8
0-C_ハッチ
  6
Continuous
 62
   120
370
     5
100
AcDbLine
 10
2031.918579965285
 20
2281.180417328655
 30
0.0
 11
2211.918802661125
 21
2461.18026886476
 31
0.0
  0
LINE
  5
152
330
1F
100
AcDbEntity
  8
0-C_ハッチ
  6
Continuous
 62
   120
370
     5
100
AcDbLine
 10
2031.918579965285
 20
2196.327363591322
 30
0.0
 11
2211.918802661125
 21
2376.327957446897
 31
0.0
  0
LINE
  5
153
330
1F
100
AcDbEntity
  8
0-C_ハッチ
  6
Continuous
 62
   120
370
     5
100
AcDbLine
 10
2181.918579965285
 20
2091.768740538963
 30
0.0
 11
2176.095750365707
 21
2085.945943352727
 31
0.0
  0
LINE
  5
154
330
1F
100
AcDbEntity
  8
0-4_枠
  6
Continuous
 62
    92
370
    13
100
AcDbLine
 10
2037.918579965283
 20
2085.945943352727
 30
0.0
 11
2091.918579965285
 21
2085.945943352727
 31
0.0
  0
LINE
  5
155
330
1F
100
AcDbEntity
  8
0-4_枠
  6
Continuous
 62
    92
370
    13
100
AcDbLine
 10
2031.918579965285
 20
2091.945943352727
 30
0.0
 11
2037.918579965283
 21
2085.945943352727
 31
0.0
  0
LINE
  5
156
330
1F
100
AcDbEntity
  8
0-4_枠
  6
Continuous
 62
    92
370
    13
100
AcDbLine
 10
2037.918579965283
 20
2637.945092159735
 30
0.0
 11
2211.918579965285
 21
2637.945092159735
 31
0.0
  0
LINE
  5
157
330
1F
100
AcDbEntity
  8
0-4_枠
  6
Continuous
 62
    92
370
    13
100
AcDbLine
 10
2037.918579965283
 20
2637.945092159735
 30
0.0
 11
2031.918579965285
 21
2631.945092159736
 31
0.0
  0
LINE
  5
158
330
1F
100
AcDbEntity
  8
0-7_金物
  6
Continuous
 62
     7
370
     9
100
AcDbLine
 10
2211.918579965285
 20
2415.945180928771
 30
0.0
 11
2217.918648629824
 21
2415.945180928771
 31
0.0
  0
LINE
  5
159
330
1F
100
AcDbEntity
  8
0-7_金物
  6
Continuous
 62
     7
370
     9
100
AcDbLine
 10
2217.918648629824
 20
2307.94511226422
 30
0.0
 11
2211.918579965285
 21
2307.94511226422
 31
0.0
  0
LINE
  5
15A
330
1F
100
AcDbEntity
  8
0-7_金物
  6
Continuous
 62
     7
370
     9
100
AcDbLine
 10
2217.918648629824
 20
2301.944946324889
 30
0.0
 11
2217.918648629824
 21
2421.944603002135
 31
0.0
  0
LINE
  5
15B
330
1F
100
AcDbEntity
  8
0-7_金物
  6
Continuous
 62
     7
370
     9
100
AcDbLine
 10
2229.918242364565
 20
2421.944603002135
 30
0.0
 11
2217.918648629824
 21
2421.944603002135
 31
0.0
  0
LINE
  5
15C
330
1F
100
AcDbEntity
  8
0-7_金物
  6
Continuous
 62
     7
370
     9
100
AcDbLine
 10
2229.918242364565
 20
2301.944946324889
 30
0.0
 11
2217.918648629824
 21
2301.944946324889
 31
0.0
  0
LINE
  5
15D
330
1F
100
AcDbEntity
  8
0-7_金物
  6
Continuous
 62
     7
370
     9
100
AcDbLine
 10
2241.918579965275
 20
2271.944843328066
 30
0.0
 11
2241.918579965275
 21
2451.944705998962
 31
0.0
  0
LINE
  5
15E
330
1F
100
AcDbEntity
  8
0-7_金物
  6
Continuous
 62
     7
370
     9
100
AcDbLine
 10
2241.918579965275
 20
2271.944843328066
 30
0.0
 11
2229.918242364565
 21
2271.944843328066
 31
0.0
  0
LINE
  5
15F
330
1F
100
AcDbEntity
  8
0-7_金物
  6
Continuous
 62
     7
370
     9
100
AcDbLine
 10
2241.918579965275
 20
2451.944705998962
 30
0.0
 11
2229.918242364565
 21
2451.944705998962
 31
0.0
  0
LINE
  5
160
330
1F
100
AcDbEntity
  8
0-7_金物
  6
Continuous
 62
     7
370
     9
100
AcDbLine
 10
2229.918242364565
 20
2271.944843328066
 30
0.0
 11
2229.918242364565
 21
2451.944705998962
 31
0.0
  0
LWPOLYLINE
  5
161
330
1F
100
AcDbEntity
  8
0-B_寸法
  6
Continuous
 62
     7
370
     9
100
AcDbPolyline
 90
        4
 70
     1
 43
3.0
 10
2033.418579965285
 20
1266.945146596496
 42
0.4142135623731
 10
2031.918579965285
 20
1268.445146596496
 42
0.4142135623731
 10
2030.418579965285
 20
1266.945146596496
 42
0.4142135623731
 10
2031.918579965285
 20
1265.445146596496
 42
0.4142135623731
  0
LINE
  5
162
330
1F
100
AcDbEntity
  8
0-B_寸法
  6
Continuous
 62
   120
370
     5
100
AcDbLine
 10
2031.918579965285
 20
1266.945146596496
 30
0.0
 11
2031.918579965285
 21
1986.945146596496
 31
0.0
  0
LINE
  5
163
330
1F
100
AcDbEntity
  8
0-B_寸法
  6
Continuous
 62
   120
370
     5
100
AcDbLine
 10
2031.918579965285
 20
1266.945146596496
 30
0.0
 11
2211.918579965285
 21
1266.945146596496
 31
0.0
  0
LWPOLYLINE
  5
164
330
1F
100
AcDbEntity
  8
0-B_寸法
  6
Continuous
 62
     7
370
     9
100
AcDbPolyline
 90
        4
 70
     1
 43
3.0
 10
2213.418579965285
 20
1266.945146596496
 42
0.4142135623731
 10
2211.918579965285
 20
1268.445146596496
 42
0.4142135623731
 10
2210.418579965285
 20
1266.945146596496
 42
0.4142135623731
 10
2211.918579965285
 20
1265.445146596496
 42
0.4142135623731
  0
MTEXT
  5
165
330
1F
100
AcDbEntity
  8
0-B_寸法
  6
Continuous
 62
     7
370
   211
100
AcDbMText
 10
-759.5816272730627
 20
1627.665146596496
 30
0.0
 40
91.43999999999998
 41
540.0
 46
0.0
 71
     7
 72
     1
  1
{\fＭＳ ゴシック|b0|i0|c128|p49;ＤＷ＝394}
 73
     1
 44
1.0
  0
LWPOLYLINE
  5
166
330
1F
100
AcDbEntity
  8
0-B_寸法
  6
Continuous
 62
     7
370
     9
100
AcDbPolyline
 90
        4
 70
     1
 43
3.0
 10
2213.418579965285
 20
1086.945146596496
 42
0.4142135623731
 10
2211.918579965285
 20
1088.445146596496
 42
0.4142135623731
 10
2210.418579965285
 20
1086.945146596496
 42
0.4142135623731
 10
2211.918579965285
 20
1085.445146596496
 42
0.4142135623731
  0
LINE
  5
167
330
1F
100
AcDbEntity
  8
0-B_寸法
  6
Continuous
 62
   120
370
     5
100
AcDbLine
 10
2211.918579965285
 20
1086.945146596496
 30
0.0
 11
2211.918579965285
 21
1986.945146596496
 31
0.0
  0
LINE
  5
168
330
1F
100
AcDbEntity
  8
0-B_寸法
  6
Continuous
 62
   120
370
     5
100
AcDbLine
 10
2211.918579965285
 20
1086.945146596496
 30
0.0
 11
2241.918579965275
 21
1086.945146596496
 31
0.0
  0
LWPOLYLINE
  5
169
330
1F
100
AcDbEntity
  8
0-B_寸法
  6
Continuous
 62
     7
370
     9
100
AcDbPolyline
 90
        4
 70
     1
 43
3.0
 10
2243.418579965275
 20
1086.945146596496
 42
0.4142135623731
 10
2241.918579965275
 20
1088.445146596496
 42
0.4142135623731
 10
2240.418579965275
 20
1086.945146596496
 42
0.4142135623731
 10
2241.918579965275
 20
1085.445146596496
 42
0.4142135623731
  0
LINE
  5
16A
330
1F
100
AcDbEntity
  8
0-B_寸法
  6
Continuous
 62
   120
370
     5
100
AcDbLine
 10
2241.918579965275
 20
1086.945146596496
 30
0.0
 11
2241.918579965275
 21
1986.945146596496
 31
0.0
  0
MTEXT
  5
16B
330
1F
100
AcDbEntity
  8
0-B_寸法
  6
Continuous
 62
     7
370
   211
100
AcDbMText
 10
239.4187129596918
 20
1627.665146596496
 30
0.0
 40
91.43999999999998
 41
540.0
 46
0.0
 71
     7
 72
     1
  1
{\fＭＳ ゴシック|b0|i0|c128|p49;ＤＷ＝394}
 73
     1
 44
1.0
  0
LINE
  5
16C
330
1F
100
AcDbEntity
  8
0-0_補助線
  6
JWW_HOJO
 62
   120
370
     5
100
AcDbLine
 10
2777.419006779262
 20
1806.945146596496
 30
0.0
 11
-2766.580622072998
 21
1806.945146596496
 31
0.0
  0
LINE
  5
16D
330
1F
100
AcDbEntity
  8
0-0_補助線
  6
JWW_HOJO
 62
   120
370
     5
100
AcDbLine
 10
2777.419006779262
 20
1986.945146596496
 30
0.0
 11
-2766.580622072998
 21
1986.945146596496
 31
0.0
  0
LINE
  5
16E
330
1F
100
AcDbEntity
  8
0-0_補助線
  6
JWW_HOJO
 62
   120
370
     5
100
AcDbLine
 10
2777.419006779262
 20
1626.945146596496
 30
0.0
 11
-2766.580622072998
 21
1626.945146596496
 31
0.0
  0
LINE
  5
16F
330
1F
100
AcDbEntity
  8
0-0_補助線
  6
JWW_HOJO
 62
   120
370
     5
100
AcDbLine
 10
2777.419006779262
 20
1446.945146596496
 30
0.0
 11
-2766.580622072998
 21
1446.945146596496
 31
0.0
  0
LINE
  5
170
330
1F
100
AcDbEntity
  8
0-0_補助線
  6
JWW_HOJO
 62
   120
370
     5
100
AcDbLine
 10
-2762.081197362867
 20
1266.945146596496
 30
0.0
 11
2781.918332525463
 21
1266.945146596496
 31
0.0
  0
LINE
  5
171
330
1F
100
AcDbEntity
  8
0-0_補助線
  6
JWW_HOJO
 62
   120
370
     5
100
AcDbLine
 10
-2762.081197362867
 20
1086.945146596496
 30
0.0
 11
2781.918332525463
 21
1086.945146596496
 31
0.0
  0
LINE
  5
172
330
1F
100
AcDbEntity
  8
0-0_補助線
  6
JWW_HOJO
 62
   120
370
     5
100
AcDbLine
 10
-2762.081197362867
 20
3141.945146596496
 30
0.0
 11
2781.918332525463
 21
3141.945146596496
 31
0.0
  0
LINE
  5
173
330
1F
100
AcDbEntity
  8
0-1_通り芯
  6
JWW_CENTER1
 62
   120
370
     5
100
AcDbLine
 10
-2762.081197362867
 20
2361.945146596496
 30
0.0
 11
2781.918332525463
 21
2361.945146596496
 31
0.0
  0
LINE
  5
174
330
1F
100
AcDbEntity
  8
0-0_補助線
  6
JWW_HOJO
 62
   120
370
     5
100
AcDbLine
 10
-2762.081197362867
 20
2781.945146596496
 30
0.0
 11
2781.918332525463
 21
2781.945146596496
 31
0.0
  0
LINE
  5
175
330
1F
100
AcDbEntity
  8
0-0_補助線
  6
JWW_HOJO
 62
   120
370
     5
100
AcDbLine
 10
-2762.081197362867
 20
2961.945146596496
 30
0.0
 11
2781.918332525463
 21
2961.945146596496
 31
0.0
  0
LINE
  5
176
330
1F
100
AcDbEntity
  8
0-B_寸法
  6
Continuous
 62
   120
370
     5
100
AcDbLine
 10
-2012.081444790693
 20
1266.945146596496
 30
0.0
 11
2031.918579965285
 21
1266.945146596496
 31
0.0
  0
LINE
  5
177
330
1F
100
AcDbEntity
  8
0-B_寸法
  6
Continuous
 62
   120
370
     5
100
AcDbLine
 10
-2192.081444790693
 20
1086.945146596496
 30
0.0
 11
2211.918579965285
 21
1086.945146596496
 31
0.0
  0
LINE
  5
178
330
1F
100
AcDbEntity
  8
0-C_ハッチ
  6
Continuous
 62
   120
370
     5
100
AcDbLine
 10
2211.918802661125
 20
2546.033322602092
 30
0.0
 11
2031.918579965285
 21
2366.032728746519
 31
0.0
  0
LWPOLYLINE
  5
179
330
1F
100
AcDbEntity
  8
0-B_寸法
  6
Continuous
 62
     7
370
     9
100
AcDbPolyline
 90
        4
 70
     1
 43
3.0
 10
-2220.58144479068
 20
3141.945146596498
 42
0.4142135623731
 10
-2222.08144479068
 20
3143.445146596498
 42
0.4142135623731
 10
-2223.58144479068
 20
3141.945146596498
 42
0.4142135623731
 10
-2222.08144479068
 20
3140.445146596498
 42
0.4142135623731
  0
LINE
  5
17A
330
1F
100
AcDbEntity
  8
0-B_寸法
  6
Continuous
 62
   120
370
     5
100
AcDbLine
 10
-2222.08144479068
 20
3141.945146596498
 30
0.0
 11
-2222.08144479068
 21
2781.945146596496
 31
0.0
  0
LINE
  5
17B
330
1F
100
AcDbEntity
  8
0-B_寸法
  6
Continuous
 62
   120
370
     5
100
AcDbLine
 10
2241.918579965275
 20
3141.945146596498
 30
0.0
 11
2241.918579965275
 21
2781.945146596496
 31
0.0
  0
LWPOLYLINE
  5
17C
330
1F
100
AcDbEntity
  8
0-B_寸法
  6
Continuous
 62
     7
370
     9
100
AcDbPolyline
 90
        4
 70
     1
 43
3.0
 10
2243.418579965275
 20
3141.945146596498
 42
0.4142135623731
 10
2241.918579965275
 20
3143.445146596498
 42
0.4142135623731
 10
2240.418579965275
 20
3141.945146596498
 42
0.4142135623731
 10
2241.918579965275
 20
3140.445146596498
 42
0.4142135623731
  0
LINE
  5
17D
330
1F
100
AcDbEntity
  8
0-B_寸法
  6
Continuous
 62
   120
370
     5
100
AcDbLine
 10
-2222.08144479068
 20
3141.945146596498
 30
0.0
 11
2241.918579965275
 21
3141.945146596498
 31
0.0
  0
MTEXT
  5
17E
330
1F
100
AcDbEntity
  8
0-B_寸法
  6
Continuous
 62
     7
370
   211
100
AcDbMText
 10
1242.918731520677
 20
1627.665146596496
 30
0.0
 40
91.43999999999998
 41
540.0
 46
0.0
 71
     7
 72
     1
  1
{\fＭＳ ゴシック|b0|i0|c128|p49;ＤＷ＝394}
 73
     1
 44
1.0
  0
MTEXT
  5
17F
330
1F
100
AcDbEntity
  8
0-B_寸法
  6
Continuous
 62
     7
370
   211
100
AcDbMText
 10
-1446.581463339683
 20
1447.665146596496
 30
0.0
 40
91.43999999999998
 41
900.0
 46
0.0
 71
     7
 72
     1
  1
{\fＭＳ ゴシック|b0|i0|c128|p49;折戸：ＤＷ＝789}
 73
     1
 44
1.0
  0
MTEXT
  5
180
330
1F
100
AcDbEntity
  8
0-B_寸法
  6
Continuous
 62
     7
370
   211
100
AcDbMText
 10
-71.01590454956579
 20
1447.665146596496
 30
0.0
 40
91.44
 41
60.0
 46
0.0
 71
     7
 72
     1
  1
{\fＭＳ ゴシック|b0|i0|c128|p49;2}
 73
     1
 44
1.0
  0
MTEXT
  5
181
330
1F
100
AcDbEntity
  8
0-B_寸法
  6
Continuous
 62
     7
370
   211
100
AcDbMText
 10
566.4185242883286
 20
1447.665146596496
 30
0.0
 40
91.43999999999998
 41
900.0
 46
0.0
 71
     7
 72
     1
  1
{\fＭＳ ゴシック|b0|i0|c128|p49;折戸：ＤＷ＝789}
 73
     1
 44
1.0
  0
MTEXT
  5
182
330
1F
100
AcDbEntity
  8
0-B_寸法
  6
Continuous
 62
     7
370
   211
100
AcDbMText
 10
-2162.081444790693
 20
1267.665146596496
 30
0.0
 40
91.44
 41
120.0
 46
0.0
 71
     7
 72
     1
  1
{\fＭＳ ゴシック|b0|i0|c128|p49;30}
 73
     1
 44
1.0
  0
MTEXT
  5
183
330
1F
100
AcDbEntity
  8
0-B_寸法
  6
Continuous
 62
     7
370
   211
100
AcDbMText
 10
-320.0814571566855
 20
1267.665146596496
 30
0.0
 40
91.43999999999997
 41
660.0
 46
0.0
 71
     7
 72
     1
  1
{\fＭＳ ゴシック|b0|i0|c128|p49;枠内＝1,585}
 73
     1
 44
1.0
  0
MTEXT
  5
184
330
1F
100
AcDbEntity
  8
0-B_寸法
  6
Continuous
 62
     7
370
   211
100
AcDbMText
 10
2061.918579965285
 20
1267.665146596496
 30
0.0
 40
91.44
 41
120.0
 46
0.0
 71
     7
 72
     1
  1
{\fＭＳ ゴシック|b0|i0|c128|p49;30}
 73
     1
 44
1.0
  0
MTEXT
  5
185
330
1F
100
AcDbEntity
  8
0-B_寸法
  6
Continuous
 62
     7
370
   211
100
AcDbMText
 10
-2237.081444790685
 20
1087.665146596496
 30
0.0
 40
91.44
 41
60.0
 46
0.0
 71
     7
 72
     1
  1
{\fＭＳ ゴシック|b0|i0|c128|p49;5}
 73
     1
 44
1.0
  0
MTEXT
  5
186
330
1F
100
AcDbEntity
  8
0-B_寸法
  6
Continuous
 62
     7
370
   211
100
AcDbMText
 10
-320.0814571566855
 20
1087.665146596496
 30
0.0
 40
91.43999999999997
 41
660.0
 46
0.0
 71
     7
 72
     1
  1
{\fＭＳ ゴシック|b0|i0|c128|p49;枠外＝1,645}
 73
     1
 44
1.0
  0
MTEXT
  5
187
330
1F
100
AcDbEntity
  8
0-B_寸法
  6
Continuous
 62
     7
370
   211
100
AcDbMText
 10
2196.91857996528
 20
1087.665146596496
 30
0.0
 40
91.44
 41
60.0
 46
0.0
 71
     7
 72
     1
  1
{\fＭＳ ゴシック|b0|i0|c128|p49;5}
 73
     1
 44
1.0
  0
LINE
  5
188
330
1F
100
AcDbEntity
  8
0-C_ハッチ
  6
JWW_DASHED1
 62
   120
370
     5
100
AcDbLine
 10
-2720.473869218862
 20
2052.94569591288
 30
0.0
 11
-2645.47362177903
 21
2127.945943352714
 31
0.0
  0
LINE
  5
189
330
1F
100
AcDbEntity
  8
0-C_ハッチ
  6
JWW_DASHED1
 62
   120
370
     5
100
AcDbLine
 10
-2678.047462347635
 20
2052.945695912907
 30
0.0
 11
-2603.047214907802
 21
2127.945943352736
 31
0.0
  0
LINE
  5
18A
330
1F
100
AcDbEntity
  8
0-C_ハッチ
  6
JWW_DASHED1
 62
   120
370
     5
100
AcDbLine
 10
-2635.621055476441
 20
2052.945695912902
 30
0.0
 11
-2560.62080803661
 21
2127.945943352733
 31
0.0
  0
LINE
  5
18B
330
1F
100
AcDbEntity
  8
0-C_ハッチ
  6
JWW_DASHED1
 62
   120
370
     5
100
AcDbLine
 10
-2593.194648605241
 20
2052.945695912897
 30
0.0
 11
-2518.194401165416
 21
2127.945943352727
 31
0.0
  0
LINE
  5
18C
330
1F
100
AcDbEntity
  8
0-C_ハッチ
  6
JWW_DASHED1
 62
   120
370
     5
100
AcDbLine
 10
-2550.768241734041
 20
2052.945695912897
 30
0.0
 11
-2475.76799429421
 21
2127.945943352733
 31
0.0
  0
LINE
  5
18D
330
1F
100
AcDbEntity
  8
0-C_ハッチ
  6
JWW_DASHED1
 62
   120
370
     5
100
AcDbLine
 10
-2508.341834862848
 20
2052.945695912895
 30
0.0
 11
-2433.341587423016
 21
2127.945943352727
 31
0.0
  0
LINE
  5
18E
330
1F
100
AcDbEntity
  8
0-C_ハッチ
  6
JWW_DASHED1
 62
   120
370
     5
100
AcDbLine
 10
-2465.915427991648
 20
2052.945695912894
 30
0.0
 11
-2390.915180551816
 21
2127.945943352725
 31
0.0
  0
LINE
  5
18F
330
1F
100
AcDbEntity
  8
0-C_ハッチ
  6
JWW_DASHED1
 62
   120
370
     5
100
AcDbLine
 10
-2423.489021120455
 20
2052.945695912888
 30
0.0
 11
-2348.488773680616
 21
2127.94594335272
 31
0.0
  0
LINE
  5
190
330
1F
100
AcDbEntity
  8
0-C_ハッチ
  6
JWW_DASHED1
 62
   120
370
     5
100
AcDbLine
 10
-2381.062614249296
 20
2052.945695912895
 30
0.0
 11
-2306.06236680947
 21
2127.94594335273
 31
0.0
  0
LINE
  5
191
330
1F
100
AcDbEntity
  8
0-C_ハッチ
  6
JWW_DASHED1
 62
   120
370
     5
100
AcDbLine
 10
-2338.636207378096
 20
2052.9456959129
 30
0.0
 11
-2263.63595993827
 21
2127.94594335273
 31
0.0
  0
LINE
  5
192
330
1F
100
AcDbEntity
  8
0-C_ハッチ
  6
JWW_DASHED1
 62
   120
370
     5
100
AcDbLine
 10
-2296.209800506903
 20
2052.945695912895
 30
0.0
 11
-2221.20955306707
 21
2127.945943352725
 31
0.0
  0
LINE
  5
193
330
1F
100
AcDbEntity
  8
0-C_ハッチ
  6
JWW_DASHED1
 62
   120
370
     5
100
AcDbLine
 10
-2253.783393635709
 20
2052.945695912888
 30
0.0
 11
-2178.783146195877
 21
2127.94594335272
 31
0.0
  0
LINE
  5
194
330
1F
100
AcDbEntity
  8
0-C_ハッチ
  6
JWW_DASHED1
 62
   120
370
     5
100
AcDbLine
 10
-2211.356986764496
 20
2052.9456959129
 30
0.0
 11
-2162.081444790693
 21
2102.221237886703
 31
0.0
  0
LINE
  5
195
330
1F
100
AcDbEntity
  8
0-C_ハッチ
  6
JWW_DASHED1
 62
   120
370
     5
100
AcDbLine
 10
-2168.930579893296
 20
2052.945695912895
 30
0.0
 11
-2162.081444790693
 21
2059.794831015502
 31
0.0
  0
LINE
  5
196
330
1F
100
AcDbEntity
  8
0-C_ハッチ
  6
Continuous
 62
    40
370
    15
100
AcDbLine
 10
-2162.081444790693
 20
2127.945943352727
 30
0.0
 11
-2162.081444790693
 21
2052.945943352727
 31
0.0
  0
LINE
  5
197
330
1F
100
AcDbEntity
  8
0-3_仕上げ
  6
Continuous
 62
    40
370
    15
100
AcDbLine
 10
-2162.081444790693
 20
2127.945943352727
 30
0.0
 11
-2762.081197362867
 21
2127.945943352727
 31
0.0
  0
LINE
  5
198
330
1F
100
AcDbEntity
  8
0-3_仕上げ
  6
Continuous
 62
    40
370
    15
100
AcDbLine
 10
-2162.081444790693
 20
2052.945943352727
 30
0.0
 11
-2762.081197362867
 21
2052.945943352727
 31
0.0
  0
LINE
  5
199
330
1F
100
AcDbEntity
  8
0-C_ハッチ
  6
JWW_DASHED1
 62
   120
370
     5
100
AcDbLine
 10
-2762.081197362867
 20
2053.764774640013
 30
0.0
 11
-2687.900028650169
 21
2127.94594335272
 31
0.0
  0
LINE
  5
19A
330
1F
100
AcDbEntity
  8
0-C_ハッチ
  6
JWW_DASHED1
 62
   120
370
     5
100
AcDbLine
 10
2181.918530477323
 20
2093.874898538684
 30
0.0
 11
2215.989575291383
 21
2127.945943352746
 31
0.0
  0
LINE
  5
19B
330
1F
100
AcDbEntity
  8
0-C_ハッチ
  6
JWW_DASHED1
 62
   120
370
     5
100
AcDbLine
 10
2650.106457745721
 20
2052.945943352739
 30
0.0
 11
2725.106457745718
 21
2127.945943352734
 31
0.0
  0
LINE
  5
19C
330
1F
100
AcDbEntity
  8
0-C_ハッチ
  6
JWW_DASHED1
 62
   120
370
     5
100
AcDbLine
 10
2607.680050874523
 20
2052.945943352741
 30
0.0
 11
2682.680050874521
 21
2127.945943352739
 31
0.0
  0
LINE
  5
19D
330
1F
100
AcDbEntity
  8
0-C_ハッチ
  6
JWW_DASHED1
 62
   120
370
     5
100
AcDbLine
 10
2565.253644003318
 20
2052.945943352734
 30
0.0
 11
2640.25364400331
 21
2127.945943352727
 31
0.0
  0
LINE
  5
19E
330
1F
100
AcDbEntity
  8
0-C_ハッチ
  6
JWW_DASHED1
 62
   120
370
     5
100
AcDbLine
 10
2522.827237132121
 20
2052.945943352739
 30
0.0
 11
2597.827237132115
 21
2127.945943352733
 31
0.0
  0
LINE
  5
19F
330
1F
100
AcDbEntity
  8
0-C_ハッチ
  6
JWW_DASHED1
 62
   120
370
     5
100
AcDbLine
 10
2480.400830260908
 20
2052.945943352727
 30
0.0
 11
2555.40083026092
 21
2127.945943352736
 31
0.0
  0
LINE
  5
1A0
330
1F
100
AcDbEntity
  8
0-C_ハッチ
  6
JWW_DASHED1
 62
   120
370
     5
100
AcDbLine
 10
2437.974423389706
 20
2052.945943352722
 30
0.0
 11
2512.974423389718
 21
2127.945943352734
 31
0.0
  0
LINE
  5
1A1
330
1F
100
AcDbEntity
  8
0-C_ハッチ
  6
JWW_DASHED1
 62
   120
370
     5
100
AcDbLine
 10
2395.548016518508
 20
2052.945943352727
 30
0.0
 11
2470.548016518504
 21
2127.945943352722
 31
0.0
  0
LINE
  5
1A2
330
1F
100
AcDbEntity
  8
0-C_ハッチ
  6
JWW_DASHED1
 62
   120
370
     5
100
AcDbLine
 10
2353.121609647369
 20
2052.945943352734
 30
0.0
 11
2428.121609647367
 21
2127.94594335273
 31
0.0
  0
LINE
  5
1A3
330
1F
100
AcDbEntity
  8
0-C_ハッチ
  6
JWW_DASHED1
 62
   120
370
     5
100
AcDbLine
 10
2310.695202776174
 20
2052.945943352736
 30
0.0
 11
2385.695202776169
 21
2127.945943352734
 31
0.0
  0
LINE
  5
1A4
330
1F
100
AcDbEntity
  8
0-C_ハッチ
  6
JWW_DASHED1
 62
   120
370
     5
100
AcDbLine
 10
2268.268795904976
 20
2052.945943352741
 30
0.0
 11
2343.268795904974
 21
2127.945943352736
 31
0.0
  0
LINE
  5
1A5
330
1F
100
AcDbEntity
  8
0-C_ハッチ
  6
JWW_DASHED1
 62
   120
370
     5
100
AcDbLine
 10
2225.842389033778
 20
2052.945943352741
 30
0.0
 11
2300.842389033773
 21
2127.945943352736
 31
0.0
  0
LINE
  5
1A6
330
1F
100
AcDbEntity
  8
0-C_ハッチ
  6
JWW_DASHED1
 62
   120
370
     5
100
AcDbLine
 10
2183.415982162567
 20
2052.94594335273
 30
0.0
 11
2258.415982162576
 21
2127.945943352741
 31
0.0
  0
LINE
  5
1A7
330
1F
100
AcDbEntity
  8
0-C_ハッチ
  6
Continuous
 62
    40
370
    15
100
AcDbLine
 10
2181.918579965285
 20
2127.945943352727
 30
0.0
 11
2181.918530477323
 21
2052.945943352727
 31
0.0
  0
LINE
  5
1A8
330
1F
100
AcDbEntity
  8
0-3_仕上げ
  6
Continuous
 62
    40
370
    15
100
AcDbLine
 10
2181.918530477323
 20
2052.945943352727
 30
0.0
 11
2781.918332525463
 21
2052.945943352727
 31
0.0
  0
LINE
  5
1A9
330
1F
100
AcDbEntity
  8
0-3_仕上げ
  6
Continuous
 62
    40
370
    15
100
AcDbLine
 10
2181.918530477323
 20
2127.945943352727
 30
0.0
 11
2781.918332525463
 21
2127.945943352727
 31
0.0
  0
LINE
  5
1AA
330
1F
100
AcDbEntity
  8
0-C_ハッチ
  6
JWW_DASHED1
 62
   120
370
     5
100
AcDbLine
 10
2734.959271488055
 20
2052.945943352727
 30
0.0
 11
2781.918332525463
 21
2099.905004390131
 31
0.0
  0
LINE
  5
1AB
330
1F
100
AcDbEntity
  8
0-C_ハッチ
  6
JWW_DASHED1
 62
   120
370
     5
100
AcDbLine
 10
2692.532864616918
 20
2052.945943352734
 30
0.0
 11
2767.532864616907
 21
2127.945943352727
 31
0.0
  0
LINE
  5
1AC
330
1F
100
AcDbEntity
  8
0-B_寸法
  6
Continuous
 62
   120
370
     5
100
AcDbLine
 10
-2042.081444790695
 20
1806.945146596496
 30
0.0
 11
-1983.202815911757
 21
1917.727567217363
 31
0.0
  0
LINE
  5
1AD
330
1F
100
AcDbEntity
  8
0-B_寸法
  6
Continuous
 62
   120
370
     5
100
AcDbLine
 10
-1983.202815911757
 20
1917.727567217363
 30
0.0
 11
-1873.539334135269
 21
1917.727567217363
 31
0.0
  0
MTEXT
  5
1AE
330
1F
100
AcDbEntity
  8
0-B_寸法
  6
Continuous
 62
     7
370
   211
100
AcDbMText
 10
-1974.309655205091
 20
1909.429367098222
 30
0.0
 40
91.44000000000129
 41
120.0000000000017
 46
0.0
 71
     7
 72
     1
  1
{\fＭＳ ゴシック|b0|i0|c128|p49;10}
 73
     1
 44
1.0
  0
LINE
  5
1AF
330
1F
100
AcDbEntity
  8
0-B_寸法
  6
Continuous
 62
   120
370
     5
100
AcDbLine
 10
-2264.081395314725
 20
1696.162725975628
 30
0.0
 11
-2319.168109233088
 21
1696.162725975628
 31
0.0
  0
LINE
  5
1B0
330
1F
100
AcDbEntity
  8
0-B_寸法
  6
Continuous
 62
   120
370
     5
100
AcDbLine
 10
-2144.081395314725
 20
1806.945146596496
 30
0.0
 11
-2264.081395314725
 21
1696.162725975628
 31
0.0
  0
LINE
  5
1B1
330
1F
100
AcDbEntity
  8
0-B_寸法
  6
Continuous
 62
   120
370
     5
100
AcDbLine
 10
-2296.172037101881
 20
1917.727567217363
 30
0.0
 11
-2351.258751020244
 21
1917.727567217363
 31
0.0
  0
LINE
  5
1B2
330
1F
100
AcDbEntity
  8
0-B_寸法
  6
Continuous
 62
   120
370
     5
100
AcDbLine
 10
-2176.172037101881
 20
1806.945146596496
 30
0.0
 11
-2296.172037101881
 21
1917.727567217363
 31
0.0
  0
MTEXT
  5
1B3
330
1F
100
AcDbEntity
  8
0-B_寸法
  6
Continuous
 62
     7
370
   211
100
AcDbMText
 10
-2316.581395314724
 20
1674.440503240899
 30
0.0
 40
91.44
 41
60.0
 46
0.0
 71
     7
 72
     1
  1
{\fＭＳ ゴシック|b0|i0|c128|p49;6}
 73
     1
 44
1.0
  0
MTEXT
  5
1B4
330
1F
100
AcDbEntity
  8
0-B_寸法
  6
Continuous
 62
     7
370
   211
100
AcDbMText
 10
-2353.725299643667
 20
1908.452426303855
 30
0.0
 40
91.44
 41
60.0
 46
0.0
 71
     7
 72
     1
  1
{\fＭＳ ゴシック|b0|i0|c128|p49;5}
 73
     1
 44
1.0
  0
LINE
  5
1B5
330
1F
100
AcDbEntity
  8
F-0_補助線
  6
JWW_HOJO
 62
   120
370
     5
100
AcDbLine
 10
-6140.081333436773
 20
-4455.0
 30
0.0
 11
-6140.081333436773
 21
4424.999604096284
 31
0.0
  0
LINE
  5
1B6
330
1F
100
AcDbEntity
  8
F-0_補助線
  6
JWW_HOJO
 62
   120
370
     5
100
AcDbLine
 10
-6140.081333436773
 20
4424.999604096284
 30
0.0
 11
6159.917676803936
 21
4424.999604096284
 31
0.0
  0
LINE
  5
1B7
330
1F
100
AcDbEntity
  8
F-0_補助線
  6
JWW_HOJO
 62
   120
370
     5
100
AcDbLine
 10
6159.917676803936
 20
4424.999604096284
 30
0.0
 11
6159.917676803936
 21
-4455.0
 31
0.0
  0
LINE
  5
1B8
330
1F
100
AcDbEntity
  8
F-0_補助線
  6
JWW_HOJO
 62
   120
370
     5
100
AcDbLine
 10
6159.917676803936
 20
-4455.0
 30
0.0
 11
-6140.081333436773
 21
-4455.0
 31
0.0
  0
LINE
  5
1B9
330
1F
100
AcDbEntity
  8
F-0_補助線
  6
JWW_HOJO
 62
   120
370
     5
100
AcDbLine
 10
-6140.081333436773
 20
194.9998020481422
 30
0.0
 11
6159.917676803936
 21
194.9998020481422
 31
0.0
  0
LINE
  5
1BA
330
1F
100
AcDbEntity
  8
F-0_補助線
  6
JWW_HOJO
 62
   120
370
     5
100
AcDbLine
 10
-5659.999495325861
 20
4424.999604096284
 30
0.0
 11
-5659.999495325861
 21
-4455.0
 31
0.0
  0
LINE
  5
1BB
330
1F
100
AcDbEntity
  8
F-0_補助線
  6
JWW_HOJO
 62
   120
370
     5
100
AcDbLine
 10
-6140.081333436773
 20
2438.999683277028
 30
0.0
 11
6159.917676803936
 21
2438.999683277028
 31
0.0
  0
LINE
  5
1BC
330
1F
100
AcDbEntity
  8
F-0_補助線
  6
JWW_HOJO
 62
   120
370
     5
100
AcDbLine
 10
-6140.081333436773
 20
-3159.000197951857
 30
0.0
 11
6159.917676803936
 21
-3159.000197951857
 31
0.0
  0
LINE
  5
1BD
330
1F
100
AcDbEntity
  8
F-0_補助線
  6
JWW_HOJO
 62
   120
370
     5
100
AcDbLine
 10
-200.0818283164182
 20
-4455.0
 30
0.0
 11
-200.0818283164182
 21
194.9998020481422
 31
0.0
  0
LINE
  5
1BE
330
1F
100
AcDbEntity
  8
F-0_補助線
  6
JWW_HOJO
 62
   120
370
     5
100
AcDbLine
 10
9.918171683581818
 20
-4455.0
 30
0.0
 11
9.918171683581818
 21
4424.999604096284
 31
0.0
  0
LINE
  5
1BF
330
1F
100
AcDbEntity
  8
F-0_補助線
  6
JWW_HOJO
 62
   120
370
     5
100
AcDbLine
 10
219.9181716835818
 20
-4455.0
 30
0.0
 11
219.9181716835818
 21
194.9998020481422
 31
0.0
  0
LINE
  5
1C0
330
1F
100
AcDbEntity
  8
F-0_補助線
  6
JWW_HOJO
 62
   120
370
     5
100
AcDbLine
 10
5679.835838693025
 20
4000.000181455872
 30
0.0
 11
5679.835838693025
 21
-4455.0
 31
0.0
  0
LINE
  5
1C1
330
1F
100
AcDbEntity
  8
F-0_補助線
  6
JWW_HOJO
 62
   120
370
     5
100
AcDbLine
 10
-6140.081333436773
 20
3730.000181455872
 30
0.0
 11
6159.917676803936
 21
3730.000181455872
 31
0.0
  0
LINE
  5
1C2
330
1F
100
AcDbEntity
  8
F-0_補助線
  6
JWW_HOJO
 62
   120
370
     5
100
AcDbLine
 10
-6140.081333436773
 20
4000.000181455872
 30
0.0
 11
6159.917676803936
 21
4000.000181455872
 31
0.0
  0
LINE
  5
1C3
330
1F
100
AcDbEntity
  8
0-E
  6
Continuous
 62
    92
370
    13
100
AcDbLine
 10
2205.587533354162
 20
-59.90275312295211
 30
0.0
 11
4845.587533354165
 21
-59.90275312295211
 31
0.0
  0
LINE
  5
1C4
330
1F
100
AcDbEntity
  8
0-E
  6
Continuous
 62
    92
370
    13
100
AcDbLine
 10
219.9181716835818
 20
-59.90275312295211
 30
0.0
 11
2205.587533354162
 21
-59.90275312295211
 31
0.0
  0
LINE
  5
1C5
330
1F
100
AcDbEntity
  8
0-E
  6
Continuous
 62
    92
370
    13
100
AcDbLine
 10
219.9181716835818
 20
-275.9027531229526
 30
0.0
 11
2205.587533354162
 21
-275.9027531229526
 31
0.0
  0
LINE
  5
1C6
330
1F
100
AcDbEntity
  8
0-E
  6
Continuous
 62
    92
370
    13
100
AcDbLine
 10
2205.587533354162
 20
-3159.000197951857
 30
0.0
 11
2205.587533354162
 21
-59.90275312295211
 31
0.0
  0
LINE
  5
1C7
330
1F
100
AcDbEntity
  8
0-E
  6
Continuous
 62
    92
370
    13
100
AcDbLine
 10
4845.587533354165
 20
-59.90275312295211
 30
0.0
 11
4845.587533354165
 21
-3159.000197951857
 31
0.0
  0
LINE
  5
1C8
330
1F
100
AcDbEntity
  8
0-E
  6
Continuous
 62
    92
370
    13
100
AcDbLine
 10
219.9181716835818
 20
-59.90275312295211
 30
0.0
 11
219.9181716835818
 21
-3159.000197951857
 31
0.0
  0
LINE
  5
1C9
330
1F
100
AcDbEntity
  8
0-E
  6
Continuous
 62
    92
370
    13
100
AcDbLine
 10
219.9181716835818
 20
-3159.000197951857
 30
0.0
 11
4845.587533354165
 21
-3159.000197951857
 31
0.0
  0
LINE
  5
1CA
330
1F
100
AcDbEntity
  8
0-E
  6
Continuous
 62
    92
370
    13
100
AcDbLine
 10
2205.587533354162
 20
-275.9027531229526
 30
0.0
 11
4845.587533354165
 21
-275.9027531229526
 31
0.0
  0
MTEXT
  5
1CB
330
1F
100
AcDbEntity
  8
0-E
  6
Continuous
 62
     7
370
     9
100
AcDbMText
 10
2505.587533354165
 20
-242.7225939268704
 30
0.0
 40
91.43999999999998
 41
2100.0
 46
0.0
 71
     7
 72
     1
  1
{\fＭＳ ゴシック|b0|i0|c128|p49;床直付レール取り付け位置（Ｓ＝1/2）}
 73
     1
 44
1.0
  0
LWPOLYLINE
  5
1CC
330
1F
100
AcDbEntity
  8
0-E
  6
Continuous
 62
     7
370
     9
100
AcDbPolyline
 90
        4
 70
     1
 43
3.0
 10
805.0682968883223
 20
-552.0226918465971
 42
0.4142135623731
 10
803.5682968883223
 20
-550.5226918465971
 42
0.4142135623731
 10
802.0682968883222
 20
-552.0226918465971
 42
0.4142135623731
 10
803.5682968883223
 20
-553.5226918465971
 42
0.4142135623731
  0
LINE
  5
1CD
330
1F
100
AcDbEntity
  8
0-E
  6
Continuous
 62
   120
370
     5
100
AcDbLine
 10
803.5682968883223
 20
-552.0226918465971
 30
0.0
 11
803.5682968883223
 21
-695.5647416465979
 31
0.0
  0
LINE
  5
1CE
330
1F
100
AcDbEntity
  8
0-E
  6
Continuous
 62
    92
370
    13
100
AcDbLine
 10
803.5682968883223
 20
-745.5647416465968
 30
0.0
 11
803.5682968883223
 21
-1620.855947195423
 31
0.0
  0
LINE
  5
1CF
330
1F
100
AcDbEntity
  8
0-E
  6
Continuous
 62
    92
370
    13
100
AcDbLine
 10
219.9181716835818
 20
-2067.88585865318
 30
0.0
 11
2205.587533354162
 21
-2067.88585865318
 31
0.0
  0
LINE
  5
1D0
330
1F
100
AcDbEntity
  8
0-E
  6
Continuous
 62
    92
370
    13
100
AcDbLine
 10
219.9181716835818
 20
-2283.885858653181
 30
0.0
 11
2205.587533354162
 21
-2283.885858653181
 31
0.0
  0
MTEXT
  5
1D1
330
1F
100
AcDbEntity
  8
0-E
  6
Continuous
 62
     7
370
     0
100
AcDbMText
 10
492.7528525188718
 20
-245.9443760852088
 30
0.0
 40
91.44
 41
1440.0
 46
0.0
 71
     7
 72
     1
  1
{\fＭＳ ゴシック|b0|i0|c128|p49;竪枠下端形状図（S＝1/3）}
 73
     1
 44
1.0
  0
LINE
  5
1D2
330
1F
100
AcDbEntity
  8
0-E
  6
Continuous
 62
     7
370
     9
100
AcDbLine
 10
930.2475763615851
 20
-2745.275840175374
 30
0.0
 11
1041.247576361593
 21
-2745.275840175374
 31
0.0
  0
LINE
  5
1D3
330
1F
100
AcDbEntity
  8
0-E
  6
Continuous
 62
     7
370
     9
100
AcDbLine
 10
1050.247576361592
 20
-2754.275840175373
 30
0.0
 11
1041.247576361593
 21
-2745.275840175374
 31
0.0
  0
LINE
  5
1D4
330
1F
100
AcDbEntity
  8
0-E
  6
Continuous
 62
     7
370
     9
100
AcDbLine
 10
1050.247576361592
 20
-2754.275840175373
 30
0.0
 11
1059.247576361591
 21
-2745.275840175374
 31
0.0
  0
LINE
  5
1D5
330
1F
100
AcDbEntity
  8
0-E
  6
Continuous
 62
     7
370
     9
100
AcDbLine
 10
1257.247576361591
 20
-2754.275840175373
 30
0.0
 11
1257.247576361591
 21
-2769.275840175373
 31
0.0
  0
LINE
  5
1D6
330
1F
100
AcDbEntity
  8
0-E
  6
Continuous
 62
     7
370
     9
100
AcDbLine
 10
1251.247576361583
 20
-2775.275840175372
 30
0.0
 11
1233.247576361586
 21
-2775.275840175372
 31
0.0
  0
LINE
  5
1D7
330
1F
100
AcDbEntity
  8
0-E
  6
Continuous
 62
     7
370
     9
100
AcDbLine
 10
1224.247576361587
 20
-2784.27584017537
 30
0.0
 11
1224.247576361587
 21
-2844.275840175373
 31
0.0
  0
LINE
  5
1D8
330
1F
100
AcDbEntity
  8
0-E
  6
Continuous
 62
     7
370
     9
100
AcDbLine
 10
1239.247576361587
 20
-2859.275840175373
 30
0.0
 11
1431.247576361586
 21
-2859.27584017538
 31
0.0
  0
LINE
  5
1D9
330
1F
100
AcDbEntity
  8
0-E
  6
Continuous
 62
     7
370
     9
100
AcDbLine
 10
1440.247576361585
 20
-2868.275840175379
 30
0.0
 11
1431.247576361586
 21
-2859.27584017538
 31
0.0
  0
LINE
  5
1DA
330
1F
100
AcDbEntity
  8
0-E
  6
Continuous
 62
     7
370
     9
100
AcDbLine
 10
1440.247576361585
 20
-2868.275840175379
 30
0.0
 11
1449.247576361587
 21
-2859.27584017538
 31
0.0
  0
LINE
  5
1DB
330
1F
100
AcDbEntity
  8
0-E
  6
Continuous
 62
     7
370
     9
100
AcDbLine
 10
1449.247576361587
 20
-2859.27584017538
 30
0.0
 11
1641.247576361555
 21
-2859.275840175373
 31
0.0
  0
LINE
  5
1DC
330
1F
100
AcDbEntity
  8
0-E
  6
Continuous
 62
     7
370
     9
100
AcDbLine
 10
1656.247576361558
 20
-2784.27584017537
 30
0.0
 11
1656.247576361558
 21
-2844.275840175373
 31
0.0
  0
LINE
  5
1DD
330
1F
100
AcDbEntity
  8
0-E
  6
Continuous
 62
     7
370
     9
100
AcDbLine
 10
1629.247576361583
 20
-2775.275840175372
 30
0.0
 11
1647.24757636156
 21
-2775.275840175372
 31
0.0
  0
LINE
  5
1DE
330
1F
100
AcDbEntity
  8
0-E
  6
Continuous
 62
     7
370
     9
100
AcDbLine
 10
1623.247576361585
 20
-2754.275840175366
 30
0.0
 11
1623.247576361585
 21
-2769.275840175366
 31
0.0
  0
LINE
  5
1DF
330
1F
100
AcDbEntity
  8
0-E
  6
Continuous
 62
     7
370
     9
100
AcDbLine
 10
1692.24757636156
 20
-2805.275840175379
 30
0.0
 11
1692.247576361556
 21
-2886.275840175373
 31
0.0
  0
LINE
  5
1E0
330
1F
100
AcDbEntity
  8
0-E
  6
Continuous
 62
     7
370
     9
100
AcDbLine
 10
1191.247576361586
 20
-2798.503762236734
 30
0.0
 11
1191.247576361586
 21
-2856.275840175376
 31
0.0
  0
LINE
  5
1E1
330
1F
100
AcDbEntity
  8
0-E
  6
Continuous
 62
     7
370
     9
100
AcDbLine
 10
1145.883615330913
 20
-2822.139801206062
 30
0.0
 11
1175.883615330903
 21
-2792.139801206062
 31
0.0
  0
LINE
  5
1E2
330
1F
100
AcDbEntity
  8
0-E
  6
Continuous
 62
     7
370
     9
100
AcDbLine
 10
1143.247576361593
 20
-2886.275840175373
 30
0.0
 11
1143.247576361593
 21
-2828.503762236739
 31
0.0
  0
LINE
  5
1E3
330
1F
100
AcDbEntity
  8
0-E
  6
Continuous
 62
     7
370
     9
100
AcDbLine
 10
1110.247576361588
 20
-2886.275840175373
 30
0.0
 11
1143.247576361593
 21
-2886.275840175373
 31
0.0
  0
LINE
  5
1E4
330
1F
100
AcDbEntity
  8
0-E
  6
Continuous
 62
     7
370
     9
100
AcDbLine
 10
1110.247576361588
 20
-2886.275840175373
 30
0.0
 11
1110.247576361588
 21
-2808.275840175381
 31
0.0
  0
LINE
  5
1E5
330
1F
100
AcDbEntity
  8
0-E
  6
Continuous
 62
     7
370
     9
100
AcDbLine
 10
993.2475763615926
 20
-2805.275840175379
 30
0.0
 11
1107.247576361591
 21
-2805.275840175379
 31
0.0
  0
LINE
  5
1E6
330
1F
100
AcDbEntity
  8
0-E
  6
Continuous
 62
     7
370
     9
100
AcDbLine
 10
990.2475763615919
 20
-2886.275840175373
 30
0.0
 11
990.2475763615919
 21
-2808.275840175381
 31
0.0
  0
LINE
  5
1E7
330
1F
100
AcDbEntity
  8
0-E
  6
Continuous
 62
     7
370
     9
100
AcDbLine
 10
957.2475763615878
 20
-2886.275840175373
 30
0.0
 11
990.2475763615919
 21
-2886.275840175373
 31
0.0
  0
LINE
  5
1E8
330
1F
100
AcDbEntity
  8
0-E
  6
Continuous
 62
     7
370
     9
100
AcDbLine
 10
957.2475763615878
 20
-2886.275840175373
 30
0.0
 11
957.2475763615878
 21
-2824.775840175382
 31
0.0
  0
LINE
  5
1E9
330
1F
100
AcDbEntity
  8
0-E
  6
Continuous
 62
     7
370
     9
100
AcDbLine
 10
957.2475763615878
 20
-2824.775840175382
 30
0.0
 11
925.8541780793748
 21
-2793.382441893174
 31
0.0
  0
LINE
  5
1EA
330
1F
100
AcDbEntity
  8
0-E
  6
Continuous
 62
     7
370
     9
100
AcDbLine
 10
900.2475763615919
 20
-2886.275840175373
 30
0.0
 11
900.2475763615851
 21
-2803.989043610974
 31
0.0
  0
LINE
  5
1EB
330
1F
100
AcDbEntity
  8
0-E
  6
Continuous
 62
     7
370
     9
100
AcDbLine
 10
870.2475763615885
 20
-2886.275840175373
 30
0.0
 11
900.2475763615919
 21
-2886.275840175373
 31
0.0
  0
LINE
  5
1EC
330
1F
100
AcDbEntity
  8
0-E
  6
Continuous
 62
     7
370
     9
100
AcDbLine
 10
870.2475763615885
 20
-2886.275840175373
 30
0.0
 11
870.2475763615851
 21
-2805.275840175374
 31
0.0
  0
LINE
  5
1ED
330
1F
100
AcDbEntity
  8
0-E
  6
Continuous
 62
     7
370
     9
100
AcDbLine
 10
1221.24757636159
 20
-2886.275840175373
 30
0.0
 11
1692.247576361556
 21
-2886.275840175373
 31
0.0
  0
LINE
  5
1EE
330
1F
100
AcDbEntity
  8
0-E
  6
Continuous
 62
     7
370
     9
100
AcDbLine
 10
1248.247576361586
 20
-2745.275840175372
 30
0.0
 11
1059.247576361591
 21
-2745.275840175372
 31
0.0
  0
ARC
  5
1EF
330
1F
100
AcDbEntity
  8
0-E
  6
Continuous
 62
     7
370
     9
100
AcDbCircle
 10
1248.247576361586
 20
-2754.27584017537
 30
0.0
 40
9.000000000002899
100
AcDbArc
 50
359.9999999999784
 51
90.00000000000004
  0
ARC
  5
1F0
330
1F
100
AcDbEntity
  8
0-E
  6
Continuous
 62
     7
370
     9
100
AcDbCircle
 10
1251.247576361583
 20
-2769.27584017537
 30
0.0
 40
6.000000000001368
100
AcDbArc
 50
270.0
 51
359.9999999999674
  0
ARC
  5
1F1
330
1F
100
AcDbEntity
  8
0-E
  6
Continuous
 62
     7
370
     9
100
AcDbCircle
 10
1233.247576361586
 20
-2784.27584017537
 30
0.0
 40
8.999999999998636
100
AcDbArc
 50
90.0
 51
180.0
  0
ARC
  5
1F2
330
1F
100
AcDbEntity
  8
0-E
  6
Continuous
 62
     7
370
     9
100
AcDbCircle
 10
1239.247576361587
 20
-2844.275840175373
 30
0.0
 40
15.0
100
AcDbArc
 50
180.0
 51
270.0
  0
ARC
  5
1F3
330
1F
100
AcDbEntity
  8
0-E
  6
Continuous
 62
     7
370
     9
100
AcDbCircle
 10
1641.247576361555
 20
-2844.275840175373
 30
0.0
 40
15.0
100
AcDbArc
 50
270.0
 51
0.0
  0
ARC
  5
1F4
330
1F
100
AcDbEntity
  8
0-E
  6
Continuous
 62
     7
370
     9
100
AcDbCircle
 10
1647.24757636156
 20
-2784.27584017537
 30
0.0
 40
9.000000000000343
100
AcDbArc
 50
0.0
 51
90.0
  0
ARC
  5
1F5
330
1F
100
AcDbEntity
  8
0-E
  6
Continuous
 62
     7
370
     9
100
AcDbCircle
 10
1629.247576361583
 20
-2769.27584017537
 30
0.0
 40
5.99999999999966
100
AcDbArc
 50
179.9999999999674
 51
270.0
  0
ARC
  5
1F6
330
1F
100
AcDbEntity
  8
0-E
  6
Continuous
 62
     7
370
     9
100
AcDbCircle
 10
1632.247576361587
 20
-2754.275840175366
 30
0.0
 40
8.999999999998636
100
AcDbArc
 50
89.99999999996201
 51
180.0
  0
ARC
  5
1F7
330
1F
100
AcDbEntity
  8
0-E
  6
Continuous
 62
     7
370
     9
100
AcDbCircle
 10
1632.247576361556
 20
-2805.275840175374
 30
0.0
 40
60.0
100
AcDbArc
 50
359.9999999999968
 51
89.9999999999682
  0
ARC
  5
1F8
330
1F
100
AcDbEntity
  8
0-E
  6
Continuous
 62
     7
370
     9
100
AcDbCircle
 10
1221.24757636159
 20
-2856.275840175376
 30
0.0
 40
30.0
100
AcDbArc
 50
180.0
 51
270.0
  0
ARC
  5
1F9
330
1F
100
AcDbEntity
  8
0-E
  6
Continuous
 62
     7
370
     9
100
AcDbCircle
 10
1182.247576361588
 20
-2798.503762236732
 30
0.0
 40
9.000000000000343
100
AcDbArc
 50
359.9999999999784
 51
135.0000000000384
  0
ARC
  5
1FA
330
1F
100
AcDbEntity
  8
0-E
  6
Continuous
 62
     7
370
     9
100
AcDbCircle
 10
1152.247576361595
 20
-2828.503762236739
 30
0.0
 40
8.999999999998023
100
AcDbArc
 50
135.0000000000057
 51
180.0000000000034
  0
ARC
  5
1FB
330
1F
100
AcDbEntity
  8
0-E
  6
Continuous
 62
     7
370
     9
100
AcDbCircle
 10
1107.247576361591
 20
-2808.275840175381
 30
0.0
 40
2.99999999999983
100
AcDbArc
 50
0.0
 51
90.0
  0
ARC
  5
1FC
330
1F
100
AcDbEntity
  8
0-E
  6
Continuous
 62
     7
370
     9
100
AcDbCircle
 10
993.2475763615926
 20
-2808.275840175381
 30
0.0
 40
3.000000000000682
100
AcDbArc
 50
90.0
 51
180.0
  0
ARC
  5
1FD
330
1F
100
AcDbEntity
  8
0-E
  6
Continuous
 62
     7
370
     9
100
AcDbCircle
 10
915.2475763615851
 20
-2803.989043610968
 30
0.0
 40
14.99999999999289
100
AcDbArc
 50
45.0
 51
180.0000000000261
  0
ARC
  5
1FE
330
1F
100
AcDbEntity
  8
0-E
  6
Continuous
 62
     7
370
     9
100
AcDbCircle
 10
930.2475763615851
 20
-2805.275840175374
 30
0.0
 40
60.0
100
AcDbArc
 50
90.0
 51
180.0
  0
LINE
  5
1FF
330
1F
100
AcDbEntity
  8
0-E
  6
Continuous
 62
   120
370
     5
100
AcDbLine
 10
870.2475763615885
 20
-2549.777643425164
 30
0.0
 11
1692.247576361556
 21
-2549.777643425164
 31
0.0
  0
LWPOLYLINE
  5
200
330
1F
100
AcDbEntity
  8
0-E
  6
Continuous
 62
     7
370
     9
100
AcDbPolyline
 90
        4
 70
     1
 43
3.0
 10
871.7475763615886
 20
-2549.777643425164
 42
0.4142135623731
 10
870.2475763615885
 20
-2548.277643425164
 42
0.4142135623731
 10
868.7475763615885
 20
-2549.777643425164
 42
0.4142135623731
 10
870.2475763615885
 20
-2551.277643425164
 42
0.4142135623731
  0
LWPOLYLINE
  5
201
330
1F
100
AcDbEntity
  8
0-E
  6
Continuous
 62
     7
370
     9
100
AcDbPolyline
 90
        4
 70
     1
 43
3.0
 10
1693.747576361556
 20
-2549.777643425164
 42
0.4142135623731
 10
1692.247576361556
 20
-2548.277643425164
 42
0.4142135623731
 10
1690.747576361556
 20
-2549.777643425164
 42
0.4142135623731
 10
1692.247576361556
 20
-2551.277643425164
 42
0.4142135623731
  0
LINE
  5
202
330
1F
100
AcDbEntity
  8
0-E
  6
Continuous
 62
   120
370
     5
100
AcDbLine
 10
870.2475763615885
 20
-2549.777643425164
 30
0.0
 11
870.2475763615885
 21
-2682.100857167084
 31
0.0
  0
LINE
  5
203
330
1F
100
AcDbEntity
  8
0-E
  6
Continuous
 62
   120
370
     5
100
AcDbLine
 10
1692.247576361556
 20
-2549.777643425164
 30
0.0
 11
1692.247576361556
 21
-2682.100857167084
 31
0.0
  0
MTEXT
  5
204
330
1F
100
AcDbEntity
  8
0-E
  6
Continuous
 62
     7
370
   211
100
AcDbMText
 10
1161.247576361572
 20
-2549.057643425164
 30
0.0
 40
91.44
 41
240.0
 46
0.0
 71
     7
 72
     1
  1
{\fＭＳ ゴシック|b0|i0|c128|p49;27.4}
 73
     1
 44
1.0
  0
LINE
  5
205
330
1F
100
AcDbEntity
  8
0-E
  6
Continuous
 62
   120
370
     5
100
AcDbLine
 10
682.598675608456
 20
-2745.275840175374
 30
0.0
 11
682.598675608456
 21
-2886.275840175373
 31
0.0
  0
LWPOLYLINE
  5
206
330
1F
100
AcDbEntity
  8
0-E
  6
Continuous
 62
     7
370
     9
100
AcDbPolyline
 90
        4
 70
     1
 43
3.0
 10
684.0986756084561
 20
-2745.275840175374
 42
0.4142135623731
 10
682.598675608456
 20
-2743.775840175374
 42
0.4142135623731
 10
681.098675608456
 20
-2745.275840175374
 42
0.4142135623731
 10
682.598675608456
 20
-2746.775840175374
 42
0.4142135623731
  0
LWPOLYLINE
  5
207
330
1F
100
AcDbEntity
  8
0-E
  6
Continuous
 62
     7
370
     9
100
AcDbPolyline
 90
        4
 70
     1
 43
3.0
 10
684.0986756084561
 20
-2886.275840175373
 42
0.4142135623731
 10
682.598675608456
 20
-2884.775840175373
 42
0.4142135623731
 10
681.098675608456
 20
-2886.275840175373
 42
0.4142135623731
 10
682.598675608456
 20
-2887.775840175373
 42
0.4142135623731
  0
LINE
  5
208
330
1F
100
AcDbEntity
  8
0-E
  6
Continuous
 62
   120
370
     5
100
AcDbLine
 10
682.598675608456
 20
-2745.275840175374
 30
0.0
 11
810.3590199110001
 21
-2745.275840175374
 31
0.0
  0
LINE
  5
209
330
1F
100
AcDbEntity
  8
0-E
  6
Continuous
 62
   120
370
     5
100
AcDbLine
 10
682.598675608456
 20
-2886.275840175373
 30
0.0
 11
810.3590199110001
 21
-2886.275840175373
 31
0.0
  0
MTEXT
  5
20A
330
1F
100
AcDbEntity
  8
0-E
  6
Continuous
 62
     7
370
   211
100
AcDbMText
 10
667.598675608456
 20
-2869.522407684545
 30
0.0
 40
91.44
 41
60.0
 46
0.0
 71
     7
 72
     1
  1
{\fＭＳ ゴシック|b0|i0|c128|p49;5}
 11
6.123031769111886E-17
 21
1.0
 31
0.0
 73
     1
 44
1.0
  0
MTEXT
  5
20B
330
1F
100
AcDbEntity
  8
0-E
  6
Continuous
 62
     7
370
     0
100
AcDbMText
 10
616.0324612403942
 20
-2253.927481615436
 30
0.0
 40
91.43999999999998
 41
1200.0
 46
0.0
 71
     7
 72
     1
  1
{\fＭＳ ゴシック|b0|i0|c128|p49;下枠詳細図（S＝1/1）}
 73
     1
 44
1.0
  0
LINE
  5
20C
330
1F
100
AcDbEntity
  8
0-E
  6
Continuous
 62
     7
370
     9
100
AcDbLine
 10
3116.560860719485
 20
-2323.058414175867
 30
0.0
 11
3172.060860719488
 21
-2323.058414175867
 31
0.0
  0
LINE
  5
20D
330
1F
100
AcDbEntity
  8
0-E
  6
Continuous
 62
     7
370
     9
100
AcDbLine
 10
3176.560860719487
 20
-2327.558414175866
 30
0.0
 11
3172.060860719488
 21
-2323.058414175867
 31
0.0
  0
LINE
  5
20E
330
1F
100
AcDbEntity
  8
0-E
  6
Continuous
 62
     7
370
     9
100
AcDbLine
 10
3176.560860719487
 20
-2327.558414175866
 30
0.0
 11
3181.060860719488
 21
-2323.058414175867
 31
0.0
  0
ARC
  5
20F
330
1F
100
AcDbEntity
  8
0-E
  6
Continuous
 62
     7
370
     9
100
AcDbCircle
 10
3275.560860719484
 20
-2327.558414175864
 30
0.0
 40
4.50000000000145
100
AcDbArc
 50
359.9999999999784
 51
90.00000000000004
  0
LINE
  5
210
330
1F
100
AcDbEntity
  8
0-E
  6
Continuous
 62
     7
370
     9
100
AcDbLine
 10
3280.060860719487
 20
-2327.558414175866
 30
0.0
 11
3280.060860719487
 21
-2335.058414175865
 31
0.0
  0
ARC
  5
211
330
1F
100
AcDbEntity
  8
0-E
  6
Continuous
 62
     7
370
     9
100
AcDbCircle
 10
3277.060860719483
 20
-2335.058414175864
 30
0.0
 40
3.000000000000684
100
AcDbArc
 50
270.0
 51
359.9999999999674
  0
LINE
  5
212
330
1F
100
AcDbEntity
  8
0-E
  6
Continuous
 62
     7
370
     9
100
AcDbLine
 10
3277.060860719483
 20
-2338.058414175865
 30
0.0
 11
3268.060860719486
 21
-2338.058414175865
 31
0.0
  0
ARC
  5
213
330
1F
100
AcDbEntity
  8
0-E
  6
Continuous
 62
     7
370
     9
100
AcDbCircle
 10
3268.060860719486
 20
-2342.558414175864
 30
0.0
 40
4.499999999999318
100
AcDbArc
 50
90.0
 51
180.0
  0
LINE
  5
214
330
1F
100
AcDbEntity
  8
0-E
  6
Continuous
 62
     7
370
     9
100
AcDbLine
 10
3263.560860719485
 20
-2342.558414175864
 30
0.0
 11
3263.560860719485
 21
-2372.558414175865
 31
0.0
  0
ARC
  5
215
330
1F
100
AcDbEntity
  8
0-E
  6
Continuous
 62
     7
370
     9
100
AcDbCircle
 10
3271.060860719485
 20
-2372.558414175865
 30
0.0
 40
7.5
100
AcDbArc
 50
180.0
 51
270.0
  0
LINE
  5
216
330
1F
100
AcDbEntity
  8
0-E
  6
Continuous
 62
     7
370
     9
100
AcDbLine
 10
3271.060860719485
 20
-2380.058414175866
 30
0.0
 11
3367.060860719485
 21
-2380.05841417587
 31
0.0
  0
LINE
  5
217
330
1F
100
AcDbEntity
  8
0-E
  6
Continuous
 62
     7
370
     9
100
AcDbLine
 10
3371.560860719485
 20
-2384.558414175869
 30
0.0
 11
3367.060860719485
 21
-2380.05841417587
 31
0.0
  0
LINE
  5
218
330
1F
100
AcDbEntity
  8
0-E
  6
Continuous
 62
     7
370
     9
100
AcDbLine
 10
3371.560860719485
 20
-2384.558414175869
 30
0.0
 11
3376.060860719485
 21
-2380.05841417587
 31
0.0
  0
LINE
  5
219
330
1F
100
AcDbEntity
  8
0-E
  6
Continuous
 62
     7
370
     9
100
AcDbLine
 10
3376.060860719485
 20
-2380.05841417587
 30
0.0
 11
3472.060860719471
 21
-2380.058414175866
 31
0.0
  0
ARC
  5
21A
330
1F
100
AcDbEntity
  8
0-E
  6
Continuous
 62
     7
370
     9
100
AcDbCircle
 10
3472.060860719471
 20
-2372.558414175865
 30
0.0
 40
7.5
100
AcDbArc
 50
270.0
 51
0.0
  0
LINE
  5
21B
330
1F
100
AcDbEntity
  8
0-E
  6
Continuous
 62
     7
370
     9
100
AcDbLine
 10
3479.560860719473
 20
-2342.558414175864
 30
0.0
 11
3479.560860719473
 21
-2372.558414175865
 31
0.0
  0
ARC
  5
21C
330
1F
100
AcDbEntity
  8
0-E
  6
Continuous
 62
     7
370
     9
100
AcDbCircle
 10
3475.060860719473
 20
-2342.558414175864
 30
0.0
 40
4.500000000000171
100
AcDbArc
 50
0.0
 51
90.0
  0
LINE
  5
21D
330
1F
100
AcDbEntity
  8
0-E
  6
Continuous
 62
     7
370
     9
100
AcDbLine
 10
3466.060860719485
 20
-2338.058414175865
 30
0.0
 11
3475.060860719473
 21
-2338.058414175865
 31
0.0
  0
ARC
  5
21E
330
1F
100
AcDbEntity
  8
0-E
  6
Continuous
 62
     7
370
     9
100
AcDbCircle
 10
3466.060860719485
 20
-2335.058414175864
 30
0.0
 40
2.99999999999983
100
AcDbArc
 50
179.9999999999674
 51
270.0
  0
LINE
  5
21F
330
1F
100
AcDbEntity
  8
0-E
  6
Continuous
 62
     7
370
     9
100
AcDbLine
 10
3463.060860719484
 20
-2327.558414175863
 30
0.0
 11
3463.060860719484
 21
-2335.058414175863
 31
0.0
  0
ARC
  5
220
330
1F
100
AcDbEntity
  8
0-E
  6
Continuous
 62
     7
370
     9
100
AcDbCircle
 10
3467.560860719485
 20
-2327.558414175863
 30
0.0
 40
4.499999999999318
100
AcDbArc
 50
89.99999999996201
 51
180.0
  0
ARC
  5
221
330
1F
100
AcDbEntity
  8
0-E
  6
Continuous
 62
     7
370
     9
100
AcDbCircle
 10
3467.56086071947
 20
-2353.058414175866
 30
0.0
 40
30.0
100
AcDbArc
 50
359.9999999999968
 51
89.9999999999682
  0
LINE
  5
222
330
1F
100
AcDbEntity
  8
0-E
  6
Continuous
 62
     7
370
     9
100
AcDbLine
 10
3497.560860719473
 20
-2353.058414175868
 30
0.0
 11
3497.56086071947
 21
-2393.558414175865
 31
0.0
  0
ARC
  5
223
330
1F
100
AcDbEntity
  8
0-E
  6
Continuous
 62
     7
370
     9
100
AcDbCircle
 10
3262.060860719486
 20
-2378.558414175867
 30
0.0
 40
15.0
100
AcDbArc
 50
180.0
 51
270.0
  0
LINE
  5
224
330
1F
100
AcDbEntity
  8
0-E
  6
Continuous
 62
     7
370
     9
100
AcDbLine
 10
3247.060860719486
 20
-2349.672375206547
 30
0.0
 11
3247.060860719486
 21
-2378.558414175867
 31
0.0
  0
ARC
  5
225
330
1F
100
AcDbEntity
  8
0-E
  6
Continuous
 62
     7
370
     9
100
AcDbCircle
 10
3242.560860719485
 20
-2349.672375206545
 30
0.0
 40
4.500000000000171
100
AcDbArc
 50
359.9999999999784
 51
135.0000000000384
  0
LINE
  5
226
330
1F
100
AcDbEntity
  8
0-E
  6
Continuous
 62
     7
370
     9
100
AcDbLine
 10
3224.378880204149
 20
-2361.49039469121
 30
0.0
 11
3239.378880204144
 21
-2346.49039469121
 31
0.0
  0
ARC
  5
227
330
1F
100
AcDbEntity
  8
0-E
  6
Continuous
 62
     7
370
     9
100
AcDbCircle
 10
3227.560860719489
 20
-2364.672375206548
 30
0.0
 40
4.499999999999011
100
AcDbArc
 50
135.0000000000057
 51
180.0000000000034
  0
LINE
  5
228
330
1F
100
AcDbEntity
  8
0-E
  6
Continuous
 62
     7
370
     9
100
AcDbLine
 10
3223.060860719488
 20
-2393.558414175865
 30
0.0
 11
3223.060860719488
 21
-2364.672375206549
 31
0.0
  0
LINE
  5
229
330
1F
100
AcDbEntity
  8
0-E
  6
Continuous
 62
     7
370
     9
100
AcDbLine
 10
3206.560860719485
 20
-2393.558414175865
 30
0.0
 11
3223.060860719488
 21
-2393.558414175865
 31
0.0
  0
LINE
  5
22A
330
1F
100
AcDbEntity
  8
0-E
  6
Continuous
 62
     7
370
     9
100
AcDbLine
 10
3206.560860719485
 20
-2393.558414175865
 30
0.0
 11
3206.560860719485
 21
-2354.558414175869
 31
0.0
  0
ARC
  5
22B
330
1F
100
AcDbEntity
  8
0-E
  6
Continuous
 62
     7
370
     9
100
AcDbCircle
 10
3205.060860719487
 20
-2354.558414175869
 30
0.0
 40
1.499999999999915
100
AcDbArc
 50
0.0
 51
90.0
  0
LINE
  5
22C
330
1F
100
AcDbEntity
  8
0-E
  6
Continuous
 62
     7
370
     9
100
AcDbLine
 10
3148.060860719488
 20
-2353.058414175868
 30
0.0
 11
3205.060860719487
 21
-2353.058414175868
 31
0.0
  0
ARC
  5
22D
330
1F
100
AcDbEntity
  8
0-E
  6
Continuous
 62
     7
370
     9
100
AcDbCircle
 10
3148.060860719488
 20
-2354.558414175869
 30
0.0
 40
1.500000000000341
100
AcDbArc
 50
90.0
 51
180.0
  0
LINE
  5
22E
330
1F
100
AcDbEntity
  8
0-E
  6
Continuous
 62
     7
370
     9
100
AcDbLine
 10
3146.560860719487
 20
-2393.558414175865
 30
0.0
 11
3146.560860719487
 21
-2354.558414175869
 31
0.0
  0
LINE
  5
22F
330
1F
100
AcDbEntity
  8
0-E
  6
Continuous
 62
     7
370
     9
100
AcDbLine
 10
3130.060860719485
 20
-2393.558414175865
 30
0.0
 11
3146.560860719487
 21
-2393.558414175865
 31
0.0
  0
LINE
  5
230
330
1F
100
AcDbEntity
  8
0-E
  6
Continuous
 62
     7
370
     9
100
AcDbLine
 10
3130.060860719485
 20
-2393.558414175865
 30
0.0
 11
3130.060860719485
 21
-2362.80841417587
 31
0.0
  0
LINE
  5
231
330
1F
100
AcDbEntity
  8
0-E
  6
Continuous
 62
     7
370
     9
100
AcDbLine
 10
3130.060860719485
 20
-2362.80841417587
 30
0.0
 11
3114.364161578379
 21
-2347.111715034766
 31
0.0
  0
ARC
  5
232
330
1F
100
AcDbEntity
  8
0-E
  6
Continuous
 62
     7
370
     9
100
AcDbCircle
 10
3109.060860719485
 20
-2352.415015893663
 30
0.0
 40
7.499999999996445
100
AcDbArc
 50
45.0
 51
180.0000000000261
  0
LINE
  5
233
330
1F
100
AcDbEntity
  8
0-E
  6
Continuous
 62
     7
370
     9
100
AcDbLine
 10
3101.560860719487
 20
-2393.558414175865
 30
0.0
 11
3101.560860719484
 21
-2352.415015893667
 31
0.0
  0
LINE
  5
234
330
1F
100
AcDbEntity
  8
0-E
  6
Continuous
 62
     7
370
     9
100
AcDbLine
 10
3086.560860719485
 20
-2393.558414175865
 30
0.0
 11
3101.560860719487
 21
-2393.558414175865
 31
0.0
  0
LINE
  5
235
330
1F
100
AcDbEntity
  8
0-E
  6
Continuous
 62
     7
370
     9
100
AcDbLine
 10
3086.560860719485
 20
-2393.558414175865
 30
0.0
 11
3086.560860719484
 21
-2353.058414175866
 31
0.0
  0
ARC
  5
236
330
1F
100
AcDbEntity
  8
0-E
  6
Continuous
 62
     7
370
     9
100
AcDbCircle
 10
3116.560860719485
 20
-2353.058414175866
 30
0.0
 40
30.0
100
AcDbArc
 50
90.0
 51
180.0
  0
LINE
  5
237
330
1F
100
AcDbEntity
  8
0-E
  6
Continuous
 62
     7
370
     9
100
AcDbLine
 10
3262.060860719486
 20
-2393.558414175865
 30
0.0
 11
3497.56086071947
 21
-2393.558414175865
 31
0.0
  0
LINE
  5
238
330
1F
100
AcDbEntity
  8
0-E
  6
Continuous
 62
     7
370
     9
100
AcDbLine
 10
3275.560860719484
 20
-2323.058414175865
 30
0.0
 11
3181.060860719488
 21
-2323.058414175865
 31
0.0
  0
LINE
  5
239
330
1F
100
AcDbEntity
  8
0-E
  6
Continuous
 62
     7
370
     9
100
AcDbLine
 10
3463.060860719484
 20
-2327.558414175862
 30
0.0
 11
3463.060860719484
 21
-2335.058414175861
 31
0.0
  0
INSERT
  5
23A
330
1F
100
AcDbEntity
  8
0-E
  6
Continuous
 62
     7
370
     9
100
AcDbBlockReference
  2
03@@SfigorgFlag@@4
 10
3369.003650272116
 20
-2317.1598229549
 30
0.0
 41
75.0
 42
75.0
  0
LWPOLYLINE
  5
23B
330
1F
100
AcDbEntity
  8
0-E
  6
Continuous
 62
     7
370
     9
100
AcDbPolyline
 90
        4
 70
     1
 43
3.0
 10
1725.068659800069
 20
-552.0226918465971
 42
0.4142135623731
 10
1723.568659800069
 20
-550.5226918465971
 42
0.4142135623731
 10
1722.068659800069
 20
-552.0226918465971
 42
0.4142135623731
 10
1723.568659800069
 20
-553.5226918465971
 42
0.4142135623731
  0
LINE
  5
23C
330
1F
100
AcDbEntity
  8
0-E
  6
Continuous
 62
   120
370
     5
100
AcDbLine
 10
1723.568659800069
 20
-552.0226918465971
 30
0.0
 11
1723.568659800069
 21
-695.5647416465979
 31
0.0
  0
LINE
  5
23D
330
1F
100
AcDbEntity
  8
0-E
  6
Continuous
 62
    92
370
    13
100
AcDbLine
 10
1723.568659800069
 20
-745.5647416465968
 30
0.0
 11
1723.568659800069
 21
-1620.855947195423
 31
0.0
  0
LINE
  5
23E
330
1F
100
AcDbEntity
  8
0-E
  6
JWW_HOJO
 62
   120
370
     5
100
AcDbLine
 10
768.5679504725633
 20
-695.5647416465979
 30
0.0
 11
1723.568659800069
 21
-695.5647416465979
 31
0.0
  0
LINE
  5
23F
330
1F
100
AcDbEntity
  8
0-E
  6
JWW_HOJO
 62
   120
370
     5
100
AcDbLine
 10
768.5679504725633
 20
-745.5647416465968
 30
0.0
 11
1723.568659800069
 21
-745.5647416465968
 31
0.0
  0
LINE
  5
240
330
1F
100
AcDbEntity
  8
0-E
  6
Continuous
 62
    92
370
    13
100
AcDbLine
 10
803.5682968883223
 20
-1620.855947195423
 30
0.0
 11
1723.568659800069
 21
-1620.855947195423
 31
0.0
  0
LINE
  5
241
330
1F
100
AcDbEntity
  8
0-E
  6
Continuous
 62
   120
370
     5
100
AcDbLine
 10
803.5682968883223
 20
-552.0226918465971
 30
0.0
 11
1723.568659800069
 21
-552.0226918465971
 31
0.0
  0
LWPOLYLINE
  5
242
330
1F
100
AcDbEntity
  8
0-E
  6
Continuous
 62
     7
370
     9
100
AcDbPolyline
 90
        4
 70
     1
 43
3.0
 10
805.0682968883223
 20
-552.0226918465971
 42
0.4142135623731
 10
803.5682968883223
 20
-550.5226918465971
 42
0.4142135623731
 10
802.0682968883222
 20
-552.0226918465971
 42
0.4142135623731
 10
803.5682968883223
 20
-553.5226918465971
 42
0.4142135623731
  0
LWPOLYLINE
  5
243
330
1F
100
AcDbEntity
  8
0-E
  6
Continuous
 62
     7
370
     9
100
AcDbPolyline
 90
        4
 70
     1
 43
3.0
 10
1725.068659800069
 20
-552.0226918465971
 42
0.4142135623731
 10
1723.568659800069
 20
-550.5226918465971
 42
0.4142135623731
 10
1722.068659800069
 20
-552.0226918465971
 42
0.4142135623731
 10
1723.568659800069
 20
-553.5226918465971
 42
0.4142135623731
  0
MTEXT
  5
244
330
1F
100
AcDbEntity
  8
0-E
  6
Continuous
 62
     7
370
   211
100
AcDbMText
 10
1203.568478344195
 20
-551.3026918465971
 30
0.0
 40
91.44
 41
120.0
 46
0.0
 71
     7
 72
     1
  1
{\fＭＳ ゴシック|b0|i0|c128|p49;92}
 73
     1
 44
1.0
  0
MTEXT
  5
245
330
1F
100
AcDbEntity
  8
0-A_文字
  6
Continuous
 62
     7
370
   211
100
AcDbMText
 10
-1860.881856293865
 20
-2762.882172091087
 30
0.0
 40
91.44
 41
240.0
 46
0.0
 71
     7
 72
     1
  1
{\fＭＳ ゴシック|b0|i0|c128|p49;27.4}
 73
     1
 44
1.0
  0
LINE
  5
246
330
1F
100
AcDbEntity
  8
0-4_枠
  6
Continuous
 62
     7
370
     9
100
AcDbLine
 10
-1811.081856293862
 20
-3058.80022022144
 30
0.0
 11
-1788.881856293862
 21
-3058.80022022144
 31
0.0
  0
LINE
  5
247
330
1F
100
AcDbEntity
  8
0-4_枠
  6
Continuous
 62
     7
370
     9
100
AcDbLine
 10
-1787.081856293861
 20
-3060.600220221439
 30
0.0
 11
-1788.881856293862
 21
-3058.80022022144
 31
0.0
  0
LINE
  5
248
330
1F
100
AcDbEntity
  8
0-4_枠
  6
Continuous
 62
     7
370
     9
100
AcDbLine
 10
-1787.081856293861
 20
-3060.600220221439
 30
0.0
 11
-1785.281856293861
 21
-3058.80022022144
 31
0.0
  0
ARC
  5
249
330
1F
100
AcDbEntity
  8
0-4_枠
  6
Continuous
 62
     7
370
     9
100
AcDbCircle
 10
-1747.481856293862
 20
-3060.600220221439
 30
0.0
 40
1.800000000000579
100
AcDbArc
 50
359.9999999999784
 51
90.00000000000004
  0
LINE
  5
24A
330
1F
100
AcDbEntity
  8
0-4_枠
  6
Continuous
 62
     7
370
     9
100
AcDbLine
 10
-1745.681856293861
 20
-3060.600220221439
 30
0.0
 11
-1745.681856293861
 21
-3063.600220221439
 31
0.0
  0
ARC
  5
24B
330
1F
100
AcDbEntity
  8
0-4_枠
  6
Continuous
 62
     7
370
     9
100
AcDbCircle
 10
-1746.881856293862
 20
-3063.600220221439
 30
0.0
 40
1.200000000000273
100
AcDbArc
 50
270.0
 51
359.9999999999674
  0
LINE
  5
24C
330
1F
100
AcDbEntity
  8
0-4_枠
  6
Continuous
 62
     7
370
     9
100
AcDbLine
 10
-1746.881856293862
 20
-3064.800220221439
 30
0.0
 11
-1750.481856293862
 21
-3064.800220221439
 31
0.0
  0
ARC
  5
24D
330
1F
100
AcDbEntity
  8
0-4_枠
  6
Continuous
 62
     7
370
     9
100
AcDbCircle
 10
-1750.481856293862
 20
-3066.600220221439
 30
0.0
 40
1.799999999999727
100
AcDbArc
 50
90.0
 51
180.0
  0
LINE
  5
24E
330
1F
100
AcDbEntity
  8
0-4_枠
  6
Continuous
 62
     7
370
     9
100
AcDbLine
 10
-1752.281856293862
 20
-3066.600220221439
 30
0.0
 11
-1752.281856293862
 21
-3078.600220221439
 31
0.0
  0
ARC
  5
24F
330
1F
100
AcDbEntity
  8
0-4_枠
  6
Continuous
 62
     7
370
     9
100
AcDbCircle
 10
-1749.281856293863
 20
-3078.600220221439
 30
0.0
 40
3.0
100
AcDbArc
 50
180.0
 51
270.0
  0
LINE
  5
250
330
1F
100
AcDbEntity
  8
0-4_枠
  6
Continuous
 62
     7
370
     9
100
AcDbLine
 10
-1749.281856293863
 20
-3081.60022022144
 30
0.0
 11
-1710.881856293862
 21
-3081.600220221441
 31
0.0
  0
LINE
  5
251
330
1F
100
AcDbEntity
  8
0-4_枠
  6
Continuous
 62
     7
370
     9
100
AcDbLine
 10
-1709.081856293863
 20
-3083.400220221441
 30
0.0
 11
-1710.881856293862
 21
-3081.600220221441
 31
0.0
  0
LINE
  5
252
330
1F
100
AcDbEntity
  8
0-4_枠
  6
Continuous
 62
     7
370
     9
100
AcDbLine
 10
-1709.081856293863
 20
-3083.400220221441
 30
0.0
 11
-1707.281856293862
 21
-3081.600220221441
 31
0.0
  0
LINE
  5
253
330
1F
100
AcDbEntity
  8
0-4_枠
  6
Continuous
 62
     7
370
     9
100
AcDbLine
 10
-1707.281856293862
 20
-3081.600220221441
 30
0.0
 11
-1668.881856293868
 21
-3081.60022022144
 31
0.0
  0
ARC
  5
254
330
1F
100
AcDbEntity
  8
0-4_枠
  6
Continuous
 62
     7
370
     9
100
AcDbCircle
 10
-1668.881856293868
 20
-3078.600220221439
 30
0.0
 40
3.0
100
AcDbArc
 50
270.0
 51
0.0
  0
LINE
  5
255
330
1F
100
AcDbEntity
  8
0-4_枠
  6
Continuous
 62
     7
370
     9
100
AcDbLine
 10
-1665.881856293868
 20
-3066.600220221439
 30
0.0
 11
-1665.881856293868
 21
-3078.600220221439
 31
0.0
  0
ARC
  5
256
330
1F
100
AcDbEntity
  8
0-4_枠
  6
Continuous
 62
     7
370
     9
100
AcDbCircle
 10
-1667.681856293867
 20
-3066.600220221439
 30
0.0
 40
1.800000000000069
100
AcDbArc
 50
0.0
 51
90.0
  0
LINE
  5
257
330
1F
100
AcDbEntity
  8
0-4_枠
  6
Continuous
 62
     7
370
     9
100
AcDbLine
 10
-1671.281856293863
 20
-3064.800220221439
 30
0.0
 11
-1667.681856293867
 21
-3064.800220221439
 31
0.0
  0
ARC
  5
258
330
1F
100
AcDbEntity
  8
0-4_枠
  6
Continuous
 62
     7
370
     9
100
AcDbCircle
 10
-1671.281856293863
 20
-3063.600220221439
 30
0.0
 40
1.199999999999932
100
AcDbArc
 50
179.9999999999674
 51
270.0
  0
LINE
  5
259
330
1F
100
AcDbEntity
  8
0-4_枠
  6
Continuous
 62
     7
370
     9
100
AcDbLine
 10
-1672.481856293862
 20
-3060.600220221439
 30
0.0
 11
-1672.481856293862
 21
-3063.600220221438
 31
0.0
  0
ARC
  5
25A
330
1F
100
AcDbEntity
  8
0-4_枠
  6
Continuous
 62
     7
370
     9
100
AcDbCircle
 10
-1670.681856293863
 20
-3060.600220221439
 30
0.0
 40
1.799999999999727
100
AcDbArc
 50
89.99999999996201
 51
180.0
  0
ARC
  5
25B
330
1F
100
AcDbEntity
  8
0-4_枠
  6
Continuous
 62
     7
370
     9
100
AcDbCircle
 10
-1670.681856293868
 20
-3070.80022022144
 30
0.0
 40
12.0
100
AcDbArc
 50
359.9999999999968
 51
89.9999999999682
  0
LINE
  5
25C
330
1F
100
AcDbEntity
  8
0-4_枠
  6
Continuous
 62
     7
370
     9
100
AcDbLine
 10
-1658.681856293867
 20
-3070.800220221441
 30
0.0
 11
-1658.681856293867
 21
-3087.00022022144
 31
0.0
  0
ARC
  5
25D
330
1F
100
AcDbEntity
  8
0-4_枠
  6
Continuous
 62
     7
370
     9
100
AcDbCircle
 10
-1752.881856293862
 20
-3081.00022022144
 30
0.0
 40
6.0
100
AcDbArc
 50
180.0
 51
270.0
  0
LINE
  5
25E
330
1F
100
AcDbEntity
  8
0-4_枠
  6
Continuous
 62
     7
370
     9
100
AcDbLine
 10
-1758.881856293862
 20
-3069.445804633712
 30
0.0
 11
-1758.881856293862
 21
-3081.00022022144
 31
0.0
  0
ARC
  5
25F
330
1F
100
AcDbEntity
  8
0-4_枠
  6
Continuous
 62
     7
370
     9
100
AcDbCircle
 10
-1760.681856293863
 20
-3069.445804633711
 30
0.0
 40
1.800000000000069
100
AcDbArc
 50
359.9999999999784
 51
135.0000000000384
  0
LINE
  5
260
330
1F
100
AcDbEntity
  8
0-4_枠
  6
Continuous
 62
     7
370
     9
100
AcDbLine
 10
-1767.954648499997
 20
-3074.173012427577
 30
0.0
 11
-1761.954648499999
 21
-3068.173012427577
 31
0.0
  0
ARC
  5
261
330
1F
100
AcDbEntity
  8
0-4_枠
  6
Continuous
 62
     7
370
     9
100
AcDbCircle
 10
-1766.681856293861
 20
-3075.445804633713
 30
0.0
 40
1.799999999999605
100
AcDbArc
 50
135.0000000000057
 51
180.0000000000034
  0
LINE
  5
262
330
1F
100
AcDbEntity
  8
0-4_枠
  6
Continuous
 62
     7
370
     9
100
AcDbLine
 10
-1768.481856293861
 20
-3087.00022022144
 30
0.0
 11
-1768.481856293861
 21
-3075.445804633713
 31
0.0
  0
LINE
  5
263
330
1F
100
AcDbEntity
  8
0-4_枠
  6
Continuous
 62
     7
370
     9
100
AcDbLine
 10
-1775.081856293862
 20
-3087.00022022144
 30
0.0
 11
-1768.481856293861
 21
-3087.00022022144
 31
0.0
  0
LINE
  5
264
330
1F
100
AcDbEntity
  8
0-4_枠
  6
Continuous
 62
     7
370
     9
100
AcDbLine
 10
-1775.081856293862
 20
-3087.00022022144
 30
0.0
 11
-1775.081856293862
 21
-3071.400220221441
 31
0.0
  0
ARC
  5
265
330
1F
100
AcDbEntity
  8
0-4_枠
  6
Continuous
 62
     7
370
     9
100
AcDbCircle
 10
-1775.681856293861
 20
-3071.400220221441
 30
0.0
 40
0.599999999999966
100
AcDbArc
 50
0.0
 51
90.0
  0
LINE
  5
266
330
1F
100
AcDbEntity
  8
0-4_枠
  6
Continuous
 62
     7
370
     9
100
AcDbLine
 10
-1798.481856293861
 20
-3070.800220221441
 30
0.0
 11
-1775.681856293861
 21
-3070.800220221441
 31
0.0
  0
ARC
  5
267
330
1F
100
AcDbEntity
  8
0-4_枠
  6
Continuous
 62
     7
370
     9
100
AcDbCircle
 10
-1798.481856293861
 20
-3071.400220221441
 30
0.0
 40
0.6000000000001362
100
AcDbArc
 50
90.0
 51
180.0
  0
LINE
  5
268
330
1F
100
AcDbEntity
  8
0-4_枠
  6
Continuous
 62
     7
370
     9
100
AcDbLine
 10
-1799.081856293863
 20
-3087.00022022144
 30
0.0
 11
-1799.081856293863
 21
-3071.400220221441
 31
0.0
  0
LINE
  5
269
330
1F
100
AcDbEntity
  8
0-4_枠
  6
Continuous
 62
     7
370
     9
100
AcDbLine
 10
-1805.681856293863
 20
-3087.00022022144
 30
0.0
 11
-1799.081856293863
 21
-3087.00022022144
 31
0.0
  0
LINE
  5
26A
330
1F
100
AcDbEntity
  8
0-4_枠
  6
Continuous
 62
     7
370
     9
100
AcDbLine
 10
-1805.681856293863
 20
-3087.00022022144
 30
0.0
 11
-1805.681856293863
 21
-3074.700220221441
 31
0.0
  0
LINE
  5
26B
330
1F
100
AcDbEntity
  8
0-4_枠
  6
Continuous
 62
     7
370
     9
100
AcDbLine
 10
-1805.681856293863
 20
-3074.700220221441
 30
0.0
 11
-1811.960535950305
 21
-3068.421540565
 31
0.0
  0
ARC
  5
26C
330
1F
100
AcDbEntity
  8
0-4_枠
  6
Continuous
 62
     7
370
     9
100
AcDbCircle
 10
-1814.081856293863
 20
-3070.542860908559
 30
0.0
 40
2.999999999998578
100
AcDbArc
 50
45.0
 51
180.0000000000261
  0
LINE
  5
26D
330
1F
100
AcDbEntity
  8
0-4_枠
  6
Continuous
 62
     7
370
     9
100
AcDbLine
 10
-1817.081856293861
 20
-3087.00022022144
 30
0.0
 11
-1817.081856293863
 21
-3070.54286090856
 31
0.0
  0
LINE
  5
26E
330
1F
100
AcDbEntity
  8
0-4_枠
  6
Continuous
 62
     7
370
     9
100
AcDbLine
 10
-1823.081856293861
 20
-3087.00022022144
 30
0.0
 11
-1817.081856293861
 21
-3087.00022022144
 31
0.0
  0
LINE
  5
26F
330
1F
100
AcDbEntity
  8
0-4_枠
  6
Continuous
 62
     7
370
     9
100
AcDbLine
 10
-1823.081856293861
 20
-3087.00022022144
 30
0.0
 11
-1823.081856293863
 21
-3070.80022022144
 31
0.0
  0
ARC
  5
270
330
1F
100
AcDbEntity
  8
0-4_枠
  6
Continuous
 62
     7
370
     9
100
AcDbCircle
 10
-1811.081856293862
 20
-3070.80022022144
 30
0.0
 40
12.0
100
AcDbArc
 50
90.0
 51
180.0
  0
LINE
  5
271
330
1F
100
AcDbEntity
  8
0-4_枠
  6
Continuous
 62
     7
370
     9
100
AcDbLine
 10
-1752.881856293862
 20
-3087.00022022144
 30
0.0
 11
-1658.681856293867
 21
-3087.00022022144
 31
0.0
  0
LINE
  5
272
330
1F
100
AcDbEntity
  8
0-4_枠
  6
Continuous
 62
     7
370
     9
100
AcDbLine
 10
-1747.481856293862
 20
-3058.800220221439
 30
0.0
 11
-1785.281856293861
 21
-3058.800220221439
 31
0.0
  0
LINE
  5
273
330
1F
100
AcDbEntity
  8
0-A_文字
  6
Continuous
 62
   120
370
     5
100
AcDbLine
 10
-1658.681856293867
 20
-2763.602172091087
 30
0.0
 11
-1823.081856293861
 21
-2763.602172091087
 31
0.0
  0
LWPOLYLINE
  5
274
330
1F
100
AcDbEntity
  8
0-A_文字
  6
Continuous
 62
     7
370
     9
100
AcDbPolyline
 90
        4
 70
     1
 43
3.0
 10
-1657.181856293867
 20
-2763.602172091087
 42
0.4142135623731
 10
-1658.681856293867
 20
-2762.102172091087
 42
0.4142135623731
 10
-1660.181856293867
 20
-2763.602172091087
 42
0.4142135623731
 10
-1658.681856293867
 20
-2765.102172091087
 42
0.4142135623731
  0
LWPOLYLINE
  5
275
330
1F
100
AcDbEntity
  8
0-A_文字
  6
Continuous
 62
     7
370
     9
100
AcDbPolyline
 90
        4
 70
     1
 43
3.0
 10
-1821.581856293861
 20
-2763.602172091087
 42
0.4142135623731
 10
-1823.081856293861
 20
-2762.102172091087
 42
0.4142135623731
 10
-1824.581856293861
 20
-2763.602172091087
 42
0.4142135623731
 10
-1823.081856293861
 20
-2765.102172091087
 42
0.4142135623731
  0
LINE
  5
276
330
1F
100
AcDbEntity
  8
0-A_文字
  6
Continuous
 62
   120
370
     5
100
AcDbLine
 10
-1658.681856293867
 20
-2763.602172091087
 30
0.0
 11
-1658.681856293867
 21
-2871.720183649103
 31
0.0
  0
LINE
  5
277
330
1F
100
AcDbEntity
  8
0-A_文字
  6
Continuous
 62
   120
370
     5
100
AcDbLine
 10
-1823.081856293861
 20
-2763.602172091087
 30
0.0
 11
-1823.081856293861
 21
-2871.720183649103
 31
0.0
  0
LINE
  5
278
330
1F
100
AcDbEntity
  8
0-6_扉
  6
Continuous
 62
   200
370
    20
100
AcDbLine
 10
-1790.081306977456
 20
-3018.000220221439
 30
0.0
 11
-1628.081306977457
 21
-3018.000220221439
 31
0.0
  0
LINE
  5
279
330
1F
100
AcDbEntity
  8
0-6_扉
  6
Continuous
 62
   200
370
    20
100
AcDbLine
 10
-1628.082405610269
 20
-1779.000672815749
 30
0.0
 11
-1628.082405610269
 21
-3018.000220221439
 31
0.0
  0
LINE
  5
27A
330
1F
100
AcDbEntity
  8
0-6_扉
  6
Continuous
 62
   200
370
    20
100
AcDbLine
 10
-1790.082405610268
 20
-1779.000672815749
 30
0.0
 11
-1790.082405610268
 21
-3018.000220221439
 31
0.0
  0
LINE
  5
27B
330
1F
100
AcDbEntity
  8
0-6_扉
  6
Continuous
 62
   200
370
    20
100
AcDbLine
 10
-1628.082405610269
 20
-420.0004624918973
 30
0.0
 11
-1628.082405610269
 21
-1659.000672815747
 31
0.0
  0
LINE
  5
27C
330
1F
100
AcDbEntity
  8
0-6_扉
  6
Continuous
 62
   200
370
    20
100
AcDbLine
 10
-1790.082405610268
 20
-420.0004624918973
 30
0.0
 11
-1790.082405610268
 21
-1659.000672815747
 31
0.0
  0
LINE
  5
27D
330
1F
100
AcDbEntity
  8
0-6_扉
  6
Continuous
 62
   200
370
    20
100
AcDbLine
 10
-1628.082405610269
 20
-420.0004624918973
 30
0.0
 11
-1790.082405610268
 21
-420.0004624918973
 31
0.0
  0
LINE
  5
27E
330
1F
100
AcDbEntity
  8
0-7_金物
  6
Continuous
 62
     7
370
     9
100
AcDbLine
 10
-1781.081650300212
 20
-267.0002793864286
 30
0.0
 11
-1781.081650300212
 21
-375.000370939165
 31
0.0
  0
LINE
  5
27F
330
1F
100
AcDbEntity
  8
0-7_金物
  6
Continuous
 62
     7
370
     9
100
AcDbLine
 10
-1637.081322713084
 20
-267.0002793864286
 30
0.0
 11
-1781.081650300212
 21
-267.0002793864286
 31
0.0
  0
LINE
  5
280
330
1F
100
AcDbEntity
  8
0-7_金物
  6
Continuous
 62
     7
370
     9
100
AcDbLine
 10
-1637.081322713084
 20
-375.000370939165
 30
0.0
 11
-1637.081322713084
 21
-267.0002793864286
 31
0.0
  0
LINE
  5
281
330
1F
100
AcDbEntity
  8
0-7_金物
  6
Continuous
 62
     7
370
     9
100
AcDbLine
 10
-1642.902593178934
 20
-361.788121183305
 30
0.0
 11
-1642.902593178934
 21
-295.7881211833036
 31
0.0
  0
LINE
  5
282
330
1F
100
AcDbEntity
  8
0-7_金物
  6
Continuous
 62
     7
370
     9
100
AcDbLine
 10
-1642.902593178934
 20
-295.7881211833036
 30
0.0
 11
-1679.081759019083
 21
-295.7881211833036
 31
0.0
  0
LINE
  5
283
330
1F
100
AcDbEntity
  8
0-7_金物
  6
Continuous
 62
     7
370
     9
100
AcDbLine
 10
-1679.081759019083
 20
-375.000370939165
 30
0.0
 11
-1679.081759019083
 21
-278.9999131754918
 31
0.0
  0
LINE
  5
284
330
1F
100
AcDbEntity
  8
0-7_金物
  6
Continuous
 62
     7
370
     9
100
AcDbLine
 10
-1679.081759019083
 20
-278.9999131754918
 30
0.0
 11
-1739.083447022623
 21
-278.9999131754918
 31
0.0
  0
LINE
  5
285
330
1F
100
AcDbEntity
  8
0-7_金物
  6
Continuous
 62
     7
370
     9
100
AcDbLine
 10
-1739.083447022623
 20
-278.9999131754918
 30
0.0
 11
-1739.083447022623
 21
-375.000370939165
 31
0.0
  0
LINE
  5
286
330
1F
100
AcDbEntity
  8
0-7_金物
  6
Continuous
 62
     7
370
     9
100
AcDbLine
 10
-1774.901840729899
 20
-295.7881211833036
 30
0.0
 11
-1774.901840729899
 21
-361.788121183305
 31
0.0
  0
LINE
  5
287
330
1F
100
AcDbEntity
  8
0-7_金物
  6
Continuous
 62
     7
370
     9
100
AcDbLine
 10
-1739.083447022623
 20
-295.7881211833036
 30
0.0
 11
-1774.901840729899
 21
-295.7881211833036
 31
0.0
  0
LINE
  5
288
330
1F
100
AcDbEntity
  8
0-7_金物
  6
Continuous
 62
     7
370
     9
100
AcDbLine
 10
-1793.081982178874
 20
-375.000370939165
 30
0.0
 11
-1811.081753297038
 21
-375.000370939165
 31
0.0
  0
LINE
  5
289
330
1F
100
AcDbEntity
  8
0-7_金物
  6
Continuous
 62
     7
370
     9
100
AcDbLine
 10
-1774.077866120524
 20
-381.0004624918987
 30
0.0
 11
-1774.077866120524
 21
-375.000370939165
 31
0.0
  0
LINE
  5
28A
330
1F
100
AcDbEntity
  8
0-7_金物
  6
Continuous
 62
     7
370
     9
100
AcDbLine
 10
-1781.081650300212
 20
-375.000370939165
 30
0.0
 11
-1774.077866120524
 21
-375.000370939165
 31
0.0
  0
LINE
  5
28B
330
1F
100
AcDbEntity
  8
0-7_金物
  6
Continuous
 62
     7
370
     9
100
AcDbLine
 10
-1625.081729335971
 20
-375.000370939165
 30
0.0
 11
-1607.083451314157
 21
-375.000370939165
 31
0.0
  0
LINE
  5
28C
330
1F
100
AcDbEntity
  8
0-7_金物
  6
Continuous
 62
     7
370
     9
100
AcDbLine
 10
-1644.868253274151
 20
-381.0004624918987
 30
0.0
 11
-1644.868253274151
 21
-375.000370939165
 31
0.0
  0
LINE
  5
28D
330
1F
100
AcDbEntity
  8
0-7_金物
  6
Continuous
 62
     7
370
     9
100
AcDbLine
 10
-1644.868253274151
 20
-375.000370939165
 30
0.0
 11
-1637.081322713084
 21
-375.000370939165
 31
0.0
  0
LINE
  5
28E
330
1F
100
AcDbEntity
  8
0-7_金物
  6
Continuous
 62
     7
370
     9
100
AcDbLine
 10
-1811.081753297038
 20
-375.000370939165
 30
0.0
 11
-1811.081753297038
 21
-381.0004624918987
 31
0.0
  0
LINE
  5
28F
330
1F
100
AcDbEntity
  8
0-7_金物
  6
Continuous
 62
     7
370
     9
100
AcDbLine
 10
-1644.868253274151
 20
-381.0004624918987
 30
0.0
 11
-1607.083451314157
 21
-381.0004624918987
 31
0.0
  0
LINE
  5
290
330
1F
100
AcDbEntity
  8
0-7_金物
  6
Continuous
 62
     7
370
     9
100
AcDbLine
 10
-1607.083451314157
 20
-375.000370939165
 30
0.0
 11
-1607.083451314157
 21
-381.0004624918987
 31
0.0
  0
LINE
  5
291
330
1F
100
AcDbEntity
  8
0-7_金物
  6
Continuous
 62
     7
370
     9
100
AcDbLine
 10
-1721.082199616619
 20
-420.0004624918973
 30
0.0
 11
-1697.081518693157
 21
-420.0004624918973
 31
0.0
  0
LINE
  5
292
330
1F
100
AcDbEntity
  8
0-7_金物
  6
Continuous
 62
     7
370
     9
100
AcDbLine
 10
-1721.082199616619
 20
-375.000370939165
 30
0.0
 11
-1721.082199616619
 21
-420.0004624918973
 31
0.0
  0
LINE
  5
293
330
1F
100
AcDbEntity
  8
0-7_金物
  6
Continuous
 62
     7
370
     9
100
AcDbLine
 10
-1697.081518693157
 20
-420.0004624918973
 30
0.0
 11
-1697.081518693157
 21
-375.000370939165
 31
0.0
  0
LINE
  5
294
330
1F
100
AcDbEntity
  8
0-7_金物
  6
Continuous
 62
     7
370
     9
100
AcDbLine
 10
-1679.081759019083
 20
-361.788121183305
 30
0.0
 11
-1642.902593178934
 21
-361.788121183305
 31
0.0
  0
LINE
  5
295
330
1F
100
AcDbEntity
  8
0-7_金物
  6
Continuous
 62
     7
370
     9
100
AcDbLine
 10
-1774.901840729899
 20
-361.788121183305
 30
0.0
 11
-1739.083447022623
 21
-361.788121183305
 31
0.0
  0
LINE
  5
296
330
1F
100
AcDbEntity
  8
0-7_金物
  6
Continuous
 62
     7
370
     9
100
AcDbLine
 10
-1739.083447022623
 20
-375.000370939165
 30
0.0
 11
-1679.081759019083
 21
-375.000370939165
 31
0.0
  0
LINE
  5
297
330
1F
100
AcDbEntity
  8
0-7_金物
  6
Continuous
 62
     7
370
     9
100
AcDbLine
 10
-1774.077866120524
 20
-381.0004624918987
 30
0.0
 11
-1811.081753297038
 21
-381.0004624918987
 31
0.0
  0
LINE
  5
298
330
1F
100
AcDbEntity
  8
0-B_寸法
  6
Continuous
 62
   120
370
     5
100
AcDbLine
 10
-1976.081855197383
 20
-670.4828933487682
 30
0.0
 11
-1976.081855197383
 21
-516.7719459268735
 31
0.0
  0
LWPOLYLINE
  5
299
330
1F
100
AcDbEntity
  8
0-B_寸法
  6
Continuous
 62
     7
370
     9
100
AcDbPolyline
 90
        4
 70
     1
 43
3.0
 10
-1974.581855197383
 20
-670.4828933487682
 42
0.4142135623731
 10
-1976.081855197383
 20
-668.9828933487682
 42
0.4142135623731
 10
-1977.581855197383
 20
-670.4828933487682
 42
0.4142135623731
 10
-1976.081855197383
 20
-671.9828933487682
 42
0.4142135623731
  0
LINE
  5
29A
330
1F
100
AcDbEntity
  8
0-B_寸法
  6
Continuous
 62
   120
370
     5
100
AcDbLine
 10
-1442.081809421014
 20
-670.4828933487682
 30
0.0
 11
-1442.081809421014
 21
-516.7719459268735
 31
0.0
  0
LWPOLYLINE
  5
29B
330
1F
100
AcDbEntity
  8
0-B_寸法
  6
Continuous
 62
     7
370
     9
100
AcDbPolyline
 90
        4
 70
     1
 43
3.0
 10
-1440.581809421015
 20
-670.4828933487682
 42
0.4142135623731
 10
-1442.081809421014
 20
-668.9828933487682
 42
0.4142135623731
 10
-1443.581809421014
 20
-670.4828933487682
 42
0.4142135623731
 10
-1442.081809421014
 20
-671.9828933487682
 42
0.4142135623731
  0
LINE
  5
29C
330
1F
100
AcDbEntity
  8
0-B_寸法
  6
Continuous
 62
   120
370
     5
100
AcDbLine
 10
-1976.081855197383
 20
-670.4828933487682
 30
0.0
 11
-1442.081809421014
 21
-670.4828933487682
 31
0.0
  0
MTEXT
  5
29D
330
1F
100
AcDbEntity
  8
0-B_寸法
  6
Continuous
 62
     7
370
     0
100
AcDbMText
 10
-1760.081351657345
 20
-669.7628933487682
 30
0.0
 40
91.44
 41
120.0
 46
0.0
 71
     7
 72
     1
  1
{\fＭＳ ゴシック|b0|i0|c128|p49;89}
 73
     1
 44
1.0
  0
LINE
  5
29E
330
1F
100
AcDbEntity
  8
0-7_金物
  6
Continuous
 62
     7
370
     9
100
AcDbLine
 10
-1799.082159562296
 20
-140.8549706645159
 30
0.0
 11
-1619.082296891399
 21
-140.8549706645159
 31
0.0
  0
LINE
  5
29F
330
1F
100
AcDbEntity
  8
0-7_金物
  6
Continuous
 62
     7
370
     9
100
AcDbLine
 10
-1619.082296891399
 20
-128.8546330638066
 30
0.0
 11
-1619.082296891399
 21
-140.8549706645159
 31
0.0
  0
LINE
  5
2A0
330
1F
100
AcDbEntity
  8
0-7_金物
  6
Continuous
 62
     7
370
     9
100
AcDbLine
 10
-1799.082159562296
 20
-128.8546330638066
 30
0.0
 11
-1799.082159562296
 21
-140.8549706645159
 31
0.0
  0
LINE
  5
2A1
330
1F
100
AcDbEntity
  8
0-7_金物
  6
Continuous
 62
     7
370
     9
100
AcDbLine
 10
-1799.082159562296
 20
-128.8546330638066
 30
0.0
 11
-1619.082296891399
 21
-128.8546330638066
 31
0.0
  0
LINE
  5
2A2
330
1F
100
AcDbEntity
  8
0-7_金物
  6
Continuous
 62
     7
370
     9
100
AcDbLine
 10
-1769.082056565469
 20
-140.8549706645159
 30
0.0
 11
-1769.082056565469
 21
-152.8545643992564
 31
0.0
  0
LINE
  5
2A3
330
1F
100
AcDbEntity
  8
0-7_金物
  6
Continuous
 62
     7
370
     9
100
AcDbLine
 10
-1649.082399888223
 20
-140.8549706645159
 30
0.0
 11
-1649.082399888223
 21
-152.8545643992564
 31
0.0
  0
LINE
  5
2A4
330
1F
100
AcDbEntity
  8
0-7_金物
  6
Continuous
 62
     7
370
     9
100
AcDbLine
 10
-1769.082056565469
 20
-152.8545643992564
 30
0.0
 11
-1649.082399888223
 21
-152.8545643992564
 31
0.0
  0
LINE
  5
2A5
330
1F
100
AcDbEntity
  8
0-7_金物
  6
Continuous
 62
     7
370
     9
100
AcDbLine
 10
-1763.081890626138
 20
-152.8545643992564
 30
0.0
 11
-1763.081890626138
 21
-159.0005540446317
 31
0.0
  0
LINE
  5
2A6
330
1F
100
AcDbEntity
  8
0-7_金物
  6
Continuous
 62
     7
370
     9
100
AcDbLine
 10
-1655.081821961587
 20
-159.0005540446317
 30
0.0
 11
-1655.081821961587
 21
-152.8545643992564
 31
0.0
  0
LWPOLYLINE
  5
2A7
330
1F
100
AcDbEntity
  8
0-B_寸法
  6
Continuous
 62
     7
370
     9
100
AcDbPolyline
 90
        4
 70
     1
 43
3.0
 10
-906.5819415447883
 20
-3057.00022022144
 42
0.4142135623731
 10
-908.0819415447883
 20
-3055.50022022144
 42
0.4142135623731
 10
-909.5819415447883
 20
-3057.00022022144
 42
0.4142135623731
 10
-908.0819415447883
 20
-3058.50022022144
 42
0.4142135623731
  0
LWPOLYLINE
  5
2A8
330
1F
100
AcDbEntity
  8
0-B_寸法
  6
Continuous
 62
     7
370
     9
100
AcDbPolyline
 90
        4
 70
     1
 43
3.0
 10
-906.5819415447883
 20
-3018.000220221439
 42
0.4142135623731
 10
-908.0819415447883
 20
-3016.500220221439
 42
0.4142135623731
 10
-909.5819415447883
 20
-3018.000220221439
 42
0.4142135623731
 10
-908.0819415447883
 20
-3019.500220221439
 42
0.4142135623731
  0
LINE
  5
2A9
330
1F
100
AcDbEntity
  8
0-B_寸法
  6
Continuous
 62
   120
370
     5
100
AcDbLine
 10
-1118.082065010422
 20
-3018.000220221439
 30
0.0
 11
-908.0819415447883
 21
-3018.000220221439
 31
0.0
  0
MTEXT
  5
2AA
330
1F
100
AcDbEntity
  8
0-B_寸法
  6
Continuous
 62
     7
370
     0
100
AcDbMText
 10
-922.5484367921985
 20
-3017.624989810759
 30
0.0
 40
91.44
 41
180.0
 46
0.0
 71
     7
 72
     1
  1
{\fＭＳ ゴシック|b0|i0|c128|p49;6.5}
 11
6.123031769111886E-17
 21
1.0
 31
0.0
 73
     1
 44
1.0
  0
MTEXT
  5
2AB
330
1F
100
AcDbEntity
  8
0-B_寸法
  6
Continuous
 62
     7
370
     0
100
AcDbMText
 10
-922.5097241250904
 20
-631.560863307073
 30
0.0
 40
91.44
 41
180.0
 46
0.0
 71
     7
 72
     1
  1
{\fＭＳ ゴシック|b0|i0|c128|p49;7.5}
 11
6.123031769111886E-17
 21
1.0
 31
0.0
 73
     1
 44
1.0
  0
LWPOLYLINE
  5
2AC
330
1F
100
AcDbEntity
  8
0-B_寸法
  6
Continuous
 62
     7
370
     9
100
AcDbPolyline
 90
        4
 70
     1
 43
3.0
 10
-906.5819415447883
 20
-374.9999453426688
 42
0.4142135623731
 10
-908.0819415447883
 20
-373.4999453426688
 42
0.4142135623731
 10
-909.5819415447883
 20
-374.9999453426688
 42
0.4142135623731
 10
-908.0819415447883
 20
-376.4999453426688
 42
0.4142135623731
  0
LWPOLYLINE
  5
2AD
330
1F
100
AcDbEntity
  8
0-B_寸法
  6
Continuous
 62
     7
370
     9
100
AcDbPolyline
 90
        4
 70
     1
 43
3.0
 10
-906.5819415447883
 20
-420.0000938065625
 42
0.4142135623731
 10
-908.0819415447883
 20
-418.5000938065625
 42
0.4142135623731
 10
-909.5819415447883
 20
-420.0000938065625
 42
0.4142135623731
 10
-908.0819415447883
 20
-421.5000938065625
 42
0.4142135623731
  0
LINE
  5
2AE
330
1F
100
AcDbEntity
  8
0-B_寸法
  6
Continuous
 62
   120
370
     5
100
AcDbLine
 10
-1118.082065010422
 20
-420.0000938065625
 30
0.0
 11
-908.0819415447883
 21
-420.0000938065625
 31
0.0
  0
LINE
  5
2AF
330
1F
100
AcDbEntity
  8
0-B_寸法
  6
Continuous
 62
   120
370
     5
100
AcDbLine
 10
-908.0819415447883
 20
-3057.00022022144
 30
0.0
 11
-908.0819415447883
 21
-374.9999453426688
 31
0.0
  0
LWPOLYLINE
  5
2B0
330
1F
100
AcDbEntity
  8
0-B_寸法
  6
Continuous
 62
     7
370
     9
100
AcDbPolyline
 90
        4
 70
     1
 43
3.0
 10
-726.581286354467
 20
-3086.999849061705
 42
0.4142135623731
 10
-728.081286354467
 20
-3085.499849061705
 42
0.4142135623731
 10
-729.5812863544671
 20
-3086.999849061705
 42
0.4142135623731
 10
-728.081286354467
 20
-3088.499849061705
 42
0.4142135623731
  0
LWPOLYLINE
  5
2B1
330
1F
100
AcDbEntity
  8
0-B_寸法
  6
Continuous
 62
     7
370
     9
100
AcDbPolyline
 90
        4
 70
     1
 43
3.0
 10
-726.581286354467
 20
-3057.00022022144
 42
0.4142135623731
 10
-728.081286354467
 20
-3055.50022022144
 42
0.4142135623731
 10
-729.5812863544671
 20
-3057.00022022144
 42
0.4142135623731
 10
-728.081286354467
 20
-3058.50022022144
 42
0.4142135623731
  0
LINE
  5
2B2
330
1F
100
AcDbEntity
  8
0-B_寸法
  6
Continuous
 62
   120
370
     5
100
AcDbLine
 10
-1118.082065010422
 20
-3057.00022022144
 30
0.0
 11
-728.081286354467
 21
-3057.00022022144
 31
0.0
  0
MTEXT
  5
2B3
330
1F
100
AcDbEntity
  8
0-B_寸法
  6
Continuous
 62
     7
370
   211
100
AcDbMText
 10
-740.7069826460465
 20
-3064.200501002233
 30
0.0
 40
91.44
 41
60.0
 46
0.0
 71
     7
 72
     1
  1
{\fＭＳ ゴシック|b0|i0|c128|p49;5}
 11
6.123031769111886E-17
 21
1.0
 31
0.0
 73
     1
 44
1.0
  0
MTEXT
  5
2B4
330
1F
100
AcDbEntity
  8
0-B_寸法
  6
Continuous
 62
     7
370
     0
100
AcDbMText
 10
-743.0805935229673
 20
-337.5300715369764
 30
0.0
 40
91.44
 41
120.0
 46
0.0
 71
     7
 72
     1
  1
{\fＭＳ ゴシック|b0|i0|c128|p49;36}
 11
6.123031769111886E-17
 21
1.0
 31
0.0
 73
     1
 44
1.0
  0
LINE
  5
2B5
330
1F
100
AcDbEntity
  8
0-B_寸法
  6
Continuous
 62
   120
370
     5
100
AcDbLine
 10
-908.0819415447883
 20
-374.9995741829356
 30
0.0
 11
-728.081286354467
 21
-374.9995741829356
 31
0.0
  0
LWPOLYLINE
  5
2B6
330
1F
100
AcDbEntity
  8
0-B_寸法
  6
Continuous
 62
     7
370
     9
100
AcDbPolyline
 90
        4
 70
     1
 43
3.0
 10
-726.581286354467
 20
-374.9995741829356
 42
0.4142135623731
 10
-728.081286354467
 20
-373.4995741829356
 42
0.4142135623731
 10
-729.5812863544671
 20
-374.9995741829356
 42
0.4142135623731
 10
-728.081286354467
 20
-376.4995741829356
 42
0.4142135623731
  0
LWPOLYLINE
  5
2B7
330
1F
100
AcDbEntity
  8
0-B_寸法
  6
Continuous
 62
     7
370
     9
100
AcDbPolyline
 90
        4
 70
     1
 43
3.0
 10
-726.581286354467
 20
-159.000568891021
 42
0.4142135623731
 10
-728.081286354467
 20
-157.500568891021
 42
0.4142135623731
 10
-729.5812863544671
 20
-159.000568891021
 42
0.4142135623731
 10
-728.081286354467
 20
-160.500568891021
 42
0.4142135623731
  0
LINE
  5
2B8
330
1F
100
AcDbEntity
  8
0-B_寸法
  6
Continuous
 62
   120
370
     5
100
AcDbLine
 10
-728.081286354467
 20
-3086.999849061705
 30
0.0
 11
-728.081286354467
 21
-159.000568891021
 31
0.0
  0
LWPOLYLINE
  5
2B9
330
1F
100
AcDbEntity
  8
0-B_寸法
  6
Continuous
 62
     7
370
     9
100
AcDbPolyline
 90
        4
 70
     1
 43
3.0
 10
-546.5818562938591
 20
-3086.999849061705
 42
0.4142135623731
 10
-548.0818562938591
 20
-3085.499849061705
 42
0.4142135623731
 10
-549.5818562938592
 20
-3086.999849061705
 42
0.4142135623731
 10
-548.0818562938591
 20
-3088.499849061705
 42
0.4142135623731
  0
LINE
  5
2BA
330
1F
100
AcDbEntity
  8
0-B_寸法
  6
Continuous
 62
   120
370
     5
100
AcDbLine
 10
-1118.082065010422
 20
-3086.999849061705
 30
0.0
 11
-548.0818562938591
 21
-3086.999849061705
 31
0.0
  0
LINE
  5
2BB
330
1F
100
AcDbEntity
  8
0-B_寸法
  6
Continuous
 62
   120
370
     5
100
AcDbLine
 10
-1118.082065010422
 20
-3158.999826792122
 30
0.0
 11
-548.0810580195148
 21
-3158.999826792122
 31
0.0
  0
LWPOLYLINE
  5
2BC
330
1F
100
AcDbEntity
  8
0-B_寸法
  6
Continuous
 62
     7
370
     9
100
AcDbPolyline
 90
        4
 70
     1
 43
3.0
 10
-546.5810580195148
 20
-3158.999826792122
 42
0.4142135623731
 10
-548.0810580195148
 20
-3157.499826792122
 42
0.4142135623731
 10
-549.5810580195149
 20
-3158.999826792122
 42
0.4142135623731
 10
-548.0810580195148
 20
-3160.499826792122
 42
0.4142135623731
  0
MTEXT
  5
2BD
330
1F
100
AcDbEntity
  8
0-B_寸法
  6
Continuous
 62
     7
370
   211
100
AcDbMText
 10
-557.629956082865
 20
-3307.42631062698
 30
0.0
 40
91.44
 41
120.0
 46
0.0
 71
     7
 72
     1
  1
{\fＭＳ ゴシック|b0|i0|c128|p49;12}
 11
6.123031769111886E-17
 21
1.0
 31
0.0
 73
     1
 44
1.0
  0
LWPOLYLINE
  5
2BE
330
1F
100
AcDbEntity
  8
0-B_寸法
  6
Continuous
 62
     7
370
     9
100
AcDbPolyline
 90
        4
 70
     1
 43
3.0
 10
-546.5818562938591
 20
-159.000568891021
 42
0.4142135623731
 10
-548.0818562938591
 20
-157.500568891021
 42
0.4142135623731
 10
-549.5818562938592
 20
-159.000568891021
 42
0.4142135623731
 10
-548.0818562938591
 20
-160.500568891021
 42
0.4142135623731
  0
LINE
  5
2BF
330
1F
100
AcDbEntity
  8
0-B_寸法
  6
Continuous
 62
   120
370
     5
100
AcDbLine
 10
-548.0818562938591
 20
-129.000568891021
 30
0.0
 11
-1118.081941544787
 21
-129.000568891021
 31
0.0
  0
LWPOLYLINE
  5
2C0
330
1F
100
AcDbEntity
  8
0-B_寸法
  6
Continuous
 62
     7
370
     9
100
AcDbPolyline
 90
        4
 70
     1
 43
3.0
 10
-546.5818562938591
 20
-129.000568891021
 42
0.4142135623731
 10
-548.0818562938591
 20
-127.500568891021
 42
0.4142135623731
 10
-549.5818562938592
 20
-129.000568891021
 42
0.4142135623731
 10
-548.0818562938591
 20
-130.500568891021
 42
0.4142135623731
  0
LINE
  5
2C1
330
1F
100
AcDbEntity
  8
0-B_寸法
  6
Continuous
 62
   120
370
     5
100
AcDbLine
 10
-548.0818562938591
 20
-3158.999826792122
 30
0.0
 11
-548.0818562938591
 21
-129.000568891021
 31
0.0
  0
MTEXT
  5
2C2
330
1F
100
AcDbEntity
  8
0-B_寸法
  6
Continuous
 62
     7
370
   211
100
AcDbMText
 10
-563.0818562938591
 20
-137.7172692970888
 30
0.0
 40
91.44
 41
60.0
 46
0.0
 71
     7
 72
     1
  1
{\fＭＳ ゴシック|b0|i0|c128|p49;5}
 11
6.123031769111886E-17
 21
1.0
 31
0.0
 73
     1
 44
1.0
  0
LINE
  5
2C3
330
1F
100
AcDbEntity
  8
0-3_仕上げ
  6
Continuous
 62
     7
370
     9
100
AcDbLine
 10
-2312.081107519248
 20
-3135.000081655137
 30
0.0
 11
-1118.081282862459
 21
-3135.000081655137
 31
0.0
  0
LINE
  5
2C4
330
1F
100
AcDbEntity
  8
0-3_仕上げ
  6
Continuous
 62
     7
370
     9
100
AcDbLine
 10
-2312.081107519248
 20
-3123.000116296712
 30
0.0
 11
-1118.081282862459
 21
-3123.000116296712
 31
0.0
  0
LINE
  5
2C5
330
1F
100
AcDbEntity
  8
0-3_仕上げ
  6
Continuous
 62
     7
370
     9
100
AcDbLine
 10
-2312.081107519248
 20
-3147.000232593433
 30
0.0
 11
-1118.081282862459
 21
-3147.000232593433
 31
0.0
  0
LINE
  5
2C6
330
1F
100
AcDbEntity
  8
0-3_仕上げ
  6
Continuous
 62
    40
370
    15
100
AcDbLine
 10
-2312.081107519248
 20
-3159.000197951857
 30
0.0
 11
-1118.081282862459
 21
-3159.000197951857
 31
0.0
  0
LINE
  5
2C7
330
1F
100
AcDbEntity
  8
0-3_仕上げ
  6
Continuous
 62
     7
370
     9
100
AcDbLine
 10
-2312.081107519248
 20
-3111.00015093829
 30
0.0
 11
-1118.081282862459
 21
-3111.00015093829
 31
0.0
  0
LINE
  5
2C8
330
1F
100
AcDbEntity
  8
0-3_仕上げ
  6
Continuous
 62
     7
370
     9
100
AcDbLine
 10
-2312.081107519248
 20
-3098.999999999995
 30
0.0
 11
-1118.081282862459
 21
-3098.999999999995
 31
0.0
  0
LINE
  5
2C9
330
1F
100
AcDbEntity
  8
0-3_仕上げ
  6
Continuous
 62
    40
370
    15
100
AcDbLine
 10
-1118.081282862459
 20
-3087.00022022144
 30
0.0
 11
-2312.081107519248
 21
-3087.00022022144
 31
0.0
  0
LINE
  5
2CA
330
1F
100
AcDbEntity
  8
0-B_寸法
  6
Continuous
 62
   120
370
     5
100
AcDbLine
 10
-2672.081856293857
 20
-3158.999826792122
 30
0.0
 11
-2312.081889667214
 21
-3158.999826792122
 31
0.0
  0
LWPOLYLINE
  5
2CB
330
1F
100
AcDbEntity
  8
0-B_寸法
  6
Continuous
 62
     7
370
     9
100
AcDbPolyline
 90
        4
 70
     1
 43
3.0
 10
-2670.581856293857
 20
-3158.999826792122
 42
0.4142135623731
 10
-2672.081856293857
 20
-3157.499826792122
 42
0.4142135623731
 10
-2673.581856293857
 20
-3158.999826792122
 42
0.4142135623731
 10
-2672.081856293857
 20
-3160.499826792122
 42
0.4142135623731
  0
LINE
  5
2CC
330
1F
100
AcDbEntity
  8
0-B_寸法
  6
Continuous
 62
   120
370
     5
100
AcDbLine
 10
-2672.081856293857
 20
-129.000568891021
 30
0.0
 11
-2672.081856293857
 21
-3158.999826792122
 31
0.0
  0
LWPOLYLINE
  5
2CD
330
1F
100
AcDbEntity
  8
0-B_寸法
  6
Continuous
 62
     7
370
     9
100
AcDbPolyline
 90
        4
 70
     1
 43
3.0
 10
-2670.581856293857
 20
-129.000568891021
 42
0.4142135623731
 10
-2672.081856293857
 20
-127.500568891021
 42
0.4142135623731
 10
-2673.581856293857
 20
-129.000568891021
 42
0.4142135623731
 10
-2672.081856293857
 20
-130.500568891021
 42
0.4142135623731
  0
LINE
  5
2CE
330
1F
100
AcDbEntity
  8
0-B_寸法
  6
Continuous
 62
   120
370
     5
100
AcDbLine
 10
-2672.081856293857
 20
-129.000568891021
 30
0.0
 11
-2036.081855197383
 21
-129.000568891021
 31
0.0
  0
LINE
  5
2CF
330
1F
100
AcDbEntity
  8
0-0_補助線
  6
JWW_HOJO
 62
   120
370
     5
100
AcDbLine
 10
-2672.081058019546
 20
-3158.999826765731
 30
0.0
 11
-548.0810580195148
 21
-3158.999826765731
 31
0.0
  0
LINE
  5
2D0
330
1F
100
AcDbEntity
  8
0-0_補助線
  6
JWW_HOJO
 62
   120
370
     5
100
AcDbLine
 10
-1479.39608827148
 20
-1659.000672815747
 30
0.0
 11
-1938.767624316241
 21
-1659.000672815747
 31
0.0
  0
LINE
  5
2D1
330
1F
100
AcDbEntity
  8
0-0_補助線
  6
JWW_HOJO
 62
   120
370
     5
100
AcDbLine
 10
-1479.39608827148
 20
-1779.000672815749
 30
0.0
 11
-1938.767624316241
 21
-1779.000672815749
 31
0.0
  0
LINE
  5
2D2
330
1F
100
AcDbEntity
  8
0-4_枠
  6
Continuous
 62
   120
370
     5
100
AcDbLine
 10
-1985.081856293864
 20
-3087.00022022144
 30
0.0
 11
-1985.081856293864
 21
-159.0005540446317
 31
0.0
  0
LINE
  5
2D3
330
1F
100
AcDbEntity
  8
0-B_寸法
  6
Continuous
 62
   120
370
     5
100
AcDbLine
 10
-1628.082405610269
 20
-1021.990143426494
 30
0.0
 11
-1790.082405610268
 21
-1021.990143426494
 31
0.0
  0
LWPOLYLINE
  5
2D4
330
1F
100
AcDbEntity
  8
0-B_寸法
  6
Continuous
 62
     7
370
     9
100
AcDbPolyline
 90
        4
 70
     1
 43
3.0
 10
-1626.582405610269
 20
-1021.990143426494
 42
0.4142135623731
 10
-1628.082405610269
 20
-1020.490143426494
 42
0.4142135623731
 10
-1629.582405610269
 20
-1021.990143426494
 42
0.4142135623731
 10
-1628.082405610269
 20
-1023.490143426494
 42
0.4142135623731
  0
LINE
  5
2D5
330
1F
100
AcDbEntity
  8
0-B_寸法
  6
Continuous
 62
   120
370
     5
100
AcDbLine
 10
-1628.082405610269
 20
-937.7532148475223
 30
0.0
 11
-1628.082405610269
 21
-1021.990143426494
 31
0.0
  0
LWPOLYLINE
  5
2D6
330
1F
100
AcDbEntity
  8
0-B_寸法
  6
Continuous
 62
     7
370
     9
100
AcDbPolyline
 90
        4
 70
     1
 43
3.0
 10
-1788.582405610268
 20
-1021.990143426494
 42
0.4142135623731
 10
-1790.082405610268
 20
-1020.490143426494
 42
0.4142135623731
 10
-1791.582405610268
 20
-1021.990143426494
 42
0.4142135623731
 10
-1790.082405610268
 20
-1023.490143426494
 42
0.4142135623731
  0
LINE
  5
2D7
330
1F
100
AcDbEntity
  8
0-B_寸法
  6
Continuous
 62
   120
370
     5
100
AcDbLine
 10
-1790.082405610268
 20
-937.7532148475223
 30
0.0
 11
-1790.082405610268
 21
-1021.990143426494
 31
0.0
  0
MTEXT
  5
2D8
330
1F
100
AcDbEntity
  8
0-B_寸法
  6
Continuous
 62
     7
370
     0
100
AcDbMText
 10
-1761.581851035289
 20
-1021.270047543366
 30
0.0
 40
91.43999999999791
 41
119.9999999999973
 46
0.0
 71
     7
 72
     1
  1
{\fＭＳ ゴシック|b0|i0|c128|p49;27}
 11
0.9999999999914964
 21
-4.124000483563069E-6
 31
0.0
 73
     1
 44
1.0
  0
MTEXT
  5
2D9
330
1F
100
AcDbEntity
  8
0-B_寸法
  6
Continuous
 62
     7
370
     0
100
AcDbMText
 10
-1825.331851034748
 20
-1182.488766823397
 30
0.0
 40
91.43999999999977
 41
239.9999999999994
 46
0.0
 71
     7
 72
     1
  1
{\fＭＳ ゴシック|b0|i0|c128|p49;(24)}
 11
0.9999999999914964
 21
-4.124000483563069E-6
 31
0.0
 73
     1
 44
1.0
  0
LINE
  5
2DA
330
1F
100
AcDbEntity
  8
0-C_ハッチ
  6
Continuous
 62
   120
370
     5
100
AcDbLine
 10
-1489.635359180015
 20
-375.0003709391578
 30
0.0
 11
-1442.081804700836
 21
-327.4468164599787
 31
0.0
  0
LINE
  5
2DB
330
1F
100
AcDbEntity
  8
0-C_ハッチ
  6
Continuous
 62
   120
370
     5
100
AcDbLine
 10
-1726.01671913435
 20
-254.9999131755
 30
0.0
 11
-1630.017360003478
 21
-159.0005540446283
 31
0.0
  0
LINE
  5
2DC
330
1F
100
AcDbEntity
  8
0-C_ハッチ
  6
Continuous
 62
   120
370
     5
100
AcDbLine
 10
-1964.811116137371
 20
-375.0003709391731
 30
0.0
 11
-1748.811299242827
 21
-159.0005540446271
 31
0.0
  0
LINE
  5
2DD
330
1F
100
AcDbEntity
  8
0-C_ハッチ
  6
Continuous
 62
   120
370
     5
100
AcDbLine
 10
-1795.620177396585
 20
-375.0003709391629
 30
0.0
 11
-1793.081432862466
 21
-372.4616264050463
 31
0.0
  0
LINE
  5
2DE
330
1F
100
AcDbEntity
  8
0-C_ハッチ
  6
Continuous
 62
   120
370
     5
100
AcDbLine
 10
-1905.414146517713
 20
-375.0003709391612
 30
0.0
 11
-1793.081432862466
 21
-262.6676572839139
 31
0.0
  0
LINE
  5
2DF
330
1F
100
AcDbEntity
  8
0-C_ハッチ
  6
Continuous
 62
   120
370
     5
100
AcDbLine
 10
-1785.413688754045
 20
-254.9999131754919
 30
0.0
 11
-1689.414329623173
 21
-159.0005540446215
 31
0.0
  0
LINE
  5
2E0
330
1F
100
AcDbEntity
  8
0-C_ハッチ
  6
Continuous
 62
   120
370
     5
100
AcDbLine
 10
-1846.017176898005
 20
-375.0003709391548
 30
0.0
 11
-1793.081432862466
 21
-322.0646269036158
 31
0.0
  0
LINE
  5
2E1
330
1F
100
AcDbEntity
  8
0-4_枠
  6
Continuous
 62
    92
370
    13
100
AcDbLine
 10
-1442.081859472777
 20
-315.0003709391638
 30
0.0
 11
-1442.081872188448
 21
-375.0003709391638
 31
0.0
  0
LINE
  5
2E2
330
1F
100
AcDbEntity
  8
0-4_枠
  6
Continuous
 62
    92
370
    13
100
AcDbLine
 10
-1442.081840399275
 20
-225.0003709391638
 30
0.0
 11
-1442.081848028676
 21
-261.000370939163
 31
0.0
  0
LINE
  5
2E3
330
1F
100
AcDbEntity
  8
0-4_枠
  6
Continuous
 62
    92
370
    13
100
AcDbLine
 10
-1484.081848028677
 20
-225.0003709391638
 30
0.0
 11
-1442.081840399275
 21
-225.0003709391638
 31
0.0
  0
LINE
  5
2E4
330
1F
100
AcDbEntity
  8
0-4_枠
  6
Continuous
 62
    92
370
    13
100
AcDbLine
 10
-1484.081848028677
 20
-225.0003709391638
 30
0.0
 11
-1484.081848028677
 21
-159.0005540446317
 31
0.0
  0
LINE
  5
2E5
330
1F
100
AcDbEntity
  8
0-4_枠
  6
Continuous
 62
    92
370
    13
100
AcDbLine
 10
-1793.082532568162
 20
-254.9999131754919
 30
0.0
 11
-1625.082279725259
 21
-254.9999131754919
 31
0.0
  0
LINE
  5
2E6
330
1F
100
AcDbEntity
  8
0-4_枠
  6
Continuous
 62
    92
370
    13
100
AcDbLine
 10
-1841.081872188445
 20
-159.0005540446317
 30
0.0
 11
-1484.081848028677
 21
-159.0005540446317
 31
0.0
  0
LINE
  5
2E7
330
1F
100
AcDbEntity
  8
0-4_枠
  6
Continuous
 62
    92
370
    13
100
AcDbLine
 10
-1841.081872188445
 20
-159.0005540446317
 30
0.0
 11
-1841.081879817846
 21
-195.0005540446327
 31
0.0
  0
LINE
  5
2E8
330
1F
100
AcDbEntity
  8
0-4_枠
  6
Continuous
 62
    92
370
    13
100
AcDbLine
 10
-1976.081879817849
 20
-195.0005540446327
 30
0.0
 11
-1841.081879817846
 21
-195.0005540446327
 31
0.0
  0
LINE
  5
2E9
330
1F
100
AcDbEntity
  8
0-4_枠
  6
Continuous
 62
    92
370
    13
100
AcDbLine
 10
-1976.081879817849
 20
-195.0005540446327
 30
0.0
 11
-1976.081917964816
 21
-375.0003709391638
 31
0.0
  0
LINE
  5
2EA
330
1F
100
AcDbEntity
  8
0-4_枠
  6
Continuous
 62
    92
370
    13
100
AcDbLine
 10
-1502.081859472779
 20
-315.0003709391638
 30
0.0
 11
-1442.081859472777
 21
-315.0003709391638
 31
0.0
  0
LINE
  5
2EB
330
1F
100
AcDbEntity
  8
0-4_枠
  6
Continuous
 62
    92
370
    13
100
AcDbLine
 10
-1502.081848028674
 20
-261.000370939163
 30
0.0
 11
-1502.081859472779
 21
-315.0003709391638
 31
0.0
  0
LINE
  5
2EC
330
1F
100
AcDbEntity
  8
0-4_枠
  6
Continuous
 62
    92
370
    13
100
AcDbLine
 10
-1502.081848028674
 20
-261.000370939163
 30
0.0
 11
-1442.081848028676
 21
-261.000370939163
 31
0.0
  0
LINE
  5
2ED
330
1F
100
AcDbEntity
  8
0-C_ハッチ
  6
Continuous
 62
   120
370
     5
100
AcDbLine
 10
-1976.081882589795
 20
-208.0802285326124
 30
0.0
 11
-1963.002208101818
 21
-195.0005540446327
 31
0.0
  0
LINE
  5
2EE
330
1F
100
AcDbEntity
  8
0-C_ハッチ
  6
Continuous
 62
   120
370
     5
100
AcDbLine
 10
-1976.081895177666
 20
-267.4772107401189
 30
0.0
 11
-1903.605238482181
 21
-195.0005540446327
 31
0.0
  0
LINE
  5
2EF
330
1F
100
AcDbEntity
  8
0-C_ハッチ
  6
Continuous
 62
   120
370
     5
100
AcDbLine
 10
-1841.081879155274
 20
-191.874164337428
 30
0.0
 11
-1808.208268862488
 21
-159.0005540446398
 31
0.0
  0
LINE
  5
2F0
330
1F
100
AcDbEntity
  8
0-C_ハッチ
  6
Continuous
 62
   120
370
     5
100
AcDbLine
 10
-1976.081907765538
 20
-326.8741929476924
 30
0.0
 11
-1844.208268862479
 21
-195.0005540446327
 31
0.0
  0
LINE
  5
2F1
330
1F
100
AcDbEntity
  8
0-C_ハッチ
  6
Continuous
 62
   120
370
     5
100
AcDbLine
 10
-1666.619749514692
 20
-254.9999131754898
 30
0.0
 11
-1570.620390383834
 21
-159.0005540446317
 31
0.0
  0
LINE
  5
2F2
330
1F
100
AcDbEntity
  8
0-C_ハッチ
  6
Continuous
 62
   120
370
     5
100
AcDbLine
 10
-1625.081180019563
 20
-272.8583133000622
 30
0.0
 11
-1511.223420764132
 21
-159.0005540446317
 31
0.0
  0
LINE
  5
2F3
330
1F
100
AcDbEntity
  8
0-C_ハッチ
  6
Continuous
 62
   120
370
     5
100
AcDbLine
 10
-1625.081180019563
 20
-332.2552829197094
 30
0.0
 11
-1484.081848028677
 21
-191.2559509288232
 31
0.0
  0
LINE
  5
2F4
330
1F
100
AcDbEntity
  8
0-C_ハッチ
  6
Continuous
 62
   120
370
     5
100
AcDbLine
 10
-1608.42929841932
 20
-375.0003709391672
 30
0.0
 11
-1502.081849650461
 21
-268.6529221703098
 31
0.0
  0
LINE
  5
2F5
330
1F
100
AcDbEntity
  8
0-C_ハッチ
  6
Continuous
 62
   120
370
     5
100
AcDbLine
 10
-1494.429298419314
 20
-261.000370939163
 30
0.0
 11
-1458.429298419316
 21
-225.0003709391638
 31
0.0
  0
LINE
  5
2F6
330
1F
100
AcDbEntity
  8
0-C_ハッチ
  6
Continuous
 62
   120
370
     5
100
AcDbLine
 10
-1549.032328799676
 20
-375.0003709391706
 30
0.0
 11
-1489.032328799667
 21
-315.0003709391638
 31
0.0
  0
LINE
  5
2F7
330
1F
100
AcDbEntity
  8
0-4_枠
  6
Continuous
 62
    92
370
    13
100
AcDbLine
 10
-1976.081917964816
 20
-375.0003709391638
 30
0.0
 11
-1793.082532568162
 21
-375.0003709391638
 31
0.0
  0
LINE
  5
2F8
330
1F
100
AcDbEntity
  8
0-4_枠
  6
Continuous
 62
    92
370
    13
100
AcDbLine
 10
-1793.082532568162
 20
-375.0003709391638
 30
0.0
 11
-1793.082532568162
 21
-254.9999131754919
 31
0.0
  0
LINE
  5
2F9
330
1F
100
AcDbEntity
  8
0-4_枠
  6
Continuous
 62
    92
370
    13
100
AcDbLine
 10
-1625.082279725259
 20
-375.0003709391638
 30
0.0
 11
-1442.081872188448
 21
-375.0003709391638
 31
0.0
  0
LINE
  5
2FA
330
1F
100
AcDbEntity
  8
0-4_枠
  6
Continuous
 62
    92
370
    13
100
AcDbLine
 10
-1625.082279725259
 20
-254.9999131754919
 30
0.0
 11
-1625.082279725259
 21
-375.0003709391638
 31
0.0
  0
LINE
  5
2FB
330
1F
100
AcDbEntity
  8
0-4_枠
  6
Continuous
 62
   120
370
     5
100
AcDbLine
 10
-1841.081872188445
 20
-159.0005540446317
 30
0.0
 11
-1985.081856293861
 21
-159.0005540446317
 31
0.0
  0
LINE
  5
2FC
330
1F
100
AcDbEntity
  8
0-B_寸法
  6
Continuous
 62
   120
370
     5
100
AcDbLine
 10
-1118.081883797847
 20
-159.000568891021
 30
0.0
 11
-548.0818562938591
 21
-159.000568891021
 31
0.0
  0
LINE
  5
2FD
330
1F
100
AcDbEntity
  8
0-B_寸法
  6
Continuous
 62
   120
370
     5
100
AcDbLine
 10
-1118.081839369517
 20
-374.9999453426688
 30
0.0
 11
-908.0819415447883
 21
-374.9999453426688
 31
0.0
  0
MTEXT
  5
2FE
330
1F
100
AcDbEntity
  8
0-B_寸法
  6
Continuous
 62
     7
370
   211
100
AcDbMText
 10
-1133.081839369517
 20
-332.2799453426694
 30
0.0
 40
91.44
 41
60.0
 46
0.0
 71
     7
 72
     1
  1
{\fＭＳ ゴシック|b0|i0|c128|p49;9}
 11
6.123031769111886E-17
 21
1.0
 31
0.0
 73
     1
 44
1.0
  0
LINE
  5
2FF
330
1F
100
AcDbEntity
  8
0-B_寸法
  6
Continuous
 62
   120
370
     5
100
AcDbLine
 10
-1118.081839369517
 20
-159.0001284481376
 30
0.0
 11
-1118.081839369517
 21
-224.9999453426688
 31
0.0
  0
LWPOLYLINE
  5
300
330
1F
100
AcDbEntity
  8
0-B_寸法
  6
Continuous
 62
     7
370
     9
100
AcDbPolyline
 90
        4
 70
     1
 43
3.0
 10
-1116.581839369517
 20
-159.0001284481376
 42
0.4142135623731
 10
-1118.081839369517
 20
-157.5001284481376
 42
0.4142135623731
 10
-1119.581839369517
 20
-159.0001284481376
 42
0.4142135623731
 10
-1118.081839369517
 20
-160.5001284481376
 42
0.4142135623731
  0
LWPOLYLINE
  5
301
330
1F
100
AcDbEntity
  8
0-B_寸法
  6
Continuous
 62
     7
370
     9
100
AcDbPolyline
 90
        4
 70
     1
 43
3.0
 10
-1116.581839369517
 20
-224.9999453426688
 42
0.4142135623731
 10
-1118.081839369517
 20
-223.4999453426688
 42
0.4142135623731
 10
-1119.581839369517
 20
-224.9999453426688
 42
0.4142135623731
 10
-1118.081839369517
 20
-226.4999453426688
 42
0.4142135623731
  0
LINE
  5
302
330
1F
100
AcDbEntity
  8
0-B_寸法
  6
Continuous
 62
   120
370
     5
100
AcDbLine
 10
-1118.081839369517
 20
-159.0001284481376
 30
0.0
 11
-1250.081885145888
 21
-159.0001284481376
 31
0.0
  0
LINE
  5
303
330
1F
100
AcDbEntity
  8
0-B_寸法
  6
Continuous
 62
   120
370
     5
100
AcDbLine
 10
-1118.081839369517
 20
-224.9999453426688
 30
0.0
 11
-1250.081885145888
 21
-224.9999453426688
 31
0.0
  0
LINE
  5
304
330
1F
100
AcDbEntity
  8
0-B_寸法
  6
Continuous
 62
   120
370
     5
100
AcDbLine
 10
-1118.081839369517
 20
-224.9999453426688
 30
0.0
 11
-1118.081839369517
 21
-260.9999453426689
 31
0.0
  0
LWPOLYLINE
  5
305
330
1F
100
AcDbEntity
  8
0-B_寸法
  6
Continuous
 62
     7
370
     9
100
AcDbPolyline
 90
        4
 70
     1
 43
3.0
 10
-1116.581839369517
 20
-260.9999453426689
 42
0.4142135623731
 10
-1118.081839369517
 20
-259.4999453426688
 42
0.4142135623731
 10
-1119.581839369517
 20
-260.9999453426689
 42
0.4142135623731
 10
-1118.081839369517
 20
-262.4999453426689
 42
0.4142135623731
  0
LINE
  5
306
330
1F
100
AcDbEntity
  8
0-B_寸法
  6
Continuous
 62
   120
370
     5
100
AcDbLine
 10
-1118.081839369517
 20
-260.9999453426689
 30
0.0
 11
-1250.081885145888
 21
-260.9999453426689
 31
0.0
  0
LINE
  5
307
330
1F
100
AcDbEntity
  8
0-B_寸法
  6
Continuous
 62
   120
370
     5
100
AcDbLine
 10
-1118.081839369517
 20
-260.9999453426689
 30
0.0
 11
-1118.081839369517
 21
-314.9999453426688
 31
0.0
  0
LWPOLYLINE
  5
308
330
1F
100
AcDbEntity
  8
0-B_寸法
  6
Continuous
 62
     7
370
     9
100
AcDbPolyline
 90
        4
 70
     1
 43
3.0
 10
-1116.581839369517
 20
-314.9999453426688
 42
0.4142135623731
 10
-1118.081839369517
 20
-313.4999453426688
 42
0.4142135623731
 10
-1119.581839369517
 20
-314.9999453426688
 42
0.4142135623731
 10
-1118.081839369517
 20
-316.4999453426688
 42
0.4142135623731
  0
LINE
  5
309
330
1F
100
AcDbEntity
  8
0-B_寸法
  6
Continuous
 62
   120
370
     5
100
AcDbLine
 10
-1118.081839369517
 20
-314.9999453426688
 30
0.0
 11
-1250.081885145888
 21
-314.9999453426688
 31
0.0
  0
LINE
  5
30A
330
1F
100
AcDbEntity
  8
0-B_寸法
  6
Continuous
 62
   120
370
     5
100
AcDbLine
 10
-1118.081839369517
 20
-314.9999453426688
 30
0.0
 11
-1118.081839369517
 21
-374.9999453426688
 31
0.0
  0
LWPOLYLINE
  5
30B
330
1F
100
AcDbEntity
  8
0-B_寸法
  6
Continuous
 62
     7
370
     9
100
AcDbPolyline
 90
        4
 70
     1
 43
3.0
 10
-1116.581839369517
 20
-374.9999453426688
 42
0.4142135623731
 10
-1118.081839369517
 20
-373.4999453426688
 42
0.4142135623731
 10
-1119.581839369517
 20
-374.9999453426688
 42
0.4142135623731
 10
-1118.081839369517
 20
-376.4999453426688
 42
0.4142135623731
  0
LINE
  5
30C
330
1F
100
AcDbEntity
  8
0-B_寸法
  6
Continuous
 62
   120
370
     5
100
AcDbLine
 10
-1118.081839369517
 20
-374.9999453426688
 30
0.0
 11
-1250.081885145888
 21
-374.9999453426688
 31
0.0
  0
MTEXT
  5
30D
330
1F
100
AcDbEntity
  8
0-B_寸法
  6
Continuous
 62
     7
370
   211
100
AcDbMText
 10
-1133.081839369517
 20
-155.2797028516423
 30
0.0
 40
91.44
 41
120.0
 46
0.0
 71
     7
 72
     1
  1
{\fＭＳ ゴシック|b0|i0|c128|p49;11}
 11
6.123031769111886E-17
 21
1.0
 31
0.0
 73
     1
 44
1.0
  0
MTEXT
  5
30E
330
1F
100
AcDbEntity
  8
0-B_寸法
  6
Continuous
 62
     7
370
   211
100
AcDbMText
 10
-1133.081839369517
 20
-527.2795197461735
 30
0.0
 40
91.44
 41
120.0
 46
0.0
 71
     7
 72
     1
  1
{\fＭＳ ゴシック|b0|i0|c128|p49;10}
 11
6.123031769111886E-17
 21
1.0
 31
0.0
 73
     1
 44
1.0
  0
MTEXT
  5
30F
330
1F
100
AcDbEntity
  8
0-B_寸法
  6
Continuous
 62
     7
370
   211
100
AcDbMText
 10
-983.0818393695174
 20
-287.2799453426686
 30
0.0
 40
91.44
 41
60.0
 46
0.0
 71
     7
 72
     1
  1
{\fＭＳ ゴシック|b0|i0|c128|p49;6}
 11
6.123031769111886E-17
 21
1.0
 31
0.0
 73
     1
 44
1.0
  0
LINE
  5
310
330
1F
100
AcDbEntity
  8
0-0_補助線
  6
JWW_HOJO
 62
   120
370
     5
100
AcDbLine
 10
-2672.081058019546
 20
-3158.999826765731
 30
0.0
 11
-2672.081736787721
 21
141.0005592140013
 31
0.0
  0
LINE
  5
311
330
1F
100
AcDbEntity
  8
0-1_通り芯
  6
JWW_CENTER1
 62
   120
370
     5
100
AcDbLine
 10
-1709.081856293863
 20
-3259.136325239367
 30
0.0
 11
-1709.081856293863
 21
141.0005592140013
 31
0.0
  0
LINE
  5
312
330
1F
100
AcDbEntity
  8
0-0_補助線
  6
JWW_HOJO
 62
   120
370
     5
100
AcDbLine
 10
-908.0811432704508
 20
-3158.999826765731
 30
0.0
 11
-908.0818220386229
 21
141.0005592140013
 31
0.0
  0
LINE
  5
313
330
1F
100
AcDbEntity
  8
0-0_補助線
  6
JWW_HOJO
 62
   120
370
     5
100
AcDbLine
 10
-1118.081266736095
 20
-3158.999826765731
 30
0.0
 11
-1118.081945504268
 21
141.0005592140013
 31
0.0
  0
LINE
  5
314
330
1F
100
AcDbEntity
  8
0-0_補助線
  6
JWW_HOJO
 62
   120
370
     5
100
AcDbLine
 10
-728.0804880801261
 20
-3158.999826765731
 30
0.0
 11
-728.0811668482983
 21
141.0005592140013
 31
0.0
  0
LINE
  5
315
330
1F
100
AcDbEntity
  8
0-0_補助線
  6
JWW_HOJO
 62
   120
370
     5
100
AcDbLine
 10
-548.0810580195148
 20
-3158.999826792122
 30
0.0
 11
-548.081736787687
 21
141.0005592140013
 31
0.0
  0
LINE
  5
316
330
1F
100
AcDbEntity
  8
0-0_補助線
  6
JWW_HOJO
 62
   120
370
     5
100
AcDbLine
 10
-2312.081091392884
 20
-3158.999826765731
 30
0.0
 11
-2312.08177016106
 21
141.0005592140013
 31
0.0
  0
MTEXT
  5
317
330
1F
100
AcDbEntity
  8
0-A_文字
  6
Continuous
 62
     7
370
     9
100
AcDbMText
 10
-2732.598978650824
 20
189.2882300391127
 30
0.0
 40
91.43999999999998
 41
1440.0
 46
0.0
 71
     7
 72
     1
  1
{\fＭＳ ゴシック|b0|i0|c128|p49;　[３方枠＋床直付レール]}
 73
     1
 44
1.0
  0
LINE
  5
318
330
1F
100
AcDbEntity
  8
0-0_補助線
  6
JWW_HOJO
 62
   120
370
     5
100
AcDbLine
 10
-2672.081736787721
 20
141.0005592140013
 30
0.0
 11
-548.0817367876862
 21
141.0005592140013
 31
0.0
  0
LINE
  5
319
330
1F
100
AcDbEntity
  8
0-7_金物
  6
Continuous
 62
     7
370
     9
100
AcDbLine
 10
-1700.081425748571
 20
-3018.253619622043
 30
0.0
 11
-1700.081425748571
 21
-3081.600220221441
 31
0.0
  0
LINE
  5
31A
330
1F
100
AcDbEntity
  8
0-7_金物
  6
Continuous
 62
     7
370
     9
100
AcDbLine
 10
-1718.081188206343
 20
-3018.253619622043
 30
0.0
 11
-1718.081188206343
 21
-3081.600220221441
 31
0.0
  0
LINE
  5
31B
330
1F
100
AcDbEntity
  8
0-7_金物
  6
Continuous
 62
     7
370
     9
100
AcDbLine
 10
-1700.081425748571
 20
-3081.600220221441
 30
0.0
 11
-1718.081188206343
 21
-3081.600220221441
 31
0.0
  0
MTEXT
  5
31C
330
1F
100
AcDbEntity
  8
0-A_文字
  6
Continuous
 62
     7
370
     9
100
AcDbMText
 10
-2732.598978650828
 20
337.8084952065569
 30
0.0
 40
91.44
 41
600.0
 46
0.0
 71
     7
 72
     1
  1
{\fＭＳ ゴシック|b0|i0|c128|p49;■縦断面図}
 73
     1
 44
1.0
  0
MTEXT
  5
31D
330
1F
100
AcDbEntity
  8
0-B_寸法
  6
Continuous
 62
     7
370
   211
100
AcDbMText
 10
-2687.081856293857
 20
-2123.280672815748
 30
0.0
 40
91.43999999999997
 41
780.0
 46
0.0
 71
     7
 72
     1
  1
{\fＭＳ ゴシック|b0|i0|c128|p49;ＲＯＨ＝2,356}
 11
6.123031769111886E-17
 21
1.0
 31
0.0
 73
     1
 44
1.0
  0
MTEXT
  5
31E
330
1F
100
AcDbEntity
  8
0-B_寸法
  6
Continuous
 62
     7
370
     0
100
AcDbMText
 10
-923.0812487132852
 20
-2063.280672815748
 30
0.0
 40
91.43999999999997
 41
660.0
 46
0.0
 71
     7
 72
     1
  1
{\fＭＳ ゴシック|b0|i0|c128|p49;ＤＨ＝2,284}
 11
6.123031769111886E-17
 21
1.0
 31
0.0
 73
     1
 44
1.0
  0
MTEXT
  5
31F
330
1F
100
AcDbEntity
  8
0-B_寸法
  6
Continuous
 62
     7
370
     0
100
AcDbMText
 10
-743.0805935229673
 20
-2063.280672815748
 30
0.0
 40
91.43999999999997
 41
660.0
 46
0.0
 71
     7
 72
     1
  1
{\fＭＳ ゴシック|b0|i0|c128|p49;枠内＝2,298}
 11
6.123031769111886E-17
 21
1.0
 31
0.0
 73
     1
 44
1.0
  0
MTEXT
  5
320
330
1F
100
AcDbEntity
  8
0-B_寸法
  6
Continuous
 62
     7
370
     0
100
AcDbMText
 10
-563.0826481012903
 20
-2063.280672815748
 30
0.0
 40
91.43999999999997
 41
660.0
 46
0.0
 71
     7
 72
     1
  1
{\fＭＳ ゴシック|b0|i0|c128|p49;枠外＝2,339}
 11
6.123031769111886E-17
 21
1.0
 31
0.0
 73
     1
 44
1.0
  0
MTEXT
  5
321
330
1F
100
AcDbEntity
  8
0-A_文字
  6
Continuous
 62
     7
370
     0
100
AcDbMText
 10
-2672.081856293856
 20
-3402.550734200589
 30
0.0
 40
68.58000000000001
 41
1395.0
 46
0.0
 71
     7
 72
     1
  1
{\fＭＳ ゴシック|b0|i0|c128|p49;※ 扉厚（　）内はルーバーの場合}
 73
     1
 44
1.0
  0
LINE
  5
322
330
1F
100
AcDbEntity
  8
0-3_仕上げ
  6
Continuous
 62
   120
370
     5
100
AcDbLine
 10
-1484.081848028677
 20
-194.8544499583386
 30
0.0
 11
-1484.081848028677
 21
-14.85444995833817
 31
0.0
  0
LINE
  5
323
330
1F
100
AcDbEntity
  8
0-C_ハッチ
  6
JWW_DASHED1
 62
   120
370
     5
100
AcDbLine
 10
-1484.08184802867
 20
-19.51297745900987
 30
0.0
 11
-1409.081848028672
 21
55.48702254098416
 31
0.0
  0
LINE
  5
324
330
1F
100
AcDbEntity
  8
0-C_ハッチ
  6
JWW_DASHED1
 62
   120
370
     5
100
AcDbLine
 10
-1484.081848028667
 20
-61.9393843302052
 30
0.0
 11
-1409.081848028668
 21
13.06061566978926
 31
0.0
  0
LINE
  5
325
330
1F
100
AcDbEntity
  8
0-C_ハッチ
  6
JWW_DASHED1
 62
   120
370
     5
100
AcDbLine
 10
-1484.081848028687
 20
-104.3657912013698
 30
0.0
 11
-1409.081848028672
 21
-29.36579120135875
 31
0.0
  0
LINE
  5
326
330
1F
100
AcDbEntity
  8
0-C_ハッチ
  6
JWW_DASHED1
 62
   120
370
     5
100
AcDbLine
 10
-1484.08184802868
 20
-146.7921980725677
 30
0.0
 11
-1409.081848028668
 21
-71.79219807255535
 31
0.0
  0
LINE
  5
327
330
1F
100
AcDbEntity
  8
0-C_ハッチ
  6
JWW_DASHED1
 62
   120
370
     5
100
AcDbLine
 10
-1484.08184802868
 20
-189.2186049437635
 30
0.0
 11
-1409.081848028678
 21
-114.2186049437677
 31
0.0
  0
LINE
  5
328
330
1F
100
AcDbEntity
  8
0-C_ハッチ
  6
JWW_DASHED1
 62
   120
370
     5
100
AcDbLine
 10
-1477.437207152881
 20
-225.0003709391646
 30
0.0
 11
-1409.081848028678
 21
-156.6450118149643
 31
0.0
  0
LINE
  5
329
330
1F
100
AcDbEntity
  8
0-C_ハッチ
  6
JWW_DASHED1
 62
   120
370
     5
100
AcDbLine
 10
-1435.010800281681
 20
-225.0003709391659
 30
0.0
 11
-1409.081848028672
 21
-199.0714186861609
 31
0.0
  0
LINE
  5
32A
330
1F
100
AcDbEntity
  8
0-3_仕上げ
  6
Continuous
 62
    40
370
    15
100
AcDbLine
 10
-1409.081848028675
 20
-225.0003709391638
 30
0.0
 11
-1484.081848028677
 21
-225.0003709391638
 31
0.0
  0
LINE
  5
32B
330
1F
100
AcDbEntity
  8
0-3_仕上げ
  6
Continuous
 62
   120
370
     5
100
AcDbLine
 10
-1484.081848028677
 20
51.14536693619385
 30
0.0
 11
-1904.081848028677
 21
-128.8546330638066
 31
0.0
  0
LINE
  5
32C
330
1F
100
AcDbEntity
  8
0-3_仕上げ
  6
Continuous
 62
   120
370
     5
100
AcDbLine
 10
-1904.081848028677
 20
51.14536693619385
 30
0.0
 11
-1904.081848028677
 21
-128.8546330638066
 31
0.0
  0
LINE
  5
32D
330
1F
100
AcDbEntity
  8
0-3_仕上げ
  6
Continuous
 62
   120
370
     5
100
AcDbLine
 10
-1484.081848028677
 20
51.14536693619385
 30
0.0
 11
-1904.081848028677
 21
51.14536693619385
 31
0.0
  0
LINE
  5
32E
330
1F
100
AcDbEntity
  8
0-3_仕上げ
  6
Continuous
 62
   120
370
     5
100
AcDbLine
 10
-1904.081848028677
 20
-128.8546330638066
 30
0.0
 11
-1484.081848028677
 21
-128.8546330638066
 31
0.0
  0
LINE
  5
32F
330
1F
100
AcDbEntity
  8
0-3_仕上げ
  6
Continuous
 62
    40
370
    15
100
AcDbLine
 10
-1484.081848028677
 20
-225.0003709391638
 30
0.0
 11
-1484.081848028677
 21
141.0005592140013
 31
0.0
  0
LINE
  5
330
330
1F
100
AcDbEntity
  8
0-3_仕上げ
  6
Continuous
 62
    40
370
    15
100
AcDbLine
 10
-1409.081848028675
 20
-225.0003709391638
 30
0.0
 11
-1409.081848028675
 21
141.0005592140013
 31
0.0
  0
LINE
  5
331
330
1F
100
AcDbEntity
  8
0-C_ハッチ
  6
JWW_DASHED1
 62
   120
370
     5
100
AcDbLine
 10
-1484.081848028667
 20
22.9134294121927
 30
0.0
 11
-1409.081848028675
 21
97.91342941218424
 31
0.0
  0
LINE
  5
332
330
1F
100
AcDbEntity
  8
0-C_ハッチ
  6
JWW_DASHED1
 62
   120
370
     5
100
AcDbLine
 10
-1484.08184802867
 20
65.33983628339016
 30
0.0
 11
-1408.751486563364
 21
140.6701977486898
 31
0.0
  0
LINE
  5
333
330
1F
100
AcDbEntity
  8
0-4_枠
  6
Continuous
 62
   120
370
     5
100
AcDbLine
 10
-1433.081856293863
 20
-3087.00022022144
 30
0.0
 11
-1433.081856293863
 21
-225.0003709391638
 31
0.0
  0
MTEXT
  5
334
330
1F
100
AcDbEntity
  8
1-E
  6
Continuous
 62
     7
370
     9
100
AcDbMText
 10
4157.323510391321
 20
-1370.328152590798
 30
0.0
 40
91.44
 41
480.0
 46
0.0
 71
     7
 72
     1
  1
{\fＭＳ ゴシック|b0|i0|c128|p49;竪枠前面}
 73
     1
 44
1.0
  0
MTEXT
  5
335
330
1F
100
AcDbEntity
  8
1-E
  6
Continuous
 62
     7
370
     9
100
AcDbMText
 10
4217.323510391321
 20
-1571.638677805279
 30
0.0
 40
91.44
 41
360.0
 46
0.0
 71
     7
 72
     1
  1
{\fＭＳ ゴシック|b0|i0|c128|p49;室内側}
 73
     1
 44
1.0
  0
LINE
  5
336
330
1F
100
AcDbEntity
  8
1-E
  6
Continuous
 62
     7
370
     9
100
AcDbLine
 10
4149.546151111137
 20
-1594.498665250351
 30
0.0
 11
4149.546151111137
 21
-1400.218690360206
 31
0.0
  0
LINE
  5
337
330
1F
100
AcDbEntity
  8
1-E
  6
Continuous
 62
     7
370
     9
100
AcDbLine
 10
4645.100869671504
 20
-1594.498665250351
 30
0.0
 11
4149.546151111137
 21
-1594.498665250351
 31
0.0
  0
LINE
  5
338
330
1F
100
AcDbEntity
  8
1-E
  6
Continuous
 62
     7
370
     9
100
AcDbLine
 10
4645.100869671504
 20
-1400.218690360206
 30
0.0
 11
4645.100869671504
 21
-1594.498665250351
 31
0.0
  0
LINE
  5
339
330
1F
100
AcDbEntity
  8
1-E
  6
Continuous
 62
     7
370
     9
100
AcDbLine
 10
4149.546151111137
 20
-1400.218690360206
 30
0.0
 11
4645.100869671504
 21
-1400.218690360206
 31
0.0
  0
LINE
  5
33A
330
1F
100
AcDbEntity
  8
1-E
  6
Continuous
 62
    92
370
    13
100
AcDbLine
 10
2681.560860719482
 20
-2393.558414175866
 30
0.0
 11
2681.560860719482
 21
-574.0554330298662
 31
0.0
  0
LINE
  5
33B
330
1F
100
AcDbEntity
  8
1-E
  6
Continuous
 62
    92
370
    13
100
AcDbLine
 10
4061.560860719485
 20
-2393.558414175866
 30
0.0
 11
4061.560860719485
 21
-574.0554330298662
 31
0.0
  0
LINE
  5
33C
330
1F
100
AcDbEntity
  8
1-E
  6
JWW_DASHED2
 62
     7
370
     9
100
AcDbLine
 10
3169.059487428473
 20
-574.0554330298662
 30
0.0
 11
3169.059487428473
 21
-2221.058414175865
 31
0.0
  0
LINE
  5
33D
330
1F
100
AcDbEntity
  8
1-E
  6
JWW_CENTER1
 62
   120
370
     5
100
AcDbLine
 10
3371.560860719485
 20
-2713.79080447265
 30
0.0
 11
3371.560860719485
 21
-574.0554330298662
 31
0.0
  0
LINE
  5
33E
330
1F
100
AcDbEntity
  8
1-E
  6
Continuous
 62
   120
370
     5
100
AcDbLine
 10
3086.560860719489
 20
-2128.058414175862
 30
0.0
 11
3497.560860719473
 21
-2128.058414175862
 31
0.0
  0
LWPOLYLINE
  5
33F
330
1F
100
AcDbEntity
  8
1-E
  6
Continuous
 62
     7
370
     9
100
AcDbPolyline
 90
        4
 70
     1
 43
3.0
 10
3088.060860719489
 20
-2128.058414175862
 42
0.4142135623731
 10
3086.560860719489
 20
-2126.558414175862
 42
0.4142135623731
 10
3085.060860719489
 20
-2128.058414175862
 42
0.4142135623731
 10
3086.560860719489
 20
-2129.558414175862
 42
0.4142135623731
  0
LWPOLYLINE
  5
340
330
1F
100
AcDbEntity
  8
1-E
  6
Continuous
 62
     7
370
     9
100
AcDbPolyline
 90
        4
 70
     1
 43
3.0
 10
3499.060860719473
 20
-2128.058414175862
 42
0.4142135623731
 10
3497.560860719473
 20
-2126.558414175862
 42
0.4142135623731
 10
3496.060860719473
 20
-2128.058414175862
 42
0.4142135623731
 10
3497.560860719473
 20
-2129.558414175862
 42
0.4142135623731
  0
LINE
  5
341
330
1F
100
AcDbEntity
  8
1-E
  6
Continuous
 62
   120
370
     5
100
AcDbLine
 10
3086.560860719489
 20
-2128.058414175862
 30
0.0
 11
3086.560860719489
 21
-2278.058414175862
 31
0.0
  0
LINE
  5
342
330
1F
100
AcDbEntity
  8
1-E
  6
Continuous
 62
   120
370
     5
100
AcDbLine
 10
3497.560860719473
 20
-2128.058414175862
 30
0.0
 11
3497.560860719473
 21
-2278.058414175862
 31
0.0
  0
MTEXT
  5
343
330
1F
100
AcDbEntity
  8
1-E
  6
Continuous
 62
     7
370
   211
100
AcDbMText
 10
3172.060860719479
 20
-2127.338414175862
 30
0.0
 40
91.44
 41
240.0
 46
0.0
 71
     7
 72
     1
  1
{\fＭＳ ゴシック|b0|i0|c128|p49;27.4}
 73
     1
 44
1.0
  0
LINE
  5
344
330
1F
100
AcDbEntity
  8
1-E
  6
Continuous
 62
   120
370
     5
100
AcDbLine
 10
3497.560860719473
 20
-2128.058414175862
 30
0.0
 11
4061.560860719485
 21
-2128.058414175862
 31
0.0
  0
LWPOLYLINE
  5
345
330
1F
100
AcDbEntity
  8
1-E
  6
Continuous
 62
     7
370
     9
100
AcDbPolyline
 90
        4
 70
     1
 43
3.0
 10
4063.060860719486
 20
-2128.058414175862
 42
0.4142135623731
 10
4061.560860719485
 20
-2126.558414175862
 42
0.4142135623731
 10
4060.060860719485
 20
-2128.058414175862
 42
0.4142135623731
 10
4061.560860719485
 20
-2129.558414175862
 42
0.4142135623731
  0
LINE
  5
346
330
1F
100
AcDbEntity
  8
1-E
  6
Continuous
 62
   120
370
     5
100
AcDbLine
 10
4061.560860719485
 20
-2128.058414175862
 30
0.0
 11
4061.560860719485
 21
-2278.058414175862
 31
0.0
  0
MTEXT
  5
347
330
1F
100
AcDbEntity
  8
1-E
  6
Continuous
 62
     7
370
   211
100
AcDbMText
 10
3659.560860719479
 20
-2127.338414175862
 30
0.0
 40
91.44
 41
240.0
 46
0.0
 71
     7
 72
     1
  1
{\fＭＳ ゴシック|b0|i0|c128|p49;37.5}
 73
     1
 44
1.0
  0
LINE
  5
348
330
1F
100
AcDbEntity
  8
1-E
  6
Continuous
 62
    40
370
    15
100
AcDbLine
 10
4568.087533354165
 20
-2393.558414175866
 30
0.0
 11
2483.087533354162
 21
-2393.558414175866
 31
0.0
  0
LINE
  5
349
330
1F
100
AcDbEntity
  8
1-E
  6
Continuous
 62
    40
370
    15
100
AcDbLine
 10
2483.087533354162
 20
-2573.558358501909
 30
0.0
 11
4568.087533354165
 21
-2573.558358501909
 31
0.0
  0
LINE
  5
34A
330
1F
100
AcDbEntity
  8
1-E
  6
Continuous
 62
     7
370
     9
100
AcDbLine
 10
2483.087533354162
 20
-2513.558067760111
 30
0.0
 11
4568.087533354165
 21
-2513.558067760111
 31
0.0
  0
LINE
  5
34B
330
1F
100
AcDbEntity
  8
1-E
  6
Continuous
 62
     7
370
     9
100
AcDbLine
 10
2483.087533354162
 20
-2483.558154364049
 30
0.0
 11
4568.087533354165
 21
-2483.558154364049
 31
0.0
  0
LINE
  5
34C
330
1F
100
AcDbEntity
  8
1-E
  6
Continuous
 62
     7
370
     9
100
AcDbLine
 10
2483.087533354162
 20
-2543.558445105851
 30
0.0
 11
4568.087533354165
 21
-2543.558445105851
 31
0.0
  0
LINE
  5
34D
330
1F
100
AcDbEntity
  8
1-E
  6
Continuous
 62
     7
370
     9
100
AcDbLine
 10
2483.087533354162
 20
-2453.558240967991
 30
0.0
 11
4568.087533354165
 21
-2453.558240967991
 31
0.0
  0
LINE
  5
34E
330
1F
100
AcDbEntity
  8
1-E
  6
Continuous
 62
     7
370
     9
100
AcDbLine
 10
2483.087533354162
 20
-2423.557863622257
 30
0.0
 11
4568.087533354165
 21
-2423.557863622257
 31
0.0
  0
LINE
  5
34F
330
1F
100
AcDbEntity
  8
1-E
  6
JWW_DASHED2
 62
     7
370
     9
100
AcDbLine
 10
3574.05948742847
 20
-574.0554330298662
 30
0.0
 11
3574.05948742847
 21
-2083.058414175862
 31
0.0
  0
LINE
  5
350
330
1F
100
AcDbEntity
  8
1-E
  6
JWW_DASHED2
 62
     7
370
     9
100
AcDbLine
 10
3169.062234010501
 20
-2221.058414175865
 30
0.0
 11
3452.560860719473
 21
-2221.058414175865
 31
0.0
  0
LINE
  5
351
330
1F
100
AcDbEntity
  8
1-E
  6
Continuous
 62
   120
370
     5
100
AcDbLine
 10
2681.560860719482
 20
-853.731491013221
 30
0.0
 11
4061.560860719485
 21
-853.731491013221
 31
0.0
  0
LWPOLYLINE
  5
352
330
1F
100
AcDbEntity
  8
1-E
  6
Continuous
 62
     7
370
     9
100
AcDbPolyline
 90
        4
 70
     1
 43
3.0
 10
2683.060860719482
 20
-853.731491013221
 42
0.4142135623731
 10
2681.560860719482
 20
-852.231491013221
 42
0.4142135623731
 10
2680.060860719482
 20
-853.731491013221
 42
0.4142135623731
 10
2681.560860719482
 20
-855.231491013221
 42
0.4142135623731
  0
LWPOLYLINE
  5
353
330
1F
100
AcDbEntity
  8
1-E
  6
Continuous
 62
     7
370
     9
100
AcDbPolyline
 90
        4
 70
     1
 43
3.0
 10
4063.060860719486
 20
-853.731491013221
 42
0.4142135623731
 10
4061.560860719485
 20
-852.231491013221
 42
0.4142135623731
 10
4060.060860719485
 20
-853.731491013221
 42
0.4142135623731
 10
4061.560860719485
 20
-855.231491013221
 42
0.4142135623731
  0
MTEXT
  5
354
330
1F
100
AcDbEntity
  8
1-E
  6
Continuous
 62
     7
370
   211
100
AcDbMText
 10
3311.560860719484
 20
-853.011491013221
 30
0.0
 40
91.44
 41
120.0
 46
0.0
 71
     7
 72
     1
  1
{\fＭＳ ゴシック|b0|i0|c128|p49;92}
 73
     1
 44
1.0
  0
LINE
  5
355
330
1F
100
AcDbEntity
  8
0-A_文字
  6
Continuous
 62
    92
370
    13
100
AcDbLine
 10
-5659.999495325861
 20
3730.000181455872
 30
0.0
 11
-5659.999495325861
 21
4000.000181455872
 31
0.0
  0
LINE
  5
356
330
1F
100
AcDbEntity
  8
0-A_文字
  6
Continuous
 62
    92
370
    13
100
AcDbLine
 10
-5659.999495325861
 20
3730.000181455872
 30
0.0
 11
-2214.285714285711
 21
3730.000181455872
 31
0.0
  0
LINE
  5
357
330
1F
100
AcDbEntity
  8
0-A_文字
  6
Continuous
 62
    92
370
    13
100
AcDbLine
 10
-5659.999495325861
 20
4000.000181455872
 30
0.0
 11
-2214.285714285711
 21
4000.000181455872
 31
0.0
  0
LINE
  5
358
330
1F
100
AcDbEntity
  8
0-A_文字
  6
Continuous
 62
    92
370
    13
100
AcDbLine
 10
-2214.285714285711
 20
3730.000181455872
 30
0.0
 11
-2214.285714285711
 21
4000.000181455872
 31
0.0
  0
MTEXT
  5
359
330
1F
100
AcDbEntity
  8
0-A_文字
  6
Continuous
 62
    92
370
    13
100
AcDbMText
 10
-5592.499495325861
 20
3758.959004985284
 30
0.0
 40
147.9176470588235
 41
3300.0
 46
0.0
 71
     7
 72
     1
  1
{\fＭＳ ゴシック|b0|i0|c128|p49;クローゼットドア　調整枠　間口６尺}
 73
     1
 44
1.0
  0
MTEXT
  5
35A
330
1F
100
AcDbEntity
  8
F-A_文字
  6
Continuous
 62
     7
370
     0
100
AcDbMText
 10
4439.917891251784
 20
-3887.143854850754
 30
0.0
 40
45.72
 41
240.0
 46
0.0
 71
     7
 72
     1
  1
{\fＭＳ ゴシック|b0|i0|c128|p49;ＤＡＴＥ}
 73
     1
 44
1.0
  0
MTEXT
  5
35B
330
1F
100
AcDbEntity
  8
F-A_文字
  6
Continuous
 62
     7
370
     0
100
AcDbMText
 10
4439.917891251784
 20
-4087.143857410839
 30
0.0
 40
45.72
 41
180.0
 46
0.0
 71
     7
 72
     1
  1
{\fＭＳ ゴシック|b0|i0|c128|p49;ＮＯ．}
 73
     1
 44
1.0
  0
MTEXT
  5
35C
330
1F
100
AcDbEntity
  8
F-A_文字
  6
Continuous
 62
     7
370
     0
100
AcDbMText
 10
2939.917396372138
 20
-3887.142460617774
 30
0.0
 40
45.72
 41
300.0
 46
0.0
 71
     7
 72
     1
  1
{\fＭＳ ゴシック|b0|i0|c128|p49;ＳＣＡＬＥ}
 73
     1
 44
1.0
  0
MTEXT
  5
35D
330
1F
100
AcDbEntity
  8
F-A_文字
  6
Continuous
 62
     7
370
     0
100
AcDbMText
 10
2939.917396372138
 20
-4087.14246317786
 30
0.0
 40
45.72
 41
240.0
 46
0.0
 71
     7
 72
     1
  1
{\fＭＳ ゴシック|b0|i0|c128|p49;ＦＩＬＥ}
 73
     1
 44
1.0
  0
MTEXT
  5
35E
330
1F
100
AcDbEntity
  8
F-A_文字
  6
Continuous
 62
     7
370
     0
100
AcDbMText
 10
1604.917396372138
 20
-4164.281754523929
 30
0.0
 40
101.44125
 41
1065.0
 46
0.0
 71
     7
 72
     1
  1
{\fＭＳ ゴシック|b0|i0|c128|p49;ウッドワン・・・}
 73
     1
 44
1.0
  0
MTEXT
  5
35F
330
1F
100
AcDbEntity
  8
F-A_文字
  6
Continuous
 62
     7
370
     0
100
AcDbMText
 10
1394.917396372138
 20
-4096.140669266149
 30
0.0
 40
45.72
 41
120.0
 46
0.0
 71
     7
 72
     1
  1
{\fＭＳ ゴシック|b0|i0|c128|p49;株式}
 73
     1
 44
1.0
  0
MTEXT
  5
360
330
1F
100
AcDbEntity
  8
F-A_文字
  6
Continuous
 62
     7
370
     0
100
AcDbMText
 10
1394.917396372138
 20
-4168.140669266187
 30
0.0
 40
45.72
 41
120.0
 46
0.0
 71
     7
 72
     1
  1
{\fＭＳ ゴシック|b0|i0|c128|p49;会社}
 73
     1
 44
1.0
  0
MTEXT
  5
361
330
1F
100
AcDbEntity
  8
F-A_文字
  6
Continuous
 62
     7
370
     0
100
AcDbMText
 10
99.91854284331623
 20
-3887.139820871936
 30
0.0
 40
45.72
 41
180.0
 46
0.0
 71
     7
 72
     1
  1
{\fＭＳ ゴシック|b0|i0|c128|p49;図面名}
 73
     1
 44
1.0
  0
LINE
  5
362
330
1F
100
AcDbEntity
  8
F-0_補助線
  6
JWW_HOJO
 62
     7
370
     9
100
AcDbLine
 10
509.9185840832865
 20
-3795.000003092998
 30
0.0
 11
509.9185840832865
 21
-4195.000008247994
 31
0.0
  0
LINE
  5
363
330
1F
100
AcDbEntity
  8
F-1_枠
  6
Continuous
 62
   200
370
    20
100
AcDbLine
 10
4349.917891251784
 20
-3795.000003092998
 30
0.0
 11
4349.917891251784
 21
-4195.000008247994
 31
0.0
  0
LINE
  5
364
330
1F
100
AcDbEntity
  8
F-1_枠
  6
Continuous
 62
   200
370
    20
100
AcDbLine
 10
2849.917396372138
 20
-3795.000003092998
 30
0.0
 11
2849.917396372138
 21
-4195.000008247994
 31
0.0
  0
LINE
  5
365
330
1F
100
AcDbEntity
  8
F-1_枠
  6
Continuous
 62
   200
370
    20
100
AcDbLine
 10
9.918542843316231
 20
-3795.000003092998
 30
0.0
 11
9.918542843316231
 21
-4195.000008247994
 31
0.0
  0
LINE
  5
366
330
1F
100
AcDbEntity
  8
F-0_補助線
  6
JWW_HOJO
 62
     7
370
     9
100
AcDbLine
 10
2939.917396372138
 20
-3795.000003092998
 30
0.0
 11
2939.917396372138
 21
-4195.000008247994
 31
0.0
  0
LINE
  5
367
330
1F
100
AcDbEntity
  8
F-0_補助線
  6
JWW_HOJO
 62
     7
370
     9
100
AcDbLine
 10
99.91854284331623
 20
-3795.000003092998
 30
0.0
 11
99.91854284331623
 21
-4195.000008247994
 31
0.0
  0
LINE
  5
368
330
1F
100
AcDbEntity
  8
F-0_補助線
  6
JWW_HOJO
 62
     7
370
     9
100
AcDbLine
 10
4439.917891251784
 20
-3795.000003092998
 30
0.0
 11
4439.917891251784
 21
-4195.000008247994
 31
0.0
  0
LINE
  5
369
330
1F
100
AcDbEntity
  8
F-0_補助線
  6
JWW_HOJO
 62
     7
370
     9
100
AcDbLine
 10
-5087.628710189611
 20
-3795.000003092999
 30
0.0
 11
-5087.628710189611
 21
-4205.000164959882
 31
0.0
  0
LINE
  5
36A
330
1F
100
AcDbEntity
  8
F-0_補助線
  6
JWW_HOJO
 62
     7
370
     9
100
AcDbLine
 10
-50.08145715668377
 20
-3795.000003092998
 30
0.0
 11
-50.08145715668377
 21
-4195.000008247994
 31
0.0
  0
LINE
  5
36B
330
1F
100
AcDbEntity
  8
F-0_補助線
  6
JWW_HOJO
 62
     7
370
     9
100
AcDbLine
 10
3764.917643811962
 20
-3795.000003092998
 30
0.0
 11
3764.917643811962
 21
-4195.000008247994
 31
0.0
  0
MTEXT
  5
36C
330
1F
100
AcDbEntity
  8
F-A_文字
  6
Continuous
 62
     7
370
     0
100
AcDbMText
 10
3689.917643811962
 20
-3946.903115907308
 30
0.0
 40
76.19999999999999
 41
150.0
 46
0.0
 71
     7
 72
     1
  1
{\fＭＳ ゴシック|b0|i0|c128|p49;1/5}
 73
     1
 44
1.0
  0
LINE
  5
36D
330
1F
100
AcDbEntity
  8
F-0_補助線
  6
JWW_HOJO
 62
     7
370
     9
100
AcDbLine
 10
1349.918584083287
 20
-3795.000003092998
 30
0.0
 11
1349.918584083287
 21
-4195.000008247994
 31
0.0
  0
LINE
  5
36E
330
1F
100
AcDbEntity
  8
F-0_補助線
  6
JWW_HOJO
 62
     7
370
     9
100
AcDbLine
 10
4889.917891251784
 20
-3795.000003092998
 30
0.0
 11
4889.917891251784
 21
-4195.000008247994
 31
0.0
  0
MTEXT
  5
36F
330
1F
100
AcDbEntity
  8
F-A_文字
  6
Continuous
 62
     7
370
     0
100
AcDbMText
 10
4889.917891251784
 20
-3945.570773120548
 30
0.0
 40
78.86699999999999
 41
517.5
 46
0.0
 71
     7
 72
     1
  1
{\fＭＳ ゴシック|b0|i0|c128|p49;2021.04.01}
 73
     1
 44
1.0
  0
MTEXT
  5
370
330
1F
100
AcDbEntity
  8
F-A_文字
  6
Continuous
 62
     7
370
     0
100
AcDbMText
 10
1349.918584083287
 20
-3945.948482732445
 30
0.0
 40
78.105
 41
615.0
 46
0.0
 71
     7
 72
     1
  1
{\fＭＳ ゴシック|b0|i0|c128|p49;建具納まり図}
 73
     1
 44
1.0
  0
MTEXT
  5
371
330
1F
100
AcDbEntity
  8
F-A_文字
  6
Continuous
 62
     7
370
     0
100
AcDbMText
 10
509.9185840832865
 20
-3956.425201962234
 30
0.0
 40
57.15
 41
675.0
 46
0.0
 71
     7
 72
     1
  1
{\fＭＳ ゴシック|b0|i0|c128|p49;ＰＩＮＯＥＡＲＴＨ}
 73
     1
 44
1.0
  0
MTEXT
  5
372
330
1F
100
AcDbEntity
  8
F-A_文字
  6
Continuous
 62
     7
370
     0
100
AcDbMText
 10
-5080.081323642279
 20
-4045.062971792676
 30
0.0
 40
79.87392857142851
 41
4402.5
 46
0.0
 71
     7
 72
     1
  1
{\fＭＳ ゴシック|b0|i0|c128|p49;ピノアース　クローゼットドア  調整枠　３方枠＋床直付けレール　枠外H2,339　枠外W1,645}
 73
     1
 44
1.0
  0
MTEXT
  5
373
330
1F
100
AcDbEntity
  8
F-A_文字
  6
Continuous
 62
     7
370
     9
100
AcDbMText
 10
5096.167700144057
 20
-4147.857012699985
 30
0.0
 40
74.295
 41
97.5
 46
0.0
 71
     7
 72
     1
  1
{\fＭＳ ゴシック|b0|i0|c128|p49;03}
 73
     1
 44
1.0
  0
ENDSEC
  0
SECTION
  2
OBJECTS
  0
DICTIONARY
  5
C
330
0
100
AcDbDictionary
281
     1
  3
ACAD_GROUP
350
D
  3
ACAD_LAYOUT
350
1A
  3
ACAD_MATERIAL
350
3B
  3
ACAD_MLEADERSTYLE
350
39D
  3
ACAD_MLINESTYLE
350
17
  3
ACAD_PLOTSETTINGS
350
19
  3
ACAD_PLOTSTYLENAME
350
E
  3
ACAD_TABLESTYLE
350
39C
  3
ACAD_VISUALSTYLE
350
2A
  0
DICTIONARY
  5
D
102
{ACAD_REACTORS
330
C
102
}
330
C
100
AcDbDictionary
281
     1
  0
DICTIONARY
  5
1A
102
{ACAD_REACTORS
330
C
102
}
330
C
100
AcDbDictionary
281
     1
  3
Layout1
350
1E
  3
Layout2
350
26
  3
Model
350
22
  0
DICTIONARY
  5
3B
102
{ACAD_REACTORS
330
C
102
}
330
C
100
AcDbDictionary
281
     1
  3
ByBlock
350
3D
  3
ByLayer
350
3C
  3
Global
350
3E
  0
DICTIONARY
  5
39D
102
{ACAD_REACTORS
330
C
102
}
330
C
100
AcDbDictionary
281
     1
  0
DICTIONARY
  5
17
102
{ACAD_REACTORS
330
C
102
}
330
C
100
AcDbDictionary
281
     1
  3
Standard
350
18
  0
DICTIONARY
  5
19
102
{ACAD_REACTORS
330
C
102
}
330
C
100
AcDbDictionary
281
     1
  0
ACDBDICTIONARYWDFLT
  5
E
102
{ACAD_REACTORS
330
C
102
}
330
C
100
AcDbDictionary
281
     1
  3
Normal
350
F
100
AcDbDictionaryWithDefault
340
F
  0
DICTIONARY
  5
39C
102
{ACAD_REACTORS
330
C
102
}
330
C
100
AcDbDictionary
281
     1
  0
DICTIONARY
  5
2A
102
{ACAD_REACTORS
330
C
102
}
330
C
100
AcDbDictionary
281
     1
  3
2dWireframe
350
2F
  3
3D Hidden
350
31
  3
3dWireframe
350
30
  3
Basic
350
32
  3
Brighten
350
36
  3
ColorChange
350
3A
  3
Conceptual
350
34
  3
Dim
350
35
  3
Facepattern
350
39
  3
Flat
350
2B
  3
FlatWithEdges
350
2C
  3
Gouraud
350
2D
  3
GouraudWithEdges
350
2E
  3
Linepattern
350
38
  3
Realistic
350
33
  3
Thicken
350
37
  0
LAYOUT
  5
1E
102
{ACAD_REACTORS
330
1A
102
}
330
1A
100
AcDbPlotSettings
  1

  2
none_device
  4

  6

 40
0.0
 41
0.0
 42
0.0
 43
0.0
 44
0.0
 45
0.0
 46
0.0
 47
0.0
 48
0.0
 49
0.0
140
0.0
141
0.0
142
1.0
143
1.0
 70
   688
 72
     0
 73
     0
 74
     5
  7

 75
    16
 76
     0
 77
     5
 78
   300
147
1.0
148
0.0
149
0.0
100
AcDbLayout
  1
Layout1
 70
     1
 71
     1
 10
0.0
 20
0.0
 11
420.0
 21
297.0
 12
0.0
 22
0.0
 32
0.0
 14
1.000000000000000E+20
 24
1.000000000000000E+20
 34
1.000000000000000E+20
 15
-1.000000000000000E+20
 25
-1.000000000000000E+20
 35
-1.000000000000000E+20
146
0.0
 13
0.0
 23
0.0
 33
0.0
 16
1.0
 26
0.0
 36
0.0
 17
0.0
 27
1.0
 37
0.0
 76
     0
330
1B
  0
LAYOUT
  5
26
102
{ACAD_REACTORS
330
1A
102
}
330
1A
100
AcDbPlotSettings
  1

  2
none_device
  4

  6

 40
0.0
 41
0.0
 42
0.0
 43
0.0
 44
0.0
 45
0.0
 46
0.0
 47
0.0
 48
0.0
 49
0.0
140
0.0
141
0.0
142
1.0
143
1.0
 70
   688
 72
     0
 73
     0
 74
     5
  7

 75
    16
 76
     0
 77
     5
 78
   300
147
1.0
148
0.0
149
0.0
100
AcDbLayout
  1
Layout2
 70
     1
 71
     2
 10
0.0
 20
0.0
 11
0.0
 21
0.0
 12
0.0
 22
0.0
 32
0.0
 14
0.0
 24
0.0
 34
0.0
 15
0.0
 25
0.0
 35
0.0
146
0.0
 13
0.0
 23
0.0
 33
0.0
 16
1.0
 26
0.0
 36
0.0
 17
0.0
 27
1.0
 37
0.0
 76
     0
330
23
  0
LAYOUT
  5
22
102
{ACAD_REACTORS
330
1A
102
}
330
1A
100
AcDbPlotSettings
  1

  2
none_device
  4

  6

 40
0.0
 41
0.0
 42
0.0
 43
0.0
 44
0.0
 45
0.0
 46
0.0
 47
0.0
 48
0.0
 49
0.0
140
0.0
141
0.0
142
1.0
143
1.0
 70
  1712
 72
     0
 73
     0
 74
     0
  7

 75
     0
 76
     0
 77
     5
 78
   300
147
1.0
148
0.0
149
0.0
100
AcDbLayout
  1
Model
 70
     1
 71
     0
 10
-6300.0
 20
-4455.0
 11
6300.0
 21
4455.0
 12
0.0
 22
0.0
 32
0.0
 14
-6300.0
 24
-4455.0
 34
0.0
 15
6300.0
 25
4455.0
 35
0.0
146
0.0
 13
0.0
 23
0.0
 33
0.0
 16
1.0
 26
0.0
 36
0.0
 17
0.0
 27
1.0
 37
0.0
 76
     0
330
1F
331
29
  0
MATERIAL
  5
3D
102
{ACAD_REACTORS
330
3B
102
}
330
3B
100
AcDbMaterial
  1
ByBlock
 72
     1
 94
      127
  0
MATERIAL
  5
3C
102
{ACAD_REACTORS
330
3B
102
}
330
3B
100
AcDbMaterial
  1
ByLayer
 72
     1
 94
      127
  0
MATERIAL
  5
3E
102
{ACAD_REACTORS
330
3B
102
}
330
3B
100
AcDbMaterial
  1
Global
 72
     1
 94
      127
  0
MLINESTYLE
  5
18
102
{ACAD_REACTORS
330
17
102
}
330
17
100
AcDbMlineStyle
  2
Standard
 70
     0
  3

 62
   256
 51
90.0
 52
90.0
 71
     2
 49
0.5
 62
   256
  6
BYLAYER
 49
-0.5
 62
   256
  6
BYLAYER
  0
ACDBPLACEHOLDER
  5
F
102
{ACAD_REACTORS
330
E
102
}
330
E
  0
VISUALSTYLE
  5
2F
102
{ACAD_REACTORS
330
2A
102
}
330
2A
100
AcDbVisualStyle
  2
2dWireframe
 70
     4
177
     2
291
     0
 71
     0
176
     1
 72
     2
176
     1
 73
     0
176
     1
 90
        0
176
     1
 40
-0.6
176
     1
 41
-30.0
176
     1
 62
     5
 63
     7
421
 16777215
176
     1
 74
     1
176
     1
 91
        4
176
     1
 64
     7
176
     1
 65
   257
176
     1
 75
     1
176
     1
175
     1
176
     1
 42
1.0
176
     1
 92
        0
176
     1
 66
   257
176
     1
 43
1.0
176
     1
 76
     1
176
     1
 77
     6
176
     1
 78
     2
176
     1
 67
     7
176
     1
 79
     5
176
     1
170
     0
176
     1
171
     0
176
     1
290
     0
176
     1
 93
        1
176
     1
 44
0.0
176
     1
173
     0
176
     1
  0
VISUALSTYLE
  5
31
102
{ACAD_REACTORS
330
2A
102
}
330
2A
100
AcDbVisualStyle
  2
3D Hidden
 70
     6
177
     2
291
     0
 71
     1
176
     1
 72
     2
176
     1
 73
     2
176
     1
 90
        0
176
     1
 40
-0.6
176
     1
 41
-30.0
176
     1
 62
     5
 63
     7
421
 16777215
176
     1
 74
     2
176
     1
 91
        2
176
     1
 64
     7
176
     1
 65
   257
176
     1
 75
     2
176
     1
175
     1
176
     1
 42
40.0
176
     1
 92
        0
176
     1
 66
   257
176
     1
 43
1.0
176
     1
 76
     1
176
     1
 77
     6
176
     1
 78
     2
176
     1
 67
     7
176
     1
 79
     3
176
     1
170
     0
176
     1
171
     0
176
     1
290
     0
176
     1
 93
        1
176
     1
 44
0.0
176
     1
173
     0
176
     1
  0
VISUALSTYLE
  5
30
102
{ACAD_REACTORS
330
2A
102
}
330
2A
100
AcDbVisualStyle
  2
3dWireframe
 70
     5
177
     2
291
     0
 71
     0
176
     1
 72
     2
176
     1
 73
     0
176
     1
 90
        0
176
     1
 40
-0.6
176
     1
 41
-30.0
176
     1
 62
     5
 63
     7
421
 16777215
176
     1
 74
     1
176
     1
 91
        4
176
     1
 64
     7
176
     1
 65
   257
176
     1
 75
     1
176
     1
175
     1
176
     1
 42
1.0
176
     1
 92
        0
176
     1
 66
   257
176
     1
 43
1.0
176
     1
 76
     1
176
     1
 77
     6
176
     1
 78
     2
176
     1
 67
     7
176
     1
 79
     5
176
     1
170
     0
176
     1
171
     0
176
     1
290
     0
176
     1
 93
        1
176
     1
 44
0.0
176
     1
173
     0
176
     1
  0
VISUALSTYLE
  5
32
102
{ACAD_REACTORS
330
2A
102
}
330
2A
100
AcDbVisualStyle
  2
Basic
 70
     7
177
     2
291
     1
 71
     1
176
     1
 72
     0
176
     1
 73
     1
176
     1
 90
        0
176
     1
 40
-0.6
176
     1
 41
-30.0
176
     1
 62
     5
 63
     7
421
 16777215
176
     1
 74
     0
176
     1
 91
        4
176
     1
 64
     7
176
     1
 65
   257
176
     1
 75
     1
176
     1
175
     1
176
     1
 42
1.0
176
     1
 92
        8
176
     1
 66
     7
176
     1
 43
1.0
176
     1
 76
     1
176
     1
 77
     6
176
     1
 78
     2
176
     1
 67
     7
176
     1
 79
     5
176
     1
170
     0
176
     1
171
     0
176
     1
290
     0
176
     1
 93
        1
176
     1
 44
0.0
176
     1
173
     0
176
     1
  0
VISUALSTYLE
  5
36
102
{ACAD_REACTORS
330
2A
102
}
330
2A
100
AcDbVisualStyle
  2
Brighten
 70
    12
177
     2
291
     1
 71
     2
176
     1
 72
     2
176
     1
 73
     0
176
     1
 90
        0
176
     1
 40
-0.6
176
     1
 41
-30.0
176
     1
 62
     5
 63
     7
421
 16777215
176
     1
 74
     1
176
     1
 91
        4
176
     1
 64
     7
176
     1
 65
   257
176
     1
 75
     1
176
     1
175
     1
176
     1
 42
1.0
176
     1
 92
        8
176
     1
 66
     7
176
     1
 43
1.0
176
     1
 76
     1
176
     1
 77
     6
176
     1
 78
     2
176
     1
 67
     7
176
     1
 79
     5
176
     1
170
     0
176
     1
171
     0
176
     1
290
     0
176
     1
 93
        1
176
     1
 44
50.0
176
     1
173
     0
176
     1
  0
VISUALSTYLE
  5
3A
102
{ACAD_REACTORS
330
2A
102
}
330
2A
100
AcDbVisualStyle
  2
ColorChange
 70
    16
177
     2
291
     1
 71
     2
176
     1
 72
     2
176
     1
 73
     3
176
     1
 90
        0
176
     1
 40
-0.6
176
     1
 41
-30.0
176
     1
 62
     5
 63
     8
421
  8421504
176
     1
 74
     1
176
     1
 91
        4
176
     1
 64
     7
176
     1
 65
   257
176
     1
 75
     1
176
     1
175
     1
176
     1
 42
1.0
176
     1
 92
        8
176
     1
 66
     8
424
  8421504
176
     1
 43
1.0
176
     1
 76
     1
176
     1
 77
     6
176
     1
 78
     2
176
     1
 67
     7
176
     1
 79
     5
176
     1
170
     0
176
     1
171
     0
176
     1
290
     0
176
     1
 93
        1
176
     1
 44
0.0
176
     1
173
     0
176
     1
  0
VISUALSTYLE
  5
34
102
{ACAD_REACTORS
330
2A
102
}
330
2A
100
AcDbVisualStyle
  2
Conceptual
 70
     9
177
     2
291
     0
 71
     3
176
     1
 72
     2
176
     1
 73
     0
176
     1
 90
        0
176
     1
 40
-0.6
176
     1
 41
-30.0
176
     1
 62
     5
 63
     7
421
 16777215
176
     1
 74
     2
176
     1
 91
        2
176
     1
 64
     7
176
     1
 65
   257
176
     1
 75
     1
176
     1
175
     1
176
     1
 42
40.0
176
     1
 92
        8
176
     1
 66
     7
176
     1
 43
1.0
176
     1
 76
     1
176
     1
 77
     6
176
     1
 78
     2
176
     1
 67
     7
176
     1
 79
     3
176
     1
170
     0
176
     1
171
     0
176
     1
290
     0
176
     1
 93
        1
176
     1
 44
0.0
176
     1
173
     0
176
     1
  0
VISUALSTYLE
  5
35
102
{ACAD_REACTORS
330
2A
102
}
330
2A
100
AcDbVisualStyle
  2
Dim
 70
    11
177
     2
291
     1
 71
     2
176
     1
 72
     2
176
     1
 73
     0
176
     1
 90
        0
176
     1
 40
-0.6
176
     1
 41
-30.0
176
     1
 62
     5
 63
     7
421
 16777215
176
     1
 74
     1
176
     1
 91
        4
176
     1
 64
     7
176
     1
 65
   257
176
     1
 75
     1
176
     1
175
     1
176
     1
 42
1.0
176
     1
 92
        8
176
     1
 66
     7
176
     1
 43
1.0
176
     1
 76
     1
176
     1
 77
     6
176
     1
 78
     2
176
     1
 67
     7
176
     1
 79
     5
176
     1
170
     0
176
     1
171
     0
176
     1
290
     0
176
     1
 93
        1
176
     1
 44
-50.0
176
     1
173
     0
176
     1
  0
VISUALSTYLE
  5
39
102
{ACAD_REACTORS
330
2A
102
}
330
2A
100
AcDbVisualStyle
  2
Facepattern
 70
    15
177
     2
291
     1
 71
     2
176
     1
 72
     2
176
     1
 73
     0
176
     1
 90
        0
176
     1
 40
-0.6
176
     1
 41
-30.0
176
     1
 62
     5
 63
     7
421
 16777215
176
     1
 74
     1
176
     1
 91
        4
176
     1
 64
     7
176
     1
 65
   257
176
     1
 75
     1
176
     1
175
     1
176
     1
 42
1.0
176
     1
 92
        8
176
     1
 66
     7
176
     1
 43
1.0
176
     1
 76
     1
176
     1
 77
     6
176
     1
 78
     2
176
     1
 67
     7
176
     1
 79
     5
176
     1
170
     0
176
     1
171
     0
176
     1
290
     0
176
     1
 93
        1
176
     1
 44
0.0
176
     1
173
     0
176
     1
  0
VISUALSTYLE
  5
2B
102
{ACAD_REACTORS
330
2A
102
}
330
2A
100
AcDbVisualStyle
  2
Flat
 70
     0
177
     2
291
     1
 71
     2
176
     1
 72
     1
176
     1
 73
     1
176
     1
 90
        2
176
     1
 40
-0.6
176
     1
 41
30.0
176
     1
 62
     5
 63
     7
421
 16777215
176
     1
 74
     0
176
     1
 91
        4
176
     1
 64
     7
176
     1
 65
   257
176
     1
 75
     1
176
     1
175
     1
176
     1
 42
1.0
176
     1
 92
        8
176
     1
 66
     7
176
     1
 43
1.0
176
     1
 76
     1
176
     1
 77
     6
176
     1
 78
     2
176
     1
 67
     7
176
     1
 79
     5
176
     1
170
     0
176
     1
171
     0
176
     1
290
     0
176
     1
 93
       13
176
     1
 44
0.0
176
     1
173
     0
176
     1
  0
VISUALSTYLE
  5
2C
102
{ACAD_REACTORS
330
2A
102
}
330
2A
100
AcDbVisualStyle
  2
FlatWithEdges
 70
     1
177
     2
291
     1
 71
     2
176
     1
 72
     1
176
     1
 73
     1
176
     1
 90
        2
176
     1
 40
-0.6
176
     1
 41
30.0
176
     1
 62
     5
 63
     7
421
 16777215
176
     1
 74
     1
176
     1
 91
        4
176
     1
 64
     7
176
     1
 65
   257
176
     1
 75
     1
176
     1
175
     1
176
     1
 42
1.0
176
     1
 92
        0
176
     1
 66
   257
176
     1
 43
1.0
176
     1
 76
     1
176
     1
 77
     6
176
     1
 78
     2
176
     1
 67
     7
176
     1
 79
     5
176
     1
170
     0
176
     1
171
     0
176
     1
290
     0
176
     1
 93
       13
176
     1
 44
0.0
176
     1
173
     0
176
     1
  0
VISUALSTYLE
  5
2D
102
{ACAD_REACTORS
330
2A
102
}
330
2A
100
AcDbVisualStyle
  2
Gouraud
 70
     2
177
     2
291
     1
 71
     2
176
     1
 72
     2
176
     1
 73
     1
176
     1
 90
        2
176
     1
 40
-0.6
176
     1
 41
30.0
176
     1
 62
     5
 63
     7
421
 16777215
176
     1
 74
     0
176
     1
 91
        4
176
     1
 64
     7
176
     1
 65
   257
176
     1
 75
     1
176
     1
175
     1
176
     1
 42
1.0
176
     1
 92
        0
176
     1
 66
     7
176
     1
 43
1.0
176
     1
 76
     1
176
     1
 77
     6
176
     1
 78
     2
176
     1
 67
     7
176
     1
 79
     5
176
     1
170
     0
176
     1
171
     0
176
     1
290
     0
176
     1
 93
       13
176
     1
 44
0.0
176
     1
173
     0
176
     1
  0
VISUALSTYLE
  5
2E
102
{ACAD_REACTORS
330
2A
102
}
330
2A
100
AcDbVisualStyle
  2
GouraudWithEdges
 70
     3
177
     2
291
     1
 71
     2
176
     1
 72
     2
176
     1
 73
     1
176
     1
 90
        2
176
     1
 40
-0.6
176
     1
 41
30.0
176
     1
 62
     5
 63
     7
421
 16777215
176
     1
 74
     1
176
     1
 91
        4
176
     1
 64
     7
176
     1
 65
   257
176
     1
 75
     1
176
     1
175
     1
176
     1
 42
1.0
176
     1
 92
        0
176
     1
 66
   257
176
     1
 43
1.0
176
     1
 76
     1
176
     1
 77
     6
176
     1
 78
     2
176
     1
 67
     7
176
     1
 79
     5
176
     1
170
     0
176
     1
171
     0
176
     1
290
     0
176
     1
 93
       13
176
     1
 44
0.0
176
     1
173
     0
176
     1
  0
VISUALSTYLE
  5
38
102
{ACAD_REACTORS
330
2A
102
}
330
2A
100
AcDbVisualStyle
  2
Linepattern
 70
    14
177
     2
291
     1
 71
     2
176
     1
 72
     2
176
     1
 73
     0
176
     1
 90
        0
176
     1
 40
-0.6
176
     1
 41
-30.0
176
     1
 62
     5
 63
     7
421
 16777215
176
     1
 74
     1
176
     1
 91
        4
176
     1
 64
     7
176
     1
 65
   257
176
     1
 75
     7
176
     1
175
     7
176
     1
 42
1.0
176
     1
 92
        8
176
     1
 66
     7
176
     1
 43
1.0
176
     1
 76
     1
176
     1
 77
     6
176
     1
 78
     2
176
     1
 67
     7
176
     1
 79
     5
176
     1
170
     0
176
     1
171
     0
176
     1
290
     0
176
     1
 93
        1
176
     1
 44
0.0
176
     1
173
     0
176
     1
  0
VISUALSTYLE
  5
33
102
{ACAD_REACTORS
330
2A
102
}
330
2A
100
AcDbVisualStyle
  2
Realistic
 70
     8
177
     2
291
     0
 71
     2
176
     1
 72
     2
176
     1
 73
     0
176
     1
 90
        0
176
     1
 40
-0.6
176
     1
 41
-30.0
176
     1
 62
     5
 63
     7
421
 16777215
176
     1
 74
     1
176
     1
 91
        0
176
     1
 64
     7
176
     1
 65
   257
176
     1
 75
     1
176
     1
175
     1
176
     1
 42
1.0
176
     1
 92
        8
176
     1
 66
     8
424
  7895160
176
     1
 43
1.0
176
     1
 76
     1
176
     1
 77
     6
176
     1
 78
     2
176
     1
 67
     7
176
     1
 79
     5
176
     1
170
     0
176
     1
171
     0
176
     1
290
     0
176
     1
 93
       13
176
     1
 44
0.0
176
     1
173
     0
176
     1
  0
VISUALSTYLE
  5
37
102
{ACAD_REACTORS
330
2A
102
}
330
2A
100
AcDbVisualStyle
  2
Thicken
 70
    13
177
     2
291
     1
 71
     2
176
     1
 72
     2
176
     1
 73
     0
176
     1
 90
        0
176
     1
 40
-0.6
176
     1
 41
-30.0
176
     1
 62
     5
 63
     7
421
 16777215
176
     1
 74
     1
176
     1
 91
        4
176
     1
 64
     7
176
     1
 65
   257
176
     1
 75
     1
176
     1
175
     1
176
     1
 42
1.0
176
     1
 92
       12
176
     1
 66
     7
176
     1
 43
1.0
176
     1
 76
     1
176
     1
 77
     6
176
     1
 78
     2
176
     1
 67
     7
176
     1
 79
     5
176
     1
170
     0
176
     1
171
     0
176
     1
290
     0
176
     1
 93
        1
176
     1
 44
0.0
176
     1
173
     0
176
     1
  0
ENDSEC
  0
EOF
