  0
SECTION
  2
HEADER
  9
$ACADVER
  1
AC1024
  9
$ACADMAINTVER
 70
     6
  9
$DWGCODEPAGE
  3
ANSI_932
  9
$INSBASE
 10
0.0
 20
0.0
 30
0.0
  9
$EXTMIN
 10
-6300.0
 20
-4455.0
 30
0.0
  9
$EXTMAX
 10
6300.0
 20
4455.0
 30
0.0
  9
$LIMMIN
 10
-6300.0
 20
-4455.0
  9
$LIMMAX
 10
6300.0
 20
4455.0
  9
$ORTHOMODE
 70
     0
  9
$REGENMODE
 70
     1
  9
$FILLMODE
 70
     1
  9
$QTEXTMODE
 70
     0
  9
$MIRRTEXT
 70
     1
  9
$LTSCALE
 40
30.0
  9
$ATTMODE
 70
     1
  9
$TEXTSIZE
 40
2.5
  9
$TRACEWID
 40
1.0
  9
$TEXTSTYLE
  7
Standard
  9
$CLAYER
  8
0
  9
$CELTYPE
  6
ByLayer
  9
$CECOLOR
 62
   256
  9
$CELTSCALE
 40
1.0
  9
$DISPSILH
 70
     0
  9
$DIMSCALE
 40
1.0
  9
$DIMASZ
 40
2.5
  9
$DIMEXO
 40
0.625
  9
$DIMDLI
 40
3.75
  9
$DIMRND
 40
0.0
  9
$DIMDLE
 40
0.0
  9
$DIMEXE
 40
1.25
  9
$DIMTP
 40
0.0
  9
$DIMTM
 40
0.0
  9
$DIMTXT
 40
2.5
  9
$DIMCEN
 40
2.5
  9
$DIMTSZ
 40
0.0
  9
$DIMTOL
 70
     0
  9
$DIMLIM
 70
     0
  9
$DIMTIH
 70
     0
  9
$DIMTOH
 70
     0
  9
$DIMSE1
 70
     0
  9
$DIMSE2
 70
     0
  9
$DIMTAD
 70
     1
  9
$DIMZIN
 70
     8
  9
$DIMBLK
  1

  9
$DIMASO
 70
     1
  9
$DIMSHO
 70
     1
  9
$DIMPOST
  1

  9
$DIMAPOST
  1

  9
$DIMALT
 70
     0
  9
$DIMALTD
 70
     3
  9
$DIMALTF
 40
0.03937007874016
  9
$DIMLFAC
 40
1.0
  9
$DIMTOFL
 70
     1
  9
$DIMTVP
 40
0.0
  9
$DIMTIX
 70
     0
  9
$DIMSOXD
 70
     0
  9
$DIMSAH
 70
     0
  9
$DIMBLK1
  1

  9
$DIMBLK2
  1

  9
$DIMSTYLE
  2
ISO-25
  9
$DIMCLRD
 70
     0
  9
$DIMCLRE
 70
     0
  9
$DIMCLRT
 70
     0
  9
$DIMTFAC
 40
1.0
  9
$DIMGAP
 40
0.625
  9
$DIMJUST
 70
     0
  9
$DIMSD1
 70
     0
  9
$DIMSD2
 70
     0
  9
$DIMTOLJ
 70
     0
  9
$DIMTZIN
 70
     8
  9
$DIMALTZ
 70
     0
  9
$DIMALTTZ
 70
     0
  9
$DIMUPT
 70
     0
  9
$DIMDEC
 70
     2
  9
$DIMTDEC
 70
     2
  9
$DIMALTU
 70
     2
  9
$DIMALTTD
 70
     3
  9
$DIMTXSTY
  7
Standard
  9
$DIMAUNIT
 70
     0
  9
$DIMADEC
 70
     0
  9
$DIMALTRND
 40
0.0
  9
$DIMAZIN
 70
     0
  9
$DIMDSEP
 70
    44
  9
$DIMATFIT
 70
     3
  9
$DIMFRAC
 70
     0
  9
$DIMLDRBLK
  1

  9
$DIMLUNIT
 70
     2
  9
$DIMLWD
 70
    -2
  9
$DIMLWE
 70
    -2
  9
$DIMTMOVE
 70
     0
  9
$DIMFXL
 40
1.0
  9
$DIMFXLON
 70
     0
  9
$DIMJOGANG
 40
0.7853981633974483
  9
$DIMTFILL
 70
     0
  9
$DIMTFILLCLR
 70
     0
  9
$DIMARCSYM
 70
     0
  9
$DIMLTYPE
  6

  9
$DIMLTEX1
  6

  9
$DIMLTEX2
  6

  9
$DIMTXTDIRECTION
 70
     0
  9
$LUNITS
 70
     2
  9
$LUPREC
 70
     4
  9
$SKETCHINC
 40
1.0
  9
$FILLETRAD
 40
10.0
  9
$AUNITS
 70
     0
  9
$AUPREC
 70
     0
  9
$MENU
  1
.
  9
$ELEVATION
 40
0.0
  9
$PELEVATION
 40
0.0
  9
$THICKNESS
 40
0.0
  9
$LIMCHECK
 70
     0
  9
$CHAMFERA
 40
10.0
  9
$CHAMFERB
 40
10.0
  9
$CHAMFERC
 40
20.0
  9
$CHAMFERD
 40
0.0
  9
$SKPOLY
 70
     0
  9
$TDCREATE
 40
2459380.624601667
  9
$TDUCREATE
 40
2459380.249601667
  9
$TDUPDATE
 40
2459380.624601678
  9
$TDUUPDATE
 40
2459380.249601678
  9
$TDINDWG
 40
0.0000000116
  9
$TDUSRTIMER
 40
0.0000000116
  9
$USRTIMER
 70
     1
  9
$ANGBASE
 50
0.0
  9
$ANGDIR
 70
     0
  9
$PDMODE
 70
     0
  9
$PDSIZE
 40
0.0
  9
$PLINEWID
 40
0.0
  9
$SPLFRAME
 70
     0
  9
$SPLINETYPE
 70
     6
  9
$SPLINESEGS
 70
     8
  9
$HANDSEED
  5
4BE
  9
$SURFTAB1
 70
     6
  9
$SURFTAB2
 70
     6
  9
$SURFTYPE
 70
     6
  9
$SURFU
 70
     6
  9
$SURFV
 70
     6
  9
$UCSBASE
  2

  9
$UCSNAME
  2

  9
$UCSORG
 10
0.0
 20
0.0
 30
0.0
  9
$UCSXDIR
 10
1.0
 20
0.0
 30
0.0
  9
$UCSYDIR
 10
0.0
 20
1.0
 30
0.0
  9
$UCSORTHOREF
  2

  9
$UCSORTHOVIEW
 70
     0
  9
$UCSORGTOP
 10
0.0
 20
0.0
 30
0.0
  9
$UCSORGBOTTOM
 10
0.0
 20
0.0
 30
0.0
  9
$UCSORGLEFT
 10
0.0
 20
0.0
 30
0.0
  9
$UCSORGRIGHT
 10
0.0
 20
0.0
 30
0.0
  9
$UCSORGFRONT
 10
0.0
 20
0.0
 30
0.0
  9
$UCSORGBACK
 10
0.0
 20
0.0
 30
0.0
  9
$PUCSBASE
  2

  9
$PUCSNAME
  2

  9
$PUCSORG
 10
0.0
 20
0.0
 30
0.0
  9
$PUCSXDIR
 10
1.0
 20
0.0
 30
0.0
  9
$PUCSYDIR
 10
0.0
 20
1.0
 30
0.0
  9
$PUCSORTHOREF
  2

  9
$PUCSORTHOVIEW
 70
     0
  9
$PUCSORGTOP
 10
0.0
 20
0.0
 30
0.0
  9
$PUCSORGBOTTOM
 10
0.0
 20
0.0
 30
0.0
  9
$PUCSORGLEFT
 10
0.0
 20
0.0
 30
0.0
  9
$PUCSORGRIGHT
 10
0.0
 20
0.0
 30
0.0
  9
$PUCSORGFRONT
 10
0.0
 20
0.0
 30
0.0
  9
$PUCSORGBACK
 10
0.0
 20
0.0
 30
0.0
  9
$USERI1
 70
     0
  9
$USERI2
 70
     0
  9
$USERI3
 70
     0
  9
$USERI4
 70
     0
  9
$USERI5
 70
     0
  9
$USERR1
 40
0.0
  9
$USERR2
 40
0.0
  9
$USERR3
 40
0.0
  9
$USERR4
 40
0.0
  9
$USERR5
 40
0.0
  9
$WORLDVIEW
 70
     1
  9
$SHADEDGE
 70
     3
  9
$SHADEDIF
 70
    70
  9
$TILEMODE
 70
     1
  9
$MAXACTVP
 70
    64
  9
$PINSBASE
 10
0.0
 20
0.0
 30
0.0
  9
$PLIMCHECK
 70
     0
  9
$PEXTMIN
 10
1.000000000000000E+20
 20
1.000000000000000E+20
 30
1.000000000000000E+20
  9
$PEXTMAX
 10
-1.000000000000000E+20
 20
-1.000000000000000E+20
 30
-1.000000000000000E+20
  9
$PLIMMIN
 10
0.0
 20
0.0
  9
$PLIMMAX
 10
420.0
 20
297.0
  9
$UNITMODE
 70
     0
  9
$VISRETAIN
 70
     1
  9
$PLINEGEN
 70
     0
  9
$PSLTSCALE
 70
     1
  9
$TREEDEPTH
 70
  3020
  9
$CMLSTYLE
  2
Standard
  9
$CMLJUST
 70
     0
  9
$CMLSCALE
 40
20.0
  9
$PROXYGRAPHICS
 70
     1
  9
$MEASUREMENT
 70
     1
  9
$CELWEIGHT
370
    -1
  9
$ENDCAPS
280
     0
  9
$JOINSTYLE
280
     0
  9
$LWDISPLAY
290
     0
  9
$INSUNITS
 70
     4
  9
$HYPERLINKBASE
  1

  9
$STYLESHEET
  1

  9
$XEDIT
290
     1
  9
$CEPSNTYPE
380
     0
  9
$PSTYLEMODE
290
     1
  9
$FINGERPRINTGUID
  2
{C8196B9D-BF5F-4169-86EC-0125189FF338}
  9
$VERSIONGUID
  2
{FAEB1C32-E019-11D5-929B-00C0DF256EC4}
  9
$EXTNAMES
290
     1
  9
$PSVPSCALE
 40
0.0
  9
$OLESTARTUP
290
     0
  9
$SORTENTS
280
   127
  9
$INDEXCTL
280
     0
  9
$HIDETEXT
280
     1
  9
$XCLIPFRAME
280
     2
  9
$HALOGAP
280
     0
  9
$OBSCOLOR
 70
   257
  9
$OBSLTYPE
280
     0
  9
$INTERSECTIONDISPLAY
280
     0
  9
$INTERSECTIONCOLOR
 70
   257
  9
$DIMASSOC
280
     2
  9
$PROJECTNAME
  1

  9
$CAMERADISPLAY
290
     0
  9
$LENSLENGTH
 40
50.0
  9
$CAMERAHEIGHT
 40
0.0
  9
$STEPSPERSEC
 40
2.0
  9
$STEPSIZE
 40
6.0
  9
$3DDWFPREC
 40
2.0
  9
$PSOLWIDTH
 40
5.0
  9
$PSOLHEIGHT
 40
80.0
  9
$LOFTANG1
 40
1.570796326794897
  9
$LOFTANG2
 40
1.570796326794897
  9
$LOFTMAG1
 40
0.0
  9
$LOFTMAG2
 40
0.0
  9
$LOFTPARAM
 70
     7
  9
$LOFTNORMALS
280
     1
  9
$LATITUDE
 40
37.795
  9
$LONGITUDE
 40
-122.394
  9
$NORTHDIRECTION
 40
0.0
  9
$TIMEZONE
 70
 -8000
  9
$LIGHTGLYPHDISPLAY
280
     1
  9
$TILEMODELIGHTSYNCH
280
     1
  9
$SOLIDHIST
280
     1
  9
$SHOWHIST
280
     1
  9
$DWFFRAME
280
     2
  9
$DGNFRAME
280
     2
  9
$REALWORLDSCALE
290
     1
  9
$INTERFERECOLOR
 62
   256
  9
$CSHADOW
280
     0
  9
$SHADOWPLANELOCATION
 40
0.0
  0
ENDSEC
  0
SECTION
  2
CLASSES
  0
CLASS
  1
ACDBDICTIONARYWDFLT
  2
AcDbDictionaryWithDefault
  3
ObjectDBX Classes
 90
        0
 91
        4
280
     0
281
     0
  0
CLASS
  1
VISUALSTYLE
  2
AcDbVisualStyle
  3
ObjectDBX Classes
 90
     4095
 91
        4
280
     0
281
     0
  0
CLASS
  1
MATERIAL
  2
AcDbMaterial
  3
ObjectDBX Classes
 90
     1153
 91
        4
280
     0
281
     0
  0
ENDSEC
  0
SECTION
  2
TABLES
  0
TABLE
  2
VPORT
  5
8
330
0
100
AcDbSymbolTable
 70
     1
  0
VPORT
  5
29
330
8
100
AcDbSymbolTableRecord
100
AcDbViewportTableRecord
  2
*Active
 70
     0
 10
0.0
 20
0.0
 11
1.0
 21
1.0
 12
0.0
 22
0.0
 13
0.0
 23
0.0
 14
10.0
 24
10.0
 15
10.0
 25
10.0
 16
0.0
 26
0.0
 36
1.0
 17
0.0
 27
0.0
 37
0.0
 40
9801.0
 41
1.414141414141414
 42
50.0
 43
0.0
 44
0.0
 50
0.0
 51
0.0
 71
     0
 72
 10000
 73
     1
 74
     3
 75
     0
 76
     0
 77
     0
 78
     0
281
     0
 65
     1
110
0.0
120
0.0
130
0.0
111
1.0
121
0.0
131
0.0
112
0.0
122
1.0
132
0.0
 79
     0
146
0.0
 60
     3
 61
     5
292
     1
282
     1
141
0.0
142
0.0
 63
   250
  0
ENDTAB
  0
TABLE
  2
LTYPE
  5
5
330
0
100
AcDbSymbolTable
 70
     5
  0
LTYPE
  5
14
330
5
100
AcDbSymbolTableRecord
100
AcDbLinetypeTableRecord
  2
ByBlock
 70
     0
  3

 72
    65
 73
     0
 40
0.0
  0
LTYPE
  5
15
330
5
100
AcDbSymbolTableRecord
100
AcDbLinetypeTableRecord
  2
ByLayer
 70
     0
  3

 72
    65
 73
     0
 40
0.0
  0
LTYPE
  5
16
330
5
100
AcDbSymbolTableRecord
100
AcDbLinetypeTableRecord
  2
Continuous
 70
     0
  3
Solid line
 72
    65
 73
     0
 40
0.0
  0
LTYPE
  5
3F
330
5
100
AcDbSymbolTableRecord
100
AcDbLinetypeTableRecord
  2
JWW_HOJO
 70
     0
  3
  -   -   -   -   -   -   -   - 
 72
    65
 73
     2
 40
1.693333333333333
 49
-1.27
 74
     0
 49
0.4233333333333333
 74
     0
  0
LTYPE
  5
40
330
5
100
AcDbSymbolTableRecord
100
AcDbLinetypeTableRecord
  2
JWW_DASHED2
 70
     0
  3
--    ----    ----    ----    --
 72
    65
 73
     2
 40
3.386666666666667
 49
1.693333333333333
 74
     0
 49
-1.693333333333333
 74
     0
  0
LTYPE
  5
41
330
5
100
AcDbSymbolTableRecord
100
AcDbLinetypeTableRecord
  2
JWW_CENTER1
 70
     0
  3
-----  --  ----------  --  -----
 72
    65
 73
     4
 40
6.773333333333333
 49
4.233333333333333
 74
     0
 49
-0.8466666666666667
 74
     0
 49
0.8466666666666667
 74
     0
 49
-0.8466666666666667
 74
     0
  0
LTYPE
  5
42
330
5
100
AcDbSymbolTableRecord
100
AcDbLinetypeTableRecord
  2
JWW_DASHED1
 70
     0
  3
-  --  --  --  --  --  --  --  -
 72
    65
 73
     2
 40
1.693333333333333
 49
0.8466666666666667
 74
     0
 49
-0.8466666666666667
 74
     0
  0
ENDTAB
  0
TABLE
  2
LAYER
  5
2
330
0
100
AcDbSymbolTable
 70
    16
  0
LAYER
  5
10
330
2
100
AcDbSymbolTableRecord
100
AcDbLayerTableRecord
  2
0
 70
     0
 62
     7
  6
Continuous
370
    -3
390
F
347
3E
  0
LAYER
  5
43
330
2
100
AcDbSymbolTableRecord
100
AcDbLayerTableRecord
  2
F-A_文字
 70
     0
 62
     7
  6
Continuous
370
    -3
390
F
347
3E
  0
LAYER
  5
44
330
2
100
AcDbSymbolTableRecord
100
AcDbLayerTableRecord
  2
F-0_補助線
 70
     0
 62
     7
  6
Continuous
370
    -3
390
F
347
3E
  0
LAYER
  5
45
330
2
100
AcDbSymbolTableRecord
100
AcDbLayerTableRecord
  2
F-1_枠
 70
     0
 62
     7
  6
Continuous
370
    -3
390
F
347
3E
  0
LAYER
  5
46
330
2
100
AcDbSymbolTableRecord
100
AcDbLayerTableRecord
  2
戸当り
 70
     0
 62
     7
  6
Continuous
370
    -3
390
F
347
3E
  0
LAYER
  5
47
330
2
100
AcDbSymbolTableRecord
100
AcDbLayerTableRecord
  2
0-0_補助線
 70
     0
 62
     7
  6
Continuous
370
    -3
390
F
347
3E
  0
LAYER
  5
48
330
2
100
AcDbSymbolTableRecord
100
AcDbLayerTableRecord
  2
0-A_文字
 70
     0
 62
     7
  6
Continuous
370
    -3
390
F
347
3E
  0
LAYER
  5
49
330
2
100
AcDbSymbolTableRecord
100
AcDbLayerTableRecord
  2
0-6_扉
 70
     0
 62
     7
  6
Continuous
370
    -3
390
F
347
3E
  0
LAYER
  5
4A
330
2
100
AcDbSymbolTableRecord
100
AcDbLayerTableRecord
  2
0-7_金物
 70
     0
 62
     7
  6
Continuous
370
    -3
390
F
347
3E
  0
LAYER
  5
4B
330
2
100
AcDbSymbolTableRecord
100
AcDbLayerTableRecord
  2
0-1_通り芯
 70
     0
 62
     7
  6
Continuous
370
    -3
390
F
347
3E
  0
LAYER
  5
4C
330
2
100
AcDbSymbolTableRecord
100
AcDbLayerTableRecord
  2
0-B_寸法
 70
     0
 62
     7
  6
Continuous
370
    -3
390
F
347
3E
  0
LAYER
  5
4D
330
2
100
AcDbSymbolTableRecord
100
AcDbLayerTableRecord
  2
0-C_ハッチ
 70
     0
 62
     7
  6
Continuous
370
    -3
390
F
347
3E
  0
LAYER
  5
4E
330
2
100
AcDbSymbolTableRecord
100
AcDbLayerTableRecord
  2
0-4_枠
 70
     0
 62
     7
  6
Continuous
370
    -3
390
F
347
3E
  0
LAYER
  5
4F
330
2
100
AcDbSymbolTableRecord
100
AcDbLayerTableRecord
  2
0-3_仕上げ
 70
     0
 62
     7
  6
Continuous
370
    -3
390
F
347
3E
  0
LAYER
  5
50
330
2
100
AcDbSymbolTableRecord
100
AcDbLayerTableRecord
  2
0-E
 70
     0
 62
     7
  6
Continuous
370
    -3
390
F
347
3E
  0
LAYER
  5
51
330
2
100
AcDbSymbolTableRecord
100
AcDbLayerTableRecord
  2
1-E
 70
     0
 62
     7
  6
Continuous
370
    -3
390
F
347
3E
  0
ENDTAB
  0
TABLE
  2
STYLE
  5
3
330
0
100
AcDbSymbolTable
 70
     1
  0
STYLE
  5
11
330
3
100
AcDbSymbolTableRecord
100
AcDbTextStyleTableRecord
  2
Standard
 70
     0
 40
0.0
 41
1.0
 50
0.0
 71
     0
 42
2.5
  3
txt
  4

  0
ENDTAB
  0
TABLE
  2
VIEW
  5
6
330
0
100
AcDbSymbolTable
 70
     0
  0
ENDTAB
  0
TABLE
  2
UCS
  5
7
330
0
100
AcDbSymbolTable
 70
     0
  0
ENDTAB
  0
TABLE
  2
APPID
  5
9
330
0
100
AcDbSymbolTable
 70
     1
  0
APPID
  5
12
330
9
100
AcDbSymbolTableRecord
100
AcDbRegAppTableRecord
  2
ACAD
 70
     0
  0
ENDTAB
  0
TABLE
  2
DIMSTYLE
  5
A
330
0
100
AcDbSymbolTable
 70
     1
100
AcDbDimStyleTable
  0
DIMSTYLE
105
27
330
A
100
AcDbSymbolTableRecord
100
AcDbDimStyleTableRecord
  2
ISO-25
 70
     0
 41
2.5
 42
0.625
 43
3.75
 44
1.25
 73
     0
 74
     0
 77
     1
 78
     8
140
2.5
141
2.5
143
0.03937007874016
147
0.625
171
     3
172
     1
178
     0
271
     2
272
     2
274
     3
278
    44
283
     0
284
     8
340
11
  0
ENDTAB
  0
TABLE
  2
BLOCK_RECORD
  5
1
330
0
100
AcDbSymbolTable
 70
     2
  0
BLOCK_RECORD
  5
1F
330
1
100
AcDbSymbolTableRecord
100
AcDbBlockTableRecord
  2
*Model_Space
340
22
 70
     0
280
     1
281
     0
  0
BLOCK_RECORD
  5
1B
330
1
100
AcDbSymbolTableRecord
100
AcDbBlockTableRecord
  2
*Paper_Space
340
1E
 70
     0
280
     1
281
     0
  0
BLOCK_RECORD
  5
23
330
1
100
AcDbSymbolTableRecord
100
AcDbBlockTableRecord
  2
*Paper_Space0
340
26
 70
     0
280
     1
281
     0
  0
BLOCK_RECORD
  5
52
330
1
100
AcDbSymbolTableRecord
100
AcDbBlockTableRecord
  2
01@@SfigorgFlag@@4
340
0
102
{BLKREFS
331
319
102
}
 70
     0
280
     1
281
     0
  0
ENDTAB
  0
ENDSEC
  0
SECTION
  2
BLOCKS
  0
BLOCK
  5
20
330
1F
100
AcDbEntity
  8
0
100
AcDbBlockBegin
  2
*Model_Space
 70
     0
 10
0.0
 20
0.0
 30
0.0
  3
*Model_Space
  1

  0
ENDBLK
  5
21
330
1F
100
AcDbEntity
  8
0
100
AcDbBlockEnd
  0
BLOCK
  5
1C
330
1B
100
AcDbEntity
 67
     1
  8
0
100
AcDbBlockBegin
  2
*Paper_Space
 70
     0
 10
0.0
 20
0.0
 30
0.0
  3
*Paper_Space
  1

  0
ENDBLK
  5
1D
330
1B
100
AcDbEntity
 67
     1
  8
0
100
AcDbBlockEnd
  0
BLOCK
  5
24
330
23
100
AcDbEntity
  8
0
100
AcDbBlockBegin
  2
*Paper_Space0
 70
     0
 10
0.0
 20
0.0
 30
0.0
  3
*Paper_Space0
  1

  0
ENDBLK
  5
25
330
23
100
AcDbEntity
  8
0
100
AcDbBlockEnd
  0
BLOCK
  5
53
330
52
100
AcDbEntity
  8
0
100
AcDbBlockBegin
  2
01@@SfigorgFlag@@4
 70
     0
 10
0.0
 20
0.0
 30
0.0
  3
01@@SfigorgFlag@@4
  1

  0
LINE
  5
495
330
52
100
AcDbEntity
  8
0-0_補助線
  6
Continuous
 62
     7
370
     9
100
AcDbLine
 10
-4.25
 20
-1.491025641025665
 30
0.0
 11
-3.25
 21
-1.491025641025665
 31
0.0
  0
LINE
  5
496
330
52
100
AcDbEntity
  8
0-0_補助線
  6
Continuous
 62
     7
370
     9
100
AcDbLine
 10
-2.75
 20
-1.491025641025665
 30
0.0
 11
-0.1500000000000909
 21
-1.491025641025665
 31
0.0
  0
LINE
  5
497
330
52
100
AcDbEntity
  8
0-0_補助線
  6
Continuous
 62
     7
370
     9
100
AcDbLine
 10
-0.1500000000000909
 20
-1.491025641025665
 30
0.0
 11
0.0
 21
-1.641025641025642
 31
0.0
  0
LINE
  5
498
330
52
100
AcDbEntity
  8
0-0_補助線
  6
Continuous
 62
     7
370
     9
100
AcDbLine
 10
0.0
 20
-1.641025641025642
 30
0.0
 11
0.1500000000000909
 21
-1.491025641025665
 31
0.0
  0
LINE
  5
499
330
52
100
AcDbEntity
  8
0-0_補助線
  6
Continuous
 62
     7
370
     9
100
AcDbLine
 10
0.1500000000000909
 20
-1.491025641025665
 30
0.0
 11
2.75
 21
-1.491025641025665
 31
0.0
  0
LINE
  5
49A
330
52
100
AcDbEntity
  8
0-0_補助線
  6
Continuous
 62
     7
370
     9
100
AcDbLine
 10
3.25
 20
-1.491025641025665
 30
0.0
 11
4.25
 21
-1.491025641025665
 31
0.0
  0
LINE
  5
49B
330
52
100
AcDbEntity
  8
0-0_補助線
  6
Continuous
 62
     7
370
     9
100
AcDbLine
 10
7.849999999999909
 20
1.408974358974312
 30
0.0
 11
4.849999999999909
 21
1.408974358974312
 31
0.0
  0
LINE
  5
49C
330
52
100
AcDbEntity
  8
0-0_補助線
  6
Continuous
 62
     7
370
     9
100
AcDbLine
 10
-4.849999999999909
 20
1.408974358974312
 30
0.0
 11
-7.849999999999909
 21
1.408974358974312
 31
0.0
  0
LINE
  5
49D
330
52
100
AcDbEntity
  8
0-0_補助線
  6
Continuous
 62
     7
370
     9
100
AcDbLine
 10
-4.849999999999909
 20
2.008974358974335
 30
0.0
 11
-7.849999999999909
 21
1.70897435897438
 31
0.0
  0
ARC
  5
49E
330
52
100
AcDbEntity
  8
0-0_補助線
  6
Continuous
 62
     7
370
     9
100
AcDbCircle
 10
-7.849999999999909
 20
1.558974358974403
 30
0.0
 40
0.15
100
AcDbArc
 50
90.0
 51
270.0
  0
ARC
  5
49F
330
52
100
AcDbEntity
  8
0-0_補助線
  6
Continuous
 62
     7
370
     9
100
AcDbCircle
 10
7.849999999999909
 20
1.558974358974403
 30
0.0
 40
0.15
100
AcDbArc
 50
270.0
 51
89.99999999999997
  0
LINE
  5
4A0
330
52
100
AcDbEntity
  8
0-0_補助線
  6
Continuous
 62
     7
370
     9
100
AcDbLine
 10
7.849999999999909
 20
1.70897435897438
 30
0.0
 11
4.849999999999909
 21
2.008974358974335
 31
0.0
  0
LINE
  5
4A1
330
52
100
AcDbEntity
  8
0-0_補助線
  6
Continuous
 62
     7
370
     9
100
AcDbLine
 10
-3.050000000000182
 20
2.008974358974335
 30
0.0
 11
-4.849999999999909
 21
2.008974358974335
 31
0.0
  0
ARC
  5
4A2
330
52
100
AcDbEntity
  8
0-0_補助線
  6
Continuous
 62
     7
370
     9
100
AcDbCircle
 10
-3.050000000000182
 20
1.70897435897438
 30
0.0
 40
0.3
100
AcDbArc
 50
0.0
 51
90.0
  0
ARC
  5
4A3
330
52
100
AcDbEntity
  8
0-0_補助線
  6
Continuous
 62
     7
370
     9
100
AcDbCircle
 10
-3.050000000000182
 20
1.70897435897438
 30
0.0
 40
0.3
100
AcDbArc
 50
270.0
 51
0.0
  0
ARC
  5
4A4
330
52
100
AcDbEntity
  8
0-0_補助線
  6
Continuous
 62
     7
370
     9
100
AcDbCircle
 10
3.050000000000182
 20
1.70897435897438
 30
0.0
 40
0.3
100
AcDbArc
 50
180.0
 51
270.0
  0
LINE
  5
4A5
330
52
100
AcDbEntity
  8
0-0_補助線
  6
Continuous
 62
     7
370
     9
100
AcDbLine
 10
3.050000000000182
 20
2.008974358974335
 30
0.0
 11
4.849999999999909
 21
2.008974358974335
 31
0.0
  0
ARC
  5
4A6
330
52
100
AcDbEntity
  8
0-0_補助線
  6
Continuous
 62
     7
370
     9
100
AcDbCircle
 10
3.050000000000182
 20
1.70897435897438
 30
0.0
 40
0.3
100
AcDbArc
 50
90.0
 51
180.0
  0
LINE
  5
4A7
330
52
100
AcDbEntity
  8
0-0_補助線
  6
Continuous
 62
     7
370
     9
100
AcDbLine
 10
4.849999999999909
 20
-1.341025641025688
 30
0.0
 11
4.849999999999909
 21
1.408974358974312
 31
0.0
  0
ARC
  5
4A8
330
52
100
AcDbEntity
  8
0-0_補助線
  6
Continuous
 62
     7
370
     9
100
AcDbCircle
 10
4.099999999999909
 20
-1.341025641025688
 30
0.0
 40
0.75
100
AcDbArc
 50
270.0
 51
0.0
  0
LINE
  5
4A9
330
52
100
AcDbEntity
  8
0-0_補助線
  6
Continuous
 62
     7
370
     9
100
AcDbLine
 10
-4.849999999999909
 20
-1.341025641025688
 30
0.0
 11
-4.849999999999909
 21
1.408974358974312
 31
0.0
  0
LINE
  5
4AA
330
52
100
AcDbEntity
  8
0-0_補助線
  6
Continuous
 62
     7
370
     9
100
AcDbLine
 10
-4.099999999999909
 20
-2.091025641025688
 30
0.0
 11
4.099999999999909
 21
-2.091025641025688
 31
0.0
  0
ARC
  5
4AB
330
52
100
AcDbEntity
  8
0-0_補助線
  6
Continuous
 62
     7
370
     9
100
AcDbCircle
 10
-4.099999999999909
 20
-1.341025641025688
 30
0.0
 40
0.75
100
AcDbArc
 50
180.0
 51
270.0
  0
LINE
  5
4AC
330
52
100
AcDbEntity
  8
0-0_補助線
  6
Continuous
 62
     7
370
     9
100
AcDbLine
 10
-4.0
 20
1.408974358974312
 30
0.0
 11
-3.050000000000182
 21
1.408974358974312
 31
0.0
  0
LINE
  5
4AD
330
52
100
AcDbEntity
  8
0-0_補助線
  6
Continuous
 62
     7
370
     9
100
AcDbLine
 10
-4.25
 20
1.158974358974312
 30
0.0
 11
-4.25
 21
-1.491025641025665
 31
0.0
  0
ARC
  5
4AE
330
52
100
AcDbEntity
  8
0-0_補助線
  6
Continuous
 62
     7
370
     9
100
AcDbCircle
 10
-4.0
 20
1.158974358974312
 30
0.0
 40
0.25
100
AcDbArc
 50
90.0
 51
180.0
  0
LINE
  5
4AF
330
52
100
AcDbEntity
  8
0-0_補助線
  6
Continuous
 62
     7
370
     9
100
AcDbLine
 10
4.0
 20
1.408974358974312
 30
0.0
 11
3.050000000000182
 21
1.408974358974312
 31
0.0
  0
LINE
  5
4B0
330
52
100
AcDbEntity
  8
0-0_補助線
  6
Continuous
 62
     7
370
     9
100
AcDbLine
 10
4.25
 20
1.158974358974312
 30
0.0
 11
4.25
 21
-1.491025641025665
 31
0.0
  0
ARC
  5
4B1
330
52
100
AcDbEntity
  8
0-0_補助線
  6
Continuous
 62
     7
370
     9
100
AcDbCircle
 10
4.0
 20
1.158974358974312
 30
0.0
 40
0.25
100
AcDbArc
 50
0.0
 51
90.0
  0
LINE
  5
4B2
330
52
100
AcDbEntity
  8
0-0_補助線
  6
Continuous
 62
     7
370
     9
100
AcDbLine
 10
-3.25
 20
-1.091025641025688
 30
0.0
 11
-3.25
 21
-1.491025641025665
 31
0.0
  0
ARC
  5
4B3
330
52
100
AcDbEntity
  8
0-0_補助線
  6
Continuous
 62
     7
370
     9
100
AcDbCircle
 10
-3.150000000000091
 20
-1.091025641025688
 30
0.0
 40
0.1
100
AcDbArc
 50
90.0
 51
180.0
  0
LINE
  5
4B4
330
52
100
AcDbEntity
  8
0-0_補助線
  6
Continuous
 62
     7
370
     9
100
AcDbLine
 10
-2.849999999999909
 20
-0.991025641025665
 30
0.0
 11
-3.150000000000091
 21
-0.991025641025665
 31
0.0
  0
LINE
  5
4B5
330
52
100
AcDbEntity
  8
0-0_補助線
  6
Continuous
 62
     7
370
     9
100
AcDbLine
 10
-2.75
 20
-1.091025641025688
 30
0.0
 11
-2.75
 21
-1.491025641025665
 31
0.0
  0
ARC
  5
4B6
330
52
100
AcDbEntity
  8
0-0_補助線
  6
Continuous
 62
     7
370
     9
100
AcDbCircle
 10
-2.849999999999909
 20
-1.091025641025688
 30
0.0
 40
0.1
100
AcDbArc
 50
0.0
 51
90.0
  0
LINE
  5
4B7
330
52
100
AcDbEntity
  8
0-0_補助線
  6
Continuous
 62
     7
370
     9
100
AcDbLine
 10
2.75
 20
-1.091025641025688
 30
0.0
 11
2.75
 21
-1.491025641025665
 31
0.0
  0
ARC
  5
4B8
330
52
100
AcDbEntity
  8
0-0_補助線
  6
Continuous
 62
     7
370
     9
100
AcDbCircle
 10
2.849999999999909
 20
-1.091025641025688
 30
0.0
 40
0.1
100
AcDbArc
 50
90.0
 51
180.0
  0
LINE
  5
4B9
330
52
100
AcDbEntity
  8
0-0_補助線
  6
Continuous
 62
     7
370
     9
100
AcDbLine
 10
3.150000000000091
 20
-0.991025641025665
 30
0.0
 11
2.849999999999909
 21
-0.991025641025665
 31
0.0
  0
LINE
  5
4BA
330
52
100
AcDbEntity
  8
0-0_補助線
  6
Continuous
 62
     7
370
     9
100
AcDbLine
 10
3.25
 20
-1.091025641025688
 30
0.0
 11
3.25
 21
-1.491025641025665
 31
0.0
  0
ARC
  5
4BB
330
52
100
AcDbEntity
  8
0-0_補助線
  6
Continuous
 62
     7
370
     9
100
AcDbCircle
 10
3.150000000000091
 20
-1.091025641025688
 30
0.0
 40
0.1
100
AcDbArc
 50
0.0
 51
90.0
  0
ENDBLK
  5
54
330
52
100
AcDbEntity
  8
0
100
AcDbBlockEnd
  0
ENDSEC
  0
SECTION
  2
ENTITIES
  0
MTEXT
  5
55
330
1F
100
AcDbEntity
  8
F-A_文字
  6
Continuous
 62
     7
370
     0
100
AcDbMText
 10
5768.321977672939
 20
-4314.841419020919
 30
0.0
 40
68.58
 41
90.0
 46
0.0
 71
     7
 72
     1
  1
{\fＭＳ ゴシック|b0|i0|c128|p49;）}
 73
     1
 44
1.0
  0
MTEXT
  5
56
330
1F
100
AcDbEntity
  8
F-A_文字
  6
Continuous
 62
     7
370
     0
100
AcDbMText
 10
5548.066114483239
 20
-4314.771967288282
 30
0.0
 40
74.295
 41
195.0
 46
0.0
 71
     7
 72
     1
  1
{\fＭＳ ゴシック|b0|i0|c128|p49;印刷}
 73
     1
 44
1.0
  0
MTEXT
  5
57
330
1F
100
AcDbEntity
  8
F-A_文字
  6
Continuous
 62
     7
370
     0
100
AcDbMText
 10
5393.32938200033
 20
-4314.771967288282
 30
0.0
 40
74.295
 41
97.5
 46
0.0
 71
     7
 72
     1
  1
{\fＭＳ ゴシック|b0|i0|c128|p49;$d}
 73
     1
 44
1.0
  0
MTEXT
  5
58
330
1F
100
AcDbEntity
  8
F-A_文字
  6
Continuous
 62
     7
370
     0
100
AcDbMText
 10
5350.114617405298
 20
-4316.235443869856
 30
0.0
 40
68.58
 41
45.0
 46
0.0
 71
     7
 72
     1
  1
{\fＭＳ ゴシック|b0|i0|c128|p49;,}
 73
     1
 44
1.0
  0
MTEXT
  5
59
330
1F
100
AcDbEntity
  8
F-A_文字
  6
Continuous
 62
     7
370
     0
100
AcDbMText
 10
5238.592649517422
 20
-4314.771967288282
 30
0.0
 40
74.295
 41
97.5
 46
0.0
 71
     7
 72
     1
  1
{\fＭＳ ゴシック|b0|i0|c128|p49;$m}
 73
     1
 44
1.0
  0
MTEXT
  5
5A
330
1F
100
AcDbEntity
  8
F-A_文字
  6
Continuous
 62
     7
370
     0
100
AcDbMText
 10
5191.195810375571
 20
-4319.023493567732
 30
0.0
 40
68.58
 41
45.0
 46
0.0
 71
     7
 72
     1
  1
{\fＭＳ ゴシック|b0|i0|c128|p49;,}
 73
     1
 44
1.0
  0
MTEXT
  5
5B
330
1F
100
AcDbEntity
  8
F-A_文字
  6
Continuous
 62
     7
370
     0
100
AcDbMText
 10
5083.855928478601
 20
-4314.771967288282
 30
0.0
 40
74.295
 41
97.5
 46
0.0
 71
     7
 72
     1
  1
{\fＭＳ ゴシック|b0|i0|c128|p49;$y}
 73
     1
 44
1.0
  0
MTEXT
  5
5C
330
1F
100
AcDbEntity
  8
F-A_文字
  6
Continuous
 62
     7
370
     0
100
AcDbMText
 10
4943.952040816226
 20
-4319.023493567732
 30
0.0
 40
68.58
 41
90.0
 46
0.0
 71
     7
 72
     1
  1
{\fＭＳ ゴシック|b0|i0|c128|p49;（}
 73
     1
 44
1.0
  0
LINE
  5
5D
330
1F
100
AcDbEntity
  8
F-0_補助線
  6
JWW_HOJO
 62
   120
370
     5
100
AcDbLine
 10
-6140.081333436773
 20
-4455.0
 30
0.0
 11
-6140.081333436773
 21
4424.999604096284
 31
0.0
  0
LINE
  5
5E
330
1F
100
AcDbEntity
  8
F-0_補助線
  6
JWW_HOJO
 62
   120
370
     5
100
AcDbLine
 10
-6140.081333436773
 20
4424.999604096284
 30
0.0
 11
6159.917676803936
 21
4424.999604096284
 31
0.0
  0
LINE
  5
5F
330
1F
100
AcDbEntity
  8
F-0_補助線
  6
JWW_HOJO
 62
   120
370
     5
100
AcDbLine
 10
6159.917676803936
 20
4424.999604096284
 30
0.0
 11
6159.917676803936
 21
-4455.0
 31
0.0
  0
LINE
  5
60
330
1F
100
AcDbEntity
  8
F-0_補助線
  6
JWW_HOJO
 62
   120
370
     5
100
AcDbLine
 10
6159.917676803936
 20
-4455.0
 30
0.0
 11
-6140.081333436773
 21
-4455.0
 31
0.0
  0
LINE
  5
61
330
1F
100
AcDbEntity
  8
F-1_枠
  6
Continuous
 62
   200
370
    20
100
AcDbLine
 10
5859.917429364114
 20
4174.999769056166
 30
0.0
 11
5859.917429364114
 21
-4205.000164959882
 31
0.0
  0
LINE
  5
62
330
1F
100
AcDbEntity
  8
F-1_枠
  6
Continuous
 62
   200
370
    20
100
AcDbLine
 10
-5840.081317971782
 20
4174.999769056166
 30
0.0
 11
-5840.081317971782
 21
-4205.000164959882
 31
0.0
  0
LINE
  5
63
330
1F
100
AcDbEntity
  8
F-1_枠
  6
Continuous
 62
   200
370
    20
100
AcDbLine
 10
5859.917429364114
 20
-4205.000002577498
 30
0.0
 11
-5840.081085996952
 21
-4205.000002577498
 31
0.0
  0
LINE
  5
64
330
1F
100
AcDbEntity
  8
F-1_枠
  6
Continuous
 62
   200
370
    20
100
AcDbLine
 10
-5830.081323642279
 20
4174.999769056166
 30
0.0
 11
-5830.081323642279
 21
-4205.000164959882
 31
0.0
  0
LINE
  5
65
330
1F
100
AcDbEntity
  8
F-1_枠
  6
Continuous
 62
   200
370
    20
100
AcDbLine
 10
-5835.081309208291
 20
4174.999769056166
 30
0.0
 11
-5835.081309208291
 21
-4205.000164959882
 31
0.0
  0
LINE
  5
66
330
1F
100
AcDbEntity
  8
F-1_枠
  6
Continuous
 62
   200
370
    20
100
AcDbLine
 10
5854.917165428304
 20
4174.999769056166
 30
0.0
 11
5854.917165428304
 21
-4205.000164959882
 31
0.0
  0
LINE
  5
67
330
1F
100
AcDbEntity
  8
F-1_枠
  6
Continuous
 62
   200
370
    20
100
AcDbLine
 10
5849.917643811961
 20
4174.999769056166
 30
0.0
 11
5849.917643811961
 21
-4205.000164959882
 31
0.0
  0
LINE
  5
68
330
1F
100
AcDbEntity
  8
F-1_枠
  6
Continuous
 62
   200
370
    20
100
AcDbLine
 10
5859.917429364114
 20
-4199.999993814004
 30
0.0
 11
-5840.081085996952
 21
-4199.999993814004
 31
0.0
  0
LINE
  5
69
330
1F
100
AcDbEntity
  8
F-1_枠
  6
Continuous
 62
   200
370
    20
100
AcDbLine
 10
5859.917429364114
 20
-4195.000008247994
 30
0.0
 11
-5840.081085996952
 21
-4195.000008247994
 31
0.0
  0
LINE
  5
6A
330
1F
100
AcDbEntity
  8
F-1_枠
  6
Continuous
 62
   200
370
    20
100
AcDbLine
 10
9.918542843316231
 20
-3994.999936078046
 30
0.0
 11
5849.917643811961
 21
-3995.005364289155
 31
0.0
  0
LINE
  5
6B
330
1F
100
AcDbEntity
  8
F-1_枠
  6
Continuous
 62
   200
370
    20
100
AcDbLine
 10
-5840.081085996952
 20
4174.999769056166
 30
0.0
 11
5859.917429364114
 21
4174.999769056166
 31
0.0
  0
LINE
  5
6C
330
1F
100
AcDbEntity
  8
F-1_枠
  6
Continuous
 62
   200
370
    20
100
AcDbLine
 10
-5840.081085996952
 20
4164.999983504013
 30
0.0
 11
5859.917429364114
 21
4164.999983504013
 31
0.0
  0
LINE
  5
6D
330
1F
100
AcDbEntity
  8
F-1_枠
  6
Continuous
 62
   200
370
    20
100
AcDbLine
 10
-5840.081085996952
 20
4169.999505120355
 30
0.0
 11
5859.917429364114
 21
4169.999505120355
 31
0.0
  0
LINE
  5
6E
330
1F
100
AcDbEntity
  8
F-0_補助線
  6
JWW_HOJO
 62
     7
370
     9
100
AcDbLine
 10
-5830.081323642279
 20
-3994.99993607839
 30
0.0
 11
9.918542843316231
 21
-3994.99993607839
 31
0.0
  0
LINE
  5
6F
330
1F
100
AcDbEntity
  8
F-0_補助線
  6
JWW_HOJO
 62
     7
370
     9
100
AcDbLine
 10
-5830.081323642279
 20
-3904.99993607839
 30
0.0
 11
9.918542843316231
 21
-3904.99993607839
 31
0.0
  0
LINE
  5
70
330
1F
100
AcDbEntity
  8
F-0_補助線
  6
JWW_HOJO
 62
     7
370
     9
100
AcDbLine
 10
-5830.081323642279
 20
-4084.99993607839
 30
0.0
 11
9.918542843316231
 21
-4084.99993607839
 31
0.0
  0
LINE
  5
71
330
1F
100
AcDbEntity
  8
F-0_補助線
  6
JWW_HOJO
 62
     7
370
     9
100
AcDbLine
 10
9.918408067688347
 20
-4139.999739777983
 30
0.0
 11
5849.917509036332
 21
-4140.005167989091
 31
0.0
  0
LINE
  5
72
330
1F
100
AcDbEntity
  8
F-0_補助線
  6
JWW_HOJO
 62
     7
370
     9
100
AcDbLine
 10
9.918491721639953
 20
-4049.999739778022
 30
0.0
 11
5849.917592690284
 21
-4050.005167989131
 31
0.0
  0
LINE
  5
73
330
1F
100
AcDbEntity
  8
F-0_補助線
  6
JWW_HOJO
 62
     7
370
     9
100
AcDbLine
 10
9.918593965360003
 20
-3939.99973721807
 30
0.0
 11
5849.917694934003
 21
-3940.005165429179
 31
0.0
  0
LINE
  5
74
330
1F
100
AcDbEntity
  8
F-0_補助線
  6
JWW_HOJO
 62
     7
370
     9
100
AcDbLine
 10
9.918677619311609
 20
-3849.999737218109
 30
0.0
 11
5849.917778587955
 21
-3850.005165429218
 31
0.0
  0
LINE
  5
75
330
1F
100
AcDbEntity
  8
F-1_枠
  6
Continuous
 62
   200
370
    20
100
AcDbLine
 10
5859.917429364114
 20
-3795.000003092998
 30
0.0
 11
-5840.081085996952
 21
-3795.000003092998
 31
0.0
  0
LINE
  5
76
330
1F
100
AcDbEntity
  8
F-1_枠
  6
Continuous
 62
   200
370
    20
100
AcDbLine
 10
5859.917429364114
 20
-3790.000017526987
 30
0.0
 11
-5840.081085996952
 21
-3790.000017526987
 31
0.0
  0
ELLIPSE
  5
77
330
1F
100
AcDbEntity
  8
戸当り
  6
Continuous
 62
    92
370
    13
100
AcDbEllipse
 10
4675.430917458078
 20
2876.053590301511
 30
0.0
 11
11.36181697857171
 21
42.40287823032828
 31
0.0
210
0.0
220
0.0
230
0.9999999999999999
 40
0.6
 41
1.570796326794897
 42
4.71238898038469
  0
LINE
  5
78
330
1F
100
AcDbEntity
  8
戸当り
  6
Continuous
 62
    92
370
    13
100
AcDbLine
 10
4700.872644396272
 20
2869.236500114367
 30
0.0
 11
4649.989190519878
 21
2882.870680488653
 31
0.0
  0
LINE
  5
79
330
1F
100
AcDbEntity
  8
戸当り
  6
Continuous
 62
    92
370
    13
100
AcDbLine
 10
4704.133764364564
 20
2881.407165525609
 30
0.0
 11
4653.25031048817
 21
2895.041345899896
 31
0.0
  0
ELLIPSE
  5
7A
330
1F
100
AcDbEntity
  8
戸当り
  6
Continuous
 62
    92
370
    13
100
AcDbEllipse
 10
4699.604310755758
 20
2966.269922279796
 30
0.0
 11
21.86569797210526
 21
81.6038957748525
 31
0.0
210
0.0
220
0.0
230
1.0
 40
0.5
 41
4.340591432030095
 42
8.225779182329084
  0
ELLIPSE
  5
7B
330
1F
100
AcDbEntity
  8
戸当り
  6
Continuous
 62
    92
370
    13
100
AcDbEllipse
 10
4698.978687882654
 20
2963.935065931004
 30
0.0
 11
26.49533313827761
 21
98.88192943551533
 31
0.0
210
0.0
220
0.0
230
0.9999999999999999
 40
0.4
 41
3.840308517104466
 42
4.432552034522944
  0
ELLIPSE
  5
7C
330
1F
100
AcDbEntity
  8
戸当り
  6
Continuous
 62
    92
370
    13
100
AcDbEllipse
 10
4698.978687882654
 20
2963.935065931004
 30
0.0
 11
26.49533313827761
 21
98.88192943551533
 31
0.0
210
0.0
220
0.0
230
0.9999999999999999
 40
0.4
 41
1.850633272656679
 42
2.442876790075129
  0
ELLIPSE
  5
7D
330
1F
100
AcDbEntity
  8
戸当り
  6
Continuous
 62
    92
370
    13
100
AcDbEllipse
 10
4560.316707711373
 20
2838.28484693721
 30
0.0
 11
-7.622927487939132
 21
43.23177007461331
 31
0.0
210
0.0
220
0.0
230
1.0
 40
0.6000000000000001
 41
1.570796326794897
 42
4.71238898038469
  0
LINE
  5
7E
330
1F
100
AcDbEntity
  8
戸当り
  6
Continuous
 62
    92
370
    13
100
AcDbLine
 10
4586.255769756144
 20
2842.858603429973
 30
0.0
 11
4534.377645666606
 21
2833.711090444447
 31
0.0
  0
LINE
  5
7F
330
1F
100
AcDbEntity
  8
戸当り
  6
Continuous
 62
    92
370
    13
100
AcDbLine
 10
4584.067802717541
 20
2855.267181117928
 30
0.0
 11
4532.189678628002
 21
2846.1196681324
 31
0.0
  0
ELLIPSE
  5
80
330
1F
100
AcDbEntity
  8
戸当り
  6
Continuous
 62
    92
370
    13
100
AcDbEllipse
 10
4544.098172894875
 20
2930.264728582853
 30
0.0
 11
-14.67024424252691
 21
83.19908946199426
 31
0.0
210
0.0
220
0.0
230
1.0
 40
0.5
 41
4.340591432030095
 42
8.225779182329084
  0
ELLIPSE
  5
81
330
1F
100
AcDbEntity
  8
戸当り
  6
Continuous
 62
    92
370
    13
100
AcDbEllipse
 10
4544.517918944779
 20
2927.884230441196
 30
0.0
 11
-17.7763823922528
 21
100.8148742797557
 31
0.0
210
0.0
220
0.0
230
1.0
 40
0.4000000000000001
 41
3.840308517104466
 42
4.432552034522944
  0
ELLIPSE
  5
82
330
1F
100
AcDbEntity
  8
戸当り
  6
Continuous
 62
    92
370
    13
100
AcDbEllipse
 10
4544.517918944779
 20
2927.884230441196
 30
0.0
 11
-17.7763823922528
 21
100.8148742797557
 31
0.0
210
0.0
220
0.0
230
1.0
 40
0.4000000000000001
 41
1.850633272656679
 42
2.442876790075129
  0
LINE
  5
83
330
1F
100
AcDbEntity
  8
0-0_補助線
  6
JWW_HOJO
 62
   120
370
     5
100
AcDbLine
 10
4619.917643811961
 20
2718.999983504013
 30
0.0
 11
4619.917643811961
 21
3536.444090120683
 31
0.0
  0
LINE
  5
84
330
1F
100
AcDbEntity
  8
0-A_文字
  6
Continuous
 62
    92
370
    13
100
AcDbLine
 10
3869.917643811962
 20
3684.999983504013
 30
0.0
 11
3869.917643811962
 21
2718.999983504013
 31
0.0
  0
LINE
  5
85
330
1F
100
AcDbEntity
  8
0-0_補助線
  6
JWW_HOJO
 62
   120
370
     5
100
AcDbLine
 10
3899.917643811962
 20
3684.999983504013
 30
0.0
 11
3899.917643811962
 21
2718.999983504013
 31
0.0
  0
LINE
  5
86
330
1F
100
AcDbEntity
  8
0-A_文字
  6
Continuous
 62
    92
370
    13
100
AcDbLine
 10
5369.917643811961
 20
2718.999983504013
 30
0.0
 11
3869.917643811962
 21
2718.999983504013
 31
0.0
  0
LINE
  5
87
330
1F
100
AcDbEntity
  8
0-A_文字
  6
Continuous
 62
    92
370
    13
100
AcDbLine
 10
5369.917643811961
 20
3684.999983504013
 30
0.0
 11
5369.917643811961
 21
2718.999983504013
 31
0.0
  0
LINE
  5
88
330
1F
100
AcDbEntity
  8
0-0_補助線
  6
JWW_HOJO
 62
   120
370
     5
100
AcDbLine
 10
5339.917643811961
 20
3684.999983504013
 30
0.0
 11
5339.917643811961
 21
2718.999983504013
 31
0.0
  0
LINE
  5
89
330
1F
100
AcDbEntity
  8
戸当り
  6
Continuous
 62
    40
370
    15
100
AcDbLine
 10
4573.330215693508
 20
3385.504011182749
 30
0.0
 11
4619.917643811961
 21
3211.637362450716
 31
0.0
  0
LINE
  5
8A
330
1F
100
AcDbEntity
  8
戸当り
  6
Continuous
 62
    40
370
    15
100
AcDbLine
 10
4666.505071930415
 20
3385.504011182749
 30
0.0
 11
4619.917643811961
 21
3211.637362450717
 31
0.0
  0
LINE
  5
8B
330
1F
100
AcDbEntity
  8
戸当り
  6
Continuous
 62
    40
370
    15
100
AcDbLine
 10
5066.742787575054
 20
3385.504011182749
 30
0.0
 11
5113.330215693508
 21
3211.637362450716
 31
0.0
  0
LINE
  5
8C
330
1F
100
AcDbEntity
  8
戸当り
  6
Continuous
 62
    40
370
    15
100
AcDbLine
 10
5159.917643811961
 20
3385.504011182749
 30
0.0
 11
5113.330215693508
 21
3211.637362450717
 31
0.0
  0
LINE
  5
8D
330
1F
100
AcDbEntity
  8
戸当り
  6
Continuous
 62
    40
370
    15
100
AcDbLine
 10
4173.09250004887
 20
3385.504011182749
 30
0.0
 11
4126.505071930415
 21
3211.637362450717
 31
0.0
  0
LINE
  5
8E
330
1F
100
AcDbEntity
  8
戸当り
  6
Continuous
 62
    40
370
    15
100
AcDbLine
 10
4079.917643811962
 20
3385.504011182749
 30
0.0
 11
4126.505071930415
 21
3211.637362450716
 31
0.0
  0
CIRCLE
  5
8F
330
1F
100
AcDbEntity
  8
0-0_補助線
  6
JWW_HOJO
 62
   120
370
     5
100
AcDbCircle
 10
5159.917643811961
 20
3385.504011182749
 30
0.0
 40
179.9999999999991
  0
CIRCLE
  5
90
330
1F
100
AcDbEntity
  8
0-0_補助線
  6
JWW_HOJO
 62
   120
370
     5
100
AcDbCircle
 10
4799.917643811961
 20
3385.504011182749
 30
0.0
 40
180.0
  0
CIRCLE
  5
91
330
1F
100
AcDbEntity
  8
0-0_補助線
  6
JWW_HOJO
 62
   120
370
     5
100
AcDbCircle
 10
4439.917643811961
 20
3385.504011182749
 30
0.0
 40
180.0
  0
CIRCLE
  5
92
330
1F
100
AcDbEntity
  8
0-0_補助線
  6
JWW_HOJO
 62
   120
370
     5
100
AcDbCircle
 10
4079.917643811962
 20
3385.504011182749
 30
0.0
 40
180.0
  0
LINE
  5
93
330
1F
100
AcDbEntity
  8
戸当り
  6
JWW_DASHED2
 62
     7
370
     9
100
AcDbLine
 10
5159.917643811961
 20
3385.504011182749
 30
0.0
 11
4079.917643811962
 21
3385.504011182749
 31
0.0
  0
LINE
  5
94
330
1F
100
AcDbEntity
  8
戸当り
  6
Continuous
 62
    40
370
    15
100
AcDbLine
 10
4079.917643811962
 20
3439.504011182749
 30
0.0
 11
4079.917643811962
 21
3385.504011182749
 31
0.0
  0
LINE
  5
95
330
1F
100
AcDbEntity
  8
戸当り
  6
Continuous
 62
    40
370
    15
100
AcDbLine
 10
4079.917643811962
 20
3439.504011182749
 30
0.0
 11
3899.917643811962
 21
3439.504011182749
 31
0.0
  0
LINE
  5
96
330
1F
100
AcDbEntity
  8
戸当り
  6
Continuous
 62
    40
370
    15
100
AcDbLine
 10
4079.917643811962
 20
3385.504011182749
 30
0.0
 11
3899.917643811962
 21
3385.504011182749
 31
0.0
  0
LINE
  5
97
330
1F
100
AcDbEntity
  8
戸当り
  6
Continuous
 62
    40
370
    15
100
AcDbLine
 10
5159.917643811961
 20
3439.504011182749
 30
0.0
 11
5159.917643811961
 21
3385.504011182749
 31
0.0
  0
LINE
  5
98
330
1F
100
AcDbEntity
  8
戸当り
  6
Continuous
 62
    40
370
    15
100
AcDbLine
 10
5159.917643811961
 20
3439.504011182749
 30
0.0
 11
5339.917643811961
 21
3439.504011182749
 31
0.0
  0
LINE
  5
99
330
1F
100
AcDbEntity
  8
戸当り
  6
Continuous
 62
    40
370
    15
100
AcDbLine
 10
5159.917643811961
 20
3385.504011182749
 30
0.0
 11
5339.917643811961
 21
3385.504011182749
 31
0.0
  0
MTEXT
  5
9A
330
1F
100
AcDbEntity
  8
0-A_文字
  6
Continuous
 62
     7
370
     9
100
AcDbMText
 10
4259.917643811961
 20
3562.188554932584
 30
0.0
 40
78.37714285714286
 41
720.0
 46
0.0
 71
     7
 72
     1
  1
{\fＭＳ ゴシック|b0|i0|c128|p49;フリーオープン}
 73
     1
 44
1.0
  0
LINE
  5
9B
330
1F
100
AcDbEntity
  8
0-A_文字
  6
Continuous
 62
    92
370
    13
100
AcDbLine
 10
5369.917643811961
 20
3540.999983504012
 30
0.0
 11
3869.917643811962
 21
3540.999983504012
 31
0.0
  0
LINE
  5
9C
330
1F
100
AcDbEntity
  8
0-A_文字
  6
Continuous
 62
    92
370
    13
100
AcDbLine
 10
5369.917643811961
 20
3684.999983504013
 30
0.0
 11
3869.917643811962
 21
3684.999983504013
 31
0.0
  0
MTEXT
  5
9D
330
1F
100
AcDbEntity
  8
0-A_文字
  6
Continuous
 62
     7
370
     9
100
AcDbMText
 10
-3620.690572926135
 20
3322.213602323942
 30
0.0
 40
100.584
 41
660.0
 46
0.0
 71
     7
 72
     1
  1
{\fＭＳ ゴシック|b0|i0|c128|p49;■横断面図}
 73
     1
 44
1.0
  0
LINE
  5
9E
330
1F
100
AcDbEntity
  8
0-0_補助線
  6
JWW_HOJO
 62
   120
370
     5
100
AcDbLine
 10
1923.308956890207
 20
2961.945146596844
 30
0.0
 11
-3620.690572926138
 21
2961.945146596844
 31
0.0
  0
LINE
  5
9F
330
1F
100
AcDbEntity
  8
0-0_補助線
  6
JWW_HOJO
 62
   120
370
     5
100
AcDbLine
 10
1923.308956890207
 20
2781.945146596844
 30
0.0
 11
-3620.690572926138
 21
2781.945146596844
 31
0.0
  0
LINE
  5
A0
330
1F
100
AcDbEntity
  8
0-0_補助線
  6
JWW_HOJO
 62
     7
370
     9
100
AcDbLine
 10
193.8099716128664
 20
2442.945146596845
 30
0.0
 11
193.8099716128664
 21
2280.944503253305
 31
0.0
  0
LINE
  5
A1
330
1F
100
AcDbEntity
  8
0-0_補助線
  6
JWW_HOJO
 62
     7
370
     9
100
AcDbLine
 10
133.8099716128664
 20
2442.945146596845
 30
0.0
 11
133.8099716128664
 21
2280.944503253305
 31
0.0
  0
LINE
  5
A2
330
1F
100
AcDbEntity
  8
0-6_扉
  6
Continuous
 62
   200
370
    20
100
AcDbLine
 10
-168.6901026381213
 20
2442.945146596845
 30
0.0
 11
133.8099716128664
 21
2442.945146596845
 31
0.0
  0
LINE
  5
A3
330
1F
100
AcDbEntity
  8
0-6_扉
  6
Continuous
 62
   200
370
    20
100
AcDbLine
 10
-168.6901026381213
 20
2280.944503253305
 30
0.0
 11
133.8099716128664
 21
2280.944503253305
 31
0.0
  0
LINE
  5
A4
330
1F
100
AcDbEntity
  8
0-6_扉
  6
Continuous
 62
   200
370
    20
100
AcDbLine
 10
-2855.690770877996
 20
2442.946443181514
 30
0.0
 11
-2855.690770877996
 21
2280.945146596845
 31
0.0
  0
LINE
  5
A5
330
1F
100
AcDbEntity
  8
0-6_扉
  6
Continuous
 62
   200
370
    20
100
AcDbLine
 10
-2855.690770877996
 20
2280.944503253305
 30
0.0
 11
-2557.690585279074
 21
2280.944503253305
 31
0.0
  0
LINE
  5
A6
330
1F
100
AcDbEntity
  8
0-6_扉
  6
Continuous
 62
   200
370
    20
100
AcDbLine
 10
-2855.690770877996
 20
2442.945146596845
 30
0.0
 11
-2557.690585279074
 21
2442.945146596845
 31
0.0
  0
LINE
  5
A7
330
1F
100
AcDbEntity
  8
0-0_補助線
  6
JWW_HOJO
 62
     7
370
     9
100
AcDbLine
 10
-2557.690585279074
 20
2442.945146596845
 30
0.0
 11
-2557.690585279074
 21
2280.944503253305
 31
0.0
  0
LINE
  5
A8
330
1F
100
AcDbEntity
  8
0-0_補助線
  6
JWW_HOJO
 62
     7
370
     9
100
AcDbLine
 10
-2497.690585279074
 20
2442.945146596845
 30
0.0
 11
-2497.690585279074
 21
2280.944503253305
 31
0.0
  0
LINE
  5
A9
330
1F
100
AcDbEntity
  8
0-6_扉
  6
Continuous
 62
   200
370
    20
100
AcDbLine
 10
-2497.690585279074
 20
2280.944503253305
 30
0.0
 11
-2199.690399680152
 21
2280.944503253305
 31
0.0
  0
LINE
  5
AA
330
1F
100
AcDbEntity
  8
0-6_扉
  6
Continuous
 62
   200
370
    20
100
AcDbLine
 10
-2497.690585279074
 20
2442.945146596845
 30
0.0
 11
-2199.690399680152
 21
2442.945146596845
 31
0.0
  0
LINE
  5
AB
330
1F
100
AcDbEntity
  8
0-6_扉
  6
Continuous
 62
   200
370
    20
100
AcDbLine
 10
-2193.690473912097
 20
2442.945146596845
 30
0.0
 11
-2193.690473912097
 21
2280.944503253305
 31
0.0
  0
LINE
  5
AC
330
1F
100
AcDbEntity
  8
0-6_扉
  6
Continuous
 62
   200
370
    20
100
AcDbLine
 10
-2199.690399680152
 20
2442.945146596845
 30
0.0
 11
-2199.690399680152
 21
2280.944503253305
 31
0.0
  0
CIRCLE
  5
AD
330
1F
100
AcDbEntity
  8
0-7_金物
  6
Continuous
 62
     7
370
     9
100
AcDbCircle
 10
-2196.690436796126
 20
2472.945146596845
 30
0.0
 40
30.0
  0
CIRCLE
  5
AE
330
1F
100
AcDbEntity
  8
0-7_金物
  6
Continuous
 62
     7
370
     9
100
AcDbCircle
 10
-2196.690436796126
 20
2472.945146596845
 30
0.0
 40
21.00000000000001
  0
LINE
  5
AF
330
1F
100
AcDbEntity
  8
0-6_扉
  6
Continuous
 62
   200
370
    20
100
AcDbLine
 10
-2193.690473912097
 20
2280.944503253305
 30
0.0
 11
-1891.190399661109
 21
2280.944503253305
 31
0.0
  0
LINE
  5
B0
330
1F
100
AcDbEntity
  8
0-6_扉
  6
Continuous
 62
   200
370
    20
100
AcDbLine
 10
-2193.690473912097
 20
2442.945146596845
 30
0.0
 11
-1891.190399661109
 21
2442.945146596845
 31
0.0
  0
LINE
  5
B1
330
1F
100
AcDbEntity
  8
0-0_補助線
  6
JWW_HOJO
 62
     7
370
     9
100
AcDbLine
 10
-1891.190399661109
 20
2442.945146596845
 30
0.0
 11
-1891.190399661109
 21
2280.944503253305
 31
0.0
  0
LINE
  5
B2
330
1F
100
AcDbEntity
  8
0-0_補助線
  6
JWW_HOJO
 62
     7
370
     9
100
AcDbLine
 10
-1831.190399661109
 20
2442.945146596845
 30
0.0
 11
-1831.190399661109
 21
2280.944503253305
 31
0.0
  0
LINE
  5
B3
330
1F
100
AcDbEntity
  8
0-6_扉
  6
Continuous
 62
   200
370
    20
100
AcDbLine
 10
-1831.190399661109
 20
2280.944503253305
 30
0.0
 11
-1528.690325410123
 21
2280.944503253305
 31
0.0
  0
LINE
  5
B4
330
1F
100
AcDbEntity
  8
0-6_扉
  6
Continuous
 62
   200
370
    20
100
AcDbLine
 10
-1831.190399661109
 20
2442.945146596845
 30
0.0
 11
-1528.690325410123
 21
2442.945146596845
 31
0.0
  0
LINE
  5
B5
330
1F
100
AcDbEntity
  8
0-6_扉
  6
Continuous
 62
   200
370
    20
100
AcDbLine
 10
-1528.690325410123
 20
2442.945146596845
 30
0.0
 11
-1528.690325410123
 21
2280.944503253305
 31
0.0
  0
LINE
  5
B6
330
1F
100
AcDbEntity
  8
0-6_扉
  6
Continuous
 62
   200
370
    20
100
AcDbLine
 10
-1516.690325410125
 20
2442.945146596845
 30
0.0
 11
-1516.690325410125
 21
2280.944503253305
 31
0.0
  0
LINE
  5
B7
330
1F
100
AcDbEntity
  8
0-6_扉
  6
Continuous
 62
   200
370
    20
100
AcDbLine
 10
-1516.690325410125
 20
2280.944503253305
 30
0.0
 11
-1214.190251159137
 21
2280.944503253305
 31
0.0
  0
LINE
  5
B8
330
1F
100
AcDbEntity
  8
0-6_扉
  6
Continuous
 62
   200
370
    20
100
AcDbLine
 10
-1516.690325410125
 20
2442.945146596845
 30
0.0
 11
-1214.190251159137
 21
2442.945146596845
 31
0.0
  0
LINE
  5
B9
330
1F
100
AcDbEntity
  8
0-0_補助線
  6
JWW_HOJO
 62
     7
370
     9
100
AcDbLine
 10
-1214.190251159137
 20
2442.945146596845
 30
0.0
 11
-1214.190251159137
 21
2280.944503253305
 31
0.0
  0
LINE
  5
BA
330
1F
100
AcDbEntity
  8
0-0_補助線
  6
JWW_HOJO
 62
     7
370
     9
100
AcDbLine
 10
-1154.190251159137
 20
2442.945146596845
 30
0.0
 11
-1154.190251159137
 21
2280.944503253305
 31
0.0
  0
LINE
  5
BB
330
1F
100
AcDbEntity
  8
0-6_扉
  6
Continuous
 62
   200
370
    20
100
AcDbLine
 10
-1154.190251159137
 20
2280.944503253305
 30
0.0
 11
-851.6901769081488
 21
2280.944503253305
 31
0.0
  0
LINE
  5
BC
330
1F
100
AcDbEntity
  8
0-6_扉
  6
Continuous
 62
   200
370
    20
100
AcDbLine
 10
-1154.190251159137
 20
2442.945146596845
 30
0.0
 11
-851.6901769081488
 21
2442.945146596845
 31
0.0
  0
LINE
  5
BD
330
1F
100
AcDbEntity
  8
0-6_扉
  6
Continuous
 62
   200
370
    20
100
AcDbLine
 10
-845.690251140096
 20
2442.945146596845
 30
0.0
 11
-845.690251140096
 21
2280.944503253305
 31
0.0
  0
LINE
  5
BE
330
1F
100
AcDbEntity
  8
0-6_扉
  6
Continuous
 62
   200
370
    20
100
AcDbLine
 10
-851.6901769081488
 20
2442.945146596845
 30
0.0
 11
-851.6901769081488
 21
2280.944503253305
 31
0.0
  0
CIRCLE
  5
BF
330
1F
100
AcDbEntity
  8
0-7_金物
  6
Continuous
 62
     7
370
     9
100
AcDbCircle
 10
-848.6902140241216
 20
2472.945146596845
 30
0.0
 40
21.00000000000001
  0
CIRCLE
  5
C0
330
1F
100
AcDbEntity
  8
0-7_金物
  6
Continuous
 62
     7
370
     9
100
AcDbCircle
 10
-848.6902140241216
 20
2472.945146596845
 30
0.0
 40
30.0
  0
LINE
  5
C1
330
1F
100
AcDbEntity
  8
0-6_扉
  6
Continuous
 62
   200
370
    20
100
AcDbLine
 10
-845.690251140096
 20
2280.944503253305
 30
0.0
 11
-543.1901768891083
 21
2280.944503253305
 31
0.0
  0
LINE
  5
C2
330
1F
100
AcDbEntity
  8
0-6_扉
  6
Continuous
 62
   200
370
    20
100
AcDbLine
 10
-845.690251140096
 20
2442.945146596845
 30
0.0
 11
-543.1901768891083
 21
2442.945146596845
 31
0.0
  0
LINE
  5
C3
330
1F
100
AcDbEntity
  8
0-0_補助線
  6
JWW_HOJO
 62
     7
370
     9
100
AcDbLine
 10
-543.1901768891083
 20
2442.945146596845
 30
0.0
 11
-543.1901768891083
 21
2280.944503253305
 31
0.0
  0
LINE
  5
C4
330
1F
100
AcDbEntity
  8
0-0_補助線
  6
JWW_HOJO
 62
     7
370
     9
100
AcDbLine
 10
-483.1901768891083
 20
2442.945146596845
 30
0.0
 11
-483.1901768891083
 21
2280.944503253305
 31
0.0
  0
LINE
  5
C5
330
1F
100
AcDbEntity
  8
0-6_扉
  6
Continuous
 62
   200
370
    20
100
AcDbLine
 10
-483.1901768891083
 20
2280.944503253305
 30
0.0
 11
-180.6901026381206
 21
2280.944503253305
 31
0.0
  0
LINE
  5
C6
330
1F
100
AcDbEntity
  8
0-6_扉
  6
Continuous
 62
   200
370
    20
100
AcDbLine
 10
-483.1901768891083
 20
2442.945146596845
 30
0.0
 11
-180.6901026381206
 21
2442.945146596845
 31
0.0
  0
LINE
  5
C7
330
1F
100
AcDbEntity
  8
0-6_扉
  6
Continuous
 62
   200
370
    20
100
AcDbLine
 10
-180.6901026381206
 20
2442.945146596845
 30
0.0
 11
-180.6901026381206
 21
2280.944503253305
 31
0.0
  0
LINE
  5
C8
330
1F
100
AcDbEntity
  8
0-6_扉
  6
Continuous
 62
   200
370
    20
100
AcDbLine
 10
-168.6901026381213
 20
2442.945146596845
 30
0.0
 11
-168.6901026381213
 21
2280.944503253305
 31
0.0
  0
CIRCLE
  5
C9
330
1F
100
AcDbEntity
  8
0-7_金物
  6
Continuous
 62
     7
370
     9
100
AcDbCircle
 10
499.3100087478797
 20
2472.945146596845
 30
0.0
 40
21.00000000000001
  0
CIRCLE
  5
CA
330
1F
100
AcDbEntity
  8
0-7_金物
  6
Continuous
 62
     7
370
     9
100
AcDbCircle
 10
499.3100087478797
 20
2472.945146596845
 30
0.0
 40
30.0
  0
LINE
  5
CB
330
1F
100
AcDbEntity
  8
0-6_扉
  6
Continuous
 62
   200
370
    20
100
AcDbLine
 10
496.3100458638525
 20
2442.945146596845
 30
0.0
 11
496.3100458638525
 21
2280.944503253305
 31
0.0
  0
LINE
  5
CC
330
1F
100
AcDbEntity
  8
0-6_扉
  6
Continuous
 62
   200
370
    20
100
AcDbLine
 10
502.3099716319069
 20
2442.945146596845
 30
0.0
 11
502.3099716319069
 21
2280.944503253305
 31
0.0
  0
LINE
  5
CD
330
1F
100
AcDbEntity
  8
0-6_扉
  6
Continuous
 62
   200
370
    20
100
AcDbLine
 10
193.8099716128664
 20
2442.945146596845
 30
0.0
 11
496.3100458638525
 21
2442.945146596845
 31
0.0
  0
LINE
  5
CE
330
1F
100
AcDbEntity
  8
0-6_扉
  6
Continuous
 62
   200
370
    20
100
AcDbLine
 10
193.8099716128664
 20
2280.944503253305
 30
0.0
 11
496.3100458638525
 21
2280.944503253305
 31
0.0
  0
LINE
  5
CF
330
1F
100
AcDbEntity
  8
0-0_補助線
  6
JWW_HOJO
 62
     7
370
     9
100
AcDbLine
 10
860.3095632369849
 20
2442.945146596845
 30
0.0
 11
860.3095632369849
 21
2280.944503253305
 31
0.0
  0
LINE
  5
D0
330
1F
100
AcDbEntity
  8
0-0_補助線
  6
JWW_HOJO
 62
     7
370
     9
100
AcDbLine
 10
800.3095632369849
 20
2442.945146596845
 30
0.0
 11
800.3095632369849
 21
2280.944503253305
 31
0.0
  0
LINE
  5
D1
330
1F
100
AcDbEntity
  8
0-6_扉
  6
Continuous
 62
   200
370
    20
100
AcDbLine
 10
502.3099716319069
 20
2442.945146596845
 30
0.0
 11
800.3095632369849
 21
2442.945146596845
 31
0.0
  0
LINE
  5
D2
330
1F
100
AcDbEntity
  8
0-6_扉
  6
Continuous
 62
   200
370
    20
100
AcDbLine
 10
502.3099716319069
 20
2280.944503253305
 30
0.0
 11
800.3095632369849
 21
2280.944503253305
 31
0.0
  0
LINE
  5
D3
330
1F
100
AcDbEntity
  8
0-1_通り芯
  6
JWW_CENTER1
 62
   120
370
     5
100
AcDbLine
 10
1923.308956890207
 20
2361.945146596844
 30
0.0
 11
-3620.690572926138
 21
2361.945146596844
 31
0.0
  0
LINE
  5
D4
330
1F
100
AcDbEntity
  8
0-6_扉
  6
Continuous
 62
   200
370
    20
100
AcDbLine
 10
860.3095632369849
 20
2280.944503253305
 30
0.0
 11
1158.309154842065
 21
2280.944503253305
 31
0.0
  0
LINE
  5
D5
330
1F
100
AcDbEntity
  8
0-6_扉
  6
Continuous
 62
   200
370
    20
100
AcDbLine
 10
860.3095632369849
 20
2442.945146596845
 30
0.0
 11
1158.309154842065
 21
2442.945146596845
 31
0.0
  0
LINE
  5
D6
330
1F
100
AcDbEntity
  8
0-6_扉
  6
Continuous
 62
   200
370
    20
100
AcDbLine
 10
1158.309154842065
 20
2442.946443181514
 30
0.0
 11
1158.309154842065
 21
2280.945146596845
 31
0.0
  0
LINE
  5
D7
330
1F
100
AcDbEntity
  8
0-0_補助線
  6
JWW_HOJO
 62
     7
370
     9
100
AcDbLine
 10
-2840.690127534427
 20
3141.945146596844
 30
0.0
 11
-2840.690127534427
 21
1221.945146596842
 31
0.0
  0
LINE
  5
D8
330
1F
100
AcDbEntity
  8
0-0_補助線
  6
JWW_HOJO
 62
     7
370
     9
100
AcDbLine
 10
1143.310070645917
 20
1221.945146596842
 30
0.0
 11
1143.310070645917
 21
3141.945146596844
 31
0.0
  0
LINE
  5
D9
330
1F
100
AcDbEntity
  8
0-0_補助線
  6
JWW_HOJO
 62
   120
370
     5
100
AcDbLine
 10
1923.308956890207
 20
3141.945146596844
 30
0.0
 11
-3620.690572926138
 21
3141.945146596844
 31
0.0
  0
MTEXT
  5
DA
330
1F
100
AcDbEntity
  8
0-B_寸法
  6
Continuous
 62
     7
370
     9
100
AcDbMText
 10
-2845.611302192255
 20
2311.828631193716
 30
0.0
 40
91.44
 41
180.0
 46
0.0
 71
     7
 72
     1
  1
{\fＭＳ ゴシック|b0|i0|c128|p49;2.5}
 73
     1
 44
1.0
  0
LWPOLYLINE
  5
DB
330
1F
100
AcDbEntity
  8
0-B_寸法
  6
Continuous
 62
     7
370
     9
100
AcDbPolyline
 90
        4
 70
     1
 43
3.0
 10
-2854.190770925991
 20
2324.359196304382
 42
0.4142135623731
 10
-2855.69077092599
 20
2325.859196304382
 42
0.4142135623731
 10
-2857.19077092599
 20
2324.359196304382
 42
0.4142135623731
 10
-2855.69077092599
 20
2322.859196304382
 42
0.4142135623731
  0
LWPOLYLINE
  5
DC
330
1F
100
AcDbEntity
  8
0-B_寸法
  6
Continuous
 62
     7
370
     9
100
AcDbPolyline
 90
        4
 70
     1
 43
3.0
 10
-2869.190820413956
 20
2324.359196304382
 42
0.4142135623731
 10
-2870.690820413956
 20
2325.859196304382
 42
0.4142135623731
 10
-2872.190820413956
 20
2324.359196304382
 42
0.4142135623731
 10
-2870.690820413956
 20
2322.859196304382
 42
0.4142135623731
  0
LINE
  5
DD
330
1F
100
AcDbEntity
  8
0-B_寸法
  6
Continuous
 62
   120
370
     5
100
AcDbLine
 10
-2870.690820413956
 20
2405.688459527567
 30
0.0
 11
-2870.690820413956
 21
2324.359196304382
 31
0.0
  0
LINE
  5
DE
330
1F
100
AcDbEntity
  8
0-B_寸法
  6
Continuous
 62
   120
370
     5
100
AcDbLine
 10
-2855.69077092599
 20
2405.688459527567
 30
0.0
 11
-2855.69077092599
 21
2324.359196304382
 31
0.0
  0
LINE
  5
DF
330
1F
100
AcDbEntity
  8
0-B_寸法
  6
Continuous
 62
   120
370
     5
100
AcDbLine
 10
-2870.690820413956
 20
2324.359196304382
 30
0.0
 11
-2855.69077092599
 21
2324.359196304382
 31
0.0
  0
LWPOLYLINE
  5
E0
330
1F
100
AcDbEntity
  8
0-B_寸法
  6
Continuous
 62
     7
370
     9
100
AcDbPolyline
 90
        4
 70
     1
 43
3.0
 10
-2521.51410151008
 20
2085.945943353073
 42
0.4142135623731
 10
-2523.01410151008
 20
2087.445943353073
 42
0.4142135623731
 10
-2524.51410151008
 20
2085.945943353073
 42
0.4142135623731
 10
-2523.01410151008
 20
2084.445943353073
 42
0.4142135623731
  0
LINE
  5
E1
330
1F
100
AcDbEntity
  8
0-B_寸法
  6
Continuous
 62
   120
370
     5
100
AcDbLine
 10
-2641.789670291752
 20
2085.945943353073
 30
0.0
 11
-2523.01410151008
 21
2085.945943353073
 31
0.0
  0
LWPOLYLINE
  5
E2
330
1F
100
AcDbEntity
  8
0-B_寸法
  6
Continuous
 62
     7
370
     9
100
AcDbPolyline
 90
        4
 70
     1
 43
3.0
 10
-2521.51410151008
 20
2637.945092160083
 42
0.4142135623731
 10
-2523.01410151008
 20
2639.445092160082
 42
0.4142135623731
 10
-2524.51410151008
 20
2637.945092160083
 42
0.4142135623731
 10
-2523.01410151008
 20
2636.445092160083
 42
0.4142135623731
  0
LINE
  5
E3
330
1F
100
AcDbEntity
  8
0-B_寸法
  6
Continuous
 62
   120
370
     5
100
AcDbLine
 10
-2641.789670291752
 20
2637.945092160083
 30
0.0
 11
-2523.01410151008
 21
2637.945092160083
 31
0.0
  0
LINE
  5
E4
330
1F
100
AcDbEntity
  8
0-B_寸法
  6
Continuous
 62
   120
370
     5
100
AcDbLine
 10
-2523.01410151008
 20
2085.945943353073
 30
0.0
 11
-2523.01410151008
 21
2637.945092160083
 31
0.0
  0
MTEXT
  5
E5
330
1F
100
AcDbEntity
  8
0-B_寸法
  6
Continuous
 62
     7
370
     9
100
AcDbMText
 10
-2538.015264477246
 20
2287.87476317252
 30
0.0
 40
91.44
 41
120.0
 46
0.0
 71
     7
 72
     1
  1
{\fＭＳ ゴシック|b0|i0|c128|p49;92}
 11
6.123031769111886E-17
 21
1.0
 31
0.0
 73
     1
 44
1.0
  0
LINE
  5
E6
330
1F
100
AcDbEntity
  8
0-B_寸法
  6
Continuous
 62
   120
370
     5
100
AcDbLine
 10
-2279.904427427132
 20
2280.944503253305
 30
0.0
 11
-2279.904427427132
 21
2442.945146596845
 31
0.0
  0
LWPOLYLINE
  5
E7
330
1F
100
AcDbEntity
  8
0-B_寸法
  6
Continuous
 62
     7
370
     9
100
AcDbPolyline
 90
        4
 70
     1
 43
3.0
 10
-2278.404427427132
 20
2442.945146596845
 42
0.4142135623731
 10
-2279.904427427132
 20
2444.445146596845
 42
0.4142135623731
 10
-2281.404427427132
 20
2442.945146596845
 42
0.4142135623731
 10
-2279.904427427132
 20
2441.445146596845
 42
0.4142135623731
  0
LWPOLYLINE
  5
E8
330
1F
100
AcDbEntity
  8
0-B_寸法
  6
Continuous
 62
     7
370
     9
100
AcDbPolyline
 90
        4
 70
     1
 43
3.0
 10
-2278.404427427132
 20
2280.944503253305
 42
0.4142135623731
 10
-2279.904427427132
 20
2282.444503253305
 42
0.4142135623731
 10
-2281.404427427132
 20
2280.944503253305
 42
0.4142135623731
 10
-2279.904427427132
 20
2279.444503253305
 42
0.4142135623731
  0
MTEXT
  5
E9
330
1F
100
AcDbEntity
  8
0-B_寸法
  6
Continuous
 62
     7
370
     0
100
AcDbMText
 10
-2294.904476915096
 20
2289.164374584597
 30
0.0
 40
91.44
 41
120.0
 46
0.0
 71
     7
 72
     1
  1
{\fＭＳ ゴシック|b0|i0|c128|p49;27}
 11
6.123031769111886E-17
 21
1.0
 31
0.0
 73
     1
 44
1.0
  0
LWPOLYLINE
  5
EA
330
1F
100
AcDbEntity
  8
0-B_寸法
  6
Continuous
 62
     7
370
     9
100
AcDbPolyline
 90
        4
 70
     1
 43
3.0
 10
-3079.190820413948
 20
3141.945146596844
 42
0.4142135623731
 10
-3080.690820413948
 20
3143.445146596844
 42
0.4142135623731
 10
-3082.190820413948
 20
3141.945146596844
 42
0.4142135623731
 10
-3080.690820413948
 20
3140.445146596844
 42
0.4142135623731
  0
LINE
  5
EB
330
1F
100
AcDbEntity
  8
0-B_寸法
  6
Continuous
 62
   120
370
     5
100
AcDbLine
 10
-3080.690820413948
 20
3141.945146596844
 30
0.0
 11
-3080.690820413948
 21
2781.945146596844
 31
0.0
  0
LWPOLYLINE
  5
EC
330
1F
100
AcDbEntity
  8
0-B_寸法
  6
Continuous
 62
     7
370
     9
100
AcDbPolyline
 90
        4
 70
     1
 43
3.0
 10
1384.809154842056
 20
3141.945146596844
 42
0.4142135623731
 10
1383.309154842056
 20
3143.445146596844
 42
0.4142135623731
 10
1381.809154842056
 20
3141.945146596844
 42
0.4142135623731
 10
1383.309154842056
 20
3140.445146596844
 42
0.4142135623731
  0
LINE
  5
ED
330
1F
100
AcDbEntity
  8
0-B_寸法
  6
Continuous
 62
   120
370
     5
100
AcDbLine
 10
1383.309154842056
 20
3141.945146596844
 30
0.0
 11
1383.309154842056
 21
2781.945146596844
 31
0.0
  0
LINE
  5
EE
330
1F
100
AcDbEntity
  8
0-B_寸法
  6
Continuous
 62
   120
370
     5
100
AcDbLine
 10
-3080.690820413948
 20
3141.945146596844
 30
0.0
 11
1383.309154842056
 21
3141.945146596844
 31
0.0
  0
MTEXT
  5
EF
330
1F
100
AcDbEntity
  8
0-B_寸法
  6
Continuous
 62
     7
370
     0
100
AcDbMText
 10
-2138.947386738025
 20
2229.164374584597
 30
0.0
 40
91.44
 41
240.0
 46
0.0
 71
     7
 72
     1
  1
{\fＭＳ ゴシック|b0|i0|c128|p49;(24)}
 11
6.123031769111886E-17
 21
1.0
 31
0.0
 73
     1
 44
1.0
  0
LINE
  5
F0
330
1F
100
AcDbEntity
  8
0-7_金物
  6
Continuous
 62
     7
370
     9
100
AcDbLine
 10
1371.308817241347
 20
2271.944843328411
 30
0.0
 11
1371.308817241347
 21
2451.944705999309
 31
0.0
  0
LINE
  5
F1
330
1F
100
AcDbEntity
  8
0-7_金物
  6
Continuous
 62
     7
370
     9
100
AcDbLine
 10
1383.309154842056
 20
2451.944705999309
 30
0.0
 11
1371.308817241347
 21
2451.944705999309
 31
0.0
  0
LINE
  5
F2
330
1F
100
AcDbEntity
  8
0-7_金物
  6
Continuous
 62
     7
370
     9
100
AcDbLine
 10
1383.309154842056
 20
2271.944843328411
 30
0.0
 11
1371.308817241347
 21
2271.944843328411
 31
0.0
  0
LINE
  5
F3
330
1F
100
AcDbEntity
  8
0-7_金物
  6
Continuous
 62
     7
370
     9
100
AcDbLine
 10
1383.309154842056
 20
2271.944843328411
 30
0.0
 11
1383.309154842056
 21
2451.944705999309
 31
0.0
  0
LINE
  5
F4
330
1F
100
AcDbEntity
  8
0-7_金物
  6
Continuous
 62
     7
370
     9
100
AcDbLine
 10
1371.308817241347
 20
2301.944946325237
 30
0.0
 11
1359.309223506606
 21
2301.944946325237
 31
0.0
  0
LINE
  5
F5
330
1F
100
AcDbEntity
  8
0-7_金物
  6
Continuous
 62
     7
370
     9
100
AcDbLine
 10
1371.308817241347
 20
2421.944603002483
 30
0.0
 11
1359.309223506606
 21
2421.944603002483
 31
0.0
  0
LINE
  5
F6
330
1F
100
AcDbEntity
  8
0-7_金物
  6
Continuous
 62
     7
370
     9
100
AcDbLine
 10
1359.309223506606
 20
2301.944946325237
 30
0.0
 11
1359.309223506606
 21
2421.944603002483
 31
0.0
  0
LINE
  5
F7
330
1F
100
AcDbEntity
  8
0-7_金物
  6
Continuous
 62
     7
370
     9
100
AcDbLine
 10
1359.309223506606
 20
2307.945112264568
 30
0.0
 11
1353.309154842065
 21
2307.945112264568
 31
0.0
  0
LINE
  5
F8
330
1F
100
AcDbEntity
  8
0-7_金物
  6
Continuous
 62
     7
370
     9
100
AcDbLine
 10
1353.309154842065
 20
2415.945180929119
 30
0.0
 11
1359.309223506606
 21
2415.945180929119
 31
0.0
  0
LINE
  5
F9
330
1F
100
AcDbEntity
  8
0-7_金物
  6
Continuous
 62
     7
370
     9
100
AcDbLine
 10
-3050.690770925992
 20
2415.945180929119
 30
0.0
 11
-3056.690839590533
 21
2415.945180929119
 31
0.0
  0
LINE
  5
FA
330
1F
100
AcDbEntity
  8
0-7_金物
  6
Continuous
 62
     7
370
     9
100
AcDbLine
 10
-3056.690839590533
 20
2307.945112264568
 30
0.0
 11
-3050.690770925992
 21
2307.945112264568
 31
0.0
  0
LINE
  5
FB
330
1F
100
AcDbEntity
  8
0-7_金物
  6
Continuous
 62
     7
370
     9
100
AcDbLine
 10
-3056.690839590533
 20
2301.944946325237
 30
0.0
 11
-3056.690839590533
 21
2421.944603002483
 31
0.0
  0
LINE
  5
FC
330
1F
100
AcDbEntity
  8
0-7_金物
  6
Continuous
 62
     7
370
     9
100
AcDbLine
 10
-3068.690433325274
 20
2421.944603002483
 30
0.0
 11
-3056.690839590533
 21
2421.944603002483
 31
0.0
  0
LINE
  5
FD
330
1F
100
AcDbEntity
  8
0-7_金物
  6
Continuous
 62
     7
370
     9
100
AcDbLine
 10
-3068.690433325274
 20
2301.944946325237
 30
0.0
 11
-3056.690839590533
 21
2301.944946325237
 31
0.0
  0
LINE
  5
FE
330
1F
100
AcDbEntity
  8
0-7_金物
  6
Continuous
 62
     7
370
     9
100
AcDbLine
 10
-3080.690770925984
 20
2271.944843328411
 30
0.0
 11
-3080.690770925984
 21
2451.944705999309
 31
0.0
  0
LINE
  5
FF
330
1F
100
AcDbEntity
  8
0-7_金物
  6
Continuous
 62
     7
370
     9
100
AcDbLine
 10
-3080.690770925984
 20
2271.944843328411
 30
0.0
 11
-3068.690433325274
 21
2271.944843328411
 31
0.0
  0
LINE
  5
100
330
1F
100
AcDbEntity
  8
0-7_金物
  6
Continuous
 62
     7
370
     9
100
AcDbLine
 10
-3080.690770925984
 20
2451.944705999309
 30
0.0
 11
-3068.690433325274
 21
2451.944705999309
 31
0.0
  0
LINE
  5
101
330
1F
100
AcDbEntity
  8
0-7_金物
  6
Continuous
 62
     7
370
     9
100
AcDbLine
 10
-3068.690433325274
 20
2271.944843328411
 30
0.0
 11
-3068.690433325274
 21
2451.944705999309
 31
0.0
  0
LINE
  5
102
330
1F
100
AcDbEntity
  8
0-C_ハッチ
  6
Continuous
 62
   120
370
     5
100
AcDbLine
 10
1353.309154842061
 20
2588.278201642298
 30
0.0
 11
1351.64226432428
 21
2589.945092160079
 31
0.0
  0
LINE
  5
103
330
1F
100
AcDbEntity
  8
0-4_枠
  6
Continuous
 62
    92
370
    13
100
AcDbLine
 10
1179.309154842064
 20
2637.945092160083
 30
0.0
 11
1173.309154842065
 21
2631.945092160081
 31
0.0
  0
LINE
  5
104
330
1F
100
AcDbEntity
  8
0-4_枠
  6
Continuous
 62
    92
370
    13
100
AcDbLine
 10
1173.309154842065
 20
2631.945092160081
 30
0.0
 11
1173.309154842065
 21
2091.945943353074
 31
0.0
  0
LINE
  5
105
330
1F
100
AcDbEntity
  8
0-4_枠
  6
Continuous
 62
    92
370
    13
100
AcDbLine
 10
1179.309154842064
 20
2637.945092160083
 30
0.0
 11
1353.309154842065
 21
2637.945092160083
 31
0.0
  0
LINE
  5
106
330
1F
100
AcDbEntity
  8
0-4_枠
  6
Continuous
 62
    92
370
    13
100
AcDbLine
 10
1173.309154842065
 20
2091.945943353074
 30
0.0
 11
1179.309154842064
 21
2085.945943353073
 31
0.0
  0
LINE
  5
107
330
1F
100
AcDbEntity
  8
0-4_枠
  6
Continuous
 62
    92
370
    13
100
AcDbLine
 10
1179.309154842064
 20
2085.945943353073
 30
0.0
 11
1233.309154842065
 21
2085.945943353073
 31
0.0
  0
LINE
  5
108
330
1F
100
AcDbEntity
  8
0-C_ハッチ
  6
Continuous
 62
   120
370
     5
100
AcDbLine
 10
1323.309154842065
 20
2091.76874053931
 30
0.0
 11
1317.486325242488
 21
2085.945943353073
 31
0.0
  0
LINE
  5
109
330
1F
100
AcDbEntity
  8
0-C_ハッチ
  6
Continuous
 62
   120
370
     5
100
AcDbLine
 10
1353.309377537905
 20
2546.033322602439
 30
0.0
 11
1173.309154842065
 21
2366.032728746866
 31
0.0
  0
LINE
  5
10A
330
1F
100
AcDbEntity
  8
0-C_ハッチ
  6
Continuous
 62
   120
370
     5
100
AcDbLine
 10
1173.309154842065
 20
2196.32736359167
 30
0.0
 11
1353.309377537905
 21
2376.327957447245
 31
0.0
  0
LINE
  5
10B
330
1F
100
AcDbEntity
  8
0-C_ハッチ
  6
Continuous
 62
   120
370
     5
100
AcDbLine
 10
1173.309154842065
 20
2281.180417329002
 30
0.0
 11
1353.309377537905
 21
2461.180268865108
 31
0.0
  0
LINE
  5
10C
330
1F
100
AcDbEntity
  8
0-C_ハッチ
  6
Continuous
 62
   120
370
     5
100
AcDbLine
 10
1353.309377537905
 20
2291.474903709914
 30
0.0
 11
1173.309154842065
 21
2111.475052173808
 31
0.0
  0
LINE
  5
10D
330
1F
100
AcDbEntity
  8
0-C_ハッチ
  6
Continuous
 62
   120
370
     5
100
AcDbLine
 10
1353.309377537905
 20
2630.88637633977
 30
0.0
 11
1173.309154842065
 21
2450.886524803664
 31
0.0
  0
LINE
  5
10E
330
1F
100
AcDbEntity
  8
0-C_ハッチ
  6
Continuous
 62
   120
370
     5
100
AcDbLine
 10
1275.515410780621
 20
2637.945092160083
 30
0.0
 11
1173.309154842065
 21
2535.739578540995
 31
0.0
  0
LINE
  5
10F
330
1F
100
AcDbEntity
  8
0-4_枠
  6
Continuous
 62
    92
370
    13
100
AcDbLine
 10
1287.309154842063
 20
2085.945943353073
 30
0.0
 11
1323.309154842065
 21
2085.945943353073
 31
0.0
  0
LINE
  5
110
330
1F
100
AcDbEntity
  8
0-4_枠
  6
Continuous
 62
    92
370
    13
100
AcDbLine
 10
1323.309154842065
 20
2127.945943353074
 30
0.0
 11
1323.309154842065
 21
2085.945943353073
 31
0.0
  0
LINE
  5
111
330
1F
100
AcDbEntity
  8
0-4_枠
  6
Continuous
 62
    92
370
    13
100
AcDbLine
 10
1323.309154842065
 20
2127.945943353074
 30
0.0
 11
1353.309154842065
 21
2127.945943353074
 31
0.0
  0
LINE
  5
112
330
1F
100
AcDbEntity
  8
0-4_枠
  6
Continuous
 62
    92
370
    13
100
AcDbLine
 10
1353.309154842065
 20
2637.945092160083
 30
0.0
 11
1353.309154842065
 21
2127.945943353074
 31
0.0
  0
LINE
  5
113
330
1F
100
AcDbEntity
  8
0-4_枠
  6
Continuous
 62
    92
370
    13
100
AcDbLine
 10
-3050.690770925992
 20
2637.945092160083
 30
0.0
 11
-3050.690770925992
 21
2127.945943353074
 31
0.0
  0
LINE
  5
114
330
1F
100
AcDbEntity
  8
0-4_枠
  6
Continuous
 62
    92
370
    13
100
AcDbLine
 10
-3020.690770925992
 20
2127.945943353074
 30
0.0
 11
-3050.690770925992
 21
2127.945943353074
 31
0.0
  0
LINE
  5
115
330
1F
100
AcDbEntity
  8
0-4_枠
  6
Continuous
 62
    92
370
    13
100
AcDbLine
 10
-3020.690770925992
 20
2127.945943353074
 30
0.0
 11
-3020.690770925992
 21
2085.945943353073
 31
0.0
  0
LINE
  5
116
330
1F
100
AcDbEntity
  8
0-4_枠
  6
Continuous
 62
    92
370
    13
100
AcDbLine
 10
-2984.690770925991
 20
2085.945943353073
 30
0.0
 11
-3020.690770925992
 21
2085.945943353073
 31
0.0
  0
LINE
  5
117
330
1F
100
AcDbEntity
  8
0-C_ハッチ
  6
Continuous
 62
   120
370
     5
100
AcDbLine
 10
-2972.897026864548
 20
2637.945092160083
 30
0.0
 11
-2870.690770925992
 21
2535.739578540995
 31
0.0
  0
LINE
  5
118
330
1F
100
AcDbEntity
  8
0-C_ハッチ
  6
Continuous
 62
   120
370
     5
100
AcDbLine
 10
-3050.690993621834
 20
2630.88637633977
 30
0.0
 11
-2870.690770925992
 21
2450.886524803664
 31
0.0
  0
LINE
  5
119
330
1F
100
AcDbEntity
  8
0-C_ハッチ
  6
Continuous
 62
   120
370
     5
100
AcDbLine
 10
-3050.690993621834
 20
2291.474903709914
 30
0.0
 11
-2870.690770925992
 21
2111.475052173808
 31
0.0
  0
LINE
  5
11A
330
1F
100
AcDbEntity
  8
0-C_ハッチ
  6
Continuous
 62
   120
370
     5
100
AcDbLine
 10
-2870.690770925992
 20
2281.180417329002
 30
0.0
 11
-3050.690993621834
 21
2461.180268865108
 31
0.0
  0
LINE
  5
11B
330
1F
100
AcDbEntity
  8
0-C_ハッチ
  6
Continuous
 62
   120
370
     5
100
AcDbLine
 10
-2870.690770925992
 20
2196.32736359167
 30
0.0
 11
-3050.690993621834
 21
2376.327957447245
 31
0.0
  0
LINE
  5
11C
330
1F
100
AcDbEntity
  8
0-C_ハッチ
  6
Continuous
 62
   120
370
     5
100
AcDbLine
 10
-3050.690993621834
 20
2546.033322602439
 30
0.0
 11
-2870.690770925992
 21
2366.032728746866
 31
0.0
  0
LINE
  5
11D
330
1F
100
AcDbEntity
  8
0-C_ハッチ
  6
Continuous
 62
   120
370
     5
100
AcDbLine
 10
-3020.690770925992
 20
2091.76874053931
 30
0.0
 11
-3014.867941326416
 21
2085.945943353073
 31
0.0
  0
LINE
  5
11E
330
1F
100
AcDbEntity
  8
0-4_枠
  6
Continuous
 62
    92
370
    13
100
AcDbLine
 10
-2876.690770925992
 20
2085.945943353073
 30
0.0
 11
-2930.690770925992
 21
2085.945943353073
 31
0.0
  0
LINE
  5
11F
330
1F
100
AcDbEntity
  8
0-4_枠
  6
Continuous
 62
    92
370
    13
100
AcDbLine
 10
-2870.690770925992
 20
2091.945943353074
 30
0.0
 11
-2876.690770925992
 21
2085.945943353073
 31
0.0
  0
LINE
  5
120
330
1F
100
AcDbEntity
  8
0-4_枠
  6
Continuous
 62
    92
370
    13
100
AcDbLine
 10
-2876.690770925992
 20
2637.945092160083
 30
0.0
 11
-3050.690770925992
 21
2637.945092160083
 31
0.0
  0
LINE
  5
121
330
1F
100
AcDbEntity
  8
0-4_枠
  6
Continuous
 62
    92
370
    13
100
AcDbLine
 10
-2870.690770925992
 20
2631.945092160081
 30
0.0
 11
-2870.690770925992
 21
2091.945943353074
 31
0.0
  0
LINE
  5
122
330
1F
100
AcDbEntity
  8
0-4_枠
  6
Continuous
 62
    92
370
    13
100
AcDbLine
 10
-2876.690770925992
 20
2637.945092160083
 30
0.0
 11
-2870.690770925992
 21
2631.945092160081
 31
0.0
  0
LINE
  5
123
330
1F
100
AcDbEntity
  8
0-C_ハッチ
  6
Continuous
 62
   120
370
     5
100
AcDbLine
 10
-3050.69077092599
 20
2588.278201642298
 30
0.0
 11
-3049.023880408209
 21
2589.945092160079
 31
0.0
  0
LINE
  5
124
330
1F
100
AcDbEntity
  8
0-4_枠
  6
Continuous
 62
    92
370
    13
100
AcDbLine
 10
-2984.690770925991
 20
2145.945943353073
 30
0.0
 11
-2984.690770925991
 21
2085.945943353073
 31
0.0
  0
LINE
  5
125
330
1F
100
AcDbEntity
  8
0-4_枠
  6
Continuous
 62
    92
370
    13
100
AcDbLine
 10
-2930.690770925992
 20
2145.945943353073
 30
0.0
 11
-2984.690770925991
 21
2145.945943353073
 31
0.0
  0
LINE
  5
126
330
1F
100
AcDbEntity
  8
0-4_枠
  6
Continuous
 62
    92
370
    13
100
AcDbLine
 10
-2930.690770925992
 20
2145.945943353073
 30
0.0
 11
-2930.690770925992
 21
2085.945943353073
 31
0.0
  0
LINE
  5
127
330
1F
100
AcDbEntity
  8
0-C_ハッチ
  6
Continuous
 62
   120
370
     5
100
AcDbLine
 10
-3050.690993621834
 20
2206.621849972583
 30
0.0
 11
-2984.690770925991
 21
2140.621994673316
 31
0.0
  0
LINE
  5
128
330
1F
100
AcDbEntity
  8
0-4_枠
  6
Continuous
 62
    92
370
    13
100
AcDbLine
 10
1233.309154842065
 20
2145.945943353073
 30
0.0
 11
1233.309154842065
 21
2085.945943353073
 31
0.0
  0
LINE
  5
129
330
1F
100
AcDbEntity
  8
0-4_枠
  6
Continuous
 62
    92
370
    13
100
AcDbLine
 10
1233.309154842065
 20
2145.945943353073
 30
0.0
 11
1287.309154842063
 21
2145.945943353073
 31
0.0
  0
LINE
  5
12A
330
1F
100
AcDbEntity
  8
0-4_枠
  6
Continuous
 62
    92
370
    13
100
AcDbLine
 10
1287.309154842063
 20
2145.945943353073
 30
0.0
 11
1287.309154842063
 21
2085.945943353073
 31
0.0
  0
LINE
  5
12B
330
1F
100
AcDbEntity
  8
0-C_ハッチ
  6
Continuous
 62
   120
370
     5
100
AcDbLine
 10
1353.309377537905
 20
2206.621849972583
 30
0.0
 11
1287.309154842063
 21
2140.621994673316
 31
0.0
  0
LINE
  5
12C
330
1F
100
AcDbEntity
  8
0-0_補助線
  6
JWW_HOJO
 62
   120
370
     5
100
AcDbLine
 10
-3620.690572926138
 20
2961.945146596844
 30
0.0
 11
-3620.690572926138
 21
1086.945146596841
 31
0.0
  0
LINE
  5
12D
330
1F
100
AcDbEntity
  8
0-0_補助線
  6
JWW_HOJO
 62
   120
370
     5
100
AcDbLine
 10
-2196.690436796126
 20
3141.945146596844
 30
0.0
 11
-2196.690436796126
 21
1086.945146596841
 31
0.0
  0
LINE
  5
12E
330
1F
100
AcDbEntity
  8
0-0_補助線
  6
JWW_HOJO
 62
   120
370
     5
100
AcDbLine
 10
-1522.690325410124
 20
3141.945146596844
 30
0.0
 11
-1522.690325410124
 21
1086.945146596841
 31
0.0
  0
LINE
  5
12F
330
1F
100
AcDbEntity
  8
0-0_補助線
  6
JWW_HOJO
 62
   120
370
     5
100
AcDbLine
 10
-848.6902140241216
 20
3141.945146596844
 30
0.0
 11
-848.6902140241216
 21
1086.945146596841
 31
0.0
  0
LINE
  5
130
330
1F
100
AcDbEntity
  8
0-0_補助線
  6
JWW_HOJO
 62
   120
370
     5
100
AcDbLine
 10
-174.6901026381209
 20
3141.945146596844
 30
0.0
 11
-174.6901026381209
 21
1086.945146596841
 31
0.0
  0
LINE
  5
131
330
1F
100
AcDbEntity
  8
0-0_補助線
  6
JWW_HOJO
 62
   120
370
     5
100
AcDbLine
 10
499.3100087478797
 20
3141.945146596844
 30
0.0
 11
499.3100087478797
 21
1086.945146596841
 31
0.0
  0
LINE
  5
132
330
1F
100
AcDbEntity
  8
0-0_補助線
  6
JWW_HOJO
 62
   120
370
     5
100
AcDbLine
 10
1923.308956890207
 20
2961.945146596844
 30
0.0
 11
1923.308956890207
 21
1086.945146596841
 31
0.0
  0
LINE
  5
133
330
1F
100
AcDbEntity
  8
0-0_補助線
  6
JWW_HOJO
 62
   120
370
     5
100
AcDbLine
 10
1923.308956890207
 20
1266.945146596841
 30
0.0
 11
-3620.690572926138
 21
1266.945146596841
 31
0.0
  0
LINE
  5
134
330
1F
100
AcDbEntity
  8
0-0_補助線
  6
JWW_HOJO
 62
   120
370
     5
100
AcDbLine
 10
1923.308956890207
 20
1086.945146596841
 30
0.0
 11
-3620.690572926138
 21
1086.945146596841
 31
0.0
  0
MTEXT
  5
135
330
1F
100
AcDbEntity
  8
0-B_寸法
  6
Continuous
 62
     7
370
     0
100
AcDbMText
 10
-3020.691080177774
 20
1267.665196084806
 30
0.0
 40
91.44
 41
120.0
 46
0.0
 71
     7
 72
     1
  1
{\fＭＳ ゴシック|b0|i0|c128|p49;30}
 73
     1
 44
1.0
  0
LWPOLYLINE
  5
136
330
1F
100
AcDbEntity
  8
0-B_寸法
  6
Continuous
 62
     7
370
     9
100
AcDbPolyline
 90
        4
 70
     1
 43
3.0
 10
-3049.190993573835
 20
1266.945146596841
 42
0.4142135623731
 10
-3050.690993573835
 20
1268.445146596841
 42
0.4142135623731
 10
-3052.190993573835
 20
1266.945146596841
 42
0.4142135623731
 10
-3050.690993573835
 20
1265.445146596841
 42
0.4142135623731
  0
LWPOLYLINE
  5
137
330
1F
100
AcDbEntity
  8
0-B_寸法
  6
Continuous
 62
     7
370
     9
100
AcDbPolyline
 90
        4
 70
     1
 43
3.0
 10
-2869.190770877996
 20
1266.945146596841
 42
0.4142135623731
 10
-2870.690770877996
 20
1268.445146596841
 42
0.4142135623731
 10
-2872.190770877995
 20
1266.945146596841
 42
0.4142135623731
 10
-2870.690770877996
 20
1265.445146596841
 42
0.4142135623731
  0
LWPOLYLINE
  5
138
330
1F
100
AcDbEntity
  8
0-B_寸法
  6
Continuous
 62
     7
370
     9
100
AcDbPolyline
 90
        4
 70
     1
 43
3.0
 10
-3049.190993573835
 20
1086.945146596841
 42
0.4142135623731
 10
-3050.690993573835
 20
1088.445146596841
 42
0.4142135623731
 10
-3052.190993573835
 20
1086.945146596841
 42
0.4142135623731
 10
-3050.690993573835
 20
1085.445146596841
 42
0.4142135623731
  0
MTEXT
  5
139
330
1F
100
AcDbEntity
  8
0-B_寸法
  6
Continuous
 62
     7
370
     0
100
AcDbMText
 10
1203.308511498527
 20
1267.665196084806
 30
0.0
 40
91.44
 41
120.0
 46
0.0
 71
     7
 72
     1
  1
{\fＭＳ ゴシック|b0|i0|c128|p49;30}
 73
     1
 44
1.0
  0
LWPOLYLINE
  5
13A
330
1F
100
AcDbEntity
  8
0-B_寸法
  6
Continuous
 62
     7
370
     9
100
AcDbPolyline
 90
        4
 70
     1
 43
3.0
 10
1174.809154842065
 20
1266.945146596841
 42
0.4142135623731
 10
1173.309154842065
 20
1268.445146596841
 42
0.4142135623731
 10
1171.809154842065
 20
1266.945146596841
 42
0.4142135623731
 10
1173.309154842065
 20
1265.445146596841
 42
0.4142135623731
  0
LWPOLYLINE
  5
13B
330
1F
100
AcDbEntity
  8
0-B_寸法
  6
Continuous
 62
     7
370
     9
100
AcDbPolyline
 90
        4
 70
     1
 43
3.0
 10
1354.808264058703
 20
1266.945146596841
 42
0.4142135623731
 10
1353.308264058703
 20
1268.445146596841
 42
0.4142135623731
 10
1351.808264058703
 20
1266.945146596841
 42
0.4142135623731
 10
1353.308264058703
 20
1265.445146596841
 42
0.4142135623731
  0
LWPOLYLINE
  5
13C
330
1F
100
AcDbEntity
  8
0-B_寸法
  6
Continuous
 62
     7
370
     9
100
AcDbPolyline
 90
        4
 70
     1
 43
3.0
 10
1354.808264058703
 20
1086.945146596841
 42
0.4142135623731
 10
1353.308264058703
 20
1088.445146596841
 42
0.4142135623731
 10
1351.808264058703
 20
1086.945146596841
 42
0.4142135623731
 10
1353.308264058703
 20
1085.445146596841
 42
0.4142135623731
  0
LINE
  5
13D
330
1F
100
AcDbEntity
  8
0-B_寸法
  6
Continuous
 62
   120
370
     5
100
AcDbLine
 10
-3050.690993573835
 20
1266.945146596841
 30
0.0
 11
1353.308264058703
 21
1266.945146596841
 31
0.0
  0
LINE
  5
13E
330
1F
100
AcDbEntity
  8
0-B_寸法
  6
Continuous
 62
   120
370
     5
100
AcDbLine
 10
-3080.690770925984
 20
1086.945146596841
 30
0.0
 11
1353.308264058703
 21
1086.945146596841
 31
0.0
  0
LWPOLYLINE
  5
13F
330
1F
100
AcDbEntity
  8
0-B_寸法
  6
Continuous
 62
     7
370
     9
100
AcDbPolyline
 90
        4
 70
     1
 43
3.0
 10
-2854.190770877996
 20
1446.945146596841
 42
0.4142135623731
 10
-2855.690770877996
 20
1448.445146596841
 42
0.4142135623731
 10
-2857.190770877995
 20
1446.945146596841
 42
0.4142135623731
 10
-2855.690770877996
 20
1445.445146596841
 42
0.4142135623731
  0
LINE
  5
140
330
1F
100
AcDbEntity
  8
0-B_寸法
  6
Continuous
 62
   120
370
     5
100
AcDbLine
 10
-2855.690770877996
 20
1446.945146596841
 30
0.0
 11
-2855.690770877996
 21
1626.945146596841
 31
0.0
  0
LWPOLYLINE
  5
141
330
1F
100
AcDbEntity
  8
0-B_寸法
  6
Continuous
 62
     7
370
     9
100
AcDbPolyline
 90
        4
 70
     1
 43
3.0
 10
-1527.190325410124
 20
1446.945146596841
 42
0.4142135623731
 10
-1528.690325410123
 20
1448.445146596841
 42
0.4142135623731
 10
-1530.190325410123
 20
1446.945146596841
 42
0.4142135623731
 10
-1528.690325410123
 20
1445.445146596841
 42
0.4142135623731
  0
LWPOLYLINE
  5
142
330
1F
100
AcDbEntity
  8
0-B_寸法
  6
Continuous
 62
     7
370
     9
100
AcDbPolyline
 90
        4
 70
     1
 43
3.0
 10
-1515.190325410125
 20
1446.945146596841
 42
0.4142135623731
 10
-1516.690325410125
 20
1448.445146596841
 42
0.4142135623731
 10
-1518.190325410125
 20
1446.945146596841
 42
0.4142135623731
 10
-1516.690325410125
 20
1445.445146596841
 42
0.4142135623731
  0
LINE
  5
143
330
1F
100
AcDbEntity
  8
0-B_寸法
  6
Continuous
 62
   120
370
     5
100
AcDbLine
 10
-1528.690325410123
 20
1446.945146596841
 30
0.0
 11
-1528.690325410123
 21
1626.945146596841
 31
0.0
  0
LINE
  5
144
330
1F
100
AcDbEntity
  8
0-B_寸法
  6
Continuous
 62
   120
370
     5
100
AcDbLine
 10
-1516.690325410125
 20
1446.945146596841
 30
0.0
 11
-1516.690325410125
 21
1626.945146596841
 31
0.0
  0
LWPOLYLINE
  5
145
330
1F
100
AcDbEntity
  8
0-B_寸法
  6
Continuous
 62
     7
370
     9
100
AcDbPolyline
 90
        4
 70
     1
 43
3.0
 10
-179.1901026381206
 20
1446.945146596841
 42
0.4142135623731
 10
-180.6901026381206
 20
1448.445146596841
 42
0.4142135623731
 10
-182.1901026381206
 20
1446.945146596841
 42
0.4142135623731
 10
-180.6901026381206
 20
1445.445146596841
 42
0.4142135623731
  0
LWPOLYLINE
  5
146
330
1F
100
AcDbEntity
  8
0-B_寸法
  6
Continuous
 62
     7
370
     9
100
AcDbPolyline
 90
        4
 70
     1
 43
3.0
 10
-167.1901026381213
 20
1446.945146596841
 42
0.4142135623731
 10
-168.6901026381213
 20
1448.445146596841
 42
0.4142135623731
 10
-170.1901026381213
 20
1446.945146596841
 42
0.4142135623731
 10
-168.6901026381213
 20
1445.445146596841
 42
0.4142135623731
  0
LINE
  5
147
330
1F
100
AcDbEntity
  8
0-B_寸法
  6
Continuous
 62
   120
370
     5
100
AcDbLine
 10
-180.6901026381206
 20
1446.945146596841
 30
0.0
 11
-180.6901026381206
 21
1626.945146596841
 31
0.0
  0
LINE
  5
148
330
1F
100
AcDbEntity
  8
0-B_寸法
  6
Continuous
 62
   120
370
     5
100
AcDbLine
 10
-168.6901026381213
 20
1446.945146596841
 30
0.0
 11
-168.6901026381213
 21
1626.945146596841
 31
0.0
  0
LWPOLYLINE
  5
149
330
1F
100
AcDbEntity
  8
0-B_寸法
  6
Continuous
 62
     7
370
     9
100
AcDbPolyline
 90
        4
 70
     1
 43
3.0
 10
1159.809154842065
 20
1446.945146596841
 42
0.4142135623731
 10
1158.309154842065
 20
1448.445146596841
 42
0.4142135623731
 10
1156.809154842065
 20
1446.945146596841
 42
0.4142135623731
 10
1158.309154842065
 20
1445.445146596841
 42
0.4142135623731
  0
LINE
  5
14A
330
1F
100
AcDbEntity
  8
0-B_寸法
  6
Continuous
 62
   120
370
     5
100
AcDbLine
 10
1158.309154842065
 20
1446.945146596841
 30
0.0
 11
1158.309154842065
 21
1626.945146596841
 31
0.0
  0
LINE
  5
14B
330
1F
100
AcDbEntity
  8
0-B_寸法
  6
Continuous
 62
   120
370
     5
100
AcDbLine
 10
-2855.690770877996
 20
1446.945146596841
 30
0.0
 11
1158.309377537905
 21
1446.945146596841
 31
0.0
  0
LINE
  5
14C
330
1F
100
AcDbEntity
  8
0-0_補助線
  6
JWW_HOJO
 62
   120
370
     5
100
AcDbLine
 10
1923.308956890207
 20
1986.945146596841
 30
0.0
 11
-3620.690572926138
 21
1986.945146596841
 31
0.0
  0
LINE
  5
14D
330
1F
100
AcDbEntity
  8
0-0_補助線
  6
JWW_HOJO
 62
   120
370
     5
100
AcDbLine
 10
1923.308956890207
 20
1806.945146596841
 30
0.0
 11
-3620.690572926138
 21
1806.945146596841
 31
0.0
  0
LINE
  5
14E
330
1F
100
AcDbEntity
  8
0-B_寸法
  6
Continuous
 62
   120
370
     5
100
AcDbLine
 10
-2870.690770877996
 20
1266.945146596841
 30
0.0
 11
-2870.690770877996
 21
1986.945146596841
 31
0.0
  0
LINE
  5
14F
330
1F
100
AcDbEntity
  8
0-B_寸法
  6
Continuous
 62
   120
370
     5
100
AcDbLine
 10
-3050.690993573835
 20
1086.945146596841
 30
0.0
 11
-3050.690993573835
 21
1986.945146596841
 31
0.0
  0
MTEXT
  5
150
330
1F
100
AcDbEntity
  8
0-B_寸法
  6
Continuous
 62
     7
370
   211
100
AcDbMText
 10
-150.6901026381215
 20
1447.665146596841
 30
0.0
 40
91.44
 41
60.0
 46
0.0
 71
     7
 72
     1
  1
{\fＭＳ ゴシック|b0|i0|c128|p49;2}
 73
     1
 44
1.0
  0
MTEXT
  5
151
330
1F
100
AcDbEntity
  8
0-B_寸法
  6
Continuous
 62
     7
370
   211
100
AcDbMText
 10
-1498.690325410123
 20
1447.665146596841
 30
0.0
 40
91.44
 41
60.0
 46
0.0
 71
     7
 72
     1
  1
{\fＭＳ ゴシック|b0|i0|c128|p49;2}
 73
     1
 44
1.0
  0
MTEXT
  5
152
330
1F
100
AcDbEntity
  8
0-B_寸法
  6
Continuous
 62
     7
370
   211
100
AcDbMText
 10
-2737.690585279074
 20
1621.950146596841
 30
0.0
 40
80.00999999999999
 41
420.0
 46
0.0
 71
     7
 72
     1
  1
{\fＭＳ ゴシック|b0|i0|c128|p49;ＤＷ=416}
 73
     1
 44
1.0
  0
MTEXT
  5
153
330
1F
100
AcDbEntity
  8
0-B_寸法
  6
Continuous
 62
     7
370
   211
100
AcDbMText
 10
-2071.190399661111
 20
1621.950146596841
 30
0.0
 40
80.00999999999999
 41
420.0
 46
0.0
 71
     7
 72
     1
  1
{\fＭＳ ゴシック|b0|i0|c128|p49;ＤＷ=416}
 73
     1
 44
1.0
  0
MTEXT
  5
154
330
1F
100
AcDbEntity
  8
0-B_寸法
  6
Continuous
 62
     7
370
   211
100
AcDbMText
 10
-1394.190251159137
 20
1621.950146596841
 30
0.0
 40
80.00999999999999
 41
420.0
 46
0.0
 71
     7
 72
     1
  1
{\fＭＳ ゴシック|b0|i0|c128|p49;ＤＷ=416}
 73
     1
 44
1.0
  0
MTEXT
  5
155
330
1F
100
AcDbEntity
  8
0-B_寸法
  6
Continuous
 62
     7
370
   211
100
AcDbMText
 10
-723.1901768891083
 20
1621.950146596841
 30
0.0
 40
80.00999999999998
 41
419.9999999999999
 46
0.0
 71
     7
 72
     1
  1
{\fＭＳ ゴシック|b0|i0|c128|p49;ＤＷ=416}
 73
     1
 44
1.0
  0
MTEXT
  5
156
330
1F
100
AcDbEntity
  8
0-B_寸法
  6
Continuous
 62
     7
370
   211
100
AcDbMText
 10
-46.19002838713355
 20
1621.950146596841
 30
0.0
 40
80.00999999999999
 41
420.0
 46
0.0
 71
     7
 72
     1
  1
{\fＭＳ ゴシック|b0|i0|c128|p49;ＤＷ=416}
 73
     1
 44
1.0
  0
MTEXT
  5
157
330
1F
100
AcDbEntity
  8
0-B_寸法
  6
Continuous
 62
     7
370
   211
100
AcDbMText
 10
617.3096003529594
 20
1621.950146596841
 30
0.0
 40
80.00999999999999
 41
420.0
 46
0.0
 71
     7
 72
     1
  1
{\fＭＳ ゴシック|b0|i0|c128|p49;ＤＷ=416}
 73
     1
 44
1.0
  0
LWPOLYLINE
  5
158
330
1F
100
AcDbEntity
  8
0-B_寸法
  6
Continuous
 62
     7
370
     9
100
AcDbPolyline
 90
        4
 70
     1
 43
3.0
 10
-2854.190770877996
 20
1626.945146596841
 42
0.4142135623731
 10
-2855.690770877996
 20
1628.445146596841
 42
0.4142135623731
 10
-2857.190770877995
 20
1626.945146596841
 42
0.4142135623731
 10
-2855.690770877996
 20
1625.445146596841
 42
0.4142135623731
  0
LINE
  5
159
330
1F
100
AcDbEntity
  8
0-B_寸法
  6
Continuous
 62
   120
370
     5
100
AcDbLine
 10
-2855.690770877996
 20
1626.945146596841
 30
0.0
 11
-2855.690770877996
 21
1806.945146596841
 31
0.0
  0
LINE
  5
15A
330
1F
100
AcDbEntity
  8
0-B_寸法
  6
Continuous
 62
   120
370
     5
100
AcDbLine
 10
-2855.690770877996
 20
1626.945146596841
 30
0.0
 11
-2199.690399680152
 21
1626.945146596841
 31
0.0
  0
LWPOLYLINE
  5
15B
330
1F
100
AcDbEntity
  8
0-B_寸法
  6
Continuous
 62
     7
370
     9
100
AcDbPolyline
 90
        4
 70
     1
 43
3.0
 10
-2198.190399680152
 20
1626.945146596841
 42
0.4142135623731
 10
-2199.690399680152
 20
1628.445146596841
 42
0.4142135623731
 10
-2201.190399680152
 20
1626.945146596841
 42
0.4142135623731
 10
-2199.690399680152
 20
1625.445146596841
 42
0.4142135623731
  0
LINE
  5
15C
330
1F
100
AcDbEntity
  8
0-B_寸法
  6
Continuous
 62
   120
370
     5
100
AcDbLine
 10
-2199.690399680152
 20
1626.945146596841
 30
0.0
 11
-2199.690399680152
 21
1806.945146596841
 31
0.0
  0
LWPOLYLINE
  5
15D
330
1F
100
AcDbEntity
  8
0-B_寸法
  6
Continuous
 62
     7
370
     9
100
AcDbPolyline
 90
        4
 70
     1
 43
3.0
 10
-2192.190473912097
 20
1626.945146596841
 42
0.4142135623731
 10
-2193.690473912097
 20
1628.445146596841
 42
0.4142135623731
 10
-2195.190473912097
 20
1626.945146596841
 42
0.4142135623731
 10
-2193.690473912097
 20
1625.445146596841
 42
0.4142135623731
  0
LINE
  5
15E
330
1F
100
AcDbEntity
  8
0-B_寸法
  6
Continuous
 62
   120
370
     5
100
AcDbLine
 10
-2193.690473912097
 20
1626.945146596841
 30
0.0
 11
-2193.690473912097
 21
1806.945146596841
 31
0.0
  0
LINE
  5
15F
330
1F
100
AcDbEntity
  8
0-B_寸法
  6
Continuous
 62
   120
370
     5
100
AcDbLine
 10
-2193.690473912097
 20
1626.945146596841
 30
0.0
 11
-1528.690325410123
 21
1626.945146596841
 31
0.0
  0
LWPOLYLINE
  5
160
330
1F
100
AcDbEntity
  8
0-B_寸法
  6
Continuous
 62
     7
370
     9
100
AcDbPolyline
 90
        4
 70
     1
 43
3.0
 10
-1527.190325410124
 20
1626.945146596841
 42
0.4142135623731
 10
-1528.690325410123
 20
1628.445146596841
 42
0.4142135623731
 10
-1530.190325410123
 20
1626.945146596841
 42
0.4142135623731
 10
-1528.690325410123
 20
1625.445146596841
 42
0.4142135623731
  0
LINE
  5
161
330
1F
100
AcDbEntity
  8
0-B_寸法
  6
Continuous
 62
   120
370
     5
100
AcDbLine
 10
-1528.690325410123
 20
1626.945146596841
 30
0.0
 11
-1528.690325410123
 21
1806.945146596841
 31
0.0
  0
LWPOLYLINE
  5
162
330
1F
100
AcDbEntity
  8
0-B_寸法
  6
Continuous
 62
     7
370
     9
100
AcDbPolyline
 90
        4
 70
     1
 43
3.0
 10
-1515.190325410125
 20
1626.945146596841
 42
0.4142135623731
 10
-1516.690325410125
 20
1628.445146596841
 42
0.4142135623731
 10
-1518.190325410125
 20
1626.945146596841
 42
0.4142135623731
 10
-1516.690325410125
 20
1625.445146596841
 42
0.4142135623731
  0
LINE
  5
163
330
1F
100
AcDbEntity
  8
0-B_寸法
  6
Continuous
 62
   120
370
     5
100
AcDbLine
 10
-1516.690325410125
 20
1626.945146596841
 30
0.0
 11
-1516.690325410125
 21
1806.945146596841
 31
0.0
  0
LINE
  5
164
330
1F
100
AcDbEntity
  8
0-B_寸法
  6
Continuous
 62
   120
370
     5
100
AcDbLine
 10
-1516.690325410125
 20
1626.945146596841
 30
0.0
 11
-851.6901769081488
 21
1626.945146596841
 31
0.0
  0
LWPOLYLINE
  5
165
330
1F
100
AcDbEntity
  8
0-B_寸法
  6
Continuous
 62
     7
370
     9
100
AcDbPolyline
 90
        4
 70
     1
 43
3.0
 10
-850.1901769081488
 20
1626.945146596841
 42
0.4142135623731
 10
-851.6901769081488
 20
1628.445146596841
 42
0.4142135623731
 10
-853.1901769081488
 20
1626.945146596841
 42
0.4142135623731
 10
-851.6901769081488
 20
1625.445146596841
 42
0.4142135623731
  0
LINE
  5
166
330
1F
100
AcDbEntity
  8
0-B_寸法
  6
Continuous
 62
   120
370
     5
100
AcDbLine
 10
-851.6901769081488
 20
1626.945146596841
 30
0.0
 11
-851.6901769081488
 21
1806.945146596841
 31
0.0
  0
LWPOLYLINE
  5
167
330
1F
100
AcDbEntity
  8
0-B_寸法
  6
Continuous
 62
     7
370
     9
100
AcDbPolyline
 90
        4
 70
     1
 43
3.0
 10
-844.190251140096
 20
1626.945146596841
 42
0.4142135623731
 10
-845.690251140096
 20
1628.445146596841
 42
0.4142135623731
 10
-847.190251140096
 20
1626.945146596841
 42
0.4142135623731
 10
-845.690251140096
 20
1625.445146596841
 42
0.4142135623731
  0
LINE
  5
168
330
1F
100
AcDbEntity
  8
0-B_寸法
  6
Continuous
 62
   120
370
     5
100
AcDbLine
 10
-845.690251140096
 20
1626.945146596841
 30
0.0
 11
-845.690251140096
 21
1806.945146596841
 31
0.0
  0
LINE
  5
169
330
1F
100
AcDbEntity
  8
0-B_寸法
  6
Continuous
 62
   120
370
     5
100
AcDbLine
 10
-845.690251140096
 20
1626.945146596841
 30
0.0
 11
-180.6901026381206
 21
1626.945146596841
 31
0.0
  0
LWPOLYLINE
  5
16A
330
1F
100
AcDbEntity
  8
0-B_寸法
  6
Continuous
 62
     7
370
     9
100
AcDbPolyline
 90
        4
 70
     1
 43
3.0
 10
-179.1901026381206
 20
1626.945146596841
 42
0.4142135623731
 10
-180.6901026381206
 20
1628.445146596841
 42
0.4142135623731
 10
-182.1901026381206
 20
1626.945146596841
 42
0.4142135623731
 10
-180.6901026381206
 20
1625.445146596841
 42
0.4142135623731
  0
LINE
  5
16B
330
1F
100
AcDbEntity
  8
0-B_寸法
  6
Continuous
 62
   120
370
     5
100
AcDbLine
 10
-180.6901026381206
 20
1626.945146596841
 30
0.0
 11
-180.6901026381206
 21
1806.945146596841
 31
0.0
  0
LWPOLYLINE
  5
16C
330
1F
100
AcDbEntity
  8
0-B_寸法
  6
Continuous
 62
     7
370
     9
100
AcDbPolyline
 90
        4
 70
     1
 43
3.0
 10
-167.1901026381213
 20
1626.945146596841
 42
0.4142135623731
 10
-168.6901026381213
 20
1628.445146596841
 42
0.4142135623731
 10
-170.1901026381213
 20
1626.945146596841
 42
0.4142135623731
 10
-168.6901026381213
 20
1625.445146596841
 42
0.4142135623731
  0
LINE
  5
16D
330
1F
100
AcDbEntity
  8
0-B_寸法
  6
Continuous
 62
   120
370
     5
100
AcDbLine
 10
-168.6901026381213
 20
1626.945146596841
 30
0.0
 11
-168.6901026381213
 21
1806.945146596841
 31
0.0
  0
LINE
  5
16E
330
1F
100
AcDbEntity
  8
0-B_寸法
  6
Continuous
 62
   120
370
     5
100
AcDbLine
 10
496.3100458638525
 20
1626.945146596841
 30
0.0
 11
496.3100458638525
 21
1806.945146596841
 31
0.0
  0
LWPOLYLINE
  5
16F
330
1F
100
AcDbEntity
  8
0-B_寸法
  6
Continuous
 62
     7
370
     9
100
AcDbPolyline
 90
        4
 70
     1
 43
3.0
 10
497.8100458638525
 20
1626.945146596841
 42
0.4142135623731
 10
496.3100458638525
 20
1628.445146596841
 42
0.4142135623731
 10
494.8100458638525
 20
1626.945146596841
 42
0.4142135623731
 10
496.3100458638525
 20
1625.445146596841
 42
0.4142135623731
  0
LINE
  5
170
330
1F
100
AcDbEntity
  8
0-B_寸法
  6
Continuous
 62
   120
370
     5
100
AcDbLine
 10
-168.6901026381213
 20
1626.945146596841
 30
0.0
 11
1158.309154842065
 21
1626.945146596841
 31
0.0
  0
LWPOLYLINE
  5
171
330
1F
100
AcDbEntity
  8
0-B_寸法
  6
Continuous
 62
     7
370
     9
100
AcDbPolyline
 90
        4
 70
     1
 43
3.0
 10
1159.809154842065
 20
1626.945146596841
 42
0.4142135623731
 10
1158.309154842065
 20
1628.445146596841
 42
0.4142135623731
 10
1156.809154842065
 20
1626.945146596841
 42
0.4142135623731
 10
1158.309154842065
 20
1625.445146596841
 42
0.4142135623731
  0
LINE
  5
172
330
1F
100
AcDbEntity
  8
0-B_寸法
  6
Continuous
 62
   120
370
     5
100
AcDbLine
 10
1158.309154842065
 20
1626.945146596841
 30
0.0
 11
1158.309154842065
 21
1806.945146596841
 31
0.0
  0
MTEXT
  5
173
330
1F
100
AcDbEntity
  8
0-B_寸法
  6
Continuous
 62
     7
370
   211
100
AcDbMText
 10
-2646.690436796126
 20
1447.665146596841
 30
0.0
 40
91.43999999999998
 41
900.0
 46
0.0
 71
     7
 72
     1
  1
{\fＭＳ ゴシック|b0|i0|c128|p49;折戸：ＤＷ＝833}
 73
     1
 44
1.0
  0
MTEXT
  5
174
330
1F
100
AcDbEntity
  8
0-B_寸法
  6
Continuous
 62
     7
370
   211
100
AcDbMText
 10
-1303.190102676187
 20
1447.665146596841
 30
0.0
 40
91.43999999999998
 41
900.0
 46
0.0
 71
     7
 72
     1
  1
{\fＭＳ ゴシック|b0|i0|c128|p49;折戸：ＤＷ＝833}
 73
     1
 44
1.0
  0
MTEXT
  5
175
330
1F
100
AcDbEntity
  8
0-B_寸法
  6
Continuous
 62
     7
370
   211
100
AcDbMText
 10
40.30963744990629
 20
1447.665146596841
 30
0.0
 40
91.43999999999998
 41
900.0
 46
0.0
 71
     7
 72
     1
  1
{\fＭＳ ゴシック|b0|i0|c128|p49;折戸：ＤＷ＝833}
 73
     1
 44
1.0
  0
LINE
  5
176
330
1F
100
AcDbEntity
  8
0-6_扉
  6
JWW_DASHED2
 62
    40
370
    15
100
AcDbLine
 10
-2742.457838777721
 20
2546.477357195498
 30
0.0
 11
-2616.820140693865
 21
2556.025593691857
 31
0.0
  0
ARC
  5
177
330
1F
100
AcDbEntity
  8
0-6_扉
  6
JWW_DASHED2
 62
    40
370
    15
100
AcDbCircle
 10
-2615.456106908671
 20
2538.077351108448
 30
0.0
 40
18.0
100
AcDbArc
 50
4.346020721639738
 51
94.3460207216407
  0
LINE
  5
178
330
1F
100
AcDbEntity
  8
0-6_扉
  6
JWW_DASHED2
 62
    40
370
    15
100
AcDbLine
 10
-2597.507864325263
 20
2539.441384893643
 30
0.0
 11
-2563.04303575957
 21
2085.945943353073
 31
0.0
  0
ARC
  5
179
330
1F
100
AcDbEntity
  8
0-6_扉
  6
JWW_DASHED2
 62
    40
370
    15
100
AcDbCircle
 10
-2741.093804992527
 20
2528.529114612091
 30
0.0
 40
18.0
100
AcDbArc
 50
94.34602072164084
 51
184.3460207216404
  0
LINE
  5
17A
330
1F
100
AcDbEntity
  8
0-6_扉
  6
JWW_DASHED2
 62
    40
370
    15
100
AcDbLine
 10
-2759.042047575933
 20
2527.165080826898
 30
0.0
 11
-2725.51019578646
 21
2085.945943353073
 31
0.0
  0
LINE
  5
17B
330
1F
100
AcDbEntity
  8
0-6_扉
  6
JWW_DASHED2
 62
    40
370
    15
100
AcDbLine
 10
-2288.813131317682
 20
2554.661559906665
 30
0.0
 11
-2163.175433233831
 21
2545.113323410311
 31
0.0
  0
ARC
  5
17C
330
1F
100
AcDbEntity
  8
0-6_扉
  6
JWW_DASHED2
 62
    40
370
    15
100
AcDbCircle
 10
-2164.539467019024
 20
2527.165080826902
 30
0.0
 40
18.0
100
AcDbArc
 50
355.653979278361
 51
85.65397927836072
  0
LINE
  5
17D
330
1F
100
AcDbEntity
  8
0-6_扉
  6
JWW_DASHED2
 62
    40
370
    15
100
AcDbLine
 10
-2146.591224435616
 20
2525.80104704171
 30
0.0
 11
-2180.019412138834
 21
2085.945943353073
 31
0.0
  0
ARC
  5
17E
330
1F
100
AcDbEntity
  8
0-6_扉
  6
JWW_DASHED2
 62
    40
370
    15
100
AcDbCircle
 10
-2290.177165102877
 20
2536.713317323256
 30
0.0
 40
18.0
100
AcDbArc
 50
85.6539792783607
 51
175.6539792783611
  0
LINE
  5
17F
330
1F
100
AcDbEntity
  8
0-6_扉
  6
JWW_DASHED2
 62
    40
370
    15
100
AcDbLine
 10
-2308.125407686285
 20
2538.077351108451
 30
0.0
 11
-2342.486572165724
 21
2085.945943353073
 31
0.0
  0
LINE
  5
180
330
1F
100
AcDbEntity
  8
0-6_扉
  6
JWW_DASHED2
 62
    40
370
    15
100
AcDbLine
 10
591.4315152337547
 20
2554.661559906665
 30
0.0
 11
465.7938171499026
 21
2545.113323410311
 31
0.0
  0
ARC
  5
181
330
1F
100
AcDbEntity
  8
0-6_扉
  6
JWW_DASHED2
 62
    40
370
    15
100
AcDbCircle
 10
467.1578509350961
 20
2527.165080826902
 30
0.0
 40
18.0
100
AcDbArc
 50
94.34602072163928
 51
184.346020721639
  0
LINE
  5
182
330
1F
100
AcDbEntity
  8
0-6_扉
  6
JWW_DASHED2
 62
    40
370
    15
100
AcDbLine
 10
449.2096083516881
 20
2525.80104704171
 30
0.0
 11
482.6377960549056
 21
2085.945943353073
 31
0.0
  0
ARC
  5
183
330
1F
100
AcDbEntity
  8
0-6_扉
  6
JWW_DASHED2
 62
    40
370
    15
100
AcDbCircle
 10
592.7955490189479
 20
2536.713317323256
 30
0.0
 40
18.0
100
AcDbArc
 50
4.346020721638924
 51
94.34602072163929
  0
LINE
  5
184
330
1F
100
AcDbEntity
  8
0-6_扉
  6
JWW_DASHED2
 62
    40
370
    15
100
AcDbLine
 10
610.7437916023559
 20
2538.077351108451
 30
0.0
 11
645.1049560817955
 21
2085.945943353073
 31
0.0
  0
LINE
  5
185
330
1F
100
AcDbEntity
  8
0-6_扉
  6
JWW_DASHED2
 62
    40
370
    15
100
AcDbLine
 10
1045.076222693792
 20
2546.477357195498
 30
0.0
 11
919.438524609937
 21
2556.025593691857
 31
0.0
  0
ARC
  5
186
330
1F
100
AcDbEntity
  8
0-6_扉
  6
JWW_DASHED2
 62
    40
370
    15
100
AcDbCircle
 10
918.0744908247425
 20
2538.077351108448
 30
0.0
 40
18.0
100
AcDbArc
 50
85.65397927835929
 51
175.6539792783603
  0
LINE
  5
187
330
1F
100
AcDbEntity
  8
0-6_扉
  6
JWW_DASHED2
 62
    40
370
    15
100
AcDbLine
 10
900.1262482413349
 20
2539.441384893643
 30
0.0
 11
865.6614196756411
 21
2085.945943353073
 31
0.0
  0
ARC
  5
188
330
1F
100
AcDbEntity
  8
0-6_扉
  6
JWW_DASHED2
 62
    40
370
    15
100
AcDbCircle
 10
1043.712188908598
 20
2528.529114612091
 30
0.0
 40
18.0
100
AcDbArc
 50
355.6539792783596
 51
85.65397927835917
  0
LINE
  5
189
330
1F
100
AcDbEntity
  8
0-6_扉
  6
JWW_DASHED2
 62
    40
370
    15
100
AcDbLine
 10
1061.660431492006
 20
2527.165080826898
 30
0.0
 11
1028.128579702533
 21
2085.945943353073
 31
0.0
  0
LWPOLYLINE
  5
18A
330
1F
100
AcDbEntity
  8
0-B_寸法
  6
Continuous
 62
     7
370
     9
100
AcDbPolyline
 90
        4
 70
     1
 43
3.0
 10
450.7096083516881
 20
2961.945146596844
 42
0.4142135623731
 10
449.2096083516881
 20
2963.445146596844
 42
0.4142135623731
 10
447.7096083516881
 20
2961.945146596844
 42
0.4142135623731
 10
449.2096083516881
 20
2960.445146596844
 42
0.4142135623731
  0
LINE
  5
18B
330
1F
100
AcDbEntity
  8
0-B_寸法
  6
Continuous
 62
   120
370
     5
100
AcDbLine
 10
449.2096083516881
 20
2961.945146596844
 30
0.0
 11
449.2096083516881
 21
2781.945146596844
 31
0.0
  0
LINE
  5
18C
330
1F
100
AcDbEntity
  8
0-1_通り芯
  6
JWW_CENTER1
 62
   120
370
     5
100
AcDbLine
 10
449.2096083516881
 20
2781.945146596844
 30
0.0
 11
449.2096083516881
 21
2528.529114612098
 31
0.0
  0
LWPOLYLINE
  5
18D
330
1F
100
AcDbEntity
  8
0-B_寸法
  6
Continuous
 62
     7
370
     9
100
AcDbPolyline
 90
        4
 70
     1
 43
3.0
 10
-2145.091224435616
 20
2961.945146596844
 42
0.4142135623731
 10
-2146.591224435616
 20
2963.445146596844
 42
0.4142135623731
 10
-2148.091224435616
 20
2961.945146596844
 42
0.4142135623731
 10
-2146.591224435616
 20
2960.445146596844
 42
0.4142135623731
  0
LINE
  5
18E
330
1F
100
AcDbEntity
  8
0-B_寸法
  6
Continuous
 62
   120
370
     5
100
AcDbLine
 10
-2146.591224435616
 20
2961.945146596844
 30
0.0
 11
-2146.591224435616
 21
2781.945146596844
 31
0.0
  0
LINE
  5
18F
330
1F
100
AcDbEntity
  8
0-B_寸法
  6
Continuous
 62
   120
370
     5
100
AcDbLine
 10
-2146.591224435616
 20
2961.945146596844
 30
0.0
 11
449.2096083516881
 21
2961.945146596844
 31
0.0
  0
LINE
  5
190
330
1F
100
AcDbEntity
  8
0-1_通り芯
  6
JWW_CENTER1
 62
   120
370
     5
100
AcDbLine
 10
-2146.591224435616
 20
2781.945146596844
 30
0.0
 11
-2146.591224435616
 21
2528.529114612098
 31
0.0
  0
MTEXT
  5
191
330
1F
100
AcDbEntity
  8
0-A_文字
  6
Continuous
 62
     7
370
     9
100
AcDbMText
 10
-1466.69178538126
 20
826.7384799301743
 30
0.0
 40
79.58666666666657
 41
2819.999999999996
 46
0.0
 71
     7
 72
     1
  1
{\fＭＳ ゴシック|b0|i0|c128|p49;※有効開口寸法は扉の厚さや調整によって若干異なります。}
 73
     1
 44
1.0
  0
MTEXT
  5
192
330
1F
100
AcDbEntity
  8
0-A_文字
  6
Continuous
 62
     7
370
     9
100
AcDbMText
 10
-941.6917853812603
 20
931.6903738695682
 30
0.0
 40
79.49045454545441
 41
2294.999999999996
 46
0.0
 71
     7
 72
     1
  1
{\fＭＳ ゴシック|b0|i0|c128|p49;※有効開口寸法にはハンドルの突出は含まない。}
 73
     1
 44
1.0
  0
LINE
  5
193
330
1F
100
AcDbEntity
  8
0-0_補助線
  6
JWW_HOJO
 62
   120
370
     5
100
AcDbLine
 10
1923.308956890207
 20
1626.945146596841
 30
0.0
 11
-3620.690572926138
 21
1626.945146596841
 31
0.0
  0
LINE
  5
194
330
1F
100
AcDbEntity
  8
0-0_補助線
  6
JWW_HOJO
 62
   120
370
     5
100
AcDbLine
 10
1923.308956890207
 20
1446.945146596841
 30
0.0
 11
-3620.690572926138
 21
1446.945146596841
 31
0.0
  0
LINE
  5
195
330
1F
100
AcDbEntity
  8
0-B_寸法
  6
Continuous
 62
   120
370
     5
100
AcDbLine
 10
1173.309154842065
 20
1806.945146596841
 30
0.0
 11
1173.309154842065
 21
1266.945146596841
 31
0.0
  0
LINE
  5
196
330
1F
100
AcDbEntity
  8
0-B_寸法
  6
Continuous
 62
   120
370
     5
100
AcDbLine
 10
1353.308264058703
 20
1806.945146596841
 30
0.0
 11
1353.308264058703
 21
1086.945146596841
 31
0.0
  0
LWPOLYLINE
  5
197
330
1F
100
AcDbEntity
  8
0-B_寸法
  6
Continuous
 62
     7
370
     9
100
AcDbPolyline
 90
        4
 70
     1
 43
3.0
 10
-3079.190770925984
 20
1086.945146596841
 42
0.4142135623731
 10
-3080.690770925984
 20
1088.445146596841
 42
0.4142135623731
 10
-3082.190770925984
 20
1086.945146596841
 42
0.4142135623731
 10
-3080.690770925984
 20
1085.445146596841
 42
0.4142135623731
  0
LWPOLYLINE
  5
198
330
1F
100
AcDbEntity
  8
0-B_寸法
  6
Continuous
 62
     7
370
     9
100
AcDbPolyline
 90
        4
 70
     1
 43
3.0
 10
-3049.190770925992
 20
1086.945146596841
 42
0.4142135623731
 10
-3050.690770925992
 20
1088.445146596841
 42
0.4142135623731
 10
-3052.190770925992
 20
1086.945146596841
 42
0.4142135623731
 10
-3050.690770925992
 20
1085.445146596841
 42
0.4142135623731
  0
LINE
  5
199
330
1F
100
AcDbEntity
  8
0-B_寸法
  6
Continuous
 62
   120
370
     5
100
AcDbLine
 10
-3080.690770925984
 20
1086.945146596841
 30
0.0
 11
-3080.690770925984
 21
1986.945146596841
 31
0.0
  0
LINE
  5
19A
330
1F
100
AcDbEntity
  8
0-B_寸法
  6
Continuous
 62
   120
370
     5
100
AcDbLine
 10
-3050.690770925992
 20
1086.945146596841
 30
0.0
 11
-3050.690770925992
 21
1986.945146596841
 31
0.0
  0
LINE
  5
19B
330
1F
100
AcDbEntity
  8
0-B_寸法
  6
Continuous
 62
   120
370
     5
100
AcDbLine
 10
1353.309154842065
 20
1086.945146596841
 30
0.0
 11
1383.309154842056
 21
1086.945146596841
 31
0.0
  0
LWPOLYLINE
  5
19C
330
1F
100
AcDbEntity
  8
0-B_寸法
  6
Continuous
 62
     7
370
     9
100
AcDbPolyline
 90
        4
 70
     1
 43
3.0
 10
1354.809154842065
 20
1086.945146596841
 42
0.4142135623731
 10
1353.309154842065
 20
1088.445146596841
 42
0.4142135623731
 10
1351.809154842065
 20
1086.945146596841
 42
0.4142135623731
 10
1353.309154842065
 20
1085.445146596841
 42
0.4142135623731
  0
LWPOLYLINE
  5
19D
330
1F
100
AcDbEntity
  8
0-B_寸法
  6
Continuous
 62
     7
370
     9
100
AcDbPolyline
 90
        4
 70
     1
 43
3.0
 10
1384.809154842056
 20
1086.945146596841
 42
0.4142135623731
 10
1383.309154842056
 20
1088.445146596841
 42
0.4142135623731
 10
1381.809154842056
 20
1086.945146596841
 42
0.4142135623731
 10
1383.309154842056
 20
1085.445146596841
 42
0.4142135623731
  0
LINE
  5
19E
330
1F
100
AcDbEntity
  8
0-B_寸法
  6
Continuous
 62
   120
370
     5
100
AcDbLine
 10
1353.309154842065
 20
1086.945146596841
 30
0.0
 11
1353.309154842065
 21
1986.945146596841
 31
0.0
  0
LINE
  5
19F
330
1F
100
AcDbEntity
  8
0-B_寸法
  6
Continuous
 62
   120
370
     5
100
AcDbLine
 10
1383.309154842056
 20
1086.945146596841
 30
0.0
 11
1383.309154842056
 21
1986.945146596841
 31
0.0
  0
MTEXT
  5
1A0
330
1F
100
AcDbEntity
  8
0-B_寸法
  6
Continuous
 62
     7
370
   211
100
AcDbMText
 10
-3020.690770925992
 20
1087.665146596841
 30
0.0
 40
91.44
 41
60.0
 46
0.0
 71
     7
 72
     1
  1
{\fＭＳ ゴシック|b0|i0|c128|p49;5}
 73
     1
 44
1.0
  0
MTEXT
  5
1A1
330
1F
100
AcDbEntity
  8
0-B_寸法
  6
Continuous
 62
     7
370
   211
100
AcDbMText
 10
1263.308214570741
 20
1087.665146596841
 30
0.0
 40
91.44
 41
60.0
 46
0.0
 71
     7
 72
     1
  1
{\fＭＳ ゴシック|b0|i0|c128|p49;5}
 73
     1
 44
1.0
  0
MTEXT
  5
1A2
330
1F
100
AcDbEntity
  8
0-B_寸法
  6
Continuous
 62
     7
370
   211
100
AcDbMText
 10
-1238.690214024122
 20
3142.665146596843
 30
0.0
 40
91.43999999999997
 41
780.0
 46
0.0
 71
     7
 72
     1
  1
{\fＭＳ ゴシック|b0|i0|c128|p49;ＲＯＷ＝2,578}
 73
     1
 44
1.0
  0
MTEXT
  5
1A3
330
1F
100
AcDbEntity
  8
0-B_寸法
  6
Continuous
 62
     7
370
   211
100
AcDbMText
 10
-1418.690214024122
 20
2962.665146596843
 30
0.0
 40
91.43999999999998
 41
1140.0
 46
0.0
 71
     7
 72
     1
  1
{\fＭＳ ゴシック|b0|i0|c128|p49;有効開口寸法＝2,129}
 73
     1
 44
1.0
  0
MTEXT
  5
1A4
330
1F
100
AcDbEntity
  8
0-B_寸法
  6
Continuous
 62
     7
370
     0
100
AcDbMText
 10
-1178.690214024122
 20
1267.665196084806
 30
0.0
 40
91.43999999999997
 41
660.0
 46
0.0
 71
     7
 72
     1
  1
{\fＭＳ ゴシック|b0|i0|c128|p49;枠内＝2,508}
 73
     1
 44
1.0
  0
MTEXT
  5
1A5
330
1F
100
AcDbEntity
  8
0-B_寸法
  6
Continuous
 62
     7
370
     0
100
AcDbMText
 10
-1178.690214024122
 20
1087.665196084806
 30
0.0
 40
91.43999999999997
 41
660.0
 46
0.0
 71
     7
 72
     1
  1
{\fＭＳ ゴシック|b0|i0|c128|p49;枠外＝2,568}
 73
     1
 44
1.0
  0
LINE
  5
1A6
330
1F
100
AcDbEntity
  8
0-C_ハッチ
  6
JWW_DASHED1
 62
   120
370
     5
100
AcDbLine
 10
-3579.083195354161
 20
2052.945695913226
 30
0.0
 11
-3504.082947914329
 21
2127.94594335306
 31
0.0
  0
LINE
  5
1A7
330
1F
100
AcDbEntity
  8
0-C_ハッチ
  6
JWW_DASHED1
 62
   120
370
     5
100
AcDbLine
 10
-3536.656788482934
 20
2052.945695913254
 30
0.0
 11
-3461.656541043102
 21
2127.945943353085
 31
0.0
  0
LINE
  5
1A8
330
1F
100
AcDbEntity
  8
0-C_ハッチ
  6
JWW_DASHED1
 62
   120
370
     5
100
AcDbLine
 10
-3494.230381611737
 20
2052.945695913251
 30
0.0
 11
-3419.230134171909
 21
2127.945943353079
 31
0.0
  0
LINE
  5
1A9
330
1F
100
AcDbEntity
  8
0-C_ハッチ
  6
JWW_DASHED1
 62
   120
370
     5
100
AcDbLine
 10
-3451.803974740541
 20
2052.945695913246
 30
0.0
 11
-3376.803727300712
 21
2127.945943353076
 31
0.0
  0
LINE
  5
1AA
330
1F
100
AcDbEntity
  8
0-C_ハッチ
  6
JWW_DASHED1
 62
   120
370
     5
100
AcDbLine
 10
-3409.377567869341
 20
2052.945695913246
 30
0.0
 11
-3334.377320429508
 21
2127.945943353079
 31
0.0
  0
LINE
  5
1AB
330
1F
100
AcDbEntity
  8
0-C_ハッチ
  6
JWW_DASHED1
 62
   120
370
     5
100
AcDbLine
 10
-3366.951160998147
 20
2052.945695913241
 30
0.0
 11
-3291.950913558315
 21
2127.945943353074
 31
0.0
  0
LINE
  5
1AC
330
1F
100
AcDbEntity
  8
0-C_ハッチ
  6
JWW_DASHED1
 62
   120
370
     5
100
AcDbLine
 10
-3324.524754126947
 20
2052.94569591324
 30
0.0
 11
-3249.524506687115
 21
2127.945943353072
 31
0.0
  0
LINE
  5
1AD
330
1F
100
AcDbEntity
  8
0-C_ハッチ
  6
JWW_DASHED1
 62
   120
370
     5
100
AcDbLine
 10
-3282.098347255754
 20
2052.945695913237
 30
0.0
 11
-3207.098099815918
 21
2127.945943353069
 31
0.0
  0
LINE
  5
1AE
330
1F
100
AcDbEntity
  8
0-C_ハッチ
  6
JWW_DASHED1
 62
   120
370
     5
100
AcDbLine
 10
-3239.671940384598
 20
2052.945695913244
 30
0.0
 11
-3164.671692944766
 21
2127.945943353078
 31
0.0
  0
LINE
  5
1AF
330
1F
100
AcDbEntity
  8
0-C_ハッチ
  6
JWW_DASHED1
 62
   120
370
     5
100
AcDbLine
 10
-3197.245533513395
 20
2052.945695913247
 30
0.0
 11
-3122.245286073566
 21
2127.945943353078
 31
0.0
  0
LINE
  5
1B0
330
1F
100
AcDbEntity
  8
0-C_ハッチ
  6
JWW_DASHED1
 62
   120
370
     5
100
AcDbLine
 10
-3154.819126642202
 20
2052.945695913241
 30
0.0
 11
-3079.81887920237
 21
2127.945943353072
 31
0.0
  0
LINE
  5
1B1
330
1F
100
AcDbEntity
  8
0-C_ハッチ
  6
JWW_DASHED1
 62
   120
370
     5
100
AcDbLine
 10
-3112.392719771005
 20
2052.945695913237
 30
0.0
 11
-3037.392472331177
 21
2127.945943353066
 31
0.0
  0
LINE
  5
1B2
330
1F
100
AcDbEntity
  8
0-C_ハッチ
  6
JWW_DASHED1
 62
   120
370
     5
100
AcDbLine
 10
-3069.966312899795
 20
2052.945695913247
 30
0.0
 11
-3020.690770925992
 21
2102.221237887049
 31
0.0
  0
LINE
  5
1B3
330
1F
100
AcDbEntity
  8
0-C_ハッチ
  6
JWW_DASHED1
 62
   120
370
     5
100
AcDbLine
 10
-3027.539906028598
 20
2052.945695913244
 30
0.0
 11
-3020.690770925992
 21
2059.794831015849
 31
0.0
  0
LINE
  5
1B4
330
1F
100
AcDbEntity
  8
0-3_仕上げ
  6
Continuous
 62
    40
370
    15
100
AcDbLine
 10
-3020.690770925992
 20
2052.945943353074
 30
0.0
 11
-3620.690572926138
 21
2052.945943353074
 31
0.0
  0
LINE
  5
1B5
330
1F
100
AcDbEntity
  8
0-C_ハッチ
  6
JWW_DASHED1
 62
   120
370
     5
100
AcDbLine
 10
-3620.690572926138
 20
2053.764725212398
 30
0.0
 11
-3546.509354785468
 21
2127.945943353066
 31
0.0
  0
LINE
  5
1B6
330
1F
100
AcDbEntity
  8
0-3_仕上げ
  6
Continuous
 62
    40
370
    15
100
AcDbLine
 10
-3020.690770925992
 20
2127.945943353074
 30
0.0
 11
-3620.690572926138
 21
2127.945943353074
 31
0.0
  0
LINE
  5
1B7
330
1F
100
AcDbEntity
  8
0-3_仕上げ
  6
Continuous
 62
    40
370
    15
100
AcDbLine
 10
-3020.690770925992
 20
2052.945943353074
 30
0.0
 11
-3020.690770925992
 21
2127.945943353074
 31
0.0
  0
LINE
  5
1B8
330
1F
100
AcDbEntity
  8
0-C_ハッチ
  6
JWW_DASHED1
 62
   120
370
     5
100
AcDbLine
 10
-3620.690572926138
 20
2096.191132083599
 30
0.0
 11
-3588.935761656695
 21
2127.945943353042
 31
0.0
  0
LINE
  5
1B9
330
1F
100
AcDbEntity
  8
0-C_ハッチ
  6
JWW_DASHED1
 62
   120
370
     5
100
AcDbLine
 10
1324.806606527309
 20
2052.945943353078
 30
0.0
 11
1399.80660652732
 21
2127.945943353087
 31
0.0
  0
LINE
  5
1BA
330
1F
100
AcDbEntity
  8
0-C_ハッチ
  6
JWW_DASHED1
 62
   120
370
     5
100
AcDbLine
 10
1367.233013398521
 20
2052.94594335309
 30
0.0
 11
1442.233013398514
 21
2127.945943353085
 31
0.0
  0
LINE
  5
1BB
330
1F
100
AcDbEntity
  8
0-C_ハッチ
  6
JWW_DASHED1
 62
   120
370
     5
100
AcDbLine
 10
1409.65942026972
 20
2052.945943353087
 30
0.0
 11
1484.659420269716
 21
2127.945943353085
 31
0.0
  0
LINE
  5
1BC
330
1F
100
AcDbEntity
  8
0-C_ハッチ
  6
JWW_DASHED1
 62
   120
370
     5
100
AcDbLine
 10
1452.085827140916
 20
2052.945943353085
 30
0.0
 11
1527.085827140913
 21
2127.94594335308
 31
0.0
  0
LINE
  5
1BD
330
1F
100
AcDbEntity
  8
0-C_ハッチ
  6
JWW_DASHED1
 62
   120
370
     5
100
AcDbLine
 10
1494.512234012113
 20
2052.94594335308
 30
0.0
 11
1569.512234012109
 21
2127.945943353078
 31
0.0
  0
LINE
  5
1BE
330
1F
100
AcDbEntity
  8
0-C_ハッチ
  6
JWW_DASHED1
 62
   120
370
     5
100
AcDbLine
 10
1536.938640883252
 20
2052.945943353074
 30
0.0
 11
1611.938640883246
 21
2127.945943353071
 31
0.0
  0
LINE
  5
1BF
330
1F
100
AcDbEntity
  8
0-C_ハッチ
  6
JWW_DASHED1
 62
   120
370
     5
100
AcDbLine
 10
1579.365047754448
 20
2052.945943353071
 30
0.0
 11
1654.36504775446
 21
2127.945943353083
 31
0.0
  0
LINE
  5
1C0
330
1F
100
AcDbEntity
  8
0-C_ハッチ
  6
JWW_DASHED1
 62
   120
370
     5
100
AcDbLine
 10
1621.791454625652
 20
2052.945943353074
 30
0.0
 11
1696.791454625662
 21
2127.945943353085
 31
0.0
  0
LINE
  5
1C1
330
1F
100
AcDbEntity
  8
0-C_ハッチ
  6
JWW_DASHED1
 62
   120
370
     5
100
AcDbLine
 10
1664.217861496863
 20
2052.945943353086
 30
0.0
 11
1739.217861496857
 21
2127.945943353079
 31
0.0
  0
LINE
  5
1C2
330
1F
100
AcDbEntity
  8
0-C_ハッチ
  6
JWW_DASHED1
 62
   120
370
     5
100
AcDbLine
 10
1706.64426836806
 20
2052.945943353083
 30
0.0
 11
1781.644268368053
 21
2127.945943353076
 31
0.0
  0
LINE
  5
1C3
330
1F
100
AcDbEntity
  8
0-C_ハッチ
  6
JWW_DASHED1
 62
   120
370
     5
100
AcDbLine
 10
1749.070675239267
 20
2052.94594335309
 30
0.0
 11
1824.070675239263
 21
2127.945943353086
 31
0.0
  0
LINE
  5
1C4
330
1F
100
AcDbEntity
  8
0-C_ハッチ
  6
JWW_DASHED1
 62
   120
370
     5
100
AcDbLine
 10
1791.497082110463
 20
2052.945943353086
 30
0.0
 11
1866.49708211046
 21
2127.945943353083
 31
0.0
  0
LINE
  5
1C5
330
1F
100
AcDbEntity
  8
0-C_ハッチ
  6
JWW_DASHED1
 62
   120
370
     5
100
AcDbLine
 10
1323.309154842065
 20
2093.874898539033
 30
0.0
 11
1357.380199656125
 21
2127.945943353092
 31
0.0
  0
LINE
  5
1C6
330
1F
100
AcDbEntity
  8
0-3_仕上げ
  6
Continuous
 62
    40
370
    15
100
AcDbLine
 10
1323.309154842065
 20
2127.945943353074
 30
0.0
 11
1923.308956890207
 21
2127.945943353074
 31
0.0
  0
LINE
  5
1C7
330
1F
100
AcDbEntity
  8
0-3_仕上げ
  6
Continuous
 62
    40
370
    15
100
AcDbLine
 10
1323.309154842065
 20
2052.945943353074
 30
0.0
 11
1923.308956890207
 21
2052.945943353074
 31
0.0
  0
LINE
  5
1C8
330
1F
100
AcDbEntity
  8
0-C_ハッチ
  6
JWW_DASHED1
 62
   120
370
     5
100
AcDbLine
 10
1876.349895852799
 20
2052.945943353076
 30
0.0
 11
1923.308956890207
 21
2099.905004390484
 31
0.0
  0
LINE
  5
1C9
330
1F
100
AcDbEntity
  8
0-C_ハッチ
  6
JWW_DASHED1
 62
   120
370
     5
100
AcDbLine
 10
1833.92348898166
 20
2052.945943353083
 30
0.0
 11
1908.923488981652
 21
2127.945943353074
 31
0.0
  0
LINE
  5
1CA
330
1F
100
AcDbEntity
  8
0-3_仕上げ
  6
Continuous
 62
    40
370
    15
100
AcDbLine
 10
1323.309154842065
 20
2052.945943353074
 30
0.0
 11
1323.309154842065
 21
2127.945943353074
 31
0.0
  0
MTEXT
  5
1CB
330
1F
100
AcDbEntity
  8
0-B_寸法
  6
Continuous
 62
     7
370
   211
100
AcDbMText
 10
-2987.690770877993
 20
1807.665146596841
 30
0.0
 40
91.44
 41
60.0
 46
0.0
 71
     7
 72
     1
  1
{\fＭＳ ゴシック|b0|i0|c128|p49;9}
 73
     1
 44
1.0
  0
LINE
  5
1CC
330
1F
100
AcDbEntity
  8
0-B_寸法
  6
Continuous
 62
   120
370
     5
100
AcDbLine
 10
-3050.690993573834
 20
1806.945146596841
 30
0.0
 11
-3050.690993573834
 21
1986.945146596841
 31
0.0
  0
LINE
  5
1CD
330
1F
100
AcDbEntity
  8
0-B_寸法
  6
Continuous
 62
   120
370
     5
100
AcDbLine
 10
-3020.690770877996
 20
1806.945146596841
 30
0.0
 11
-3020.690770877996
 21
1986.945146596841
 31
0.0
  0
LINE
  5
1CE
330
1F
100
AcDbEntity
  8
0-B_寸法
  6
Continuous
 62
   120
370
     5
100
AcDbLine
 10
-2984.690770877995
 20
1806.945146596841
 30
0.0
 11
-2984.690770877995
 21
1986.945146596841
 31
0.0
  0
LINE
  5
1CF
330
1F
100
AcDbEntity
  8
0-B_寸法
  6
Continuous
 62
   120
370
     5
100
AcDbLine
 10
-2930.690770877996
 20
1806.945146596841
 30
0.0
 11
-2930.690770877996
 21
1986.945146596841
 31
0.0
  0
LINE
  5
1D0
330
1F
100
AcDbEntity
  8
0-B_寸法
  6
Continuous
 62
   120
370
     5
100
AcDbLine
 10
-2870.690770877996
 20
1806.945146596841
 30
0.0
 11
-2870.690770877996
 21
1986.945146596841
 31
0.0
  0
LINE
  5
1D1
330
1F
100
AcDbEntity
  8
0-B_寸法
  6
Continuous
 62
   120
370
     5
100
AcDbLine
 10
-2870.690770877996
 20
1806.945146596841
 30
0.0
 11
-3050.690993573834
 21
1806.945146596841
 31
0.0
  0
LWPOLYLINE
  5
1D2
330
1F
100
AcDbEntity
  8
0-B_寸法
  6
Continuous
 62
     7
370
     9
100
AcDbPolyline
 90
        4
 70
     1
 43
3.0
 10
-3049.190993573835
 20
1806.945146596841
 42
0.4142135623731
 10
-3050.690993573834
 20
1808.445146596841
 42
0.4142135623731
 10
-3052.190993573834
 20
1806.945146596841
 42
0.4142135623731
 10
-3050.690993573834
 20
1805.445146596841
 42
0.4142135623731
  0
LWPOLYLINE
  5
1D3
330
1F
100
AcDbEntity
  8
0-B_寸法
  6
Continuous
 62
     7
370
     9
100
AcDbPolyline
 90
        4
 70
     1
 43
3.0
 10
-3019.190770877996
 20
1806.945146596841
 42
0.4142135623731
 10
-3020.690770877996
 20
1808.445146596841
 42
0.4142135623731
 10
-3022.190770877995
 20
1806.945146596841
 42
0.4142135623731
 10
-3020.690770877996
 20
1805.445146596841
 42
0.4142135623731
  0
LWPOLYLINE
  5
1D4
330
1F
100
AcDbEntity
  8
0-B_寸法
  6
Continuous
 62
     7
370
     9
100
AcDbPolyline
 90
        4
 70
     1
 43
3.0
 10
-2983.190770877995
 20
1806.945146596841
 42
0.4142135623731
 10
-2984.690770877995
 20
1808.445146596841
 42
0.4142135623731
 10
-2986.190770877994
 20
1806.945146596841
 42
0.4142135623731
 10
-2984.690770877995
 20
1805.445146596841
 42
0.4142135623731
  0
LWPOLYLINE
  5
1D5
330
1F
100
AcDbEntity
  8
0-B_寸法
  6
Continuous
 62
     7
370
     9
100
AcDbPolyline
 90
        4
 70
     1
 43
3.0
 10
-2929.190770877996
 20
1806.945146596841
 42
0.4142135623731
 10
-2930.690770877996
 20
1808.445146596841
 42
0.4142135623731
 10
-2932.190770877995
 20
1806.945146596841
 42
0.4142135623731
 10
-2930.690770877996
 20
1805.445146596841
 42
0.4142135623731
  0
LWPOLYLINE
  5
1D6
330
1F
100
AcDbEntity
  8
0-B_寸法
  6
Continuous
 62
     7
370
     9
100
AcDbPolyline
 90
        4
 70
     1
 43
3.0
 10
-2869.190770877996
 20
1806.945146596841
 42
0.4142135623731
 10
-2870.690770877996
 20
1808.445146596841
 42
0.4142135623731
 10
-2872.190770877995
 20
1806.945146596841
 42
0.4142135623731
 10
-2870.690770877996
 20
1805.445146596841
 42
0.4142135623731
  0
LINE
  5
1D7
330
1F
100
AcDbEntity
  8
0-B_寸法
  6
Continuous
 62
   120
370
     5
100
AcDbLine
 10
-3002.898647276926
 20
1806.945146596841
 30
0.0
 11
-3122.898647276926
 21
1689.24754020447
 31
0.0
  0
LINE
  5
1D8
330
1F
100
AcDbEntity
  8
0-B_寸法
  6
Continuous
 62
   120
370
     5
100
AcDbLine
 10
-3122.898647276926
 20
1689.24754020447
 30
0.0
 11
-3177.985361195294
 21
1689.24754020447
 31
0.0
  0
MTEXT
  5
1D9
330
1F
100
AcDbEntity
  8
0-B_寸法
  6
Continuous
 62
     7
370
   211
100
AcDbMText
 10
-3177.646383237749
 20
1684.927014728032
 30
0.0
 40
91.44
 41
60.0
 46
0.0
 71
     7
 72
     1
  1
{\fＭＳ ゴシック|b0|i0|c128|p49;6}
 73
     1
 44
1.0
  0
MTEXT
  5
1DA
330
1F
100
AcDbEntity
  8
0-B_寸法
  6
Continuous
 62
     7
370
   211
100
AcDbMText
 10
-2832.918981292392
 20
1885.445006222489
 30
0.0
 40
91.44000000000001
 41
120.0
 46
0.0
 71
     7
 72
     1
  1
{\fＭＳ ゴシック|b0|i0|c128|p49;10}
 73
     1
 44
1.0
  0
LINE
  5
1DB
330
1F
100
AcDbEntity
  8
0-B_寸法
  6
Continuous
 62
   120
370
     5
100
AcDbLine
 10
-2900.690770877996
 20
1806.945146596841
 30
0.0
 11
-2841.812141999058
 21
1893.743206341634
 31
0.0
  0
LINE
  5
1DC
330
1F
100
AcDbEntity
  8
0-B_寸法
  6
Continuous
 62
   120
370
     5
100
AcDbLine
 10
-2841.812141999058
 20
1893.743206341634
 30
0.0
 11
-2732.14866022257
 21
1893.743206341634
 31
0.0
  0
LINE
  5
1DD
330
1F
100
AcDbEntity
  8
0-B_寸法
  6
Continuous
 62
   120
370
     5
100
AcDbLine
 10
-3034.197233998815
 20
1806.945146596841
 30
0.0
 11
-3122.898647276926
 21
1893.743206341634
 31
0.0
  0
LINE
  5
1DE
330
1F
100
AcDbEntity
  8
0-B_寸法
  6
Continuous
 62
   120
370
     5
100
AcDbLine
 10
-3122.898647276926
 20
1893.743206341634
 30
0.0
 11
-3177.985361195294
 21
1893.743206341634
 31
0.0
  0
MTEXT
  5
1DF
330
1F
100
AcDbEntity
  8
0-B_寸法
  6
Continuous
 62
     7
370
   211
100
AcDbMText
 10
-3175.398647276926
 20
1886.518662611361
 30
0.0
 40
91.44000000000001
 41
60.0
 46
0.0
 71
     7
 72
     1
  1
{\fＭＳ ゴシック|b0|i0|c128|p49;5}
 73
     1
 44
1.0
  0
LINE
  5
1E0
330
1F
100
AcDbEntity
  8
F-0_補助線
  6
JWW_HOJO
 62
   120
370
     5
100
AcDbLine
 10
-6140.081333436773
 20
-4455.0
 30
0.0
 11
-6140.081333436773
 21
4424.999604096284
 31
0.0
  0
LINE
  5
1E1
330
1F
100
AcDbEntity
  8
F-0_補助線
  6
JWW_HOJO
 62
   120
370
     5
100
AcDbLine
 10
-6140.081333436773
 20
4424.999604096284
 30
0.0
 11
6159.917676803936
 21
4424.999604096284
 31
0.0
  0
LINE
  5
1E2
330
1F
100
AcDbEntity
  8
F-0_補助線
  6
JWW_HOJO
 62
   120
370
     5
100
AcDbLine
 10
6159.917676803936
 20
4424.999604096284
 30
0.0
 11
6159.917676803936
 21
-4455.0
 31
0.0
  0
LINE
  5
1E3
330
1F
100
AcDbEntity
  8
F-0_補助線
  6
JWW_HOJO
 62
   120
370
     5
100
AcDbLine
 10
6159.917676803936
 20
-4455.0
 30
0.0
 11
-6140.081333436773
 21
-4455.0
 31
0.0
  0
LINE
  5
1E4
330
1F
100
AcDbEntity
  8
F-0_補助線
  6
JWW_HOJO
 62
   120
370
     5
100
AcDbLine
 10
-6140.081333436773
 20
194.9998020481422
 30
0.0
 11
6159.917676803936
 21
194.9998020481422
 31
0.0
  0
LINE
  5
1E5
330
1F
100
AcDbEntity
  8
F-0_補助線
  6
JWW_HOJO
 62
   120
370
     5
100
AcDbLine
 10
-5659.999495325861
 20
4424.999604096284
 30
0.0
 11
-5659.999495325861
 21
-4455.0
 31
0.0
  0
LINE
  5
1E6
330
1F
100
AcDbEntity
  8
F-0_補助線
  6
JWW_HOJO
 62
   120
370
     5
100
AcDbLine
 10
-6140.081333436773
 20
2438.999683277028
 30
0.0
 11
6159.917676803936
 21
2438.999683277028
 31
0.0
  0
LINE
  5
1E7
330
1F
100
AcDbEntity
  8
F-0_補助線
  6
JWW_HOJO
 62
   120
370
     5
100
AcDbLine
 10
-6140.081333436773
 20
-3159.000197951857
 30
0.0
 11
6159.917676803936
 21
-3159.000197951857
 31
0.0
  0
LINE
  5
1E8
330
1F
100
AcDbEntity
  8
F-0_補助線
  6
JWW_HOJO
 62
   120
370
     5
100
AcDbLine
 10
-200.0818283164182
 20
-4455.0
 30
0.0
 11
-200.0818283164182
 21
194.9998020481422
 31
0.0
  0
LINE
  5
1E9
330
1F
100
AcDbEntity
  8
F-0_補助線
  6
JWW_HOJO
 62
   120
370
     5
100
AcDbLine
 10
9.918171683581818
 20
-4455.0
 30
0.0
 11
9.918171683581818
 21
4424.999604096284
 31
0.0
  0
LINE
  5
1EA
330
1F
100
AcDbEntity
  8
F-0_補助線
  6
JWW_HOJO
 62
   120
370
     5
100
AcDbLine
 10
219.9181716835818
 20
-4455.0
 30
0.0
 11
219.9181716835818
 21
194.9998020481422
 31
0.0
  0
LINE
  5
1EB
330
1F
100
AcDbEntity
  8
F-0_補助線
  6
JWW_HOJO
 62
   120
370
     5
100
AcDbLine
 10
5679.835838693025
 20
4000.000181455872
 30
0.0
 11
5679.835838693025
 21
-4455.0
 31
0.0
  0
LINE
  5
1EC
330
1F
100
AcDbEntity
  8
F-0_補助線
  6
JWW_HOJO
 62
   120
370
     5
100
AcDbLine
 10
-6140.081333436773
 20
3730.000181455872
 30
0.0
 11
6159.917676803936
 21
3730.000181455872
 31
0.0
  0
LINE
  5
1ED
330
1F
100
AcDbEntity
  8
F-0_補助線
  6
JWW_HOJO
 62
   120
370
     5
100
AcDbLine
 10
-6140.081333436773
 20
4000.000181455872
 30
0.0
 11
6159.917676803936
 21
4000.000181455872
 31
0.0
  0
LINE
  5
1EE
330
1F
100
AcDbEntity
  8
0-0_補助線
  6
JWW_HOJO
 62
   120
370
     5
100
AcDbLine
 10
-3620.690572926138
 20
141.0005813299739
 30
0.0
 11
-1496.44630343891
 21
141.0005813299739
 31
0.0
  0
MTEXT
  5
1EF
330
1F
100
AcDbEntity
  8
0-A_文字
  6
Continuous
 62
     7
370
     9
100
AcDbMText
 10
-3680.964077509011
 20
189.2882521550888
 30
0.0
 40
91.44000000000001
 41
1800.0
 46
0.0
 71
     7
 72
     1
  1
{\fＭＳ ゴシック|b0|i0|c128|p49;　[３方枠＋レール(レール埋込)]}
 73
     1
 44
1.0
  0
LINE
  5
1F0
330
1F
100
AcDbEntity
  8
0-0_補助線
  6
JWW_HOJO
 62
   120
370
     5
100
AcDbLine
 10
-3620.690572926138
 20
141.0005813299739
 30
0.0
 11
-3620.690572926138
 21
-3158.999804383373
 31
0.0
  0
LINE
  5
1F1
330
1F
100
AcDbEntity
  8
0-0_補助線
  6
JWW_HOJO
 62
   120
370
     5
100
AcDbLine
 10
-3260.690572926138
 20
141.0005813299739
 30
0.0
 11
-3260.690572926138
 21
-3158.999804383373
 31
0.0
  0
LINE
  5
1F2
330
1F
100
AcDbEntity
  8
0-0_補助線
  6
JWW_HOJO
 62
   120
370
     5
100
AcDbLine
 10
-3440.690572926138
 20
141.0005813299739
 30
0.0
 11
-3440.690572926138
 21
-3158.999804383373
 31
0.0
  0
LINE
  5
1F3
330
1F
100
AcDbEntity
  8
0-0_補助線
  6
JWW_HOJO
 62
   120
370
     5
100
AcDbLine
 10
-1676.446829867889
 20
141.0005813299739
 30
0.0
 11
-1676.44613050596
 21
-3158.999804383372
 31
0.0
  0
LINE
  5
1F4
330
1F
100
AcDbEntity
  8
0-0_補助線
  6
JWW_HOJO
 62
   120
370
     5
100
AcDbLine
 10
-1856.446829867891
 20
141.0005813299739
 30
0.0
 11
-1856.44613050596
 21
-3158.999804383372
 31
0.0
  0
LINE
  5
1F5
330
1F
100
AcDbEntity
  8
0-0_補助線
  6
JWW_HOJO
 62
   120
370
     5
100
AcDbLine
 10
-2066.447011065906
 20
141.0005813299739
 30
0.0
 11
-2066.446311703977
 21
-3158.999804383372
 31
0.0
  0
LINE
  5
1F6
330
1F
100
AcDbEntity
  8
0-0_補助線
  6
JWW_HOJO
 62
   120
370
     5
100
AcDbLine
 10
-2984.446892347375
 20
141.0005813299739
 30
0.0
 11
-2984.446892347375
 21
-3158.999804383373
 31
0.0
  0
LINE
  5
1F7
330
1F
100
AcDbEntity
  8
0-1_通り芯
  6
JWW_CENTER1
 62
   120
370
     5
100
AcDbLine
 10
-2657.446893446084
 20
141.0005813299739
 30
0.0
 11
-2657.446893446084
 21
-3259.135560870882
 31
0.0
  0
LINE
  5
1F8
330
1F
100
AcDbEntity
  8
0-0_補助線
  6
JWW_HOJO
 62
   120
370
     5
100
AcDbLine
 10
-1496.446239860723
 20
141.0005813299739
 30
0.0
 11
-1496.445540498793
 21
-3158.999804383372
 31
0.0
  0
MTEXT
  5
1F9
330
1F
100
AcDbEntity
  8
0-B_寸法
  6
Continuous
 62
     7
370
   211
100
AcDbMText
 10
-1931.446901711131
 20
-287.2795742498898
 30
0.0
 40
91.44
 41
60.0
 46
0.0
 71
     7
 72
     1
  1
{\fＭＳ ゴシック|b0|i0|c128|p49;6}
 11
6.123031769111886E-17
 21
1.0
 31
0.0
 73
     1
 44
1.0
  0
MTEXT
  5
1FA
330
1F
100
AcDbEntity
  8
0-B_寸法
  6
Continuous
 62
     7
370
   211
100
AcDbMText
 10
-2081.446901711131
 20
-527.2791486533953
 30
0.0
 40
91.44
 41
120.0
 46
0.0
 71
     7
 72
     1
  1
{\fＭＳ ゴシック|b0|i0|c128|p49;10}
 11
6.123031769111886E-17
 21
1.0
 31
0.0
 73
     1
 44
1.0
  0
MTEXT
  5
1FB
330
1F
100
AcDbEntity
  8
0-B_寸法
  6
Continuous
 62
     7
370
   211
100
AcDbMText
 10
-2081.446901711131
 20
-155.2793317588641
 30
0.0
 40
91.44
 41
120.0
 46
0.0
 71
     7
 72
     1
  1
{\fＭＳ ゴシック|b0|i0|c128|p49;11}
 11
6.123031769111886E-17
 21
1.0
 31
0.0
 73
     1
 44
1.0
  0
LINE
  5
1FC
330
1F
100
AcDbEntity
  8
0-B_寸法
  6
Continuous
 62
   120
370
     5
100
AcDbLine
 10
-2066.446901711131
 20
-374.9995742498901
 30
0.0
 11
-2198.446947487502
 21
-374.9995742498901
 31
0.0
  0
LWPOLYLINE
  5
1FD
330
1F
100
AcDbEntity
  8
0-B_寸法
  6
Continuous
 62
     7
370
     9
100
AcDbPolyline
 90
        4
 70
     1
 43
3.0
 10
-2064.946901711131
 20
-374.9995742498901
 42
0.4142135623731
 10
-2066.446901711131
 20
-373.49957424989
 42
0.4142135623731
 10
-2067.946901711131
 20
-374.9995742498901
 42
0.4142135623731
 10
-2066.446901711131
 20
-376.4995742498901
 42
0.4142135623731
  0
LINE
  5
1FE
330
1F
100
AcDbEntity
  8
0-B_寸法
  6
Continuous
 62
   120
370
     5
100
AcDbLine
 10
-2066.446901711131
 20
-314.9995742498901
 30
0.0
 11
-2066.446901711131
 21
-374.9995742498901
 31
0.0
  0
LINE
  5
1FF
330
1F
100
AcDbEntity
  8
0-B_寸法
  6
Continuous
 62
   120
370
     5
100
AcDbLine
 10
-2066.446901711131
 20
-314.9995742498901
 30
0.0
 11
-2198.446947487502
 21
-314.9995742498901
 31
0.0
  0
LWPOLYLINE
  5
200
330
1F
100
AcDbEntity
  8
0-B_寸法
  6
Continuous
 62
     7
370
     9
100
AcDbPolyline
 90
        4
 70
     1
 43
3.0
 10
-2064.946901711131
 20
-314.9995742498901
 42
0.4142135623731
 10
-2066.446901711131
 20
-313.49957424989
 42
0.4142135623731
 10
-2067.946901711131
 20
-314.9995742498901
 42
0.4142135623731
 10
-2066.446901711131
 20
-316.4995742498901
 42
0.4142135623731
  0
LINE
  5
201
330
1F
100
AcDbEntity
  8
0-B_寸法
  6
Continuous
 62
   120
370
     5
100
AcDbLine
 10
-2066.446901711131
 20
-260.9995742498905
 30
0.0
 11
-2066.446901711131
 21
-314.9995742498901
 31
0.0
  0
LINE
  5
202
330
1F
100
AcDbEntity
  8
0-B_寸法
  6
Continuous
 62
   120
370
     5
100
AcDbLine
 10
-2066.446901711131
 20
-260.9995742498905
 30
0.0
 11
-2198.446947487502
 21
-260.9995742498905
 31
0.0
  0
LWPOLYLINE
  5
203
330
1F
100
AcDbEntity
  8
0-B_寸法
  6
Continuous
 62
     7
370
     9
100
AcDbPolyline
 90
        4
 70
     1
 43
3.0
 10
-2064.946901711131
 20
-260.9995742498905
 42
0.4142135623731
 10
-2066.446901711131
 20
-259.4995742498905
 42
0.4142135623731
 10
-2067.946901711131
 20
-260.9995742498905
 42
0.4142135623731
 10
-2066.446901711131
 20
-262.4995742498906
 42
0.4142135623731
  0
LINE
  5
204
330
1F
100
AcDbEntity
  8
0-B_寸法
  6
Continuous
 62
   120
370
     5
100
AcDbLine
 10
-2066.446901711131
 20
-224.9995742498901
 30
0.0
 11
-2066.446901711131
 21
-260.9995742498905
 31
0.0
  0
LINE
  5
205
330
1F
100
AcDbEntity
  8
0-B_寸法
  6
Continuous
 62
   120
370
     5
100
AcDbLine
 10
-2066.446901711131
 20
-224.9995742498901
 30
0.0
 11
-2198.446947487502
 21
-224.9995742498901
 31
0.0
  0
LINE
  5
206
330
1F
100
AcDbEntity
  8
0-B_寸法
  6
Continuous
 62
   120
370
     5
100
AcDbLine
 10
-2066.446901711131
 20
-158.9997573553593
 30
0.0
 11
-2198.446947487502
 21
-158.9997573553593
 31
0.0
  0
LWPOLYLINE
  5
207
330
1F
100
AcDbEntity
  8
0-B_寸法
  6
Continuous
 62
     7
370
     9
100
AcDbPolyline
 90
        4
 70
     1
 43
3.0
 10
-2064.946901711131
 20
-224.9995742498901
 42
0.4142135623731
 10
-2066.446901711131
 20
-223.4995742498901
 42
0.4142135623731
 10
-2067.946901711131
 20
-224.9995742498901
 42
0.4142135623731
 10
-2066.446901711131
 20
-226.4995742498901
 42
0.4142135623731
  0
LWPOLYLINE
  5
208
330
1F
100
AcDbEntity
  8
0-B_寸法
  6
Continuous
 62
     7
370
     9
100
AcDbPolyline
 90
        4
 70
     1
 43
3.0
 10
-2064.946901711131
 20
-158.9997573553593
 42
0.4142135623731
 10
-2066.446901711131
 20
-157.4997573553593
 42
0.4142135623731
 10
-2067.946901711131
 20
-158.9997573553593
 42
0.4142135623731
 10
-2066.446901711131
 20
-160.4997573553593
 42
0.4142135623731
  0
LINE
  5
209
330
1F
100
AcDbEntity
  8
0-B_寸法
  6
Continuous
 62
   120
370
     5
100
AcDbLine
 10
-2066.446901711131
 20
-158.9997573553593
 30
0.0
 11
-2066.446901711131
 21
-224.9995742498901
 31
0.0
  0
MTEXT
  5
20A
330
1F
100
AcDbEntity
  8
0-B_寸法
  6
Continuous
 62
     7
370
   211
100
AcDbMText
 10
-2081.446901711131
 20
-332.2795742498907
 30
0.0
 40
91.44
 41
60.0
 46
0.0
 71
     7
 72
     1
  1
{\fＭＳ ゴシック|b0|i0|c128|p49;9}
 11
6.123031769111886E-17
 21
1.0
 31
0.0
 73
     1
 44
1.0
  0
MTEXT
  5
20B
330
1F
100
AcDbEntity
  8
0-A_文字
  6
Continuous
 62
     7
370
   211
100
AcDbMText
 10
-2717.446893446085
 20
-2762.781666063761
 30
0.0
 40
91.44
 41
120.0
 46
0.0
 71
     7
 72
     1
  1
{\fＭＳ ゴシック|b0|i0|c128|p49;32}
 73
     1
 44
1.0
  0
LINE
  5
20C
330
1F
100
AcDbEntity
  8
0-A_文字
  6
Continuous
 62
   120
370
     5
100
AcDbLine
 10
-2561.447338837764
 20
-2763.501666063761
 30
0.0
 11
-2561.447338837764
 21
-2872.209375437029
 31
0.0
  0
LINE
  5
20D
330
1F
100
AcDbEntity
  8
0-A_文字
  6
Continuous
 62
   120
370
     5
100
AcDbLine
 10
-2753.446448054404
 20
-2763.501666063761
 30
0.0
 11
-2753.446448054404
 21
-2872.209375437029
 31
0.0
  0
LWPOLYLINE
  5
20E
330
1F
100
AcDbEntity
  8
0-A_文字
  6
Continuous
 62
     7
370
     9
100
AcDbPolyline
 90
        4
 70
     1
 43
3.0
 10
-2559.947338837764
 20
-2763.501666063761
 42
0.4142135623731
 10
-2561.447338837764
 20
-2762.001666063761
 42
0.4142135623731
 10
-2562.947338837763
 20
-2763.501666063761
 42
0.4142135623731
 10
-2561.447338837764
 20
-2765.001666063761
 42
0.4142135623731
  0
LWPOLYLINE
  5
20F
330
1F
100
AcDbEntity
  8
0-A_文字
  6
Continuous
 62
     7
370
     9
100
AcDbPolyline
 90
        4
 70
     1
 43
3.0
 10
-2751.946448054404
 20
-2763.501666063761
 42
0.4142135623731
 10
-2753.446448054404
 20
-2762.001666063761
 42
0.4142135623731
 10
-2754.946448054403
 20
-2763.501666063761
 42
0.4142135623731
 10
-2753.446448054404
 20
-2765.001666063761
 42
0.4142135623731
  0
LINE
  5
210
330
1F
100
AcDbEntity
  8
0-A_文字
  6
Continuous
 62
   120
370
     5
100
AcDbLine
 10
-2753.446448054404
 20
-2763.501666063761
 30
0.0
 11
-2561.447338837764
 21
-2763.501666063761
 31
0.0
  0
LWPOLYLINE
  5
211
330
1F
100
AcDbEntity
  8
0-B_寸法
  6
Continuous
 62
     7
370
     9
100
AcDbPolyline
 90
        4
 70
     1
 43
3.0
 10
-1494.946893446082
 20
-3086.999849061707
 42
0.4142135623731
 10
-1496.446893446082
 20
-3085.499849061707
 42
0.4142135623731
 10
-1497.946893446082
 20
-3086.999849061707
 42
0.4142135623731
 10
-1496.446893446082
 20
-3088.499849061707
 42
0.4142135623731
  0
MTEXT
  5
212
330
1F
100
AcDbEntity
  8
0-B_寸法
  6
Continuous
 62
     7
370
     0
100
AcDbMText
 10
-1511.445610607416
 20
-3304.960208680092
 30
0.0
 40
91.44
 41
120.0
 46
0.0
 71
     7
 72
     1
  1
{\fＭＳ ゴシック|b0|i0|c128|p49;12}
 11
6.123031769111886E-17
 21
1.0
 31
0.0
 73
     1
 44
1.0
  0
LINE
  5
213
330
1F
100
AcDbEntity
  8
0-B_寸法
  6
Continuous
 62
   120
370
     5
100
AcDbLine
 10
-2066.446326962852
 20
-3086.999455786
 30
0.0
 11
-1496.446893446082
 21
-3086.999455786
 31
0.0
  0
LINE
  5
214
330
1F
100
AcDbEntity
  8
0-B_寸法
  6
Continuous
 62
   120
370
     5
100
AcDbLine
 10
-1676.446893446082
 20
-3086.999849061707
 30
0.0
 11
-1676.446893446082
 21
-159.0001977982436
 31
0.0
  0
LINE
  5
215
330
1F
100
AcDbEntity
  8
0-4_枠
  6
Continuous
 62
   120
370
     5
100
AcDbLine
 10
-2933.446893446083
 20
-3086.999826945734
 30
0.0
 11
-2933.446893446083
 21
-159.0001829518543
 31
0.0
  0
LINE
  5
216
330
1F
100
AcDbEntity
  8
0-0_補助線
  6
JWW_HOJO
 62
   120
370
     5
100
AcDbLine
 10
-2427.761125423702
 20
-1779.000301722971
 30
0.0
 11
-2887.132661468462
 21
-1779.000301722971
 31
0.0
  0
LINE
  5
217
330
1F
100
AcDbEntity
  8
0-0_補助線
  6
JWW_HOJO
 62
   120
370
     5
100
AcDbLine
 10
-2427.761125423702
 20
-1659.000301722969
 30
0.0
 11
-2887.132661468462
 21
-1659.000301722969
 31
0.0
  0
LINE
  5
218
330
1F
100
AcDbEntity
  8
0-0_補助線
  6
JWW_HOJO
 62
   120
370
     5
100
AcDbLine
 10
-3260.690572926138
 20
-3158.999804383373
 30
0.0
 11
-2066.446311703976
 21
-3158.999804383373
 31
0.0
  0
LINE
  5
219
330
1F
100
AcDbEntity
  8
0-3_仕上げ
  6
Continuous
 62
    40
370
    15
100
AcDbLine
 10
-3260.690572926138
 20
-3158.99980467615
 30
0.0
 11
-2066.446311703977
 21
-3158.99980467615
 31
0.0
  0
LINE
  5
21A
330
1F
100
AcDbEntity
  8
0-B_寸法
  6
Continuous
 62
   120
370
     5
100
AcDbLine
 10
-3620.690572926138
 20
-110.8542619710281
 30
0.0
 11
-3620.690572926138
 21
-3158.999804383373
 31
0.0
  0
LWPOLYLINE
  5
21B
330
1F
100
AcDbEntity
  8
0-B_寸法
  6
Continuous
 62
     7
370
     9
100
AcDbPolyline
 90
        4
 70
     1
 43
3.0
 10
-3619.190572926138
 20
-110.8542619710281
 42
0.4142135623731
 10
-3620.690572926138
 20
-109.3542619710281
 42
0.4142135623731
 10
-3622.190572926138
 20
-110.8542619710281
 42
0.4142135623731
 10
-3620.690572926138
 20
-112.3542619710281
 42
0.4142135623731
  0
LINE
  5
21C
330
1F
100
AcDbEntity
  8
0-B_寸法
  6
Continuous
 62
   120
370
     5
100
AcDbLine
 10
-3620.690572926138
 20
-110.8542619710281
 30
0.0
 11
-2984.446892349606
 21
-110.8542619710281
 31
0.0
  0
LINE
  5
21D
330
1F
100
AcDbEntity
  8
0-3_仕上げ
  6
Continuous
 62
     7
370
     9
100
AcDbLine
 10
-3260.690572926138
 20
-3134.999688379431
 30
0.0
 11
-2732.446893446084
 21
-3134.999688379431
 31
0.0
  0
LINE
  5
21E
330
1F
100
AcDbEntity
  8
0-3_仕上げ
  6
Continuous
 62
     7
370
     9
100
AcDbLine
 10
-3260.690572926138
 20
-3122.999723021006
 30
0.0
 11
-2732.446893446084
 21
-3122.999723021006
 31
0.0
  0
LINE
  5
21F
330
1F
100
AcDbEntity
  8
0-3_仕上げ
  6
Continuous
 62
     7
370
     9
100
AcDbLine
 10
-3260.690572926138
 20
-3110.999757662581
 30
0.0
 11
-2732.446893446084
 21
-3110.999757662581
 31
0.0
  0
LINE
  5
220
330
1F
100
AcDbEntity
  8
0-3_仕上げ
  6
Continuous
 62
     7
370
     9
100
AcDbLine
 10
-3260.690572926138
 20
-3098.999606724289
 30
0.0
 11
-2732.446893446084
 21
-3098.999606724289
 31
0.0
  0
LINE
  5
221
330
1F
100
AcDbEntity
  8
0-3_仕上げ
  6
Continuous
 62
     7
370
     9
100
AcDbLine
 10
-3260.690572926138
 20
-3146.999839317725
 30
0.0
 11
-2732.446893446084
 21
-3146.999839317725
 31
0.0
  0
LINE
  5
222
330
1F
100
AcDbEntity
  8
0-3_仕上げ
  6
Continuous
 62
    40
370
    15
100
AcDbLine
 10
-3260.690572926138
 20
-3086.999826945731
 30
0.0
 11
-2732.446893446084
 21
-3086.999826945731
 31
0.0
  0
LINE
  5
223
330
1F
100
AcDbEntity
  8
0-B_寸法
  6
Continuous
 62
   120
370
     5
100
AcDbLine
 10
-3620.690572926138
 20
-3158.999804383373
 30
0.0
 11
-3260.690572926138
 21
-3158.999804383373
 31
0.0
  0
LWPOLYLINE
  5
224
330
1F
100
AcDbEntity
  8
0-B_寸法
  6
Continuous
 62
     7
370
     9
100
AcDbPolyline
 90
        4
 70
     1
 43
3.0
 10
-3619.190572926138
 20
-3158.999804383373
 42
0.4142135623731
 10
-3620.690572926138
 20
-3157.499804383373
 42
0.4142135623731
 10
-3622.190572926138
 20
-3158.999804383373
 42
0.4142135623731
 10
-3620.690572926138
 20
-3160.499804383373
 42
0.4142135623731
  0
LWPOLYLINE
  5
225
330
1F
100
AcDbEntity
  8
0-B_寸法
  6
Continuous
 62
     7
370
     9
100
AcDbPolyline
 90
        4
 70
     1
 43
3.0
 10
-1494.946303438919
 20
-3158.99980467615
 42
0.4142135623731
 10
-1496.446303438919
 20
-3157.49980467615
 42
0.4142135623731
 10
-1497.946303438919
 20
-3158.99980467615
 42
0.4142135623731
 10
-1496.446303438919
 20
-3160.49980467615
 42
0.4142135623731
  0
LINE
  5
226
330
1F
100
AcDbEntity
  8
0-B_寸法
  6
Continuous
 62
   120
370
     5
100
AcDbLine
 10
-2066.446311703977
 20
-3158.99980467615
 30
0.0
 11
-1496.446303438919
 21
-3158.99980467615
 31
0.0
  0
LWPOLYLINE
  5
227
330
1F
100
AcDbEntity
  8
0-B_寸法
  6
Continuous
 62
     7
370
     9
100
AcDbPolyline
 90
        4
 70
     1
 43
3.0
 10
-1494.946303438919
 20
-159.0001977982436
 42
0.4142135623731
 10
-1496.446303438919
 20
-157.5001977982436
 42
0.4142135623731
 10
-1497.946303438919
 20
-159.0001977982436
 42
0.4142135623731
 10
-1496.446303438919
 20
-160.5001977982436
 42
0.4142135623731
  0
LINE
  5
228
330
1F
100
AcDbEntity
  8
0-B_寸法
  6
Continuous
 62
   120
370
     5
100
AcDbLine
 10
-2066.446947487405
 20
-159.0001977982436
 30
0.0
 11
-1496.446303438919
 21
-159.0001977982436
 31
0.0
  0
LINE
  5
229
330
1F
100
AcDbEntity
  8
0-B_寸法
  6
Continuous
 62
   120
370
     5
100
AcDbLine
 10
-1496.446303438919
 20
-110.8542619710281
 30
0.0
 11
-2066.446947487405
 21
-110.8542619710281
 31
0.0
  0
LINE
  5
22A
330
1F
100
AcDbEntity
  8
0-B_寸法
  6
Continuous
 62
   120
370
     5
100
AcDbLine
 10
-1496.446303438919
 20
-3158.99980467615
 30
0.0
 11
-1496.446303438919
 21
-12.03051217500715
 31
0.0
  0
LWPOLYLINE
  5
22B
330
1F
100
AcDbEntity
  8
0-B_寸法
  6
Continuous
 62
     7
370
     9
100
AcDbPolyline
 90
        4
 70
     1
 43
3.0
 10
-1494.946303438919
 20
-110.8542619710281
 42
0.4142135623731
 10
-1496.446303438919
 20
-109.3542619710281
 42
0.4142135623731
 10
-1497.946303438919
 20
-110.8542619710281
 42
0.4142135623731
 10
-1496.446303438919
 20
-112.3542619710281
 42
0.4142135623731
  0
MTEXT
  5
22C
330
1F
100
AcDbEntity
  8
0-B_寸法
  6
Continuous
 62
     7
370
   211
100
AcDbMText
 10
-1508.355671731548
 20
-119.4885487806622
 30
0.0
 40
91.44
 41
60.0
 46
0.0
 71
     7
 72
     1
  1
{\fＭＳ ゴシック|b0|i0|c128|p49;8}
 11
6.123031769111886E-17
 21
1.0
 31
0.0
 73
     1
 44
1.0
  0
LWPOLYLINE
  5
22D
330
1F
100
AcDbEntity
  8
0-B_寸法
  6
Continuous
 62
     7
370
     9
100
AcDbPolyline
 90
        4
 70
     1
 43
3.0
 10
-1674.946893446082
 20
-3086.999455786
 42
0.4142135623731
 10
-1676.446893446082
 20
-3085.499455786001
 42
0.4142135623731
 10
-1677.946893446082
 20
-3086.999455786
 42
0.4142135623731
 10
-1676.446893446082
 20
-3088.499455786
 42
0.4142135623731
  0
LWPOLYLINE
  5
22E
330
1F
100
AcDbEntity
  8
0-B_寸法
  6
Continuous
 62
     7
370
     9
100
AcDbPolyline
 90
        4
 70
     1
 43
3.0
 10
-1674.946893446082
 20
-3158.999433516417
 42
0.4142135623731
 10
-1676.446893446082
 20
-3157.499433516417
 42
0.4142135623731
 10
-1677.946893446082
 20
-3158.999433516417
 42
0.4142135623731
 10
-1676.446893446082
 20
-3160.499433516417
 42
0.4142135623731
  0
LINE
  5
22F
330
1F
100
AcDbEntity
  8
0-B_寸法
  6
Continuous
 62
   120
370
     5
100
AcDbLine
 10
-1856.446893446079
 20
-3158.999433516417
 30
0.0
 11
-1676.446893446082
 21
-3158.999433516417
 31
0.0
  0
LWPOLYLINE
  5
230
330
1F
100
AcDbEntity
  8
0-B_寸法
  6
Continuous
 62
     7
370
     9
100
AcDbPolyline
 90
        4
 70
     1
 43
3.0
 10
-1674.946893446082
 20
-159.0001977982436
 42
0.4142135623731
 10
-1676.446893446082
 20
-157.5001977982436
 42
0.4142135623731
 10
-1677.946893446082
 20
-159.0001977982436
 42
0.4142135623731
 10
-1676.446893446082
 20
-160.5001977982436
 42
0.4142135623731
  0
LWPOLYLINE
  5
231
330
1F
100
AcDbEntity
  8
0-B_寸法
  6
Continuous
 62
     7
370
     9
100
AcDbPolyline
 90
        4
 70
     1
 43
3.0
 10
-1674.946893446082
 20
-374.9992030901561
 42
0.4142135623731
 10
-1676.446893446082
 20
-373.4992030901561
 42
0.4142135623731
 10
-1677.946893446082
 20
-374.9992030901561
 42
0.4142135623731
 10
-1676.446893446082
 20
-376.4992030901561
 42
0.4142135623731
  0
MTEXT
  5
232
330
1F
100
AcDbEntity
  8
0-B_寸法
  6
Continuous
 62
     7
370
     0
100
AcDbMText
 10
-1691.446200614578
 20
-341.2797004441999
 30
0.0
 40
91.44
 41
120.0
 46
0.0
 71
     7
 72
     1
  1
{\fＭＳ ゴシック|b0|i0|c128|p49;36}
 11
6.123031769111886E-17
 21
1.0
 31
0.0
 73
     1
 44
1.0
  0
LINE
  5
233
330
1F
100
AcDbEntity
  8
0-B_寸法
  6
Continuous
 62
   120
370
     5
100
AcDbLine
 10
-1856.446893446079
 20
-374.9992030901561
 30
0.0
 11
-1676.446893446082
 21
-374.9992030901561
 31
0.0
  0
MTEXT
  5
234
330
1F
100
AcDbEntity
  8
0-B_寸法
  6
Continuous
 62
     7
370
     0
100
AcDbMText
 10
-1870.913388693489
 20
-3052.411593667748
 30
0.0
 40
91.44
 41
180.0
 46
0.0
 71
     7
 72
     1
  1
{\fＭＳ ゴシック|b0|i0|c128|p49;8.5}
 11
6.123031769111886E-17
 21
1.0
 31
0.0
 73
     1
 44
1.0
  0
LWPOLYLINE
  5
235
330
1F
100
AcDbEntity
  8
0-B_寸法
  6
Continuous
 62
     7
370
     9
100
AcDbPolyline
 90
        4
 70
     1
 43
3.0
 10
-1854.946893446079
 20
-3086.999455786
 42
0.4142135623731
 10
-1856.446893446079
 20
-3085.499455786001
 42
0.4142135623731
 10
-1857.946893446079
 20
-3086.999455786
 42
0.4142135623731
 10
-1856.446893446079
 20
-3088.499455786
 42
0.4142135623731
  0
LWPOLYLINE
  5
236
330
1F
100
AcDbEntity
  8
0-B_寸法
  6
Continuous
 62
     7
370
     9
100
AcDbPolyline
 90
        4
 70
     1
 43
3.0
 10
-1854.946893446079
 20
-3035.999324642893
 42
0.4142135623731
 10
-1856.446893446079
 20
-3034.499324642893
 42
0.4142135623731
 10
-1857.946893446079
 20
-3035.999324642893
 42
0.4142135623731
 10
-1856.446893446079
 20
-3037.499324642893
 42
0.4142135623731
  0
LINE
  5
237
330
1F
100
AcDbEntity
  8
0-B_寸法
  6
Continuous
 62
   120
370
     5
100
AcDbLine
 10
-2066.446337771198
 20
-3035.999324642893
 30
0.0
 11
-1856.446893446079
 21
-3035.999324642893
 31
0.0
  0
LINE
  5
238
330
1F
100
AcDbEntity
  8
0-B_寸法
  6
Continuous
 62
   120
370
     5
100
AcDbLine
 10
-1856.446893446079
 20
-3086.999455786
 30
0.0
 11
-1856.446893446079
 21
-374.9995742498901
 31
0.0
  0
LWPOLYLINE
  5
239
330
1F
100
AcDbEntity
  8
0-B_寸法
  6
Continuous
 62
     7
370
     9
100
AcDbPolyline
 90
        4
 70
     1
 43
3.0
 10
-1854.946893446079
 20
-419.9997227137839
 42
0.4142135623731
 10
-1856.446893446079
 20
-418.4997227137838
 42
0.4142135623731
 10
-1857.946893446079
 20
-419.9997227137839
 42
0.4142135623731
 10
-1856.446893446079
 20
-421.4997227137839
 42
0.4142135623731
  0
LWPOLYLINE
  5
23A
330
1F
100
AcDbEntity
  8
0-B_寸法
  6
Continuous
 62
     7
370
     9
100
AcDbPolyline
 90
        4
 70
     1
 43
3.0
 10
-1854.946893446079
 20
-374.9995742498901
 42
0.4142135623731
 10
-1856.446893446079
 20
-373.49957424989
 42
0.4142135623731
 10
-1857.946893446079
 20
-374.9995742498901
 42
0.4142135623731
 10
-1856.446893446079
 20
-376.4995742498901
 42
0.4142135623731
  0
MTEXT
  5
23B
330
1F
100
AcDbEntity
  8
0-B_寸法
  6
Continuous
 62
     7
370
     0
100
AcDbMText
 10
-1870.874676026381
 20
-612.2359429048256
 30
0.0
 40
91.44
 41
180.0
 46
0.0
 71
     7
 72
     1
  1
{\fＭＳ ゴシック|b0|i0|c128|p49;7.5}
 11
6.123031769111886E-17
 21
1.0
 31
0.0
 73
     1
 44
1.0
  0
LINE
  5
23C
330
1F
100
AcDbEntity
  8
0-B_寸法
  6
Continuous
 62
   120
370
     5
100
AcDbLine
 10
-2066.446892174348
 20
-419.9997227137839
 30
0.0
 11
-1856.446893446079
 21
-419.9997227137839
 31
0.0
  0
LINE
  5
23D
330
1F
100
AcDbEntity
  8
0-B_寸法
  6
Continuous
 62
   120
370
     5
100
AcDbLine
 10
-2066.446901711131
 20
-374.9995742498901
 30
0.0
 11
-1856.446893446079
 21
-374.9995742498901
 31
0.0
  0
LINE
  5
23E
330
1F
100
AcDbEntity
  8
0-3_仕上げ
  6
Continuous
 62
    40
370
    15
100
AcDbLine
 10
-2066.446328472062
 20
-3086.999826945731
 30
0.0
 11
-2582.446893446084
 21
-3086.999826945731
 31
0.0
  0
LINE
  5
23F
330
1F
100
AcDbEntity
  8
0-3_仕上げ
  6
Continuous
 62
     7
370
     9
100
AcDbLine
 10
-2582.446893446084
 20
-3146.999839317725
 30
0.0
 11
-2066.446314498651
 21
-3146.999839317725
 31
0.0
  0
LINE
  5
240
330
1F
100
AcDbEntity
  8
0-3_仕上げ
  6
Continuous
 62
     7
370
     9
100
AcDbLine
 10
-2582.446893446084
 20
-3098.999606724289
 30
0.0
 11
-2066.446325677432
 21
-3098.999606724289
 31
0.0
  0
LINE
  5
241
330
1F
100
AcDbEntity
  8
0-3_仕上げ
  6
Continuous
 62
     7
370
     9
100
AcDbLine
 10
-2582.446893446084
 20
-3110.999757662581
 30
0.0
 11
-2066.446322882715
 21
-3110.999757662581
 31
0.0
  0
LINE
  5
242
330
1F
100
AcDbEntity
  8
0-3_仕上げ
  6
Continuous
 62
     7
370
     9
100
AcDbLine
 10
-2582.446893446084
 20
-3122.999723021006
 30
0.0
 11
-2066.446320088041
 21
-3122.999723021006
 31
0.0
  0
LINE
  5
243
330
1F
100
AcDbEntity
  8
0-3_仕上げ
  6
Continuous
 62
     7
370
     9
100
AcDbLine
 10
-2582.446893446084
 20
-3134.999688379431
 30
0.0
 11
-2066.446317293367
 21
-3134.999688379431
 31
0.0
  0
LINE
  5
244
330
1F
100
AcDbEntity
  8
0-4_枠
  6
Continuous
 62
   120
370
     5
100
AcDbLine
 10
-2933.446893446083
 20
-159.0001829518543
 30
0.0
 11
-2789.446909340666
 21
-159.0001829518543
 31
0.0
  0
LINE
  5
245
330
1F
100
AcDbEntity
  8
0-4_枠
  6
Continuous
 62
    92
370
    13
100
AcDbLine
 10
-2573.44731687748
 20
-254.9995420827136
 30
0.0
 11
-2573.44731687748
 21
-374.9999998463855
 31
0.0
  0
LINE
  5
246
330
1F
100
AcDbEntity
  8
0-4_枠
  6
Continuous
 62
    92
370
    13
100
AcDbLine
 10
-2573.44731687748
 20
-374.9999998463855
 30
0.0
 11
-2390.446909340671
 21
-374.9999998463855
 31
0.0
  0
LINE
  5
247
330
1F
100
AcDbEntity
  8
0-4_枠
  6
Continuous
 62
    92
370
    13
100
AcDbLine
 10
-2741.447569720383
 20
-374.9999998463855
 30
0.0
 11
-2741.447569720383
 21
-254.9995420827136
 31
0.0
  0
LINE
  5
248
330
1F
100
AcDbEntity
  8
0-4_枠
  6
Continuous
 62
    92
370
    13
100
AcDbLine
 10
-2924.446955117037
 20
-374.9999998463855
 30
0.0
 11
-2741.447569720383
 21
-374.9999998463855
 31
0.0
  0
LINE
  5
249
330
1F
100
AcDbEntity
  8
0-C_ハッチ
  6
Continuous
 62
   120
370
     5
100
AcDbLine
 10
-2497.397365951897
 20
-374.9999998463923
 30
0.0
 11
-2437.39736595189
 21
-314.9999998463855
 31
0.0
  0
LINE
  5
24A
330
1F
100
AcDbEntity
  8
0-C_ハッチ
  6
Continuous
 62
   120
370
     5
100
AcDbLine
 10
-2442.794335571538
 20
-260.9999998463855
 30
0.0
 11
-2406.794335571538
 21
-224.9999998463855
 31
0.0
  0
LINE
  5
24B
330
1F
100
AcDbEntity
  8
0-C_ハッチ
  6
Continuous
 62
   120
370
     5
100
AcDbLine
 10
-2556.794335571541
 20
-374.9999998463889
 30
0.0
 11
-2450.446886802684
 21
-268.652551077532
 31
0.0
  0
LINE
  5
24C
330
1F
100
AcDbEntity
  8
0-C_ハッチ
  6
Continuous
 62
   120
370
     5
100
AcDbLine
 10
-2573.446217171784
 20
-332.254911826932
 30
0.0
 11
-2432.446885180898
 21
-191.2555798360449
 31
0.0
  0
LINE
  5
24D
330
1F
100
AcDbEntity
  8
0-C_ハッチ
  6
Continuous
 62
   120
370
     5
100
AcDbLine
 10
-2573.446217171784
 20
-272.8579422072847
 30
0.0
 11
-2459.588457916355
 21
-159.0001829518543
 31
0.0
  0
LINE
  5
24E
330
1F
100
AcDbEntity
  8
0-C_ハッチ
  6
Continuous
 62
   120
370
     5
100
AcDbLine
 10
-2614.984786666913
 20
-254.9995420827123
 30
0.0
 11
-2518.985427536055
 21
-159.0001829518543
 31
0.0
  0
LINE
  5
24F
330
1F
100
AcDbEntity
  8
0-C_ハッチ
  6
Continuous
 62
   120
370
     5
100
AcDbLine
 10
-2924.446944917761
 20
-326.873821854915
 30
0.0
 11
-2792.573306014702
 21
-195.0001829518544
 31
0.0
  0
LINE
  5
250
330
1F
100
AcDbEntity
  8
0-C_ハッチ
  6
Continuous
 62
   120
370
     5
100
AcDbLine
 10
-2789.446916307498
 20
-191.8737932446506
 30
0.0
 11
-2756.573306014709
 21
-159.000182951862
 31
0.0
  0
LINE
  5
251
330
1F
100
AcDbEntity
  8
0-C_ハッチ
  6
Continuous
 62
   120
370
     5
100
AcDbLine
 10
-2924.446932329889
 20
-267.4768396473415
 30
0.0
 11
-2851.970275634402
 21
-195.0001829518544
 31
0.0
  0
LINE
  5
252
330
1F
100
AcDbEntity
  8
0-C_ハッチ
  6
Continuous
 62
   120
370
     5
100
AcDbLine
 10
-2924.446919742017
 20
-208.0798574398341
 30
0.0
 11
-2911.36724525404
 21
-195.0001829518544
 31
0.0
  0
LINE
  5
253
330
1F
100
AcDbEntity
  8
0-4_枠
  6
Continuous
 62
    92
370
    13
100
AcDbLine
 10
-2450.446885180896
 20
-260.9999998463855
 30
0.0
 11
-2390.446885180899
 21
-260.9999998463855
 31
0.0
  0
LINE
  5
254
330
1F
100
AcDbEntity
  8
0-4_枠
  6
Continuous
 62
    92
370
    13
100
AcDbLine
 10
-2450.446885180896
 20
-260.9999998463855
 30
0.0
 11
-2450.446896625
 21
-314.9999998463855
 31
0.0
  0
LINE
  5
255
330
1F
100
AcDbEntity
  8
0-4_枠
  6
Continuous
 62
    92
370
    13
100
AcDbLine
 10
-2450.446896625
 20
-314.9999998463855
 30
0.0
 11
-2390.446896625
 21
-314.9999998463855
 31
0.0
  0
LINE
  5
256
330
1F
100
AcDbEntity
  8
0-4_枠
  6
Continuous
 62
    92
370
    13
100
AcDbLine
 10
-2924.44691697007
 20
-195.0001829518544
 30
0.0
 11
-2924.446955117037
 21
-374.9999998463855
 31
0.0
  0
LINE
  5
257
330
1F
100
AcDbEntity
  8
0-4_枠
  6
Continuous
 62
    92
370
    13
100
AcDbLine
 10
-2924.44691697007
 20
-195.0001829518544
 30
0.0
 11
-2789.446916970067
 21
-195.0001829518544
 31
0.0
  0
LINE
  5
258
330
1F
100
AcDbEntity
  8
0-4_枠
  6
Continuous
 62
    92
370
    13
100
AcDbLine
 10
-2789.446909340666
 20
-159.0001829518543
 30
0.0
 11
-2789.446916970067
 21
-195.0001829518544
 31
0.0
  0
LINE
  5
259
330
1F
100
AcDbEntity
  8
0-4_枠
  6
Continuous
 62
    92
370
    13
100
AcDbLine
 10
-2789.446909340666
 20
-159.0001829518543
 30
0.0
 11
-2432.446885180898
 21
-159.0001829518543
 31
0.0
  0
LINE
  5
25A
330
1F
100
AcDbEntity
  8
0-4_枠
  6
Continuous
 62
    92
370
    13
100
AcDbLine
 10
-2741.447569720383
 20
-254.9995420827136
 30
0.0
 11
-2573.44731687748
 21
-254.9995420827136
 31
0.0
  0
LINE
  5
25B
330
1F
100
AcDbEntity
  8
0-4_枠
  6
Continuous
 62
    92
370
    13
100
AcDbLine
 10
-2432.446885180898
 20
-224.9999998463855
 30
0.0
 11
-2432.446885180898
 21
-159.0001829518543
 31
0.0
  0
LINE
  5
25C
330
1F
100
AcDbEntity
  8
0-4_枠
  6
Continuous
 62
    92
370
    13
100
AcDbLine
 10
-2432.446885180898
 20
-224.9999998463855
 30
0.0
 11
-2390.446877551498
 21
-224.9999998463855
 31
0.0
  0
LINE
  5
25D
330
1F
100
AcDbEntity
  8
0-4_枠
  6
Continuous
 62
    92
370
    13
100
AcDbLine
 10
-2390.446877551498
 20
-224.9999998463855
 30
0.0
 11
-2390.446885180899
 21
-260.9999998463855
 31
0.0
  0
LINE
  5
25E
330
1F
100
AcDbEntity
  8
0-4_枠
  6
Continuous
 62
    92
370
    13
100
AcDbLine
 10
-2390.446896625
 20
-314.9999998463855
 30
0.0
 11
-2390.446909340671
 21
-374.9999998463855
 31
0.0
  0
LINE
  5
25F
330
1F
100
AcDbEntity
  8
0-C_ハッチ
  6
Continuous
 62
   120
370
     5
100
AcDbLine
 10
-2794.382214050226
 20
-374.999999846377
 30
0.0
 11
-2741.446470014687
 21
-322.0642558108375
 31
0.0
  0
LINE
  5
260
330
1F
100
AcDbEntity
  8
0-C_ハッチ
  6
Continuous
 62
   120
370
     5
100
AcDbLine
 10
-2733.778725906266
 20
-254.9995420827136
 30
0.0
 11
-2637.779366775394
 21
-159.0001829518441
 31
0.0
  0
LINE
  5
261
330
1F
100
AcDbEntity
  8
0-C_ハッチ
  6
Continuous
 62
   120
370
     5
100
AcDbLine
 10
-2853.779183669934
 20
-374.9999998463829
 30
0.0
 11
-2741.446470014687
 21
-262.6672861911356
 31
0.0
  0
LINE
  5
262
330
1F
100
AcDbEntity
  8
0-C_ハッチ
  6
Continuous
 62
   120
370
     5
100
AcDbLine
 10
-2743.985214548806
 20
-374.9999998463851
 30
0.0
 11
-2741.446470014687
 21
-372.4612553122685
 31
0.0
  0
LINE
  5
263
330
1F
100
AcDbEntity
  8
0-C_ハッチ
  6
Continuous
 62
   120
370
     5
100
AcDbLine
 10
-2913.176153289592
 20
-374.9999998463957
 30
0.0
 11
-2697.176336395049
 21
-159.0001829518488
 31
0.0
  0
LINE
  5
264
330
1F
100
AcDbEntity
  8
0-C_ハッチ
  6
Continuous
 62
   120
370
     5
100
AcDbLine
 10
-2674.381756286571
 20
-254.9995420827226
 30
0.0
 11
-2578.382397155699
 21
-159.0001829518509
 31
0.0
  0
LINE
  5
265
330
1F
100
AcDbEntity
  8
0-C_ハッチ
  6
Continuous
 62
   120
370
     5
100
AcDbLine
 10
-2438.000396332237
 20
-374.9999998463795
 30
0.0
 11
-2390.446841853059
 21
-327.4464453672009
 31
0.0
  0
MTEXT
  5
266
330
1F
100
AcDbEntity
  8
0-B_寸法
  6
Continuous
 62
     7
370
     0
100
AcDbMText
 10
-2773.696338870564
 20
-1182.488395730619
 30
0.0
 40
91.43999999999986
 41
239.9999999999996
 46
0.0
 71
     7
 72
     1
  1
{\fＭＳ ゴシック|b0|i0|c128|p49;(24)}
 11
0.9999999999914964
 21
-4.124000483563069E-6
 31
0.0
 73
     1
 44
1.0
  0
LINE
  5
267
330
1F
100
AcDbEntity
  8
0-7_金物
  6
Continuous
 62
     7
370
     9
100
AcDbLine
 10
-2747.447196714515
 20
-122.8545995717366
 30
0.0
 11
-2567.447334043619
 21
-122.8545995717366
 31
0.0
  0
LINE
  5
268
330
1F
100
AcDbEntity
  8
0-7_金物
  6
Continuous
 62
     7
370
     9
100
AcDbLine
 10
-2567.447334043619
 20
-110.8542619710281
 30
0.0
 11
-2567.447334043619
 21
-122.8545995717366
 31
0.0
  0
LINE
  5
269
330
1F
100
AcDbEntity
  8
0-7_金物
  6
Continuous
 62
     7
370
     9
100
AcDbLine
 10
-2747.447196714515
 20
-110.8542619710281
 30
0.0
 11
-2747.447196714515
 21
-122.8545995717366
 31
0.0
  0
LINE
  5
26A
330
1F
100
AcDbEntity
  8
0-7_金物
  6
Continuous
 62
     7
370
     9
100
AcDbLine
 10
-2747.447196714515
 20
-110.8542619710281
 30
0.0
 11
-2567.447334043619
 21
-110.8542619710281
 31
0.0
  0
LINE
  5
26B
330
1F
100
AcDbEntity
  8
0-7_金物
  6
Continuous
 62
     7
370
     9
100
AcDbLine
 10
-2717.44709371769
 20
-122.8545995717366
 30
0.0
 11
-2717.44709371769
 21
-134.8541933064783
 31
0.0
  0
LINE
  5
26C
330
1F
100
AcDbEntity
  8
0-7_金物
  6
Continuous
 62
     7
370
     9
100
AcDbLine
 10
-2597.447437040444
 20
-122.8545995717366
 30
0.0
 11
-2597.447437040444
 21
-134.8541933064783
 31
0.0
  0
LINE
  5
26D
330
1F
100
AcDbEntity
  8
0-7_金物
  6
Continuous
 62
     7
370
     9
100
AcDbLine
 10
-2717.44709371769
 20
-134.8541933064783
 30
0.0
 11
-2597.447437040444
 21
-134.8541933064783
 31
0.0
  0
LINE
  5
26E
330
1F
100
AcDbEntity
  8
0-7_金物
  6
Continuous
 62
     7
370
     9
100
AcDbLine
 10
-2711.446927778359
 20
-134.8541933064783
 30
0.0
 11
-2711.446927778359
 21
-159.0001829518543
 31
0.0
  0
LINE
  5
26F
330
1F
100
AcDbEntity
  8
0-7_金物
  6
Continuous
 62
     7
370
     9
100
AcDbLine
 10
-2603.446859113808
 20
-159.0001829518543
 30
0.0
 11
-2603.446859113808
 21
-134.8541933064783
 31
0.0
  0
LINE
  5
270
330
1F
100
AcDbEntity
  8
0-6_扉
  6
Continuous
 62
   200
370
    20
100
AcDbLine
 10
-2576.446893446084
 20
-1659.000301722969
 30
0.0
 11
-2576.446893446084
 21
-420.0000913991199
 31
0.0
  0
LINE
  5
271
330
1F
100
AcDbEntity
  8
0-6_扉
  6
Continuous
 62
   200
370
    20
100
AcDbLine
 10
-2738.446893446085
 20
-1659.000301722969
 30
0.0
 11
-2738.446893446085
 21
-420.0000913991199
 31
0.0
  0
LINE
  5
272
330
1F
100
AcDbEntity
  8
0-6_扉
  6
Continuous
 62
   200
370
    20
100
AcDbLine
 10
-2576.446893446084
 20
-420.0000913991199
 30
0.0
 11
-2738.446893446085
 21
-420.0000913991199
 31
0.0
  0
LINE
  5
273
330
1F
100
AcDbEntity
  8
0-7_金物
  6
Continuous
 62
     7
370
     9
100
AcDbLine
 10
-2729.446138136025
 20
-266.9999082936512
 30
0.0
 11
-2729.446138136025
 21
-374.9999998463855
 31
0.0
  0
LINE
  5
274
330
1F
100
AcDbEntity
  8
0-7_金物
  6
Continuous
 62
     7
370
     9
100
AcDbLine
 10
-2585.445810548897
 20
-266.9999082936512
 30
0.0
 11
-2729.446138136025
 21
-266.9999082936512
 31
0.0
  0
LINE
  5
275
330
1F
100
AcDbEntity
  8
0-7_金物
  6
Continuous
 62
     7
370
     9
100
AcDbLine
 10
-2585.445810548897
 20
-374.9999998463855
 30
0.0
 11
-2585.445810548897
 21
-266.9999082936512
 31
0.0
  0
LINE
  5
276
330
1F
100
AcDbEntity
  8
0-7_金物
  6
Continuous
 62
     7
370
     9
100
AcDbLine
 10
-2591.267081014749
 20
-361.7877500905254
 30
0.0
 11
-2591.267081014749
 21
-295.7877500905262
 31
0.0
  0
LINE
  5
277
330
1F
100
AcDbEntity
  8
0-7_金物
  6
Continuous
 62
     7
370
     9
100
AcDbLine
 10
-2591.267081014749
 20
-295.7877500905262
 30
0.0
 11
-2627.446246854898
 21
-295.7877500905262
 31
0.0
  0
LINE
  5
278
330
1F
100
AcDbEntity
  8
0-7_金物
  6
Continuous
 62
     7
370
     9
100
AcDbLine
 10
-2627.446246854898
 20
-374.9999998463855
 30
0.0
 11
-2627.446246854898
 21
-278.9995420827144
 31
0.0
  0
LINE
  5
279
330
1F
100
AcDbEntity
  8
0-7_金物
  6
Continuous
 62
     7
370
     9
100
AcDbLine
 10
-2627.446246854898
 20
-278.9995420827144
 30
0.0
 11
-2687.447934858438
 21
-278.9995420827144
 31
0.0
  0
LINE
  5
27A
330
1F
100
AcDbEntity
  8
0-7_金物
  6
Continuous
 62
     7
370
     9
100
AcDbLine
 10
-2687.447934858438
 20
-278.9995420827144
 30
0.0
 11
-2687.447934858438
 21
-374.9999998463855
 31
0.0
  0
LINE
  5
27B
330
1F
100
AcDbEntity
  8
0-7_金物
  6
Continuous
 62
     7
370
     9
100
AcDbLine
 10
-2723.266328565713
 20
-295.7877500905262
 30
0.0
 11
-2723.266328565713
 21
-361.7877500905254
 31
0.0
  0
LINE
  5
27C
330
1F
100
AcDbEntity
  8
0-7_金物
  6
Continuous
 62
     7
370
     9
100
AcDbLine
 10
-2687.447934858438
 20
-295.7877500905262
 30
0.0
 11
-2723.266328565713
 21
-295.7877500905262
 31
0.0
  0
LINE
  5
27D
330
1F
100
AcDbEntity
  8
0-7_金物
  6
Continuous
 62
     7
370
     9
100
AcDbLine
 10
-2741.446470014687
 20
-374.9999998463855
 30
0.0
 11
-2759.446241132852
 21
-374.9999998463855
 31
0.0
  0
LINE
  5
27E
330
1F
100
AcDbEntity
  8
0-7_金物
  6
Continuous
 62
     7
370
     9
100
AcDbLine
 10
-2722.442353956338
 20
-381.0000913991192
 30
0.0
 11
-2722.442353956338
 21
-374.9999998463855
 31
0.0
  0
LINE
  5
27F
330
1F
100
AcDbEntity
  8
0-7_金物
  6
Continuous
 62
     7
370
     9
100
AcDbLine
 10
-2729.446138136025
 20
-374.9999998463855
 30
0.0
 11
-2722.442353956338
 21
-374.9999998463855
 31
0.0
  0
LINE
  5
280
330
1F
100
AcDbEntity
  8
0-7_金物
  6
Continuous
 62
     7
370
     9
100
AcDbLine
 10
-2573.446217171784
 20
-374.9999998463855
 30
0.0
 11
-2555.447939149973
 21
-374.9999998463855
 31
0.0
  0
LINE
  5
281
330
1F
100
AcDbEntity
  8
0-7_金物
  6
Continuous
 62
     7
370
     9
100
AcDbLine
 10
-2593.232741109965
 20
-381.0000913991192
 30
0.0
 11
-2593.232741109965
 21
-374.9999998463855
 31
0.0
  0
LINE
  5
282
330
1F
100
AcDbEntity
  8
0-7_金物
  6
Continuous
 62
     7
370
     9
100
AcDbLine
 10
-2593.232741109965
 20
-374.9999998463855
 30
0.0
 11
-2585.445810548897
 21
-374.9999998463855
 31
0.0
  0
LINE
  5
283
330
1F
100
AcDbEntity
  8
0-7_金物
  6
Continuous
 62
     7
370
     9
100
AcDbLine
 10
-2759.446241132852
 20
-374.9999998463855
 30
0.0
 11
-2759.446241132852
 21
-381.0000913991192
 31
0.0
  0
LINE
  5
284
330
1F
100
AcDbEntity
  8
0-7_金物
  6
Continuous
 62
     7
370
     9
100
AcDbLine
 10
-2593.232741109965
 20
-381.0000913991192
 30
0.0
 11
-2555.447939149973
 21
-381.0000913991192
 31
0.0
  0
LINE
  5
285
330
1F
100
AcDbEntity
  8
0-7_金物
  6
Continuous
 62
     7
370
     9
100
AcDbLine
 10
-2555.447939149973
 20
-374.9999998463855
 30
0.0
 11
-2555.447939149973
 21
-381.0000913991192
 31
0.0
  0
LINE
  5
286
330
1F
100
AcDbEntity
  8
0-7_金物
  6
Continuous
 62
     7
370
     9
100
AcDbLine
 10
-2669.446687452433
 20
-420.0000913991199
 30
0.0
 11
-2645.44600652897
 21
-420.0000913991199
 31
0.0
  0
LINE
  5
287
330
1F
100
AcDbEntity
  8
0-7_金物
  6
Continuous
 62
     7
370
     9
100
AcDbLine
 10
-2669.446687452433
 20
-374.9999998463855
 30
0.0
 11
-2669.446687452433
 21
-420.0000913991199
 31
0.0
  0
LINE
  5
288
330
1F
100
AcDbEntity
  8
0-7_金物
  6
Continuous
 62
     7
370
     9
100
AcDbLine
 10
-2645.44600652897
 20
-420.0000913991199
 30
0.0
 11
-2645.44600652897
 21
-374.9999998463855
 31
0.0
  0
LINE
  5
289
330
1F
100
AcDbEntity
  8
0-7_金物
  6
Continuous
 62
     7
370
     9
100
AcDbLine
 10
-2627.446246854898
 20
-361.7877500905254
 30
0.0
 11
-2591.267081014749
 21
-361.7877500905254
 31
0.0
  0
LINE
  5
28A
330
1F
100
AcDbEntity
  8
0-7_金物
  6
Continuous
 62
     7
370
     9
100
AcDbLine
 10
-2723.266328565713
 20
-361.7877500905254
 30
0.0
 11
-2687.447934858438
 21
-361.7877500905254
 31
0.0
  0
LINE
  5
28B
330
1F
100
AcDbEntity
  8
0-7_金物
  6
Continuous
 62
     7
370
     9
100
AcDbLine
 10
-2687.447934858438
 20
-374.9999998463855
 30
0.0
 11
-2627.446246854898
 21
-374.9999998463855
 31
0.0
  0
LINE
  5
28C
330
1F
100
AcDbEntity
  8
0-7_金物
  6
Continuous
 62
     7
370
     9
100
AcDbLine
 10
-2722.442353956338
 20
-381.0000913991192
 30
0.0
 11
-2759.446241132852
 21
-381.0000913991192
 31
0.0
  0
LINE
  5
28D
330
1F
100
AcDbEntity
  8
0-B_寸法
  6
Continuous
 62
   120
370
     5
100
AcDbLine
 10
-2576.446893446084
 20
-1021.989772333716
 30
0.0
 11
-2738.446893446085
 21
-1021.989772333716
 31
0.0
  0
LWPOLYLINE
  5
28E
330
1F
100
AcDbEntity
  8
0-B_寸法
  6
Continuous
 62
     7
370
     9
100
AcDbPolyline
 90
        4
 70
     1
 43
3.0
 10
-2574.946893446084
 20
-1021.989772333716
 42
0.4142135623731
 10
-2576.446893446084
 20
-1020.489772333716
 42
0.4142135623731
 10
-2577.946893446084
 20
-1021.989772333716
 42
0.4142135623731
 10
-2576.446893446084
 20
-1023.489772333716
 42
0.4142135623731
  0
LINE
  5
28F
330
1F
100
AcDbEntity
  8
0-B_寸法
  6
Continuous
 62
   120
370
     5
100
AcDbLine
 10
-2576.446893446084
 20
-937.7528437547439
 30
0.0
 11
-2576.446893446084
 21
-1021.989772333716
 31
0.0
  0
LWPOLYLINE
  5
290
330
1F
100
AcDbEntity
  8
0-B_寸法
  6
Continuous
 62
     7
370
     9
100
AcDbPolyline
 90
        4
 70
     1
 43
3.0
 10
-2736.946893446085
 20
-1021.989772333716
 42
0.4142135623731
 10
-2738.446893446085
 20
-1020.489772333716
 42
0.4142135623731
 10
-2739.946893446085
 20
-1021.989772333716
 42
0.4142135623731
 10
-2738.446893446085
 20
-1023.489772333716
 42
0.4142135623731
  0
LINE
  5
291
330
1F
100
AcDbEntity
  8
0-B_寸法
  6
Continuous
 62
   120
370
     5
100
AcDbLine
 10
-2738.446893446085
 20
-937.7528437547439
 30
0.0
 11
-2738.446893446085
 21
-1021.989772333716
 31
0.0
  0
MTEXT
  5
292
330
1F
100
AcDbEntity
  8
0-B_寸法
  6
Continuous
 62
     7
370
     0
100
AcDbMText
 10
-2713.696338871074
 20
-1021.269660985588
 30
0.0
 40
91.4399999999992
 41
119.999999999999
 46
0.0
 71
     7
 72
     1
  1
{\fＭＳ ゴシック|b0|i0|c128|p49;27}
 11
0.9999999999914964
 21
-4.124000483563069E-6
 31
0.0
 73
     1
 44
1.0
  0
MTEXT
  5
293
330
1F
100
AcDbEntity
  8
0-B_寸法
  6
Continuous
 62
     7
370
     0
100
AcDbMText
 10
-2708.446388809567
 20
-669.7625222559908
 30
0.0
 40
91.44
 41
120.0
 46
0.0
 71
     7
 72
     1
  1
{\fＭＳ ゴシック|b0|i0|c128|p49;89}
 73
     1
 44
1.0
  0
LINE
  5
294
330
1F
100
AcDbEntity
  8
0-B_寸法
  6
Continuous
 62
   120
370
     5
100
AcDbLine
 10
-2924.446892349606
 20
-670.4825222559908
 30
0.0
 11
-2390.446846573238
 21
-670.4825222559908
 31
0.0
  0
LWPOLYLINE
  5
295
330
1F
100
AcDbEntity
  8
0-B_寸法
  6
Continuous
 62
     7
370
     9
100
AcDbPolyline
 90
        4
 70
     1
 43
3.0
 10
-2388.946846573238
 20
-670.4825222559908
 42
0.4142135623731
 10
-2390.446846573238
 20
-668.9825222559908
 42
0.4142135623731
 10
-2391.946846573238
 20
-670.4825222559908
 42
0.4142135623731
 10
-2390.446846573238
 20
-671.9825222559908
 42
0.4142135623731
  0
LINE
  5
296
330
1F
100
AcDbEntity
  8
0-B_寸法
  6
Continuous
 62
   120
370
     5
100
AcDbLine
 10
-2390.446846573238
 20
-670.4825222559908
 30
0.0
 11
-2390.446846573238
 21
-516.7715748340958
 31
0.0
  0
LWPOLYLINE
  5
297
330
1F
100
AcDbEntity
  8
0-B_寸法
  6
Continuous
 62
     7
370
     9
100
AcDbPolyline
 90
        4
 70
     1
 43
3.0
 10
-2922.946892349606
 20
-670.4825222559908
 42
0.4142135623731
 10
-2924.446892349606
 20
-668.9825222559908
 42
0.4142135623731
 10
-2925.946892349606
 20
-670.4825222559908
 42
0.4142135623731
 10
-2924.446892349606
 20
-671.9825222559908
 42
0.4142135623731
  0
LINE
  5
298
330
1F
100
AcDbEntity
  8
0-B_寸法
  6
Continuous
 62
   120
370
     5
100
AcDbLine
 10
-2924.446892349606
 20
-670.4825222559908
 30
0.0
 11
-2924.446892349606
 21
-516.7715748340958
 31
0.0
  0
LINE
  5
299
330
1F
100
AcDbEntity
  8
0-6_扉
  6
Continuous
 62
   200
370
    20
100
AcDbLine
 10
-2576.446893446084
 20
-3035.999826945732
 30
0.0
 11
-2576.446893446084
 21
-1779.000301722971
 31
0.0
  0
LINE
  5
29A
330
1F
100
AcDbEntity
  8
0-6_扉
  6
Continuous
 62
   200
370
    20
100
AcDbLine
 10
-2738.446893446085
 20
-3035.999826945732
 30
0.0
 11
-2738.446893446085
 21
-1779.000301722971
 31
0.0
  0
ARC
  5
29B
330
1F
100
AcDbEntity
  8
0-7_金物
  6
JWW_DASHED1
 62
     7
370
     9
100
AcDbCircle
 10
-2563.246893446083
 20
-3085.200197951857
 30
0.0
 40
1.8
100
AcDbArc
 50
90.0
 51
270.0
  0
ARC
  5
29C
330
1F
100
AcDbEntity
  8
0-7_金物
  6
JWW_DASHED1
 62
     7
370
     9
100
AcDbCircle
 10
-2751.646893446083
 20
-3085.200197951857
 30
0.0
 40
1.8
100
AcDbArc
 50
270.0
 51
90.0
  0
ARC
  5
29D
330
1F
100
AcDbEntity
  8
0-7_金物
  6
Continuous
 62
     7
370
     9
100
AcDbCircle
 10
-2619.646893446084
 20
-3117.000197951857
 30
0.0
 40
1.2
100
AcDbArc
 50
0.0
 51
90.0
  0
LINE
  5
29E
330
1F
100
AcDbEntity
  8
0-7_金物
  6
Continuous
 62
     7
370
     9
100
AcDbLine
 10
-2618.446893446083
 20
-3117.000197951857
 30
0.0
 11
-2618.446893446083
 21
-3121.800197951856
 31
0.0
  0
LINE
  5
29F
330
1F
100
AcDbEntity
  8
0-7_金物
  6
Continuous
 62
     7
370
     9
100
AcDbLine
 10
-2619.646893446084
 20
-3115.800197951856
 30
0.0
 11
-2623.246893446084
 21
-3115.800197951856
 31
0.0
  0
ARC
  5
2A0
330
1F
100
AcDbEntity
  8
0-7_金物
  6
Continuous
 62
     7
370
     9
100
AcDbCircle
 10
-2623.246893446084
 20
-3117.000197951857
 30
0.0
 40
1.2
100
AcDbArc
 50
90.0
 51
180.0
  0
LINE
  5
2A1
330
1F
100
AcDbEntity
  8
0-7_金物
  6
Continuous
 62
     7
370
     9
100
AcDbLine
 10
-2624.446893446084
 20
-3117.000197951857
 30
0.0
 11
-2624.446893446084
 21
-3121.800197951856
 31
0.0
  0
ARC
  5
2A2
330
1F
100
AcDbEntity
  8
0-7_金物
  6
Continuous
 62
     7
370
     9
100
AcDbCircle
 10
-2691.646893446083
 20
-3117.000197951857
 30
0.0
 40
1.2
100
AcDbArc
 50
0.0
 51
90.0
  0
LINE
  5
2A3
330
1F
100
AcDbEntity
  8
0-7_金物
  6
Continuous
 62
     7
370
     9
100
AcDbLine
 10
-2690.446893446084
 20
-3117.000197951857
 30
0.0
 11
-2690.446893446084
 21
-3121.800197951856
 31
0.0
  0
LINE
  5
2A4
330
1F
100
AcDbEntity
  8
0-7_金物
  6
Continuous
 62
     7
370
     9
100
AcDbLine
 10
-2691.646893446083
 20
-3115.800197951856
 30
0.0
 11
-2695.246893446084
 21
-3115.800197951856
 31
0.0
  0
ARC
  5
2A5
330
1F
100
AcDbEntity
  8
0-7_金物
  6
Continuous
 62
     7
370
     9
100
AcDbCircle
 10
-2695.246893446084
 20
-3117.000197951857
 30
0.0
 40
1.2
100
AcDbArc
 50
90.0
 51
180.0
  0
LINE
  5
2A6
330
1F
100
AcDbEntity
  8
0-7_金物
  6
Continuous
 62
     7
370
     9
100
AcDbLine
 10
-2696.446893446084
 20
-3117.000197951857
 30
0.0
 11
-2696.446893446084
 21
-3121.800197951856
 31
0.0
  0
ARC
  5
2A7
330
1F
100
AcDbEntity
  8
0-7_金物
  6
Continuous
 62
     7
370
     9
100
AcDbCircle
 10
-2609.446893446084
 20
-3090.000197951856
 30
0.0
 40
3.0
100
AcDbArc
 50
0.0
 51
90.0
  0
LINE
  5
2A8
330
1F
100
AcDbEntity
  8
0-7_金物
  6
Continuous
 62
     7
370
     9
100
AcDbLine
 10
-2606.446893446083
 20
-3090.000197951856
 30
0.0
 11
-2606.446893446083
 21
-3121.800197951856
 31
0.0
  0
LINE
  5
2A9
330
1F
100
AcDbEntity
  8
0-7_金物
  6
Continuous
 62
     7
370
     9
100
AcDbLine
 10
-2609.446893446084
 20
-3087.000197951857
 30
0.0
 11
-2620.846893446083
 21
-3087.000197951857
 31
0.0
  0
ARC
  5
2AA
330
1F
100
AcDbEntity
  8
0-7_金物
  6
Continuous
 62
     7
370
     9
100
AcDbCircle
 10
-2705.446893446084
 20
-3090.000197951856
 30
0.0
 40
3.0
100
AcDbArc
 50
90.0
 51
180.0
  0
LINE
  5
2AB
330
1F
100
AcDbEntity
  8
0-7_金物
  6
Continuous
 62
     7
370
     9
100
AcDbLine
 10
-2708.446893446083
 20
-3090.000197951856
 30
0.0
 11
-2708.446893446083
 21
-3121.800197951856
 31
0.0
  0
LINE
  5
2AC
330
1F
100
AcDbEntity
  8
0-7_金物
  6
Continuous
 62
     7
370
     9
100
AcDbLine
 10
-2705.446893446084
 20
-3087.000197951857
 30
0.0
 11
-2694.046893446084
 21
-3087.000197951857
 31
0.0
  0
ARC
  5
2AD
330
1F
100
AcDbEntity
  8
0-7_金物
  6
Continuous
 62
     7
370
     9
100
AcDbCircle
 10
-2706.646893446083
 20
-3120.000197951856
 30
0.0
 40
9.000000000000002
100
AcDbArc
 50
180.0
 51
270.0
  0
LINE
  5
2AE
330
1F
100
AcDbEntity
  8
0-7_金物
  6
Continuous
 62
     7
370
     9
100
AcDbLine
 10
-2706.646893446083
 20
-3129.000197951857
 30
0.0
 11
-2608.246893446084
 21
-3129.000197951857
 31
0.0
  0
LINE
  5
2AF
330
1F
100
AcDbEntity
  8
0-7_金物
  6
Continuous
 62
     7
370
     9
100
AcDbLine
 10
-2715.646893446084
 20
-3120.000197951856
 30
0.0
 11
-2715.646893446084
 21
-3087.000197951857
 31
0.0
  0
ARC
  5
2B0
330
1F
100
AcDbEntity
  8
0-7_金物
  6
Continuous
 62
     7
370
     9
100
AcDbCircle
 10
-2608.246893446084
 20
-3120.000197951856
 30
0.0
 40
9.000000000000002
100
AcDbArc
 50
270.0
 51
0.0
  0
LINE
  5
2B1
330
1F
100
AcDbEntity
  8
0-7_金物
  6
Continuous
 62
     7
370
     9
100
AcDbLine
 10
-2599.246893446084
 20
-3120.000197951856
 30
0.0
 11
-2599.246893446084
 21
-3087.000197951857
 31
0.0
  0
ARC
  5
2B2
330
1F
100
AcDbEntity
  8
0-7_金物
  6
Continuous
 62
     7
370
     9
100
AcDbCircle
 10
-2620.846893446083
 20
-3083.400197951857
 30
0.0
 40
3.600000000000001
100
AcDbArc
 50
90.0
 51
180.0
  0
LINE
  5
2B3
330
1F
100
AcDbEntity
  8
0-7_金物
  6
Continuous
 62
     7
370
     9
100
AcDbLine
 10
-2620.846893446083
 20
-3079.800197951856
 30
0.0
 11
-2599.246893446084
 21
-3079.800197951856
 31
0.0
  0
ARC
  5
2B4
330
1F
100
AcDbEntity
  8
0-7_金物
  6
Continuous
 62
     7
370
     9
100
AcDbCircle
 10
-2620.846893446083
 20
-3083.400197951857
 30
0.0
 40
3.600000000000001
100
AcDbArc
 50
180.0
 51
270.0
  0
ARC
  5
2B5
330
1F
100
AcDbEntity
  8
0-7_金物
  6
Continuous
 62
     7
370
     9
100
AcDbCircle
 10
-2694.046893446084
 20
-3083.400197951857
 30
0.0
 40
3.600000000000001
100
AcDbArc
 50
270.0
 51
0.0
  0
ARC
  5
2B6
330
1F
100
AcDbEntity
  8
0-7_金物
  6
Continuous
 62
     7
370
     9
100
AcDbCircle
 10
-2694.046893446084
 20
-3083.400197951857
 30
0.0
 40
3.600000000000001
100
AcDbArc
 50
0.0
 51
90.0
  0
LINE
  5
2B7
330
1F
100
AcDbEntity
  8
0-7_金物
  6
Continuous
 62
     7
370
     9
100
AcDbLine
 10
-2694.046893446084
 20
-3079.800197951856
 30
0.0
 11
-2715.646893446084
 21
-3079.800197951856
 31
0.0
  0
LINE
  5
2B8
330
1F
100
AcDbEntity
  8
0-7_金物
  6
Continuous
 62
     7
370
     9
100
AcDbLine
 10
-2563.246893446083
 20
-3083.400197951857
 30
0.0
 11
-2599.246893446084
 21
-3079.800197951856
 31
0.0
  0
ARC
  5
2B9
330
1F
100
AcDbEntity
  8
0-7_金物
  6
Continuous
 62
     7
370
     9
100
AcDbCircle
 10
-2563.246893446083
 20
-3085.200197951857
 30
0.0
 40
1.8
100
AcDbArc
 50
270.0
 51
89.99999999999997
  0
ARC
  5
2BA
330
1F
100
AcDbEntity
  8
0-7_金物
  6
Continuous
 62
     7
370
     9
100
AcDbCircle
 10
-2751.646893446083
 20
-3085.200197951857
 30
0.0
 40
1.8
100
AcDbArc
 50
90.0
 51
270.0
  0
LINE
  5
2BB
330
1F
100
AcDbEntity
  8
0-7_金物
  6
Continuous
 62
     7
370
     9
100
AcDbLine
 10
-2715.646893446084
 20
-3079.800197951856
 30
0.0
 11
-2751.646893446083
 21
-3083.400197951857
 31
0.0
  0
LINE
  5
2BC
330
1F
100
AcDbEntity
  8
0-7_金物
  6
Continuous
 62
     7
370
     9
100
AcDbLine
 10
-2715.646893446084
 20
-3087.000197951857
 30
0.0
 11
-2751.646893446083
 21
-3087.000197951857
 31
0.0
  0
LINE
  5
2BD
330
1F
100
AcDbEntity
  8
0-7_金物
  6
Continuous
 62
     7
370
     9
100
AcDbLine
 10
-2563.246893446083
 20
-3087.000197951857
 30
0.0
 11
-2599.246893446084
 21
-3087.000197951857
 31
0.0
  0
LINE
  5
2BE
330
1F
100
AcDbEntity
  8
0-7_金物
  6
Continuous
 62
     7
370
     9
100
AcDbLine
 10
-2618.446893446083
 20
-3121.800197951856
 30
0.0
 11
-2606.446893446083
 21
-3121.800197951856
 31
0.0
  0
LINE
  5
2BF
330
1F
100
AcDbEntity
  8
0-7_金物
  6
Continuous
 62
     7
370
     9
100
AcDbLine
 10
-2655.646893446084
 20
-3121.800197951856
 30
0.0
 11
-2624.446893446084
 21
-3121.800197951856
 31
0.0
  0
LINE
  5
2C0
330
1F
100
AcDbEntity
  8
0-7_金物
  6
Continuous
 62
     7
370
     9
100
AcDbLine
 10
-2657.446893446084
 20
-3123.600197951856
 30
0.0
 11
-2655.646893446084
 21
-3121.800197951856
 31
0.0
  0
LINE
  5
2C1
330
1F
100
AcDbEntity
  8
0-7_金物
  6
Continuous
 62
     7
370
     9
100
AcDbLine
 10
-2659.246893446084
 20
-3121.800197951856
 30
0.0
 11
-2657.446893446084
 21
-3123.600197951856
 31
0.0
  0
LINE
  5
2C2
330
1F
100
AcDbEntity
  8
0-7_金物
  6
Continuous
 62
     7
370
     9
100
AcDbLine
 10
-2690.446893446084
 20
-3121.800197951856
 30
0.0
 11
-2659.246893446084
 21
-3121.800197951856
 31
0.0
  0
LINE
  5
2C3
330
1F
100
AcDbEntity
  8
0-7_金物
  6
Continuous
 62
     7
370
     9
100
AcDbLine
 10
-2708.446893446083
 20
-3121.800197951856
 30
0.0
 11
-2696.446893446084
 21
-3121.800197951856
 31
0.0
  0
LINE
  5
2C4
330
1F
100
AcDbEntity
  8
0-7_金物
  6
Continuous
 62
     7
370
     9
100
AcDbLine
 10
-2699.447128823212
 20
-3114.367238586081
 30
0.0
 11
-2615.446257835037
 21
-3114.367238586081
 31
0.0
  0
LINE
  5
2C5
330
1F
100
AcDbEntity
  8
0-7_金物
  6
Continuous
 62
     7
370
     9
100
AcDbLine
 10
-2699.447128823212
 20
-3090.367238586081
 30
0.0
 11
-2699.447128823212
 21
-3114.367238586081
 31
0.0
  0
LINE
  5
2C6
330
1F
100
AcDbEntity
  8
0-7_金物
  6
Continuous
 62
     7
370
     9
100
AcDbLine
 10
-2681.447366365443
 20
-3102.367238586082
 30
0.0
 11
-2681.447366365443
 21
-3114.367238586081
 31
0.0
  0
LINE
  5
2C7
330
1F
100
AcDbEntity
  8
0-7_金物
  6
Continuous
 62
     7
370
     9
100
AcDbLine
 10
-2615.446257835037
 20
-3090.367238586081
 30
0.0
 11
-2615.446257835037
 21
-3114.367238586081
 31
0.0
  0
LINE
  5
2C8
330
1F
100
AcDbEntity
  8
0-7_金物
  6
Continuous
 62
     7
370
     9
100
AcDbLine
 10
-2633.447504931743
 20
-3102.367238586082
 30
0.0
 11
-2633.447504931743
 21
-3114.367238586081
 31
0.0
  0
LINE
  5
2C9
330
1F
100
AcDbEntity
  8
0-7_金物
  6
Continuous
 62
     7
370
     9
100
AcDbLine
 10
-2666.446574558012
 20
-3102.367238586082
 30
0.0
 11
-2666.446574558012
 21
-3107.064636178988
 31
0.0
  0
LINE
  5
2CA
330
1F
100
AcDbEntity
  8
0-7_金物
  6
Continuous
 62
     7
370
     9
100
AcDbLine
 10
-2648.44681210024
 20
-3102.367238586082
 30
0.0
 11
-2648.44681210024
 21
-3107.064636178988
 31
0.0
  0
LINE
  5
2CB
330
1F
100
AcDbEntity
  8
0-7_金物
  6
Continuous
 62
     7
370
     9
100
AcDbLine
 10
-2648.44681210024
 20
-3107.064636178988
 30
0.0
 11
-2666.446574558012
 21
-3107.064636178988
 31
0.0
  0
LINE
  5
2CC
330
1F
100
AcDbEntity
  8
0-7_金物
  6
Continuous
 62
     7
370
     9
100
AcDbLine
 10
-2633.447504931743
 20
-3102.367238586082
 30
0.0
 11
-2681.447366365443
 21
-3102.367238586082
 31
0.0
  0
LINE
  5
2CD
330
1F
100
AcDbEntity
  8
0-7_金物
  6
Continuous
 62
     7
370
     9
100
AcDbLine
 10
-2666.446574558012
 20
-3036.000197951855
 30
0.0
 11
-2666.446574558012
 21
-3090.367238586081
 31
0.0
  0
LINE
  5
2CE
330
1F
100
AcDbEntity
  8
0-7_金物
  6
Continuous
 62
     7
370
     9
100
AcDbLine
 10
-2648.44681210024
 20
-3036.000197951855
 30
0.0
 11
-2648.44681210024
 21
-3090.367238586081
 31
0.0
  0
LINE
  5
2CF
330
1F
100
AcDbEntity
  8
0-7_金物
  6
Continuous
 62
     7
370
     9
100
AcDbLine
 10
-2615.446257835037
 20
-3090.367238586081
 30
0.0
 11
-2699.447128823212
 21
-3090.367238586081
 31
0.0
  0
LINE
  5
2D0
330
1F
100
AcDbEntity
  8
0-C_ハッチ
  6
Continuous
 62
   120
370
     5
100
AcDbLine
 10
-2621.047961161196
 20
-3159.000197951857
 30
0.0
 11
-2588.636036446505
 21
-3126.588273237165
 31
0.0
  0
LINE
  5
2D1
330
1F
100
AcDbEntity
  8
0-C_ハッチ
  6
Continuous
 62
   120
370
     5
100
AcDbLine
 10
-2697.415493529355
 20
-3159.000197951857
 30
0.0
 11
-2667.415493529352
 21
-3129.000197951852
 31
0.0
  0
LINE
  5
2D2
330
1F
100
AcDbEntity
  8
0-C_ハッチ
  6
Continuous
 62
   120
370
     5
100
AcDbLine
 10
-2671.959649406636
 20
-3159.000197951857
 30
0.0
 11
-2641.959649406634
 21
-3129.000197951854
 31
0.0
  0
LINE
  5
2D3
330
1F
100
AcDbEntity
  8
0-C_ハッチ
  6
Continuous
 62
   120
370
     5
100
AcDbLine
 10
-2646.503805283915
 20
-3159.000197951857
 30
0.0
 11
-2616.503805283915
 21
-3129.000197951857
 31
0.0
  0
LINE
  5
2D4
330
1F
100
AcDbEntity
  8
0-C_ハッチ
  6
Continuous
 62
   120
370
     5
100
AcDbLine
 10
-2722.871337652054
 20
-3159.000197951857
 30
0.0
 11
-2692.871337652054
 21
-3129.000197951857
 31
0.0
  0
LINE
  5
2D5
330
1F
100
AcDbEntity
  8
0-C_ハッチ
  6
Continuous
 62
   120
370
     5
100
AcDbLine
 10
-2595.592117038476
 20
-3159.000197951857
 30
0.0
 11
-2588.636036446505
 21
-3152.044117359885
 31
0.0
  0
LINE
  5
2D6
330
1F
100
AcDbEntity
  8
0-7_金物
  6
Continuous
 62
    92
370
    13
100
AcDbLine
 10
-2726.446893446084
 20
-3159.000197951857
 30
0.0
 11
-2588.636036446505
 21
-3159.000197951857
 31
0.0
  0
LINE
  5
2D7
330
1F
100
AcDbEntity
  8
0-7_金物
  6
Continuous
 62
    92
370
    13
100
AcDbLine
 10
-2726.446893446084
 20
-3116.999975621556
 30
0.0
 11
-2726.446893446084
 21
-3159.000197951857
 31
0.0
  0
LINE
  5
2D8
330
1F
100
AcDbEntity
  8
0-7_金物
  6
Continuous
 62
    92
370
    13
100
AcDbLine
 10
-2588.636036446505
 20
-3116.999975621556
 30
0.0
 11
-2588.636036446505
 21
-3159.000197951857
 31
0.0
  0
LINE
  5
2D9
330
1F
100
AcDbEntity
  8
0-7_金物
  6
Continuous
 62
    92
370
    13
100
AcDbLine
 10
-2597.446893446084
 20
-3117.000197951855
 30
0.0
 11
-2597.446893446084
 21
-3129.000197951857
 31
0.0
  0
LINE
  5
2DA
330
1F
100
AcDbEntity
  8
0-7_金物
  6
Continuous
 62
    92
370
    13
100
AcDbLine
 10
-2597.446893446084
 20
-3117.000197951855
 30
0.0
 11
-2588.635978126439
 21
-3117.000197951855
 31
0.0
  0
LINE
  5
2DB
330
1F
100
AcDbEntity
  8
0-7_金物
  6
Continuous
 62
    92
370
    13
100
AcDbLine
 10
-2717.446893446084
 20
-3117.000197951855
 30
0.0
 11
-2726.446951766151
 21
-3117.000197951855
 31
0.0
  0
LINE
  5
2DC
330
1F
100
AcDbEntity
  8
0-7_金物
  6
Continuous
 62
    92
370
    13
100
AcDbLine
 10
-2717.446893446084
 20
-3117.000197951855
 30
0.0
 11
-2717.446893446084
 21
-3129.000197951857
 31
0.0
  0
LINE
  5
2DD
330
1F
100
AcDbEntity
  8
0-7_金物
  6
Continuous
 62
    92
370
    13
100
AcDbLine
 10
-2717.446893446084
 20
-3129.000197951857
 30
0.0
 11
-2597.446893446084
 21
-3129.000197951857
 31
0.0
  0
LINE
  5
2DE
330
1F
100
AcDbEntity
  8
0-C_ハッチ
  6
Continuous
 62
   120
370
     5
100
AcDbLine
 10
-2726.446893446084
 20
-3137.119909623166
 30
0.0
 11
-2717.446893446084
 21
-3128.119909623166
 31
0.0
  0
LINE
  5
2DF
330
1F
100
AcDbEntity
  8
0-6_扉
  6
Continuous
 62
   200
370
    20
100
AcDbLine
 10
-2738.446893446085
 20
-3035.999826945732
 30
0.0
 11
-2576.446893446084
 21
-3035.999826945732
 31
0.0
  0
LINE
  5
2E0
330
1F
100
AcDbEntity
  8
0-3_仕上げ
  6
Continuous
 62
    40
370
    15
100
AcDbLine
 10
-2582.446893446084
 20
-3158.999990102405
 30
0.0
 11
-2582.446893446084
 21
-3087.000197951855
 31
0.0
  0
LINE
  5
2E1
330
1F
100
AcDbEntity
  8
0-3_仕上げ
  6
Continuous
 62
    40
370
    15
100
AcDbLine
 10
-2732.446893446084
 20
-3158.999990102405
 30
0.0
 11
-2732.446893446084
 21
-3087.000197951855
 31
0.0
  0
MTEXT
  5
2E2
330
1F
100
AcDbEntity
  8
0-A_文字
  6
Continuous
 62
     7
370
     9
100
AcDbMText
 10
-3680.964077509011
 20
337.8085173225312
 30
0.0
 40
91.44
 41
600.0
 46
0.0
 71
     7
 72
     1
  1
{\fＭＳ ゴシック|b0|i0|c128|p49;■縦断面図}
 73
     1
 44
1.0
  0
MTEXT
  5
2E3
330
1F
100
AcDbEntity
  8
0-B_寸法
  6
Continuous
 62
     7
370
   211
100
AcDbMText
 10
-3635.690572926138
 20
-2123.28030172297
 30
0.0
 40
91.43999999999997
 41
780.0
 46
0.0
 71
     7
 72
     1
  1
{\fＭＳ ゴシック|b0|i0|c128|p49;ＲＯＨ＝2,356}
 11
6.123031769111886E-17
 21
1.0
 31
0.0
 73
     1
 44
1.0
  0
MTEXT
  5
2E4
330
1F
100
AcDbEntity
  8
0-B_寸法
  6
Continuous
 62
     7
370
     0
100
AcDbMText
 10
-1871.446200614575
 20
-2063.28030172297
 30
0.0
 40
91.43999999999997
 41
660.0
 46
0.0
 71
     7
 72
     1
  1
{\fＭＳ ゴシック|b0|i0|c128|p49;ＤＨ＝2,284}
 11
6.123031769111886E-17
 21
1.0
 31
0.0
 73
     1
 44
1.0
  0
MTEXT
  5
2E5
330
1F
100
AcDbEntity
  8
0-B_寸法
  6
Continuous
 62
     7
370
     0
100
AcDbMText
 10
-1691.446200614578
 20
-2063.28030172297
 30
0.0
 40
91.43999999999997
 41
660.0
 46
0.0
 71
     7
 72
     1
  1
{\fＭＳ ゴシック|b0|i0|c128|p49;枠内＝2,300}
 11
6.123031769111886E-17
 21
1.0
 31
0.0
 73
     1
 44
1.0
  0
MTEXT
  5
2E6
330
1F
100
AcDbEntity
  8
0-B_寸法
  6
Continuous
 62
     7
370
     0
100
AcDbMText
 10
-1511.44709524635
 20
-2063.28030172297
 30
0.0
 40
91.43999999999997
 41
660.0
 46
0.0
 71
     7
 72
     1
  1
{\fＭＳ ゴシック|b0|i0|c128|p49;枠外＝2,348}
 11
6.123031769111886E-17
 21
1.0
 31
0.0
 73
     1
 44
1.0
  0
MTEXT
  5
2E7
330
1F
100
AcDbEntity
  8
0-A_文字
  6
Continuous
 62
     7
370
     0
100
AcDbMText
 10
-3620.690572926137
 20
-3402.55071179184
 30
0.0
 40
68.58000000000001
 41
1395.0
 46
0.0
 71
     7
 72
     1
  1
{\fＭＳ ゴシック|b0|i0|c128|p49;※ 扉厚（　）内はルーバーの場合}
 73
     1
 44
1.0
  0
LINE
  5
2E8
330
1F
100
AcDbEntity
  8
0-3_仕上げ
  6
Continuous
 62
    40
370
    15
100
AcDbLine
 10
-2357.446885180898
 20
-224.9999998463855
 30
0.0
 11
-2432.446885180898
 21
-224.9999998463855
 31
0.0
  0
LINE
  5
2E9
330
1F
100
AcDbEntity
  8
0-C_ハッチ
  6
JWW_DASHED1
 62
   120
370
     5
100
AcDbLine
 10
-2383.375837433902
 20
-224.9999998463868
 30
0.0
 11
-2357.446885180895
 21
-199.0710475933827
 31
0.0
  0
LINE
  5
2EA
330
1F
100
AcDbEntity
  8
0-C_ハッチ
  6
JWW_DASHED1
 62
   120
370
     5
100
AcDbLine
 10
-2425.802244305102
 20
-224.9999998463863
 30
0.0
 11
-2357.446885180902
 21
-156.6446407221861
 31
0.0
  0
LINE
  5
2EB
330
1F
100
AcDbEntity
  8
0-C_ハッチ
  6
JWW_DASHED1
 62
   120
370
     5
100
AcDbLine
 10
-2432.446885180902
 20
-189.2182338509852
 30
0.0
 11
-2357.446885180902
 21
-114.2182338509895
 31
0.0
  0
LINE
  5
2EC
330
1F
100
AcDbEntity
  8
0-C_ハッチ
  6
JWW_DASHED1
 62
   120
370
     5
100
AcDbLine
 10
-2432.446885180902
 20
-146.7918269797894
 30
0.0
 11
-2357.446885180892
 21
-71.79182697977708
 31
0.0
  0
LINE
  5
2ED
330
1F
100
AcDbEntity
  8
0-C_ハッチ
  6
JWW_DASHED1
 62
   120
370
     5
100
AcDbLine
 10
-2432.446885180908
 20
-104.3654201085916
 30
0.0
 11
-2357.446885180895
 21
-29.36542010857963
 31
0.0
  0
LINE
  5
2EE
330
1F
100
AcDbEntity
  8
0-C_ハッチ
  6
JWW_DASHED1
 62
   120
370
     5
100
AcDbLine
 10
-2432.446885180888
 20
-61.93901323742693
 30
0.0
 11
-2357.446885180892
 21
13.06098676256752
 31
0.0
  0
LINE
  5
2EF
330
1F
100
AcDbEntity
  8
0-C_ハッチ
  6
JWW_DASHED1
 62
   120
370
     5
100
AcDbLine
 10
-2432.446885180892
 20
-19.51260636623161
 30
0.0
 11
-2357.446885180895
 21
55.48739363376242
 31
0.0
  0
LINE
  5
2F0
330
1F
100
AcDbEntity
  8
0-3_仕上げ
  6
Continuous
 62
    40
370
    15
100
AcDbLine
 10
-2432.446885180898
 20
-224.9999998463855
 30
0.0
 11
-2432.446885180898
 21
141.0005813299739
 31
0.0
  0
LINE
  5
2F1
330
1F
100
AcDbEntity
  8
0-3_仕上げ
  6
Continuous
 62
    40
370
    15
100
AcDbLine
 10
-2357.446885180898
 20
-224.9999998463855
 30
0.0
 11
-2357.446885180898
 21
141.0005813299739
 31
0.0
  0
LINE
  5
2F2
330
1F
100
AcDbEntity
  8
0-C_ハッチ
  6
JWW_DASHED1
 62
   120
370
     5
100
AcDbLine
 10
-2432.446885180892
 20
65.34020737616842
 30
0.0
 11
-2357.446885180898
 21
140.3402073761633
 31
0.0
  0
LINE
  5
2F3
330
1F
100
AcDbEntity
  8
0-C_ハッチ
  6
JWW_DASHED1
 62
   120
370
     5
100
AcDbLine
 10
-2432.446885180888
 20
22.91380050497096
 30
0.0
 11
-2357.446885180898
 21
97.91380050496353
 31
0.0
  0
LINE
  5
2F4
330
1F
100
AcDbEntity
  8
0-C_ハッチ
  6
JWW_DASHED1
 62
   120
370
     5
100
AcDbLine
 10
-2432.446885180895
 20
107.766614247367
 30
0.0
 11
-2399.212918098289
 21
141.0005813299739
 31
0.0
  0
LINE
  5
2F5
330
1F
100
AcDbEntity
  8
0-3_仕上げ
  6
Continuous
 62
   120
370
     5
100
AcDbLine
 10
-2852.446885180898
 20
-110.8542619710281
 30
0.0
 11
-2432.446885180898
 21
-110.8542619710281
 31
0.0
  0
LINE
  5
2F6
330
1F
100
AcDbEntity
  8
0-3_仕上げ
  6
Continuous
 62
   120
370
     5
100
AcDbLine
 10
-2432.446885180898
 20
69.14573802897195
 30
0.0
 11
-2852.446885180898
 21
-110.8542619710281
 31
0.0
  0
LINE
  5
2F7
330
1F
100
AcDbEntity
  8
0-3_仕上げ
  6
Continuous
 62
   120
370
     5
100
AcDbLine
 10
-2852.446885180898
 20
69.14573802897195
 30
0.0
 11
-2852.446885180898
 21
-110.8542619710281
 31
0.0
  0
LINE
  5
2F8
330
1F
100
AcDbEntity
  8
0-3_仕上げ
  6
Continuous
 62
   120
370
     5
100
AcDbLine
 10
-2432.446885180898
 20
69.14573802897195
 30
0.0
 11
-2852.446885180898
 21
69.14573802897195
 31
0.0
  0
LINE
  5
2F9
330
1F
100
AcDbEntity
  8
0-3_仕上げ
  6
Continuous
 62
   120
370
     5
100
AcDbLine
 10
-2432.446885180898
 20
-110.8542619710281
 30
0.0
 11
-2432.446885180898
 21
69.14573802897195
 31
0.0
  0
LINE
  5
2FA
330
1F
100
AcDbEntity
  8
0-4_枠
  6
Continuous
 62
   120
370
     5
100
AcDbLine
 10
-2381.446893446084
 20
-224.9999998463868
 30
0.0
 11
-2381.446893446084
 21
-3086.999826945734
 31
0.0
  0
LINE
  5
2FB
330
1F
100
AcDbEntity
  8
0-E
  6
Continuous
 62
    92
370
    13
100
AcDbLine
 10
2205.587533354163
 20
194.9998020481422
 30
0.0
 11
4191.256895024741
 21
194.9998020481422
 31
0.0
  0
LINE
  5
2FC
330
1F
100
AcDbEntity
  8
0-E
  6
Continuous
 62
    92
370
    13
100
AcDbLine
 10
2205.587533354163
 20
14.99980204813966
 30
0.0
 11
4191.256895024741
 21
14.99980204813966
 31
0.0
  0
MTEXT
  5
2FD
330
1F
100
AcDbEntity
  8
0-E
  6
Continuous
 62
     7
370
   211
100
AcDbMText
 10
1095.049842043954
 20
-1507.883331990985
 30
0.0
 40
68.58
 41
90.0
 46
0.0
 71
     7
 72
     1
  1
{\fＭＳ ゴシック|b0|i0|c128|p49;23}
 73
     1
 44
1.0
  0
MTEXT
  5
2FE
330
1F
100
AcDbEntity
  8
0-E
  6
Continuous
 62
     7
370
   211
100
AcDbMText
 10
3081.892548548178
 20
-1769.833328253696
 30
0.0
 40
68.58
 41
90.0
 46
0.0
 71
     7
 72
     1
  1
{\fＭＳ ゴシック|b0|i0|c128|p49;32}
 73
     1
 44
1.0
  0
MTEXT
  5
2FF
330
1F
100
AcDbEntity
  8
0-E
  6
Continuous
 62
     7
370
   211
100
AcDbMText
 10
3081.892548548178
 20
-1929.295616244168
 30
0.0
 40
68.58
 41
90.0
 46
0.0
 71
     7
 72
     1
  1
{\fＭＳ ゴシック|b0|i0|c128|p49;11}
 73
     1
 44
1.0
  0
MTEXT
  5
300
330
1F
100
AcDbEntity
  8
0-E
  6
Continuous
 62
     7
370
   211
100
AcDbMText
 10
2654.040822809253
 20
-2065.452423114598
 30
0.0
 40
68.57999999999998
 41
135.0
 46
0.0
 71
     7
 72
     1
  1
{\fＭＳ ゴシック|b0|i0|c128|p49;1.2}
 11
6.123031769111886E-17
 21
1.0
 31
0.0
 73
     1
 44
1.0
  0
MTEXT
  5
301
330
1F
100
AcDbEntity
  8
0-E
  6
Continuous
 62
     7
370
   211
100
AcDbMText
 10
2654.040822809253
 20
-2177.475732176918
 30
0.0
 40
68.58
 41
45.0
 46
0.0
 71
     7
 72
     1
  1
{\fＭＳ ゴシック|b0|i0|c128|p49;7}
 11
6.123031769111886E-17
 21
1.0
 31
0.0
 73
     1
 44
1.0
  0
MTEXT
  5
302
330
1F
100
AcDbEntity
  8
0-E
  6
Continuous
 62
     7
370
   211
100
AcDbMText
 10
2497.597852565259
 20
-2213.475732176918
 30
0.0
 40
68.57999999999998
 41
135.0
 46
0.0
 71
     7
 72
     1
  1
{\fＭＳ ゴシック|b0|i0|c128|p49;8.2}
 11
6.123031769111886E-17
 21
1.0
 31
0.0
 73
     1
 44
1.0
  0
MTEXT
  5
303
330
1F
100
AcDbEntity
  8
0-E
  6
Continuous
 62
     7
370
   211
100
AcDbMText
 10
3036.892548548179
 20
-2403.372080987368
 30
0.0
 40
68.58
 41
180.0
 46
0.0
 71
     7
 72
     1
  1
{\fＭＳ ゴシック|b0|i0|c128|p49;19.4}
 73
     1
 44
1.0
  0
MTEXT
  5
304
330
1F
100
AcDbEntity
  8
0-E
  6
Continuous
 62
     7
370
   211
100
AcDbMText
 10
3081.656119797647
 20
-2613.041877124406
 30
0.0
 40
68.58
 41
90.0
 46
0.0
 71
     7
 72
     1
  1
{\fＭＳ ゴシック|b0|i0|c128|p49;23}
 73
     1
 44
1.0
  0
MTEXT
  5
305
330
1F
100
AcDbEntity
  8
0-E
  6
Continuous
 62
     7
370
   211
100
AcDbMText
 10
2805.00788444971
 20
-2774.989112782177
 30
0.0
 40
68.57999999999998
 41
135.0
 46
0.0
 71
     7
 72
     1
  1
{\fＭＳ ゴシック|b0|i0|c128|p49;1.5}
 73
     1
 44
1.0
  0
MTEXT
  5
306
330
1F
100
AcDbEntity
  8
0-E
  6
Continuous
 62
     7
370
   211
100
AcDbMText
 10
3081.892548548178
 20
-2774.989112782177
 30
0.0
 40
68.58
 41
90.0
 46
0.0
 71
     7
 72
     1
  1
{\fＭＳ ゴシック|b0|i0|c128|p49;20}
 73
     1
 44
1.0
  0
MTEXT
  5
307
330
1F
100
AcDbEntity
  8
0-E
  6
Continuous
 62
     7
370
   211
100
AcDbMText
 10
3325.759696018941
 20
-2774.989112782177
 30
0.0
 40
68.57999999999998
 41
135.0
 46
0.0
 71
     7
 72
     1
  1
{\fＭＳ ゴシック|b0|i0|c128|p49;1.5}
 73
     1
 44
1.0
  0
LINE
  5
308
330
1F
100
AcDbEntity
  8
0-E
  6
Continuous
 62
    92
370
    13
100
AcDbLine
 10
219.9181716835818
 20
14.99980204814221
 30
0.0
 11
2205.587533354163
 21
14.99980204814221
 31
0.0
  0
LINE
  5
309
330
1F
100
AcDbEntity
  8
0-E
  6
Continuous
 62
    92
370
    13
100
AcDbLine
 10
219.9181716835818
 20
194.9998020481422
 30
0.0
 11
2205.587533354163
 21
194.9998020481422
 31
0.0
  0
MTEXT
  5
30A
330
1F
100
AcDbEntity
  8
0-E
  6
Continuous
 62
     7
370
   211
100
AcDbMText
 10
2654.040822809253
 20
-2955.103629875683
 30
0.0
 40
68.58
 41
45.0
 46
0.0
 71
     7
 72
     1
  1
{\fＭＳ ゴシック|b0|i0|c128|p49;2}
 11
6.123031769111886E-17
 21
1.0
 31
0.0
 73
     1
 44
1.0
  0
MTEXT
  5
30B
330
1F
100
AcDbEntity
  8
0-E
  6
Continuous
 62
     7
370
   211
100
AcDbMText
 10
2497.597852565259
 20
-3041.682756621967
 30
0.0
 40
68.58
 41
45.0
 46
0.0
 71
     7
 72
     1
  1
{\fＭＳ ゴシック|b0|i0|c128|p49;7}
 11
6.123031769111886E-17
 21
1.0
 31
0.0
 73
     1
 44
1.0
  0
MTEXT
  5
30C
330
1F
100
AcDbEntity
  8
0-E
  6
Continuous
 62
     7
370
   211
100
AcDbMText
 10
2654.040822809253
 20
-3056.683034534837
 30
0.0
 40
68.58
 41
45.0
 46
0.0
 71
     7
 72
     1
  1
{\fＭＳ ゴシック|b0|i0|c128|p49;5}
 11
6.123031769111886E-17
 21
1.0
 31
0.0
 73
     1
 44
1.0
  0
LWPOLYLINE
  5
30D
330
1F
100
AcDbEntity
  8
0-E
  6
Continuous
 62
     7
370
     9
100
AcDbPolyline
 90
        4
 70
     1
 43
3.0
 10
1026.549710076047
 20
-1512.173331990985
 42
0.4142135623731
 10
1025.049710076048
 20
-1510.673331990985
 42
0.4142135623731
 10
1023.549710076048
 20
-1512.173331990985
 42
0.4142135623731
 10
1025.049710076048
 20
-1513.673331990985
 42
0.4142135623731
  0
LINE
  5
30E
330
1F
100
AcDbEntity
  8
0-E
  6
Continuous
 62
   120
370
     5
100
AcDbLine
 10
1025.049710076048
 20
-1512.173331990985
 30
0.0
 11
1025.049710076048
 21
-1332.173331990985
 31
0.0
  0
MTEXT
  5
30F
330
1F
100
AcDbEntity
  8
0-E
  6
Continuous
 62
     7
370
     0
100
AcDbMText
 10
492.7528525188735
 20
30.71980204814221
 30
0.0
 40
91.44
 41
1440.0
 46
0.0
 71
     7
 72
     1
  1
{\fＭＳ ゴシック|b0|i0|c128|p49;竪枠下端形状図（S＝1/3）}
 73
     1
 44
1.0
  0
LINE
  5
310
330
1F
100
AcDbEntity
  8
0-E
  6
Continuous
 62
   120
370
     5
100
AcDbLine
 10
1025.049710076048
 20
-1512.173331990985
 30
0.0
 11
1255.04997401186
 21
-1512.173331990985
 31
0.0
  0
LWPOLYLINE
  5
311
330
1F
100
AcDbEntity
  8
0-E
  6
Continuous
 62
     7
370
     9
100
AcDbPolyline
 90
        4
 70
     1
 43
3.0
 10
1256.54997401186
 20
-1512.173331990985
 42
0.4142135623731
 10
1255.04997401186
 20
-1510.673331990985
 42
0.4142135623731
 10
1253.54997401186
 20
-1512.173331990985
 42
0.4142135623731
 10
1255.04997401186
 20
-1513.673331990985
 42
0.4142135623731
  0
LINE
  5
312
330
1F
100
AcDbEntity
  8
0-E
  6
Continuous
 62
   120
370
     5
100
AcDbLine
 10
1255.04997401186
 20
-1512.173331990985
 30
0.0
 11
1255.04997401186
 21
-1332.173331990985
 31
0.0
  0
MTEXT
  5
313
330
1F
100
AcDbEntity
  8
0-E
  6
Continuous
 62
     7
370
     9
100
AcDbMText
 10
2538.422214189452
 20
30.71980204813966
 30
0.0
 40
91.44
 41
1320.0
 46
0.0
 71
     7
 72
     1
  1
{\fＭＳ ゴシック|b0|i0|c128|p49;レール拡大図（S＝1/2）}
 73
     1
 44
1.0
  0
MTEXT
  5
314
330
1F
100
AcDbEntity
  8
0-E
  6
Continuous
 62
     7
370
     9
100
AcDbMText
 10
342.7528525188737
 20
-1954.210654623817
 30
0.0
 40
91.43999999999996
 41
1740.0
 46
0.0
 71
     7
 72
     1
  1
{\fＭＳ ゴシック|b0|i0|c128|p49;レール埋込時 フロアー貼込位置}
 73
     1
 44
1.0
  0
LINE
  5
315
330
1F
100
AcDbEntity
  8
0-E
  6
Continuous
 62
    92
370
    13
100
AcDbLine
 10
219.9181716835818
 20
194.9998020481422
 30
0.0
 11
219.9181716835818
 21
-3409.930654623817
 31
0.0
  0
LINE
  5
316
330
1F
100
AcDbEntity
  8
0-E
  6
Continuous
 62
    92
370
    13
100
AcDbLine
 10
219.9181716835818
 20
-3409.930654623817
 30
0.0
 11
4191.256895024741
 21
-3409.930654623817
 31
0.0
  0
LINE
  5
317
330
1F
100
AcDbEntity
  8
0-E
  6
Continuous
 62
    92
370
    13
100
AcDbLine
 10
219.9181716835818
 20
-1789.930654623817
 30
0.0
 11
2205.587533354163
 21
-1789.930654623817
 31
0.0
  0
LINE
  5
318
330
1F
100
AcDbEntity
  8
0-E
  6
Continuous
 62
    92
370
    13
100
AcDbLine
 10
219.9181716835818
 20
-1969.930654623817
 30
0.0
 11
2205.587533354163
 21
-1969.930654623817
 31
0.0
  0
INSERT
  5
319
330
1F
100
AcDbEntity
  8
0-E
  6
Continuous
 62
     7
370
     9
100
AcDbBlockReference
  2
01@@SfigorgFlag@@4
 10
3126.892548548178
 20
-2134.034962946146
 30
0.0
 41
30.0
 42
30.0
  0
LWPOLYLINE
  5
31A
330
1F
100
AcDbEntity
  8
0-E
  6
Continuous
 62
     7
370
     9
100
AcDbPolyline
 90
        4
 70
     1
 43
3.0
 10
2888.392548548181
 20
-2087.265732176915
 42
0.4142135623731
 10
2886.892548548181
 20
-2085.765732176915
 42
0.4142135623731
 10
2885.392548548181
 20
-2087.265732176915
 42
0.4142135623731
 10
2886.892548548181
 20
-2088.765732176915
 42
0.4142135623731
  0
LWPOLYLINE
  5
31B
330
1F
100
AcDbEntity
  8
0-E
  6
Continuous
 62
     7
370
     9
100
AcDbPolyline
 90
        4
 70
     1
 43
3.0
 10
3368.392548548177
 20
-2087.265732176915
 42
0.4142135623731
 10
3366.892548548177
 20
-2085.765732176915
 42
0.4142135623731
 10
3365.392548548177
 20
-2087.265732176915
 42
0.4142135623731
 10
3366.892548548177
 20
-2088.765732176915
 42
0.4142135623731
  0
LWPOLYLINE
  5
31C
330
1F
100
AcDbEntity
  8
0-E
  6
Continuous
 62
     7
370
     9
100
AcDbPolyline
 90
        4
 70
     1
 43
3.0
 10
3045.892548548174
 20
-2082.765732176915
 42
0.4142135623731
 10
3044.392548548174
 20
-2081.265732176916
 42
0.4142135623731
 10
3042.892548548174
 20
-2082.765732176915
 42
0.4142135623731
 10
3044.392548548174
 20
-2084.265732176915
 42
0.4142135623731
  0
LWPOLYLINE
  5
31D
330
1F
100
AcDbEntity
  8
0-E
  6
Continuous
 62
     7
370
     9
100
AcDbPolyline
 90
        4
 70
     1
 43
3.0
 10
3210.892548548185
 20
-2082.765732176915
 42
0.4142135623731
 10
3209.392548548185
 20
-2081.265732176916
 42
0.4142135623731
 10
3207.892548548185
 20
-2082.765732176915
 42
0.4142135623731
 10
3209.392548548185
 20
-2084.265732176915
 42
0.4142135623731
  0
LINE
  5
31E
330
1F
100
AcDbEntity
  8
0-E
  6
Continuous
 62
   120
370
     5
100
AcDbLine
 10
3044.392548548174
 20
-1933.585616244168
 30
0.0
 11
3209.392548548185
 21
-1933.585616244168
 31
0.0
  0
LWPOLYLINE
  5
31F
330
1F
100
AcDbEntity
  8
0-E
  6
Continuous
 62
     7
370
     9
100
AcDbPolyline
 90
        4
 70
     1
 43
3.0
 10
3045.892548548174
 20
-1933.585616244168
 42
0.4142135623731
 10
3044.392548548174
 20
-1932.085616244168
 42
0.4142135623731
 10
3042.892548548174
 20
-1933.585616244168
 42
0.4142135623731
 10
3044.392548548174
 20
-1935.085616244168
 42
0.4142135623731
  0
LWPOLYLINE
  5
320
330
1F
100
AcDbEntity
  8
0-E
  6
Continuous
 62
     7
370
     9
100
AcDbPolyline
 90
        4
 70
     1
 43
3.0
 10
3210.892548548185
 20
-1933.585616244168
 42
0.4142135623731
 10
3209.392548548185
 20
-1932.085616244168
 42
0.4142135623731
 10
3207.892548548185
 20
-1933.585616244168
 42
0.4142135623731
 10
3209.392548548185
 20
-1935.085616244168
 42
0.4142135623731
  0
LINE
  5
321
330
1F
100
AcDbEntity
  8
0-E
  6
Continuous
 62
   120
370
     5
100
AcDbLine
 10
3044.392548548174
 20
-1933.585616244168
 30
0.0
 11
3044.392548548174
 21
-2019.449925162114
 31
0.0
  0
LINE
  5
322
330
1F
100
AcDbEntity
  8
0-E
  6
Continuous
 62
   120
370
     5
100
AcDbLine
 10
3209.392548548185
 20
-1933.585616244168
 30
0.0
 11
3209.392548548185
 21
-2019.449925162114
 31
0.0
  0
LINE
  5
323
330
1F
100
AcDbEntity
  8
0-E
  6
Continuous
 62
   120
370
     5
100
AcDbLine
 10
2886.892548548181
 20
-1774.123328253695
 30
0.0
 11
3366.892548548177
 21
-1774.123328253695
 31
0.0
  0
LWPOLYLINE
  5
324
330
1F
100
AcDbEntity
  8
0-E
  6
Continuous
 62
     7
370
     9
100
AcDbPolyline
 90
        4
 70
     1
 43
3.0
 10
2888.392548548181
 20
-1774.123328253695
 42
0.4142135623731
 10
2886.892548548181
 20
-1772.623328253696
 42
0.4142135623731
 10
2885.392548548181
 20
-1774.123328253695
 42
0.4142135623731
 10
2886.892548548181
 20
-1775.623328253695
 42
0.4142135623731
  0
LWPOLYLINE
  5
325
330
1F
100
AcDbEntity
  8
0-E
  6
Continuous
 62
     7
370
     9
100
AcDbPolyline
 90
        4
 70
     1
 43
3.0
 10
3368.392548548177
 20
-1774.123328253695
 42
0.4142135623731
 10
3366.892548548177
 20
-1772.623328253696
 42
0.4142135623731
 10
3365.392548548177
 20
-1774.123328253695
 42
0.4142135623731
 10
3366.892548548177
 20
-1775.623328253695
 42
0.4142135623731
  0
LINE
  5
326
330
1F
100
AcDbEntity
  8
0-E
  6
Continuous
 62
   120
370
     5
100
AcDbLine
 10
2886.892548548181
 20
-1774.123328253695
 30
0.0
 11
2886.892548548181
 21
-2019.449925162114
 31
0.0
  0
LINE
  5
327
330
1F
100
AcDbEntity
  8
0-E
  6
Continuous
 62
   120
370
     5
100
AcDbLine
 10
3366.892548548177
 20
-1774.123328253695
 30
0.0
 11
3366.892548548177
 21
-2019.449925162114
 31
0.0
  0
LWPOLYLINE
  5
328
330
1F
100
AcDbEntity
  8
0-E
  6
Continuous
 62
     7
370
     9
100
AcDbPolyline
 90
        4
 70
     1
 43
3.0
 10
2670.540822809253
 20
-2073.765732176917
 42
0.4142135623731
 10
2669.040822809253
 20
-2072.265732176917
 42
0.4142135623731
 10
2667.540822809253
 20
-2073.765732176917
 42
0.4142135623731
 10
2669.040822809253
 20
-2075.265732176917
 42
0.4142135623731
  0
LWPOLYLINE
  5
329
330
1F
100
AcDbEntity
  8
0-E
  6
Continuous
 62
     7
370
     9
100
AcDbPolyline
 90
        4
 70
     1
 43
3.0
 10
2670.540822809253
 20
-2091.765732176918
 42
0.4142135623731
 10
2669.040822809253
 20
-2090.265732176918
 42
0.4142135623731
 10
2667.540822809253
 20
-2091.765732176918
 42
0.4142135623731
 10
2669.040822809253
 20
-2093.265732176918
 42
0.4142135623731
  0
LINE
  5
32A
330
1F
100
AcDbEntity
  8
0-E
  6
Continuous
 62
   120
370
     5
100
AcDbLine
 10
2669.040822809253
 20
-2073.765732176917
 30
0.0
 11
2799.881674493744
 21
-2073.765732176917
 31
0.0
  0
LINE
  5
32B
330
1F
100
AcDbEntity
  8
0-E
  6
Continuous
 62
   120
370
     5
100
AcDbLine
 10
2669.040822809253
 20
-2091.765732176918
 30
0.0
 11
2799.881674493744
 21
-2091.765732176918
 31
0.0
  0
LINE
  5
32C
330
1F
100
AcDbEntity
  8
0-E
  6
Continuous
 62
   120
370
     5
100
AcDbLine
 10
2669.040822809253
 20
-2091.765732176918
 30
0.0
 11
2669.040822809253
 21
-2196.765732176918
 31
0.0
  0
LWPOLYLINE
  5
32D
330
1F
100
AcDbEntity
  8
0-E
  6
Continuous
 62
     7
370
     9
100
AcDbPolyline
 90
        4
 70
     1
 43
3.0
 10
2670.540822809253
 20
-2196.765732176918
 42
0.4142135623731
 10
2669.040822809253
 20
-2195.265732176918
 42
0.4142135623731
 10
2667.540822809253
 20
-2196.765732176918
 42
0.4142135623731
 10
2669.040822809253
 20
-2198.265732176918
 42
0.4142135623731
  0
LINE
  5
32E
330
1F
100
AcDbEntity
  8
0-E
  6
Continuous
 62
   120
370
     5
100
AcDbLine
 10
2669.040822809253
 20
-2196.765732176918
 30
0.0
 11
2799.881674493744
 21
-2196.765732176918
 31
0.0
  0
LINE
  5
32F
330
1F
100
AcDbEntity
  8
0-E
  6
Continuous
 62
   120
370
     5
100
AcDbLine
 10
2981.392548548181
 20
-2407.662080987368
 30
0.0
 11
3272.392548548175
 21
-2407.662080987368
 31
0.0
  0
LWPOLYLINE
  5
330
330
1F
100
AcDbEntity
  8
0-E
  6
Continuous
 62
     7
370
     9
100
AcDbPolyline
 90
        4
 70
     1
 43
3.0
 10
2982.89254854818
 20
-2407.662080987368
 42
0.4142135623731
 10
2981.392548548181
 20
-2406.162080987368
 42
0.4142135623731
 10
2979.892548548181
 20
-2407.662080987368
 42
0.4142135623731
 10
2981.392548548181
 20
-2409.162080987368
 42
0.4142135623731
  0
LWPOLYLINE
  5
331
330
1F
100
AcDbEntity
  8
0-E
  6
Continuous
 62
     7
370
     9
100
AcDbPolyline
 90
        4
 70
     1
 43
3.0
 10
3273.892548548175
 20
-2407.662080987368
 42
0.4142135623731
 10
3272.392548548175
 20
-2406.162080987368
 42
0.4142135623731
 10
3270.892548548175
 20
-2407.662080987368
 42
0.4142135623731
 10
3272.392548548175
 20
-2409.162080987368
 42
0.4142135623731
  0
LINE
  5
332
330
1F
100
AcDbEntity
  8
0-E
  6
Continuous
 62
   120
370
     5
100
AcDbLine
 10
2981.392548548181
 20
-2407.662080987368
 30
0.0
 11
2981.392548548181
 21
-2280.045998919218
 31
0.0
  0
LINE
  5
333
330
1F
100
AcDbEntity
  8
0-E
  6
Continuous
 62
   120
370
     5
100
AcDbLine
 10
3272.392548548175
 20
-2407.662080987368
 30
0.0
 11
3272.392548548175
 21
-2280.045998919218
 31
0.0
  0
LINE
  5
334
330
1F
100
AcDbEntity
  8
0-E
  6
Continuous
 62
   120
370
     5
100
AcDbLine
 10
2669.040822809253
 20
-1907.277887552609
 30
0.0
 11
2669.040822809253
 21
-2091.765732176918
 31
0.0
  0
LWPOLYLINE
  5
335
330
1F
100
AcDbEntity
  8
0-E
  6
Continuous
 62
     7
370
     9
100
AcDbPolyline
 90
        4
 70
     1
 43
3.0
 10
2955.892548548178
 20
-2779.279112782177
 42
0.4142135623731
 10
2954.392548548178
 20
-2777.779112782177
 42
0.4142135623731
 10
2952.892548548178
 20
-2779.279112782177
 42
0.4142135623731
 10
2954.392548548178
 20
-2780.779112782177
 42
0.4142135623731
  0
LWPOLYLINE
  5
336
330
1F
100
AcDbEntity
  8
0-E
  6
Continuous
 62
     7
370
     9
100
AcDbPolyline
 90
        4
 70
     1
 43
3.0
 10
2978.392548548178
 20
-2779.279112782177
 42
0.4142135623731
 10
2976.892548548178
 20
-2777.779112782177
 42
0.4142135623731
 10
2975.392548548178
 20
-2779.279112782177
 42
0.4142135623731
 10
2976.892548548178
 20
-2780.779112782177
 42
0.4142135623731
  0
LINE
  5
337
330
1F
100
AcDbEntity
  8
0-E
  6
Continuous
 62
   120
370
     5
100
AcDbLine
 10
2954.392548548178
 20
-2779.279112782177
 30
0.0
 11
2954.392548548178
 21
-2883.791464511077
 31
0.0
  0
LINE
  5
338
330
1F
100
AcDbEntity
  8
0-E
  6
Continuous
 62
   120
370
     5
100
AcDbLine
 10
2976.892548548178
 20
-2779.279112782177
 30
0.0
 11
2976.892548548178
 21
-2883.791464511077
 31
0.0
  0
LINE
  5
339
330
1F
100
AcDbEntity
  8
0-E
  6
Continuous
 62
   120
370
     5
100
AcDbLine
 10
2976.892548548178
 20
-2779.279112782177
 30
0.0
 11
3276.892548548178
 21
-2779.279112782177
 31
0.0
  0
LWPOLYLINE
  5
33A
330
1F
100
AcDbEntity
  8
0-E
  6
Continuous
 62
     7
370
     9
100
AcDbPolyline
 90
        4
 70
     1
 43
3.0
 10
3278.392548548178
 20
-2779.279112782177
 42
0.4142135623731
 10
3276.892548548178
 20
-2777.779112782177
 42
0.4142135623731
 10
3275.392548548178
 20
-2779.279112782177
 42
0.4142135623731
 10
3276.892548548178
 20
-2780.779112782177
 42
0.4142135623731
  0
LINE
  5
33B
330
1F
100
AcDbEntity
  8
0-E
  6
Continuous
 62
   120
370
     5
100
AcDbLine
 10
3276.892548548178
 20
-2779.279112782177
 30
0.0
 11
3276.892548548178
 21
-2883.791464511077
 31
0.0
  0
LWPOLYLINE
  5
33C
330
1F
100
AcDbEntity
  8
0-E
  6
Continuous
 62
     7
370
     9
100
AcDbPolyline
 90
        4
 70
     1
 43
3.0
 10
3300.419691047115
 20
-2779.279112782177
 42
0.4142135623731
 10
3298.919691047116
 20
-2777.779112782177
 42
0.4142135623731
 10
3297.419691047116
 20
-2779.279112782177
 42
0.4142135623731
 10
3298.919691047116
 20
-2780.779112782177
 42
0.4142135623731
  0
LINE
  5
33D
330
1F
100
AcDbEntity
  8
0-E
  6
Continuous
 62
   120
370
     5
100
AcDbLine
 10
3298.919691047116
 20
-2779.279112782177
 30
0.0
 11
3298.919691047116
 21
-2883.791464511077
 31
0.0
  0
LWPOLYLINE
  5
33E
330
1F
100
AcDbEntity
  8
0-E
  6
Continuous
 62
     7
370
     9
100
AcDbPolyline
 90
        4
 70
     1
 43
3.0
 10
2670.540822809253
 20
-2955.972478709091
 42
0.4142135623731
 10
2669.040822809253
 20
-2954.472478709091
 42
0.4142135623731
 10
2667.540822809253
 20
-2955.972478709091
 42
0.4142135623731
 10
2669.040822809253
 20
-2957.472478709091
 42
0.4142135623731
  0
LWPOLYLINE
  5
33F
330
1F
100
AcDbEntity
  8
0-E
  6
Continuous
 62
     7
370
     9
100
AcDbPolyline
 90
        4
 70
     1
 43
3.0
 10
2670.540822809253
 20
-2985.973034534834
 42
0.4142135623731
 10
2669.040822809253
 20
-2984.473034534834
 42
0.4142135623731
 10
2667.540822809253
 20
-2985.973034534834
 42
0.4142135623731
 10
2669.040822809253
 20
-2987.473034534834
 42
0.4142135623731
  0
LINE
  5
340
330
1F
100
AcDbEntity
  8
0-E
  6
Continuous
 62
   120
370
     5
100
AcDbLine
 10
2669.040822809253
 20
-2955.972478709091
 30
0.0
 11
2799.881674493744
 21
-2955.972478709091
 31
0.0
  0
LINE
  5
341
330
1F
100
AcDbEntity
  8
0-E
  6
Continuous
 62
   120
370
     5
100
AcDbLine
 10
2669.040822809253
 20
-2985.973034534834
 30
0.0
 11
2799.881674493744
 21
-2985.973034534834
 31
0.0
  0
LINE
  5
342
330
1F
100
AcDbEntity
  8
0-E
  6
Continuous
 62
   120
370
     5
100
AcDbLine
 10
2669.040822809253
 20
-2985.973034534834
 30
0.0
 11
2669.040822809253
 21
-3060.97303453484
 31
0.0
  0
LWPOLYLINE
  5
343
330
1F
100
AcDbEntity
  8
0-E
  6
Continuous
 62
     7
370
     9
100
AcDbPolyline
 90
        4
 70
     1
 43
3.0
 10
2670.540822809253
 20
-3060.97303453484
 42
0.4142135623731
 10
2669.040822809253
 20
-3059.47303453484
 42
0.4142135623731
 10
2667.540822809253
 20
-3060.97303453484
 42
0.4142135623731
 10
2669.040822809253
 20
-3062.47303453484
 42
0.4142135623731
  0
LINE
  5
344
330
1F
100
AcDbEntity
  8
0-E
  6
Continuous
 62
   120
370
     5
100
AcDbLine
 10
2669.040822809253
 20
-3060.97303453484
 30
0.0
 11
2799.881674493744
 21
-3060.97303453484
 31
0.0
  0
LINE
  5
345
330
1F
100
AcDbEntity
  8
0-E
  6
Continuous
 62
   120
370
     5
100
AcDbLine
 10
2512.597852565259
 20
-3060.97303453484
 30
0.0
 11
2512.597852565259
 21
-2955.972478709091
 31
0.0
  0
LWPOLYLINE
  5
346
330
1F
100
AcDbEntity
  8
0-E
  6
Continuous
 62
     7
370
     9
100
AcDbPolyline
 90
        4
 70
     1
 43
3.0
 10
2514.097852565259
 20
-3060.97303453484
 42
0.4142135623731
 10
2512.597852565259
 20
-3059.47303453484
 42
0.4142135623731
 10
2511.097852565259
 20
-3060.97303453484
 42
0.4142135623731
 10
2512.597852565259
 20
-3062.47303453484
 42
0.4142135623731
  0
LWPOLYLINE
  5
347
330
1F
100
AcDbEntity
  8
0-E
  6
Continuous
 62
     7
370
     9
100
AcDbPolyline
 90
        4
 70
     1
 43
3.0
 10
2514.097852565259
 20
-2955.972478709091
 42
0.4142135623731
 10
2512.597852565259
 20
-2954.472478709091
 42
0.4142135623731
 10
2511.097852565259
 20
-2955.972478709091
 42
0.4142135623731
 10
2512.597852565259
 20
-2957.472478709091
 42
0.4142135623731
  0
LINE
  5
348
330
1F
100
AcDbEntity
  8
0-E
  6
Continuous
 62
   120
370
     5
100
AcDbLine
 10
2512.597852565259
 20
-3060.97303453484
 30
0.0
 11
2669.040822809253
 21
-3060.97303453484
 31
0.0
  0
LINE
  5
349
330
1F
100
AcDbEntity
  8
0-E
  6
Continuous
 62
   120
370
     5
100
AcDbLine
 10
2512.597852565259
 20
-2955.972478709091
 30
0.0
 11
2669.040822809253
 21
-2955.972478709091
 31
0.0
  0
LWPOLYLINE
  5
34A
330
1F
100
AcDbEntity
  8
0-E
  6
Continuous
 62
     7
370
     9
100
AcDbPolyline
 90
        4
 70
     1
 43
3.0
 10
2514.097852565259
 20
-2196.765732176918
 42
0.4142135623731
 10
2512.597852565259
 20
-2195.265732176918
 42
0.4142135623731
 10
2511.097852565259
 20
-2196.765732176918
 42
0.4142135623731
 10
2512.597852565259
 20
-2198.265732176918
 42
0.4142135623731
  0
LINE
  5
34B
330
1F
100
AcDbEntity
  8
0-E
  6
Continuous
 62
   120
370
     5
100
AcDbLine
 10
2512.597852565259
 20
-2196.765732176918
 30
0.0
 11
2669.040822809253
 21
-2196.765732176918
 31
0.0
  0
LINE
  5
34C
330
1F
100
AcDbEntity
  8
0-E
  6
Continuous
 62
   120
370
     5
100
AcDbLine
 10
2512.597852565259
 20
-2196.765732176918
 30
0.0
 11
2512.597852565259
 21
-2073.765732176917
 31
0.0
  0
LWPOLYLINE
  5
34D
330
1F
100
AcDbEntity
  8
0-E
  6
Continuous
 62
     7
370
     9
100
AcDbPolyline
 90
        4
 70
     1
 43
3.0
 10
2514.097852565259
 20
-2073.765732176917
 42
0.4142135623731
 10
2512.597852565259
 20
-2072.265732176917
 42
0.4142135623731
 10
2511.097852565259
 20
-2073.765732176917
 42
0.4142135623731
 10
2512.597852565259
 20
-2075.265732176917
 42
0.4142135623731
  0
LINE
  5
34E
330
1F
100
AcDbEntity
  8
0-E
  6
Continuous
 62
   120
370
     5
100
AcDbLine
 10
2512.597852565259
 20
-2073.765732176917
 30
0.0
 11
2669.040822809253
 21
-2073.765732176917
 31
0.0
  0
LINE
  5
34F
330
1F
100
AcDbEntity
  8
0-E
  6
Continuous
 62
   120
370
     5
100
AcDbLine
 10
2669.040822809253
 20
-2889.451182300003
 30
0.0
 11
2669.040822809253
 21
-2985.973034534834
 31
0.0
  0
LINE
  5
350
330
1F
100
AcDbEntity
  8
0-E
  6
Continuous
 62
   120
370
     5
100
AcDbLine
 10
2954.392548548178
 20
-2617.331877124406
 30
0.0
 11
3298.919691047116
 21
-2617.331877124406
 31
0.0
  0
LWPOLYLINE
  5
351
330
1F
100
AcDbEntity
  8
0-E
  6
Continuous
 62
     7
370
     9
100
AcDbPolyline
 90
        4
 70
     1
 43
3.0
 10
2955.892548548178
 20
-2617.331877124406
 42
0.4142135623731
 10
2954.392548548178
 20
-2615.831877124406
 42
0.4142135623731
 10
2952.892548548178
 20
-2617.331877124406
 42
0.4142135623731
 10
2954.392548548178
 20
-2618.831877124406
 42
0.4142135623731
  0
LWPOLYLINE
  5
352
330
1F
100
AcDbEntity
  8
0-E
  6
Continuous
 62
     7
370
     9
100
AcDbPolyline
 90
        4
 70
     1
 43
3.0
 10
3300.419691047115
 20
-2617.331877124406
 42
0.4142135623731
 10
3298.919691047116
 20
-2615.831877124406
 42
0.4142135623731
 10
3297.419691047116
 20
-2617.331877124406
 42
0.4142135623731
 10
3298.919691047116
 20
-2618.831877124406
 42
0.4142135623731
  0
LINE
  5
353
330
1F
100
AcDbEntity
  8
0-E
  6
Continuous
 62
   120
370
     5
100
AcDbLine
 10
2954.392548548178
 20
-2617.331877124406
 30
0.0
 11
2954.392548548178
 21
-2779.279112782177
 31
0.0
  0
LINE
  5
354
330
1F
100
AcDbEntity
  8
0-E
  6
Continuous
 62
   120
370
     5
100
AcDbLine
 10
3298.919691047116
 20
-2617.331877124406
 30
0.0
 11
3298.919691047116
 21
-2779.279112782177
 31
0.0
  0
LINE
  5
355
330
1F
100
AcDbEntity
  8
0-E
  6
Continuous
 62
   120
370
     5
100
AcDbLine
 10
2789.990466770645
 20
-2779.279112782177
 30
0.0
 11
2976.892548548178
 21
-2779.279112782177
 31
0.0
  0
LINE
  5
356
330
1F
100
AcDbEntity
  8
0-E
  6
Continuous
 62
   120
370
     5
100
AcDbLine
 10
3276.892548548178
 20
-2779.279112782177
 30
0.0
 11
3470.201612503472
 21
-2779.279112782177
 31
0.0
  0
LINE
  5
357
330
1F
100
AcDbEntity
  8
0-E
  6
Continuous
 62
    92
370
    13
100
AcDbLine
 10
2205.587533354163
 20
194.9998020481422
 30
0.0
 11
2205.587533354163
 21
-3409.930654623817
 31
0.0
  0
LINE
  5
358
330
1F
100
AcDbEntity
  8
0-E
  6
Continuous
 62
    92
370
    13
100
AcDbLine
 10
4191.256895024741
 20
194.9998020481422
 30
0.0
 11
4191.256895024741
 21
-3409.930654623817
 31
0.0
  0
LINE
  5
359
330
1F
100
AcDbEntity
  8
0-E
  6
Continuous
 62
    92
370
    13
100
AcDbLine
 10
1255.04997401186
 20
-1184.663364290127
 30
0.0
 11
1255.04997401186
 21
-1134.663879789755
 31
0.0
  0
LINE
  5
35A
330
1F
100
AcDbEntity
  8
0-E
  6
Continuous
 62
    92
370
    13
100
AcDbLine
 10
1025.049710076048
 20
-1184.663364290127
 30
0.0
 11
1025.049710076048
 21
-1134.663879789755
 31
0.0
  0
LINE
  5
35B
330
1F
100
AcDbEntity
  8
0-E
  6
Continuous
 62
    92
370
    13
100
AcDbLine
 10
1040.049017244548
 20
-1204.663677713902
 30
0.0
 11
1240.049182204436
 21
-1204.663677713902
 31
0.0
  0
LINE
  5
35C
330
1F
100
AcDbEntity
  8
0-E
  6
Continuous
 62
    92
370
    13
100
AcDbLine
 10
1025.049710076048
 20
-1184.663364290127
 30
0.0
 11
1040.049017244548
 21
-1184.663364290127
 31
0.0
  0
LINE
  5
35D
330
1F
100
AcDbEntity
  8
0-E
  6
Continuous
 62
    92
370
    13
100
AcDbLine
 10
1040.049017244548
 20
-1204.663677713902
 30
0.0
 11
1040.049017244548
 21
-1184.663364290127
 31
0.0
  0
LINE
  5
35E
330
1F
100
AcDbEntity
  8
0-E
  6
Continuous
 62
    92
370
    13
100
AcDbLine
 10
1240.049182204436
 20
-1204.663677713902
 30
0.0
 11
1240.049182204436
 21
-1184.663364290127
 31
0.0
  0
LINE
  5
35F
330
1F
100
AcDbEntity
  8
0-E
  6
Continuous
 62
    92
370
    13
100
AcDbLine
 10
1255.04997401186
 20
-1184.663364290127
 30
0.0
 11
1240.049182204436
 21
-1184.663364290127
 31
0.0
  0
LWPOLYLINE
  5
360
330
1F
100
AcDbEntity
  8
0-E
  6
Continuous
 62
     7
370
     9
100
AcDbPolyline
 90
        4
 70
     1
 43
3.0
 10
681.548918268619
 20
-1512.173331990985
 42
0.4142135623731
 10
680.048918268619
 20
-1510.673331990985
 42
0.4142135623731
 10
678.5489182686189
 20
-1512.173331990985
 42
0.4142135623731
 10
680.048918268619
 20
-1513.673331990985
 42
0.4142135623731
  0
LINE
  5
361
330
1F
100
AcDbEntity
  8
0-E
  6
Continuous
 62
   120
370
     5
100
AcDbLine
 10
680.048918268619
 20
-1512.173331990985
 30
0.0
 11
680.048918268619
 21
-1332.173331990985
 31
0.0
  0
LWPOLYLINE
  5
362
330
1F
100
AcDbEntity
  8
0-E
  6
Continuous
 62
     7
370
     9
100
AcDbPolyline
 90
        4
 70
     1
 43
3.0
 10
681.5489182686181
 20
-200.8306533089103
 42
0.4142135623731
 10
680.0489182686181
 20
-199.3306533089103
 42
0.4142135623731
 10
678.5489182686181
 20
-200.8306533089103
 42
0.4142135623731
 10
680.0489182686181
 20
-202.3306533089103
 42
0.4142135623731
  0
LINE
  5
363
330
1F
100
AcDbEntity
  8
0-E
  6
Continuous
 62
   120
370
     5
100
AcDbLine
 10
680.0489182686181
 20
-200.8306533089103
 30
0.0
 11
680.0489182686181
 21
-344.3727031089111
 31
0.0
  0
MTEXT
  5
364
330
1F
100
AcDbEntity
  8
0-E
  6
Continuous
 62
     7
370
   211
100
AcDbMText
 10
1860.049627580352
 20
-1202.873778751829
 30
0.0
 40
68.58
 41
45.0
 46
0.0
 71
     7
 72
     1
  1
{\fＭＳ ゴシック|b0|i0|c128|p49;7}
 11
6.123031769111886E-17
 21
1.0
 31
0.0
 73
     1
 44
1.0
  0
LINE
  5
365
330
1F
100
AcDbEntity
  8
0-E
  6
Continuous
 62
   120
370
     5
100
AcDbLine
 10
1875.049627580352
 20
-1134.663879789755
 30
0.0
 11
1875.049627580352
 21
-1204.663677713902
 31
0.0
  0
LWPOLYLINE
  5
366
330
1F
100
AcDbEntity
  8
0-E
  6
Continuous
 62
     7
370
     9
100
AcDbPolyline
 90
        4
 70
     1
 43
3.0
 10
1876.549627580352
 20
-1134.663879789755
 42
0.4142135623731
 10
1875.049627580352
 20
-1133.163879789756
 42
0.4142135623731
 10
1873.549627580352
 20
-1134.663879789755
 42
0.4142135623731
 10
1875.049627580352
 20
-1136.163879789755
 42
0.4142135623731
  0
LWPOLYLINE
  5
367
330
1F
100
AcDbEntity
  8
0-E
  6
Continuous
 62
     7
370
     9
100
AcDbPolyline
 90
        4
 70
     1
 43
3.0
 10
1876.549627580352
 20
-1204.663677713902
 42
0.4142135623731
 10
1875.049627580352
 20
-1203.163677713903
 42
0.4142135623731
 10
1873.549627580352
 20
-1204.663677713902
 42
0.4142135623731
 10
1875.049627580352
 20
-1206.163677713902
 42
0.4142135623731
  0
LINE
  5
368
330
1F
100
AcDbEntity
  8
0-E
  6
Continuous
 62
   120
370
     5
100
AcDbLine
 10
1875.049627580352
 20
-1134.663879789755
 30
0.0
 11
1683.316319944081
 21
-1134.663879789755
 31
0.0
  0
LINE
  5
369
330
1F
100
AcDbEntity
  8
0-E
  6
Continuous
 62
   120
370
     5
100
AcDbLine
 10
1875.049627580352
 20
-1204.663677713902
 30
0.0
 11
1683.316319944081
 21
-1204.663677713902
 31
0.0
  0
LWPOLYLINE
  5
36A
330
1F
100
AcDbEntity
  8
0-E
  6
Continuous
 62
     7
370
     9
100
AcDbPolyline
 90
        4
 70
     1
 43
3.0
 10
1601.549281180364
 20
-1512.173331990985
 42
0.4142135623731
 10
1600.049281180364
 20
-1510.673331990985
 42
0.4142135623731
 10
1598.549281180364
 20
-1512.173331990985
 42
0.4142135623731
 10
1600.049281180364
 20
-1513.673331990985
 42
0.4142135623731
  0
LINE
  5
36B
330
1F
100
AcDbEntity
  8
0-E
  6
Continuous
 62
   120
370
     5
100
AcDbLine
 10
1600.049281180364
 20
-1512.173331990985
 30
0.0
 11
1600.049281180364
 21
-1332.173331990985
 31
0.0
  0
LWPOLYLINE
  5
36C
330
1F
100
AcDbEntity
  8
0-E
  6
Continuous
 62
     7
370
     9
100
AcDbPolyline
 90
        4
 70
     1
 43
3.0
 10
1601.549281180364
 20
-200.8306533089103
 42
0.4142135623731
 10
1600.049281180364
 20
-199.3306533089103
 42
0.4142135623731
 10
1598.549281180364
 20
-200.8306533089103
 42
0.4142135623731
 10
1600.049281180364
 20
-202.3306533089103
 42
0.4142135623731
  0
LINE
  5
36D
330
1F
100
AcDbEntity
  8
0-E
  6
Continuous
 62
   120
370
     5
100
AcDbLine
 10
1600.049281180364
 20
-200.8306533089103
 30
0.0
 11
1600.049281180364
 21
-344.3727031089111
 31
0.0
  0
LINE
  5
36E
330
1F
100
AcDbEntity
  8
0-E
  6
Continuous
 62
   120
370
     5
100
AcDbLine
 10
680.0489182686181
 20
-200.8306533089103
 30
0.0
 11
1600.049281180364
 21
-200.8306533089103
 31
0.0
  0
LWPOLYLINE
  5
36F
330
1F
100
AcDbEntity
  8
0-E
  6
Continuous
 62
     7
370
     9
100
AcDbPolyline
 90
        4
 70
     1
 43
3.0
 10
681.5489182686181
 20
-200.8306533089103
 42
0.4142135623731
 10
680.0489182686181
 20
-199.3306533089103
 42
0.4142135623731
 10
678.5489182686181
 20
-200.8306533089103
 42
0.4142135623731
 10
680.0489182686181
 20
-202.3306533089103
 42
0.4142135623731
  0
LWPOLYLINE
  5
370
330
1F
100
AcDbEntity
  8
0-E
  6
Continuous
 62
     7
370
     9
100
AcDbPolyline
 90
        4
 70
     1
 43
3.0
 10
1601.549281180364
 20
-200.8306533089103
 42
0.4142135623731
 10
1600.049281180364
 20
-199.3306533089103
 42
0.4142135623731
 10
1598.549281180364
 20
-200.8306533089103
 42
0.4142135623731
 10
1600.049281180364
 20
-202.3306533089103
 42
0.4142135623731
  0
MTEXT
  5
371
330
1F
100
AcDbEntity
  8
0-E
  6
Continuous
 62
     7
370
   211
100
AcDbMText
 10
1091.299099724492
 20
-193.6831533089103
 30
0.0
 40
74.295
 41
97.5
 46
0.0
 71
     7
 72
     1
  1
{\fＭＳ ゴシック|b0|i0|c128|p49;92}
 73
     1
 44
1.0
  0
LINE
  5
372
330
1F
100
AcDbEntity
  8
0-E
  6
JWW_HOJO
 62
   120
370
     5
100
AcDbLine
 10
680.0485718528597
 20
-344.3727031089111
 30
0.0
 11
1600.049281180364
 21
-344.3727031089111
 31
0.0
  0
LINE
  5
373
330
1F
100
AcDbEntity
  8
0-E
  6
JWW_HOJO
 62
   120
370
     5
100
AcDbLine
 10
680.0485718528597
 20
-394.3727031089108
 30
0.0
 11
1600.049281180364
 21
-394.3727031089108
 31
0.0
  0
LINE
  5
374
330
1F
100
AcDbEntity
  8
0-E
  6
Continuous
 62
   120
370
     5
100
AcDbLine
 10
680.048918268619
 20
-1512.173331990985
 30
0.0
 11
1025.049710076048
 21
-1512.173331990985
 31
0.0
  0
LWPOLYLINE
  5
375
330
1F
100
AcDbEntity
  8
0-E
  6
Continuous
 62
     7
370
     9
100
AcDbPolyline
 90
        4
 70
     1
 43
3.0
 10
681.548918268619
 20
-1512.173331990985
 42
0.4142135623731
 10
680.048918268619
 20
-1510.673331990985
 42
0.4142135623731
 10
678.5489182686189
 20
-1512.173331990985
 42
0.4142135623731
 10
680.048918268619
 20
-1513.673331990985
 42
0.4142135623731
  0
LWPOLYLINE
  5
376
330
1F
100
AcDbEntity
  8
0-E
  6
Continuous
 62
     7
370
     9
100
AcDbPolyline
 90
        4
 70
     1
 43
3.0
 10
1026.549710076047
 20
-1512.173331990985
 42
0.4142135623731
 10
1025.049710076048
 20
-1510.673331990985
 42
0.4142135623731
 10
1023.549710076048
 20
-1512.173331990985
 42
0.4142135623731
 10
1025.049710076048
 20
-1513.673331990985
 42
0.4142135623731
  0
MTEXT
  5
377
330
1F
100
AcDbEntity
  8
0-E
  6
Continuous
 62
     7
370
   211
100
AcDbMText
 10
751.299314172332
 20
-1503.597081990985
 30
0.0
 40
77.15249999999999
 41
202.5
 46
0.0
 71
     7
 72
     1
  1
{\fＭＳ ゴシック|b0|i0|c128|p49;34.5}
 73
     1
 44
1.0
  0
LINE
  5
378
330
1F
100
AcDbEntity
  8
0-E
  6
Continuous
 62
   120
370
     5
100
AcDbLine
 10
1600.049281180364
 20
-1512.173331990985
 30
0.0
 11
1255.04997401186
 21
-1512.173331990985
 31
0.0
  0
LWPOLYLINE
  5
379
330
1F
100
AcDbEntity
  8
0-E
  6
Continuous
 62
     7
370
     9
100
AcDbPolyline
 90
        4
 70
     1
 43
3.0
 10
1601.549281180364
 20
-1512.173331990985
 42
0.4142135623731
 10
1600.049281180364
 20
-1510.673331990985
 42
0.4142135623731
 10
1598.549281180364
 20
-1512.173331990985
 42
0.4142135623731
 10
1600.049281180364
 20
-1513.673331990985
 42
0.4142135623731
  0
LWPOLYLINE
  5
37A
330
1F
100
AcDbEntity
  8
0-E
  6
Continuous
 62
     7
370
     9
100
AcDbPolyline
 90
        4
 70
     1
 43
3.0
 10
1256.54997401186
 20
-1512.173331990985
 42
0.4142135623731
 10
1255.04997401186
 20
-1510.673331990985
 42
0.4142135623731
 10
1253.54997401186
 20
-1512.173331990985
 42
0.4142135623731
 10
1255.04997401186
 20
-1513.673331990985
 42
0.4142135623731
  0
MTEXT
  5
37B
330
1F
100
AcDbEntity
  8
0-E
  6
Continuous
 62
     7
370
   211
100
AcDbMText
 10
1326.299627596114
 20
-1503.597081990986
 30
0.0
 40
77.1524999999987
 41
202.4999999999966
 46
0.0
 71
     7
 72
     1
  1
{\fＭＳ ゴシック|b0|i0|c128|p49;34.5}
 73
     1
 44
1.0
  0
LINE
  5
37C
330
1F
100
AcDbEntity
  8
0-E
  6
Continuous
 62
    92
370
    13
100
AcDbLine
 10
680.0489182686181
 20
-394.3727031089108
 30
0.0
 11
680.0489182686181
 21
-1134.663879789755
 31
0.0
  0
LINE
  5
37D
330
1F
100
AcDbEntity
  8
0-E
  6
Continuous
 62
    92
370
    13
100
AcDbLine
 10
680.0489182686181
 20
-1134.663879789755
 30
0.0
 11
1025.049710076048
 21
-1134.663879789755
 31
0.0
  0
LINE
  5
37E
330
1F
100
AcDbEntity
  8
0-E
  6
Continuous
 62
    92
370
    13
100
AcDbLine
 10
1255.04997401186
 20
-1134.663879789755
 30
0.0
 11
1600.049281180364
 21
-1134.663879789755
 31
0.0
  0
LINE
  5
37F
330
1F
100
AcDbEntity
  8
0-E
  6
Continuous
 62
    92
370
    13
100
AcDbLine
 10
1600.049281180364
 20
-394.3727031089108
 30
0.0
 11
1600.049281180364
 21
-1134.663879789755
 31
0.0
  0
MTEXT
  5
380
330
1F
100
AcDbEntity
  8
0-E
  6
Continuous
 62
     7
370
   211
100
AcDbMText
 10
823.0321097357703
 20
-2579.771936329818
 30
0.0
 40
80.00999999999999
 41
210.0
 46
0.0
 71
     7
 72
     1
  1
{\fＭＳ ゴシック|b0|i0|c128|p49;33.5}
 11
6.123031769111886E-17
 21
1.0
 31
0.0
 73
     1
 44
1.0
  0
MTEXT
  5
381
330
1F
100
AcDbEntity
  8
0-E
  6
Continuous
 62
     7
370
   211
100
AcDbMText
 10
665.5102119910609
 20
-2712.056510733323
 30
0.0
 40
91.44
 41
120.0
 46
0.0
 71
     7
 72
     1
  1
{\fＭＳ ゴシック|b0|i0|c128|p49;25}
 11
6.123031769111886E-17
 21
1.0
 31
0.0
 73
     1
 44
1.0
  0
MTEXT
  5
382
330
1F
100
AcDbEntity
  8
0-E
  6
Continuous
 62
     7
370
   211
100
AcDbMText
 10
939.4292802733755
 20
-2715.806936329818
 30
0.0
 40
91.44
 41
120.0
 46
0.0
 71
     7
 72
     1
  1
{\fＭＳ ゴシック|b0|i0|c128|p49;92}
 11
6.123031769111886E-17
 21
1.0
 31
0.0
 73
     1
 44
1.0
  0
MTEXT
  5
383
330
1F
100
AcDbEntity
  8
0-E
  6
Continuous
 62
     7
370
   211
100
AcDbMText
 10
817.2122105379199
 20
-2930.771510733323
 30
0.0
 40
80.00999999999999
 41
210.0
 46
0.0
 71
     7
 72
     1
  1
{\fＭＳ ゴシック|b0|i0|c128|p49;33.5}
 11
6.123031769111886E-17
 21
1.0
 31
0.0
 73
     1
 44
1.0
  0
LINE
  5
384
330
1F
100
AcDbEntity
  8
0-E
  6
Continuous
 62
   120
370
     5
100
AcDbLine
 10
1102.26528646189
 20
-2365.527125601952
 30
0.0
 11
1102.26528646189
 21
-2226.372740186934
 31
0.0
  0
LINE
  5
385
330
1F
100
AcDbEntity
  8
0-E
  6
Continuous
 62
   120
370
     5
100
AcDbLine
 10
982.2652864618894
 20
-2566.526510733323
 30
0.0
 11
982.2652864618894
 21
-2226.372740186934
 31
0.0
  0
LINE
  5
386
330
1F
100
AcDbEntity
  8
0-E
  6
Continuous
 62
   120
370
     5
100
AcDbLine
 10
862.2652864618894
 20
-2566.526510733323
 30
0.0
 11
862.2652864618894
 21
-2226.372740186934
 31
0.0
  0
LINE
  5
387
330
1F
100
AcDbEntity
  8
0-E
  6
Continuous
 62
   120
370
     5
100
AcDbLine
 10
502.2652864618885
 20
-2566.526510733323
 30
0.0
 11
502.2652864618885
 21
-2226.372740186934
 31
0.0
  0
LINE
  5
388
330
1F
100
AcDbEntity
  8
0-E
  6
Continuous
 62
    92
370
    13
100
AcDbLine
 10
469.4719464588925
 20
-2566.526510733323
 30
0.0
 11
1084.264781684653
 21
-2566.526510733323
 31
0.0
  0
LINE
  5
389
330
1F
100
AcDbEntity
  8
0-E
  6
Continuous
 62
    92
370
    13
100
AcDbLine
 10
469.4719464588925
 20
-2716.526510733323
 30
0.0
 11
1084.264781684653
 21
-2716.526510733323
 31
0.0
  0
LINE
  5
38A
330
1F
100
AcDbEntity
  8
0-E
  6
Continuous
 62
   120
370
     5
100
AcDbLine
 10
1102.26528646189
 20
-2917.525895864694
 30
0.0
 11
1102.26528646189
 21
-3056.680281279713
 31
0.0
  0
LINE
  5
38B
330
1F
100
AcDbEntity
  8
0-E
  6
Continuous
 62
   120
370
     5
100
AcDbLine
 10
982.2652864618894
 20
-2716.526510733323
 30
0.0
 11
982.2652864618894
 21
-3056.680281279713
 31
0.0
  0
LINE
  5
38C
330
1F
100
AcDbEntity
  8
0-E
  6
Continuous
 62
   120
370
     5
100
AcDbLine
 10
862.2652864618894
 20
-2716.526510733323
 30
0.0
 11
862.2652864618894
 21
-3056.680281279713
 31
0.0
  0
LINE
  5
38D
330
1F
100
AcDbEntity
  8
0-E
  6
Continuous
 62
   120
370
     5
100
AcDbLine
 10
502.2652864618885
 20
-2716.526510733323
 30
0.0
 11
502.2652864618885
 21
-3056.680281279713
 31
0.0
  0
LINE
  5
38E
330
1F
100
AcDbEntity
  8
0-E
  6
Continuous
 62
   120
370
     5
100
AcDbLine
 10
742.2652864618894
 20
-2716.526510733323
 30
0.0
 11
742.2652864618894
 21
-3056.680281279713
 31
0.0
  0
LINE
  5
38F
330
1F
100
AcDbEntity
  8
0-E
  6
Continuous
 62
   120
370
     5
100
AcDbLine
 10
622.2652864618894
 20
-2716.526510733323
 30
0.0
 11
622.2652864618894
 21
-3056.680281279713
 31
0.0
  0
LINE
  5
390
330
1F
100
AcDbEntity
  8
0-E
  6
Continuous
 62
   120
370
     5
100
AcDbLine
 10
742.2652864618894
 20
-2566.526510733323
 30
0.0
 11
742.2652864618894
 21
-2226.372740186934
 31
0.0
  0
LINE
  5
391
330
1F
100
AcDbEntity
  8
0-E
  6
Continuous
 62
   120
370
     5
100
AcDbLine
 10
622.2652864618894
 20
-2566.526510733323
 30
0.0
 11
622.2652864618894
 21
-2226.372740186934
 31
0.0
  0
LINE
  5
392
330
1F
100
AcDbEntity
  8
0-E
  6
Continuous
 62
   120
370
     5
100
AcDbLine
 10
680.5102119910609
 20
-2716.526510733323
 30
0.0
 11
795.1368660553348
 21
-2716.526510733323
 31
0.0
  0
LINE
  5
393
330
1F
100
AcDbEntity
  8
0-E
  6
Continuous
 62
   120
370
     5
100
AcDbLine
 10
680.5102119910609
 20
-2566.526510733323
 30
0.0
 11
795.1368660553348
 21
-2566.526510733323
 31
0.0
  0
LWPOLYLINE
  5
394
330
1F
100
AcDbEntity
  8
0-E
  6
Continuous
 62
     7
370
     9
100
AcDbPolyline
 90
        4
 70
     1
 43
3.0
 10
682.0102119910609
 20
-2917.526510733323
 42
0.4142135623731
 10
680.5102119910609
 20
-2916.026510733323
 42
0.4142135623731
 10
679.0102119910608
 20
-2917.526510733323
 42
0.4142135623731
 10
680.5102119910609
 20
-2919.026510733322
 42
0.4142135623731
  0
LWPOLYLINE
  5
395
330
1F
100
AcDbEntity
  8
0-E
  6
Continuous
 62
     7
370
     9
100
AcDbPolyline
 90
        4
 70
     1
 43
3.0
 10
682.0102119910609
 20
-2716.526510733323
 42
0.4142135623731
 10
680.5102119910609
 20
-2715.026510733323
 42
0.4142135623731
 10
679.0102119910608
 20
-2716.526510733323
 42
0.4142135623731
 10
680.5102119910609
 20
-2718.026510733323
 42
0.4142135623731
  0
LWPOLYLINE
  5
396
330
1F
100
AcDbEntity
  8
0-E
  6
Continuous
 62
     7
370
     9
100
AcDbPolyline
 90
        4
 70
     1
 43
3.0
 10
682.0102119910609
 20
-2566.526510733323
 42
0.4142135623731
 10
680.5102119910609
 20
-2565.026510733323
 42
0.4142135623731
 10
679.0102119910608
 20
-2566.526510733323
 42
0.4142135623731
 10
680.5102119910609
 20
-2568.026510733323
 42
0.4142135623731
  0
LWPOLYLINE
  5
397
330
1F
100
AcDbEntity
  8
0-E
  6
Continuous
 62
     7
370
     9
100
AcDbPolyline
 90
        4
 70
     1
 43
3.0
 10
682.0102119910609
 20
-2365.527361926315
 42
0.4142135623731
 10
680.5102119910609
 20
-2364.027361926315
 42
0.4142135623731
 10
679.0102119910608
 20
-2365.527361926315
 42
0.4142135623731
 10
680.5102119910609
 20
-2367.027361926315
 42
0.4142135623731
  0
LINE
  5
398
330
1F
100
AcDbEntity
  8
0-E
  6
Continuous
 62
   120
370
     5
100
AcDbLine
 10
795.1368660553348
 20
-2917.526510733323
 30
0.0
 11
680.5102119910609
 21
-2917.526510733323
 31
0.0
  0
LINE
  5
399
330
1F
100
AcDbEntity
  8
0-E
  6
Continuous
 62
   120
370
     5
100
AcDbLine
 10
795.1368660553348
 20
-2365.527361926315
 30
0.0
 11
680.5102119910609
 21
-2365.527361926315
 31
0.0
  0
LINE
  5
39A
330
1F
100
AcDbEntity
  8
0-E
  6
Continuous
 62
   120
370
     5
100
AcDbLine
 10
680.5102119910609
 20
-2917.526510733323
 30
0.0
 11
680.5102119910609
 21
-2365.527361926315
 31
0.0
  0
LINE
  5
39B
330
1F
100
AcDbEntity
  8
0-E
  6
Continuous
 62
   120
370
     5
100
AcDbLine
 10
1222.26528646189
 20
-2917.525895864694
 30
0.0
 11
1222.26528646189
 21
-3056.680281279713
 31
0.0
  0
LINE
  5
39C
330
1F
100
AcDbEntity
  8
0-E
  6
Continuous
 62
   120
370
     5
100
AcDbLine
 10
1822.26528646189
 20
-2857.526510733323
 30
0.0
 11
1822.26528646189
 21
-3056.680281279713
 31
0.0
  0
LINE
  5
39D
330
1F
100
AcDbEntity
  8
0-E
  6
Continuous
 62
   120
370
     5
100
AcDbLine
 10
1942.26528646189
 20
-2857.526510733323
 30
0.0
 11
1942.26528646189
 21
-3056.680281279713
 31
0.0
  0
LINE
  5
39E
330
1F
100
AcDbEntity
  8
0-E
  6
Continuous
 62
   120
370
     5
100
AcDbLine
 10
954.4292802733755
 20
-2365.527361926315
 30
0.0
 11
954.4292802733755
 21
-2917.526510733323
 31
0.0
  0
LWPOLYLINE
  5
39F
330
1F
100
AcDbEntity
  8
0-E
  6
Continuous
 62
     7
370
     9
100
AcDbPolyline
 90
        4
 70
     1
 43
3.0
 10
955.9292802733756
 20
-2365.527361926315
 42
0.4142135623731
 10
954.4292802733755
 20
-2364.027361926315
 42
0.4142135623731
 10
952.9292802733755
 20
-2365.527361926315
 42
0.4142135623731
 10
954.4292802733755
 20
-2367.027361926315
 42
0.4142135623731
  0
LWPOLYLINE
  5
3A0
330
1F
100
AcDbEntity
  8
0-E
  6
Continuous
 62
     7
370
     9
100
AcDbPolyline
 90
        4
 70
     1
 43
3.0
 10
955.9292802733756
 20
-2917.526510733323
 42
0.4142135623731
 10
954.4292802733755
 20
-2916.026510733323
 42
0.4142135623731
 10
952.9292802733755
 20
-2917.526510733323
 42
0.4142135623731
 10
954.4292802733755
 20
-2919.026510733322
 42
0.4142135623731
  0
LINE
  5
3A1
330
1F
100
AcDbEntity
  8
0-E
  6
Continuous
 62
   120
370
     5
100
AcDbLine
 10
954.4292802733755
 20
-2365.527361926315
 30
0.0
 11
1056.277516235737
 21
-2365.527361926315
 31
0.0
  0
LINE
  5
3A2
330
1F
100
AcDbEntity
  8
0-E
  6
Continuous
 62
   120
370
     5
100
AcDbLine
 10
954.4292802733755
 20
-2917.526510733323
 30
0.0
 11
1056.277516235737
 21
-2917.526510733323
 31
0.0
  0
LINE
  5
3A3
330
1F
100
AcDbEntity
  8
0-E
  6
Continuous
 62
     7
370
     9
100
AcDbLine
 10
1294.264732196687
 20
-2701.527134281677
 30
0.0
 11
1282.265137997997
 21
-2701.527134281677
 31
0.0
  0
LINE
  5
3A4
330
1F
100
AcDbEntity
  8
0-E
  6
Continuous
 62
     7
370
     9
100
AcDbLine
 10
1282.265137997997
 20
-2701.527134281677
 30
0.0
 11
1282.265137997997
 21
-2581.52673837796
 31
0.0
  0
LINE
  5
3A5
330
1F
100
AcDbEntity
  8
0-E
  6
Continuous
 62
     7
370
     9
100
AcDbLine
 10
1282.265137997997
 20
-2581.52673837796
 30
0.0
 11
1294.264732196687
 21
-2581.52673837796
 31
0.0
  0
LINE
  5
3A6
330
1F
100
AcDbEntity
  8
0-E
  6
Continuous
 62
     7
370
     9
100
AcDbLine
 10
1282.265137997997
 20
-2671.527035305748
 30
0.0
 11
1264.264633220759
 21
-2671.527035305748
 31
0.0
  0
LINE
  5
3A7
330
1F
100
AcDbEntity
  8
0-E
  6
Continuous
 62
     7
370
     9
100
AcDbLine
 10
1264.264633220759
 20
-2611.52683735389
 30
0.0
 11
1282.265137997997
 21
-2611.52683735389
 31
0.0
  0
LINE
  5
3A8
330
1F
100
AcDbEntity
  8
0-E
  6
Continuous
 62
     7
370
     9
100
AcDbLine
 10
1270.264801479837
 20
-2671.527035305748
 30
0.0
 11
1270.264801479837
 21
-2611.52683735389
 31
0.0
  0
LINE
  5
3A9
330
1F
100
AcDbEntity
  8
0-E
  6
Continuous
 62
     7
370
     9
100
AcDbLine
 10
1276.264969738918
 20
-2671.527035305748
 30
0.0
 11
1276.264969738918
 21
-2611.52683735389
 31
0.0
  0
LINE
  5
3AA
330
1F
100
AcDbEntity
  8
0-E
  6
Continuous
 62
     7
370
     9
100
AcDbLine
 10
1264.264633220759
 20
-2671.527035305748
 30
0.0
 11
1264.264633220759
 21
-2611.52683735389
 31
0.0
  0
LINE
  5
3AB
330
1F
100
AcDbEntity
  8
0-E
  6
Continuous
 62
    92
370
    13
100
AcDbLine
 10
1234.264633220759
 20
-2875.526139573589
 30
0.0
 11
1264.264633220759
 21
-2875.526139573589
 31
0.0
  0
LINE
  5
3AC
330
1F
100
AcDbEntity
  8
0-E
  6
Continuous
 62
    92
370
    13
100
AcDbLine
 10
1234.264633220759
 20
-2875.526139573589
 30
0.0
 11
1234.264633220759
 21
-2917.526139573589
 31
0.0
  0
LINE
  5
3AD
330
1F
100
AcDbEntity
  8
0-E
  6
Continuous
 62
    92
370
    13
100
AcDbLine
 10
1198.264633220758
 20
-2917.526139573589
 30
0.0
 11
1234.264633220759
 21
-2917.526139573589
 31
0.0
  0
LINE
  5
3AE
330
1F
100
AcDbEntity
  8
0-E
  6
Continuous
 62
    92
370
    13
100
AcDbLine
 10
1198.264633220758
 20
-2875.526139573589
 30
0.0
 11
1198.264633220758
 21
-2917.526139573589
 31
0.0
  0
LINE
  5
3AF
330
1F
100
AcDbEntity
  8
0-E
  6
Continuous
 62
    92
370
    13
100
AcDbLine
 10
1144.264633220759
 20
-2875.526139573589
 30
0.0
 11
1198.264633220758
 21
-2875.526139573589
 31
0.0
  0
LINE
  5
3B0
330
1F
100
AcDbEntity
  8
0-E
  6
Continuous
 62
    92
370
    13
100
AcDbLine
 10
1144.264633220759
 20
-2875.526139573589
 30
0.0
 11
1144.264633220759
 21
-2917.526139573589
 31
0.0
  0
LINE
  5
3B1
330
1F
100
AcDbEntity
  8
0-E
  6
Continuous
 62
    92
370
    13
100
AcDbLine
 10
1264.264633220759
 20
-2875.526139573589
 30
0.0
 11
1264.264633220759
 21
-2365.52699076658
 31
0.0
  0
LINE
  5
3B2
330
1F
100
AcDbEntity
  8
0-E
  6
Continuous
 62
   120
370
     5
100
AcDbLine
 10
1186.471037623209
 20
-2365.52699076658
 30
0.0
 11
1084.264781684653
 21
-2467.732504385668
 31
0.0
  0
LINE
  5
3B3
330
1F
100
AcDbEntity
  8
0-E
  6
Continuous
 62
   120
370
     5
100
AcDbLine
 10
1264.264633220759
 20
-2372.585706586893
 30
0.0
 11
1084.264781684653
 21
-2552.585558122999
 31
0.0
  0
LINE
  5
3B4
330
1F
100
AcDbEntity
  8
0-E
  6
Continuous
 62
   120
370
     5
100
AcDbLine
 10
1264.264633220759
 20
-2457.438760324224
 30
0.0
 11
1084.264781684653
 21
-2637.439354179796
 31
0.0
  0
LINE
  5
3B5
330
1F
100
AcDbEntity
  8
0-E
  6
Continuous
 62
   120
370
     5
100
AcDbLine
 10
1264.264633220759
 20
-2542.291814061555
 30
0.0
 11
1084.264781684653
 21
-2722.291665597661
 31
0.0
  0
LINE
  5
3B6
330
1F
100
AcDbEntity
  8
0-E
  6
Continuous
 62
   120
370
     5
100
AcDbLine
 10
1264.264633220759
 20
-2627.144125479418
 30
0.0
 11
1084.264781684653
 21
-2807.144719334993
 31
0.0
  0
LINE
  5
3B7
330
1F
100
AcDbEntity
  8
0-E
  6
Continuous
 62
   120
370
     5
100
AcDbLine
 10
1264.264633220759
 20
-2711.997179216749
 30
0.0
 11
1084.264781684653
 21
-2891.997030752855
 31
0.0
  0
LINE
  5
3B8
330
1F
100
AcDbEntity
  8
0-E
  6
Continuous
 62
   120
370
     5
100
AcDbLine
 10
1264.264633220759
 20
-2796.85023295408
 30
0.0
 11
1185.588726601249
 21
-2875.526139573589
 31
0.0
  0
LINE
  5
3B9
330
1F
100
AcDbEntity
  8
0-E
  6
Continuous
 62
    92
370
    13
100
AcDbLine
 10
1090.264781684651
 20
-2917.526139573589
 30
0.0
 11
1144.264633220759
 21
-2917.526139573589
 31
0.0
  0
LINE
  5
3BA
330
1F
100
AcDbEntity
  8
0-E
  6
Continuous
 62
    92
370
    13
100
AcDbLine
 10
1084.264781684653
 20
-2911.526139573588
 30
0.0
 11
1090.264781684651
 21
-2917.526139573589
 31
0.0
  0
LINE
  5
3BB
330
1F
100
AcDbEntity
  8
0-E
  6
Continuous
 62
    92
370
    13
100
AcDbLine
 10
1090.264781684651
 20
-2365.52699076658
 30
0.0
 11
1264.264633220759
 21
-2365.52699076658
 31
0.0
  0
LINE
  5
3BC
330
1F
100
AcDbEntity
  8
0-E
  6
Continuous
 62
    92
370
    13
100
AcDbLine
 10
1084.264781684653
 20
-2371.52699076658
 30
0.0
 11
1084.264781684653
 21
-2911.526139573588
 31
0.0
  0
LINE
  5
3BD
330
1F
100
AcDbEntity
  8
0-E
  6
Continuous
 62
    92
370
    13
100
AcDbLine
 10
1090.264781684651
 20
-2365.52699076658
 30
0.0
 11
1084.264781684653
 21
-2371.52699076658
 31
0.0
  0
LINE
  5
3BE
330
1F
100
AcDbEntity
  8
0-E
  6
Continuous
 62
   120
370
     5
100
AcDbLine
 10
1264.264633220756
 20
-2415.193881284364
 30
0.0
 11
1262.597742702974
 21
-2413.526990766584
 31
0.0
  0
LINE
  5
3BF
330
1F
100
AcDbEntity
  8
0-E
  6
Continuous
 62
    40
370
    15
100
AcDbLine
 10
1264.264633220759
 20
-2884.757113649097
 30
0.0
 11
1911.546165439496
 21
-2884.757113649097
 31
0.0
  0
LINE
  5
3C0
330
1F
100
AcDbEntity
  8
0-E
  6
Continuous
 62
    40
370
    15
100
AcDbLine
 10
1264.264633220759
 20
-2959.757113649097
 30
0.0
 11
1911.546165439496
 21
-2959.757113649097
 31
0.0
  0
LINE
  5
3C1
330
1F
100
AcDbEntity
  8
0-E
  6
JWW_HOJO
 62
   120
370
     5
100
AcDbLine
 10
1911.546165439496
 20
-2884.757113649097
 30
0.0
 11
1911.546165439496
 21
-2959.757113649097
 31
0.0
  0
LINE
  5
3C2
330
1F
100
AcDbEntity
  8
0-E
  6
JWW_DASHED1
 62
   120
370
     5
100
AcDbLine
 10
1901.911863568552
 20
-2959.757113649098
 30
0.0
 11
1911.546165439496
 21
-2950.122811778155
 31
0.0
  0
LINE
  5
3C3
330
1F
100
AcDbEntity
  8
0-E
  6
JWW_DASHED1
 62
   120
370
     5
100
AcDbLine
 10
1859.485456697355
 20
-2959.757113649097
 30
0.0
 11
1911.546165439496
 21
-2907.696404906955
 31
0.0
  0
LINE
  5
3C4
330
1F
100
AcDbEntity
  8
0-E
  6
JWW_DASHED1
 62
   120
370
     5
100
AcDbLine
 10
1817.059049826157
 20
-2959.757113649091
 30
0.0
 11
1892.059049826154
 21
-2884.757113649097
 31
0.0
  0
LINE
  5
3C5
330
1F
100
AcDbEntity
  8
0-E
  6
JWW_DASHED1
 62
   120
370
     5
100
AcDbLine
 10
1774.632642954962
 20
-2959.75711364909
 30
0.0
 11
1849.632642954957
 21
-2884.757113649091
 31
0.0
  0
LINE
  5
3C6
330
1F
100
AcDbEntity
  8
0-E
  6
JWW_DASHED1
 62
   120
370
     5
100
AcDbLine
 10
1732.206236083764
 20
-2959.757113649088
 30
0.0
 11
1807.206236083762
 21
-2884.75711364909
 31
0.0
  0
LINE
  5
3C7
330
1F
100
AcDbEntity
  8
0-E
  6
JWW_DASHED1
 62
   120
370
     5
100
AcDbLine
 10
1689.77982921261
 20
-2959.757113649097
 30
0.0
 11
1764.779829212622
 21
-2884.757113649083
 31
0.0
  0
LINE
  5
3C8
330
1F
100
AcDbEntity
  8
0-E
  6
JWW_DASHED1
 62
   120
370
     5
100
AcDbLine
 10
1647.353422341403
 20
-2959.757113649103
 30
0.0
 11
1722.353422341414
 21
-2884.75711364909
 31
0.0
  0
LINE
  5
3C9
330
1F
100
AcDbEntity
  8
0-E
  6
JWW_DASHED1
 62
   120
370
     5
100
AcDbLine
 10
1604.927015470207
 20
-2959.757113649097
 30
0.0
 11
1679.927015470217
 21
-2884.757113649088
 31
0.0
  0
LINE
  5
3CA
330
1F
100
AcDbEntity
  8
0-E
  6
JWW_DASHED1
 62
   120
370
     5
100
AcDbLine
 10
1562.500608599003
 20
-2959.757113649103
 30
0.0
 11
1637.500608598998
 21
-2884.757113649105
 31
0.0
  0
LINE
  5
3CB
330
1F
100
AcDbEntity
  8
0-E
  6
JWW_DASHED1
 62
   120
370
     5
100
AcDbLine
 10
1520.074201727805
 20
-2959.757113649098
 30
0.0
 11
1595.074201727803
 21
-2884.757113649103
 31
0.0
  0
LINE
  5
3CC
330
1F
100
AcDbEntity
  8
0-E
  6
JWW_DASHED1
 62
   120
370
     5
100
AcDbLine
 10
1477.647794856608
 20
-2959.757113649097
 30
0.0
 11
1552.647794856605
 21
-2884.757113649101
 31
0.0
  0
LINE
  5
3CD
330
1F
100
AcDbEntity
  8
0-E
  6
JWW_DASHED1
 62
   120
370
     5
100
AcDbLine
 10
1435.221387985412
 20
-2959.757113649095
 30
0.0
 11
1510.221387985408
 21
-2884.757113649097
 31
0.0
  0
LINE
  5
3CE
330
1F
100
AcDbEntity
  8
0-E
  6
JWW_DASHED1
 62
   120
370
     5
100
AcDbLine
 10
1392.794981114273
 20
-2959.757113649088
 30
0.0
 11
1467.79498111427
 21
-2884.75711364909
 31
0.0
  0
LINE
  5
3CF
330
1F
100
AcDbEntity
  8
0-E
  6
JWW_DASHED1
 62
   120
370
     5
100
AcDbLine
 10
1350.368574243059
 20
-2959.757113649098
 30
0.0
 11
1425.368574243073
 21
-2884.757113649088
 31
0.0
  0
LINE
  5
3D0
330
1F
100
AcDbEntity
  8
0-E
  6
JWW_DASHED1
 62
   120
370
     5
100
AcDbLine
 10
1307.942167371863
 20
-2959.757113649097
 30
0.0
 11
1382.942167371873
 21
-2884.757113649088
 31
0.0
  0
LINE
  5
3D1
330
1F
100
AcDbEntity
  8
0-E
  6
JWW_DASHED1
 62
   120
370
     5
100
AcDbLine
 10
1265.515760500648
 20
-2959.757113649111
 30
0.0
 11
1340.515760500663
 21
-2884.757113649097
 31
0.0
  0
LINE
  5
3D2
330
1F
100
AcDbEntity
  8
0-E
  6
JWW_DASHED1
 62
   120
370
     5
100
AcDbLine
 10
1264.264633220769
 20
-2918.581834057792
 30
0.0
 11
1298.089353629449
 21
-2884.757113649111
 31
0.0
  0
LINE
  5
3D3
330
1F
100
AcDbEntity
  8
0-E
  6
Continuous
 62
    92
370
    13
100
AcDbLine
 10
1294.264732196687
 20
-2512.526490938138
 30
0.0
 11
1294.264732196687
 21
-2884.757113649097
 31
0.0
  0
LINE
  5
3D4
330
1F
100
AcDbEntity
  8
0-E
  6
Continuous
 62
   120
370
     5
100
AcDbLine
 10
1342.26528646189
 20
-2959.757113649098
 30
0.0
 11
1342.26528646189
 21
-3056.680281279713
 31
0.0
  0
LINE
  5
3D5
330
1F
100
AcDbEntity
  8
0-E
  6
Continuous
 62
   120
370
     5
100
AcDbLine
 10
1462.265286461889
 20
-2959.757113649097
 30
0.0
 11
1462.265286461889
 21
-3056.680281279713
 31
0.0
  0
LINE
  5
3D6
330
1F
100
AcDbEntity
  8
0-E
  6
Continuous
 62
   120
370
     5
100
AcDbLine
 10
1582.26528646189
 20
-2959.757113649097
 30
0.0
 11
1582.26528646189
 21
-3056.680281279713
 31
0.0
  0
LINE
  5
3D7
330
1F
100
AcDbEntity
  8
0-E
  6
Continuous
 62
   120
370
     5
100
AcDbLine
 10
1702.26528646189
 20
-2959.757113649097
 30
0.0
 11
1702.26528646189
 21
-3056.680281279713
 31
0.0
  0
LINE
  5
3D8
330
1F
100
AcDbEntity
  8
0-E
  6
Continuous
 62
    40
370
    15
100
AcDbLine
 10
1264.264633220759
 20
-2884.757113649097
 30
0.0
 11
1264.264633220759
 21
-2959.757113649097
 31
0.0
  0
MTEXT
  5
3D9
330
1F
100
AcDbEntity
  8
0-E
  6
Continuous
 62
     7
370
   211
100
AcDbMText
 10
1451.396217072317
 20
-2772.868324114143
 30
0.0
 40
91.44
 41
600.0
 46
0.0
 71
     7
 72
     1
  1
{\fＭＳ ゴシック|b0|i0|c128|p49;壁仕上げ面}
 73
     1
 44
1.0
  0
LINE
  5
3DA
330
1F
100
AcDbEntity
  8
0-E
  6
Continuous
 62
     7
370
     9
100
AcDbLine
 10
1443.553028319579
 20
-2767.421186765569
 30
0.0
 11
2047.935884851867
 21
-2767.421186765569
 31
0.0
  0
LINE
  5
3DB
330
1F
100
AcDbEntity
  8
0-E
  6
Continuous
 62
     7
370
     9
100
AcDbLine
 10
1332.088283516407
 20
-2960.48378801736
 30
0.0
 11
1443.553028319579
 21
-2767.421186765569
 31
0.0
  0
LINE
  5
3DC
330
1F
100
AcDbEntity
  8
0-E
  6
Continuous
 62
     7
370
     9
100
AcDbLine
 10
461.2639979607485
 20
-2055.153738836026
 30
0.0
 11
874.4768410080451
 21
-2055.153738836026
 31
0.0
  0
LINE
  5
3DD
330
1F
100
AcDbEntity
  8
0-E
  6
Continuous
 62
     7
370
     9
100
AcDbLine
 10
874.4768410080451
 20
-2055.153738836026
 30
0.0
 11
874.4768410080451
 21
-2194.831319584408
 31
0.0
  0
LINE
  5
3DE
330
1F
100
AcDbEntity
  8
0-E
  6
Continuous
 62
     7
370
     9
100
AcDbLine
 10
874.4768410080451
 20
-2194.831319584408
 30
0.0
 11
461.2639979607485
 21
-2194.831319584408
 31
0.0
  0
LINE
  5
3DF
330
1F
100
AcDbEntity
  8
0-E
  6
Continuous
 62
     7
370
     9
100
AcDbLine
 10
461.2639979607485
 20
-2194.831319584408
 30
0.0
 11
461.2639979607485
 21
-2055.153738836026
 31
0.0
  0
MTEXT
  5
3E0
330
1F
100
AcDbEntity
  8
0-E
  6
Continuous
 62
     7
370
     9
100
AcDbMText
 10
487.8704194843976
 20
-2199.272529210217
 30
0.0
 40
91.43999999999913
 41
359.9999999999966
 46
0.0
 71
     7
 72
     1
  1
{\fＭＳ ゴシック|b0|i0|c128|p49;収納側}
 73
     1
 44
1.0
  0
LINE
  5
3E1
330
1F
100
AcDbEntity
  8
0-E
  6
Continuous
 62
     7
370
     9
100
AcDbLine
 10
461.2639979607485
 20
-3237.373205557087
 30
0.0
 11
874.4768410080451
 21
-3237.373205557087
 31
0.0
  0
LINE
  5
3E2
330
1F
100
AcDbEntity
  8
0-E
  6
Continuous
 62
     7
370
     9
100
AcDbLine
 10
874.4768410080451
 20
-3237.373205557087
 30
0.0
 11
874.4768410080451
 21
-3097.695624808703
 31
0.0
  0
LINE
  5
3E3
330
1F
100
AcDbEntity
  8
0-E
  6
Continuous
 62
     7
370
     9
100
AcDbLine
 10
874.4768410080451
 20
-3097.695624808703
 30
0.0
 11
461.2639979607485
 21
-3097.695624808703
 31
0.0
  0
LINE
  5
3E4
330
1F
100
AcDbEntity
  8
0-E
  6
Continuous
 62
     7
370
     9
100
AcDbLine
 10
461.2639979607485
 20
-3097.695624808703
 30
0.0
 11
461.2639979607485
 21
-3237.373205557087
 31
0.0
  0
MTEXT
  5
3E5
330
1F
100
AcDbEntity
  8
0-E
  6
Continuous
 62
     7
370
     9
100
AcDbMText
 10
487.8704194843976
 20
-3241.814415182897
 30
0.0
 40
91.43999999999913
 41
359.9999999999966
 46
0.0
 71
     7
 72
     1
  1
{\fＭＳ ゴシック|b0|i0|c128|p49;室内側}
 73
     1
 44
1.0
  0
LINE
  5
3E6
330
1F
100
AcDbEntity
  8
1-E
  6
Continuous
 62
     7
370
     9
100
AcDbLine
 10
3227.498339138407
 20
-1055.819438934293
 30
0.0
 11
3354.17290389085
 21
-1198.504999416771
 31
0.0
  0
LINE
  5
3E7
330
1F
100
AcDbEntity
  8
1-E
  6
Continuous
 62
    40
370
    15
100
AcDbLine
 10
2586.892548548175
 20
-1087.287498605358
 30
0.0
 11
3666.892548548172
 21
-1087.287498605358
 31
0.0
  0
LINE
  5
3E8
330
1F
100
AcDbEntity
  8
1-E
  6
Continuous
 62
   120
370
     5
100
AcDbLine
 10
3696.892548548172
 20
-1087.287498605358
 30
0.0
 11
3966.892548548172
 21
-1087.287498605358
 31
0.0
  0
LWPOLYLINE
  5
3E9
330
1F
100
AcDbEntity
  8
1-E
  6
Continuous
 62
     7
370
     9
100
AcDbPolyline
 90
        4
 70
     1
 43
3.0
 10
3968.392548548173
 20
-1087.287498605358
 42
0.4142135623731
 10
3966.892548548172
 20
-1085.787498605359
 42
0.4142135623731
 10
3965.392548548172
 20
-1087.287498605358
 42
0.4142135623731
 10
3966.892548548172
 20
-1088.787498605358
 42
0.4142135623731
  0
LINE
  5
3EA
330
1F
100
AcDbEntity
  8
1-E
  6
Continuous
 62
   120
370
     5
100
AcDbLine
 10
2939.392548548175
 20
-1146.775523003422
 30
0.0
 11
2939.392548548175
 21
-1266.775523003422
 31
0.0
  0
LWPOLYLINE
  5
3EB
330
1F
100
AcDbEntity
  8
1-E
  6
Continuous
 62
     7
370
     9
100
AcDbPolyline
 90
        4
 70
     1
 43
3.0
 10
2940.892548548175
 20
-1266.775523003422
 42
0.4142135623731
 10
2939.392548548175
 20
-1265.275523003422
 42
0.4142135623731
 10
2937.892548548175
 20
-1266.775523003422
 42
0.4142135623731
 10
2939.392548548175
 20
-1268.275523003422
 42
0.4142135623731
  0
MTEXT
  5
3EC
330
1F
100
AcDbEntity
  8
1-E
  6
Continuous
 62
     7
370
     0
100
AcDbMText
 10
2929.886868154645
 20
-1391.48280824665
 30
0.0
 40
91.44
 41
60.0
 46
0.0
 71
     7
 72
     1
  1
{\fＭＳ ゴシック|b0|i0|c128|p49;1}
 73
     1
 44
1.0
  0
LINE
  5
3ED
330
1F
100
AcDbEntity
  8
1-E
  6
Continuous
 62
   120
370
     5
100
AcDbLine
 10
3314.392548548175
 20
-1146.775523003422
 30
0.0
 11
3314.392548548175
 21
-1266.775523003422
 31
0.0
  0
LWPOLYLINE
  5
3EE
330
1F
100
AcDbEntity
  8
1-E
  6
Continuous
 62
     7
370
     9
100
AcDbPolyline
 90
        4
 70
     1
 43
3.0
 10
3315.892548548175
 20
-1266.775523003422
 42
0.4142135623731
 10
3314.392548548175
 20
-1265.275523003422
 42
0.4142135623731
 10
3312.892548548175
 20
-1266.775523003422
 42
0.4142135623731
 10
3314.392548548175
 20
-1268.275523003422
 42
0.4142135623731
  0
MTEXT
  5
3EF
330
1F
100
AcDbEntity
  8
1-E
  6
Continuous
 62
     7
370
     0
100
AcDbMText
 10
3280.35231895701
 20
-1391.48280824665
 30
0.0
 40
91.44
 41
60.0
 46
0.0
 71
     7
 72
     1
  1
{\fＭＳ ゴシック|b0|i0|c128|p49;1}
 73
     1
 44
1.0
  0
LINE
  5
3F0
330
1F
100
AcDbEntity
  8
1-E
  6
Continuous
 62
   120
370
     5
100
AcDbLine
 10
2939.392548548175
 20
-1266.775523003422
 30
0.0
 11
3314.392548548175
 21
-1266.775523003422
 31
0.0
  0
LINE
  5
3F1
330
1F
100
AcDbEntity
  8
1-E
  6
Continuous
 62
   120
370
     5
100
AcDbLine
 10
3299.392548548175
 20
-1146.775523003422
 30
0.0
 11
3299.392548548175
 21
-1266.775523003422
 31
0.0
  0
LWPOLYLINE
  5
3F2
330
1F
100
AcDbEntity
  8
1-E
  6
Continuous
 62
     7
370
     9
100
AcDbPolyline
 90
        4
 70
     1
 43
3.0
 10
3300.892548548175
 20
-1266.775523003422
 42
0.4142135623731
 10
3299.392548548175
 20
-1265.275523003422
 42
0.4142135623731
 10
3297.892548548175
 20
-1266.775523003422
 42
0.4142135623731
 10
3299.392548548175
 20
-1268.275523003422
 42
0.4142135623731
  0
LINE
  5
3F3
330
1F
100
AcDbEntity
  8
1-E
  6
Continuous
 62
   120
370
     5
100
AcDbLine
 10
2954.392694348342
 20
-1146.775523003422
 30
0.0
 11
2954.392694348342
 21
-1266.775523003422
 31
0.0
  0
LWPOLYLINE
  5
3F4
330
1F
100
AcDbEntity
  8
1-E
  6
Continuous
 62
     7
370
     9
100
AcDbPolyline
 90
        4
 70
     1
 43
3.0
 10
2955.892694348341
 20
-1266.775523003422
 42
0.4142135623731
 10
2954.392694348342
 20
-1265.275523003422
 42
0.4142135623731
 10
2952.892694348342
 20
-1266.775523003422
 42
0.4142135623731
 10
2954.392694348342
 20
-1268.275523003422
 42
0.4142135623731
  0
MTEXT
  5
3F5
330
1F
100
AcDbEntity
  8
1-E
  6
Continuous
 62
     7
370
     0
100
AcDbMText
 10
3066.892621448256
 20
-1271.662389612536
 30
0.0
 40
91.44
 41
120.0
 46
0.0
 71
     7
 72
     1
  1
{\fＭＳ ゴシック|b0|i0|c128|p49;23}
 73
     1
 44
1.0
  0
LINE
  5
3F6
330
1F
100
AcDbEntity
  8
1-E
  6
Continuous
 62
   120
370
     5
100
AcDbLine
 10
3696.892548548172
 20
-1012.287498605359
 30
0.0
 11
3966.892548548172
 21
-1012.287498605359
 31
0.0
  0
LWPOLYLINE
  5
3F7
330
1F
100
AcDbEntity
  8
1-E
  6
Continuous
 62
     7
370
     9
100
AcDbPolyline
 90
        4
 70
     1
 43
3.0
 10
3968.392548548173
 20
-1012.287498605359
 42
0.4142135623731
 10
3966.892548548172
 20
-1010.787498605359
 42
0.4142135623731
 10
3965.392548548172
 20
-1012.287498605359
 42
0.4142135623731
 10
3966.892548548172
 20
-1013.787498605358
 42
0.4142135623731
  0
LINE
  5
3F8
330
1F
100
AcDbEntity
  8
1-E
  6
Continuous
 62
   120
370
     5
100
AcDbLine
 10
2886.892548548175
 20
-825.4475616530246
 30
0.0
 11
2886.892548548175
 21
-465.4475616530246
 31
0.0
  0
LWPOLYLINE
  5
3F9
330
1F
100
AcDbEntity
  8
1-E
  6
Continuous
 62
     7
370
     9
100
AcDbPolyline
 90
        4
 70
     1
 43
3.0
 10
2888.392548548175
 20
-705.4475616530246
 42
0.4142135623731
 10
2886.892548548175
 20
-703.9475616530245
 42
0.4142135623731
 10
2885.392548548175
 20
-705.4475616530246
 42
0.4142135623731
 10
2886.892548548175
 20
-706.9475616530246
 42
0.4142135623731
  0
LWPOLYLINE
  5
3FA
330
1F
100
AcDbEntity
  8
1-E
  6
Continuous
 62
     7
370
     9
100
AcDbPolyline
 90
        4
 70
     1
 43
3.0
 10
2888.392548548175
 20
-585.4475616530246
 42
0.4142135623731
 10
2886.892548548175
 20
-583.9475616530245
 42
0.4142135623731
 10
2885.392548548175
 20
-585.4475616530246
 42
0.4142135623731
 10
2886.892548548175
 20
-586.9475616530246
 42
0.4142135623731
  0
LWPOLYLINE
  5
3FB
330
1F
100
AcDbEntity
  8
1-E
  6
Continuous
 62
     7
370
     9
100
AcDbPolyline
 90
        4
 70
     1
 43
3.0
 10
2888.392548548175
 20
-465.4475616530246
 42
0.4142135623731
 10
2886.892548548175
 20
-463.9475616530246
 42
0.4142135623731
 10
2885.392548548175
 20
-465.4475616530246
 42
0.4142135623731
 10
2886.892548548175
 20
-466.9475616530246
 42
0.4142135623731
  0
MTEXT
  5
3FC
330
1F
100
AcDbEntity
  8
1-E
  6
Continuous
 62
     7
370
   211
100
AcDbMText
 10
2651.211433020477
 20
-599.4686170618502
 30
0.0
 40
91.44
 41
240.0
 46
0.0
 71
     7
 72
     1
  1
{\fＭＳ ゴシック|b0|i0|c128|p49;10.5}
 73
     1
 44
1.0
  0
LINE
  5
3FD
330
1F
100
AcDbEntity
  8
1-E
  6
Continuous
 62
   120
370
     5
100
AcDbLine
 10
2886.892548548175
 20
-585.4475616530246
 30
0.0
 11
3366.892548548175
 21
-585.4475616530246
 31
0.0
  0
LINE
  5
3FE
330
1F
100
AcDbEntity
  8
1-E
  6
Continuous
 62
   120
370
     5
100
AcDbLine
 10
2886.892548548175
 20
-465.4475616530246
 30
0.0
 11
3366.892548548175
 21
-465.4475616530246
 31
0.0
  0
LWPOLYLINE
  5
3FF
330
1F
100
AcDbEntity
  8
1-E
  6
Continuous
 62
     7
370
     9
100
AcDbPolyline
 90
        4
 70
     1
 43
3.0
 10
3368.392548548175
 20
-705.4475616530246
 42
0.4142135623731
 10
3366.892548548175
 20
-703.9475616530245
 42
0.4142135623731
 10
3365.392548548175
 20
-705.4475616530246
 42
0.4142135623731
 10
3366.892548548175
 20
-706.9475616530246
 42
0.4142135623731
  0
LWPOLYLINE
  5
400
330
1F
100
AcDbEntity
  8
1-E
  6
Continuous
 62
     7
370
     9
100
AcDbPolyline
 90
        4
 70
     1
 43
3.0
 10
3368.392548548175
 20
-585.4475616530246
 42
0.4142135623731
 10
3366.892548548175
 20
-583.9475616530245
 42
0.4142135623731
 10
3365.392548548175
 20
-585.4475616530246
 42
0.4142135623731
 10
3366.892548548175
 20
-586.9475616530246
 42
0.4142135623731
  0
LWPOLYLINE
  5
401
330
1F
100
AcDbEntity
  8
1-E
  6
Continuous
 62
     7
370
     9
100
AcDbPolyline
 90
        4
 70
     1
 43
3.0
 10
3368.392548548175
 20
-465.4475616530246
 42
0.4142135623731
 10
3366.892548548175
 20
-463.9475616530246
 42
0.4142135623731
 10
3365.392548548175
 20
-465.4475616530246
 42
0.4142135623731
 10
3366.892548548175
 20
-466.9475616530246
 42
0.4142135623731
  0
LINE
  5
402
330
1F
100
AcDbEntity
  8
1-E
  6
Continuous
 62
   120
370
     5
100
AcDbLine
 10
3366.892548548175
 20
-825.4475616530246
 30
0.0
 11
3366.892548548175
 21
-465.4475616530246
 31
0.0
  0
MTEXT
  5
403
330
1F
100
AcDbEntity
  8
1-E
  6
Continuous
 62
     7
370
   211
100
AcDbMText
 10
3368.144639033153
 20
-599.4686170618502
 30
0.0
 40
91.44
 41
240.0
 46
0.0
 71
     7
 72
     1
  1
{\fＭＳ ゴシック|b0|i0|c128|p49;10.5}
 73
     1
 44
1.0
  0
LINE
  5
404
330
1F
100
AcDbEntity
  8
1-E
  6
Continuous
 62
   120
370
     5
100
AcDbLine
 10
3696.892548548172
 20
-907.2874986053586
 30
0.0
 11
3966.892548548172
 21
-907.2874986053586
 31
0.0
  0
LWPOLYLINE
  5
405
330
1F
100
AcDbEntity
  8
1-E
  6
Continuous
 62
     7
370
     9
100
AcDbPolyline
 90
        4
 70
     1
 43
3.0
 10
3968.392548548173
 20
-907.2874986053586
 42
0.4142135623731
 10
3966.892548548172
 20
-905.7874986053586
 42
0.4142135623731
 10
3965.392548548172
 20
-907.2874986053586
 42
0.4142135623731
 10
3966.892548548172
 20
-908.7874986053586
 42
0.4142135623731
  0
LWPOLYLINE
  5
406
330
1F
100
AcDbEntity
  8
1-E
  6
Continuous
 62
     7
370
     9
100
AcDbPolyline
 90
        4
 70
     1
 43
3.0
 10
3045.892548548175
 20
-585.4475616530246
 42
0.4142135623731
 10
3044.392548548175
 20
-583.9475616530245
 42
0.4142135623731
 10
3042.892548548175
 20
-585.4475616530246
 42
0.4142135623731
 10
3044.392548548175
 20
-586.9475616530246
 42
0.4142135623731
  0
LINE
  5
407
330
1F
100
AcDbEntity
  8
1-E
  6
Continuous
 62
   120
370
     5
100
AcDbLine
 10
3044.392548548175
 20
-585.4475616530246
 30
0.0
 11
3044.392548548175
 21
-825.4475616530246
 31
0.0
  0
LWPOLYLINE
  5
408
330
1F
100
AcDbEntity
  8
1-E
  6
Continuous
 62
     7
370
     9
100
AcDbPolyline
 90
        4
 70
     1
 43
3.0
 10
3210.892548548175
 20
-585.4475616530246
 42
0.4142135623731
 10
3209.392548548175
 20
-583.9475616530245
 42
0.4142135623731
 10
3207.892548548175
 20
-585.4475616530246
 42
0.4142135623731
 10
3209.392548548175
 20
-586.9475616530246
 42
0.4142135623731
  0
LINE
  5
409
330
1F
100
AcDbEntity
  8
1-E
  6
Continuous
 62
   120
370
     5
100
AcDbLine
 10
3209.392548548175
 20
-585.4475616530246
 30
0.0
 11
3209.392548548175
 21
-825.4475616530246
 31
0.0
  0
MTEXT
  5
40A
330
1F
100
AcDbEntity
  8
1-E
  6
Continuous
 62
     7
370
   211
100
AcDbMText
 10
3066.892548548175
 20
-599.4686170618502
 30
0.0
 40
91.44
 41
120.0
 46
0.0
 71
     7
 72
     1
  1
{\fＭＳ ゴシック|b0|i0|c128|p49;11}
 73
     1
 44
1.0
  0
LINE
  5
40B
330
1F
100
AcDbEntity
  8
1-E
  6
Continuous
 62
    40
370
    15
100
AcDbLine
 10
2939.60805307524
 20
-907.2874986053586
 30
0.0
 11
2586.892548548175
 21
-907.2874986053586
 31
0.0
  0
LINE
  5
40C
330
1F
100
AcDbEntity
  8
1-E
  6
Continuous
 62
    40
370
    15
100
AcDbLine
 10
3314.17704402111
 20
-907.2874986053586
 30
0.0
 11
3666.892548548172
 21
-907.2874986053586
 31
0.0
  0
MTEXT
  5
40D
330
1F
100
AcDbEntity
  8
1-E
  6
Continuous
 62
     7
370
     0
100
AcDbMText
 10
3959.545319898649
 20
-1094.067498605358
 30
0.0
 40
91.44
 41
60.0
 46
0.0
 71
     7
 72
     1
  1
{\fＭＳ ゴシック|b0|i0|c128|p49;5}
 11
6.123031769111886E-17
 21
1.0
 31
0.0
 73
     1
 44
1.0
  0
MTEXT
  5
40E
330
1F
100
AcDbEntity
  8
1-E
  6
Continuous
 62
     7
370
     0
100
AcDbMText
 10
3958.284830073361
 20
-1004.067498605359
 30
0.0
 40
91.44
 41
60.0
 46
0.0
 71
     7
 72
     1
  1
{\fＭＳ ゴシック|b0|i0|c128|p49;7}
 11
6.123031769111886E-17
 21
1.0
 31
0.0
 73
     1
 44
1.0
  0
MTEXT
  5
40F
330
1F
100
AcDbEntity
  8
1-E
  6
Continuous
 62
     7
370
     0
100
AcDbMText
 10
3066.892548548175
 20
-479.4685269937526
 30
0.0
 40
91.44
 41
120.0
 46
0.0
 71
     7
 72
     1
  1
{\fＭＳ ゴシック|b0|i0|c128|p49;32}
 73
     1
 44
1.0
  0
LINE
  5
410
330
1F
100
AcDbEntity
  8
1-E
  6
Continuous
 62
     7
370
     9
100
AcDbLine
 10
2939.392548548175
 20
-943.2874986053582
 30
0.0
 11
2586.892548548175
 21
-943.2874986053582
 31
0.0
  0
LINE
  5
411
330
1F
100
AcDbEntity
  8
1-E
  6
Continuous
 62
     7
370
     9
100
AcDbLine
 10
2939.392548548175
 20
-979.2874986053579
 30
0.0
 11
2586.892548548175
 21
-979.2874986053579
 31
0.0
  0
LINE
  5
412
330
1F
100
AcDbEntity
  8
1-E
  6
Continuous
 62
     7
370
     9
100
AcDbLine
 10
2939.392548548175
 20
-1015.287498605358
 30
0.0
 11
2586.892548548175
 21
-1015.287498605358
 31
0.0
  0
LINE
  5
413
330
1F
100
AcDbEntity
  8
1-E
  6
Continuous
 62
     7
370
     9
100
AcDbLine
 10
2939.392548548175
 20
-1051.287498605358
 30
0.0
 11
2586.892548548175
 21
-1051.287498605358
 31
0.0
  0
LINE
  5
414
330
1F
100
AcDbEntity
  8
1-E
  6
Continuous
 62
     7
370
     9
100
AcDbLine
 10
3666.892548548172
 20
-943.715468843309
 30
0.0
 11
3314.392548548175
 21
-943.715468843309
 31
0.0
  0
LINE
  5
415
330
1F
100
AcDbEntity
  8
1-E
  6
Continuous
 62
     7
370
     9
100
AcDbLine
 10
3666.892548548172
 20
-979.7154688433096
 30
0.0
 11
3314.392548548175
 21
-979.7154688433096
 31
0.0
  0
LINE
  5
416
330
1F
100
AcDbEntity
  8
1-E
  6
Continuous
 62
     7
370
     9
100
AcDbLine
 10
3666.892548548172
 20
-1015.715468843309
 30
0.0
 11
3314.392548548175
 21
-1015.715468843309
 31
0.0
  0
LINE
  5
417
330
1F
100
AcDbEntity
  8
1-E
  6
Continuous
 62
     7
370
     9
100
AcDbLine
 10
3666.892548548172
 20
-1051.715468843309
 30
0.0
 11
3314.392548548175
 21
-1051.715468843309
 31
0.0
  0
LINE
  5
418
330
1F
100
AcDbEntity
  8
1-E
  6
Continuous
 62
   120
370
     5
100
AcDbLine
 10
3966.892548548172
 20
-1087.287498605358
 30
0.0
 11
3966.892548548172
 21
-889.2874986053579
 31
0.0
  0
LINE
  5
419
330
1F
100
AcDbEntity
  8
1-E
  6
Continuous
 62
   120
370
     5
100
AcDbLine
 10
3696.892548548172
 20
-889.2874986053579
 30
0.0
 11
3966.892548548172
 21
-889.2874986053579
 31
0.0
  0
LWPOLYLINE
  5
41A
330
1F
100
AcDbEntity
  8
1-E
  6
Continuous
 62
     7
370
     9
100
AcDbPolyline
 90
        4
 70
     1
 43
3.0
 10
3968.392548548173
 20
-889.2874986053579
 42
0.4142135623731
 10
3966.892548548172
 20
-887.7874986053579
 42
0.4142135623731
 10
3965.392548548172
 20
-889.2874986053579
 42
0.4142135623731
 10
3966.892548548172
 20
-890.7874986053579
 42
0.4142135623731
  0
LINE
  5
41B
330
1F
100
AcDbEntity
  8
1-E
  6
Continuous
 62
   120
370
     5
100
AcDbLine
 10
3272.392548548172
 20
-705.4475616530246
 30
0.0
 11
3366.892548548175
 21
-705.4475616530246
 31
0.0
  0
LWPOLYLINE
  5
41C
330
1F
100
AcDbEntity
  8
1-E
  6
Continuous
 62
     7
370
     9
100
AcDbPolyline
 90
        4
 70
     1
 43
3.0
 10
3273.892548548172
 20
-705.4475616530246
 42
0.4142135623731
 10
3272.392548548172
 20
-703.9475616530245
 42
0.4142135623731
 10
3270.892548548172
 20
-705.4475616530246
 42
0.4142135623731
 10
3272.392548548172
 20
-706.9475616530246
 42
0.4142135623731
  0
LINE
  5
41D
330
1F
100
AcDbEntity
  8
1-E
  6
Continuous
 62
   120
370
     5
100
AcDbLine
 10
3272.392548548172
 20
-705.4475616530246
 30
0.0
 11
3272.392548548172
 21
-825.4475616530246
 31
0.0
  0
LINE
  5
41E
330
1F
100
AcDbEntity
  8
1-E
  6
Continuous
 62
   120
370
     5
100
AcDbLine
 10
2886.892548548175
 20
-705.4475616530246
 30
0.0
 11
2981.392548548174
 21
-705.4475616530246
 31
0.0
  0
LINE
  5
41F
330
1F
100
AcDbEntity
  8
1-E
  6
Continuous
 62
   120
370
     5
100
AcDbLine
 10
2981.392548548174
 20
-705.4475616530246
 30
0.0
 11
2981.392548548174
 21
-825.4475616530246
 31
0.0
  0
LWPOLYLINE
  5
420
330
1F
100
AcDbEntity
  8
1-E
  6
Continuous
 62
     7
370
     9
100
AcDbPolyline
 90
        4
 70
     1
 43
3.0
 10
2982.892548548174
 20
-705.4475616530246
 42
0.4142135623731
 10
2981.392548548174
 20
-703.9475616530245
 42
0.4142135623731
 10
2979.892548548174
 20
-705.4475616530246
 42
0.4142135623731
 10
2981.392548548174
 20
-706.9475616530246
 42
0.4142135623731
  0
MTEXT
  5
421
330
1F
100
AcDbEntity
  8
1-E
  6
Continuous
 62
     7
370
   211
100
AcDbMText
 10
3282.293043922698
 20
-719.4686170618502
 30
0.0
 40
91.44
 41
180.0
 46
0.0
 71
     7
 72
     1
  1
{\fＭＳ ゴシック|b0|i0|c128|p49;6.3}
 73
     1
 44
1.0
  0
MTEXT
  5
422
330
1F
100
AcDbEntity
  8
1-E
  6
Continuous
 62
     7
370
   211
100
AcDbMText
 10
2788.738289625126
 20
-722.1761935068901
 30
0.0
 40
91.44
 41
180.0
 46
0.0
 71
     7
 72
     1
  1
{\fＭＳ ゴシック|b0|i0|c128|p49;6.3}
 73
     1
 44
1.0
  0
MTEXT
  5
423
330
1F
100
AcDbEntity
  8
1-E
  6
Continuous
 62
     7
370
     0
100
AcDbMText
 10
3960.805809723937
 20
-904.0525656568042
 30
0.0
 40
91.44
 41
180.0
 46
0.0
 71
     7
 72
     1
  1
{\fＭＳ ゴシック|b0|i0|c128|p49;1.2}
 11
6.123031769111886E-17
 21
1.0
 31
0.0
 73
     1
 44
1.0
  0
LINE
  5
424
330
1F
100
AcDbEntity
  8
1-E
  6
Continuous
 62
   120
370
     5
100
AcDbLine
 10
2954.392548548175
 20
-1032.586777783632
 30
0.0
 11
2976.892548548175
 21
-1010.086777783631
 31
0.0
  0
LINE
  5
425
330
1F
100
AcDbEntity
  8
1-E
  6
Continuous
 62
    92
370
    13
100
AcDbLine
 10
2976.892548548175
 20
-1012.287498605359
 30
0.0
 11
3276.892548548175
 21
-1012.287498605359
 31
0.0
  0
LINE
  5
426
330
1F
100
AcDbEntity
  8
1-E
  6
Continuous
 62
    92
370
    13
100
AcDbLine
 10
2976.892548548175
 20
-982.2874986053578
 30
0.0
 11
2976.892548548175
 21
-1012.287498605359
 31
0.0
  0
LINE
  5
427
330
1F
100
AcDbEntity
  8
1-E
  6
Continuous
 62
    92
370
    13
100
AcDbLine
 10
2976.892548548175
 20
-982.2874986053578
 30
0.0
 11
2954.392402748008
 21
-982.2874986053578
 31
0.0
  0
LINE
  5
428
330
1F
100
AcDbEntity
  8
1-E
  6
Continuous
 62
    92
370
    13
100
AcDbLine
 10
3276.892548548175
 20
-982.2874986053578
 30
0.0
 11
3298.919836847288
 21
-982.2874986053578
 31
0.0
  0
LINE
  5
429
330
1F
100
AcDbEntity
  8
1-E
  6
Continuous
 62
    92
370
    13
100
AcDbLine
 10
3276.892548548175
 20
-982.2874986053578
 30
0.0
 11
3276.892548548175
 21
-1012.287498605359
 31
0.0
  0
LINE
  5
42A
330
1F
100
AcDbEntity
  8
1-E
  6
Continuous
 62
    92
370
    13
100
AcDbLine
 10
3298.919691047118
 20
-982.2869427796098
 30
0.0
 11
3298.919691047118
 21
-1087.287498605358
 31
0.0
  0
LINE
  5
42B
330
1F
100
AcDbEntity
  8
1-E
  6
Continuous
 62
    92
370
    13
100
AcDbLine
 10
2954.392548548175
 20
-982.2869427796098
 30
0.0
 11
2954.392548548175
 21
-1087.287498605358
 31
0.0
  0
LINE
  5
42C
330
1F
100
AcDbEntity
  8
1-E
  6
Continuous
 62
    92
370
    13
100
AcDbLine
 10
2954.392548548175
 20
-1087.287498605358
 30
0.0
 11
3298.919691047118
 21
-1087.287498605358
 31
0.0
  0
LINE
  5
42D
330
1F
100
AcDbEntity
  8
1-E
  6
Continuous
 62
   120
370
     5
100
AcDbLine
 10
3281.529489567193
 20
-1087.287498605358
 30
0.0
 11
3298.919691047118
 21
-1069.897297125432
 31
0.0
  0
LINE
  5
42E
330
1F
100
AcDbEntity
  8
1-E
  6
Continuous
 62
   120
370
     5
100
AcDbLine
 10
2963.331438033248
 20
-1087.287498605358
 30
0.0
 11
3038.331438033248
 21
-1012.287498605359
 31
0.0
  0
LINE
  5
42F
330
1F
100
AcDbEntity
  8
1-E
  6
Continuous
 62
   120
370
     5
100
AcDbLine
 10
3154.250268953593
 20
-1087.287498605358
 30
0.0
 11
3229.250268953593
 21
-1012.287498605359
 31
0.0
  0
LINE
  5
430
330
1F
100
AcDbEntity
  8
1-E
  6
Continuous
 62
   120
370
     5
100
AcDbLine
 10
3090.610658646793
 20
-1087.287498605358
 30
0.0
 11
3165.6106586468
 21
-1012.287498605353
 31
0.0
  0
LINE
  5
431
330
1F
100
AcDbEntity
  8
1-E
  6
Continuous
 62
   120
370
     5
100
AcDbLine
 10
3026.971048339993
 20
-1087.287498605358
 30
0.0
 11
3101.971048340004
 21
-1012.287498605348
 31
0.0
  0
LINE
  5
432
330
1F
100
AcDbEntity
  8
1-E
  6
Continuous
 62
   120
370
     5
100
AcDbLine
 10
3217.889879260393
 20
-1087.287498605358
 30
0.0
 11
3298.919691047118
 21
-1006.257686818633
 31
0.0
  0
LINE
  5
433
330
1F
100
AcDbEntity
  8
1-E
  6
Continuous
 62
     7
370
     9
100
AcDbLine
 10
2999.392548548175
 20
-994.2874986053579
 30
0.0
 11
3029.392548548175
 21
-994.2874986053579
 31
0.0
  0
LINE
  5
434
330
1F
100
AcDbEntity
  8
1-E
  6
Continuous
 62
     7
370
     9
100
AcDbLine
 10
3044.392548548175
 20
-994.2874986053579
 30
0.0
 11
3122.392548548175
 21
-994.2874986053579
 31
0.0
  0
LINE
  5
435
330
1F
100
AcDbEntity
  8
1-E
  6
Continuous
 62
     7
370
     9
100
AcDbLine
 10
3122.392548548175
 20
-994.2874986053579
 30
0.0
 11
3126.892548548175
 21
-998.787498605358
 31
0.0
  0
LINE
  5
436
330
1F
100
AcDbEntity
  8
1-E
  6
Continuous
 62
     7
370
     9
100
AcDbLine
 10
3126.892548548175
 20
-998.787498605358
 30
0.0
 11
3131.392548548177
 21
-994.2874986053579
 31
0.0
  0
LINE
  5
437
330
1F
100
AcDbEntity
  8
1-E
  6
Continuous
 62
     7
370
     9
100
AcDbLine
 10
3131.392548548177
 20
-994.2874986053579
 30
0.0
 11
3209.392548548175
 21
-994.2874986053579
 31
0.0
  0
LINE
  5
438
330
1F
100
AcDbEntity
  8
1-E
  6
Continuous
 62
     7
370
     9
100
AcDbLine
 10
3224.392548548175
 20
-994.2874986053579
 30
0.0
 11
3254.392548548175
 21
-994.2874986053579
 31
0.0
  0
LINE
  5
439
330
1F
100
AcDbEntity
  8
1-E
  6
Continuous
 62
     7
370
     9
100
AcDbLine
 10
3362.392548548175
 20
-907.2874986053586
 30
0.0
 11
3272.392548548175
 21
-907.2874986053586
 31
0.0
  0
LINE
  5
43A
330
1F
100
AcDbEntity
  8
1-E
  6
Continuous
 62
     7
370
     9
100
AcDbLine
 10
2981.392548548177
 20
-907.2874986053586
 30
0.0
 11
2891.392548548177
 21
-907.2874986053586
 31
0.0
  0
LINE
  5
43B
330
1F
100
AcDbEntity
  8
1-E
  6
Continuous
 62
     7
370
     9
100
AcDbLine
 10
2981.392548548177
 20
-889.2874986053579
 30
0.0
 11
2891.392548548177
 21
-898.2874986053582
 31
0.0
  0
ARC
  5
43C
330
1F
100
AcDbEntity
  8
1-E
  6
Continuous
 62
     7
370
     9
100
AcDbCircle
 10
2891.392548548177
 20
-902.7874986053585
 30
0.0
 40
4.500000000000001
100
AcDbArc
 50
90.0
 51
270.0
  0
ARC
  5
43D
330
1F
100
AcDbEntity
  8
1-E
  6
Continuous
 62
     7
370
     9
100
AcDbCircle
 10
3362.392548548175
 20
-902.7874986053585
 30
0.0
 40
4.500000000000001
100
AcDbArc
 50
270.0
 51
89.99999999999997
  0
LINE
  5
43E
330
1F
100
AcDbEntity
  8
1-E
  6
Continuous
 62
     7
370
     9
100
AcDbLine
 10
3362.392548548175
 20
-898.2874986053582
 30
0.0
 11
3272.392548548175
 21
-889.2874986053579
 31
0.0
  0
LINE
  5
43F
330
1F
100
AcDbEntity
  8
1-E
  6
Continuous
 62
     7
370
     9
100
AcDbLine
 10
3035.392548548176
 20
-889.2874986053579
 30
0.0
 11
2981.392548548177
 21
-889.2874986053579
 31
0.0
  0
ARC
  5
440
330
1F
100
AcDbEntity
  8
1-E
  6
Continuous
 62
     7
370
     9
100
AcDbCircle
 10
3035.392548548176
 20
-898.2874986053582
 30
0.0
 40
9.000000000000002
100
AcDbArc
 50
0.0
 51
90.0
  0
ARC
  5
441
330
1F
100
AcDbEntity
  8
1-E
  6
Continuous
 62
     7
370
     9
100
AcDbCircle
 10
3035.392548548176
 20
-898.2874986053582
 30
0.0
 40
9.000000000000002
100
AcDbArc
 50
270.0
 51
0.0
  0
ARC
  5
442
330
1F
100
AcDbEntity
  8
1-E
  6
Continuous
 62
     7
370
     9
100
AcDbCircle
 10
3218.392548548173
 20
-898.2874986053582
 30
0.0
 40
9.000000000000002
100
AcDbArc
 50
180.0
 51
270.0
  0
LINE
  5
443
330
1F
100
AcDbEntity
  8
1-E
  6
Continuous
 62
     7
370
     9
100
AcDbLine
 10
3218.392548548173
 20
-889.2874986053579
 30
0.0
 11
3272.392548548175
 21
-889.2874986053579
 31
0.0
  0
ARC
  5
444
330
1F
100
AcDbEntity
  8
1-E
  6
Continuous
 62
     7
370
     9
100
AcDbCircle
 10
3218.392548548173
 20
-898.2874986053582
 30
0.0
 40
9.000000000000002
100
AcDbArc
 50
90.0
 51
180.0
  0
LINE
  5
445
330
1F
100
AcDbEntity
  8
1-E
  6
Continuous
 62
     7
370
     9
100
AcDbLine
 10
3272.392548548175
 20
-989.7874986053586
 30
0.0
 11
3272.392548548175
 21
-907.2874986053586
 31
0.0
  0
ARC
  5
446
330
1F
100
AcDbEntity
  8
1-E
  6
Continuous
 62
     7
370
     9
100
AcDbCircle
 10
3249.892548548175
 20
-989.7874986053586
 30
0.0
 40
22.5
100
AcDbArc
 50
270.0
 51
0.0
  0
LINE
  5
447
330
1F
100
AcDbEntity
  8
1-E
  6
Continuous
 62
     7
370
     9
100
AcDbLine
 10
2981.392548548177
 20
-989.7874986053586
 30
0.0
 11
2981.392548548177
 21
-907.2874986053586
 31
0.0
  0
LINE
  5
448
330
1F
100
AcDbEntity
  8
1-E
  6
Continuous
 62
     7
370
     9
100
AcDbLine
 10
3003.892548548177
 20
-1012.287498605359
 30
0.0
 11
3249.892548548175
 21
-1012.287498605359
 31
0.0
  0
ARC
  5
449
330
1F
100
AcDbEntity
  8
1-E
  6
Continuous
 62
     7
370
     9
100
AcDbCircle
 10
3003.892548548177
 20
-989.7874986053586
 30
0.0
 40
22.5
100
AcDbArc
 50
180.0
 51
270.0
  0
LINE
  5
44A
330
1F
100
AcDbEntity
  8
1-E
  6
Continuous
 62
     7
370
     9
100
AcDbLine
 10
3006.892548548175
 20
-907.2874986053586
 30
0.0
 11
3035.392548548176
 21
-907.2874986053586
 31
0.0
  0
LINE
  5
44B
330
1F
100
AcDbEntity
  8
1-E
  6
Continuous
 62
     7
370
     9
100
AcDbLine
 10
2999.392548548175
 20
-914.7874986053586
 30
0.0
 11
2999.392548548175
 21
-994.2874986053579
 31
0.0
  0
ARC
  5
44C
330
1F
100
AcDbEntity
  8
1-E
  6
Continuous
 62
     7
370
     9
100
AcDbCircle
 10
3006.892548548175
 20
-914.7874986053586
 30
0.0
 40
7.5
100
AcDbArc
 50
90.0
 51
180.0
  0
LINE
  5
44D
330
1F
100
AcDbEntity
  8
1-E
  6
Continuous
 62
     7
370
     9
100
AcDbLine
 10
3246.892548548175
 20
-907.2874986053586
 30
0.0
 11
3218.392548548173
 21
-907.2874986053586
 31
0.0
  0
LINE
  5
44E
330
1F
100
AcDbEntity
  8
1-E
  6
Continuous
 62
     7
370
     9
100
AcDbLine
 10
3254.392548548175
 20
-914.7874986053586
 30
0.0
 11
3254.392548548175
 21
-994.2874986053579
 31
0.0
  0
ARC
  5
44F
330
1F
100
AcDbEntity
  8
1-E
  6
Continuous
 62
     7
370
     9
100
AcDbCircle
 10
3246.892548548175
 20
-914.7874986053586
 30
0.0
 40
7.5
100
AcDbArc
 50
0.0
 51
90.0
  0
LINE
  5
450
330
1F
100
AcDbEntity
  8
1-E
  6
Continuous
 62
     7
370
     9
100
AcDbLine
 10
3029.392548548175
 20
-982.2874986053586
 30
0.0
 11
3029.392548548175
 21
-994.2874986053579
 31
0.0
  0
ARC
  5
451
330
1F
100
AcDbEntity
  8
1-E
  6
Continuous
 62
     7
370
     9
100
AcDbCircle
 10
3032.392548548175
 20
-982.2874986053586
 30
0.0
 40
3.0
100
AcDbArc
 50
90.0
 51
180.0
  0
LINE
  5
452
330
1F
100
AcDbEntity
  8
1-E
  6
Continuous
 62
     7
370
     9
100
AcDbLine
 10
3041.392548548177
 20
-979.2874986053579
 30
0.0
 11
3032.392548548175
 21
-979.2874986053579
 31
0.0
  0
LINE
  5
453
330
1F
100
AcDbEntity
  8
1-E
  6
Continuous
 62
     7
370
     9
100
AcDbLine
 10
3044.392548548175
 20
-982.2874986053586
 30
0.0
 11
3044.392548548175
 21
-994.2874986053579
 31
0.0
  0
ARC
  5
454
330
1F
100
AcDbEntity
  8
1-E
  6
Continuous
 62
     7
370
     9
100
AcDbCircle
 10
3041.392548548177
 20
-982.2874986053586
 30
0.0
 40
3.0
100
AcDbArc
 50
0.0
 51
90.0
  0
LINE
  5
455
330
1F
100
AcDbEntity
  8
1-E
  6
Continuous
 62
     7
370
     9
100
AcDbLine
 10
3209.392548548175
 20
-982.2874986053586
 30
0.0
 11
3209.392548548175
 21
-994.2874986053579
 31
0.0
  0
ARC
  5
456
330
1F
100
AcDbEntity
  8
1-E
  6
Continuous
 62
     7
370
     9
100
AcDbCircle
 10
3212.392548548175
 20
-982.2874986053586
 30
0.0
 40
3.0
100
AcDbArc
 50
90.0
 51
180.0
  0
LINE
  5
457
330
1F
100
AcDbEntity
  8
1-E
  6
Continuous
 62
     7
370
     9
100
AcDbLine
 10
3221.392548548177
 20
-979.2874986053579
 30
0.0
 11
3212.392548548175
 21
-979.2874986053579
 31
0.0
  0
LINE
  5
458
330
1F
100
AcDbEntity
  8
1-E
  6
Continuous
 62
     7
370
     9
100
AcDbLine
 10
3224.392548548175
 20
-982.2874986053586
 30
0.0
 11
3224.392548548175
 21
-994.2874986053579
 31
0.0
  0
ARC
  5
459
330
1F
100
AcDbEntity
  8
1-E
  6
Continuous
 62
     7
370
     9
100
AcDbCircle
 10
3221.392548548177
 20
-982.2874986053586
 30
0.0
 40
3.0
100
AcDbArc
 50
0.0
 51
90.0
  0
ARC
  5
45A
330
1F
100
AcDbEntity
  8
1-E
  6
JWW_DASHED1
 62
     7
370
     9
100
AcDbCircle
 10
2891.392548548177
 20
-902.7874986053585
 30
0.0
 40
4.500000000000001
100
AcDbArc
 50
270.0
 51
90.0
  0
ARC
  5
45B
330
1F
100
AcDbEntity
  8
1-E
  6
JWW_DASHED1
 62
     7
370
     9
100
AcDbCircle
 10
3362.392548548175
 20
-902.7874986053585
 30
0.0
 40
4.500000000000001
100
AcDbArc
 50
90.0
 51
270.0
  0
LINE
  5
45C
330
1F
100
AcDbEntity
  8
1-E
  6
Continuous
 62
    40
370
    15
100
AcDbLine
 10
3314.392548548175
 20
-907.2874986053586
 30
0.0
 11
3314.392548548175
 21
-1087.287498605358
 31
0.0
  0
LINE
  5
45D
330
1F
100
AcDbEntity
  8
1-E
  6
Continuous
 62
    40
370
    15
100
AcDbLine
 10
2939.392548548175
 20
-907.2874986053586
 30
0.0
 11
2939.392548548175
 21
-1087.287498605358
 31
0.0
  0
LINE
  5
45E
330
1F
100
AcDbEntity
  8
1-E
  6
Continuous
 62
     7
370
     9
100
AcDbLine
 10
3354.17290389085
 20
-1198.504999416771
 30
0.0
 11
3420.725528367811
 21
-1198.504999416771
 31
0.0
  0
MTEXT
  5
45F
330
1F
100
AcDbEntity
  8
1-E
  6
Continuous
 62
     7
370
     0
100
AcDbMText
 10
3407.7841343948
 20
-1273.126018199574
 30
0.0
 40
91.44
 41
600.0
 46
0.0
 71
     7
 72
     1
  1
{\fＭＳ ゴシック|b0|i0|c128|p49;下地ベース}
 73
     1
 44
1.0
  0
LINE
  5
460
330
1F
100
AcDbEntity
  8
1-E
  6
JWW_HOJO
 62
   120
370
     5
100
AcDbLine
 10
2586.892548548175
 20
-1266.775523003595
 30
0.0
 11
3666.892548548172
 21
-1266.775523003595
 31
0.0
  0
LINE
  5
461
330
1F
100
AcDbEntity
  8
1-E
  6
JWW_HOJO
 62
   120
370
     5
100
AcDbLine
 10
2586.892548548175
 20
-465.4475616530246
 30
0.0
 11
2586.892548548175
 21
-1266.775523003595
 31
0.0
  0
LINE
  5
462
330
1F
100
AcDbEntity
  8
1-E
  6
JWW_HOJO
 62
   120
370
     5
100
AcDbLine
 10
2886.892548548175
 20
-705.4475616530246
 30
0.0
 11
3366.892548548175
 21
-705.4475616530246
 31
0.0
  0
LINE
  5
463
330
1F
100
AcDbEntity
  8
1-E
  6
JWW_HOJO
 62
   120
370
     5
100
AcDbLine
 10
2886.892548548175
 20
-585.4475616530246
 30
0.0
 11
3366.892548548175
 21
-585.4475616530246
 31
0.0
  0
LINE
  5
464
330
1F
100
AcDbEntity
  8
1-E
  6
JWW_HOJO
 62
   120
370
     5
100
AcDbLine
 10
2586.892548548175
 20
-465.4475616530246
 30
0.0
 11
3666.892548548172
 21
-465.4475616530246
 31
0.0
  0
LINE
  5
465
330
1F
100
AcDbEntity
  8
1-E
  6
JWW_HOJO
 62
   120
370
     5
100
AcDbLine
 10
3666.892548548172
 20
-465.4475616530246
 30
0.0
 11
3666.892548548172
 21
-1266.775523003595
 31
0.0
  0
LINE
  5
466
330
1F
100
AcDbEntity
  8
1-E
  6
JWW_HOJO
 62
   120
370
     5
100
AcDbLine
 10
3126.892548548175
 20
-892.7984910180317
 30
0.0
 11
3126.892548548175
 21
-1047.006274201672
 31
0.0
  0
LINE
  5
467
330
1F
100
AcDbEntity
  8
1-E
  6
Continuous
 62
   120
370
     5
100
AcDbLine
 10
2954.392548548175
 20
-3006.272313713113
 30
0.0
 11
2976.892548548175
 21
-2983.772313713112
 31
0.0
  0
LINE
  5
468
330
1F
100
AcDbEntity
  8
1-E
  6
Continuous
 62
    92
370
    13
100
AcDbLine
 10
2976.892548548175
 20
-2985.97303453484
 30
0.0
 11
3276.892548548175
 21
-2985.97303453484
 31
0.0
  0
LINE
  5
469
330
1F
100
AcDbEntity
  8
1-E
  6
Continuous
 62
    92
370
    13
100
AcDbLine
 10
2976.892548548175
 20
-2955.973034534839
 30
0.0
 11
2976.892548548175
 21
-2985.97303453484
 31
0.0
  0
LINE
  5
46A
330
1F
100
AcDbEntity
  8
1-E
  6
Continuous
 62
    92
370
    13
100
AcDbLine
 10
2976.892548548175
 20
-2955.973034534839
 30
0.0
 11
2954.392402748008
 21
-2955.973034534839
 31
0.0
  0
LINE
  5
46B
330
1F
100
AcDbEntity
  8
1-E
  6
Continuous
 62
    92
370
    13
100
AcDbLine
 10
3276.892548548175
 20
-2955.973034534839
 30
0.0
 11
3298.919836847288
 21
-2955.973034534839
 31
0.0
  0
LINE
  5
46C
330
1F
100
AcDbEntity
  8
1-E
  6
Continuous
 62
    92
370
    13
100
AcDbLine
 10
3276.892548548175
 20
-2955.973034534839
 30
0.0
 11
3276.892548548175
 21
-2985.97303453484
 31
0.0
  0
LINE
  5
46D
330
1F
100
AcDbEntity
  8
1-E
  6
Continuous
 62
    92
370
    13
100
AcDbLine
 10
3298.919691047118
 20
-2955.972478709091
 30
0.0
 11
3298.919691047118
 21
-3060.97303453484
 31
0.0
  0
LINE
  5
46E
330
1F
100
AcDbEntity
  8
1-E
  6
Continuous
 62
    92
370
    13
100
AcDbLine
 10
2954.392548548175
 20
-2955.972478709091
 30
0.0
 11
2954.392548548175
 21
-3060.97303453484
 31
0.0
  0
LINE
  5
46F
330
1F
100
AcDbEntity
  8
1-E
  6
Continuous
 62
    92
370
    13
100
AcDbLine
 10
2954.392548548175
 20
-3060.97303453484
 30
0.0
 11
3298.919691047118
 21
-3060.97303453484
 31
0.0
  0
LINE
  5
470
330
1F
100
AcDbEntity
  8
1-E
  6
Continuous
 62
   120
370
     5
100
AcDbLine
 10
3281.529489567193
 20
-3060.97303453484
 30
0.0
 11
3298.919691047118
 21
-3043.582833054913
 31
0.0
  0
LINE
  5
471
330
1F
100
AcDbEntity
  8
1-E
  6
Continuous
 62
   120
370
     5
100
AcDbLine
 10
2963.331438033248
 20
-3060.97303453484
 30
0.0
 11
3038.331438033248
 21
-2985.97303453484
 31
0.0
  0
LINE
  5
472
330
1F
100
AcDbEntity
  8
1-E
  6
Continuous
 62
   120
370
     5
100
AcDbLine
 10
3154.250268953593
 20
-3060.97303453484
 30
0.0
 11
3229.250268953593
 21
-2985.97303453484
 31
0.0
  0
LINE
  5
473
330
1F
100
AcDbEntity
  8
1-E
  6
Continuous
 62
   120
370
     5
100
AcDbLine
 10
3090.610658646793
 20
-3060.97303453484
 30
0.0
 11
3165.6106586468
 21
-2985.973034534834
 31
0.0
  0
LINE
  5
474
330
1F
100
AcDbEntity
  8
1-E
  6
Continuous
 62
   120
370
     5
100
AcDbLine
 10
3026.971048339993
 20
-3060.97303453484
 30
0.0
 11
3101.971048340004
 21
-2985.97303453483
 31
0.0
  0
LINE
  5
475
330
1F
100
AcDbEntity
  8
1-E
  6
Continuous
 62
   120
370
     5
100
AcDbLine
 10
3217.889879260393
 20
-3060.97303453484
 30
0.0
 11
3298.919691047118
 21
-2979.943222748114
 31
0.0
  0
LINE
  5
476
330
1F
100
AcDbEntity
  8
0-A_文字
  6
Continuous
 62
    92
370
    13
100
AcDbLine
 10
-5659.999495325861
 20
3730.000181455872
 30
0.0
 11
-5659.999495325861
 21
4000.000181455872
 31
0.0
  0
LINE
  5
477
330
1F
100
AcDbEntity
  8
0-A_文字
  6
Continuous
 62
    92
370
    13
100
AcDbLine
 10
-2228.571428571424
 20
3730.000181455872
 30
0.0
 11
-2228.571428571424
 21
4000.000181455872
 31
0.0
  0
LINE
  5
478
330
1F
100
AcDbEntity
  8
0-A_文字
  6
Continuous
 62
    92
370
    13
100
AcDbLine
 10
-5659.999495325861
 20
4000.000181455872
 30
0.0
 11
-2228.571428571424
 21
4000.000181455872
 31
0.0
  0
LINE
  5
479
330
1F
100
AcDbEntity
  8
0-A_文字
  6
Continuous
 62
    92
370
    13
100
AcDbLine
 10
-5659.999495325861
 20
3730.000181455872
 30
0.0
 11
-2228.571428571424
 21
3730.000181455872
 31
0.0
  0
MTEXT
  5
47A
330
1F
100
AcDbEntity
  8
0-A_文字
  6
Continuous
 62
    92
370
    13
100
AcDbMText
 10
-5592.499495325862
 20
3758.959004985284
 30
0.0
 40
147.9176470588236
 41
3300.000000000001
 46
0.0
 71
     7
 72
     1
  1
{\fＭＳ ゴシック|b0|i0|c128|p49;クローゼットドア　調整枠　間口９尺}
 73
     1
 44
1.0
  0
MTEXT
  5
47B
330
1F
100
AcDbEntity
  8
F-A_文字
  6
Continuous
 62
     7
370
     0
100
AcDbMText
 10
4439.917891251784
 20
-3887.143854850754
 30
0.0
 40
45.72
 41
240.0
 46
0.0
 71
     7
 72
     1
  1
{\fＭＳ ゴシック|b0|i0|c128|p49;ＤＡＴＥ}
 73
     1
 44
1.0
  0
MTEXT
  5
47C
330
1F
100
AcDbEntity
  8
F-A_文字
  6
Continuous
 62
     7
370
     0
100
AcDbMText
 10
4439.917891251784
 20
-4087.143857410839
 30
0.0
 40
45.72
 41
180.0
 46
0.0
 71
     7
 72
     1
  1
{\fＭＳ ゴシック|b0|i0|c128|p49;ＮＯ．}
 73
     1
 44
1.0
  0
MTEXT
  5
47D
330
1F
100
AcDbEntity
  8
F-A_文字
  6
Continuous
 62
     7
370
     0
100
AcDbMText
 10
2939.917396372138
 20
-3887.142460617774
 30
0.0
 40
45.72
 41
300.0
 46
0.0
 71
     7
 72
     1
  1
{\fＭＳ ゴシック|b0|i0|c128|p49;ＳＣＡＬＥ}
 73
     1
 44
1.0
  0
MTEXT
  5
47E
330
1F
100
AcDbEntity
  8
F-A_文字
  6
Continuous
 62
     7
370
     0
100
AcDbMText
 10
2939.917396372138
 20
-4087.14246317786
 30
0.0
 40
45.72
 41
240.0
 46
0.0
 71
     7
 72
     1
  1
{\fＭＳ ゴシック|b0|i0|c128|p49;ＦＩＬＥ}
 73
     1
 44
1.0
  0
MTEXT
  5
47F
330
1F
100
AcDbEntity
  8
F-A_文字
  6
Continuous
 62
     7
370
     0
100
AcDbMText
 10
1604.917396372138
 20
-4164.281754523929
 30
0.0
 40
101.44125
 41
1065.0
 46
0.0
 71
     7
 72
     1
  1
{\fＭＳ ゴシック|b0|i0|c128|p49;ウッドワン・・・}
 73
     1
 44
1.0
  0
MTEXT
  5
480
330
1F
100
AcDbEntity
  8
F-A_文字
  6
Continuous
 62
     7
370
     0
100
AcDbMText
 10
1394.917396372138
 20
-4096.140669266149
 30
0.0
 40
45.72
 41
120.0
 46
0.0
 71
     7
 72
     1
  1
{\fＭＳ ゴシック|b0|i0|c128|p49;株式}
 73
     1
 44
1.0
  0
MTEXT
  5
481
330
1F
100
AcDbEntity
  8
F-A_文字
  6
Continuous
 62
     7
370
     0
100
AcDbMText
 10
1394.917396372138
 20
-4168.140669266187
 30
0.0
 40
45.72
 41
120.0
 46
0.0
 71
     7
 72
     1
  1
{\fＭＳ ゴシック|b0|i0|c128|p49;会社}
 73
     1
 44
1.0
  0
MTEXT
  5
482
330
1F
100
AcDbEntity
  8
F-A_文字
  6
Continuous
 62
     7
370
     0
100
AcDbMText
 10
99.91854284331623
 20
-3887.139820871936
 30
0.0
 40
45.72
 41
180.0
 46
0.0
 71
     7
 72
     1
  1
{\fＭＳ ゴシック|b0|i0|c128|p49;図面名}
 73
     1
 44
1.0
  0
LINE
  5
483
330
1F
100
AcDbEntity
  8
F-0_補助線
  6
JWW_HOJO
 62
     7
370
     9
100
AcDbLine
 10
509.9185840832865
 20
-3795.000003092998
 30
0.0
 11
509.9185840832865
 21
-4195.000008247994
 31
0.0
  0
LINE
  5
484
330
1F
100
AcDbEntity
  8
F-1_枠
  6
Continuous
 62
   200
370
    20
100
AcDbLine
 10
4349.917891251784
 20
-3795.000003092998
 30
0.0
 11
4349.917891251784
 21
-4195.000008247994
 31
0.0
  0
LINE
  5
485
330
1F
100
AcDbEntity
  8
F-1_枠
  6
Continuous
 62
   200
370
    20
100
AcDbLine
 10
2849.917396372138
 20
-3795.000003092998
 30
0.0
 11
2849.917396372138
 21
-4195.000008247994
 31
0.0
  0
LINE
  5
486
330
1F
100
AcDbEntity
  8
F-1_枠
  6
Continuous
 62
   200
370
    20
100
AcDbLine
 10
9.918542843316231
 20
-3795.000003092998
 30
0.0
 11
9.918542843316231
 21
-4195.000008247994
 31
0.0
  0
LINE
  5
487
330
1F
100
AcDbEntity
  8
F-0_補助線
  6
JWW_HOJO
 62
     7
370
     9
100
AcDbLine
 10
2939.917396372138
 20
-3795.000003092998
 30
0.0
 11
2939.917396372138
 21
-4195.000008247994
 31
0.0
  0
LINE
  5
488
330
1F
100
AcDbEntity
  8
F-0_補助線
  6
JWW_HOJO
 62
     7
370
     9
100
AcDbLine
 10
99.91854284331623
 20
-3795.000003092998
 30
0.0
 11
99.91854284331623
 21
-4195.000008247994
 31
0.0
  0
LINE
  5
489
330
1F
100
AcDbEntity
  8
F-0_補助線
  6
JWW_HOJO
 62
     7
370
     9
100
AcDbLine
 10
4439.917891251784
 20
-3795.000003092998
 30
0.0
 11
4439.917891251784
 21
-4195.000008247994
 31
0.0
  0
LINE
  5
48A
330
1F
100
AcDbEntity
  8
F-0_補助線
  6
JWW_HOJO
 62
     7
370
     9
100
AcDbLine
 10
-5087.628710189611
 20
-3795.000003092999
 30
0.0
 11
-5087.628710189611
 21
-4205.000164959882
 31
0.0
  0
LINE
  5
48B
330
1F
100
AcDbEntity
  8
F-0_補助線
  6
JWW_HOJO
 62
     7
370
     9
100
AcDbLine
 10
-50.08145715668377
 20
-3795.000003092998
 30
0.0
 11
-50.08145715668377
 21
-4195.000008247994
 31
0.0
  0
LINE
  5
48C
330
1F
100
AcDbEntity
  8
F-0_補助線
  6
JWW_HOJO
 62
     7
370
     9
100
AcDbLine
 10
3764.917643811962
 20
-3795.000003092998
 30
0.0
 11
3764.917643811962
 21
-4195.000008247994
 31
0.0
  0
MTEXT
  5
48D
330
1F
100
AcDbEntity
  8
F-A_文字
  6
Continuous
 62
     7
370
     0
100
AcDbMText
 10
3689.917643811962
 20
-3946.903115907308
 30
0.0
 40
76.19999999999999
 41
150.0
 46
0.0
 71
     7
 72
     1
  1
{\fＭＳ ゴシック|b0|i0|c128|p49;1/5}
 73
     1
 44
1.0
  0
LINE
  5
48E
330
1F
100
AcDbEntity
  8
F-0_補助線
  6
JWW_HOJO
 62
     7
370
     9
100
AcDbLine
 10
1349.918584083287
 20
-3795.000003092998
 30
0.0
 11
1349.918584083287
 21
-4195.000008247994
 31
0.0
  0
LINE
  5
48F
330
1F
100
AcDbEntity
  8
F-0_補助線
  6
JWW_HOJO
 62
     7
370
     9
100
AcDbLine
 10
4889.917891251784
 20
-3795.000003092998
 30
0.0
 11
4889.917891251784
 21
-4195.000008247994
 31
0.0
  0
MTEXT
  5
490
330
1F
100
AcDbEntity
  8
F-A_文字
  6
Continuous
 62
     7
370
     0
100
AcDbMText
 10
4889.917891251784
 20
-3945.570773120548
 30
0.0
 40
78.86699999999999
 41
517.5
 46
0.0
 71
     7
 72
     1
  1
{\fＭＳ ゴシック|b0|i0|c128|p49;2021.04.01}
 73
     1
 44
1.0
  0
MTEXT
  5
491
330
1F
100
AcDbEntity
  8
F-A_文字
  6
Continuous
 62
     7
370
     0
100
AcDbMText
 10
1349.918584083287
 20
-3945.948482732445
 30
0.0
 40
78.105
 41
615.0
 46
0.0
 71
     7
 72
     1
  1
{\fＭＳ ゴシック|b0|i0|c128|p49;建具納まり図}
 73
     1
 44
1.0
  0
MTEXT
  5
492
330
1F
100
AcDbEntity
  8
F-A_文字
  6
Continuous
 62
     7
370
     0
100
AcDbMText
 10
509.9185840832865
 20
-3956.425201962234
 30
0.0
 40
57.15
 41
675.0
 46
0.0
 71
     7
 72
     1
  1
{\fＭＳ ゴシック|b0|i0|c128|p49;ＰＩＮＯＥＡＲＴＨ}
 73
     1
 44
1.0
  0
MTEXT
  5
493
330
1F
100
AcDbEntity
  8
F-A_文字
  6
Continuous
 62
     7
370
     0
100
AcDbMText
 10
-5080.081323642279
 20
-4045.062971792676
 30
0.0
 40
79.87392857142851
 41
4402.5
 46
0.0
 71
     7
 72
     1
  1
{\fＭＳ ゴシック|b0|i0|c128|p49;ピノアース　クローゼットドア  調整枠　３方枠＋埋め込みレール　枠外H2,348　枠外W2,568}
 73
     1
 44
1.0
  0
MTEXT
  5
494
330
1F
100
AcDbEntity
  8
F-A_文字
  6
Continuous
 62
     7
370
     9
100
AcDbMText
 10
5096.167700144057
 20
-4147.857012699985
 30
0.0
 40
74.295
 41
97.5
 46
0.0
 71
     7
 72
     1
  1
{\fＭＳ ゴシック|b0|i0|c128|p49;04}
 73
     1
 44
1.0
  0
ENDSEC
  0
SECTION
  2
OBJECTS
  0
DICTIONARY
  5
C
330
0
100
AcDbDictionary
281
     1
  3
ACAD_GROUP
350
D
  3
ACAD_LAYOUT
350
1A
  3
ACAD_MATERIAL
350
3B
  3
ACAD_MLEADERSTYLE
350
4BD
  3
ACAD_MLINESTYLE
350
17
  3
ACAD_PLOTSETTINGS
350
19
  3
ACAD_PLOTSTYLENAME
350
E
  3
ACAD_TABLESTYLE
350
4BC
  3
ACAD_VISUALSTYLE
350
2A
  0
DICTIONARY
  5
D
102
{ACAD_REACTORS
330
C
102
}
330
C
100
AcDbDictionary
281
     1
  0
DICTIONARY
  5
1A
102
{ACAD_REACTORS
330
C
102
}
330
C
100
AcDbDictionary
281
     1
  3
Layout1
350
1E
  3
Layout2
350
26
  3
Model
350
22
  0
DICTIONARY
  5
3B
102
{ACAD_REACTORS
330
C
102
}
330
C
100
AcDbDictionary
281
     1
  3
ByBlock
350
3D
  3
ByLayer
350
3C
  3
Global
350
3E
  0
DICTIONARY
  5
4BD
102
{ACAD_REACTORS
330
C
102
}
330
C
100
AcDbDictionary
281
     1
  0
DICTIONARY
  5
17
102
{ACAD_REACTORS
330
C
102
}
330
C
100
AcDbDictionary
281
     1
  3
Standard
350
18
  0
DICTIONARY
  5
19
102
{ACAD_REACTORS
330
C
102
}
330
C
100
AcDbDictionary
281
     1
  0
ACDBDICTIONARYWDFLT
  5
E
102
{ACAD_REACTORS
330
C
102
}
330
C
100
AcDbDictionary
281
     1
  3
Normal
350
F
100
AcDbDictionaryWithDefault
340
F
  0
DICTIONARY
  5
4BC
102
{ACAD_REACTORS
330
C
102
}
330
C
100
AcDbDictionary
281
     1
  0
DICTIONARY
  5
2A
102
{ACAD_REACTORS
330
C
102
}
330
C
100
AcDbDictionary
281
     1
  3
2dWireframe
350
2F
  3
3D Hidden
350
31
  3
3dWireframe
350
30
  3
Basic
350
32
  3
Brighten
350
36
  3
ColorChange
350
3A
  3
Conceptual
350
34
  3
Dim
350
35
  3
Facepattern
350
39
  3
Flat
350
2B
  3
FlatWithEdges
350
2C
  3
Gouraud
350
2D
  3
GouraudWithEdges
350
2E
  3
Linepattern
350
38
  3
Realistic
350
33
  3
Thicken
350
37
  0
LAYOUT
  5
1E
102
{ACAD_REACTORS
330
1A
102
}
330
1A
100
AcDbPlotSettings
  1

  2
none_device
  4

  6

 40
0.0
 41
0.0
 42
0.0
 43
0.0
 44
0.0
 45
0.0
 46
0.0
 47
0.0
 48
0.0
 49
0.0
140
0.0
141
0.0
142
1.0
143
1.0
 70
   688
 72
     0
 73
     0
 74
     5
  7

 75
    16
 76
     0
 77
     5
 78
   300
147
1.0
148
0.0
149
0.0
100
AcDbLayout
  1
Layout1
 70
     1
 71
     1
 10
0.0
 20
0.0
 11
420.0
 21
297.0
 12
0.0
 22
0.0
 32
0.0
 14
1.000000000000000E+20
 24
1.000000000000000E+20
 34
1.000000000000000E+20
 15
-1.000000000000000E+20
 25
-1.000000000000000E+20
 35
-1.000000000000000E+20
146
0.0
 13
0.0
 23
0.0
 33
0.0
 16
1.0
 26
0.0
 36
0.0
 17
0.0
 27
1.0
 37
0.0
 76
     0
330
1B
  0
LAYOUT
  5
26
102
{ACAD_REACTORS
330
1A
102
}
330
1A
100
AcDbPlotSettings
  1

  2
none_device
  4

  6

 40
0.0
 41
0.0
 42
0.0
 43
0.0
 44
0.0
 45
0.0
 46
0.0
 47
0.0
 48
0.0
 49
0.0
140
0.0
141
0.0
142
1.0
143
1.0
 70
   688
 72
     0
 73
     0
 74
     5
  7

 75
    16
 76
     0
 77
     5
 78
   300
147
1.0
148
0.0
149
0.0
100
AcDbLayout
  1
Layout2
 70
     1
 71
     2
 10
0.0
 20
0.0
 11
0.0
 21
0.0
 12
0.0
 22
0.0
 32
0.0
 14
0.0
 24
0.0
 34
0.0
 15
0.0
 25
0.0
 35
0.0
146
0.0
 13
0.0
 23
0.0
 33
0.0
 16
1.0
 26
0.0
 36
0.0
 17
0.0
 27
1.0
 37
0.0
 76
     0
330
23
  0
LAYOUT
  5
22
102
{ACAD_REACTORS
330
1A
102
}
330
1A
100
AcDbPlotSettings
  1

  2
none_device
  4

  6

 40
0.0
 41
0.0
 42
0.0
 43
0.0
 44
0.0
 45
0.0
 46
0.0
 47
0.0
 48
0.0
 49
0.0
140
0.0
141
0.0
142
1.0
143
1.0
 70
  1712
 72
     0
 73
     0
 74
     0
  7

 75
     0
 76
     0
 77
     5
 78
   300
147
1.0
148
0.0
149
0.0
100
AcDbLayout
  1
Model
 70
     1
 71
     0
 10
-6300.0
 20
-4455.0
 11
6300.0
 21
4455.0
 12
0.0
 22
0.0
 32
0.0
 14
-6300.0
 24
-4455.0
 34
0.0
 15
6300.0
 25
4455.0
 35
0.0
146
0.0
 13
0.0
 23
0.0
 33
0.0
 16
1.0
 26
0.0
 36
0.0
 17
0.0
 27
1.0
 37
0.0
 76
     0
330
1F
331
29
  0
MATERIAL
  5
3D
102
{ACAD_REACTORS
330
3B
102
}
330
3B
100
AcDbMaterial
  1
ByBlock
 72
     1
 94
      127
  0
MATERIAL
  5
3C
102
{ACAD_REACTORS
330
3B
102
}
330
3B
100
AcDbMaterial
  1
ByLayer
 72
     1
 94
      127
  0
MATERIAL
  5
3E
102
{ACAD_REACTORS
330
3B
102
}
330
3B
100
AcDbMaterial
  1
Global
 72
     1
 94
      127
  0
MLINESTYLE
  5
18
102
{ACAD_REACTORS
330
17
102
}
330
17
100
AcDbMlineStyle
  2
Standard
 70
     0
  3

 62
   256
 51
90.0
 52
90.0
 71
     2
 49
0.5
 62
   256
  6
BYLAYER
 49
-0.5
 62
   256
  6
BYLAYER
  0
ACDBPLACEHOLDER
  5
F
102
{ACAD_REACTORS
330
E
102
}
330
E
  0
VISUALSTYLE
  5
2F
102
{ACAD_REACTORS
330
2A
102
}
330
2A
100
AcDbVisualStyle
  2
2dWireframe
 70
     4
177
     2
291
     0
 71
     0
176
     1
 72
     2
176
     1
 73
     0
176
     1
 90
        0
176
     1
 40
-0.6
176
     1
 41
-30.0
176
     1
 62
     5
 63
     7
421
 16777215
176
     1
 74
     1
176
     1
 91
        4
176
     1
 64
     7
176
     1
 65
   257
176
     1
 75
     1
176
     1
175
     1
176
     1
 42
1.0
176
     1
 92
        0
176
     1
 66
   257
176
     1
 43
1.0
176
     1
 76
     1
176
     1
 77
     6
176
     1
 78
     2
176
     1
 67
     7
176
     1
 79
     5
176
     1
170
     0
176
     1
171
     0
176
     1
290
     0
176
     1
 93
        1
176
     1
 44
0.0
176
     1
173
     0
176
     1
  0
VISUALSTYLE
  5
31
102
{ACAD_REACTORS
330
2A
102
}
330
2A
100
AcDbVisualStyle
  2
3D Hidden
 70
     6
177
     2
291
     0
 71
     1
176
     1
 72
     2
176
     1
 73
     2
176
     1
 90
        0
176
     1
 40
-0.6
176
     1
 41
-30.0
176
     1
 62
     5
 63
     7
421
 16777215
176
     1
 74
     2
176
     1
 91
        2
176
     1
 64
     7
176
     1
 65
   257
176
     1
 75
     2
176
     1
175
     1
176
     1
 42
40.0
176
     1
 92
        0
176
     1
 66
   257
176
     1
 43
1.0
176
     1
 76
     1
176
     1
 77
     6
176
     1
 78
     2
176
     1
 67
     7
176
     1
 79
     3
176
     1
170
     0
176
     1
171
     0
176
     1
290
     0
176
     1
 93
        1
176
     1
 44
0.0
176
     1
173
     0
176
     1
  0
VISUALSTYLE
  5
30
102
{ACAD_REACTORS
330
2A
102
}
330
2A
100
AcDbVisualStyle
  2
3dWireframe
 70
     5
177
     2
291
     0
 71
     0
176
     1
 72
     2
176
     1
 73
     0
176
     1
 90
        0
176
     1
 40
-0.6
176
     1
 41
-30.0
176
     1
 62
     5
 63
     7
421
 16777215
176
     1
 74
     1
176
     1
 91
        4
176
     1
 64
     7
176
     1
 65
   257
176
     1
 75
     1
176
     1
175
     1
176
     1
 42
1.0
176
     1
 92
        0
176
     1
 66
   257
176
     1
 43
1.0
176
     1
 76
     1
176
     1
 77
     6
176
     1
 78
     2
176
     1
 67
     7
176
     1
 79
     5
176
     1
170
     0
176
     1
171
     0
176
     1
290
     0
176
     1
 93
        1
176
     1
 44
0.0
176
     1
173
     0
176
     1
  0
VISUALSTYLE
  5
32
102
{ACAD_REACTORS
330
2A
102
}
330
2A
100
AcDbVisualStyle
  2
Basic
 70
     7
177
     2
291
     1
 71
     1
176
     1
 72
     0
176
     1
 73
     1
176
     1
 90
        0
176
     1
 40
-0.6
176
     1
 41
-30.0
176
     1
 62
     5
 63
     7
421
 16777215
176
     1
 74
     0
176
     1
 91
        4
176
     1
 64
     7
176
     1
 65
   257
176
     1
 75
     1
176
     1
175
     1
176
     1
 42
1.0
176
     1
 92
        8
176
     1
 66
     7
176
     1
 43
1.0
176
     1
 76
     1
176
     1
 77
     6
176
     1
 78
     2
176
     1
 67
     7
176
     1
 79
     5
176
     1
170
     0
176
     1
171
     0
176
     1
290
     0
176
     1
 93
        1
176
     1
 44
0.0
176
     1
173
     0
176
     1
  0
VISUALSTYLE
  5
36
102
{ACAD_REACTORS
330
2A
102
}
330
2A
100
AcDbVisualStyle
  2
Brighten
 70
    12
177
     2
291
     1
 71
     2
176
     1
 72
     2
176
     1
 73
     0
176
     1
 90
        0
176
     1
 40
-0.6
176
     1
 41
-30.0
176
     1
 62
     5
 63
     7
421
 16777215
176
     1
 74
     1
176
     1
 91
        4
176
     1
 64
     7
176
     1
 65
   257
176
     1
 75
     1
176
     1
175
     1
176
     1
 42
1.0
176
     1
 92
        8
176
     1
 66
     7
176
     1
 43
1.0
176
     1
 76
     1
176
     1
 77
     6
176
     1
 78
     2
176
     1
 67
     7
176
     1
 79
     5
176
     1
170
     0
176
     1
171
     0
176
     1
290
     0
176
     1
 93
        1
176
     1
 44
50.0
176
     1
173
     0
176
     1
  0
VISUALSTYLE
  5
3A
102
{ACAD_REACTORS
330
2A
102
}
330
2A
100
AcDbVisualStyle
  2
ColorChange
 70
    16
177
     2
291
     1
 71
     2
176
     1
 72
     2
176
     1
 73
     3
176
     1
 90
        0
176
     1
 40
-0.6
176
     1
 41
-30.0
176
     1
 62
     5
 63
     8
421
  8421504
176
     1
 74
     1
176
     1
 91
        4
176
     1
 64
     7
176
     1
 65
   257
176
     1
 75
     1
176
     1
175
     1
176
     1
 42
1.0
176
     1
 92
        8
176
     1
 66
     8
424
  8421504
176
     1
 43
1.0
176
     1
 76
     1
176
     1
 77
     6
176
     1
 78
     2
176
     1
 67
     7
176
     1
 79
     5
176
     1
170
     0
176
     1
171
     0
176
     1
290
     0
176
     1
 93
        1
176
     1
 44
0.0
176
     1
173
     0
176
     1
  0
VISUALSTYLE
  5
34
102
{ACAD_REACTORS
330
2A
102
}
330
2A
100
AcDbVisualStyle
  2
Conceptual
 70
     9
177
     2
291
     0
 71
     3
176
     1
 72
     2
176
     1
 73
     0
176
     1
 90
        0
176
     1
 40
-0.6
176
     1
 41
-30.0
176
     1
 62
     5
 63
     7
421
 16777215
176
     1
 74
     2
176
     1
 91
        2
176
     1
 64
     7
176
     1
 65
   257
176
     1
 75
     1
176
     1
175
     1
176
     1
 42
40.0
176
     1
 92
        8
176
     1
 66
     7
176
     1
 43
1.0
176
     1
 76
     1
176
     1
 77
     6
176
     1
 78
     2
176
     1
 67
     7
176
     1
 79
     3
176
     1
170
     0
176
     1
171
     0
176
     1
290
     0
176
     1
 93
        1
176
     1
 44
0.0
176
     1
173
     0
176
     1
  0
VISUALSTYLE
  5
35
102
{ACAD_REACTORS
330
2A
102
}
330
2A
100
AcDbVisualStyle
  2
Dim
 70
    11
177
     2
291
     1
 71
     2
176
     1
 72
     2
176
     1
 73
     0
176
     1
 90
        0
176
     1
 40
-0.6
176
     1
 41
-30.0
176
     1
 62
     5
 63
     7
421
 16777215
176
     1
 74
     1
176
     1
 91
        4
176
     1
 64
     7
176
     1
 65
   257
176
     1
 75
     1
176
     1
175
     1
176
     1
 42
1.0
176
     1
 92
        8
176
     1
 66
     7
176
     1
 43
1.0
176
     1
 76
     1
176
     1
 77
     6
176
     1
 78
     2
176
     1
 67
     7
176
     1
 79
     5
176
     1
170
     0
176
     1
171
     0
176
     1
290
     0
176
     1
 93
        1
176
     1
 44
-50.0
176
     1
173
     0
176
     1
  0
VISUALSTYLE
  5
39
102
{ACAD_REACTORS
330
2A
102
}
330
2A
100
AcDbVisualStyle
  2
Facepattern
 70
    15
177
     2
291
     1
 71
     2
176
     1
 72
     2
176
     1
 73
     0
176
     1
 90
        0
176
     1
 40
-0.6
176
     1
 41
-30.0
176
     1
 62
     5
 63
     7
421
 16777215
176
     1
 74
     1
176
     1
 91
        4
176
     1
 64
     7
176
     1
 65
   257
176
     1
 75
     1
176
     1
175
     1
176
     1
 42
1.0
176
     1
 92
        8
176
     1
 66
     7
176
     1
 43
1.0
176
     1
 76
     1
176
     1
 77
     6
176
     1
 78
     2
176
     1
 67
     7
176
     1
 79
     5
176
     1
170
     0
176
     1
171
     0
176
     1
290
     0
176
     1
 93
        1
176
     1
 44
0.0
176
     1
173
     0
176
     1
  0
VISUALSTYLE
  5
2B
102
{ACAD_REACTORS
330
2A
102
}
330
2A
100
AcDbVisualStyle
  2
Flat
 70
     0
177
     2
291
     1
 71
     2
176
     1
 72
     1
176
     1
 73
     1
176
     1
 90
        2
176
     1
 40
-0.6
176
     1
 41
30.0
176
     1
 62
     5
 63
     7
421
 16777215
176
     1
 74
     0
176
     1
 91
        4
176
     1
 64
     7
176
     1
 65
   257
176
     1
 75
     1
176
     1
175
     1
176
     1
 42
1.0
176
     1
 92
        8
176
     1
 66
     7
176
     1
 43
1.0
176
     1
 76
     1
176
     1
 77
     6
176
     1
 78
     2
176
     1
 67
     7
176
     1
 79
     5
176
     1
170
     0
176
     1
171
     0
176
     1
290
     0
176
     1
 93
       13
176
     1
 44
0.0
176
     1
173
     0
176
     1
  0
VISUALSTYLE
  5
2C
102
{ACAD_REACTORS
330
2A
102
}
330
2A
100
AcDbVisualStyle
  2
FlatWithEdges
 70
     1
177
     2
291
     1
 71
     2
176
     1
 72
     1
176
     1
 73
     1
176
     1
 90
        2
176
     1
 40
-0.6
176
     1
 41
30.0
176
     1
 62
     5
 63
     7
421
 16777215
176
     1
 74
     1
176
     1
 91
        4
176
     1
 64
     7
176
     1
 65
   257
176
     1
 75
     1
176
     1
175
     1
176
     1
 42
1.0
176
     1
 92
        0
176
     1
 66
   257
176
     1
 43
1.0
176
     1
 76
     1
176
     1
 77
     6
176
     1
 78
     2
176
     1
 67
     7
176
     1
 79
     5
176
     1
170
     0
176
     1
171
     0
176
     1
290
     0
176
     1
 93
       13
176
     1
 44
0.0
176
     1
173
     0
176
     1
  0
VISUALSTYLE
  5
2D
102
{ACAD_REACTORS
330
2A
102
}
330
2A
100
AcDbVisualStyle
  2
Gouraud
 70
     2
177
     2
291
     1
 71
     2
176
     1
 72
     2
176
     1
 73
     1
176
     1
 90
        2
176
     1
 40
-0.6
176
     1
 41
30.0
176
     1
 62
     5
 63
     7
421
 16777215
176
     1
 74
     0
176
     1
 91
        4
176
     1
 64
     7
176
     1
 65
   257
176
     1
 75
     1
176
     1
175
     1
176
     1
 42
1.0
176
     1
 92
        0
176
     1
 66
     7
176
     1
 43
1.0
176
     1
 76
     1
176
     1
 77
     6
176
     1
 78
     2
176
     1
 67
     7
176
     1
 79
     5
176
     1
170
     0
176
     1
171
     0
176
     1
290
     0
176
     1
 93
       13
176
     1
 44
0.0
176
     1
173
     0
176
     1
  0
VISUALSTYLE
  5
2E
102
{ACAD_REACTORS
330
2A
102
}
330
2A
100
AcDbVisualStyle
  2
GouraudWithEdges
 70
     3
177
     2
291
     1
 71
     2
176
     1
 72
     2
176
     1
 73
     1
176
     1
 90
        2
176
     1
 40
-0.6
176
     1
 41
30.0
176
     1
 62
     5
 63
     7
421
 16777215
176
     1
 74
     1
176
     1
 91
        4
176
     1
 64
     7
176
     1
 65
   257
176
     1
 75
     1
176
     1
175
     1
176
     1
 42
1.0
176
     1
 92
        0
176
     1
 66
   257
176
     1
 43
1.0
176
     1
 76
     1
176
     1
 77
     6
176
     1
 78
     2
176
     1
 67
     7
176
     1
 79
     5
176
     1
170
     0
176
     1
171
     0
176
     1
290
     0
176
     1
 93
       13
176
     1
 44
0.0
176
     1
173
     0
176
     1
  0
VISUALSTYLE
  5
38
102
{ACAD_REACTORS
330
2A
102
}
330
2A
100
AcDbVisualStyle
  2
Linepattern
 70
    14
177
     2
291
     1
 71
     2
176
     1
 72
     2
176
     1
 73
     0
176
     1
 90
        0
176
     1
 40
-0.6
176
     1
 41
-30.0
176
     1
 62
     5
 63
     7
421
 16777215
176
     1
 74
     1
176
     1
 91
        4
176
     1
 64
     7
176
     1
 65
   257
176
     1
 75
     7
176
     1
175
     7
176
     1
 42
1.0
176
     1
 92
        8
176
     1
 66
     7
176
     1
 43
1.0
176
     1
 76
     1
176
     1
 77
     6
176
     1
 78
     2
176
     1
 67
     7
176
     1
 79
     5
176
     1
170
     0
176
     1
171
     0
176
     1
290
     0
176
     1
 93
        1
176
     1
 44
0.0
176
     1
173
     0
176
     1
  0
VISUALSTYLE
  5
33
102
{ACAD_REACTORS
330
2A
102
}
330
2A
100
AcDbVisualStyle
  2
Realistic
 70
     8
177
     2
291
     0
 71
     2
176
     1
 72
     2
176
     1
 73
     0
176
     1
 90
        0
176
     1
 40
-0.6
176
     1
 41
-30.0
176
     1
 62
     5
 63
     7
421
 16777215
176
     1
 74
     1
176
     1
 91
        0
176
     1
 64
     7
176
     1
 65
   257
176
     1
 75
     1
176
     1
175
     1
176
     1
 42
1.0
176
     1
 92
        8
176
     1
 66
     8
424
  7895160
176
     1
 43
1.0
176
     1
 76
     1
176
     1
 77
     6
176
     1
 78
     2
176
     1
 67
     7
176
     1
 79
     5
176
     1
170
     0
176
     1
171
     0
176
     1
290
     0
176
     1
 93
       13
176
     1
 44
0.0
176
     1
173
     0
176
     1
  0
VISUALSTYLE
  5
37
102
{ACAD_REACTORS
330
2A
102
}
330
2A
100
AcDbVisualStyle
  2
Thicken
 70
    13
177
     2
291
     1
 71
     2
176
     1
 72
     2
176
     1
 73
     0
176
     1
 90
        0
176
     1
 40
-0.6
176
     1
 41
-30.0
176
     1
 62
     5
 63
     7
421
 16777215
176
     1
 74
     1
176
     1
 91
        4
176
     1
 64
     7
176
     1
 65
   257
176
     1
 75
     1
176
     1
175
     1
176
     1
 42
1.0
176
     1
 92
       12
176
     1
 66
     7
176
     1
 43
1.0
176
     1
 76
     1
176
     1
 77
     6
176
     1
 78
     2
176
     1
 67
     7
176
     1
 79
     5
176
     1
170
     0
176
     1
171
     0
176
     1
290
     0
176
     1
 93
        1
176
     1
 44
0.0
176
     1
173
     0
176
     1
  0
ENDSEC
  0
EOF
